  0
SECTION
  2
HEADER
  9
$ACADVER
  1
AC1021
  9
$DWGCODEPAGE
  3
ANSI_1252
  9
$EXTMAX
 10
297.0
 20
210.0
 30
0.0
  9
$EXTMIN
 10
0.0
 20
0.0
 30
0.0
  9
$LIMMIN
 10
0.0
 20
0.0
  9
$LIMMAX
 10
297.0
 20
210.0
  9
$VIEWCTR
 10
148.5
 20
105.0
  9
$VIEWSIZE
 40
210.0
  9
$CLAYER
  8
0
  9
$LTSCALE
 40
16.335
  9
$CELTYPE
  6
BYLAYER
  9
$DIMSCALE
 40
1.0
  9
$DIMASZ
 40
3.0
  9
$DIMEXO
 40
0.5
  9
$DIMDLI
 40
11.286
  9
$DIMEXE
 40
1.5
  9
$DIMCEN
 40
2.673
  9
$DIMLFAC
 40
1.0
  9
$DIMBLK
  1
_FILLED
  9
$DIMALT
 70
0
  9
$DIMALTF
 40
0.0393700787
  9
$DIMTXT
 40
3.0
  9
$DIMTOL
 70
1
  9
$DIMLIM
 70
0
  9
$DIMTFAC
 40
1.0
  9
$DIMTP
 40
0.01
  9
$DIMTM
 40
0.01
  9
$DIMGAP
 40
0.625
  9
$DIMDSEP
 70
44
  9
$AUNITS
 70
0
  9
$PDMODE
 70
3
  9
$PDSIZE
 40
3.0
  9
$HANDSEED
  5
309
  9
$TILEMODE
 70
1
  9
$MEASUREMENT
 70
1
  9
$INSUNITS
 70
4
  0
ENDSEC
  0
SECTION
  2
CLASSES
  0
CLASS
  1
ACDBDICTIONARYWDFLT
  2
AcDbDictionaryWithDefault
  3
AutoCAD 2000
 90
0
 91
1
280
0
281
0
  0
CLASS
  1
ACDBPLACEHOLDER
  2
AcDbPlaceHolder
  3
AutoCAD 2000
 90
0
 91
1
280
0
281
0
  0
CLASS
  1
LAYOUT
  2
AcDbLayout
  3
AutoCAD 2000
 90
0
 91
0
280
0
281
0
  0
ENDSEC
  0
SECTION
  2
TABLES
  0
TABLE
  2
VPORT
  5
8
100
AcDbSymbolTable
 70
2
  0
VPORT
  5
1F4
100
AcDbSymbolTableRecord
100
AcDbViewportTableRecord
  2
*ACTIVE
 70
0
 10
0.0
 20
0.0
 11
1.0
 21
1.0
 12
148.5
 22
105.0
 13
0.0
 23
0.0
 14
1.0
 24
1.0
 15
0.0
 25
0.0
 16
0.0
 26
0.0
 36
1.0
 17
0.0
 27
0.0
 37
0.0
 40
210.0
 41
1.4142857143
 42
50.0
 43
0.0
 44
0.0
 50
0.0
 51
0.0
 71
0
 72
100
 73
1
 74
1
 75
0
 76
0
 77
0
 78
0
  0
ENDTAB
  0
TABLE
  2
LTYPE
  5
5
100
AcDbSymbolTable
 70
6
  0
LTYPE
  5
14
100
AcDbSymbolTableRecord
100
AcDbLinetypeTableRecord
  2
BYBLOCK
 70
0
  3

 72
65
 73
0
 40
0.0
  0
LTYPE
  5
15
100
AcDbSymbolTableRecord
100
AcDbLinetypeTableRecord
  2
BYLAYER
 70
0
  3

 72
65
 73
0
 40
0.0
  0
LTYPE
  5
16
100
AcDbSymbolTableRecord
100
AcDbLinetypeTableRecord
  2
CONTINUOUS
 70
64
  3
Solid line
 72
65
 73
0
 40
0.0
  0
LTYPE
  5
1F5
100
AcDbSymbolTableRecord
100
AcDbLinetypeTableRecord
  2
CENTER
 70
64
  3
____ _ ____ _ ____ _ ____ _ ____ _ ____ _ ____
 72
65
 73
4
 40
0.6
 49
0.375
 74
0
 49
-0.075
 74
0
 49
0.075
 74
0
 49
-0.075
 74
0
  0
LTYPE
  5
1F6
100
AcDbSymbolTableRecord
100
AcDbLinetypeTableRecord
  2
HIDDEN
 70
64
  3
- - - - - - - - - - - - - - - - - - - -
 72
65
 73
2
 40
0.2
 49
0.1
 74
0
 49
-0.1
 74
0
  0
LTYPE
  5
1F7
100
AcDbSymbolTableRecord
100
AcDbLinetypeTableRecord
  2
PHANTOM
 70
64
  3
_____ _ _ _____ _ _ _____ _ _ _____
 72
65
 73
6
 40
0.8
 49
0.45
 74
0
 49
-0.05
 74
0
 49
0.1
 74
0
 49
-0.05
 74
0
 49
0.1
 74
0
 49
-0.05
 74
0
  0
LTYPE
  5
1F8
100
AcDbSymbolTableRecord
100
AcDbLinetypeTableRecord
  2
DOT
 70
64
  3
. . . . . . . . . . . . . . . . . . . .
 72
65
 73
2
 40
0.2
 49
0.1
 74
0
 49
-0.1
 74
0
  0
LTYPE
  5
1F9
100
AcDbSymbolTableRecord
100
AcDbLinetypeTableRecord
  2
DASHED
 70
64
  3
- - - - - - - - - - - - - - - - - - - -
 72
65
 73
2
 40
0.2
 49
0.1
 74
0
 49
-0.1
 74
0
  0
ENDTAB
  0
TABLE
  2
LAYER
  5
2
100
AcDbSymbolTable
 70
36
  0
LAYER
  5
10
100
AcDbSymbolTableRecord
100
AcDbLayerTableRecord
  2
0
 70
0
 62
7
  6
CONTINUOUS
370
-3
390
F
  0
LAYER
  5
1FA
100
AcDbSymbolTableRecord
100
AcDbLayerTableRecord
  2
DEFAULT_1
 70
0
 62
7
  6
CENTER
370
-3
390
F
  0
LAYER
  5
1FB
100
AcDbSymbolTableRecord
100
AcDbLayerTableRecord
  2
DEFAULT_2
 70
0
 62
7
  6
HIDDEN
370
-3
390
F
  0
LAYER
  5
1FC
100
AcDbSymbolTableRecord
100
AcDbLayerTableRecord
  2
DEFAULT_3
 70
0
 62
7
  6
PHANTOM
370
-3
390
F
  0
LAYER
  5
1FD
100
AcDbSymbolTableRecord
100
AcDbLayerTableRecord
  2
ASSI
 70
0
 62
7
  6
CONTINUOUS
370
-3
390
F
  0
LAYER
  5
1FE
100
AcDbSymbolTableRecord
100
AcDbLayerTableRecord
  2
COORDINATE
 70
0
 62
7
  6
CONTINUOUS
370
-3
390
F
  0
LAYER
  5
1FF
100
AcDbSymbolTableRecord
100
AcDbLayerTableRecord
  2
COPY_PUBLISH
 70
0
 62
7
  6
CONTINUOUS
370
-3
390
F
  0
LAYER
  5
200
100
AcDbSymbolTableRecord
100
AcDbLayerTableRecord
  2
COSMETICI
 70
0
 62
7
  6
CONTINUOUS
370
-3
390
F
  0
LAYER
  5
201
100
AcDbSymbolTableRecord
100
AcDbLayerTableRecord
  2
CURVE
 70
0
 62
7
  6
CONTINUOUS
370
-3
390
F
  0
LAYER
  5
202
100
AcDbSymbolTableRecord
100
AcDbLayerTableRecord
  2
DRAFT
 70
0
 62
7
  6
CONTINUOUS
370
-3
390
F
  0
LAYER
  5
203
100
AcDbSymbolTableRecord
100
AcDbLayerTableRecord
  2
IMPORT_IGES
 70
0
 62
7
  6
CONTINUOUS
370
-3
390
F
  0
LAYER
  5
204
100
AcDbSymbolTableRecord
100
AcDbLayerTableRecord
  2
NOTE
 70
0
 62
7
  6
CONTINUOUS
370
-3
390
F
  0
LAYER
  5
205
100
AcDbSymbolTableRecord
100
AcDbLayerTableRecord
  2
PIANI
 70
0
 62
7
  6
CONTINUOUS
370
-3
390
F
  0
LAYER
  5
206
100
AcDbSymbolTableRecord
100
AcDbLayerTableRecord
  2
PUNTI
 70
0
 62
7
  6
CONTINUOUS
370
-3
390
F
  0
LAYER
  5
207
100
AcDbSymbolTableRecord
100
AcDbLayerTableRecord
  2
RACCORDO
 70
0
 62
7
  6
CONTINUOUS
370
-3
390
F
  0
LAYER
  5
208
100
AcDbSymbolTableRecord
100
AcDbLayerTableRecord
  2
SIMBOLI
 70
0
 62
7
  6
CONTINUOUS
370
-3
390
F
  0
LAYER
  5
209
100
AcDbSymbolTableRecord
100
AcDbLayerTableRecord
  2
SMUSSO
 70
0
 62
7
  6
CONTINUOUS
370
-3
390
F
  0
LAYER
  5
20A
100
AcDbSymbolTableRecord
100
AcDbLayerTableRecord
  2
SNAPLINE
 70
0
 62
7
  6
CONTINUOUS
370
-3
390
F
  0
LAYER
  5
20B
100
AcDbSymbolTableRecord
100
AcDbLayerTableRecord
  2
SUPERFICI
 70
0
 62
7
  6
CONTINUOUS
370
-3
390
F
  0
LAYER
  5
20C
100
AcDbSymbolTableRecord
100
AcDbLayerTableRecord
  2
TRASH
 70
0
 62
7
  6
CONTINUOUS
370
-3
390
F
  0
LAYER
  5
20D
100
AcDbSymbolTableRecord
100
AcDbLayerTableRecord
  2
XSEC_DATUMS
 70
0
 62
7
  6
CONTINUOUS
370
-3
390
F
  0
ENDTAB
  0
TABLE
  2
STYLE
  5
3
100
AcDbSymbolTable
 70
1
  0
STYLE
  5
11
100
AcDbSymbolTableRecord
100
AcDbTextStyleTableRecord
  2
STANDARD
 70
0
 40
0.0
 41
0.8
 50
0.0
 71
0
 42
0.2
  3
txt
  4

  0
STYLE
  5
20E
100
AcDbSymbolTableRecord
100
AcDbTextStyleTableRecord
  2
TEXTSTYLE_1
 70
0
 40
0.0
 41
0.8
 50
0.0
 71
0
 42
0.2
  3
gdt
  4

  0
ENDTAB
  0
TABLE
  2
VIEW
  5
6
100
AcDbSymbolTable
 70
0
  0
ENDTAB
  0
TABLE
  2
UCS
  5
7
100
AcDbSymbolTable
 70
0
  0
ENDTAB
  0
TABLE
  2
APPID
  5
9
100
AcDbSymbolTable
 70
1
  0
APPID
  5
20F
100
AcDbSymbolTableRecord
100
AcDbRegAppTableRecord
  2
ACAD
 70
0
  0
ENDTAB
  0
TABLE
  2
BLOCK_RECORD
  5
1
100
AcDbSymbolTable
 70
0
  0
BLOCK_RECORD
  5
210
100
AcDbSymbolTableRecord
100
AcDbBlockTableRecord
  2
*Model_Space
  0
BLOCK_RECORD
  5
211
100
AcDbSymbolTableRecord
100
AcDbBlockTableRecord
  2
*Paper_Space
  0
ENDTAB
  0
TABLE
  2
DIMSTYLE
  5
A
100
AcDbSymbolTable
 70
1
100
AcDbDimStyleTable
 71
0
  0
DIMSTYLE
105
212
100
AcDbSymbolTableRecord
100
AcDbDimStyleTableRecord
  2
STANDARD
 70
0
  3

  4

 40
1.0
 41
3.0
 42
0.5
 43
0.38
 44
1.5
 45
0.0
 46
0.0
 47
0.01
 48
0.01
140
3.0
141
0.09
142
0.0
143
25.4
144
1.0
145
0.0
146
1.0
147
0.625
 71
1.0
 72
0.0
 73
0
 74
0
 75
0
 76
0
 77
1
 78
8
170
0
171
2
172
0
173
0
174
0
175
0
176
0
177
0
178
0
270
2
271
2
272
2
273
2
274
2
275
0
280
0
281
0
282
0
283
1
284
8
285
0
286
0
287
3
288
0
340
11
278
44
  0
ENDTAB
  0
ENDSEC
  0
SECTION
  2
BLOCKS
  0
BLOCK
  5
20
100
AcDbEntity
  8
0
100
AcDbBlockBegin
  2
*Model_Space
 70
0
 10
0.0
 20
0.0
 30
0.0
  3
*Model_Space
  1

  0
ENDBLK
  5
21
100
AcDbEntity
  8
0
100
AcDbBlockEnd
  0
BLOCK
  5
1C
100
AcDbEntity
  8
0
100
AcDbBlockBegin
  2
*Paper_Space
 70
0
 10
0.0
 20
0.0
 30
0.0
  3
*Paper_Space
  1

  0
ENDBLK
  5
1D
100
AcDbEntity
  8
0
100
AcDbBlockEnd
  0
ENDSEC
  0
SECTION
  2
ENTITIES
  0
LWPOLYLINE
  5
213
100
AcDbEntity
  8
0
100
AcDbPolyline
 62
7
  6
CONTINUOUS
 90
31
 70
0
 10
-35.3968800247
 20
154.5653462337
 10
-35.1863875564
 20
154.6816110094
 10
-34.9709008048
 20
154.7901616794
 10
-34.7506174075
 20
154.8908122578
 10
-34.5259022034
 20
154.9833262194
 10
-34.296815429
 20
155.0676145534
 10
-34.0630805895
 20
155.1436784799
 10
-33.8248807488
 20
155.2113314127
 10
-33.5824368575
 20
155.2703889195
 10
-33.335483328
 20
155.3207720972
 10
-33.0841740248
 20
155.362280735
 10
-32.8287412262
 20
155.3947119812
 10
-32.5689926693
 20
155.4179100658
 10
-32.3050369241
 20
155.4316626231
 10
-32.0371310037
 20
155.4357563461
 10
-31.765264335
 20
155.4299873175
 10
-31.4895381596
 20
155.4141406718
 10
-31.2101958213
 20
155.3880140617
 10
-30.9274026207
 20
155.351410362
 10
-30.6410637383
 20
155.3040898673
 10
-30.3515961797
 20
155.2458922898
 10
-30.0599037658
 20
155.1768214058
 10
-29.7660613115
 20
155.0967493727
 10
-29.4702986985
 20
155.0055890392
 10
-29.1737301121
 20
154.9035850321
 10
-28.8764676539
 20
154.7907214695
 10
-28.5786813077
 20
154.6670018413
 10
-28.2815563266
 20
154.5329082244
 10
-27.9855722963
 20
154.3887139531
 10
-27.6905090925
 20
154.2343603124
 10
-27.3964934625
 20
154.0699344569
  0
LWPOLYLINE
  5
214
100
AcDbEntity
  8
ASSI
100
AcDbPolyline
 62
7
  6
CONTINUOUS
 90
27
 70
0
 10
-52.2201175183
 20
144.8518197496
 10
-52.1317315026
 20
144.9000539847
 10
-51.9920919559
 20
144.9654972499
 10
-51.8474398026
 20
145.0206574533
 10
-51.6980269278
 20
145.0654312946
 10
-51.5439655327
 20
145.0997735157
 10
-51.3850916864
 20
145.123836674
 10
-51.2215915936
 20
145.1375743177
 10
-51.0536706593
 20
145.1409414627
 10
-50.8812062308
 20
145.1341206446
 10
-50.7043812531
 20
145.1171006675
 10
-50.5234319317
 20
145.0898694372
 10
-50.3383290185
 20
145.0526447265
 10
-50.1492673689
 20
145.0054589823
 10
-49.9564982198
 20
144.9483421981
 10
-49.760091815
 20
144.8815588206
 10
-49.5604160179
 20
144.8052523829
 10
-49.3575730724
 20
144.7194539021
 10
-49.151230834
 20
144.6242470285
 10
-48.941414984
 20
144.5195992766
 10
-48.7285470179
 20
144.4056439479
 10
-48.5128859577
 20
144.2827129083
 10
-48.2946083348
 20
144.1509129074
 10
-48.0740047151
 20
144.0103683178
 10
-47.851515238
 20
143.8615268207
 10
-47.6274443237
 20
143.704679538
 10
-47.4019551454
 20
143.5399109325
  0
LWPOLYLINE
  5
215
100
AcDbEntity
  8
0
100
AcDbPolyline
 62
253
  6
CONTINUOUS
 90
28
 70
0
 10
-35.3968800247
 20
154.5653462337
 10
-35.2047654466
 20
154.6698991187
 10
-35.0076275837
 20
154.7646566943
 10
-34.8053191526
 20
154.8497201154
 10
-34.5980113264
 20
154.9250174098
 10
-34.3858795082
 20
154.9904848686
 10
-34.1691031826
 20
155.0460670997
 10
-33.9478657642
 20
155.0917170751
 10
-33.7223544418
 20
155.1273961702
 10
-33.4927600206
 20
155.153074197
 10
-33.2592767603
 20
155.1687294293
 10
-33.0221022111
 20
155.1743486213
 10
-32.7814370464
 20
155.1699270185
 10
-32.5374848928
 20
155.155468362
 10
-32.2904521584
 20
155.1309848854
 10
-32.0405478573
 20
155.0964973041
 10
-31.7879834337
 20
155.052034798
 10
-31.5329725822
 20
154.9976349869
 10
-31.2757310675
 20
154.9333438983
 10
-31.0164765416
 20
154.8592159291
 10
-30.7554283596
 20
154.7753137988
 10
-30.4928073945
 20
154.6817084971
 10
-30.2288358497
 20
154.5784792233
 10
-29.9637370716
 20
154.4657133198
 10
-29.6977353602
 20
154.3435061977
 10
-29.4310557795
 20
154.2119612565
 10
-29.163923967
 20
154.0711897963
 10
-28.8965659429
 20
153.9213109239
  0
LINE
  5
216
100
AcDbEntity
  8
0
100
AcDbLine
 62
7
  6
CONTINUOUS
 10
-52.2201658555
 20
144.8517918403
 11
-35.3968800247
 21
154.5653462337
  0
LINE
  5
217
100
AcDbEntity
  8
ASSI
100
AcDbLine
 62
253
  6
CONTINUOUS
 10
-47.1752762366
 20
143.3674126863
 11
-28.8965659429
 21
153.9213109239
  0
LINE
  5
218
100
AcDbEntity
  8
ASSI
100
AcDbLine
 62
253
  6
CONTINUOUS
 10
-52.5846431126
 20
138.6120395023
 11
-47.1756521074
 21
141.7351231181
  0
LWPOLYLINE
  5
219
100
AcDbEntity
  8
0
100
AcDbPolyline
 62
253
  6
CONTINUOUS
 90
18
 70
0
 10
-28.8965659429
 20
153.9213109239
 10
-28.7956294569
 20
153.9768160342
 10
-28.6949216245
 20
154.0266467042
 10
-28.5946705813
 20
154.0706900515
 10
-28.4951034282
 20
154.1088463037
 10
-28.3964457168
 20
154.1410290246
 10
-28.2989209386
 20
154.1671653099
 10
-28.2027500186
 20
154.1871959527
 10
-28.1081508148
 20
154.201075577
 10
-28.0153376248
 20
154.208772741
 10
-27.9245207004
 20
154.2102700083
 10
-27.8359057711
 20
154.2055639869
 10
-27.7496935783
 20
154.1946653375
 10
-27.6660794202
 20
154.1775987492
 10
-27.5852527099
 20
154.1544028831
 10
-27.5073965458
 20
154.1251302855
 10
-27.4326872972
 20
154.0898472681
 10
-27.3964934625
 20
154.0699344569
  0
LWPOLYLINE
  5
21A
100
AcDbEntity
  8
ASSI
100
AcDbPolyline
 62
7
  6
CONTINUOUS
 90
28
 70
0
 10
-51.2200688901
 20
143.1197970184
 10
-51.1511779932
 20
143.157205592
 10
-51.042170775
 20
143.2072979591
 10
-50.9289905346
 20
143.2486497725
 10
-50.8118459211
 20
143.2811762134
 10
-50.6908363584
 20
143.3048363972
 10
-50.5657617926
 20
143.3197948298
 10
-50.436778882
 20
143.3260127253
 10
-50.3040623303
 20
143.3234515007
 10
-50.1674497099
 20
143.3122994698
 10
-50.027094993
 20
143.2925476371
 10
-49.8831988733
 20
143.264185291
 10
-49.7356804406
 20
143.2274291282
 10
-49.5847028979
 20
143.1823075705
 10
-49.4304805048
 20
143.1288450302
 10
-49.2730215612
 20
143.0672947958
 10
-49.1126289092
 20
142.9977831841
 10
-48.9493974897
 20
142.9203315746
 10
-48.7830204007
 20
142.8350256779
 10
-48.6135241406
 20
142.741835253
 10
-48.4412605913
 20
142.6408758467
 10
-48.266408764
 20
142.5324514572
 10
-48.0891153682
 20
142.4166539487
 10
-47.9096289305
 20
142.293587022
 10
-47.7282897056
 20
142.1636480593
 10
-47.5453445558
 20
142.0270895864
 10
-47.3609422746
 20
141.88397688
 10
-47.1752762366
 20
141.7344721327
  0
LWPOLYLINE
  5
21B
100
AcDbEntity
  8
0
100
AcDbPolyline
 62
7
  6
CONTINUOUS
 90
15
 70
0
 10
-21.9719580536
 20
111.4117480409
 10
-21.9571486959
 20
111.4198117055
 10
-21.9264642181
 20
111.4336417412
 10
-21.8942297161
 20
111.4444438641
 10
-21.8604607314
 20
111.4522484339
 10
-21.825498131
 20
111.4569766705
 10
-21.7893298259
 20
111.4585974165
 10
-21.7519679051
 20
111.4571418293
 10
-21.7137895031
 20
111.4526246019
 10
-21.6747863504
 20
111.4450147253
 10
-21.6349667166
 20
111.4343432085
 10
-21.5947325444
 20
111.4207177705
 10
-21.5542178148
 20
111.4041743179
 10
-21.5132885468
 20
111.3846769443
 10
-21.4719447404
 20
111.3622256495
  0
LWPOLYLINE
  5
21C
100
AcDbEntity
  8
0
100
AcDbPolyline
 62
7
  6
CONTINUOUS
 90
22
 70
0
 10
43.8394747747
 20
-155.2020562146
 10
43.9347836074
 20
-155.2530253138
 10
44.0334648562
 20
-155.297874242
 10
44.1352262409
 20
-155.3364850033
 10
44.240080673
 20
-155.368831448
 10
44.3480152411
 20
-155.3949397259
 10
44.4585781298
 20
-155.4147005472
 10
44.5717803567
 20
-155.4280873044
 10
44.6876109042
 20
-155.4351266051
 10
44.8055849045
 20
-155.4357889828
 10
44.9257113425
 20
-155.4300477062
 10
45.0479812331
 20
-155.4179295065
 10
45.1718827534
 20
-155.3994851106
 10
45.2974227428
 20
-155.374688
 10
45.4245943618
 20
-155.3435646933
 10
45.5528652686
 20
-155.3062454729
 10
45.6822400712
 20
-155.2627043665
 10
45.8127141616
 20
-155.2129673464
 10
45.9437413738
 20
-155.1572426123
 10
46.0751396525
 20
-155.0955995643
 10
46.207091053
 20
-155.0279688022
 10
46.3395955754
 20
-154.9543503262
  0
LWPOLYLINE
  5
21D
100
AcDbEntity
  8
0
100
AcDbPolyline
 62
7
  6
CONTINUOUS
 90
22
 70
0
 10
-45.963086436
 20
-103.351182862
 10
-45.8677776033
 20
-103.4021519611
 10
-45.7690963545
 20
-103.4470008894
 10
-45.6673349698
 20
-103.4856116506
 10
-45.5624805377
 20
-103.5179580954
 10
-45.4545459696
 20
-103.5440663733
 10
-45.3439830809
 20
-103.5638271946
 10
-45.230780854
 20
-103.5772139518
 10
-45.1149503065
 20
-103.5842532525
 10
-44.9969763062
 20
-103.5849156301
 10
-44.8768498682
 20
-103.5791743535
 10
-44.7545799776
 20
-103.5670561538
 10
-44.6306784573
 20
-103.548611758
 10
-44.5051384679
 20
-103.5238146474
 10
-44.3779668489
 20
-103.4926913407
 10
-44.2496959421
 20
-103.4553721203
 10
-44.1203211395
 20
-103.4118310139
 10
-43.9898470491
 20
-103.3620939938
 10
-43.8588198369
 20
-103.3063692597
 10
-43.7274215582
 20
-103.2447262116
 10
-43.5954701577
 20
-103.1770954496
 10
-43.4629656353
 20
-103.1034769736
  0
LINE
  5
21E
100
AcDbEntity
  8
0
100
AcDbLine
 62
7
  6
CONTINUOUS
 10
-45.963086436
 20
-103.351182862
 11
-47.3772999984
 21
-102.5346336754
  0
LINE
  5
21F
100
AcDbEntity
  8
0
100
AcDbLine
 62
7
  6
CONTINUOUS
 10
42.4252612123
 20
-154.385507028
 11
43.8394747747
 21
-155.2020562146
  0
LINE
  5
220
100
AcDbEntity
  8
0
100
AcDbLine
 62
253
  6
CONTINUOUS
 10
-46.9984995413
 20
-101.0624985563
 11
-48.4127131036
 21
-100.2459493696
  0
LINE
  5
221
100
AcDbEntity
  8
0
100
AcDbLine
 62
253
  6
CONTINUOUS
 10
41.389848107
 20
-152.0968227223
 11
42.8040616694
 21
-152.9133719089
  0
LWPOLYLINE
  5
222
100
AcDbEntity
  8
0
100
AcDbPolyline
 62
7
  6
CONTINUOUS
 90
22
 70
0
 10
-47.3772999984
 20
-102.5346336753
 10
-47.46885937
 20
-102.477728269
 10
-47.5570463255
 20
-102.4147026917
 10
-47.6413709127
 20
-102.3458905113
 10
-47.7218169411
 20
-102.2712674712
 10
-47.7984006013
 20
-102.190857828
 10
-47.8708013131
 20
-102.1049981774
 10
-47.9390015422
 20
-102.0136656737
 10
-48.003018823
 20
-101.9168831625
 10
-48.0625851784
 20
-101.8150557766
 10
-48.1176819507
 20
-101.7081623685
 10
-48.1683277977
 20
-101.5962240856
 10
-48.2143107153
 20
-101.4797095028
 10
-48.255611157
 20
-101.358599437
 10
-48.2922486693
 20
-101.2329130712
 10
-48.3240698871
 20
-101.1031765301
 10
-48.3510546211
 20
-100.9693728358
 10
-48.3732230607
 20
-100.8315189661
 10
-48.3904824085
 20
-100.6901919789
 10
-48.402801732
 20
-100.5455842267
 10
-48.4102119638
 20
-100.3975033569
 10
-48.4127131036
 20
-100.2459493696
  0
LWPOLYLINE
  5
223
100
AcDbEntity
  8
0
100
AcDbPolyline
 62
7
  6
CONTINUOUS
 90
22
 70
0
 10
42.4252612123
 20
-154.3855070279
 10
42.3337018407
 20
-154.3286016216
 10
42.2455148852
 20
-154.2655760443
 10
42.161190298
 20
-154.1967638639
 10
42.0807442696
 20
-154.1221408238
 10
42.0041606094
 20
-154.0417311806
 10
41.9317598976
 20
-153.95587153
 10
41.8635596685
 20
-153.8645390263
 10
41.7995423877
 20
-153.7677565151
 10
41.7399760323
 20
-153.6659291292
 10
41.68487926
 20
-153.5590357211
 10
41.634233413
 20
-153.4470974382
 10
41.5882504954
 20
-153.3305828554
 10
41.5469500537
 20
-153.2094727896
 10
41.5103125414
 20
-153.0837864238
 10
41.4784913236
 20
-152.9540498827
 10
41.4515065895
 20
-152.8202461884
 10
41.4293381499
 20
-152.6823923187
 10
41.4120788022
 20
-152.5410653315
 10
41.3997594786
 20
-152.3964575793
 10
41.3923492469
 20
-152.2483767096
 10
41.389848107
 20
-152.0968227223
  0
LWPOLYLINE
  5
224
100
AcDbEntity
  8
ASSI
100
AcDbPolyline
 62
7
  6
CONTINUOUS
 90
16
 70
0
 10
-12.4992627393
 20
112.9668766797
 10
-12.537407721
 20
112.9424677539
 10
-12.5735369997
 20
112.9144838354
 10
-12.6073186033
 20
112.883174906
 10
-12.6387332627
 20
112.8485136747
 10
-12.6678002471
 20
112.8105274324
 10
-12.6942816321
 20
112.769527111
 10
-12.7181561958
 20
112.7254879714
 10
-12.7394451602
 20
112.6784347526
 10
-12.7579742671
 20
112.628752603
 10
-12.7737208641
 20
112.576419945
 10
-12.7867076036
 20
112.5214583561
 10
-12.7968281841
 20
112.4643177179
 10
-12.804047172
 20
112.4051479906
 10
-12.8084000009
 20
112.343799214
 10
-12.8098866709
 20
112.280271388
  0
LWPOLYLINE
  5
225
100
AcDbEntity
  8
ASSI
100
AcDbPolyline
 62
7
  6
CONTINUOUS
 90
16
 70
0
 10
-10.9991902589
 20
110.3688423163
 10
-10.9610452772
 20
110.3932512422
 10
-10.9249159985
 20
110.4212351606
 10
-10.8911343949
 20
110.45254409
 10
-10.8597197355
 20
110.4872053213
 10
-10.8306527512
 20
110.5251915636
 10
-10.8041713661
 20
110.5661918851
 10
-10.7802968024
 20
110.6102310246
 10
-10.759007838
 20
110.6572842434
 10
-10.7404787312
 20
110.706966393
 10
-10.7247321342
 20
110.759299051
 10
-10.7117453947
 20
110.8142606399
 10
-10.7016248141
 20
110.8714012782
 10
-10.6944058263
 20
110.9305710054
 10
-10.6900529973
 20
110.991919782
 10
-10.6885663273
 20
111.055447608
  0
LWPOLYLINE
  5
226
100
AcDbEntity
  8
0
100
AcDbPolyline
 62
7
  6
CONTINUOUS
 90
3
 70
0
 10
-14.1079358697
 20
106.6089084538
 10
-14.0700663864
 20
106.6325122024
 10
-14.0220321537
 20
106.6679162293
  0
LINE
  5
227
100
AcDbEntity
  8
0
100
AcDbLine
 62
253
  6
CONTINUOUS
 10
-21.4719447404
 20
111.3623045594
 11
-22.1790515216
 21
110.9540299661
  0
LINE
  5
228
100
AcDbEntity
  8
ASSI
100
AcDbLine
 62
253
  6
CONTINUOUS
 10
-12.1027798897
 20
112.6885459813
 11
-12.8098866709
 21
112.280271388
  0
LINE
  5
229
100
AcDbEntity
  8
ASSI
100
AcDbLine
 62
253
  6
CONTINUOUS
 10
-11.5405159661
 20
112.7478136111
 11
-11.8906478554
 21
112.5456518464
  0
LINE
  5
22A
100
AcDbEntity
  8
0
100
AcDbLine
 62
253
  6
CONTINUOUS
 10
-13.8364399565
 20
106.7888609271
 11
-13.9766128599
 21
106.7079268495
  0
LINE
  5
22B
100
AcDbEntity
  8
ASSI
100
AcDbLine
 62
7
  6
CONTINUOUS
 10
-14.1079353895
 20
106.6089076221
 11
-13.7747843893
 21
106.8012648342
  0
LWPOLYLINE
  5
22C
100
AcDbEntity
  8
0
100
AcDbPolyline
 62
7
  6
CONTINUOUS
 90
17
 70
0
 10
-13.9109513549
 20
106.7574360474
 10
-13.9045615108
 20
106.7610328899
 10
-13.8778554532
 20
106.7741568946
 10
-13.8498419262
 20
106.7849776027
 10
-13.8207429368
 20
106.7934092601
 10
-13.7905498599
 20
106.7994328834
 10
-13.7592713205
 20
106.8030674559
 10
-13.7271552009
 20
106.8042841738
 10
-13.6941948457
 20
106.8030638248
 10
-13.6603969103
 20
106.7994256211
 10
-13.626029243
 20
106.7933983955
 10
-13.5910873169
 20
106.7849631648
 10
-13.5555756589
 20
106.7741389122
 10
-13.5197756988
 20
106.7610114197
 10
-13.4837812463
 20
106.7456092815
 10
-13.4474984917
 20
106.7279039034
 10
-13.4109274349
 20
106.7078952856
  0
LWPOLYLINE
  5
22D
100
AcDbEntity
  8
ASSI
100
AcDbPolyline
 62
7
  6
CONTINUOUS
 90
3
 70
0
 10
24.9643389048
 20
-109.2784667079
 10
25.0076226025
 20
-109.2831717896
 10
25.0166730611
 20
-109.283462981
  0
LINE
  5
22E
100
AcDbEntity
  8
0
100
AcDbLine
 62
7
  6
CONTINUOUS
 10
-37.3818473171
 20
-100.4088646577
 11
41.389848107
 21
-145.8906543544
  0
LWPOLYLINE
  5
22F
100
AcDbEntity
  8
0
100
AcDbPolyline
 62
7
  6
CONTINUOUS
 90
4
 70
0
 10
-14.0220321537
 20
106.6679162293
 10
-13.9539032129
 20
106.7279321597
 10
-13.9298860966
 20
106.7456341731
 10
-13.9109513549
 20
106.7574360474
  0
LWPOLYLINE
  5
230
100
AcDbEntity
  8
0
100
AcDbPolyline
 62
7
  6
CONTINUOUS
 90
14
 70
0
 10
-4.656702093
 20
101.8326995611
 10
-4.6459466149
 20
101.8392725043
 10
-4.6254556625
 20
101.8540139664
 10
-4.6063501453
 20
101.8708976785
 10
-4.5886161721
 20
101.8899021611
 10
-4.5724327511
 20
101.9108355813
 10
-4.5578155865
 20
101.9337174757
 10
-4.5447489742
 20
101.9585283076
 10
-4.5333648096
 20
101.9850176345
 10
-4.5236801328
 20
102.0132024563
 10
-4.5156779037
 20
102.0430657731
 10
-4.5094388976
 20
102.0743061418
 10
-4.5049900395
 20
102.1068230816
 10
-4.5023044043
 20
102.1407170734
  0
LWPOLYLINE
  5
231
100
AcDbEntity
  8
0
100
AcDbPolyline
 62
7
  6
CONTINUOUS
 90
46
 70
0
 10
-20.8586828226
 20
89.1520141426
 10
-20.8256761225
 20
89.1720953262
 10
-20.7711467376
 20
89.2101946667
 10
-20.7193271029
 20
89.252824268
 10
-20.6705446405
 20
89.2997148503
 10
-20.6248185771
 20
89.3508933923
 10
-20.582129686
 20
89.4063329152
 10
-20.5427477087
 20
89.4656832033
 10
-20.5066935804
 20
89.5289690188
 10
-20.4739463661
 20
89.5961655995
 10
-20.4447130022
 20
89.666848443
 10
-20.4190157344
 20
89.7410396246
 10
-20.3968323171
 20
89.818717069
 10
-20.3783029496
 20
89.899390048
 10
-20.3634507665
 20
89.9830775422
 10
-20.3522526331
 20
90.0697605709
 10
-20.3447793448
 20
90.1588914632
 10
-20.3410544998
 20
90.2504857853
 10
-20.3410544998
 20
90.344527971
 10
-20.3447793448
 20
90.4404236507
 10
-20.3522526331
 20
90.5381845091
 10
-20.3634507665
 20
90.6377988615
 10
-20.3783029496
 20
90.7386372845
 10
-20.3968323171
 20
90.8407075126
 10
-20.4190157344
 20
90.9440018113
 10
-20.4447130022
 20
91.0478675535
 10
-20.4739463661
 20
91.1523083529
 10
-20.5066935804
 20
91.2573205959
 10
-20.5427477087
 20
91.362240815
 10
-20.582129686
 20
91.4670684233
 10
-20.6248185771
 20
91.5718040077
 10
-20.6705446405
 20
91.6757858614
 10
-20.7193271029
 20
91.7790092086
 10
-20.7711467376
 20
91.8814788251
 10
-20.8256761225
 20
91.9825473326
 10
-20.8829324111
 20
92.0822058566
 10
-20.94289845
 20
92.1804632715
 10
-21.0051953568
 20
92.276698822
 10
-21.0698378859
 20
92.370899704
 10
-21.1368112829
 20
92.4630787216
 10
-21.2056924023
 20
92.5526535313
 10
-21.2764933193
 20
92.6396076427
 10
-21.3492019586
 20
92.7239575463
 10
-21.423358949
 20
92.8051703694
 10
-21.4988111666
 20
92.8830684879
 10
-21.5757117353
 20
92.957829526
  0
LINE
  5
232
100
AcDbEntity
  8
0
100
AcDbLine
 62
253
  6
CONTINUOUS
 10
-21.4719447404
 20
94.5297776802
 11
-22.1790515216
 21
94.1215030868
  0
LINE
  5
233
100
AcDbEntity
  8
0
100
AcDbLine
 62
253
  6
CONTINUOUS
 10
-20.9469538738
 20
93.437728077
 11
-21.654060655
 21
93.0294534837
  0
LINE
  5
234
100
AcDbEntity
  8
0
100
AcDbLine
 62
253
  6
CONTINUOUS
 10
-4.501381992
 20
102.1759881173
 11
-3.9710775336
 21
102.4821792652
  0
LINE
  5
235
100
AcDbEntity
  8
0
100
AcDbLine
 62
7
  6
CONTINUOUS
 10
-4.6566939577
 20
101.8326854714
 11
-3.9495871766
 21
102.2409600647
  0
LINE
  5
236
100
AcDbEntity
  8
0
100
AcDbLine
 62
253
  6
CONTINUOUS
 10
-21.4719447404
 20
89.0042581525
 11
-22.1790515216
 21
88.5959835592
  0
LINE
  5
237
100
AcDbEntity
  8
ASSI
100
AcDbLine
 62
7
  6
CONTINUOUS
 10
-20.858678679
 20
89.1520069643
 11
-20.1515718978
 21
89.5602815577
  0
LWPOLYLINE
  5
238
100
AcDbEntity
  8
0
100
AcDbPolyline
 62
7
  6
CONTINUOUS
 90
15
 70
0
 10
-4.3460618909
 20
102.5192766734
 10
-4.3349548727
 20
102.5253244218
 10
-4.3119415143
 20
102.5356969486
 10
-4.2877656378
 20
102.5437985408
 10
-4.2624388993
 20
102.5496519681
 10
-4.236216949
 20
102.5531981456
 10
-4.2090907202
 20
102.5544137051
 10
-4.1810692796
 20
102.5533220147
 10
-4.1524354781
 20
102.5499340941
 10
-4.1231831136
 20
102.5442266867
 10
-4.0933183882
 20
102.5362230491
 10
-4.063142759
 20
102.5260039706
 10
-4.0327567118
 20
102.5135963812
 10
-4.0020597608
 20
102.4989733509
 10
-3.9710519061
 20
102.4821348799
  0
LWPOLYLINE
  5
239
100
AcDbEntity
  8
0
100
AcDbPolyline
 62
7
  6
CONTINUOUS
 90
11
 70
0
 10
-21.9719653121
 20
89.053714208
 10
-21.9548938905
 20
89.0629278063
 10
-21.9260134192
 20
89.0757572893
 10
-21.895696613
 20
89.0859837914
 10
-21.8642131646
 20
89.0935163396
 10
-21.8315526649
 20
89.0983308977
 10
-21.7977255231
 20
89.1004515017
 10
-21.7630326592
 20
89.0998592874
 10
-21.7275743799
 20
89.0965479663
 10
-21.6912503785
 20
89.0905238269
 10
-21.654060655
 20
89.0817868689
  0
LWPOLYLINE
  5
23A
100
AcDbEntity
  8
ASSI
100
AcDbPolyline
 62
7
  6
CONTINUOUS
 90
3
 70
0
 10
-10.7445535451
 20
-88.6605997448
 10
-10.7012698474
 20
-88.6653048266
 10
-10.6922193888
 20
-88.665596018
  0
LWPOLYLINE
  5
23B
100
AcDbEntity
  8
0
100
AcDbPolyline
 62
253
  6
CONTINUOUS
 90
18
 70
0
 10
43.9354325193
 20
111.8690278111
 10
44.0363690053
 20
111.9245329214
 10
44.1370768378
 20
111.9743635915
 10
44.2373278809
 20
112.0184069388
 10
44.336895034
 20
112.0565631909
 10
44.4355527454
 20
112.0887459118
 10
44.5330775236
 20
112.1148821972
 10
44.6292484436
 20
112.1349128399
 10
44.7238476474
 20
112.1487924642
 10
44.8166608374
 20
112.1564896283
 10
44.9074777618
 20
112.1579868955
 10
44.9960926911
 20
112.1532808741
 10
45.0823048839
 20
112.1423822248
 10
45.165919042
 20
112.1253156364
 10
45.2467457523
 20
112.1021197704
 10
45.3246019164
 20
112.0728471727
 10
45.399311165
 20
112.0375641553
 10
45.4355049997
 20
112.0176513441
  0
LINE
  5
23C
100
AcDbEntity
  8
0
100
AcDbLine
 62
7
  6
CONTINUOUS
 10
34.3409051819
 20
-85.5405174854
 11
34.3884828546
 21
-85.5463390124
  0
LWPOLYLINE
  5
23D
100
AcDbEntity
  8
0
100
AcDbPolyline
 62
7
  6
CONTINUOUS
 90
13
 70
0
 10
33.8645001067
 20
-85.9909175118
 10
33.786151187
 20
-85.9720661009
 10
33.7092506183
 20
-85.9580242899
 10
33.6337984007
 20
-85.9487920787
 10
33.5596414103
 20
-85.9443702682
 10
33.4869327709
 20
-85.9447580575
 10
33.4161318539
 20
-85.9499530448
 10
33.3472507346
 20
-85.9599856643
 10
33.2802773376
 20
-85.9748254818
 10
33.2156348085
 20
-85.9943787915
 10
33.1533379017
 20
-86.0186754356
 10
33.0933718628
 20
-86.0476855719
 10
33.0691222742
 20
-86.0611447855
  0
LWPOLYLINE
  5
23E
100
AcDbEntity
  8
0
100
AcDbPolyline
 62
7
  6
CONTINUOUS
 90
12
 70
0
 10
26.3284736678
 20
-103.2087513351
 10
26.3650447246
 20
-103.228759953
 10
26.4013274792
 20
-103.246465331
 10
26.4373219316
 20
-103.2618674692
 10
26.4731218918
 20
-103.2749949617
 10
26.5086335497
 20
-103.2858192143
 10
26.5435754759
 20
-103.294254445
 10
26.5779431432
 20
-103.3002816707
 10
26.6117410786
 20
-103.3039198744
 10
26.6447014338
 20
-103.3051402234
 10
26.6768175534
 20
-103.3039235055
 10
26.6923306221
 20
-103.3021208838
  0
LWPOLYLINE
  5
23F
100
AcDbEntity
  8
0
100
AcDbPolyline
 62
7
  6
CONTINUOUS
 90
12
 70
0
 10
-16.0979332034
 20
-78.7122757355
 10
-16.0613621466
 20
-78.7322843533
 10
-16.025079392
 20
-78.7499897313
 10
-15.9890849396
 20
-78.7653918696
 10
-15.9532849794
 20
-78.778519362
 10
-15.9177733214
 20
-78.7893436147
 10
-15.8828313953
 20
-78.7977788454
 10
-15.848463728
 20
-78.803806071
 10
-15.8146657926
 20
-78.8074442747
 10
-15.7817054374
 20
-78.8086646237
 10
-15.7495893178
 20
-78.8074479058
 10
-15.7340762491
 20
-78.8056452841
  0
LINE
  5
240
100
AcDbEntity
  8
0
100
AcDbLine
 62
7
  6
CONTINUOUS
 10
34.3894909733
 20
-108.6796308857
 11
29.0154794363
 21
-105.5767439764
  0
LINE
  5
241
100
AcDbEntity
  8
0
100
AcDbLine
 62
7
  6
CONTINUOUS
 10
25.6213668866
 20
-103.6170259285
 11
-13.4109274349
 21
-81.0802683768
  0
LINE
  5
242
100
AcDbEntity
  8
0
100
AcDbLine
 62
7
  6
CONTINUOUS
 10
-16.8050399846
 20
-79.1205503288
 11
-22.1790515216
 21
-76.0176634195
  0
LINE
  5
243
100
AcDbEntity
  8
0
100
AcDbLine
 62
7
  6
CONTINUOUS
 10
34.3894909733
 20
-107.8630816991
 11
29.7225862175
 21
-105.1684693831
  0
LINE
  5
244
100
AcDbEntity
  8
0
100
AcDbLine
 62
7
  6
CONTINUOUS
 10
26.3284736678
 20
-103.2087513351
 11
-12.7038206537
 21
-80.6719937834
  0
LINE
  5
245
100
AcDbEntity
  8
0
100
AcDbLine
 62
7
  6
CONTINUOUS
 10
-16.0979332034
 20
-78.7122757355
 11
-21.4719447404
 21
-75.6093888262
  0
LINE
  5
246
100
AcDbEntity
  8
0
100
AcDbLine
 62
7
  6
CONTINUOUS
 10
34.3894909733
 20
-107.7610229145
 11
29.3805784501
 21
-104.8689396
  0
LINE
  5
247
100
AcDbEntity
  8
0
100
AcDbLine
 62
7
  6
CONTINUOUS
 10
26.6796371426
 20
-103.3094499398
 11
-13.0458284211
 21
-80.3724640003
  0
LINE
  5
248
100
AcDbEntity
  8
0
100
AcDbLine
 62
7
  6
CONTINUOUS
 10
-15.7467697286
 20
-78.8129743401
 11
-21.4719447404
 21
-75.5073300416
  0
LWPOLYLINE
  5
249
100
AcDbEntity
  8
0
100
AcDbPolyline
 62
7
  6
CONTINUOUS
 90
19
 70
0
 10
-13.4109274349
 20
-81.0802683768
 10
-13.4474984917
 20
-81.0580456549
 10
-13.4837812463
 20
-81.0338526174
 10
-13.5197756988
 20
-81.0076892641
 10
-13.5555756589
 20
-80.97947586
 10
-13.5910873169
 20
-80.9492921401
 10
-13.626029243
 20
-80.9173773104
 10
-13.6603969103
 20
-80.8837176153
 10
-13.6941948457
 20
-80.8483268103
 10
-13.7271552009
 20
-80.8114853673
 10
-13.7592713205
 20
-80.7731817596
 10
-13.7905498599
 20
-80.7334275138
 10
-13.8207429368
 20
-80.692537682
 10
-13.8498419262
 20
-80.6505032411
 10
-13.8778554532
 20
-80.6073332142
 10
-13.9045615108
 20
-80.5633697236
 10
-13.9298860966
 20
-80.5187268099
 10
-13.9539032129
 20
-80.4732904325
 10
-14.0220321537
 20
-80.3346009091
  0
LWPOLYLINE
  5
24A
100
AcDbEntity
  8
ASSI
100
AcDbPolyline
 62
7
  6
CONTINUOUS
 90
10
 70
0
 10
-11.805692867
 20
112.9233872643
 10
-11.8094613629
 20
112.9169599008
 10
-11.8282830084
 20
112.8782817995
 10
-11.8446722604
 20
112.8372350727
 10
-11.8586070025
 20
112.7937981836
 10
-11.8701093511
 20
112.747992669
 10
-11.8790750375
 20
112.7002337553
 10
-11.8854693056
 20
112.6506598514
 10
-11.8893269116
 20
112.5991325484
 10
-11.8906478554
 20
112.5456518464
  0
LWPOLYLINE
  5
24B
100
AcDbEntity
  8
ASSI
100
AcDbPolyline
 62
7
  6
CONTINUOUS
 90
16
 70
0
 10
23.2096297106
 20
92.3490097166
 10
23.1714847289
 20
92.3246007908
 10
23.1353554502
 20
92.2966168724
 10
23.1015738466
 20
92.265307943
 10
23.0701591872
 20
92.2306467117
 10
23.0410922028
 20
92.1926604694
 10
23.0146108178
 20
92.1516601479
 10
22.9907362541
 20
92.1076210083
 10
22.9694472897
 20
92.0605677896
 10
22.9509181829
 20
92.01088564
 10
22.9351715858
 20
91.9585529819
 10
22.9221848464
 20
91.9035913931
 10
22.9120642658
 20
91.8464507548
 10
22.904845278
 20
91.7872810276
 10
22.900492449
 20
91.725932251
 10
22.899005779
 20
91.662404425
  0
LINE
  5
24C
100
AcDbEntity
  8
ASSI
100
AcDbLine
 62
253
  6
CONTINUOUS
 10
43.9354325193
 20
111.8690278111
 11
25.6567222256
 21
101.3151295736
  0
LINE
  5
24D
100
AcDbEntity
  8
RACCORDO
100
AcDbLine
 62
253
  6
CONTINUOUS
 10
46.8345703222
 20
111.0936927421
 11
46.827763856
 21
111.0897627738
  0
LINE
  5
24E
100
AcDbEntity
  8
ASSI
100
AcDbLine
 62
253
  6
CONTINUOUS
 10
23.6061125602
 20
92.0706790183
 11
22.899005779
 21
91.662404425
  0
LINE
  5
24F
100
AcDbEntity
  8
ASSI
100
AcDbLine
 62
253
  6
CONTINUOUS
 10
24.1683764838
 20
92.129946648
 11
23.8182445946
 21
91.9277848834
  0
LINE
  5
250
100
AcDbEntity
  8
0
100
AcDbLine
 62
7
  6
CONTINUOUS
 10
34.3894909733
 20
-106.1279245412
 11
-20.0577311781
 21
-74.6907808549
  0
LWPOLYLINE
  5
251
100
AcDbEntity
  8
0
100
AcDbPolyline
 62
7
  6
CONTINUOUS
 90
18
 70
0
 10
29.0154794363
 20
-105.5767439764
 10
28.9789083795
 20
-105.5545212546
 10
28.9426256249
 20
-105.530328217
 10
28.9066311724
 20
-105.5041648638
 10
28.8708312123
 20
-105.4759514596
 10
28.8353195543
 20
-105.4457677398
 10
28.8003776282
 20
-105.41385291
 10
28.7660099609
 20
-105.380193215
 10
28.7322120255
 20
-105.34480241
 10
28.6992516703
 20
-105.307960967
 10
28.6671355507
 20
-105.2696573592
 10
28.6358570113
 20
-105.2299031134
 10
28.6056639344
 20
-105.1890132817
 10
28.576564945
 20
-105.1469788407
 10
28.548551418
 20
-105.1038088139
 10
28.5218453604
 20
-105.0598453232
 10
28.4965207746
 20
-105.0152024096
 10
28.4725036582
 20
-104.9697660322
  0
LINE
  5
252
100
AcDbEntity
  8
ASSI
100
AcDbLine
 62
7
  6
CONTINUOUS
 10
-53.998856675
 20
90.4172698737
 11
-53.998856675
 21
139.4285886889
  0
LWPOLYLINE
  5
253
100
AcDbEntity
  8
ASSI
100
AcDbPolyline
 62
7
  6
CONTINUOUS
 90
29
 70
0
 10
-52.5846431126
 20
138.6120395023
 10
-52.58294301
 20
138.8599196059
 10
-52.5778778676
 20
139.1033483414
 10
-52.5693947102
 20
139.3420957711
 10
-52.5574480656
 20
139.5760405162
 10
-52.5419858312
 20
139.8048373676
 10
-52.5229799735
 20
140.0279396322
 10
-52.5004614687
 20
140.2450958333
 10
-52.4743946571
 20
140.4561391851
 10
-52.4447086036
 20
140.6606906291
 10
-52.4114907329
 20
140.858341491
 10
-52.3747354406
 20
141.0491461959
 10
-52.3342234159
 20
141.2334083111
 10
-52.2899388174
 20
141.4110330071
 10
-52.2419134019
 20
141.5816872808
 10
-52.1899689565
 20
141.745284291
 10
-52.134129558
 20
141.9016677804
 10
-52.0744245412
 20
142.0505816123
 10
-52.0107119831
 20
142.1918159368
 10
-51.9430989263
 20
142.3251440332
 10
-51.8716154502
 20
142.4504589486
 10
-51.7960349295
 20
142.5677635866
 10
-51.7165033149
 20
142.6768276924
 10
-51.6330528285
 20
142.7775889435
 10
-51.5452662508
 20
142.8702689793
 10
-51.4531154834
 20
142.9547699501
 10
-51.3567635125
 20
143.0308103494
 10
-51.2560807808
 20
143.0983336411
 10
-51.2200688901
 20
143.1197970184
  0
LWPOLYLINE
  5
254
100
AcDbEntity
  8
ASSI
100
AcDbPolyline
 62
7
  6
CONTINUOUS
 90
29
 70
0
 10
-53.998856675
 20
139.4285886889
 10
-53.9966068584
 20
139.7216768243
 10
-53.9898857295
 20
140.0097897394
 10
-53.9786306814
 20
140.2926556897
 10
-53.9627852621
 20
140.5701327934
 10
-53.9422906079
 20
140.8418115102
 10
-53.9171217235
 20
141.107041051
 10
-53.887309355
 20
141.365527601
 10
-53.8528172213
 20
141.6170706648
 10
-53.8135872122
 20
141.8612074126
 10
-53.7697248417
 20
142.0974535988
 10
-53.7212212925
 20
142.3258748109
 10
-53.6678365202
 20
142.5468187583
 10
-53.6095463373
 20
142.7601765258
 10
-53.5463937403
 20
142.9655514083
 10
-53.4782036525
 20
143.1628202558
 10
-53.4049977447
 20
143.3518023173
 10
-53.3268174691
 20
143.5321909691
 10
-53.2435509877
 20
143.7037059369
 10
-53.1553241222
 20
143.8660796726
 10
-53.0621731044
 20
144.0191853827
 10
-52.9638880429
 20
144.1629930457
 10
-52.8606465047
 20
144.2972276094
 10
-52.7524814908
 20
144.4218183528
 10
-52.638942624
 20
144.5370025587
 10
-52.5199842196
 20
144.6426717908
 10
-52.3958113749
 20
144.7384861556
 10
-52.2663511097
 20
144.8243325699
 10
-52.2201175183
 20
144.8518197496
  0
LWPOLYLINE
  5
255
100
AcDbEntity
  8
ASSI
100
AcDbPolyline
 62
7
  6
CONTINUOUS
 90
16
 70
0
 10
24.709702191
 20
89.7509753533
 10
24.7478471727
 20
89.7753842791
 10
24.7839764514
 20
89.8033681976
 10
24.817758055
 20
89.834677127
 10
24.8491727144
 20
89.8693383583
 10
24.8782396988
 20
89.9073246005
 10
24.9047210838
 20
89.948324922
 10
24.9285956475
 20
89.9923640616
 10
24.9498846119
 20
90.0394172804
 10
24.9684137187
 20
90.0890994299
 10
24.9841603158
 20
90.141432088
 10
24.9971470552
 20
90.1963936769
 10
25.0072676358
 20
90.2535343151
 10
25.0144866236
 20
90.3127040423
 10
25.0188394526
 20
90.3740528189
 10
25.0203261226
 20
90.437580645
  0
LWPOLYLINE
  5
256
100
AcDbEntity
  8
0
100
AcDbPolyline
 62
7
  6
CONTINUOUS
 90
3
 70
0
 10
28.3184710015
 20
82.1124328541
 10
28.3563404848
 20
82.1360366027
 10
28.4043747175
 20
82.1714406296
  0
LWPOLYLINE
  5
257
100
AcDbEntity
  8
0
100
AcDbPolyline
 62
253
  6
CONTINUOUS
 90
18
 70
0
 10
53.1278206747
 20
95.9473444995
 10
53.2263544243
 20
96.0070112714
 10
53.3198594904
 20
96.0693174987
 10
53.408124054
 20
96.1341220377
 10
53.4909481673
 20
96.2012780853
 10
53.5681442072
 20
96.2706335115
 10
53.6395372999
 20
96.3420312039
 10
53.7049657169
 20
96.4153094238
 10
53.7642812419
 20
96.4903021724
 10
53.8173495062
 20
96.5668395671
 10
53.864050293
 20
96.6447482259
 10
53.9042778101
 20
96.7238516609
 10
53.9379409291
 20
96.8039706772
 10
53.9649633923
 20
96.8849237794
 10
53.9852839852
 20
96.9665275829
 10
53.998856675
 20
97.0485972286
 10
54.0056507153
 20
97.1309468026
 10
54.0065003312
 20
97.1721682795
  0
LINE
  5
258
100
AcDbEntity
  8
RACCORDO
100
AcDbLine
 62
253
  6
CONTINUOUS
 10
53.9056381341
 20
98.8462440409
 11
53.8990966751
 21
98.8424670845
  0
LINE
  5
259
100
AcDbEntity
  8
0
100
AcDbLine
 62
253
  6
CONTINUOUS
 10
28.5899669147
 20
82.2923853275
 11
28.4497940113
 21
82.2114512499
  0
LINE
  5
25A
100
AcDbEntity
  8
ASSI
100
AcDbLine
 62
7
  6
CONTINUOUS
 10
28.3184714817
 20
82.1124320224
 11
28.6516224819
 21
82.3047892346
  0
LINE
  5
25B
100
AcDbEntity
  8
ASSI
100
AcDbLine
 62
253
  6
CONTINUOUS
 10
53.1278206747
 20
95.9473444995
 11
37.217918098
 21
86.7611661497
  0
LWPOLYLINE
  5
25C
100
AcDbEntity
  8
0
100
AcDbPolyline
 62
7
  6
CONTINUOUS
 90
17
 70
0
 10
28.5154555163
 20
82.2609604478
 10
28.5218453604
 20
82.2645572902
 10
28.548551418
 20
82.277681295
 10
28.576564945
 20
82.288502003
 10
28.6056639344
 20
82.2969336604
 10
28.6358570113
 20
82.3029572837
 10
28.6671355507
 20
82.3065918563
 10
28.6992516703
 20
82.3078085742
 10
28.7322120255
 20
82.3065882252
 10
28.7660099609
 20
82.3029500215
 10
28.8003776282
 20
82.2969227958
 10
28.8353195543
 20
82.2884875651
 10
28.8708312123
 20
82.2776633125
 10
28.9066311724
 20
82.26453582
 10
28.9426256249
 20
82.2491336818
 10
28.9789083795
 20
82.2314283038
 10
29.0154794363
 20
82.2114196859
  0
LWPOLYLINE
  5
25D
100
AcDbEntity
  8
0
100
AcDbPolyline
 62
7
  6
CONTINUOUS
 90
13
 70
0
 10
-21.654060655
 20
-57.8828629538
 10
-21.5757117353
 20
-57.9017143647
 10
-21.4988111666
 20
-57.9157561757
 10
-21.423358949
 20
-57.9249883868
 10
-21.3492019586
 20
-57.9294101974
 10
-21.2764933193
 20
-57.929022408
 10
-21.2056924023
 20
-57.9238274208
 10
-21.1368112829
 20
-57.9137948012
 10
-21.0698378859
 20
-57.8989549838
 10
-21.0051953568
 20
-57.879401674
 10
-20.94289845
 20
-57.85510503
 10
-20.8829324111
 20
-57.8260948936
 10
-20.8586828226
 20
-57.8126356801
  0
LWPOLYLINE
  5
25E
100
AcDbEntity
  8
0
100
AcDbPolyline
 62
7
  6
CONTINUOUS
 90
25
 70
0
 10
-21.5757117353
 20
-54.0068202967
 10
-21.6912503785
 20
-53.9009875365
 10
-21.7275743799
 20
-53.8650656296
 10
-21.7630326592
 20
-53.8274306185
 10
-21.7977255231
 20
-53.7879603832
 10
-21.8315526649
 20
-53.7467770437
 10
-21.8642131646
 20
-53.7042469593
 10
-21.895696613
 20
-53.660358114
 10
-21.9260134192
 20
-53.615122524
 10
-21.9548938905
 20
-53.5689425966
 10
-21.9823252115
 20
-53.5218099063
 10
-22.0083201976
 20
-53.4737328788
 10
-22.0326476021
 20
-53.4251391984
 10
-22.0552925464
 20
-53.3760242554
 10
-22.0762699091
 20
-53.3263926597
 10
-22.0953930794
 20
-53.2766859247
 10
-22.1126455138
 20
-53.2269033801
 10
-22.1280437558
 20
-53.1770456963
 10
-22.1414508254
 20
-53.1275563981
 10
-22.152848957
 20
-53.0784387723
 10
-22.1622559163
 20
-53.0296895322
 10
-22.1695880206
 20
-52.9817423421
 10
-22.1748173759
 20
-52.9347417567
 10
-22.1779718762
 20
-52.8885432213
 10
-22.1790515216
 20
-52.8431467359
  0
LWPOLYLINE
  5
25F
100
AcDbEntity
  8
0
100
AcDbPolyline
 62
7
  6
CONTINUOUS
 90
22
 70
0
 10
-46.9984995413
 20
-101.0624985563
 10
-46.9959984014
 20
-101.2140525436
 10
-46.9885881697
 20
-101.3621334133
 10
-46.9762688462
 20
-101.5067411655
 10
-46.9590094984
 20
-101.6480681528
 10
-46.9368410588
 20
-101.7859220224
 10
-46.9098563247
 20
-101.9197257167
 10
-46.8780351069
 20
-102.0494622578
 10
-46.8413975946
 20
-102.1751486236
 10
-46.8000971529
 20
-102.2962586895
 10
-46.7541142354
 20
-102.4127732723
 10
-46.7034683884
 20
-102.5247115551
 10
-46.648371616
 20
-102.6316049632
 10
-46.5888052606
 20
-102.7334323492
 10
-46.5247879798
 20
-102.8302148603
 10
-46.4565877507
 20
-102.921547364
 10
-46.3841870389
 20
-103.0074070147
 10
-46.3076033788
 20
-103.0878166578
 10
-46.2271573503
 20
-103.1624396979
 10
-46.1428327631
 20
-103.2312518783
 10
-46.0546458076
 20
-103.2942774556
 10
-45.963086436
 20
-103.351182862
  0
LINE
  5
260
100
AcDbEntity
  8
ASSI
100
AcDbLine
 62
7
  6
CONTINUOUS
 10
-52.5846431126
 20
89.6007206871
 11
-52.5846431126
 21
138.6120395023
  0
LINE
  5
261
100
AcDbEntity
  8
0
100
AcDbLine
 62
7
  6
CONTINUOUS
 10
-48.4127131036
 20
-100.2459493696
 11
-48.4127131036
 21
71.9355774992
  0
LINE
  5
262
100
AcDbEntity
  8
ASSI
100
AcDbLine
 62
253
  6
CONTINUOUS
 10
-47.1752762366
 20
143.3674126863
 11
-47.1752762366
 21
141.7344721327
  0
LINE
  5
263
100
AcDbEntity
  8
0
100
AcDbLine
 62
7
  6
CONTINUOUS
 10
-46.9984995413
 20
-101.0624985563
 11
-46.9984995413
 21
71.1190283125
  0
LWPOLYLINE
  5
264
100
AcDbEntity
  8
ASSI
100
AcDbPolyline
 62
7
  6
CONTINUOUS
 90
7
 70
0
 10
-12.0568556616
 20
113.0171259346
 10
-12.0666140829
 20
112.9846945383
 10
-12.0796008224
 20
112.9297329495
 10
-12.0897214029
 20
112.8725923112
 10
-12.0969403908
 20
112.813422584
 10
-12.1012932197
 20
112.7520738074
 10
-12.1027798897
 20
112.6885459813
  0
LWPOLYLINE
  5
265
100
AcDbEntity
  8
0
100
AcDbPolyline
 62
7
  6
CONTINUOUS
 90
4
 70
0
 10
28.4043747175
 20
82.1714406296
 10
28.4725036582
 20
82.23145656
 10
28.4965207746
 20
82.2491585734
 10
28.5154555163
 20
82.2609604478
  0
LWPOLYLINE
  5
266
100
AcDbEntity
  8
0
100
AcDbPolyline
 62
7
  6
CONTINUOUS
 90
25
 70
0
 10
33.786151187
 20
-89.8669601689
 10
33.9016898301
 20
-89.9727929291
 10
33.9380138315
 20
-90.0087148359
 10
33.9734721109
 20
-90.0463498471
 10
34.0081649748
 20
-90.0858200824
 10
34.0419921166
 20
-90.1270034219
 10
34.0746526163
 20
-90.1695335063
 10
34.1061360647
 20
-90.2134223515
 10
34.1364528709
 20
-90.2586579416
 10
34.1653333422
 20
-90.304837869
 10
34.1927646632
 20
-90.3519705593
 10
34.2187596493
 20
-90.4000475868
 10
34.2430870538
 20
-90.4486412672
 10
34.2657319981
 20
-90.4977562101
 10
34.2867093608
 20
-90.5473878059
 10
34.3058325311
 20
-90.5970945409
 10
34.3230849655
 20
-90.6468770855
 10
34.3384832074
 20
-90.6967347693
 10
34.3518902771
 20
-90.7462240675
 10
34.3632884087
 20
-90.7953416932
 10
34.3726953679
 20
-90.8440909333
 10
34.3800274723
 20
-90.8920381235
 10
34.3852568275
 20
-90.9390387088
 10
34.3884113279
 20
-90.9852372443
 10
34.3894909733
 20
-91.0306337297
  0
LWPOLYLINE
  5
267
100
AcDbEntity
  8
0
100
AcDbPolyline
 62
7
  6
CONTINUOUS
 90
46
 70
0
 10
-20.8686049541
 20
-53.5985457033
 10
-20.7917043854
 20
-53.6733067414
 10
-20.7162521678
 20
-53.75120486
 10
-20.6420951774
 20
-53.8324176831
 10
-20.5693865381
 20
-53.9167675867
 10
-20.4985856211
 20
-54.0037216981
 10
-20.4297045017
 20
-54.0932965078
 10
-20.3627311047
 20
-54.1854755254
 10
-20.2980885756
 20
-54.2796764074
 10
-20.2357916688
 20
-54.3759119579
 10
-20.17582563
 20
-54.4741693728
 10
-20.1185693413
 20
-54.5738278968
 10
-20.0640399564
 20
-54.6748964043
 10
-20.0122203217
 20
-54.7773660208
 10
-19.9634378593
 20
-54.8805893679
 10
-19.9177117959
 20
-54.9845712217
 10
-19.8750229048
 20
-55.0893068061
 10
-19.8356409275
 20
-55.1941344144
 10
-19.7995867993
 20
-55.2990546335
 10
-19.7668395849
 20
-55.4040668764
 10
-19.737606221
 20
-55.5085076758
 10
-19.7119089532
 20
-55.6123734181
 10
-19.689725536
 20
-55.7156677168
 10
-19.6711961684
 20
-55.8177379449
 10
-19.6563439853
 20
-55.9185763679
 10
-19.6451458519
 20
-56.0181907203
 10
-19.6376725636
 20
-56.1159515787
 10
-19.6339477186
 20
-56.2118472584
 10
-19.6339477186
 20
-56.3058894441
 10
-19.6376725636
 20
-56.3974837662
 10
-19.6451458519
 20
-56.4866146585
 10
-19.6563439853
 20
-56.5732976872
 10
-19.6711961684
 20
-56.6569851814
 10
-19.689725536
 20
-56.7376581603
 10
-19.7119089532
 20
-56.8153356048
 10
-19.737606221
 20
-56.8895267864
 10
-19.7668395849
 20
-56.9602096299
 10
-19.7995867993
 20
-57.0274062106
 10
-19.8356409275
 20
-57.0906920261
 10
-19.8750229048
 20
-57.1500423142
 10
-19.9177117959
 20
-57.2054818371
 10
-19.9634378593
 20
-57.256660379
 10
-20.0122203217
 20
-57.3035509613
 10
-20.0640399564
 20
-57.3461805626
 10
-20.1185693413
 20
-57.3842799032
 10
-20.1515760414
 20
-57.4043610868
  0
LWPOLYLINE
  5
268
100
AcDbEntity
  8
0
100
AcDbPolyline
 62
7
  6
CONTINUOUS
 90
34
 70
0
 10
-14.0220321537
 20
-80.3346009091
 10
-14.0700663864
 20
-80.2437281543
 10
-14.120715558
 20
-80.154442327
 10
-14.1741276731
 20
-80.0665153457
 10
-14.2301547271
 20
-79.980175292
 10
-14.288352706
 20
-79.89610641
 10
-14.3487388598
 20
-79.8143267466
 10
-14.4112959386
 20
-79.734818255
 10
-14.4755281777
 20
-79.6582110395
 10
-14.5414488881
 20
-79.5845281535
 10
-14.609044759
 20
-79.5137465435
 10
-14.6777800935
 20
-79.4464271534
 10
-14.7476639458
 20
-79.3825974939
 10
-14.8186872618
 20
-79.3222300542
 10
-14.890287182
 20
-79.2658032458
 10
-14.9624682884
 20
-79.2133483811
 10
-15.0352259991
 20
-79.1648341477
 10
-15.1079837098
 20
-79.1206450206
 10
-15.1807414204
 20
-79.0808153671
 10
-15.2534991311
 20
-79.04531082
 10
-15.3256802375
 20
-79.0144127524
 10
-15.3972801578
 20
-78.9881577675
 10
-15.4683034737
 20
-78.9665092622
 10
-15.538187326
 20
-78.9496388008
 10
-15.6069226605
 20
-78.9375843495
 10
-15.6745185314
 20
-78.9303079422
 10
-15.7404392418
 20
-78.9278672441
 10
-15.804671481
 20
-78.9303006799
 10
-15.8672285597
 20
-78.9375698251
 10
-15.9276147135
 20
-78.9496170717
 10
-15.9858126924
 20
-78.9664803864
 10
-16.0418397464
 20
-78.9881218026
 10
-16.0952518615
 20
-79.0143698121
 10
-16.1080315498
 20
-79.021563497
  0
LWPOLYLINE
  5
269
100
AcDbEntity
  8
0
100
AcDbPolyline
 62
7
  6
CONTINUOUS
 90
19
 70
0
 10
-13.3149253725
 20
-79.9263263158
 10
-13.2467964318
 20
-80.0650158392
 10
-13.2227793154
 20
-80.1104522166
 10
-13.1974547296
 20
-80.1550951302
 10
-13.1707486721
 20
-80.1990586209
 10
-13.1427351451
 20
-80.2422286477
 10
-13.1136361556
 20
-80.2842630887
 10
-13.0834430787
 20
-80.3251529204
 10
-13.0521645393
 20
-80.3649071662
 10
-13.0200484197
 20
-80.403210774
 10
-12.9870880645
 20
-80.440052217
 10
-12.9532901291
 20
-80.475443022
 10
-12.9189224618
 20
-80.509102717
 10
-12.8839805357
 20
-80.5410175468
 10
-12.8484688777
 20
-80.5712012667
 10
-12.8126689176
 20
-80.5994146708
 10
-12.7766744651
 20
-80.625578024
 10
-12.7403917105
 20
-80.6497710616
 10
-12.7038206537
 20
-80.6719937834
  0
LINE
  5
26A
100
AcDbEntity
  8
0
100
AcDbLine
 62
7
  6
CONTINUOUS
 10
-37.3818473171
 20
134.487424212
 11
-37.3818473171
 21
-100.4088646577
  0
LWPOLYLINE
  5
26B
100
AcDbEntity
  8
0
100
AcDbPolyline
 62
7
  6
CONTINUOUS
 90
10
 70
0
 10
-3.8247554401
 20
102.3976651339
 10
-3.8262580284
 20
102.3932922278
 10
-3.837642193
 20
102.3668029009
 10
-3.8507088053
 20
102.341992069
 10
-3.8653259699
 20
102.3191101746
 10
-3.8815093909
 20
102.2981767544
 10
-3.8992433642
 20
102.2791722719
 10
-3.9183488813
 20
102.2622885598
 10
-3.9388398337
 20
102.2475470977
 10
-3.9495953118
 20
102.2409741545
  0
LWPOLYLINE
  5
26C
100
AcDbEntity
  8
0
100
AcDbPolyline
 62
7
  6
CONTINUOUS
 90
46
 70
0
 10
33.0691222742
 20
60.9035050373
 10
33.0361155742
 20
60.8834238537
 10
32.9815861893
 20
60.8453245131
 10
32.9297665546
 20
60.8026949118
 10
32.8809840922
 20
60.7558043295
 10
32.8352580288
 20
60.7046257876
 10
32.7925691376
 20
60.6491862646
 10
32.7531871604
 20
60.5898359765
 10
32.7171330321
 20
60.526550161
 10
32.6843858178
 20
60.4593535804
 10
32.6551524538
 20
60.3886707369
 10
32.6294551861
 20
60.3144795552
 10
32.6072717688
 20
60.2368021108
 10
32.5887424013
 20
60.1561291319
 10
32.5738902182
 20
60.0724416377
 10
32.5626920848
 20
59.985758609
 10
32.5552187964
 20
59.8966277167
 10
32.5514939514
 20
59.8050333946
 10
32.5514939514
 20
59.7109912089
 10
32.5552187964
 20
59.6150955291
 10
32.5626920848
 20
59.5173346708
 10
32.5738902182
 20
59.4177203183
 10
32.5887424013
 20
59.3168818953
 10
32.6072717688
 20
59.2148116672
 10
32.6294551861
 20
59.1115173686
 10
32.6551524538
 20
59.0076516263
 10
32.6843858178
 20
58.9032108269
 10
32.7171330321
 20
58.7981985839
 10
32.7531871604
 20
58.6932783648
 10
32.7925691376
 20
58.5884507566
 10
32.8352580288
 20
58.4837151722
 10
32.8809840922
 20
58.3797333184
 10
32.9297665546
 20
58.2765099713
 10
32.9815861893
 20
58.1740403547
 10
33.0361155742
 20
58.0729718473
 10
33.0933718628
 20
57.9733133233
 10
33.1533379017
 20
57.8750559083
 10
33.2156348085
 20
57.7788203578
 10
33.2802773376
 20
57.6846194758
 10
33.3472507346
 20
57.5924404583
 10
33.4161318539
 20
57.5028656486
 10
33.4869327709
 20
57.4159115371
 10
33.5596414103
 20
57.3315616336
 10
33.6337984007
 20
57.2503488104
 10
33.7092506183
 20
57.1724506919
 10
33.786151187
 20
57.0976896538
  0
LINE
  5
26D
100
AcDbEntity
  8
ASSI
100
AcDbLine
 62
7
  6
CONTINUOUS
 10
33.0691181306
 20
60.9035122155
 11
33.7762249118
 21
61.3117868088
  0
LINE
  5
26E
100
AcDbEntity
  8
0
100
AcDbLine
 62
253
  6
CONTINUOUS
 10
34.3653824919
 20
61.2629355226
 11
33.8645001067
 21
60.9737323109
  0
LWPOLYLINE
  5
26F
100
AcDbEntity
  8
0
100
AcDbPolyline
 62
7
  6
CONTINUOUS
 90
10
 70
0
 10
33.7762290554
 20
61.3117796306
 10
33.800478644
 20
61.3252388441
 10
33.8604446829
 20
61.3542489805
 10
33.9227415897
 20
61.3785456245
 10
33.9873841188
 20
61.3980989343
 10
34.0543575158
 20
61.4129387517
 10
34.1232386351
 20
61.4229713713
 10
34.1940395521
 20
61.4281663585
 10
34.2667481915
 20
61.4285541479
 10
34.3409051819
 20
61.4241323373
  0
LWPOLYLINE
  5
270
100
AcDbEntity
  8
0
100
AcDbPolyline
 62
7
  6
CONTINUOUS
 90
11
 70
0
 10
34.1824047638
 20
61.0018049718
 10
34.1653333422
 20
60.9925913736
 10
34.1364528709
 20
60.9797618906
 10
34.1061360647
 20
60.9695353884
 10
34.0746526163
 20
60.9620028402
 10
34.0419921166
 20
60.9571882822
 10
34.0081649748
 20
60.9550676781
 10
33.9734721109
 20
60.9556598925
 10
33.9380138315
 20
60.9589712135
 10
33.9016898301
 20
60.964995353
 10
33.8645001067
 20
60.9737323109
  0
LWPOLYLINE
  5
271
100
AcDbEntity
  8
0
100
AcDbPolyline
 62
7
  6
CONTINUOUS
 90
25
 70
0
 10
-21.4719447404
 20
-52.4348721425
 10
-21.470865095
 20
-52.480268628
 10
-21.4677105947
 20
-52.5264671634
 10
-21.4624812394
 20
-52.5734677488
 10
-21.4551491351
 20
-52.6214149389
 10
-21.4457421758
 20
-52.670164179
 10
-21.4343440442
 20
-52.7192818047
 10
-21.4209369746
 20
-52.7687711029
 10
-21.4055387326
 20
-52.8186287868
 10
-21.3882862982
 20
-52.8684113314
 10
-21.3691631279
 20
-52.9181180663
 10
-21.3481857652
 20
-52.9677496621
 10
-21.3255408209
 20
-53.016864605
 10
-21.3012134164
 20
-53.0654582854
 10
-21.2752184303
 20
-53.113535313
 10
-21.2477871093
 20
-53.1606680033
 10
-21.218906638
 20
-53.2068479306
 10
-21.1885898318
 20
-53.2520835207
 10
-21.1571063834
 20
-53.2959723659
 10
-21.1244458837
 20
-53.3385024503
 10
-21.0906187419
 20
-53.3796857899
 10
-21.055925878
 20
-53.4191560252
 10
-21.0204675987
 20
-53.4567910363
 10
-20.9841435973
 20
-53.4927129431
 10
-20.8686049541
 20
-53.5985457033
  0
LINE
  5
272
100
AcDbEntity
  8
0
100
AcDbLine
 62
7
  6
CONTINUOUS
 10
-22.1790515216
 20
-76.0176634195
 11
-22.1790515216
 21
-58.3686662635
  0
LINE
  5
273
100
AcDbEntity
  8
0
100
AcDbLine
 62
7
  6
CONTINUOUS
 10
-22.1790515216
 20
-52.8431467359
 11
-22.1790515216
 21
88.5959835592
  0
LINE
  5
274
100
AcDbEntity
  8
0
100
AcDbLine
 62
7
  6
CONTINUOUS
 10
-22.1790515216
 20
94.1215030868
 11
-22.1790515216
 21
110.9540299661
  0
LINE
  5
275
100
AcDbEntity
  8
0
100
AcDbLine
 62
7
  6
CONTINUOUS
 10
-21.4719447404
 20
-57.9603916702
 11
-21.4719447404
 21
-57.9190435081
  0
LINE
  5
276
100
AcDbEntity
  8
0
100
AcDbLine
 62
7
  6
CONTINUOUS
 10
-21.4719447404
 20
-75.6093888262
 11
-21.4719447404
 21
-57.9603916702
  0
LINE
  5
277
100
AcDbEntity
  8
0
100
AcDbLine
 62
7
  6
CONTINUOUS
 10
-21.4719447404
 20
89.0042581525
 11
-21.4719447404
 21
89.0456063146
  0
LINE
  5
278
100
AcDbEntity
  8
0
100
AcDbLine
 62
7
  6
CONTINUOUS
 10
-21.4719447404
 20
-52.4348721425
 11
-21.4719447404
 21
89.0042581525
  0
LINE
  5
279
100
AcDbEntity
  8
0
100
AcDbLine
 62
7
  6
CONTINUOUS
 10
-21.4719447404
 20
94.5297776802
 11
-21.4719447404
 21
111.3623045594
  0
LWPOLYLINE
  5
27A
100
AcDbEntity
  8
0
100
AcDbPolyline
 62
7
  6
CONTINUOUS
 90
16
 70
0
 10
-22.1790515216
 20
88.5959835592
 10
-22.1779718762
 20
88.6401332972
 10
-22.1748173759
 20
88.6826890947
 10
-22.1695880206
 20
88.7236509517
 10
-22.1622559163
 20
88.7631312115
 10
-22.152848957
 20
88.8010175309
 10
-22.1414508254
 20
88.83697288
 10
-22.1280437558
 20
88.8709800302
 10
-22.1126455138
 20
88.9030562101
 10
-22.0953930794
 20
88.932916076
 10
-22.0762699091
 20
88.9605398532
 10
-22.0552925464
 20
88.9859473163
 10
-22.0326476021
 20
89.0089124452
 10
-22.0083201976
 20
89.0294134487
 10
-21.9823252115
 20
89.0474721179
 10
-21.9719653121
 20
89.053714208
  0
LINE
  5
27B
100
AcDbEntity
  8
0
100
AcDbLine
 62
7
  6
CONTINUOUS
 10
-21.4709366217
 20
89.0454829628
 11
-21.4719447404
 21
89.0042581525
  0
LWPOLYLINE
  5
27C
100
AcDbEntity
  8
0
100
AcDbPolyline
 62
7
  6
CONTINUOUS
 90
16
 70
0
 10
-22.1790515216
 20
-58.3686662635
 10
-22.1779718762
 20
-58.3245165255
 10
-22.1748173759
 20
-58.281960728
 10
-22.1695880206
 20
-58.240998871
 10
-22.1622559163
 20
-58.2015186112
 10
-22.152848957
 20
-58.1636322918
 10
-22.1414508254
 20
-58.1276769428
 10
-22.1280437558
 20
-58.0936697926
 10
-22.1126455138
 20
-58.0615936126
 10
-22.0953930794
 20
-58.0317337467
 10
-22.0762699091
 20
-58.0041099695
 10
-22.0552925464
 20
-57.9787025064
 10
-22.0326476021
 20
-57.9557373775
 10
-22.0083201976
 20
-57.935236374
 10
-21.9823252115
 20
-57.9171777048
 10
-21.9719653121
 20
-57.9109356147
  0
LWPOLYLINE
  5
27D
100
AcDbEntity
  8
0
100
AcDbPolyline
 62
7
  6
CONTINUOUS
 90
15
 70
0
 10
-22.1790515216
 20
110.9540299661
 10
-22.1778216386
 20
111.0010580245
 10
-22.1742407916
 20
111.0462500136
 10
-22.1683089808
 20
111.0896059333
 10
-22.1599903059
 20
111.1312597583
 10
-22.1493206672
 20
111.171077514
 10
-22.1364077648
 20
111.2086572764
 10
-22.1212288787
 20
111.2439763789
 10
-22.1038067289
 20
111.2770574882
 10
-22.0843171761
 20
111.3075666807
 10
-22.0627392814
 20
111.3354779076
 10
-22.0390939838
 20
111.3608172177
 10
-22.0136199609
 20
111.3833288338
 10
-21.986298691
 20
111.4029841166
 10
-21.9719580536
 20
111.4117480409
  0
LWPOLYLINE
  5
27E
100
AcDbEntity
  8
ASSI
100
AcDbPolyline
 62
7
  6
CONTINUOUS
 90
10
 70
0
 10
23.9031995829
 20
92.3055203013
 10
23.899431087
 20
92.2990929377
 10
23.8806094416
 20
92.2604148365
 10
23.8642201895
 20
92.2193681096
 10
23.8502854475
 20
92.1759312206
 10
23.8387830988
 20
92.1301257059
 10
23.8298174124
 20
92.0823667922
 10
23.8234231443
 20
92.0327928883
 10
23.8195655384
 20
91.9812655854
 10
23.8182445946
 20
91.9277848834
  0
LWPOLYLINE
  5
27F
100
AcDbEntity
  8
0
100
AcDbPolyline
 62
7
  6
CONTINUOUS
 90
35
 70
0
 10
28.4725036582
 20
-104.9697660322
 10
28.4043747175
 20
-104.8310765088
 10
28.3563404848
 20
-104.740203754
 10
28.3056913132
 20
-104.6509179267
 10
28.2522791981
 20
-104.5629909454
 10
28.1962521441
 20
-104.4766508917
 10
28.1380541652
 20
-104.3925820097
 10
28.0776680114
 20
-104.3108023463
 10
28.0151109326
 20
-104.2312938547
 10
27.9508786935
 20
-104.1546866391
 10
27.884957983
 20
-104.0810037531
 10
27.8173621122
 20
-104.0102221432
 10
27.7486267777
 20
-103.9429027531
 10
27.6787429254
 20
-103.8790730935
 10
27.6077196094
 20
-103.8187056538
 10
27.5361196891
 20
-103.7622788455
 10
27.4639385828
 20
-103.7098239807
 10
27.3911808721
 20
-103.6613097473
 10
27.3184231614
 20
-103.6171206203
 10
27.2456654507
 20
-103.5772909668
 10
27.1729077401
 20
-103.5417864196
 10
27.1007266337
 20
-103.5108883521
 10
27.0291267134
 20
-103.4846333672
 10
26.9581033975
 20
-103.4629848619
 10
26.8882195452
 20
-103.4461144005
 10
26.8194842107
 20
-103.4340599492
 10
26.7518883398
 20
-103.4267835418
 10
26.6859676294
 20
-103.4243428438
 10
26.6217353902
 20
-103.4267762796
 10
26.5591783115
 20
-103.4340454247
 10
26.4987921577
 20
-103.4460926713
 10
26.4405941788
 20
-103.4629559861
 10
26.3845671248
 20
-103.4845974022
 10
26.3311550097
 20
-103.5108454117
 10
26.3183753214
 20
-103.5180390966
  0
LWPOLYLINE
  5
280
100
AcDbEntity
  8
ASSI
100
AcDbPolyline
 62
7
  6
CONTINUOUS
 90
36
 70
0
 10
-11.8906478554
 20
-87.0813308294
 10
-11.8893269116
 20
-87.1363369242
 10
-11.8854693056
 20
-87.1923188938
 10
-11.8790750375
 20
-87.2492767382
 10
-11.8701093511
 20
-87.3073890019
 10
-11.8586070025
 20
-87.3664771404
 10
-11.8446722604
 20
-87.4260055204
 10
-11.8282830084
 20
-87.4859781446
 10
-11.8094613629
 20
-87.5463910103
 10
-11.788377942
 20
-87.6066964754
 10
-11.7650121805
 20
-87.6668935633
 10
-11.7393846435
 20
-87.7269832507
 10
-11.7117276445
 20
-87.786420825
 10
-11.6820227306
 20
-87.845200357
 10
-11.6502883547
 20
-87.903327776
 10
-11.6168121884
 20
-87.9602761575
 10
-11.5815783947
 20
-88.0160347812
 10
-11.5446028108
 20
-88.0706143674
 10
-11.5062206198
 20
-88.1235201527
 10
-11.4664190324
 20
-88.1747369181
 10
-11.4252108379
 20
-88.2242798827
 10
-11.3829695884
 20
-88.2716999398
 10
-11.3396858908
 20
-88.3169777872
 10
-11.295369138
 20
-88.3601327272
 10
-11.2504210611
 20
-88.4007735607
 10
-11.2048359197
 20
-88.4388774283
 10
-11.1586194541
 20
-88.4744671894
 10
-11.1121906161
 20
-88.5072202232
 10
-11.0655474748
 20
-88.5371107369
 10
-11.0186919611
 20
-88.5641645233
 10
-10.9720488197
 20
-88.5881363401
 10
-10.9256199818
 20
-88.6089981646
 10
-10.8794035162
 20
-88.6267780194
 10
-10.8338183748
 20
-88.6413147305
 10
-10.7888702978
 20
-88.6525788096
 10
-10.7445535451
 20
-88.6605997448
  0
LWPOLYLINE
  5
281
100
AcDbEntity
  8
0
100
AcDbPolyline
 62
7
  6
CONTINUOUS
 90
25
 70
0
 10
-21.4719447404
 20
94.5297776802
 10
-21.470865095
 20
94.4843811947
 10
-21.4677105947
 20
94.4381826593
 10
-21.4624812394
 20
94.3911820739
 10
-21.4551491351
 20
94.3432348838
 10
-21.4457421758
 20
94.2944856437
 10
-21.4343440442
 20
94.245368018
 10
-21.4209369746
 20
94.1958787198
 10
-21.4055387326
 20
94.146021036
 10
-21.3882862982
 20
94.0962384913
 10
-21.3691631279
 20
94.0465317564
 10
-21.3481857652
 20
93.9969001606
 10
-21.3255408209
 20
93.9477852177
 10
-21.3012134164
 20
93.8991915373
 10
-21.2752184303
 20
93.8511145097
 10
-21.2477871093
 20
93.8039818194
 10
-21.218906638
 20
93.7578018921
 10
-21.1885898318
 20
93.712566302
 10
-21.1571063834
 20
93.6686774568
 10
-21.1244458837
 20
93.6261473724
 10
-21.0906187419
 20
93.5849640328
 10
-21.055925878
 20
93.5454937976
 10
-21.0204675987
 20
93.5078587864
 10
-20.9841435973
 20
93.4719368796
 10
-20.8686049541
 20
93.3661041194
  0
LWPOLYLINE
  5
282
100
AcDbEntity
  8
ASSI
100
AcDbPolyline
 62
7
  6
CONTINUOUS
 90
46
 70
0
 10
-12.8098866709
 20
-87.3467112878
 10
-12.8084000009
 20
-87.4119558831
 10
-12.804047172
 20
-87.4783311975
 10
-12.7968281841
 20
-87.5458372309
 10
-12.7867076036
 20
-87.6146648619
 10
-12.7737208641
 20
-87.684623212
 10
-12.7579742671
 20
-87.7551396456
 10
-12.7394451602
 20
-87.8262187433
 10
-12.7181561958
 20
-87.8978559245
 10
-12.6942816321
 20
-87.9694648118
 10
-12.6678002471
 20
-88.041045173
 10
-12.6387332627
 20
-88.1125972402
 10
-12.6073186033
 20
-88.1835353327
 10
-12.5735369997
 20
-88.2538544112
 10
-12.537407721
 20
-88.3235595151
 10
-12.4992264991
 20
-88.3920800816
 10
-12.4589764921
 20
-88.4594063884
 10
-12.4166745418
 20
-88.5255481578
 10
-12.3726669058
 20
-88.5899639946
 10
-12.3269395841
 20
-88.6526397325
 10
-12.2795065767
 20
-88.7135895377
 10
-12.2307561406
 20
-88.772314513
 10
-12.1806774627
 20
-88.8287963974
 10
-12.1292813561
 20
-88.8830534519
 10
-12.0769885175
 20
-88.9346415619
 10
-12.0237915866
 20
-88.9835388214
 10
-11.9696979236
 20
-89.0297671364
 10
-11.9151503057
 20
-89.0729481107
 10
-11.8601450068
 20
-89.1130567324
 10
-11.804685753
 20
-89.1501180134
 10
-11.7492264991
 20
-89.183828593
 10
-11.6937672453
 20
-89.2141609696
 10
-11.6383079914
 20
-89.2411426448
 10
-11.5833026926
 20
-89.2645527635
 10
-11.5287550746
 20
-89.2843620111
 10
-11.4746614117
 20
-89.3005997022
 10
-11.4214644808
 20
-89.3131329251
 10
-11.3691716421
 20
-89.3219312743
 10
-11.3177755356
 20
-89.3270251554
 10
-11.2676968577
 20
-89.328372873
 10
-11.2189464216
 20
-89.3259436793
 10
-11.1715134141
 20
-89.3197683221
 10
-11.1257860925
 20
-89.3098973491
 10
-11.0817784564
 20
-89.2963004274
 10
-11.0394765062
 20
-89.2790078897
 10
-10.9991902589
 20
-89.2581403595
  0
LWPOLYLINE
  5
283
100
AcDbEntity
  8
ASSI
100
AcDbPolyline
 62
7
  6
CONTINUOUS
 90
37
 70
0
 10
-12.1027798897
 20
-86.9384366945
 10
-12.1012932197
 20
-87.0036812898
 10
-12.0969403908
 20
-87.0700566041
 10
-12.0897214029
 20
-87.1375626376
 10
-12.0796008224
 20
-87.2063902686
 10
-12.0666140829
 20
-87.2763486187
 10
-12.0508674859
 20
-87.3468650523
 10
-12.032338379
 20
-87.41794415
 10
-12.0110494146
 20
-87.4895813312
 10
-11.9871748509
 20
-87.5611902185
 10
-11.9606934659
 20
-87.6327705796
 10
-11.9316264816
 20
-87.7043226469
 10
-11.9002118222
 20
-87.7752607394
 10
-11.8664302185
 20
-87.8455798179
 10
-11.8303009398
 20
-87.9152849217
 10
-11.7921197179
 20
-87.9838054882
 10
-11.7518697109
 20
-88.051131795
 10
-11.7095677606
 20
-88.1172735645
 10
-11.6655601246
 20
-88.1816894012
 10
-11.6198328029
 20
-88.2443651392
 10
-11.5723997955
 20
-88.3053149444
 10
-11.5236493594
 20
-88.3640399197
 10
-11.4735706815
 20
-88.4205218041
 10
-11.4221745749
 20
-88.4747788586
 10
-11.3698817363
 20
-88.5263669686
 10
-11.3166848054
 20
-88.5752642281
 10
-11.2625911424
 20
-88.6214925431
 10
-11.2080435245
 20
-88.6646735174
 10
-11.1530382256
 20
-88.704782139
 10
-11.0975789718
 20
-88.74184342
 10
-11.0421197179
 20
-88.7755539997
 10
-10.9866604641
 20
-88.8058863762
 10
-10.9312012102
 20
-88.8328680515
 10
-10.8761959114
 20
-88.8562781701
 10
-10.8216482934
 20
-88.8760874178
 10
-10.7675546305
 20
-88.8923251088
 10
-10.7344905555
 20
-88.900115021
  0
LWPOLYLINE
  5
284
100
AcDbEntity
  8
ASSI
100
AcDbPolyline
 62
7
  6
CONTINUOUS
 90
46
 70
0
 10
-10.6885663273
 20
-88.5715350678
 10
-10.6900529973
 20
-88.5062904725
 10
-10.6944058263
 20
-88.4399151582
 10
-10.7016248141
 20
-88.3724091248
 10
-10.7117453947
 20
-88.3035814937
 10
-10.7247321342
 20
-88.2336231437
 10
-10.7404787312
 20
-88.1631067101
 10
-10.759007838
 20
-88.0920276123
 10
-10.7802968024
 20
-88.0203904311
 10
-10.8041713661
 20
-87.9487815438
 10
-10.8306527512
 20
-87.8772011827
 10
-10.8597197355
 20
-87.8056491155
 10
-10.8911343949
 20
-87.7347110229
 10
-10.9249159985
 20
-87.6643919444
 10
-10.9610452772
 20
-87.5946868406
 10
-10.9992264991
 20
-87.5261662741
 10
-11.0394765062
 20
-87.4588399673
 10
-11.0817784564
 20
-87.3926981978
 10
-11.1257860925
 20
-87.3282823611
 10
-11.1715134141
 20
-87.2656066232
 10
-11.2189464216
 20
-87.2046568179
 10
-11.2676968577
 20
-87.1459318427
 10
-11.3177755356
 20
-87.0894499582
 10
-11.3691716421
 20
-87.0351929038
 10
-11.4214644808
 20
-86.9836047937
 10
-11.4746614117
 20
-86.9347075343
 10
-11.5287550746
 20
-86.8884792193
 10
-11.5833026926
 20
-86.845298245
 10
-11.6383079914
 20
-86.8051896233
 10
-11.6937672453
 20
-86.7681283423
 10
-11.7492264991
 20
-86.7344177626
 10
-11.804685753
 20
-86.7040853861
 10
-11.8601450068
 20
-86.6771037109
 10
-11.9151503057
 20
-86.6536935922
 10
-11.9696979236
 20
-86.6338843446
 10
-12.0237915866
 20
-86.6176466535
 10
-12.0769885175
 20
-86.6051134306
 10
-12.1292813561
 20
-86.5963150813
 10
-12.1806774627
 20
-86.5912212003
 10
-12.2307561406
 20
-86.5898734827
 10
-12.2795065767
 20
-86.5923026763
 10
-12.3269395841
 20
-86.5984780335
 10
-12.3726669058
 20
-86.6083490066
 10
-12.4166745418
 20
-86.6219459283
 10
-12.4589764921
 20
-86.6392384659
 10
-12.4992627393
 20
-86.6601059961
  0
LWPOLYLINE
  5
285
100
AcDbEntity
  8
ASSI
100
AcDbPolyline
 62
7
  6
CONTINUOUS
 90
46
 70
0
 10
-12.8098866709
 20
112.280271388
 10
-12.8084000009
 20
112.2150267927
 10
-12.804047172
 20
112.1486514784
 10
-12.7968281841
 20
112.0811454449
 10
-12.7867076036
 20
112.0123178139
 10
-12.7737208641
 20
111.9423594638
 10
-12.7579742671
 20
111.8718430303
 10
-12.7394451602
 20
111.8007639325
 10
-12.7181561958
 20
111.7291267513
 10
-12.6942816321
 20
111.657517864
 10
-12.6678002471
 20
111.5859375029
 10
-12.6387332627
 20
111.5143854357
 10
-12.6073186033
 20
111.4434473431
 10
-12.5735369997
 20
111.3731282646
 10
-12.537407721
 20
111.3034231608
 10
-12.4992264991
 20
111.2349025943
 10
-12.4589764921
 20
111.1675762875
 10
-12.4166745418
 20
111.101434518
 10
-12.3726669058
 20
111.0370186813
 10
-12.3269395841
 20
110.9743429433
 10
-12.2795065767
 20
110.9133931381
 10
-12.2307561406
 20
110.8546681629
 10
-12.1806774627
 20
110.7981862784
 10
-12.1292813561
 20
110.7439292239
 10
-12.0769885175
 20
110.6923411139
 10
-12.0237915866
 20
110.6434438545
 10
-11.9696979236
 20
110.5972155395
 10
-11.9151503057
 20
110.5540345652
 10
-11.8601450068
 20
110.5139259435
 10
-11.804685753
 20
110.4768646625
 10
-11.7492264991
 20
110.4431540828
 10
-11.6937672453
 20
110.4128217063
 10
-11.6383079914
 20
110.3858400311
 10
-11.5833026926
 20
110.3624299124
 10
-11.5287550746
 20
110.3426206648
 10
-11.4746614117
 20
110.3263829737
 10
-11.4214644808
 20
110.3138497508
 10
-11.3691716421
 20
110.3050514015
 10
-11.3177755356
 20
110.2999575204
 10
-11.2676968577
 20
110.2986098029
 10
-11.2189464216
 20
110.3010389965
 10
-11.1715134141
 20
110.3072143537
 10
-11.1257860925
 20
110.3170853268
 10
-11.0817784564
 20
110.3306822485
 10
-11.0394765062
 20
110.3479747861
 10
-10.9991902589
 20
110.3688423163
  0
LWPOLYLINE
  5
286
100
AcDbEntity
  8
ASSI
100
AcDbPolyline
 62
7
  6
CONTINUOUS
 90
37
 70
0
 10
-12.1027798897
 20
112.6885459813
 10
-12.1012932197
 20
112.6233013861
 10
-12.0969403908
 20
112.5569260717
 10
-12.0897214029
 20
112.4894200383
 10
-12.0796008224
 20
112.4205924073
 10
-12.0666140829
 20
112.3506340572
 10
-12.0508674859
 20
112.2801176236
 10
-12.032338379
 20
112.2090385259
 10
-12.0110494146
 20
112.1374013446
 10
-11.9871748509
 20
112.0657924573
 10
-11.9606934659
 20
111.9942120962
 10
-11.9316264816
 20
111.922660029
 10
-11.9002118222
 20
111.8517219365
 10
-11.8664302185
 20
111.7814028579
 10
-11.8303009398
 20
111.7116977541
 10
-11.7921197179
 20
111.6431771876
 10
-11.7518697109
 20
111.5758508808
 10
-11.7095677606
 20
111.5097091114
 10
-11.6655601246
 20
111.4452932746
 10
-11.6198328029
 20
111.3826175367
 10
-11.5723997955
 20
111.3216677315
 10
-11.5236493594
 20
111.2629427562
 10
-11.4735706815
 20
111.2064608718
 10
-11.4221745749
 20
111.1522038173
 10
-11.3698817363
 20
111.1006157073
 10
-11.3166848054
 20
111.0517184478
 10
-11.2625911424
 20
111.0054901328
 10
-11.2080435245
 20
110.9623091585
 10
-11.1530382256
 20
110.9222005368
 10
-11.0975789718
 20
110.8851392558
 10
-11.0421197179
 20
110.8514286762
 10
-10.9866604641
 20
110.8210962996
 10
-10.9312012102
 20
110.7941146244
 10
-10.8761959114
 20
110.7707045057
 10
-10.8216482934
 20
110.7508952581
 10
-10.7675546305
 20
110.734657567
 10
-10.7344905555
 20
110.7268676548
  0
LINE
  5
287
100
AcDbEntity
  8
0
100
AcDbLine
 62
7
  6
CONTINUOUS
 10
-20.0577311781
 20
-74.6907808549
 11
-20.0577311781
 21
-57.3409906244
  0
LINE
  5
288
100
AcDbEntity
  8
0
100
AcDbLine
 62
7
  6
CONTINUOUS
 10
-20.0577311781
 20
-54.6873715616
 11
-20.0577311781
 21
89.6236591983
  0
LINE
  5
289
100
AcDbEntity
  8
0
100
AcDbLine
 62
7
  6
CONTINUOUS
 10
-20.0577311781
 20
92.2772782611
 11
-20.0577311781
 21
110.5456764629
  0
LINE
  5
28A
100
AcDbEntity
  8
0
100
AcDbLine
 62
7
  6
CONTINUOUS
 10
-21.4709366217
 20
-57.9191668599
 11
-21.4719447404
 21
-57.9603916702
  0
LWPOLYLINE
  5
28B
100
AcDbEntity
  8
0
100
AcDbPolyline
 62
7
  6
CONTINUOUS
 90
19
 70
0
 10
29.1114814987
 20
-104.4228019154
 10
29.1796104394
 20
-104.5614914389
 10
29.2036275558
 20
-104.6069278163
 10
29.2289521416
 20
-104.6515707299
 10
29.2556581991
 20
-104.6955342205
 10
29.2836717261
 20
-104.7387042474
 10
29.3127707156
 20
-104.7807386884
 10
29.3429637925
 20
-104.8216285201
 10
29.3742423319
 20
-104.8613827659
 10
29.4063584515
 20
-104.8996863737
 10
29.4393188067
 20
-104.9365278167
 10
29.4731167421
 20
-104.9719186216
 10
29.5074844093
 20
-105.0055783167
 10
29.5424263355
 20
-105.0374931465
 10
29.5779379935
 20
-105.0676768663
 10
29.6137379536
 20
-105.0958902705
 10
29.6497324061
 20
-105.1220536237
 10
29.6860151607
 20
-105.1462466612
 10
29.7225862175
 20
-105.1684693831
  0
LWPOLYLINE
  5
28C
100
AcDbEntity
  8
ASSI
100
AcDbPolyline
 62
7
  6
CONTINUOUS
 90
36
 70
0
 10
-11.8906478554
 20
112.5456518464
 10
-11.8893269116
 20
112.4906457516
 10
-11.8854693056
 20
112.434663782
 10
-11.8790750375
 20
112.3777059376
 10
-11.8701093511
 20
112.3195936739
 10
-11.8586070025
 20
112.2605055354
 10
-11.8446722604
 20
112.2009771555
 10
-11.8282830084
 20
112.1410045312
 10
-11.8094613629
 20
112.0805916656
 10
-11.788377942
 20
112.0202862005
 10
-11.7650121805
 20
111.9600891125
 10
-11.7393846435
 20
111.8999994252
 10
-11.7117276445
 20
111.8405618508
 10
-11.6820227306
 20
111.7817823188
 10
-11.6502883547
 20
111.7236548998
 10
-11.6168121884
 20
111.6667065183
 10
-11.5815783947
 20
111.6109478946
 10
-11.5446028108
 20
111.5563683084
 10
-11.5062206198
 20
111.5034625231
 10
-11.4664190324
 20
111.4522457577
 10
-11.4252108379
 20
111.4027027932
 10
-11.3829695884
 20
111.355282736
 10
-11.3396858908
 20
111.3100048887
 10
-11.295369138
 20
111.2668499487
 10
-11.2504210611
 20
111.2262091152
 10
-11.2048359197
 20
111.1881052476
 10
-11.1586194541
 20
111.1525154865
 10
-11.1121906161
 20
111.1197624526
 10
-11.0655474748
 20
111.0898719389
 10
-11.0186919611
 20
111.0628181526
 10
-10.9720488197
 20
111.0388463358
 10
-10.9256199818
 20
111.0179845113
 10
-10.8794035162
 20
111.0002046564
 10
-10.8338183748
 20
110.9856679454
 10
-10.7888702978
 20
110.9744038663
 10
-10.7445535451
 20
110.966382931
  0
LWPOLYLINE
  5
28D
100
AcDbEntity
  8
ASSI
100
AcDbPolyline
 62
7
  6
CONTINUOUS
 90
46
 70
0
 10
-10.6885663273
 20
111.055447608
 10
-10.6900529973
 20
111.1206922033
 10
-10.6944058263
 20
111.1870675177
 10
-10.7016248141
 20
111.2545735511
 10
-10.7117453947
 20
111.3234011821
 10
-10.7247321342
 20
111.3933595322
 10
-10.7404787312
 20
111.4638759658
 10
-10.759007838
 20
111.5349550635
 10
-10.7802968024
 20
111.6065922447
 10
-10.8041713661
 20
111.678201132
 10
-10.8306527512
 20
111.7497814932
 10
-10.8597197355
 20
111.8213335604
 10
-10.8911343949
 20
111.8922716529
 10
-10.9249159985
 20
111.9625907314
 10
-10.9610452772
 20
112.0322958352
 10
-10.9992264991
 20
112.1008164018
 10
-11.0394765062
 20
112.1681427085
 10
-11.0817784564
 20
112.234284478
 10
-11.1257860925
 20
112.2987003147
 10
-11.1715134141
 20
112.3613760527
 10
-11.2189464216
 20
112.4223258579
 10
-11.2676968577
 20
112.4810508332
 10
-11.3177755356
 20
112.5375327176
 10
-11.3691716421
 20
112.5917897721
 10
-11.4214644808
 20
112.6433778821
 10
-11.4746614117
 20
112.6922751416
 10
-11.5287550746
 20
112.7385034566
 10
-11.5833026926
 20
112.7816844309
 10
-11.6383079914
 20
112.8217930526
 10
-11.6937672453
 20
112.8588543335
 10
-11.7492264991
 20
112.8925649132
 10
-11.804685753
 20
112.9228972897
 10
-11.8601450068
 20
112.949878965
 10
-11.9151503057
 20
112.9732890837
 10
-11.9696979236
 20
112.9930983313
 10
-12.0237915866
 20
113.0093360223
 10
-12.0769885175
 20
113.0218692452
 10
-12.1292813561
 20
113.0306675945
 10
-12.1806774627
 20
113.0357614756
 10
-12.2307561406
 20
113.0371091931
 10
-12.2795065767
 20
113.0346799995
 10
-12.3269395841
 20
113.0285046423
 10
-12.3726669058
 20
113.0186336693
 10
-12.4166745418
 20
113.0050367475
 10
-12.4589764921
 20
112.9877442099
 10
-12.4992627393
 20
112.9668766797
  0
LWPOLYLINE
  5
28E
100
AcDbEntity
  8
0
100
AcDbPolyline
 62
7
  6
CONTINUOUS
 90
15
 70
0
 10
-4.5023044043
 20
102.1407170734
 10
-4.5004595797
 20
102.2112591611
 10
-4.4977739444
 20
102.2451531529
 10
-4.4933250863
 20
102.2776700927
 10
-4.4870860802
 20
102.3089104614
 10
-4.4790838511
 20
102.3387737782
 10
-4.4693991744
 20
102.3669586
 10
-4.4580150097
 20
102.3934479269
 10
-4.4449483974
 20
102.4182587588
 10
-4.4303312328
 20
102.4411406532
 10
-4.4141478118
 20
102.4620740734
 10
-4.3964138386
 20
102.481078556
 10
-4.3773083214
 20
102.4979622681
 10
-4.356817369
 20
102.5127037302
 10
-4.3460618909
 20
102.5192766734
  0
LWPOLYLINE
  5
28F
100
AcDbEntity
  8
ASSI
100
AcDbPolyline
 62
7
  6
CONTINUOUS
 90
7
 70
0
 10
23.6520367884
 20
92.3992589715
 10
23.642278367
 20
92.3668275753
 10
23.6292916275
 20
92.3118659864
 10
23.619171047
 20
92.2547253481
 10
23.6119520591
 20
92.1955556209
 10
23.6075992302
 20
92.1342068443
 10
23.6061125602
 20
92.0706790183
  0
LINE
  5
290
100
AcDbEntity
  8
ASSI
100
AcDbLine
 62
7
  6
CONTINUOUS
 10
-49.8439814268
 20
78.2675213385
 11
-52.2097712711
 21
82.5023400746
  0
LINE
  5
291
100
AcDbEntity
  8
ASSI
100
AcDbLine
 62
7
  6
CONTINUOUS
 10
-48.4297678644
 20
77.4509721519
 11
-50.7955577087
 21
81.6857908879
  0
LWPOLYLINE
  5
292
100
AcDbEntity
  8
ASSI
100
AcDbPolyline
 62
7
  6
CONTINUOUS
 90
19
 70
0
 10
-52.2097712711
 20
82.5023400746
 10
-52.4002458105
 20
82.858168126
 10
-52.5802839057
 20
83.2248094385
 10
-52.7498855568
 20
83.6022640118
 10
-52.9091452448
 20
83.9907853652
 10
-53.0579684886
 20
84.3901199794
 10
-53.1960718453
 20
84.7995072975
 10
-53.3234348854
 20
85.2189664777
 10
-53.4400780383
 20
85.6484783617
 10
-53.5457791502
 20
86.087224918
 10
-53.6405173681
 20
86.5352237459
 10
-53.7243135449
 20
86.9924572462
 10
-53.7970080857
 20
87.4580545897
 10
-53.8585798334
 20
87.9320317162
 10
-53.9090499451
 20
88.414372686
 10
-53.9483222975
 20
88.9041588515
 10
-53.9763648494
 20
89.4010839966
 10
-53.9932096419
 20
89.9054543374
 10
-53.998856675
 20
90.4172698737
  0
LWPOLYLINE
  5
293
100
AcDbEntity
  8
ASSI
100
AcDbPolyline
 62
7
  6
CONTINUOUS
 90
19
 70
0
 10
-49.8439814268
 20
78.2675213385
 10
-49.6916017953
 20
77.9828588973
 10
-49.5475713191
 20
77.6895458474
 10
-49.4118899982
 20
77.3875821887
 10
-49.2844822478
 20
77.0767651061
 10
-49.1654236528
 20
76.7572974147
 10
-49.0549409674
 20
76.4297875602
 10
-48.9530505354
 20
76.094220216
 10
-48.859736013
 20
75.7506107088
 10
-48.7751751235
 20
75.3996134638
 10
-48.6993845492
 20
75.0412144014
 10
-48.6323476078
 20
74.6754276013
 10
-48.5741919751
 20
74.3029497264
 10
-48.5249345769
 20
73.9237680252
 10
-48.4845584876
 20
73.5378952494
 10
-48.4531406057
 20
73.146066317
 10
-48.4307065642
 20
72.7485262009
 10
-48.4172307302
 20
72.3450299283
 10
-48.4127131036
 20
71.9355774992
  0
LWPOLYLINE
  5
294
100
AcDbEntity
  8
ASSI
100
AcDbPolyline
 62
7
  6
CONTINUOUS
 90
19
 70
0
 10
-50.7955577087
 20
81.6857908879
 10
-50.9860322481
 20
82.0416189394
 10
-51.1660703434
 20
82.4082602518
 10
-51.3356719945
 20
82.7857148252
 10
-51.4949316824
 20
83.1742361785
 10
-51.6437549262
 20
83.5735707928
 10
-51.781858283
 20
83.9829581109
 10
-51.909221323
 20
84.402417291
 10
-52.0258644759
 20
84.831929175
 10
-52.1315655879
 20
85.2706757314
 10
-52.2263038057
 20
85.7186745593
 10
-52.3100999825
 20
86.1759080595
 10
-52.3827945233
 20
86.6415054031
 10
-52.444366271
 20
87.1154825296
 10
-52.4948363827
 20
87.5978234994
 10
-52.5341087351
 20
88.0876096648
 10
-52.562151287
 20
88.58453481
 10
-52.5789960795
 20
89.0889051507
 10
-52.5846431126
 20
89.6007206871
  0
LWPOLYLINE
  5
295
100
AcDbEntity
  8
ASSI
100
AcDbPolyline
 62
7
  6
CONTINUOUS
 90
19
 70
0
 10
-48.4297678644
 20
77.4509721519
 10
-48.2773882329
 20
77.1663097107
 10
-48.1333577567
 20
76.8729966607
 10
-47.9976764358
 20
76.5710330021
 10
-47.8702686854
 20
76.2602159194
 10
-47.7512100904
 20
75.940748228
 10
-47.640727405
 20
75.6132383735
 10
-47.538836973
 20
75.2776710294
 10
-47.4455224506
 20
74.9340615222
 10
-47.3609615611
 20
74.5830642771
 10
-47.2851709868
 20
74.2246652148
 10
-47.2181340454
 20
73.8588784146
 10
-47.1599784127
 20
73.4864005397
 10
-47.1107210146
 20
73.1072188386
 10
-47.0703449252
 20
72.7213460627
 10
-47.0389270433
 20
72.3295171304
 10
-47.0164930018
 20
71.9319770142
 10
-47.0030171678
 20
71.5284807416
 10
-46.9984995413
 20
71.1190283125
  0
LWPOLYLINE
  5
296
100
AcDbEntity
  8
0
100
AcDbPolyline
 62
7
  6
CONTINUOUS
 90
28
 70
0
 10
16.7108990313
 20
89.9640865398
 10
16.7127438559
 20
89.891414095
 10
16.7154294911
 20
89.854418799
 10
16.7198783493
 20
89.8167644293
 10
16.7261173554
 20
89.7783194127
 10
16.7341195845
 20
89.7392153224
 10
16.7438042612
 20
89.6998468786
 10
16.7551884259
 20
89.6602114038
 10
16.7682550382
 20
89.6203115754
 10
16.7828722028
 20
89.5805501458
 10
16.7990556238
 20
89.5409285167
 10
16.816789597
 20
89.5014452863
 10
16.8358951142
 20
89.4624990018
 10
16.8563860666
 20
89.4240951016
 10
16.8782485629
 20
89.3862281472
 10
16.9012619213
 20
89.349280371
 10
16.9254377978
 20
89.3132610826
 10
16.9507645363
 20
89.2781609725
 10
16.9769864866
 20
89.2443343441
 10
17.0041127154
 20
89.2117940955
 10
17.032134156
 20
89.1805273286
 10
17.0607679575
 20
89.150849653
 10
17.090020322
 20
89.1227771631
 10
17.1198850474
 20
89.0962937645
 10
17.1500606766
 20
89.0716667827
 10
17.1804467238
 20
89.0489853265
 10
17.2111436748
 20
89.0281602872
 10
17.2421515295
 20
89.0091916648
  0
LWPOLYLINE
  5
297
100
AcDbEntity
  8
ASSI
100
AcDbPolyline
 62
7
  6
CONTINUOUS
 90
36
 70
0
 10
23.8182445946
 20
-107.6991977925
 10
23.8195655384
 20
-107.7542038873
 10
23.8234231443
 20
-107.8101858569
 10
23.8298174124
 20
-107.8671437013
 10
23.8387830988
 20
-107.925255965
 10
23.8502854475
 20
-107.9843441035
 10
23.8642201895
 20
-108.0438724834
 10
23.8806094416
 20
-108.1038451077
 10
23.899431087
 20
-108.1642579733
 10
23.920514508
 20
-108.2245634384
 10
23.9438802694
 20
-108.2847605264
 10
23.9695078064
 20
-108.3448502137
 10
23.9971648054
 20
-108.4042877881
 10
24.0268697193
 20
-108.4630673201
 10
24.0586040953
 20
-108.5211947391
 10
24.0920802615
 20
-108.5781431206
 10
24.1273140552
 20
-108.6339017443
 10
24.1642896392
 20
-108.6884813305
 10
24.2026718301
 20
-108.7413871158
 10
24.2424734176
 20
-108.7926038812
 10
24.283681612
 20
-108.8421468457
 10
24.3259228615
 20
-108.8895669029
 10
24.3692065591
 20
-108.9348447502
 10
24.4135233119
 20
-108.9779996902
 10
24.4584713888
 20
-109.0186405237
 10
24.5040565302
 20
-109.0567443913
 10
24.5502729958
 20
-109.0923341524
 10
24.5967018338
 20
-109.1250871863
 10
24.6433449751
 20
-109.1549777
 10
24.6902004888
 20
-109.1820314863
 10
24.7368436302
 20
-109.2060033031
 10
24.7832724682
 20
-109.2268651276
 10
24.8294889337
 20
-109.2446449825
 10
24.8750740752
 20
-109.2591816935
 10
24.9200221521
 20
-109.2704457726
 10
24.9643389048
 20
-109.2784667079
  0
LWPOLYLINE
  5
298
100
AcDbEntity
  8
ASSI
100
AcDbPolyline
 62
7
  6
CONTINUOUS
 90
46
 70
0
 10
22.899005779
 20
-107.9645782509
 10
22.900492449
 20
-108.0298228462
 10
22.904845278
 20
-108.0961981605
 10
22.9120642658
 20
-108.163704194
 10
22.9221848464
 20
-108.232531825
 10
22.9351715858
 20
-108.3024901751
 10
22.9509181829
 20
-108.3730066086
 10
22.9694472897
 20
-108.4440857064
 10
22.9907362541
 20
-108.5157228876
 10
23.0146108178
 20
-108.5873317749
 10
23.0410922028
 20
-108.658912136
 10
23.0701591872
 20
-108.7304642032
 10
23.1015738466
 20
-108.8014022958
 10
23.1353554502
 20
-108.8717213743
 10
23.1714847289
 20
-108.9414264781
 10
23.2096659508
 20
-109.0099470446
 10
23.2499159578
 20
-109.0772733514
 10
23.2922179081
 20
-109.1434151209
 10
23.3362255441
 20
-109.2078309576
 10
23.3819528658
 20
-109.2705066955
 10
23.4293858733
 20
-109.3314565008
 10
23.4781363094
 20
-109.390181476
 10
23.5282149873
 20
-109.4466633605
 10
23.5796110938
 20
-109.500920415
 10
23.6319039325
 20
-109.552508525
 10
23.6851008633
 20
-109.6014057844
 10
23.7391945263
 20
-109.6476340994
 10
23.7937421442
 20
-109.6908150737
 10
23.8487474431
 20
-109.7309236954
 10
23.904206697
 20
-109.7679849764
 10
23.9596659508
 20
-109.8016955561
 10
24.0151252046
 20
-109.8320279326
 10
24.0705844585
 20
-109.8590096078
 10
24.1255897574
 20
-109.8824197265
 10
24.1801373753
 20
-109.9022289741
 10
24.2342310383
 20
-109.9184666652
 10
24.2874279691
 20
-109.9309998881
 10
24.3397208078
 20
-109.9397982374
 10
24.3911169143
 20
-109.9448921185
 10
24.4411955922
 20
-109.946239836
 10
24.4899460283
 20
-109.9438106424
 10
24.5373790358
 20
-109.9376352852
 10
24.5831063575
 20
-109.9277643121
 10
24.6271139935
 20
-109.9141673904
 10
24.6694159438
 20
-109.8968748528
 10
24.709702191
 20
-109.8760073226
  0
LWPOLYLINE
  5
299
100
AcDbEntity
  8
ASSI
100
AcDbPolyline
 62
7
  6
CONTINUOUS
 90
37
 70
0
 10
23.6061125602
 20
-107.5563036576
 10
23.6075992302
 20
-107.6215482528
 10
23.6119520591
 20
-107.6879235672
 10
23.619171047
 20
-107.7554296006
 10
23.6292916275
 20
-107.8242572316
 10
23.642278367
 20
-107.8942155817
 10
23.658024964
 20
-107.9647320153
 10
23.6765540709
 20
-108.035811113
 10
23.6978430353
 20
-108.1074482943
 10
23.721717599
 20
-108.1790571816
 10
23.748198984
 20
-108.2506375427
 10
23.7772659684
 20
-108.3221896099
 10
23.8086806278
 20
-108.3931277024
 10
23.8424622314
 20
-108.4634467809
 10
23.8785915101
 20
-108.5331518848
 10
23.916772732
 20
-108.6016724513
 10
23.957022739
 20
-108.6689987581
 10
23.9993246893
 20
-108.7351405275
 10
24.0433323253
 20
-108.7995563643
 10
24.089059647
 20
-108.8622321022
 10
24.1364926544
 20
-108.9231819074
 10
24.1852430905
 20
-108.9819068827
 10
24.2353217685
 20
-109.0383887671
 10
24.286717875
 20
-109.0926458216
 10
24.3390107137
 20
-109.1442339316
 10
24.3922076445
 20
-109.1931311911
 10
24.4463013075
 20
-109.2393595061
 10
24.5008489254
 20
-109.2825404804
 10
24.5558542243
 20
-109.3226491021
 10
24.6113134781
 20
-109.3597103831
 10
24.666772732
 20
-109.3934209627
 10
24.7222319858
 20
-109.4237533393
 10
24.7776912397
 20
-109.4507350145
 10
24.8326965385
 20
-109.4741451332
 10
24.8872441565
 20
-109.4939543808
 10
24.9413378194
 20
-109.5101920719
 10
24.9744018944
 20
-109.5179819841
  0
LWPOLYLINE
  5
29A
100
AcDbEntity
  8
ASSI
100
AcDbPolyline
 62
7
  6
CONTINUOUS
 90
46
 70
0
 10
25.0203261226
 20
-109.1894020309
 10
25.0188394526
 20
-109.1241574356
 10
25.0144866236
 20
-109.0577821212
 10
25.0072676358
 20
-108.9902760878
 10
24.9971470552
 20
-108.9214484568
 10
24.9841603158
 20
-108.8514901067
 10
24.9684137187
 20
-108.7809736731
 10
24.9498846119
 20
-108.7098945754
 10
24.9285956475
 20
-108.6382573942
 10
24.9047210838
 20
-108.5666485069
 10
24.8782396988
 20
-108.4950681457
 10
24.8491727144
 20
-108.4235160785
 10
24.817758055
 20
-108.352577986
 10
24.7839764514
 20
-108.2822589075
 10
24.7478471727
 20
-108.2125538037
 10
24.7096659508
 20
-108.1440332371
 10
24.6694159438
 20
-108.0767069304
 10
24.6271139935
 20
-108.0105651609
 10
24.5831063575
 20
-107.9461493242
 10
24.5373790358
 20
-107.8834735862
 10
24.4899460283
 20
-107.822523781
 10
24.4411955922
 20
-107.7637988057
 10
24.3911169143
 20
-107.7073169213
 10
24.3397208078
 20
-107.6530598668
 10
24.2874279691
 20
-107.6014717568
 10
24.2342310383
 20
-107.5525744973
 10
24.1801373753
 20
-107.5063461823
 10
24.1255897574
 20
-107.463165208
 10
24.0705844585
 20
-107.4230565863
 10
24.0151252046
 20
-107.3859953054
 10
23.9596659508
 20
-107.3522847257
 10
23.904206697
 20
-107.3219523491
 10
23.8487474431
 20
-107.2949706739
 10
23.7937421442
 20
-107.2715605552
 10
23.7391945263
 20
-107.2517513076
 10
23.6851008633
 20
-107.2355136165
 10
23.6319039325
 20
-107.2229803937
 10
23.5796110938
 20
-107.2141820444
 10
23.5282149873
 20
-107.2090881633
 10
23.4781363094
 20
-107.2077404458
 10
23.4293858733
 20
-107.2101696394
 10
23.3819528658
 20
-107.2163449966
 10
23.3362255441
 20
-107.2262159696
 10
23.2922179081
 20
-107.2398128914
 10
23.2499159578
 20
-107.257105429
 10
23.2096297106
 20
-107.2779729592
  0
LWPOLYLINE
  5
29B
100
AcDbEntity
  8
ASSI
100
AcDbPolyline
 62
7
  6
CONTINUOUS
 90
7
 70
0
 10
-12.0568556616
 20
-86.6098567413
 10
-12.0666140829
 20
-86.6422881375
 10
-12.0796008224
 20
-86.6972497264
 10
-12.0897214029
 20
-86.7543903647
 10
-12.0969403908
 20
-86.8135600919
 10
-12.1012932197
 20
-86.8749088685
 10
-12.1027798897
 20
-86.9384366945
  0
LWPOLYLINE
  5
29C
100
AcDbEntity
  8
ASSI
100
AcDbPolyline
 62
7
  6
CONTINUOUS
 90
36
 70
0
 10
23.8182445946
 20
91.9277848834
 10
23.8195655384
 20
91.8727787886
 10
23.8234231443
 20
91.816796819
 10
23.8298174124
 20
91.7598389746
 10
23.8387830988
 20
91.7017267109
 10
23.8502854475
 20
91.6426385724
 10
23.8642201895
 20
91.5831101924
 10
23.8806094416
 20
91.5231375682
 10
23.899431087
 20
91.4627247025
 10
23.920514508
 20
91.4024192374
 10
23.9438802694
 20
91.3422221495
 10
23.9695078064
 20
91.2821324621
 10
23.9971648054
 20
91.2226948878
 10
24.0268697193
 20
91.1639153558
 10
24.0586040953
 20
91.1057879368
 10
24.0920802615
 20
91.0488395553
 10
24.1273140552
 20
90.9930809316
 10
24.1642896392
 20
90.9385013454
 10
24.2026718301
 20
90.8855955601
 10
24.2424734176
 20
90.8343787947
 10
24.283681612
 20
90.7848358301
 10
24.3259228615
 20
90.737415773
 10
24.3692065591
 20
90.6921379256
 10
24.4135233119
 20
90.6489829856
 10
24.4584713888
 20
90.6083421521
 10
24.5040565302
 20
90.5702382845
 10
24.5502729958
 20
90.5346485234
 10
24.5967018338
 20
90.5018954896
 10
24.6433449751
 20
90.4720049759
 10
24.6902004888
 20
90.4449511895
 10
24.7368436302
 20
90.4209793727
 10
24.7832724682
 20
90.4001175482
 10
24.8294889337
 20
90.3823376934
 10
24.8750740752
 20
90.3678009823
 10
24.9200221521
 20
90.3565369032
 10
24.9643389048
 20
90.348515968
  0
LWPOLYLINE
  5
29D
100
AcDbEntity
  8
ASSI
100
AcDbPolyline
 62
7
  6
CONTINUOUS
 90
46
 70
0
 10
22.899005779
 20
91.662404425
 10
22.900492449
 20
91.5971598297
 10
22.904845278
 20
91.5307845153
 10
22.9120642658
 20
91.4632784819
 10
22.9221848464
 20
91.3944508509
 10
22.9351715858
 20
91.3244925008
 10
22.9509181829
 20
91.2539760672
 10
22.9694472897
 20
91.1828969695
 10
22.9907362541
 20
91.1112597883
 10
23.0146108178
 20
91.039650901
 10
23.0410922028
 20
90.9680705398
 10
23.0701591872
 20
90.8965184726
 10
23.1015738466
 20
90.8255803801
 10
23.1353554502
 20
90.7552613016
 10
23.1714847289
 20
90.6855561977
 10
23.2096659508
 20
90.6170356312
 10
23.2499159578
 20
90.5497093244
 10
23.2922179081
 20
90.483567555
 10
23.3362255441
 20
90.4191517182
 10
23.3819528658
 20
90.3564759803
 10
23.4293858733
 20
90.2955261751
 10
23.4781363094
 20
90.2368011998
 10
23.5282149873
 20
90.1803193154
 10
23.5796110938
 20
90.1260622609
 10
23.6319039325
 20
90.0744741509
 10
23.6851008633
 20
90.0255768914
 10
23.7391945263
 20
89.9793485764
 10
23.7937421442
 20
89.9361676021
 10
23.8487474431
 20
89.8960589804
 10
23.904206697
 20
89.8589976994
 10
23.9596659508
 20
89.8252871198
 10
24.0151252046
 20
89.7949547432
 10
24.0705844585
 20
89.767973068
 10
24.1255897574
 20
89.7445629493
 10
24.1801373753
 20
89.7247537017
 10
24.2342310383
 20
89.7085160106
 10
24.2874279691
 20
89.6959827877
 10
24.3397208078
 20
89.6871844385
 10
24.3911169143
 20
89.6820905574
 10
24.4411955922
 20
89.6807428398
 10
24.4899460283
 20
89.6831720335
 10
24.5373790358
 20
89.6893473906
 10
24.5831063575
 20
89.6992183637
 10
24.6271139935
 20
89.7128152854
 10
24.6694159438
 20
89.7301078231
 10
24.709702191
 20
89.7509753533
  0
LWPOLYLINE
  5
29E
100
AcDbEntity
  8
ASSI
100
AcDbPolyline
 62
7
  6
CONTINUOUS
 90
37
 70
0
 10
23.6061125602
 20
92.0706790183
 10
23.6075992302
 20
92.005434423
 10
23.6119520591
 20
91.9390591086
 10
23.619171047
 20
91.8715530752
 10
23.6292916275
 20
91.8027254442
 10
23.642278367
 20
91.7327670941
 10
23.658024964
 20
91.6622506605
 10
23.6765540709
 20
91.5911715628
 10
23.6978430353
 20
91.5195343816
 10
23.721717599
 20
91.4479254943
 10
23.748198984
 20
91.3763451332
 10
23.7772659684
 20
91.3047930659
 10
23.8086806278
 20
91.2338549734
 10
23.8424622314
 20
91.1635358949
 10
23.8785915101
 20
91.0938307911
 10
23.916772732
 20
91.0253102245
 10
23.957022739
 20
90.9579839178
 10
23.9993246893
 20
90.8918421483
 10
24.0433323253
 20
90.8274263116
 10
24.089059647
 20
90.7647505736
 10
24.1364926544
 20
90.7038007684
 10
24.1852430905
 20
90.6450757931
 10
24.2353217685
 20
90.5885939087
 10
24.286717875
 20
90.5343368542
 10
24.3390107137
 20
90.4827487442
 10
24.3922076445
 20
90.4338514847
 10
24.4463013075
 20
90.3876231697
 10
24.5008489254
 20
90.3444421954
 10
24.5558542243
 20
90.3043335737
 10
24.6113134781
 20
90.2672722928
 10
24.666772732
 20
90.2335617131
 10
24.7222319858
 20
90.2032293366
 10
24.7776912397
 20
90.1762476613
 10
24.8326965385
 20
90.1528375427
 10
24.8872441565
 20
90.133028295
 10
24.9413378194
 20
90.116790604
 10
24.9744018944
 20
90.1090006918
  0
LWPOLYLINE
  5
29F
100
AcDbEntity
  8
ASSI
100
AcDbPolyline
 62
7
  6
CONTINUOUS
 90
46
 70
0
 10
25.0203261226
 20
90.437580645
 10
25.0188394526
 20
90.5028252403
 10
25.0144866236
 20
90.5692005546
 10
25.0072676358
 20
90.636706588
 10
24.9971470552
 20
90.7055342191
 10
24.9841603158
 20
90.7754925691
 10
24.9684137187
 20
90.8460090027
 10
24.9498846119
 20
90.9170881004
 10
24.9285956475
 20
90.9887252817
 10
24.9047210838
 20
91.060334169
 10
24.8782396988
 20
91.1319145301
 10
24.8491727144
 20
91.2034665973
 10
24.817758055
 20
91.2744046899
 10
24.7839764514
 20
91.3447237684
 10
24.7478471727
 20
91.4144288722
 10
24.7096659508
 20
91.4829494387
 10
24.6694159438
 20
91.5502757455
 10
24.6271139935
 20
91.616417515
 10
24.5831063575
 20
91.6808333517
 10
24.5373790358
 20
91.7435090896
 10
24.4899460283
 20
91.8044588949
 10
24.4411955922
 20
91.8631838701
 10
24.3911169143
 20
91.9196657546
 10
24.3397208078
 20
91.973922809
 10
24.2874279691
 20
92.0255109191
 10
24.2342310383
 20
92.0744081785
 10
24.1801373753
 20
92.1206364935
 10
24.1255897574
 20
92.1638174678
 10
24.0705844585
 20
92.2039260895
 10
24.0151252046
 20
92.2409873705
 10
23.9596659508
 20
92.2746979502
 10
23.904206697
 20
92.3050303267
 10
23.8487474431
 20
92.3320120019
 10
23.7937421442
 20
92.3554221206
 10
23.7391945263
 20
92.3752313682
 10
23.6851008633
 20
92.3914690593
 10
23.6319039325
 20
92.4040022822
 10
23.5796110938
 20
92.4128006315
 10
23.5282149873
 20
92.4178945125
 10
23.4781363094
 20
92.4192422301
 10
23.4293858733
 20
92.4168130365
 10
23.3819528658
 20
92.4106376793
 10
23.3362255441
 20
92.4007667062
 10
23.2922179081
 20
92.3871697845
 10
23.2499159578
 20
92.3698772469
 10
23.2096297106
 20
92.3490097166
  0
LINE
  5
2A0
100
AcDbEntity
  8
ASSI
100
AcDbLine
 62
253
  6
CONTINUOUS
 10
25.6567222256
 20
101.3151295736
 11
25.6567222256
 21
99.68218902
  0
LWPOLYLINE
  5
2A1
100
AcDbEntity
  8
0
100
AcDbPolyline
 62
7
  6
CONTINUOUS
 90
16
 70
0
 10
34.3894909733
 20
61.4595356206
 10
34.3884113279
 20
61.4153858827
 10
34.3852568275
 20
61.3728300852
 10
34.3800274723
 20
61.3318682281
 10
34.3726953679
 20
61.2923879683
 10
34.3632884087
 20
61.254501649
 10
34.3518902771
 20
61.2185462999
 10
34.3384832074
 20
61.1845391497
 10
34.3230849655
 20
61.1524629697
 10
34.3058325311
 20
61.1226031039
 10
34.2867093608
 20
61.0949793267
 10
34.2657319981
 20
61.0695718635
 10
34.2430870538
 20
61.0466067347
 10
34.2187596493
 20
61.0261057312
 10
34.1927646632
 20
61.0080470619
 10
34.1824047638
 20
61.0018049718
  0
LWPOLYLINE
  5
2A2
100
AcDbEntity
  8
ASSI
100
AcDbPolyline
 62
7
  6
CONTINUOUS
 90
10
 70
0
 10
-11.805692867
 20
-86.7035954115
 10
-11.8094613629
 20
-86.7100227751
 10
-11.8282830084
 20
-86.7487008763
 10
-11.8446722604
 20
-86.7897476032
 10
-11.8586070025
 20
-86.8331844922
 10
-11.8701093511
 20
-86.8789900069
 10
-11.8790750375
 20
-86.9267489206
 10
-11.8854693056
 20
-86.9763228245
 10
-11.8893269116
 20
-87.0278501274
 10
-11.8906478554
 20
-87.0813308294
  0
LWPOLYLINE
  5
2A3
100
AcDbEntity
  8
0
100
AcDbPolyline
 62
7
  6
CONTINUOUS
 90
35
 70
0
 10
-16.2620642066
 20
108.0606353893
 10
-16.1939352658
 20
107.9219458659
 10
-16.1459010331
 20
107.8310731111
 10
-16.0952518615
 20
107.7417872838
 10
-16.0418397464
 20
107.6538603025
 10
-15.9858126924
 20
107.5675202488
 10
-15.9276147135
 20
107.4834513668
 10
-15.8672285597
 20
107.4016717034
 10
-15.804671481
 20
107.3221632118
 10
-15.7404392418
 20
107.2455559963
 10
-15.6745185314
 20
107.1718731103
 10
-15.6069226605
 20
107.1010915003
 10
-15.538187326
 20
107.0337721102
 10
-15.4683034737
 20
106.9699424507
 10
-15.3972801578
 20
106.909575011
 10
-15.3256802375
 20
106.8531482026
 10
-15.2534991311
 20
106.8006933379
 10
-15.1807414204
 20
106.7521791045
 10
-15.1079837098
 20
106.7079899774
 10
-15.0352259991
 20
106.6681603239
 10
-14.9624682884
 20
106.6326557768
 10
-14.890287182
 20
106.6017577092
 10
-14.8186872618
 20
106.5755027243
 10
-14.7476639458
 20
106.553854219
 10
-14.6777800935
 20
106.5369837576
 10
-14.609044759
 20
106.5249293063
 10
-14.5414488881
 20
106.517652899
 10
-14.4755281777
 20
106.5152122009
 10
-14.4112959386
 20
106.5176456367
 10
-14.3487388598
 20
106.5249147819
 10
-14.288352706
 20
106.5369620285
 10
-14.2301547271
 20
106.5538253432
 10
-14.1741276731
 20
106.5754667593
 10
-14.120715558
 20
106.6017147689
 10
-14.1079358697
 20
106.6089084538
  0
LWPOLYLINE
  5
2A4
100
AcDbEntity
  8
0
100
AcDbPolyline
 62
7
  6
CONTINUOUS
 90
22
 70
0
 10
42.8040616694
 20
-152.9133719089
 10
42.8065628093
 20
-153.0649258962
 10
42.813973041
 20
-153.213006766
 10
42.8262923645
 20
-153.3576145182
 10
42.8435517123
 20
-153.4989415054
 10
42.8657201519
 20
-153.636795375
 10
42.892704886
 20
-153.7705990693
 10
42.9245261038
 20
-153.9003356105
 10
42.9611636161
 20
-154.0260219762
 10
43.0024640578
 20
-154.1471320421
 10
43.0484469753
 20
-154.2636466249
 10
43.0990928223
 20
-154.3755849078
 10
43.1541895947
 20
-154.4824783159
 10
43.2137559501
 20
-154.5843057018
 10
43.2777732309
 20
-154.6810882129
 10
43.34597346
 20
-154.7724207167
 10
43.4183741718
 20
-154.8582803673
 10
43.4949578319
 20
-154.9386900105
 10
43.5754038604
 20
-155.0133130506
 10
43.6597284476
 20
-155.082125231
 10
43.7479154031
 20
-155.1451508083
 10
43.8394747747
 20
-155.2020562146
  0
LINE
  5
2A5
100
AcDbEntity
  8
0
100
AcDbLine
 62
7
  6
CONTINUOUS
 10
34.3894909733
 20
78.2920624998
 11
34.3894909733
 21
61.4595356206
  0
LINE
  5
2A6
100
AcDbEntity
  8
0
100
AcDbLine
 62
7
  6
CONTINUOUS
 10
34.3894909733
 20
55.934016093
 11
34.3894909733
 21
-85.5051142021
  0
LINE
  5
2A7
100
AcDbEntity
  8
0
100
AcDbLine
 62
7
  6
CONTINUOUS
 10
34.3894909733
 20
-91.0306337297
 11
34.3894909733
 21
-108.6796308857
  0
LINE
  5
2A8
100
AcDbEntity
  8
ASSI
100
AcDbLine
 62
7
  6
CONTINUOUS
 10
35.8037045357
 20
38.5663965211
 11
35.8037045357
 21
87.5777153363
  0
LINE
  5
2A9
100
AcDbEntity
  8
ASSI
100
AcDbLine
 62
7
  6
CONTINUOUS
 10
37.217918098
 20
37.7498473345
 11
37.217918098
 21
86.7611661497
  0
LINE
  5
2AA
100
AcDbEntity
  8
0
100
AcDbLine
 62
7
  6
CONTINUOUS
 10
41.389848107
 20
-152.0968227223
 11
41.389848107
 21
20.0847041466
  0
LINE
  5
2AB
100
AcDbEntity
  8
0
100
AcDbLine
 62
7
  6
CONTINUOUS
 10
42.8040616694
 20
-152.9133719089
 11
42.8040616694
 21
19.2681549599
  0
LWPOLYLINE
  5
2AC
100
AcDbEntity
  8
0
100
AcDbPolyline
 62
7
  6
CONTINUOUS
 90
16
 70
0
 10
34.3894909733
 20
-85.5051142021
 10
34.3884113279
 20
-85.5492639401
 10
34.3852568275
 20
-85.5918197375
 10
34.3800274723
 20
-85.6327815946
 10
34.3726953679
 20
-85.6722618544
 10
34.3632884087
 20
-85.7101481737
 10
34.3518902771
 20
-85.7461035228
 10
34.3384832074
 20
-85.780110673
 10
34.3230849655
 20
-85.812186853
 10
34.3058325311
 20
-85.8420467188
 10
34.2867093608
 20
-85.869670496
 10
34.2657319981
 20
-85.8950779592
 10
34.2430870538
 20
-85.9180430881
 10
34.2187596493
 20
-85.9385440915
 10
34.1927646632
 20
-85.9566027608
 10
34.1824047638
 20
-85.9628448509
  0
LWPOLYLINE
  5
2AD
100
AcDbEntity
  8
0
100
AcDbPolyline
 62
7
  6
CONTINUOUS
 90
46
 70
0
 10
-20.8586828226
 20
-57.8126356801
 10
-20.8256761225
 20
-57.7925544965
 10
-20.7711467376
 20
-57.754455156
 10
-20.7193271029
 20
-57.7118255547
 10
-20.6705446405
 20
-57.6649349724
 10
-20.6248185771
 20
-57.6137564304
 10
-20.582129686
 20
-57.5583169075
 10
-20.5427477087
 20
-57.4989666194
 10
-20.5066935804
 20
-57.4356808039
 10
-20.4739463661
 20
-57.3684842232
 10
-20.4447130022
 20
-57.2978013797
 10
-20.4190157344
 20
-57.2236101981
 10
-20.3968323171
 20
-57.1459327537
 10
-20.3783029496
 20
-57.0652597747
 10
-20.3634507665
 20
-56.9815722805
 10
-20.3522526331
 20
-56.8948892518
 10
-20.3447793448
 20
-56.8057583595
 10
-20.3410544998
 20
-56.7141640374
 10
-20.3410544998
 20
-56.6201218517
 10
-20.3447793448
 20
-56.524226172
 10
-20.3522526331
 20
-56.4264653136
 10
-20.3634507665
 20
-56.3268509612
 10
-20.3783029496
 20
-56.2260125382
 10
-20.3968323171
 20
-56.1239423101
 10
-20.4190157344
 20
-56.0206480114
 10
-20.4447130022
 20
-55.9167822692
 10
-20.4739463661
 20
-55.8123414698
 10
-20.5066935804
 20
-55.7073292268
 10
-20.5427477087
 20
-55.6024090077
 10
-20.582129686
 20
-55.4975813994
 10
-20.6248185771
 20
-55.3928458151
 10
-20.6705446405
 20
-55.2888639613
 10
-20.7193271029
 20
-55.1856406141
 10
-20.7711467376
 20
-55.0831709976
 10
-20.8256761225
 20
-54.9821024901
 10
-20.8829324111
 20
-54.8824439661
 10
-20.94289845
 20
-54.7841865512
 10
-21.0051953568
 20
-54.6879510007
 10
-21.0698378859
 20
-54.5937501187
 10
-21.1368112829
 20
-54.5015711011
 10
-21.2056924023
 20
-54.4119962915
 10
-21.2764933193
 20
-54.32504218
 10
-21.3492019586
 20
-54.2406922764
 10
-21.423358949
 20
-54.1594794533
 10
-21.4988111666
 20
-54.0815813348
 10
-21.5757117353
 20
-54.0068202967
  0
LINE
  5
2AE
100
AcDbEntity
  8
0
100
AcDbLine
 62
253
  6
CONTINUOUS
 10
-21.4719447404
 20
-52.4348721425
 11
-22.1790515216
 21
-52.8431467359
  0
LINE
  5
2AF
100
AcDbEntity
  8
0
100
AcDbLine
 62
253
  6
CONTINUOUS
 10
-20.9469538738
 20
-53.5269217457
 11
-21.654060655
 21
-53.935196339
  0
LINE
  5
2B0
100
AcDbEntity
  8
0
100
AcDbLine
 62
253
  6
CONTINUOUS
 10
-21.4719447404
 20
-57.9603916702
 11
-22.1790515216
 21
-58.3686662635
  0
LINE
  5
2B1
100
AcDbEntity
  8
ASSI
100
AcDbLine
 62
7
  6
CONTINUOUS
 10
-20.858678679
 20
-57.8126428584
 11
-20.1515718978
 21
-57.4043682651
  0
LWPOLYLINE
  5
2B2
100
AcDbEntity
  8
0
100
AcDbPolyline
 62
7
  6
CONTINUOUS
 90
11
 70
0
 10
-21.9719653121
 20
-57.9109356147
 10
-21.9548938905
 20
-57.9017220164
 10
-21.9260134192
 20
-57.8888925334
 10
-21.895696613
 20
-57.8786660313
 10
-21.8642131646
 20
-57.8711334831
 10
-21.8315526649
 20
-57.8663189251
 10
-21.7977255231
 20
-57.864198321
 10
-21.7630326592
 20
-57.8647905353
 10
-21.7275743799
 20
-57.8681018564
 10
-21.6912503785
 20
-57.8741259958
 10
-21.654060655
 20
-57.8828629538
  0
LINE
  5
2B3
100
AcDbEntity
  8
ASSI
100
AcDbLine
 62
253
  6
CONTINUOUS
 10
-48.4127131036
 20
71.9355774992
 11
-46.9984995413
 21
71.1190283125
  0
LINE
  5
2B4
100
AcDbEntity
  8
ASSI
100
AcDbLine
 62
253
  6
CONTINUOUS
 10
42.8040616694
 20
19.2681549599
 11
41.389848107
 21
20.0847041466
  0
LINE
  5
2B5
100
AcDbEntity
  8
ASSI
100
AcDbLine
 62
253
  6
CONTINUOUS
 10
-49.8439814268
 20
78.2675213385
 11
-48.4297678644
 21
77.4509721519
  0
LINE
  5
2B6
100
AcDbEntity
  8
ASSI
100
AcDbLine
 62
253
  6
CONTINUOUS
 10
41.3727933463
 20
25.6000987993
 11
39.9585797839
 21
26.4166479859
  0
LINE
  5
2B7
100
AcDbEntity
  8
ASSI
100
AcDbLine
 62
253
  6
CONTINUOUS
 10
-52.2097712711
 20
82.5023400746
 11
-50.7955577087
 21
81.6857908879
  0
LINE
  5
2B8
100
AcDbEntity
  8
ASSI
100
AcDbLine
 62
253
  6
CONTINUOUS
 10
39.007003502
 20
29.8349175353
 11
37.5927899396
 21
30.6514667219
  0
LINE
  5
2B9
100
AcDbEntity
  8
0
100
AcDbLine
 62
253
  6
CONTINUOUS
 10
53.1278206747
 20
95.9473444995
 11
53.1278206747
 21
-151.0349142303
  0
LINE
  5
2BA
100
AcDbEntity
  8
RACCORDO
100
AcDbLine
 62
7
  6
CONTINUOUS
 10
53.9056381341
 20
98.8462440409
 11
53.9056381341
 21
98.7873851797
  0
LINE
  5
2BB
100
AcDbEntity
  8
0
100
AcDbLine
 62
7
  6
CONTINUOUS
 10
54.0065003312
 20
97.1721682795
 11
54.0065003312
 21
-149.8100904503
  0
LWPOLYLINE
  5
2BC
100
AcDbEntity
  8
ASSI
100
AcDbPolyline
 62
7
  6
CONTINUOUS
 90
7
 70
0
 10
23.6520367884
 20
-107.2277237043
 10
23.642278367
 20
-107.2601551006
 10
23.6292916275
 20
-107.3151166894
 10
23.619171047
 20
-107.3722573277
 10
23.6119520591
 20
-107.4314270549
 10
23.6075992302
 20
-107.4927758315
 10
23.6061125602
 20
-107.5563036576
  0
LWPOLYLINE
  5
2BD
100
AcDbEntity
  8
0
100
AcDbPolyline
 62
7
  6
CONTINUOUS
 90
4
 70
0
 10
-16.1939352658
 20
-79.0805712725
 10
-16.2620642066
 20
-79.1405872029
 10
-16.2860813229
 20
-79.1582892163
 10
-16.3050160646
 20
-79.1700910906
  0
LINE
  5
2BE
100
AcDbEntity
  8
0
100
AcDbLine
 62
7
  6
CONTINUOUS
 10
-20.0577311781
 20
-74.6907808549
 11
-21.4719447404
 21
-75.5073300416
  0
LINE
  5
2BF
100
AcDbEntity
  8
ASSI
100
AcDbLine
 62
7
  6
CONTINUOUS
 10
-21.4719447404
 20
-75.6093888262
 11
-22.1790515216
 21
-76.0176634195
  0
LINE
  5
2C0
100
AcDbEntity
  8
ASSI
100
AcDbLine
 62
253
  6
CONTINUOUS
 10
-53.998856675
 20
90.4172698737
 11
-52.5846431126
 21
89.6007206871
  0
LINE
  5
2C1
100
AcDbEntity
  8
ASSI
100
AcDbLine
 62
253
  6
CONTINUOUS
 10
37.217918098
 20
37.7498473345
 11
35.8037045357
 21
38.5663965211
  0
LWPOLYLINE
  5
2C2
100
AcDbEntity
  8
0
100
AcDbPolyline
 62
7
  6
CONTINUOUS
 90
25
 70
0
 10
-21.5757117353
 20
92.957829526
 10
-21.6912503785
 20
93.0636622862
 10
-21.7275743799
 20
93.0995841931
 10
-21.7630326592
 20
93.1372192042
 10
-21.7977255231
 20
93.1766894395
 10
-21.8315526649
 20
93.217872779
 10
-21.8642131646
 20
93.2604028634
 10
-21.895696613
 20
93.3042917087
 10
-21.9260134192
 20
93.3495272988
 10
-21.9548938905
 20
93.3957072261
 10
-21.9823252115
 20
93.4428399164
 10
-22.0083201976
 20
93.490916944
 10
-22.0326476021
 20
93.5395106243
 10
-22.0552925464
 20
93.5886255673
 10
-22.0762699091
 20
93.638257163
 10
-22.0953930794
 20
93.687963898
 10
-22.1126455138
 20
93.7377464426
 10
-22.1280437558
 20
93.7876041265
 10
-22.1414508254
 20
93.8370934246
 10
-22.152848957
 20
93.8862110504
 10
-22.1622559163
 20
93.9349602905
 10
-22.1695880206
 20
93.9829074806
 10
-22.1748173759
 20
94.029908066
 10
-22.1779718762
 20
94.0761066014
 10
-22.1790515216
 20
94.1215030868
  0
LWPOLYLINE
  5
2C3
100
AcDbEntity
  8
0
100
AcDbPolyline
 62
7
  6
CONTINUOUS
 90
46
 70
0
 10
-20.8686049541
 20
93.3661041194
 10
-20.7917043854
 20
93.2913430813
 10
-20.7162521678
 20
93.2134449628
 10
-20.6420951774
 20
93.1322321396
 10
-20.5693865381
 20
93.0478822361
 10
-20.4985856211
 20
92.9609281246
 10
-20.4297045017
 20
92.8713533149
 10
-20.3627311047
 20
92.7791742974
 10
-20.2980885756
 20
92.6849734153
 10
-20.2357916688
 20
92.5887378649
 10
-20.17582563
 20
92.4904804499
 10
-20.1185693413
 20
92.3908219259
 10
-20.0640399564
 20
92.2897534184
 10
-20.0122203217
 20
92.1872838019
 10
-19.9634378593
 20
92.0840604548
 10
-19.9177117959
 20
91.980078601
 10
-19.8750229048
 20
91.8753430166
 10
-19.8356409275
 20
91.7705154083
 10
-19.7995867993
 20
91.6655951892
 10
-19.7668395849
 20
91.5605829463
 10
-19.737606221
 20
91.4561421469
 10
-19.7119089532
 20
91.3522764046
 10
-19.689725536
 20
91.2489821059
 10
-19.6711961684
 20
91.1469118778
 10
-19.6563439853
 20
91.0460734548
 10
-19.6451458519
 20
90.9464591024
 10
-19.6376725636
 20
90.848698244
 10
-19.6339477186
 20
90.7528025643
 10
-19.6339477186
 20
90.6587603786
 10
-19.6376725636
 20
90.5671660565
 10
-19.6451458519
 20
90.4780351642
 10
-19.6563439853
 20
90.3913521355
 10
-19.6711961684
 20
90.3076646413
 10
-19.689725536
 20
90.2269916624
 10
-19.7119089532
 20
90.1493142179
 10
-19.737606221
 20
90.0751230363
 10
-19.7668395849
 20
90.0044401928
 10
-19.7995867993
 20
89.9372436121
 10
-19.8356409275
 20
89.8739577967
 10
-19.8750229048
 20
89.8146075085
 10
-19.9177117959
 20
89.7591679856
 10
-19.9634378593
 20
89.7079894437
 10
-20.0122203217
 20
89.6610988614
 10
-20.0640399564
 20
89.6184692601
 10
-20.1185693413
 20
89.5803699195
 10
-20.1515760414
 20
89.5602887359
  0
LINE
  5
2C4
100
AcDbEntity
  8
ASSI
100
AcDbLine
 62
7
  6
CONTINUOUS
 10
39.9585797839
 20
26.4166479859
 11
37.5927899396
 21
30.6514667219
  0
LINE
  5
2C5
100
AcDbEntity
  8
ASSI
100
AcDbLine
 62
7
  6
CONTINUOUS
 10
41.3727933463
 20
25.6000987993
 11
39.007003502
 21
29.8349175353
  0
LWPOLYLINE
  5
2C6
100
AcDbEntity
  8
ASSI
100
AcDbPolyline
 62
7
  6
CONTINUOUS
 90
19
 70
0
 10
37.5927899396
 20
30.6514667219
 10
37.4023154002
 20
31.0072947734
 10
37.222277305
 20
31.3739360859
 10
37.0526756538
 20
31.7513906592
 10
36.8934159659
 20
32.1399120125
 10
36.7445927221
 20
32.5392466268
 10
36.6064893654
 20
32.9486339449
 10
36.4791263253
 20
33.368093125
 10
36.3624831724
 20
33.7976050091
 10
36.2567820605
 20
34.2363515654
 10
36.1620438426
 20
34.6843503933
 10
36.0782476658
 20
35.1415838935
 10
36.005553125
 20
35.6071812371
 10
35.9439813773
 20
36.0811583636
 10
35.8935112656
 20
36.5634993334
 10
35.8542389132
 20
37.0532854988
 10
35.8261963613
 20
37.550210644
 10
35.8093515688
 20
38.0545809847
 10
35.8037045357
 20
38.5663965211
  0
LWPOLYLINE
  5
2C7
100
AcDbEntity
  8
ASSI
100
AcDbPolyline
 62
7
  6
CONTINUOUS
 90
19
 70
0
 10
39.9585797839
 20
26.4166479859
 10
40.1109594154
 20
26.1319855447
 10
40.2549898916
 20
25.8386724948
 10
40.3906712125
 20
25.5367088361
 10
40.5180789629
 20
25.2258917534
 10
40.6371375579
 20
24.906424062
 10
40.7476202433
 20
24.5789142075
 10
40.8495106753
 20
24.2433468634
 10
40.9428251977
 20
23.8997373562
 10
41.0273860872
 20
23.5487401111
 10
41.1031766615
 20
23.1903410488
 10
41.1702136029
 20
22.8245542486
 10
41.2283692356
 20
22.4520763738
 10
41.2776266337
 20
22.0728946726
 10
41.3180027231
 20
21.6870218967
 10
41.349420605
 20
21.2951929644
 10
41.3718546465
 20
20.8976528483
 10
41.3853304805
 20
20.4941565757
 10
41.389848107
 20
20.0847041466
  0
LWPOLYLINE
  5
2C8
100
AcDbEntity
  8
ASSI
100
AcDbPolyline
 62
7
  6
CONTINUOUS
 90
19
 70
0
 10
39.007003502
 20
29.8349175353
 10
38.8165289626
 20
30.1907455868
 10
38.6364908673
 20
30.5573868992
 10
38.4668892162
 20
30.9348414726
 10
38.3076295283
 20
31.3233628259
 10
38.1588062845
 20
31.7226974401
 10
38.0207029277
 20
32.1320847583
 10
37.8933398877
 20
32.5515439384
 10
37.7766967348
 20
32.9810558224
 10
37.6709956228
 20
33.4198023788
 10
37.576257405
 20
33.8678012066
 10
37.4924612282
 20
34.3250347069
 10
37.4197666874
 20
34.7906320505
 10
37.3581949397
 20
35.2646091769
 10
37.307724828
 20
35.7469501468
 10
37.2684524756
 20
36.2367363122
 10
37.2404099237
 20
36.7336614573
 10
37.2235651312
 20
37.2380317981
 10
37.217918098
 20
37.7498473345
  0
LWPOLYLINE
  5
2C9
100
AcDbEntity
  8
ASSI
100
AcDbPolyline
 62
7
  6
CONTINUOUS
 90
19
 70
0
 10
41.3727933463
 20
25.6000987993
 10
41.5251729778
 20
25.3154363581
 10
41.669203454
 20
25.0221233081
 10
41.8048847749
 20
24.7201596494
 10
41.9322925252
 20
24.4093425668
 10
42.0513511203
 20
24.0898748754
 10
42.1618338057
 20
23.7623650209
 10
42.2637242377
 20
23.4267976768
 10
42.3570387601
 20
23.0831881696
 10
42.4415996496
 20
22.7321909245
 10
42.5173902239
 20
22.3737918622
 10
42.5844271653
 20
22.008005062
 10
42.642582798
 20
21.6355271871
 10
42.6918401961
 20
21.2563454859
 10
42.7322162855
 20
20.8704727101
 10
42.7636341674
 20
20.4786437777
 10
42.7860682089
 20
20.0811036616
 10
42.7995440429
 20
19.677607389
 10
42.8040616694
 20
19.2681549599
  0
LWPOLYLINE
  5
2CA
100
AcDbEntity
  8
ASSI
100
AcDbPolyline
 62
7
  6
CONTINUOUS
 90
16
 70
0
 10
-12.4992627393
 20
-86.6601059961
 10
-12.537407721
 20
-86.684514922
 10
-12.5735369997
 20
-86.7124988404
 10
-12.6073186033
 20
-86.7438077698
 10
-12.6387332627
 20
-86.7784690011
 10
-12.6678002471
 20
-86.8164552434
 10
-12.6942816321
 20
-86.8574555649
 10
-12.7181561958
 20
-86.9014947044
 10
-12.7394451602
 20
-86.9485479232
 10
-12.7579742671
 20
-86.9982300728
 10
-12.7737208641
 20
-87.0505627309
 10
-12.7867076036
 20
-87.1055243197
 10
-12.7968281841
 20
-87.162664958
 10
-12.804047172
 20
-87.2218346852
 10
-12.8084000009
 20
-87.2831834618
 10
-12.8098866709
 20
-87.3467112878
  0
LWPOLYLINE
  5
2CB
100
AcDbEntity
  8
0
100
AcDbPolyline
 62
7
  6
CONTINUOUS
 90
3
 70
0
 10
-16.1080315498
 20
-79.021563497
 10
-16.1459010331
 20
-79.0451672456
 10
-16.1939352658
 20
-79.0805712725
  0
LINE
  5
2CC
100
AcDbEntity
  8
0
100
AcDbLine
 62
253
  6
CONTINUOUS
 10
-16.0979332034
 20
-78.7122757355
 11
-16.8050399846
 21
-79.1205503288
  0
LINE
  5
2CD
100
AcDbEntity
  8
ASSI
100
AcDbLine
 62
7
  6
CONTINUOUS
 10
-16.10803203
 20
-79.0215626653
 11
-15.4009252488
 21
-78.6132880719
  0
LINE
  5
2CE
100
AcDbEntity
  8
0
100
AcDbLine
 62
253
  6
CONTINUOUS
 10
-13.2695060787
 20
-80.0187859981
 11
-13.9766128599
 21
-80.4270605914
  0
LINE
  5
2CF
100
AcDbEntity
  8
0
100
AcDbLine
 62
253
  6
CONTINUOUS
 10
-12.7038206537
 20
-80.6719937834
 11
-13.4109274349
 21
-81.0802683768
  0
LWPOLYLINE
  5
2D0
100
AcDbEntity
  8
0
100
AcDbPolyline
 62
7
  6
CONTINUOUS
 90
34
 70
0
 10
-15.4009247686
 20
-78.6132889036
 10
-15.3881450803
 20
-78.6060952187
 10
-15.3347329652
 20
-78.5798472092
 10
-15.2787059112
 20
-78.5582057931
 10
-15.2205079324
 20
-78.5413424783
 10
-15.1601217785
 20
-78.5292952317
 10
-15.0975646998
 20
-78.5220260866
 10
-15.0333324606
 20
-78.5195926508
 10
-14.9674117502
 20
-78.5220333488
 10
-14.8998158793
 20
-78.5293097562
 10
-14.8310805448
 20
-78.5413642075
 10
-14.7611966925
 20
-78.5582346689
 10
-14.6901733766
 20
-78.5798831742
 10
-14.6185734563
 20
-78.6061381591
 10
-14.5463923499
 20
-78.6370362266
 10
-14.4736346393
 20
-78.6725407738
 10
-14.4008769286
 20
-78.7123704273
 10
-14.3281192179
 20
-78.7565595544
 10
-14.2553615072
 20
-78.8050737878
 10
-14.1831804009
 20
-78.8575286525
 10
-14.1115804806
 20
-78.9139554609
 10
-14.0405571646
 20
-78.9743229006
 10
-13.9706733123
 20
-79.0381525601
 10
-13.9019379778
 20
-79.1054719502
 10
-13.834342107
 20
-79.1762535601
 10
-13.7684213965
 20
-79.2499364461
 10
-13.7041891574
 20
-79.3265436617
 10
-13.6416320787
 20
-79.4060521533
 10
-13.5812459248
 20
-79.4878318167
 10
-13.5230479459
 20
-79.5719006987
 10
-13.4670208919
 20
-79.6582407524
 10
-13.4136087768
 20
-79.7461677337
 10
-13.3629596052
 20
-79.835453561
 10
-13.3149253725
 20
-79.9263263158
  0
LWPOLYLINE
  5
2D1
100
AcDbEntity
  8
0
100
AcDbPolyline
 62
7
  6
CONTINUOUS
 90
17
 70
0
 10
-16.3050160646
 20
-79.1700910906
 10
-16.3114059087
 20
-79.1736879331
 10
-16.3381119663
 20
-79.1868119378
 10
-16.3661254933
 20
-79.1976326459
 10
-16.3952244827
 20
-79.2060643033
 10
-16.4254175596
 20
-79.2120879266
 10
-16.456696099
 20
-79.2157224991
 10
-16.4888122186
 20
-79.216939217
 10
-16.5217725738
 20
-79.215718868
 10
-16.5555705092
 20
-79.2120806643
 10
-16.5899381765
 20
-79.2060534387
 10
-16.6248801026
 20
-79.197618208
 10
-16.6603917606
 20
-79.1867939554
 10
-16.6961917207
 20
-79.1736664629
 10
-16.7321861732
 20
-79.1582643247
 10
-16.7684689278
 20
-79.1405589466
 10
-16.8050399846
 20
-79.1205503288
  0
LINE
  5
2D2
100
AcDbEntity
  8
0
100
AcDbLine
 62
7
  6
CONTINUOUS
 10
34.3409051819
 20
61.4241323373
 11
34.3884828546
 21
61.4183108103
  0
LWPOLYLINE
  5
2D3
100
AcDbEntity
  8
0
100
AcDbPolyline
 62
7
  6
CONTINUOUS
 90
13
 70
0
 10
33.8645001067
 20
60.9737323109
 10
33.786151187
 20
60.9925837218
 10
33.7092506183
 20
61.0066255329
 10
33.6337984007
 20
61.015857744
 10
33.5596414103
 20
61.0202795545
 10
33.4869327709
 20
61.0198917652
 10
33.4161318539
 20
61.014696778
 10
33.3472507346
 20
61.0046641584
 10
33.2802773376
 20
60.9898243409
 10
33.2156348085
 20
60.9702710312
 10
33.1533379017
 20
60.9459743871
 10
33.0933718628
 20
60.9169642508
 10
33.0691222742
 20
60.9035050373
  0
LWPOLYLINE
  5
2D4
100
AcDbEntity
  8
0
100
AcDbPolyline
 62
7
  6
CONTINUOUS
 90
25
 70
0
 10
33.786151187
 20
57.0976896538
 10
33.9016898301
 20
56.9918568936
 10
33.9380138315
 20
56.9559349868
 10
33.9734721109
 20
56.9182999756
 10
34.0081649748
 20
56.8788297404
 10
34.0419921166
 20
56.8376464008
 10
34.0746526163
 20
56.7951163164
 10
34.1061360647
 20
56.7512274712
 10
34.1364528709
 20
56.7059918811
 10
34.1653333422
 20
56.6598119537
 10
34.1927646632
 20
56.6126792635
 10
34.2187596493
 20
56.5646022359
 10
34.2430870538
 20
56.5160085555
 10
34.2657319981
 20
56.4668936126
 10
34.2867093608
 20
56.4172620168
 10
34.3058325311
 20
56.3675552818
 10
34.3230849655
 20
56.3177727372
 10
34.3384832074
 20
56.2679150534
 10
34.3518902771
 20
56.2184257552
 10
34.3632884087
 20
56.1693081295
 10
34.3726953679
 20
56.1205588894
 10
34.3800274723
 20
56.0726116992
 10
34.3852568275
 20
56.0256111139
 10
34.3884113279
 20
55.9794125784
 10
34.3894909733
 20
55.934016093
  0
LWPOLYLINE
  5
2D5
100
AcDbEntity
  8
0
100
AcDbPolyline
 62
7
  6
CONTINUOUS
 90
35
 70
0
 10
26.1643426646
 20
83.5641597897
 10
26.2324716054
 20
83.4254702662
 10
26.2805058381
 20
83.3345975114
 10
26.3311550097
 20
83.2453116841
 10
26.3845671248
 20
83.1573847029
 10
26.4405941788
 20
83.0710446491
 10
26.4987921577
 20
82.9869757672
 10
26.5591783115
 20
82.9051961038
 10
26.6217353902
 20
82.8256876121
 10
26.6859676294
 20
82.7490803966
 10
26.7518883398
 20
82.6753975106
 10
26.8194842107
 20
82.6046159007
 10
26.8882195452
 20
82.5372965106
 10
26.9581033975
 20
82.473466851
 10
27.0291267134
 20
82.4130994113
 10
27.1007266337
 20
82.356672603
 10
27.1729077401
 20
82.3042177382
 10
27.2456654507
 20
82.2557035048
 10
27.3184231614
 20
82.2115143778
 10
27.3911808721
 20
82.1716847243
 10
27.4639385828
 20
82.1361801771
 10
27.5361196891
 20
82.1052821095
 10
27.6077196094
 20
82.0790271246
 10
27.6787429254
 20
82.0573786194
 10
27.7486267777
 20
82.0405081579
 10
27.8173621122
 20
82.0284537067
 10
27.884957983
 20
82.0211772993
 10
27.9508786935
 20
82.0187366013
 10
28.0151109326
 20
82.0211700371
 10
28.0776680114
 20
82.0284391822
 10
28.1380541652
 20
82.0404864288
 10
28.1962521441
 20
82.0573497435
 10
28.2522791981
 20
82.0789911597
 10
28.3056913132
 20
82.1052391692
 10
28.3184710015
 20
82.1124328541
  0
LWPOLYLINE
  5
2D6
100
AcDbEntity
  8
ASSI
100
AcDbPolyline
 62
7
  6
CONTINUOUS
 90
10
 70
0
 10
23.9031995829
 20
-107.3214623746
 10
23.899431087
 20
-107.3278897381
 10
23.8806094416
 20
-107.3665678394
 10
23.8642201895
 20
-107.4076145662
 10
23.8502854475
 20
-107.4510514553
 10
23.8387830988
 20
-107.4968569699
 10
23.8298174124
 20
-107.5446158836
 10
23.8234231443
 20
-107.5941897875
 10
23.8195655384
 20
-107.6457170905
 10
23.8182445946
 20
-107.6991977925
  0
LWPOLYLINE
  5
2D7
100
AcDbEntity
  8
ASSI
100
AcDbPolyline
 62
7
  6
CONTINUOUS
 90
16
 70
0
 10
-10.9991902589
 20
-89.2581403595
 10
-10.9610452772
 20
-89.2337314337
 10
-10.9249159985
 20
-89.2057475152
 10
-10.8911343949
 20
-89.1744385858
 10
-10.8597197355
 20
-89.1397773545
 10
-10.8306527512
 20
-89.1017911123
 10
-10.8041713661
 20
-89.0607907908
 10
-10.7802968024
 20
-89.0167516512
 10
-10.759007838
 20
-88.9696984324
 10
-10.7404787312
 20
-88.9200162829
 10
-10.7247321342
 20
-88.8676836248
 10
-10.7117453947
 20
-88.8127220359
 10
-10.7016248141
 20
-88.7555813977
 10
-10.6944058263
 20
-88.6964116705
 10
-10.6900529973
 20
-88.6350628938
 10
-10.6885663273
 20
-88.5715350678
  0
LINE
  5
2D8
100
AcDbEntity
  8
0
100
AcDbLine
 62
7
  6
CONTINUOUS
 10
-43.4629656353
 20
-103.1034769736
 11
-37.3818473171
 21
-99.592315471
  0
LINE
  5
2D9
100
AcDbEntity
  8
ASSI
100
AcDbLine
 62
253
  6
CONTINUOUS
 10
-12.1027798897
 20
-86.9384366945
 11
-12.8098866709
 21
-87.3467112878
  0
LINE
  5
2DA
100
AcDbEntity
  8
ASSI
100
AcDbLine
 62
253
  6
CONTINUOUS
 10
-11.5405159661
 20
-86.8791690647
 11
-11.8906478554
 21
-87.0813308294
  0
LWPOLYLINE
  5
2DB
100
AcDbEntity
  8
0
100
AcDbPolyline
 62
7
  6
CONTINUOUS
 90
13
 70
0
 10
-21.654060655
 20
89.0817868689
 10
-21.5757117353
 20
89.062935458
 10
-21.4988111666
 20
89.048893647
 10
-21.423358949
 20
89.0396614359
 10
-21.3492019586
 20
89.0352396253
 10
-21.2764933193
 20
89.0356274147
 10
-21.2056924023
 20
89.0408224019
 10
-21.1368112829
 20
89.0508550215
 10
-21.0698378859
 20
89.0656948389
 10
-21.0051953568
 20
89.0852481487
 10
-20.94289845
 20
89.1095447927
 10
-20.8829324111
 20
89.1385549291
 10
-20.8586828226
 20
89.1520141426
  0
LWPOLYLINE
  5
2DC
100
AcDbEntity
  8
0
100
AcDbPolyline
 62
7
  6
CONTINUOUS
 90
15
 70
0
 10
-5.0317120778
 20
101.8698413547
 10
-5.0007042231
 20
101.8530028836
 10
-4.9700072721
 20
101.8383798533
 10
-4.9396212249
 20
101.8259722639
 10
-4.9094455957
 20
101.8157531855
 10
-4.8795808703
 20
101.8077495478
 10
-4.8503285059
 20
101.8020421404
 10
-4.8216947044
 20
101.7986542198
 10
-4.7936732638
 20
101.7975625294
 10
-4.7665470349
 20
101.7987780889
 10
-4.7403250846
 20
101.8023242664
 10
-4.7149983461
 20
101.8081776937
 10
-4.6908224696
 20
101.8162792859
 10
-4.6678091112
 20
101.8266518127
 10
-4.656702093
 20
101.8326995611
  0
LINE
  5
2DD
100
AcDbEntity
  8
0
100
AcDbLine
 62
7
  6
CONTINUOUS
 10
-21.4719447404
 20
111.3622256495
 11
-16.8050399846
 21
108.6676133336
  0
LINE
  5
2DE
100
AcDbEntity
  8
0
100
AcDbLine
 62
7
  6
CONTINUOUS
 10
-13.4109274349
 20
106.7078952856
 11
-5.0317120778
 21
101.8698413547
  0
LINE
  5
2DF
100
AcDbEntity
  8
0
100
AcDbLine
 62
7
  6
CONTINUOUS
 10
17.2421515295
 20
89.0091916648
 11
25.6213668866
 21
84.1711377339
  0
LINE
  5
2E0
100
AcDbEntity
  8
0
100
AcDbLine
 62
7
  6
CONTINUOUS
 10
29.0154794363
 20
82.2114196859
 11
33.6823841921
 21
79.51680737
  0
LINE
  5
2E1
100
AcDbEntity
  8
0
100
AcDbLine
 62
7
  6
CONTINUOUS
 10
-3.9710519061
 20
102.4821348799
 11
16.1814913577
 21
90.84630897
  0
LWPOLYLINE
  5
2E2
100
AcDbEntity
  8
0
100
AcDbPolyline
 62
7
  6
CONTINUOUS
 90
18
 70
0
 10
-16.8050399846
 20
108.6676133336
 10
-16.7684689278
 20
108.6453906117
 10
-16.7321861732
 20
108.6211975742
 10
-16.6961917207
 20
108.5950342209
 10
-16.6603917606
 20
108.5668208168
 10
-16.6248801026
 20
108.5366370969
 10
-16.5899381765
 20
108.5047222672
 10
-16.5555705092
 20
108.4710625721
 10
-16.5217725738
 20
108.4356717671
 10
-16.4888122186
 20
108.3988303241
 10
-16.456696099
 20
108.3605267164
 10
-16.4254175596
 20
108.3207724706
 10
-16.3952244827
 20
108.2798826388
 10
-16.3661254933
 20
108.2378481979
 10
-16.3381119663
 20
108.194678171
 10
-16.3114059087
 20
108.1507146804
 10
-16.2860813229
 20
108.1060717667
 10
-16.2620642066
 20
108.0606353893
  0
LWPOLYLINE
  5
2E3
100
AcDbEntity
  8
0
100
AcDbPolyline
 62
7
  6
CONTINUOUS
 90
18
 70
0
 10
25.6213668866
 20
84.1711377339
 10
25.6579379434
 20
84.148915012
 10
25.694220698
 20
84.1247219745
 10
25.7302151504
 20
84.0985586213
 10
25.7660151106
 20
84.0703452171
 10
25.8015267686
 20
84.0401614973
 10
25.8364686947
 20
84.0082466675
 10
25.870836362
 20
83.9745869724
 10
25.9046342974
 20
83.9391961675
 10
25.9375946526
 20
83.9023547245
 10
25.9697107722
 20
83.8640511167
 10
26.0009893116
 20
83.8242968709
 10
26.0311823885
 20
83.7834070392
 10
26.0602813779
 20
83.7413725982
 10
26.0882949049
 20
83.6982025713
 10
26.1150009625
 20
83.6542390807
 10
26.1403255483
 20
83.6095961671
 10
26.1643426646
 20
83.5641597897
  0
LWPOLYLINE
  5
2E4
100
AcDbEntity
  8
0
100
AcDbPolyline
 62
7
  6
CONTINUOUS
 90
28
 70
0
 10
33.6823841921
 20
79.51680737
 10
33.7237279985
 20
79.4915158735
 10
33.7646572665
 20
79.4637491544
 10
33.8051719961
 20
79.4335072127
 10
33.8454061683
 20
79.4006712371
 10
33.8852258021
 20
79.3653600389
 10
33.9242289548
 20
79.3279300524
 10
33.9624073568
 20
79.2883598182
 10
33.9997692776
 20
79.2466707958
 10
34.0359375827
 20
79.2032837976
 10
34.0709001831
 20
79.1581816264
 10
34.1046691678
 20
79.1113814796
 10
34.1369036698
 20
79.0633557617
 10
34.1675881476
 20
79.0140920602
 10
34.1967381427
 20
78.9636027877
 10
34.2240594125
 20
78.9123975873
 10
34.2495334355
 20
78.860469208
 10
34.2731787331
 20
78.8078249009
 10
34.2947566278
 20
78.754996062
 10
34.3142461806
 20
78.7019808225
 10
34.3316683304
 20
78.6487810514
 10
34.3468472165
 20
78.5959337517
 10
34.3597601189
 20
78.5434424932
 10
34.3704297576
 20
78.4913037062
 10
34.3787484324
 20
78.440043684
 10
34.3846802433
 20
78.3898378578
 10
34.3882610902
 20
78.3405107964
 10
34.3894909733
 20
78.2920624998
  0
LWPOLYLINE
  5
2E5
100
AcDbEntity
  8
0
100
AcDbPolyline
 62
7
  6
CONTINUOUS
 90
27
 70
0
 10
16.1814913577
 20
90.84630897
 10
16.2124992125
 20
90.8273403476
 10
16.2431961635
 20
90.8065153083
 10
16.2735822107
 20
90.7838338521
 10
16.3037578399
 20
90.7592068704
 10
16.3336225653
 20
90.7327234717
 10
16.3628749297
 20
90.7046509819
 10
16.3915087312
 20
90.6749733062
 10
16.4195301718
 20
90.6437065394
 10
16.4466564007
 20
90.6111662908
 10
16.472878351
 20
90.5773396624
 10
16.4982050895
 20
90.5422395522
 10
16.522380966
 20
90.5062202638
 10
16.5453943244
 20
90.4692724877
 10
16.5672568207
 20
90.4314055333
 10
16.5877477731
 20
90.393001633
 10
16.6068532903
 20
90.3540553485
 10
16.6245872635
 20
90.3145721182
 10
16.6407706845
 20
90.2749504891
 10
16.6553878491
 20
90.2351890595
 10
16.6684544614
 20
90.1952892311
 10
16.679838626
 20
90.1556537563
 10
16.6895233028
 20
90.1162853124
 10
16.6975255319
 20
90.0771812222
 10
16.703764538
 20
90.0387362055
 10
16.7082133961
 20
90.0010818359
 10
16.7108990313
 20
89.9640865398
  0
LWPOLYLINE
  5
2E6
100
AcDbEntity
  8
0
100
AcDbPolyline
 62
7
  6
CONTINUOUS
 90
4
 70
0
 10
26.2324716054
 20
-103.5770468722
 10
26.1643426646
 20
-103.6370628025
 10
26.1403255483
 20
-103.654764816
 10
26.1213908066
 20
-103.6665666903
  0
LWPOLYLINE
  5
2E7
100
AcDbEntity
  8
0
100
AcDbPolyline
 62
7
  6
CONTINUOUS
 90
46
 70
0
 10
33.0691222742
 20
-86.0611447855
 10
33.0361155742
 20
-86.081225969
 10
32.9815861893
 20
-86.1193253096
 10
32.9297665546
 20
-86.1619549109
 10
32.8809840922
 20
-86.2088454932
 10
32.8352580288
 20
-86.2600240351
 10
32.7925691376
 20
-86.3154635581
 10
32.7531871604
 20
-86.3748138462
 10
32.7171330321
 20
-86.4380996617
 10
32.6843858178
 20
-86.5052962423
 10
32.6551524538
 20
-86.5759790858
 10
32.6294551861
 20
-86.6501702675
 10
32.6072717688
 20
-86.7278477119
 10
32.5887424013
 20
-86.8085206908
 10
32.5738902182
 20
-86.8922081851
 10
32.5626920848
 20
-86.9788912138
 10
32.5552187964
 20
-87.068022106
 10
32.5514939514
 20
-87.1596164281
 10
32.5514939514
 20
-87.2536586138
 10
32.5552187964
 20
-87.3495542936
 10
32.5626920848
 20
-87.4473151519
 10
32.5738902182
 20
-87.5469295044
 10
32.5887424013
 20
-87.6477679274
 10
32.6072717688
 20
-87.7498381555
 10
32.6294551861
 20
-87.8531324541
 10
32.6551524538
 20
-87.9569981964
 10
32.6843858178
 20
-88.0614389958
 10
32.7171330321
 20
-88.1664512388
 10
32.7531871604
 20
-88.2713714579
 10
32.7925691376
 20
-88.3761990661
 10
32.8352580288
 20
-88.4809346505
 10
32.8809840922
 20
-88.5849165043
 10
32.9297665546
 20
-88.6881398514
 10
32.9815861893
 20
-88.790609468
 10
33.0361155742
 20
-88.8916779754
 10
33.0933718628
 20
-88.9913364994
 10
33.1533379017
 20
-89.0895939144
 10
33.2156348085
 20
-89.1858294649
 10
33.2802773376
 20
-89.2800303469
 10
33.3472507346
 20
-89.3722093645
 10
33.4161318539
 20
-89.4617841741
 10
33.4869327709
 20
-89.5487382856
 10
33.5596414103
 20
-89.6330881892
 10
33.6337984007
 20
-89.7143010123
 10
33.7092506183
 20
-89.7921991308
 10
33.786151187
 20
-89.8669601689
  0
LINE
  5
2E8
100
AcDbEntity
  8
ASSI
100
AcDbLine
 62
7
  6
CONTINUOUS
 10
33.0691181306
 20
-86.0611376072
 11
33.7762249118
 21
-85.6528630139
  0
LINE
  5
2E9
100
AcDbEntity
  8
0
100
AcDbLine
 62
253
  6
CONTINUOUS
 10
34.3653824919
 20
-85.7017143001
 11
33.8645001067
 21
-85.9909175118
  0
LWPOLYLINE
  5
2EA
100
AcDbEntity
  8
0
100
AcDbPolyline
 62
7
  6
CONTINUOUS
 90
10
 70
0
 10
33.7762290554
 20
-85.6528701921
 10
33.800478644
 20
-85.6394109786
 10
33.8604446829
 20
-85.6104008423
 10
33.9227415897
 20
-85.5861041982
 10
33.9873841188
 20
-85.5665508885
 10
34.0543575158
 20
-85.551711071
 10
34.1232386351
 20
-85.5416784514
 10
34.1940395521
 20
-85.5364834642
 10
34.2667481915
 20
-85.5360956749
 10
34.3409051819
 20
-85.5405174854
  0
LWPOLYLINE
  5
2EB
100
AcDbEntity
  8
0
100
AcDbPolyline
 62
7
  6
CONTINUOUS
 90
11
 70
0
 10
34.1824047638
 20
-85.9628448509
 10
34.1653333422
 20
-85.9720584491
 10
34.1364528709
 20
-85.9848879321
 10
34.1061360647
 20
-85.9951144343
 10
34.0746526163
 20
-86.0026469825
 10
34.0419921166
 20
-86.0074615405
 10
34.0081649748
 20
-86.0095821446
 10
33.9734721109
 20
-86.0089899302
 10
33.9380138315
 20
-86.0056786092
 10
33.9016898301
 20
-85.9996544697
 10
33.8645001067
 20
-85.9909175118
  0
LWPOLYLINE
  5
2EC
100
AcDbEntity
  8
ASSI
100
AcDbPolyline
 62
7
  6
CONTINUOUS
 90
3
 70
0
 10
24.9643389048
 20
90.348515968
 10
25.0076226025
 20
90.3438108862
 10
25.0166730611
 20
90.3435196948
  0
LINE
  5
2ED
100
AcDbEntity
  8
ASSI
100
AcDbLine
 62
253
  6
CONTINUOUS
 10
-53.998856675
 20
139.4285886889
 11
-52.5846431126
 21
138.6120395023
  0
LINE
  5
2EE
100
AcDbEntity
  8
ASSI
100
AcDbLine
 62
253
  6
CONTINUOUS
 10
37.217918098
 20
86.7611661497
 11
35.8037045357
 21
87.5777153363
  0
LWPOLYLINE
  5
2EF
100
AcDbEntity
  8
ASSI
100
AcDbPolyline
 62
7
  6
CONTINUOUS
 90
16
 70
0
 10
23.2096297106
 20
-107.2779729592
 10
23.1714847289
 20
-107.302381885
 10
23.1353554502
 20
-107.3303658035
 10
23.1015738466
 20
-107.3616747329
 10
23.0701591872
 20
-107.3963359642
 10
23.0410922028
 20
-107.4343222064
 10
23.0146108178
 20
-107.4753225279
 10
22.9907362541
 20
-107.5193616675
 10
22.9694472897
 20
-107.5664148863
 10
22.9509181829
 20
-107.6160970359
 10
22.9351715858
 20
-107.6684296939
 10
22.9221848464
 20
-107.7233912828
 10
22.9120642658
 20
-107.780531921
 10
22.904845278
 20
-107.8397016482
 10
22.900492449
 20
-107.9010504249
 10
22.899005779
 20
-107.9645782509
  0
LWPOLYLINE
  5
2F0
100
AcDbEntity
  8
ASSI
100
AcDbPolyline
 62
7
  6
CONTINUOUS
 90
16
 70
0
 10
24.709702191
 20
-109.8760073226
 10
24.7478471727
 20
-109.8515983967
 10
24.7839764514
 20
-109.8236144783
 10
24.817758055
 20
-109.7923055489
 10
24.8491727144
 20
-109.7576443176
 10
24.8782396988
 20
-109.7196580753
 10
24.9047210838
 20
-109.6786577538
 10
24.9285956475
 20
-109.6346186143
 10
24.9498846119
 20
-109.5875653955
 10
24.9684137187
 20
-109.5378832459
 10
24.9841603158
 20
-109.4855505879
 10
24.9971470552
 20
-109.430588999
 10
25.0072676358
 20
-109.3734483607
 10
25.0144866236
 20
-109.3142786335
 10
25.0188394526
 20
-109.2529298569
 10
25.0203261226
 20
-109.1894020309
  0
LWPOLYLINE
  5
2F1
100
AcDbEntity
  8
0
100
AcDbPolyline
 62
7
  6
CONTINUOUS
 90
3
 70
0
 10
26.3183753214
 20
-103.5180390966
 10
26.2805058381
 20
-103.5416428453
 10
26.2324716054
 20
-103.5770468722
  0
LINE
  5
2F2
100
AcDbEntity
  8
0
100
AcDbLine
 62
253
  6
CONTINUOUS
 10
26.3284736678
 20
-103.2087513351
 11
25.6213668866
 21
-103.6170259285
  0
LINE
  5
2F3
100
AcDbEntity
  8
ASSI
100
AcDbLine
 62
7
  6
CONTINUOUS
 10
26.3183748412
 20
-103.5180382649
 11
27.0254816223
 21
-103.1097636716
  0
LINE
  5
2F4
100
AcDbEntity
  8
ASSI
100
AcDbLine
 62
253
  6
CONTINUOUS
 10
23.6061125602
 20
-107.5563036576
 11
22.899005779
 21
-107.9645782509
  0
LINE
  5
2F5
100
AcDbEntity
  8
0
100
AcDbLine
 62
253
  6
CONTINUOUS
 10
29.1569007925
 20
-104.5152615977
 11
28.4497940113
 21
-104.923536191
  0
LINE
  5
2F6
100
AcDbEntity
  8
ASSI
100
AcDbLine
 62
253
  6
CONTINUOUS
 10
24.1683764838
 20
-107.4970360278
 11
23.8182445946
 21
-107.6991977925
  0
LINE
  5
2F7
100
AcDbEntity
  8
0
100
AcDbLine
 62
253
  6
CONTINUOUS
 10
29.7225862175
 20
-105.1684693831
 11
29.0154794363
 21
-105.5767439764
  0
LWPOLYLINE
  5
2F8
100
AcDbEntity
  8
0
100
AcDbPolyline
 62
7
  6
CONTINUOUS
 90
34
 70
0
 10
27.0254821026
 20
-103.1097645033
 10
27.0382617908
 20
-103.1025708184
 10
27.091673906
 20
-103.0763228089
 10
27.14770096
 20
-103.0546813927
 10
27.2058989388
 20
-103.037818078
 10
27.2662850927
 20
-103.0257708314
 10
27.3288421714
 20
-103.0185016863
 10
27.3930744106
 20
-103.0160682505
 10
27.458995121
 20
-103.0185089485
 10
27.5265909919
 20
-103.0257853559
 10
27.5953263264
 20
-103.0378398071
 10
27.6652101787
 20
-103.0547102686
 10
27.7362334946
 20
-103.0763587738
 10
27.8078334149
 20
-103.1026137587
 10
27.8800145212
 20
-103.1335118263
 10
27.9527722319
 20
-103.1690163735
 10
28.0255299426
 20
-103.208846027
 10
28.0982876533
 20
-103.253035154
 10
28.171045364
 20
-103.3015493874
 10
28.2432264703
 20
-103.3540042522
 10
28.3148263906
 20
-103.4104310605
 10
28.3858497066
 20
-103.4707985002
 10
28.4557335589
 20
-103.5346281598
 10
28.5244688934
 20
-103.6019475499
 10
28.5920647642
 20
-103.6727291598
 10
28.6579854746
 20
-103.7464120458
 10
28.7222177138
 20
-103.8230192613
 10
28.7847747925
 20
-103.902527753
 10
28.8451609464
 20
-103.9843074164
 10
28.9033589253
 20
-104.0683762983
 10
28.9593859793
 20
-104.1547163521
 10
29.0127980944
 20
-104.2426433333
 10
29.063447266
 20
-104.3319291606
 10
29.1114814987
 20
-104.4228019154
  0
LWPOLYLINE
  5
2F9
100
AcDbEntity
  8
0
100
AcDbPolyline
 62
7
  6
CONTINUOUS
 90
17
 70
0
 10
26.1213908066
 20
-103.6665666903
 10
26.1150009625
 20
-103.6701635327
 10
26.0882949049
 20
-103.6832875375
 10
26.0602813779
 20
-103.6941082456
 10
26.0311823885
 20
-103.7025399029
 10
26.0009893116
 20
-103.7085635262
 10
25.9697107722
 20
-103.7121980988
 10
25.9375946526
 20
-103.7134148167
 10
25.9046342974
 20
-103.7121944677
 10
25.870836362
 20
-103.708556264
 10
25.8364686947
 20
-103.7025290384
 10
25.8015267686
 20
-103.6940938077
 10
25.7660151106
 20
-103.683269555
 10
25.7302151504
 20
-103.6701420626
 10
25.694220698
 20
-103.6547399243
 10
25.6579379434
 20
-103.6370345463
 10
25.6213668866
 20
-103.6170259285
  0
LWPOLYLINE
  5
2FA
100
AcDbEntity
  8
ASSI
100
AcDbPolyline
 62
7
  6
CONTINUOUS
 90
3
 70
0
 10
-10.7445535451
 20
110.966382931
 10
-10.7012698474
 20
110.9616778493
 10
-10.6922193888
 20
110.9613866579
  0
LWPOLYLINE
  5
2FB
100
AcDbEntity
  8
ASSI
100
AcDbPolyline
 62
7
  6
CONTINUOUS
 90
55
 70
0
 10
25.6567222256
 20
99.68218902
 10
25.9222022281
 20
99.5712084014
 10
26.1897588525
 20
99.4533659757
 10
26.4591987223
 20
99.3287229758
 10
26.7305123929
 20
99.1973056267
 10
27.003313668
 20
99.0592270316
 10
27.2768442738
 20
98.9147241409
 10
27.5508901558
 20
98.7639604217
 10
27.8252701776
 20
98.6070334283
 10
28.0992839539
 20
98.4441469542
 10
28.3725163239
 20
98.2756283891
 10
28.6450041283
 20
98.1015020825
 10
28.9167227112
 20
97.9215190038
 10
29.1876877789
 20
97.7357030173
 10
29.457485616
 20
97.5443413176
 10
29.7254439319
 20
97.3475732266
 10
29.9913750383
 20
97.1456051379
 10
30.2550886757
 20
96.9386129879
 10
30.5159217696
 20
96.7267192321
 10
30.7736759448
 20
96.5101681717
 10
31.0281958355
 20
96.2891461335
 10
31.2788943161
 20
96.0637064324
 10
31.5256141823
 20
95.8340767495
 10
31.7681807232
 20
95.6004888212
 10
32.0059908249
 20
95.3630129793
 10
32.2390013462
 20
95.1217735474
 10
32.4669476329
 20
94.8771278989
 10
32.6889269269
 20
94.6295183399
 10
32.9047933663
 20
94.3792241595
 10
33.1144666061
 20
94.1264899513
 10
33.3171956384
 20
93.8717306076
 10
33.512680343
 20
93.6154949611
 10
33.7010859572
 20
93.3577692719
 10
33.8823604457
 20
93.0981206495
 10
34.0565276265
 20
92.8366160544
 10
34.2233854217
 20
92.5736868151
 10
34.3825229247
 20
92.3094365227
 10
34.5339025017
 20
92.0440112147
 10
34.6774246117
 20
91.7777568609
 10
34.8126162553
 20
91.5110745577
 10
34.9393734489
 20
91.2442974192
 10
35.0577467315
 20
90.9775664036
 10
35.16752331
 20
90.7109883876
 10
35.2686113087
 20
90.4449677014
 10
35.3610866667
 20
90.1795462307
 10
35.4449580416
 20
89.9142890212
 10
35.5202551596
 20
89.6491212726
 10
35.5868664977
 20
89.3845665132
 10
35.6445800412
 20
89.1210854459
 10
35.6933669821
 20
88.8588408871
 10
35.7332608595
 20
88.598082854
 10
35.76420026
 20
88.3393775537
 10
35.7862075026
 20
88.0830273058
 10
35.7993579234
 20
87.8290836543
 10
35.8037045357
 20
87.5777153363
  0
LWPOLYLINE
  5
2FC
100
AcDbEntity
  8
ASSI
100
AcDbPolyline
 62
7
  6
CONTINUOUS
 90
28
 70
0
 10
25.6567222256
 20
99.68218902
 10
22.5979131949
 20
101.0120584913
 10
19.5647771545
 20
102.3605489311
 10
16.5573141044
 20
103.7276603392
 10
13.5751812826
 20
105.1135555507
 10
10.6187214512
 20
106.5180717305
 10
7.6889628963
 20
107.940720374
 10
4.7859149062
 20
109.3815077884
 10
1.9095681927
 20
110.8404276665
 10
-0.939076822
 20
112.3169725813
 10
-3.7600105018
 20
113.8111486636
 10
-6.5532424829
 20
115.3229497827
 10
-9.3178012512
 20
116.8518501189
 10
-12.0536768328
 20
118.3978556202
 10
-14.7608792015
 20
119.9609603387
 10
-17.4384667654
 20
121.5406206109
 10
-20.0864292229
 20
123.1368421957
 10
-22.7047768756
 20
124.7496193341
 10
-25.2925990359
 20
126.3783910863
 10
-27.8498850856
 20
128.0231630159
 10
-30.376645643
 20
129.6839295592
 10
-32.8720018754
 20
131.3601130849
 10
-35.335942859
 20
133.051718956
 10
-37.7684795176
 20
134.7587418095
 10
-40.1687657907
 20
136.4805879259
 10
-42.5365196581
 20
138.2170593987
 10
-44.8720231401
 20
139.9683541343
 10
-47.1752762366
 20
141.7344721327
  0
LWPOLYLINE
  5
2FD
100
AcDbEntity
  8
ASSI
100
AcDbPolyline
 62
7
  6
CONTINUOUS
 90
28
 70
0
 10
25.6567222256
 20
101.3151295736
 10
22.5979131949
 20
102.6449990449
 10
19.5647771545
 20
103.9934894847
 10
16.5573141044
 20
105.3606008928
 10
13.5751812826
 20
106.7464961043
 10
10.6187214512
 20
108.1510122841
 10
7.6889628963
 20
109.5736609276
 10
4.7859149062
 20
111.014448342
 10
1.9095681927
 20
112.4733682201
 10
-0.939076822
 20
113.9499131349
 10
-3.7600105018
 20
115.4440892172
 10
-6.5532424829
 20
116.9558903363
 10
-9.3178012512
 20
118.4847906725
 10
-12.0536768328
 20
120.0307961738
 10
-14.7608792015
 20
121.5939008923
 10
-17.4384667654
 20
123.1735611645
 10
-20.0864292229
 20
124.7697827493
 10
-22.7047768756
 20
126.3825598877
 10
-25.2925990359
 20
128.0113316399
 10
-27.8498850856
 20
129.6561035695
 10
-30.376645643
 20
131.3168701127
 10
-32.8720018754
 20
132.9930536385
 10
-35.335942859
 20
134.6846595096
 10
-37.7684795176
 20
136.3916823631
 10
-40.1687657907
 20
138.1135284795
 10
-42.5365196581
 20
139.8499999522
 10
-44.8720231401
 20
141.6012946879
 10
-47.4019551454
 20
143.5399109325
  0
LWPOLYLINE
  5
2FE
100
AcDbEntity
  8
ASSI
100
AcDbPolyline
 62
7
  6
CONTINUOUS
 90
55
 70
0
 10
25.6567222256
 20
101.3151295736
 10
25.9632157796
 20
101.1797814029
 10
26.2718597632
 20
101.0361484367
 10
26.5824256406
 20
100.884303041
 10
26.8948895751
 20
100.7242688909
 10
27.2088078277
 20
100.5561869721
 10
27.5233222807
 20
100.3803592711
 10
27.8381768207
 20
100.1969771639
 10
28.1531605171
 20
100.0061577543
 10
28.4674930855
 20
99.8081692829
 10
28.7806895689
 20
99.6034019485
 10
29.0927878184
 20
99.3918812438
 10
29.4037890759
 20
99.1733304012
 10
29.7137019017
 20
98.9477718493
 10
30.0220473607
 20
98.7155507743
 10
30.3280913128
 20
98.4768666952
 10
30.6316097545
 20
98.2319622671
 10
30.9323800237
 20
97.9810466793
 10
31.2296854419
 20
97.724303311
 10
31.5232909636
 20
97.462020534
 10
31.8130135766
 20
97.1944189005
 10
32.0982281664
 20
96.9216011206
 10
32.3787476152
 20
96.6438355037
 10
32.6543667773
 20
96.3613966885
 10
32.9244456353
 20
96.0744098013
 10
33.1889280064
 20
95.7830187689
 10
33.4475063154
 20
95.487648943
 10
33.6992020141
 20
95.1888740598
 10
33.9438454742
 20
94.8870257783
 10
34.1813389886
 20
94.5823915736
 10
34.410875089
 20
94.2755080139
 10
34.6321115576
 20
93.9670309196
 10
34.8452312052
 20
93.6569368527
 10
35.0502152125
 20
93.3447388565
 10
35.2470866368
 20
93.0305131266
 10
35.4356117498
 20
92.7147723543
 10
35.6153628856
 20
92.3976724257
 10
35.786296252
 20
92.0793863255
 10
35.9482935254
 20
91.7603225319
 10
36.1008516048
 20
91.4409873431
 10
36.2438543849
 20
91.1217783566
 10
36.3773548092
 20
90.802858242
 10
36.5011369389
 20
90.4843738309
 10
36.6150976595
 20
90.166806124
 10
36.7193212512
 20
89.8502014665
 10
36.8138370925
 20
89.5340568765
 10
36.8986781226
 20
89.2182826886
 10
36.9737147332
 20
88.9034988829
 10
37.038722082
 20
88.5902647776
 10
37.0936719869
 20
88.2787761775
 10
37.1385982213
 20
87.9693251719
 10
37.1734363351
 20
87.6625856085
 10
37.1982154154
 20
87.3589163387
 10
37.2130217857
 20
87.0583767136
 10
37.217918098
 20
86.7611661497
  0
LINE
  5
2FF
100
AcDbEntity
  8
0
100
AcDbLine
 62
253
  6
CONTINUOUS
 10
-28.8965659429
 20
153.9213109239
 11
43.9354325193
 21
111.8690278111
  0
LINE
  5
300
100
AcDbEntity
  8
RACCORDO
100
AcDbLine
 62
7
  6
CONTINUOUS
 10
46.7818277863
 20
111.1241456213
 11
46.8345703222
 21
111.0936927421
  0
LINE
  5
301
100
AcDbEntity
  8
0
100
AcDbLine
 62
7
  6
CONTINUOUS
 10
-27.3964934625
 20
154.0699344569
 11
45.4355049997
 21
112.0176513441
  0
LWPOLYLINE
  5
302
100
AcDbEntity
  8
0
100
AcDbPolyline
 62
253
  6
CONTINUOUS
 90
55
 70
0
 10
43.9354325193
 20
111.8690278111
 10
44.2027905434
 20
111.7101683389
 10
44.4699223559
 20
111.5424626779
 10
44.7366019366
 20
111.3660527238
 10
45.0026036481
 20
111.1810877371
 10
45.2677024262
 20
110.9877242166
 10
45.5316739709
 20
110.7861257672
 10
45.794294936
 20
110.5764629612
 10
46.055343118
 20
110.3589131944
 10
46.3145976439
 20
110.1336605356
 10
46.5718391586
 20
109.9008955709
 10
46.8268500101
 20
109.6608152428
 10
47.0794144337
 20
109.4136226833
 10
47.3293187348
 20
109.1595270418
 10
47.5763514693
 20
108.8987433087
 10
47.8203036228
 20
108.6314921331
 10
48.0609687876
 20
108.3579996362
 10
48.2981433367
 20
108.0784972198
 10
48.531626597
 20
107.7932213709
 10
48.7612210183
 20
107.5024134615
 10
48.9867323406
 20
107.206319544
 10
49.2079697591
 20
106.9051901433
 10
49.4247460846
 20
106.5992800452
 10
49.6368779028
 20
106.28884808
 10
49.8441857291
 20
105.9741569042
 10
50.0464941602
 20
105.6554727779
 10
50.243632023
 20
105.3330653397
 10
50.4354325193
 20
105.0072073786
 10
50.6217333667
 20
104.6781746028
 10
50.802376936
 20
104.3462454069
 10
50.9772103848
 20
104.0117006363
 10
51.1460857865
 20
103.6748233491
 10
51.3088602556
 20
103.3358985772
 10
51.4653960687
 20
102.9952130847
 10
51.615560781
 20
102.6530551257
 10
51.7592273379
 20
102.3097141998
 10
51.8962741834
 20
101.9654808079
 10
52.026585362
 20
101.6206462057
 10
52.1500506175
 20
101.2755021577
 10
52.266565486
 20
100.9303406903
 10
52.3760313843
 20
100.5854538444
 10
52.4783556933
 20
100.2411334289
 10
52.5734518364
 20
99.8976707731
 10
52.6612393527
 20
99.5553564808
 10
52.7416439654
 20
99.214480184
 10
52.8145976439
 20
98.875330298
 10
52.8800386623
 20
98.5381937777
 10
52.937911651
 20
98.203355874
 10
52.9881676435
 20
97.8710998934
 10
53.0307641183
 20
97.5417069575
 10
53.0656650345
 20
97.2154557657
 10
53.0928408626
 20
96.892622359
 10
53.1122686089
 20
96.5734798867
 10
53.1239318357
 20
96.2582983752
 10
53.1278206747
 20
95.9473444995
  0
LWPOLYLINE
  5
303
100
AcDbEntity
  8
0
100
AcDbPolyline
 62
7
  6
CONTINUOUS
 90
49
 70
0
 10
45.4355049997
 20
112.0176513441
 10
45.7364598489
 20
111.8382505833
 10
46.0349474248
 20
111.6490915021
 10
46.330822973
 20
111.4503800706
 10
46.6241424772
 20
111.2421720429
 10
46.9145701301
 20
111.0247888459
 10
47.2013747921
 20
110.7988963574
 10
47.4843051942
 20
110.5648430009
 10
47.7633463343
 20
110.3227821711
 10
48.0381161076
 20
110.073185021
 10
48.3084626202
 20
109.8163368049
 10
48.5742734512
 20
109.5524831409
 10
48.8352178243
 20
109.2820946559
 10
49.0910733435
 20
109.005555846
 10
49.3418133369
 20
108.7230422264
 10
49.587387379
 20
108.4347381825
 10
49.8276419399
 20
108.1409408965
 10
50.0624716199
 20
107.8418894939
 10
50.2918738968
 20
107.5376789827
 10
50.5157474703
 20
107.228515577
 10
50.7339179478
 20
106.9147051465
 10
50.9462575625
 20
106.5964919575
 10
51.1526080536
 20
106.2741680622
 10
51.3528582677
 20
105.947954827
 10
51.5469422088
 20
105.6179905015
 10
51.7347185758
 20
105.2845307342
 10
51.9160515403
 20
104.9478234454
 10
52.0908707064
 20
104.6079876085
 10
52.2590585863
 20
104.2652164508
 10
52.4204436493
 20
103.9198124765
 10
52.5748720759
 20
103.5720507909
 10
52.7221728806
 20
103.2222560193
 10
52.8622414646
 20
102.8706005617
 10
52.9950174172
 20
102.5171177545
 10
53.1203662685
 20
102.1620017692
 10
53.2381169747
 20
101.8055467208
 10
53.348141412
 20
101.4479158171
 10
53.450329589
 20
101.0891765565
 10
53.5444663269
 20
100.7297476634
 10
53.6302952053
 20
100.3702942548
 10
53.7076497778
 20
100.0112257872
 10
53.7764399339
 20
99.6526079192
 10
53.8365493647
 20
99.2945572368
 10
53.8878455102
 20
98.9372067443
 10
53.9301611331
 20
98.5808909539
 10
53.9633316897
 20
98.2259903967
 10
53.9872101942
 20
97.8727709997
 10
54.0016514339
 20
97.5214162861
 10
54.0065003312
 20
97.1721682795
  0
LWPOLYLINE
  5
304
100
AcDbEntity
  8
RACCORDO
100
AcDbPolyline
 62
7
  6
CONTINUOUS
 90
49
 70
0
 10
46.8345703222
 20
111.0936927421
 10
47.0663405815
 20
110.9554610655
 10
47.2973691968
 20
110.8089629466
 10
47.5276561682
 20
110.6541983856
 10
47.7574463294
 20
110.4909840836
 10
47.9864948468
 20
110.3195033394
 10
48.2140672186
 20
110.140306049
 10
48.4401587063
 20
109.9533674409
 10
48.6647740485
 20
109.7587122865
 10
48.8871929598
 20
109.5569647965
 10
49.1074083893
 20
109.3481022032
 10
49.3254273878
 20
109.1321472742
 10
49.5405508229
 20
108.9097925233
 10
49.7527693992
 20
108.6810174057
 10
49.962092412
 20
108.4458424662
 10
50.1678486146
 20
108.2050218521
 10
50.3700265568
 20
107.9585374397
 10
50.5686376888
 20
107.7064073528
 10
50.7630451141
 20
107.4494401097
 10
50.9532353382
 20
107.1876201822
 10
51.1392218556
 20
106.9209630985
 10
51.3204082539
 20
106.6503239614
 10
51.4967791239
 20
106.3756899877
 10
51.6683498749
 20
106.0970739607
 10
51.8345703222
 20
105.8153693325
 10
51.9954232903
 20
105.530566188
 10
52.1509259548
 20
105.2426744423
 10
52.3005796572
 20
104.9526172925
 10
52.4443656214
 20
104.6603877872
 10
52.5823026236
 20
104.3659928777
 10
52.7139483343
 20
104.0703766152
 10
52.8392825571
 20
103.7735350789
 10
52.9583254884
 20
103.4754721896
 10
53.0706953871
 20
103.1771437606
 10
53.1763708316
 20
102.8785489396
 10
53.2753732434
 20
102.579688579
 10
53.3673851466
 20
102.2815210494
 10
53.4523841003
 20
101.9840485751
 10
53.5303925453
 20
101.6872689318
 10
53.6011603281
 20
101.3921338179
 10
53.6646642046
 20
101.0986485128
 10
53.7209274189
 20
100.806807737
 10
53.7697695488
 20
100.5175473514
 10
53.8111667712
 20
100.2308756393
 10
53.8451429092
 20
99.9467843173
 10
53.8715890098
 20
99.6661843954
 10
53.8904687553
 20
99.3893795438
 10
53.9018184634
 20
99.1160660923
 10
53.9056381341
 20
98.8462440409
  0
LWPOLYLINE
  5
305
100
AcDbEntity
  8
0
100
AcDbPolyline
 62
7
  6
CONTINUOUS
 90
18
 70
0
 10
53.1278206747
 20
-151.0349142303
 10
53.2266873715
 20
-150.9750030096
 10
53.3201218313
 20
-150.9127438302
 10
53.408124054
 20
-150.8481366921
 10
53.4908685176
 20
-150.7810248387
 10
53.5681807443
 20
-150.7115650266
 10
53.6395372999
 20
-150.6402275259
 10
53.704897771
 20
-150.5669995953
 10
53.764302571
 20
-150.4918939761
 10
53.8173495062
 20
-150.4154191628
 10
53.863995434
 20
-150.3375658644
 10
53.9042834969
 20
-150.258343372
 10
53.9379409291
 20
-150.1782880527
 10
53.964922737
 20
-150.0973942553
 10
53.9852739141
 20
-150.015667631
 10
53.998856675
 20
-149.9336615012
 10
54.0056250912
 20
-149.8513739691
 10
54.0064711433
 20
-149.8100904503
  0
LINE
  5
306
100
AcDbEntity
  8
0
100
AcDbLine
 62
7
  6
CONTINUOUS
 10
53.1278206747
 20
-151.0349142303
 11
46.3395955754
 21
-154.9543503262
  0
ENDSEC
  0
SECTION
  2
OBJECTS
  0
DICTIONARY
  5
C
100
AcDbDictionary
280
0
281
1
  3
ACAD_GROUP
350
D
  3
ACAD_MLINESTYLE
350
17
  3
ACAD_LAYOUT
350
1A
  3
ACAD_PLOTSETTINGS
350
19
  3
ACAD_PLOTSTYLENAME
350
E
  0
DICTIONARY
  5
D
102
{ACAD_REACTORS
330
C
102
}
100
AcDbDictionary
280
0
281
1
  0
ACDBDICTIONARYWDFLT
  5
E
102
{ACAD_REACTORS
330
C
102
}
100
AcDbDictionary
281
1
  3
Normal
350
F
100
AcDbDictionaryWithDefault
340
F
  0
DICTIONARY
  5
17
102
{ACAD_REACTORS
330
C
102
}
100
AcDbDictionary
280
0
281
1
  3
Standard
350
18
  0
DICTIONARY
  5
19
102
{ACAD_REACTORS
330
C
102
}
100
AcDbDictionary
281
1
  0
DICTIONARY
  5
1A
102
{ACAD_REACTORS
330
C
102
}
100
AcDbDictionary
281
1
  3
Model
350
307
  3
Layout1
350
308
  0
ACDBPLACEHOLDER
  5
F
102
{ACAD_REACTORS
330
E
102
}
  0
MLINESTYLE
  5
18
102
{ACAD_REACTORS
330
17
102
}
100
AcDbMlineStyle
  2
STANDARD
 70
0
  3

 62
256
 51
90.0
 52
90.0
 71
2
 49
0.5
 62
256
  6
BYLAYER
 49
-0.5
 62
256
  6
BYLAYER
  0
LAYOUT
  5
307
102
{ACAD_REACTORS
330
1A
102
}
100
AcDbPlotSettings
  1

  2
none_device
  4
ISO_A4_(297.00_x_210.00_MM)
  6

 40
0.0
 41
0.0
 42
0.0
 43
0.0
 44
297.0
 45
210.0
 46
0.0
 47
0.0
 48
0.0
 49
0.0
140
0.0
141
0.0
142
1.0
143
1.0
 70
1024
 72
1
 73
0
 74
0
  7

 75
0
147
1.0
148
0.0
149
0.0
100
AcDbLayout
  1
Model
 70
0
 71
0
 10
0.0
 20
0.0
 11
297.0
 21
210.0
 12
0.0
 22
0.0
 32
0.0
 14
0.0
 24
0.0
 34
0.0
 15
0.0
 25
0.0
 35
0.0
146
0.0
 13
0.0
 23
0.0
 33
0.0
 16
1.0
 26
0.0
 36
0.0
 17
0.0
 27
1.0
 37
0.0
 76
0
330
210
345
0
346
0
  0
LAYOUT
  5
308
102
{ACAD_REACTORS
330
1A
102
}
100
AcDbPlotSettings
  1

  2
none_device
  4
ISO_A4_(297.00_x_210.00_MM)
  6

 40
0.0
 41
0.0
 42
0.0
 43
0.0
 44
297.0
 45
210.0
 46
0.0
 47
0.0
 48
0.0
 49
0.0
140
0.0
141
0.0
142
1.0
143
1.0
 70
0
 72
1
 73
0
 74
0
  7

 75
0
147
1.0
148
0.0
149
0.0
100
AcDbLayout
  1
Layout1
 70
0
 71
1
 10
0.0
 20
0.0
 11
297.0
 21
210.0
 12
0.0
 22
0.0
 32
0.0
 14
0.0
 24
0.0
 34
0.0
 15
0.0
 25
0.0
 35
0.0
146
0.0
 13
0.0
 23
0.0
 33
0.0
 16
1.0
 26
0.0
 36
0.0
 17
0.0
 27
1.0
 37
0.0
 76
0
330
211
345
0
346
0
  0
ENDSEC
  0
EOF
