  0
SECTION
  2
HEADER
  9
$ACADVER
  1
AC1021
  9
$DWGCODEPAGE
  3
ANSI_1252
  9
$EXTMAX
 10
297.0
 20
210.0
 30
0.0
  9
$EXTMIN
 10
0.0
 20
0.0
 30
0.0
  9
$LIMMIN
 10
0.0
 20
0.0
  9
$LIMMAX
 10
297.0
 20
210.0
  9
$VIEWCTR
 10
148.5
 20
105.0
  9
$VIEWSIZE
 40
210.0
  9
$CLAYER
  8
0
  9
$LTSCALE
 40
16.335
  9
$CELTYPE
  6
BYLAYER
  9
$DIMSCALE
 40
1.0
  9
$DIMASZ
 40
3.0
  9
$DIMEXO
 40
0.5
  9
$DIMDLI
 40
11.286
  9
$DIMEXE
 40
1.5
  9
$DIMCEN
 40
2.673
  9
$DIMLFAC
 40
1.0
  9
$DIMBLK
  1
_FILLED
  9
$DIMALT
 70
0
  9
$DIMALTF
 40
0.0393700787
  9
$DIMTXT
 40
3.0
  9
$DIMTOL
 70
1
  9
$DIMLIM
 70
0
  9
$DIMTFAC
 40
1.0
  9
$DIMTP
 40
0.01
  9
$DIMTM
 40
0.01
  9
$DIMGAP
 40
0.625
  9
$DIMDSEP
 70
44
  9
$AUNITS
 70
0
  9
$PDMODE
 70
3
  9
$PDSIZE
 40
3.0
  9
$HANDSEED
  5
2E5
  9
$TILEMODE
 70
1
  9
$MEASUREMENT
 70
1
  9
$INSUNITS
 70
4
  0
ENDSEC
  0
SECTION
  2
CLASSES
  0
CLASS
  1
ACDBDICTIONARYWDFLT
  2
AcDbDictionaryWithDefault
  3
AutoCAD 2000
 90
0
 91
1
280
0
281
0
  0
CLASS
  1
ACDBPLACEHOLDER
  2
AcDbPlaceHolder
  3
AutoCAD 2000
 90
0
 91
1
280
0
281
0
  0
CLASS
  1
LAYOUT
  2
AcDbLayout
  3
AutoCAD 2000
 90
0
 91
0
280
0
281
0
  0
ENDSEC
  0
SECTION
  2
TABLES
  0
TABLE
  2
VPORT
  5
8
100
AcDbSymbolTable
 70
2
  0
VPORT
  5
1F4
100
AcDbSymbolTableRecord
100
AcDbViewportTableRecord
  2
*ACTIVE
 70
0
 10
0.0
 20
0.0
 11
1.0
 21
1.0
 12
148.5
 22
105.0
 13
0.0
 23
0.0
 14
1.0
 24
1.0
 15
0.0
 25
0.0
 16
0.0
 26
0.0
 36
1.0
 17
0.0
 27
0.0
 37
0.0
 40
210.0
 41
1.4142857143
 42
50.0
 43
0.0
 44
0.0
 50
0.0
 51
0.0
 71
0
 72
100
 73
1
 74
1
 75
0
 76
0
 77
0
 78
0
  0
ENDTAB
  0
TABLE
  2
LTYPE
  5
5
100
AcDbSymbolTable
 70
6
  0
LTYPE
  5
14
100
AcDbSymbolTableRecord
100
AcDbLinetypeTableRecord
  2
BYBLOCK
 70
0
  3

 72
65
 73
0
 40
0.0
  0
LTYPE
  5
15
100
AcDbSymbolTableRecord
100
AcDbLinetypeTableRecord
  2
BYLAYER
 70
0
  3

 72
65
 73
0
 40
0.0
  0
LTYPE
  5
16
100
AcDbSymbolTableRecord
100
AcDbLinetypeTableRecord
  2
CONTINUOUS
 70
64
  3
Solid line
 72
65
 73
0
 40
0.0
  0
LTYPE
  5
1F5
100
AcDbSymbolTableRecord
100
AcDbLinetypeTableRecord
  2
CENTER
 70
64
  3
____ _ ____ _ ____ _ ____ _ ____ _ ____ _ ____
 72
65
 73
4
 40
0.6
 49
0.375
 74
0
 49
-0.075
 74
0
 49
0.075
 74
0
 49
-0.075
 74
0
  0
LTYPE
  5
1F6
100
AcDbSymbolTableRecord
100
AcDbLinetypeTableRecord
  2
HIDDEN
 70
64
  3
- - - - - - - - - - - - - - - - - - - -
 72
65
 73
2
 40
0.2
 49
0.1
 74
0
 49
-0.1
 74
0
  0
LTYPE
  5
1F7
100
AcDbSymbolTableRecord
100
AcDbLinetypeTableRecord
  2
PHANTOM
 70
64
  3
_____ _ _ _____ _ _ _____ _ _ _____
 72
65
 73
6
 40
0.8
 49
0.45
 74
0
 49
-0.05
 74
0
 49
0.1
 74
0
 49
-0.05
 74
0
 49
0.1
 74
0
 49
-0.05
 74
0
  0
LTYPE
  5
1F8
100
AcDbSymbolTableRecord
100
AcDbLinetypeTableRecord
  2
DOT
 70
64
  3
. . . . . . . . . . . . . . . . . . . .
 72
65
 73
2
 40
0.2
 49
0.1
 74
0
 49
-0.1
 74
0
  0
LTYPE
  5
1F9
100
AcDbSymbolTableRecord
100
AcDbLinetypeTableRecord
  2
DASHED
 70
64
  3
- - - - - - - - - - - - - - - - - - - -
 72
65
 73
2
 40
0.2
 49
0.1
 74
0
 49
-0.1
 74
0
  0
ENDTAB
  0
TABLE
  2
LAYER
  5
2
100
AcDbSymbolTable
 70
36
  0
LAYER
  5
10
100
AcDbSymbolTableRecord
100
AcDbLayerTableRecord
  2
0
 70
0
 62
7
  6
CONTINUOUS
370
-3
390
F
  0
LAYER
  5
1FA
100
AcDbSymbolTableRecord
100
AcDbLayerTableRecord
  2
DEFAULT_1
 70
0
 62
7
  6
CENTER
370
-3
390
F
  0
LAYER
  5
1FB
100
AcDbSymbolTableRecord
100
AcDbLayerTableRecord
  2
DEFAULT_2
 70
0
 62
7
  6
HIDDEN
370
-3
390
F
  0
LAYER
  5
1FC
100
AcDbSymbolTableRecord
100
AcDbLayerTableRecord
  2
DEFAULT_3
 70
0
 62
7
  6
PHANTOM
370
-3
390
F
  0
LAYER
  5
1FD
100
AcDbSymbolTableRecord
100
AcDbLayerTableRecord
  2
ASSI
 70
0
 62
7
  6
CONTINUOUS
370
-3
390
F
  0
LAYER
  5
1FE
100
AcDbSymbolTableRecord
100
AcDbLayerTableRecord
  2
COORDINATE
 70
0
 62
7
  6
CONTINUOUS
370
-3
390
F
  0
LAYER
  5
1FF
100
AcDbSymbolTableRecord
100
AcDbLayerTableRecord
  2
COPY_PUBLISH
 70
0
 62
7
  6
CONTINUOUS
370
-3
390
F
  0
LAYER
  5
200
100
AcDbSymbolTableRecord
100
AcDbLayerTableRecord
  2
COSMETICI
 70
0
 62
7
  6
CONTINUOUS
370
-3
390
F
  0
LAYER
  5
201
100
AcDbSymbolTableRecord
100
AcDbLayerTableRecord
  2
CURVE
 70
0
 62
7
  6
CONTINUOUS
370
-3
390
F
  0
LAYER
  5
202
100
AcDbSymbolTableRecord
100
AcDbLayerTableRecord
  2
DRAFT
 70
0
 62
7
  6
CONTINUOUS
370
-3
390
F
  0
LAYER
  5
203
100
AcDbSymbolTableRecord
100
AcDbLayerTableRecord
  2
IMPORT_IGES
 70
0
 62
7
  6
CONTINUOUS
370
-3
390
F
  0
LAYER
  5
204
100
AcDbSymbolTableRecord
100
AcDbLayerTableRecord
  2
NOTE
 70
0
 62
7
  6
CONTINUOUS
370
-3
390
F
  0
LAYER
  5
205
100
AcDbSymbolTableRecord
100
AcDbLayerTableRecord
  2
PIANI
 70
0
 62
7
  6
CONTINUOUS
370
-3
390
F
  0
LAYER
  5
206
100
AcDbSymbolTableRecord
100
AcDbLayerTableRecord
  2
PUNTI
 70
0
 62
7
  6
CONTINUOUS
370
-3
390
F
  0
LAYER
  5
207
100
AcDbSymbolTableRecord
100
AcDbLayerTableRecord
  2
RACCORDO
 70
0
 62
7
  6
CONTINUOUS
370
-3
390
F
  0
LAYER
  5
208
100
AcDbSymbolTableRecord
100
AcDbLayerTableRecord
  2
SIMBOLI
 70
0
 62
7
  6
CONTINUOUS
370
-3
390
F
  0
LAYER
  5
209
100
AcDbSymbolTableRecord
100
AcDbLayerTableRecord
  2
SMUSSO
 70
0
 62
7
  6
CONTINUOUS
370
-3
390
F
  0
LAYER
  5
20A
100
AcDbSymbolTableRecord
100
AcDbLayerTableRecord
  2
SNAPLINE
 70
0
 62
7
  6
CONTINUOUS
370
-3
390
F
  0
LAYER
  5
20B
100
AcDbSymbolTableRecord
100
AcDbLayerTableRecord
  2
SUPERFICI
 70
0
 62
7
  6
CONTINUOUS
370
-3
390
F
  0
LAYER
  5
20C
100
AcDbSymbolTableRecord
100
AcDbLayerTableRecord
  2
TRASH
 70
0
 62
7
  6
CONTINUOUS
370
-3
390
F
  0
ENDTAB
  0
TABLE
  2
STYLE
  5
3
100
AcDbSymbolTable
 70
1
  0
STYLE
  5
11
100
AcDbSymbolTableRecord
100
AcDbTextStyleTableRecord
  2
STANDARD
 70
0
 40
0.0
 41
0.8
 50
0.0
 71
0
 42
0.2
  3
txt
  4

  0
STYLE
  5
20D
100
AcDbSymbolTableRecord
100
AcDbTextStyleTableRecord
  2
TEXTSTYLE_1
 70
0
 40
0.0
 41
0.8
 50
0.0
 71
0
 42
0.2
  3
gdt
  4

  0
ENDTAB
  0
TABLE
  2
VIEW
  5
6
100
AcDbSymbolTable
 70
0
  0
ENDTAB
  0
TABLE
  2
UCS
  5
7
100
AcDbSymbolTable
 70
0
  0
ENDTAB
  0
TABLE
  2
APPID
  5
9
100
AcDbSymbolTable
 70
1
  0
APPID
  5
20E
100
AcDbSymbolTableRecord
100
AcDbRegAppTableRecord
  2
ACAD
 70
0
  0
ENDTAB
  0
TABLE
  2
BLOCK_RECORD
  5
1
100
AcDbSymbolTable
 70
0
  0
BLOCK_RECORD
  5
20F
100
AcDbSymbolTableRecord
100
AcDbBlockTableRecord
  2
*Model_Space
  0
BLOCK_RECORD
  5
210
100
AcDbSymbolTableRecord
100
AcDbBlockTableRecord
  2
*Paper_Space
  0
ENDTAB
  0
TABLE
  2
DIMSTYLE
  5
A
100
AcDbSymbolTable
 70
1
100
AcDbDimStyleTable
 71
0
  0
DIMSTYLE
105
211
100
AcDbSymbolTableRecord
100
AcDbDimStyleTableRecord
  2
STANDARD
 70
0
  3

  4

 40
1.0
 41
3.0
 42
0.5
 43
0.38
 44
1.5
 45
0.0
 46
0.0
 47
0.01
 48
0.01
140
3.0
141
0.09
142
0.0
143
25.4
144
1.0
145
0.0
146
1.0
147
0.625
 71
1.0
 72
0.0
 73
0
 74
0
 75
0
 76
0
 77
1
 78
8
170
0
171
2
172
0
173
0
174
0
175
0
176
0
177
0
178
0
270
2
271
2
272
2
273
2
274
2
275
0
280
0
281
0
282
0
283
1
284
8
285
0
286
0
287
3
288
0
340
11
278
44
  0
ENDTAB
  0
ENDSEC
  0
SECTION
  2
BLOCKS
  0
BLOCK
  5
20
100
AcDbEntity
  8
0
100
AcDbBlockBegin
  2
*Model_Space
 70
0
 10
0.0
 20
0.0
 30
0.0
  3
*Model_Space
  1

  0
ENDBLK
  5
21
100
AcDbEntity
  8
0
100
AcDbBlockEnd
  0
BLOCK
  5
1C
100
AcDbEntity
  8
0
100
AcDbBlockBegin
  2
*Paper_Space
 70
0
 10
0.0
 20
0.0
 30
0.0
  3
*Paper_Space
  1

  0
ENDBLK
  5
1D
100
AcDbEntity
  8
0
100
AcDbBlockEnd
  0
ENDSEC
  0
SECTION
  2
ENTITIES
  0
LINE
  5
212
100
AcDbEntity
  8
0
100
AcDbLine
 62
7
  6
CONTINUOUS
 10
-45.7964131001
 20
80.5872903409
 11
-29.0367408221
 21
90.2641150661
  0
LINE
  5
213
100
AcDbEntity
  8
ASSI
100
AcDbLine
 62
253
  6
CONTINUOUS
 10
-40.815137034
 20
79.0661815188
 11
-22.5364267403
 21
89.6200797563
  0
LINE
  5
214
100
AcDbEntity
  8
0
100
AcDbLine
 62
253
  6
CONTINUOUS
 10
-29.0367408221
 20
90.2641150661
 11
-28.921996117
 21
90.3280682427
  0
LWPOLYLINE
  5
215
100
AcDbEntity
  8
0
100
AcDbPolyline
 62
7
  6
CONTINUOUS
 90
28
 70
0
 10
-29.0367408221
 20
90.2641150661
 10
-28.8026434246
 20
90.3927758439
 10
-28.5623514354
 20
90.5119232551
 10
-28.3161335623
 20
90.6212975278
 10
-28.0644969676
 20
90.7205725368
 10
-27.8075171363
 20
90.8096261947
 10
-27.5447877629
 20
90.8884501285
 10
-27.2765412126
 20
90.9567828359
 10
-27.0030920519
 20
91.0143603009
 10
-26.7240864904
 20
91.0610420235
 10
-26.4396981686
 20
91.0965446076
 10
-26.1502723196
 20
91.1205765323
 10
-25.8556471881
 20
91.1328872066
 10
-25.5559142289
 20
91.1331774423
 10
-25.2514705639
 20
91.1211543571
 10
-24.9425555943
 20
91.0965460335
 10
-24.6292280589
 20
91.0590658226
 10
-24.311886895
 20
91.0084691525
 10
-23.9912335205
 20
90.9446122022
 10
-23.6672630297
 20
90.8672501161
 10
-23.34040593
 20
90.7762366476
 10
-23.0119794997
 20
90.6717621885
 10
-22.6819969212
 20
90.5537016638
 10
-22.350840928
 20
90.4220535059
 10
-22.0203555143
 20
90.2775115968
 10
-21.6912697323
 20
90.1204754531
 10
-21.3632112568
 20
89.950835421
 10
-21.0363542599
 20
89.7687032893
  0
LWPOLYLINE
  5
216
100
AcDbEntity
  8
0
100
AcDbPolyline
 62
253
  6
CONTINUOUS
 90
16
 70
0
 10
-22.5364267403
 20
89.6200797563
 10
-22.4254054116
 20
89.6808252476
 10
-22.3146883847
 20
89.734690575
 10
-22.2045791272
 20
89.7815280972
 10
-22.0953794409
 20
89.8212094359
 10
-21.9873886346
 20
89.8536258273
 10
-21.8809027036
 20
89.8786884204
 10
-21.7762135184
 20
89.8963285202
 10
-21.6736080249
 20
89.9064977765
 10
-21.5733674574
 20
89.9091683162
 10
-21.4757665685
 20
89.9043328193
 10
-21.3810728754
 20
89.8920045398
 10
-21.289545927
 20
89.8722172684
 10
-21.2014365921
 20
89.8450252409
 10
-21.1169863725
 20
89.8105029886
 10
-21.0364267403
 20
89.7687451346
  0
LWPOLYLINE
  5
217
100
AcDbEntity
  8
ASSI
100
AcDbPolyline
 62
7
  6
CONTINUOUS
 90
24
 70
0
 10
-45.7963855132
 20
80.5873062692
 10
-45.6619558125
 20
80.6587486393
 10
-45.5027060366
 20
80.7284470726
 10
-45.3374941145
 20
80.7853548503
 10
-45.1663537723
 20
80.8293719225
 10
-44.9897015966
 20
80.8602971278
 10
-44.8075807765
 20
80.878248987
 10
-44.6202568871
 20
80.8831744804
 10
-44.4280175532
 20
80.8750288752
 10
-44.2309905809
 20
80.8540625088
 10
-44.029626064
 20
80.8203494811
 10
-43.8240995954
 20
80.7739232717
 10
-43.6141392651
 20
80.7150085209
 10
-43.4000463357
 20
80.6436580732
 10
-43.1821305815
 20
80.5599183217
 10
-42.9601146503
 20
80.4639472532
 10
-42.7342188145
 20
80.3557591166
 10
-42.5048320134
 20
80.2354297057
 10
-42.2719240981
 20
80.1031829838
 10
-42.0357887938
 20
79.9591027828
 10
-41.7967641435
 20
79.8032736968
 10
-41.5548900943
 20
79.6359320376
 10
-41.3103963577
 20
79.4572364757
 10
-41.0637025551
 20
79.2672720232
  0
LWPOLYLINE
  5
218
100
AcDbEntity
  8
ASSI
100
AcDbPolyline
 62
7
  6
CONTINUOUS
 90
25
 70
0
 10
-44.7963370025
 20
78.8552834702
 10
-44.6909990313
 20
78.9108787409
 10
-44.5660601637
 20
78.9641896229
 10
-44.4362102384
 20
79.0066003678
 10
-44.3014883048
 20
79.0380202482
 10
-44.1622363474
 20
79.0582851204
 10
-44.0184113234
 20
79.0675412238
 10
-43.8702374435
 20
79.0657439882
 10
-43.7179585892
 20
79.0528552701
 10
-43.5616048376
 20
79.0291319683
 10
-43.4015474705
 20
78.9946423063
 10
-43.2379446334
 20
78.9494090893
 10
-43.0705168828
 20
78.8936509006
 10
-42.8995167862
 20
78.8274138101
 10
-42.7252088075
 20
78.7507357181
 10
-42.5473159401
 20
78.6637747432
 10
-42.3660255999
 20
78.5665423465
 10
-42.1816658578
 20
78.4591032568
 10
-41.9941657847
 20
78.3416732057
 10
-41.8037716518
 20
78.2143244358
 10
-41.610771761
 20
78.0771272188
 10
-41.4151612907
 20
77.930303811
 10
-41.2171217381
 20
77.7739959056
 10
-41.0170210417
 20
77.6082680025
 10
-40.815137034
 20
77.4332409652
  0
LWPOLYLINE
  5
219
100
AcDbEntity
  8
0
100
AcDbPolyline
 62
253
  6
CONTINUOUS
 90
23
 70
0
 10
-28.921996117
 20
90.3280682427
 10
-28.6873350006
 20
90.4452470961
 10
-28.44517995
 20
90.5484889478
 10
-28.1958259938
 20
90.6376680135
 10
-27.9395769314
 20
90.7126756422
 10
-27.6767449628
 20
90.7734204487
 10
-27.4076503082
 20
90.8198284247
 10
-27.132620818
 20
90.8518430294
 10
-26.8519915734
 20
90.8694252578
 10
-26.5661044777
 20
90.8725536888
 10
-26.2753078405
 20
90.8612245107
 10
-25.9799559526
 20
90.8354515265
 10
-25.6804086547
 20
90.7952661365
 10
-25.3770308992
 20
90.7407173006
 10
-25.0701923051
 20
90.671871478
 10
-24.7602667079
 20
90.5888125467
 10
-24.4476317043
 20
90.4916417013
 10
-24.1326681919
 20
90.3804773295
 10
-23.8157599051
 20
90.2554548679
 10
-23.4972929479
 20
90.1167266372
 10
-23.1776553233
 20
89.9644616564
 10
-22.8572364604
 20
89.7988454368
 10
-22.5364267403
 20
89.6200797563
  0
LINE
  5
21A
100
AcDbEntity
  8
ASSI
100
AcDbLine
 62
253
  6
CONTINUOUS
 10
-46.22450391
 20
74.3108083347
 11
-40.8155129048
 21
77.4338919506
  0
LINE
  5
21B
100
AcDbEntity
  8
RACCORDO
100
AcDbLine
 62
253
  6
CONTINUOUS
 10
-16.4694505577
 20
87.1626533628
 11
-16.4961423688
 21
87.1472418456
  0
LINE
  5
21C
100
AcDbEntity
  8
0
100
AcDbLine
 62
7
  6
CONTINUOUS
 10
-25.7901297056
 20
66.1075985793
 11
-25.671399451
 21
66.1761519403
  0
LWPOLYLINE
  5
21D
100
AcDbEntity
  8
0
100
AcDbPolyline
 62
7
  6
CONTINUOUS
 90
6
 70
0
 10
-25.7911628264
 20
66.109387893
 10
-25.846653527
 20
66.0823352634
 10
-25.9658946291
 20
66.0533467673
 10
-26.0946847392
 20
66.0586923743
 10
-26.2361060955
 20
66.0965927827
 10
-26.3901586978
 20
66.1670479925
  0
LWPOLYLINE
  5
21E
100
AcDbEntity
  8
0
100
AcDbPolyline
 62
7
  6
CONTINUOUS
 90
3
 70
0
 10
-25.6944005275
 20
66.1916916569
 10
-25.740043671
 20
66.143878561
 10
-25.7911628264
 20
66.109387893
  0
LWPOLYLINE
  5
21F
100
AcDbEntity
  8
0
100
AcDbPolyline
 62
7
  6
CONTINUOUS
 90
19
 70
0
 10
37.4716919159
 20
-90.9085085985
 10
37.5831813153
 20
-90.9673494982
 10
37.6993027688
 20
-91.0178884699
 10
37.8195160437
 20
-91.0599075572
 10
37.9438444774
 20
-91.0933581678
 10
38.0722647326
 20
-91.118288894
 10
38.2040457636
 20
-91.1345578152
 10
38.3392067384
 20
-91.1421155294
 10
38.4777284891
 20
-91.1410114386
 10
38.6188224662
 20
-91.131251828
 10
38.7625033403
 20
-91.1127873313
 10
38.9087564409
 20
-91.0856673148
 10
39.0567492071
 20
-91.0500461619
 10
39.206491561
 20
-91.005875387
 10
39.3579735804
 20
-90.9532034757
 10
39.5103329384
 20
-90.8923302684
 10
39.6632821926
 20
-90.8233557117
 10
39.8171087853
 20
-90.746179859
 10
39.9718127166
 20
-90.6608027102
  0
LINE
  5
220
100
AcDbEntity
  8
0
100
AcDbLine
 62
253
  6
CONTINUOUS
 10
-21.4757665685
 20
53.6399800852
 11
-20.0615530061
 21
54.4565292718
  0
LINE
  5
221
100
AcDbEntity
  8
0
100
AcDbLine
 62
253
  6
CONTINUOUS
 10
-20.9504872454
 20
52.5476752287
 11
-19.536273683
 21
53.3642244154
  0
LWPOLYLINE
  5
222
100
AcDbEntity
  8
0
100
AcDbPolyline
 62
7
  6
CONTINUOUS
 90
19
 70
0
 10
-39.6029472334
 20
-46.4065779258
 10
-39.491457834
 20
-46.4654188255
 10
-39.3753363805
 20
-46.5159577972
 10
-39.2551231056
 20
-46.5579768845
 10
-39.1307946719
 20
-46.591427495
 10
-39.0023744167
 20
-46.6163582213
 10
-38.8705933857
 20
-46.6326271425
 10
-38.7354324109
 20
-46.6401848567
 10
-38.5969106602
 20
-46.6390807659
 10
-38.4558166831
 20
-46.6293211553
 10
-38.312135809
 20
-46.6108566586
 10
-38.1658827084
 20
-46.5837366421
 10
-38.0178899422
 20
-46.5481154892
 10
-37.8681475884
 20
-46.5039447143
 10
-37.7166655689
 20
-46.451272803
 10
-37.5643062109
 20
-46.3903995957
 10
-37.4113569568
 20
-46.321425039
 10
-37.257530364
 20
-46.2442491863
 10
-37.1028264327
 20
-46.1588720374
  0
LINE
  5
223
100
AcDbEntity
  8
0
100
AcDbLine
 62
7
  6
CONTINUOUS
 10
-39.6029472334
 20
-46.4065779258
 11
-41.0171607958
 21
-45.5900287392
  0
LINE
  5
224
100
AcDbEntity
  8
0
100
AcDbLine
 62
7
  6
CONTINUOUS
 10
36.0574783535
 20
-90.0919594119
 11
37.4716919159
 21
-90.9085085986
  0
LINE
  5
225
100
AcDbEntity
  8
0
100
AcDbLine
 62
253
  6
CONTINUOUS
 10
-40.6383603387
 20
-44.1178936201
 11
-42.052573901
 21
-43.3013444335
  0
LINE
  5
226
100
AcDbEntity
  8
0
100
AcDbLine
 62
253
  6
CONTINUOUS
 10
35.0220652483
 20
-87.8032751062
 11
36.4362788107
 21
-88.6198242928
  0
LWPOLYLINE
  5
227
100
AcDbEntity
  8
0
100
AcDbPolyline
 62
7
  6
CONTINUOUS
 90
19
 70
0
 10
-41.0171607958
 20
-45.5900287391
 10
-41.1236286315
 20
-45.523048186
 10
-41.225464413
 20
-45.4477657048
 10
-41.3219676291
 20
-45.3646795909
 10
-41.4131078658
 20
-45.2737453369
 10
-41.498915537
 20
-45.1750074502
 10
-41.5789021736
 20
-45.0690280065
 10
-41.6530345759
 20
-44.9557657041
 10
-41.7213459436
 20
-44.8352618446
 10
-41.7834474073
 20
-44.7082024087
 10
-41.8393035492
 20
-44.5745500071
 10
-41.8889497871
 20
-44.4343420292
 10
-41.9321035046
 20
-44.2883766234
 10
-41.9687276721
 20
-44.1366209524
 10
-41.9988593192
 20
-43.9791078535
 10
-42.0223269184
 20
-43.8167339862
 10
-42.0390732938
 20
-43.649798237
 10
-42.0491556214
 20
-43.4780017194
 10
-42.052573901
 20
-43.3013444335
  0
LWPOLYLINE
  5
228
100
AcDbEntity
  8
0
100
AcDbPolyline
 62
7
  6
CONTINUOUS
 90
19
 70
0
 10
36.0574783536
 20
-90.0919594118
 10
35.9510105179
 20
-90.0249788587
 10
35.8491747363
 20
-89.9496963775
 10
35.7526715202
 20
-89.8666102636
 10
35.6615312836
 20
-89.7756760096
 10
35.5757236124
 20
-89.676938123
 10
35.4957369757
 20
-89.5709586792
 10
35.4216045735
 20
-89.4576963768
 10
35.3532932057
 20
-89.3371925173
 10
35.291191742
 20
-89.2101330814
 10
35.2353356001
 20
-89.0764806799
 10
35.1856893622
 20
-88.936272702
 10
35.1425356448
 20
-88.7903072961
 10
35.1059114773
 20
-88.6385516252
 10
35.0757798302
 20
-88.4810385262
 10
35.052312231
 20
-88.3186646589
 10
35.0355658555
 20
-88.1517289097
 10
35.0254835279
 20
-87.9799323922
 10
35.0220652483
 20
-87.8032751062
  0
LINE
  5
229
100
AcDbEntity
  8
ASSI
100
AcDbLine
 62
7
  6
CONTINUOUS
 10
-47.6387174724
 20
26.1160387062
 11
-47.6387174724
 21
75.1273575214
  0
LWPOLYLINE
  5
22A
100
AcDbEntity
  8
ASSI
100
AcDbPolyline
 62
7
  6
CONTINUOUS
 90
26
 70
0
 10
-47.6387174724
 20
75.1273575214
 10
-47.6356027285
 20
75.4681407941
 10
-47.6260410481
 20
75.8002246352
 10
-47.610126284
 20
76.1233077258
 10
-47.5880317165
 20
76.4368609485
 10
-47.5598126573
 20
76.7408566407
 10
-47.5253425285
 20
77.035721222
 10
-47.4846954038
 20
77.3211325473
 10
-47.4379550475
 20
77.5968269921
 10
-47.3849023804
 20
77.8632345902
 10
-47.3255690288
 20
78.1200444476
 10
-47.2600086695
 20
78.3669134513
 10
-47.1879300681
 20
78.604121369
 10
-47.1093141821
 20
78.8314034408
 10
-47.0242091375
 20
79.0482779845
 10
-46.9323693327
 20
79.254631392
 10
-46.8337434883
 20
79.4502834775
 10
-46.7284429133
 20
79.6346409659
 10
-46.6165411684
 20
79.8070502426
 10
-46.4982187166
 20
79.9672218723
 10
-46.3735901594
 20
80.1149204268
 10
-46.2427860952
 20
80.249776141
 10
-46.1062124225
 20
80.3715194325
 10
-45.9639631866
 20
80.4801894945
 10
-45.8157690504
 20
80.5759814157
 10
-45.7963855132
 20
80.5873062692
  0
LWPOLYLINE
  5
22B
100
AcDbEntity
  8
0
100
AcDbPolyline
 62
7
  6
CONTINUOUS
 90
39
 70
0
 10
-20.1550045724
 20
48.6725866582
 10
-20.1294058503
 20
48.6880030734
 10
-20.0643803834
 20
48.7331367256
 10
-20.0035258776
 20
48.7843807606
 10
-19.9468795711
 20
48.8417897315
 10
-19.8944042257
 20
48.9053090852
 10
-19.8465669489
 20
48.9743734015
 10
-19.8034091493
 20
49.0490321853
 10
-19.7648894183
 20
49.1292359316
 10
-19.7313506379
 20
49.2142707051
 10
-19.7028372779
 20
49.3041796367
 10
-19.6793048684
 20
49.3989195955
 10
-19.6609628824
 20
49.4976472528
 10
-19.6478576596
 20
49.6003982106
 10
-19.6399428602
 20
49.707136867
 10
-19.6372889374
 20
49.8169130876
 10
-19.6399428602
 20
49.9297539916
 10
-19.6478576596
 20
50.0456324599
 10
-19.6609628824
 20
50.1635170005
 10
-19.6793048684
 20
50.2834255236
 10
-19.7028372779
 20
50.405340119
 10
-19.7313506379
 20
50.5281755641
 10
-19.7648894183
 20
50.6519400804
 10
-19.8034091493
 20
50.7766254465
 10
-19.8465669489
 20
50.9011217755
 10
-19.8944042257
 20
51.0254273799
 10
-19.9468795711
 20
51.1495439472
 10
-20.0035258776
 20
51.2723666529
 10
-20.0643803834
 20
51.3938839459
 10
-20.1294058503
 20
51.5141073774
 10
-20.1980234559
 20
51.6319667766
 10
-20.2702652706
 20
51.7474410379
 10
-20.346099224
 20
51.860551267
 10
-20.4248502815
 20
51.97029061
 10
-20.506544487
 20
52.076628972
 10
-20.5911557966
 20
52.1795964479
 10
-20.6779310439
 20
52.2782764685
 10
-20.7666191734
 20
52.3723635106
 10
-20.8574712405
 20
52.4621630974
  0
LWPOLYLINE
  5
22C
100
AcDbEntity
  8
0
100
AcDbPolyline
 62
7
  6
CONTINUOUS
 90
39
 70
0
 10
-18.7407910101
 20
49.4891358449
 10
-18.715192288
 20
49.5045522601
 10
-18.6501668211
 20
49.5496859123
 10
-18.5893123152
 20
49.6009299473
 10
-18.5326660087
 20
49.6583389182
 10
-18.4801906633
 20
49.7218582719
 10
-18.4323533865
 20
49.7909225881
 10
-18.3891955869
 20
49.8655813719
 10
-18.3506758559
 20
49.9457851183
 10
-18.3171370756
 20
50.0308198917
 10
-18.2886237155
 20
50.1207288234
 10
-18.2650913061
 20
50.2154687821
 10
-18.24674932
 20
50.3141964395
 10
-18.2336440972
 20
50.4169473973
 10
-18.2257292978
 20
50.5236860536
 10
-18.2230753751
 20
50.6334622742
 10
-18.2257292978
 20
50.7463031783
 10
-18.2336440972
 20
50.8621816466
 10
-18.24674932
 20
50.9800661872
 10
-18.2650913061
 20
51.0999747103
 10
-18.2886237155
 20
51.2218893056
 10
-18.3171370756
 20
51.3447247507
 10
-18.3506758559
 20
51.4684892671
 10
-18.3891955869
 20
51.5931746332
 10
-18.4323533865
 20
51.7176709622
 10
-18.4801906633
 20
51.8419765666
 10
-18.5326660087
 20
51.9660931338
 10
-18.5893123152
 20
52.0889158396
 10
-18.6501668211
 20
52.2104331326
 10
-18.715192288
 20
52.330656564
 10
-18.7838098935
 20
52.4485159632
 10
-18.8560517083
 20
52.5639902246
 10
-18.9318856617
 20
52.6771004536
 10
-19.0106367191
 20
52.7868397966
 10
-19.0923309246
 20
52.8931781587
 10
-19.1769422342
 20
52.9961456346
 10
-19.2637174815
 20
53.0948256552
 10
-19.352405611
 20
53.1889126973
 10
-19.4432576781
 20
53.278712284
  0
LINE
  5
22D
100
AcDbEntity
  8
0
100
AcDbLine
 62
253
  6
CONTINUOUS
 10
-21.4757665685
 20
48.1168739752
 11
-20.7081373149
 21
48.5600934856
  0
LINE
  5
22E
100
AcDbEntity
  8
ASSI
100
AcDbLine
 62
7
  6
CONTINUOUS
 10
-18.7407819277
 20
49.4891201214
 11
-20.1549954901
 21
48.6725709347
  0
LWPOLYLINE
  5
22F
100
AcDbEntity
  8
0
100
AcDbPolyline
 62
7
  6
CONTINUOUS
 90
10
 70
0
 10
-21.2686783042
 20
48.5746010565
 10
-21.2555191716
 20
48.5817963177
 10
-21.2224980792
 20
48.5967274263
 10
-21.1878487047
 20
48.6081642981
 10
-21.1515520737
 20
48.6160662144
 10
-21.1136271608
 20
48.6204738939
 10
-21.0745141983
 20
48.6213361722
 10
-21.0343599302
 20
48.6186359946
 10
-20.9930176126
 20
48.6123904158
 10
-20.9504872454
 20
48.6025994359
  0
LINE
  5
230
100
AcDbEntity
  8
0
100
AcDbLine
 62
7
  6
CONTINUOUS
 10
-30.3146013334
 20
-43.0559851282
 11
35.0220652483
 21
-80.7805575516
  0
LWPOLYLINE
  5
231
100
AcDbEntity
  8
0
100
AcDbPolyline
 62
7
  6
CONTINUOUS
 90
19
 70
0
 10
-40.6383603387
 20
-44.1178936201
 10
-40.634942059
 20
-44.2945509061
 10
-40.6248597315
 20
-44.4663474237
 10
-40.608113356
 20
-44.6332831729
 10
-40.5846457568
 20
-44.7956570402
 10
-40.5545141097
 20
-44.9531701391
 10
-40.5178899422
 20
-45.10492581
 10
-40.4747362247
 20
-45.2508912159
 10
-40.4250899869
 20
-45.3910991938
 10
-40.3692338449
 20
-45.5247515953
 10
-40.3071323812
 20
-45.6518110312
 10
-40.2388210135
 20
-45.7723148907
 10
-40.1646886112
 20
-45.8855771932
 10
-40.0847019746
 20
-45.9915566369
 10
-39.9988943034
 20
-46.0902945236
 10
-39.9077540667
 20
-46.1812287776
 10
-39.8112508507
 20
-46.2643148915
 10
-39.7094150691
 20
-46.3395973727
 10
-39.6029472334
 20
-46.4065779258
  0
LINE
  5
232
100
AcDbEntity
  8
ASSI
100
AcDbLine
 62
7
  6
CONTINUOUS
 10
-46.22450391
 20
25.2994895195
 11
-46.22450391
 21
74.3108083347
  0
LINE
  5
233
100
AcDbEntity
  8
0
100
AcDbLine
 62
7
  6
CONTINUOUS
 10
-42.052573901
 20
-43.3013444335
 11
-42.052573901
 21
7.6343463316
  0
LINE
  5
234
100
AcDbEntity
  8
ASSI
100
AcDbLine
 62
7
  6
CONTINUOUS
 10
-40.815137034
 20
79.0661815188
 11
-40.815137034
 21
77.4332409652
  0
LINE
  5
235
100
AcDbEntity
  8
0
100
AcDbLine
 62
7
  6
CONTINUOUS
 10
-40.6383603387
 20
-44.1178936201
 11
-40.6383603387
 21
6.817797145
  0
LWPOLYLINE
  5
236
100
AcDbEntity
  8
ASSI
100
AcDbPolyline
 62
7
  6
CONTINUOUS
 90
26
 70
0
 10
-46.22450391
 20
74.3108083347
 10
-46.2221346059
 20
74.5990096832
 10
-46.2148003663
 20
74.8795669591
 10
-46.2025806053
 20
75.1522252004
 10
-46.1856287308
 20
75.4165327741
 10
-46.1639847589
 20
75.6724701917
 10
-46.1375212266
 20
75.9204100243
 10
-46.1062999704
 20
76.1600801737
 10
-46.0703927091
 20
76.3912570869
 10
-46.0295962335
 20
76.6143149362
 10
-45.9839372671
 20
76.828990679
 10
-45.933461266
 20
77.0349939673
 10
-45.8779040791
 20
77.2325717602
 10
-45.8172539137
 20
77.4214975356
 10
-45.7515471715
 20
77.6013662106
 10
-45.6805453526
 20
77.7720993715
 10
-45.6042179549
 20
77.9335371119
 10
-45.5226462749
 20
78.0851848714
 10
-45.4358232075
 20
78.2265296321
 10
-45.3439074177
 20
78.3573230433
 10
-45.2469899107
 20
78.4773693404
 10
-45.145093949
 20
78.586406019
 10
-45.0385556001
 20
78.684209235
 10
-44.9274618259
 20
78.7708078875
 10
-44.8115196375
 20
78.846404633
 10
-44.7963370025
 20
78.8552834702
  0
LWPOLYLINE
  5
237
100
AcDbEntity
  8
0
100
AcDbPolyline
 62
7
  6
CONTINUOUS
 90
11
 70
0
 10
34.5674966032
 20
-44.8253349851
 10
34.4744805984
 20
-44.8034345656
 10
34.3836285312
 20
-44.7883204625
 10
34.2949404018
 20
-44.7799926757
 10
34.2081651545
 20
-44.7784668158
 10
34.1235538449
 20
-44.7837272723
 10
34.0418596394
 20
-44.7957272136
 10
33.9631085819
 20
-44.8145268094
 10
33.8872746285
 20
-44.8400658899
 10
33.8150328137
 20
-44.8721171143
 10
33.7720139303
 20
-44.8953222074
  0
LWPOLYLINE
  5
238
100
AcDbEntity
  8
0
100
AcDbPolyline
 62
7
  6
CONTINUOUS
 90
5
 70
0
 10
-26.3901586978
 20
-27.3596222141
 10
-26.2730223497
 20
-27.4092975524
 10
-26.1691156152
 20
-27.4303090118
 10
-26.0784384944
 20
-27.4226565921
 10
-26.0159176143
 20
-27.3954617089
  0
LWPOLYLINE
  5
239
100
AcDbEntity
  8
0
100
AcDbPolyline
 62
7
  6
CONTINUOUS
 90
5
 70
0
 10
-26.3901586978
 20
-26.1349167989
 10
-26.5072950458
 20
-26.0852414605
 10
-26.6112017803
 20
-26.0642300012
 10
-26.7018789011
 20
-26.0718824209
 10
-26.7643997812
 20
-26.0990773041
  0
LWPOLYLINE
  5
23A
100
AcDbEntity
  8
0
100
AcDbPolyline
 62
7
  6
CONTINUOUS
 90
10
 70
0
 10
27.7388654021
 20
-55.346944224
 10
27.7828252396
 20
-55.3707170544
 10
27.8262882002
 20
-55.3911449994
 10
27.8692542837
 20
-55.408228059
 10
27.9118834354
 20
-55.4220058393
 10
27.9540157101
 20
-55.4324387343
 10
27.9951712719
 20
-55.4394079257
 10
28.0353389549
 20
-55.442873816
 10
28.0745299249
 20
-55.4428760027
 10
28.1027670099
 20
-55.4402879903
  0
LWPOLYLINE
  5
23B
100
AcDbEntity
  8
0
100
AcDbPolyline
 62
7
  6
CONTINUOUS
 90
10
 70
0
 10
-14.6875414691
 20
-30.8504686244
 10
-14.6435816316
 20
-30.8742414547
 10
-14.600118671
 20
-30.8946693997
 10
-14.5571525875
 20
-30.9117524594
 10
-14.5145234358
 20
-30.9255302397
 10
-14.4723911611
 20
-30.9359631346
 10
-14.4312355993
 20
-30.9429323261
 10
-14.3910679163
 20
-30.9463982163
 10
-14.3518769463
 20
-30.9464004031
 10
-14.3236398613
 20
-30.9438123906
  0
LINE
  5
23C
100
AcDbEntity
  8
0
100
AcDbLine
 62
7
  6
CONTINUOUS
 10
34.3856691452
 20
-60.8178237746
 11
29.7187643894
 21
-58.1232114587
  0
LINE
  5
23D
100
AcDbEntity
  8
0
100
AcDbLine
 62
7
  6
CONTINUOUS
 10
26.3246518397
 20
-56.1634934107
 11
-12.7076424818
 21
-33.626735859
  0
LINE
  5
23E
100
AcDbEntity
  8
0
100
AcDbLine
 62
7
  6
CONTINUOUS
 10
-16.1017550315
 20
-31.667017811
 11
-20.7686597873
 21
-28.9724054951
  0
LINE
  5
23F
100
AcDbEntity
  8
0
100
AcDbLine
 62
7
  6
CONTINUOUS
 10
35.0220652483
 20
-59.5521725353
 11
31.1329779518
 21
-57.306662272
  0
LINE
  5
240
100
AcDbEntity
  8
0
100
AcDbLine
 62
7
  6
CONTINUOUS
 10
27.7388654021
 20
-55.346944224
 11
-11.2934289194
 21
-32.8101866723
  0
LINE
  5
241
100
AcDbEntity
  8
0
100
AcDbLine
 62
7
  6
CONTINUOUS
 10
-14.6875414691
 20
-30.8504686244
 11
-19.354446225
 21
-28.1558563084
  0
LWPOLYLINE
  5
242
100
AcDbEntity
  8
0
100
AcDbPolyline
 62
7
  6
CONTINUOUS
 90
16
 70
0
 10
-12.7076424818
 20
-33.626735859
 10
-12.7516023194
 20
-33.5997449708
 10
-12.7950652799
 20
-33.5699829785
 10
-12.8380313634
 20
-33.5374498819
 10
-12.8806605151
 20
-33.5020005863
 10
-12.9227927898
 20
-33.4637801865
 10
-12.9639483516
 20
-33.4232239667
 10
-13.0041160346
 20
-33.3803052235
 10
-13.0433070047
 20
-33.3350506604
 10
-13.0810749239
 20
-33.2879756724
 10
-13.1174035237
 20
-33.2390594479
 10
-13.1523090727
 20
-33.1883227985
 10
-13.1853940387
 20
-33.1363435534
 10
-13.216525911
 20
-33.0833143224
 10
-13.2458372004
 20
-33.0290424958
 10
-13.2733279068
 20
-32.9735280736
  0
LWPOLYLINE
  5
243
100
AcDbEntity
  8
0
100
AcDbPolyline
 62
7
  6
CONTINUOUS
 90
15
 70
0
 10
29.7187643894
 20
-58.1232114587
 10
29.6748045518
 20
-58.0962205705
 10
29.6313415913
 20
-58.0664585781
 10
29.5883755078
 20
-58.0339254815
 10
29.5457463561
 20
-57.9984761859
 10
29.5036140814
 20
-57.9602557861
 10
29.4624585195
 20
-57.9196995664
 10
29.4222908366
 20
-57.8767808232
 10
29.3830998665
 20
-57.8315262601
 10
29.3453319473
 20
-57.784451272
 10
29.3090033475
 20
-57.7355350476
 10
29.2740977985
 20
-57.6847983981
 10
29.2410128325
 20
-57.6328191531
 10
29.2098809601
 20
-57.5797899221
 10
29.1805696708
 20
-57.5255180955
  0
LWPOLYLINE
  5
244
100
AcDbEntity
  8
0
100
AcDbPolyline
 62
7
  6
CONTINUOUS
 90
25
 70
0
 10
-20.7686597873
 20
-28.9724054951
 10
-20.8152320538
 20
-28.9437051256
 10
-20.8612152837
 20
-28.9119255692
 10
-20.906609477
 20
-28.8770668257
 10
-20.9516034338
 20
-28.8389537547
 10
-20.996008354
 20
-28.7977614967
 10
-21.0392578374
 20
-28.7540154732
 10
-21.0813370831
 20
-28.707682971
 10
-21.1222608919
 20
-28.6587967034
 10
-21.1615072665
 20
-28.6079802318
 10
-21.1990547192
 20
-28.5552088306
 10
-21.2349247377
 20
-28.5005072253
 10
-21.2686597873
 20
-28.4445731541
 10
-21.3002325196
 20
-28.3873908292
 10
-21.3296702829
 20
-28.3289760383
 10
-21.3565975885
 20
-28.2700738824
 10
-21.3809822779
 20
-28.2106781184
 10
-21.4028565094
 20
-28.1507949895
 10
-21.4219412698
 20
-28.0911883258
 10
-21.4382008263
 20
-28.0318616687
 10
-21.4516709116
 20
-27.9728114769
 10
-21.46217971
 20
-27.914790956
 10
-21.4696699497
 20
-27.8580511747
 10
-21.4741989025
 20
-27.8023410643
 10
-21.4757665685
 20
-27.7476606249
  0
LWPOLYLINE
  5
245
100
AcDbEntity
  8
0
100
AcDbPolyline
 62
7
  6
CONTINUOUS
 90
15
 70
0
 10
-26.3901586978
 20
-27.7270338386
 10
-26.5442113001
 20
-27.6195929648
 10
-26.6856326563
 20
-27.4941835359
 10
-26.8144227665
 20
-27.3508055519
 10
-26.9336638685
 20
-27.18412042
 10
-27.0402737245
 20
-26.999466733
 10
-27.1250056206
 20
-26.8128602691
 10
-27.1859054961
 20
-26.6241266134
 10
-27.2249274117
 20
-26.4334401808
 10
-27.2386868352
 20
-26.2573399945
 10
-27.2249274117
 20
-26.0971288455
 10
-27.1859054961
 20
-25.9515039429
 10
-27.1250056206
 20
-25.833095937
 10
-27.0402737245
 20
-25.7443357428
 10
-26.9891545691
 20
-25.7098450748
  0
LWPOLYLINE
  5
246
100
AcDbEntity
  8
0
100
AcDbPolyline
 62
7
  6
CONTINUOUS
 90
15
 70
0
 10
-26.3901586978
 20
-25.7675051743
 10
-26.2361060955
 20
-25.8749460482
 10
-26.0946847392
 20
-26.0003554771
 10
-25.9658946291
 20
-26.1437334611
 10
-25.846653527
 20
-26.310418593
 10
-25.740043671
 20
-26.49507228
 10
-25.6553117749
 20
-26.6816787439
 10
-25.5944118994
 20
-26.8704123996
 10
-25.5553899838
 20
-27.0610988322
 10
-25.5416305603
 20
-27.2371990185
 10
-25.5553899838
 20
-27.3974101674
 10
-25.5944118994
 20
-27.54303507
 10
-25.6553117749
 20
-27.661443076
 10
-25.740043671
 20
-27.7502032702
 10
-25.7911628264
 20
-27.7846939381
  0
LINE
  5
247
100
AcDbEntity
  8
0
100
AcDbLine
 62
7
  6
CONTINUOUS
 10
-30.3146013334
 20
69.3852872199
 11
-30.3146013334
 21
-43.0559851282
  0
LINE
  5
248
100
AcDbEntity
  8
ASSI
100
AcDbLine
 62
253
  6
CONTINUOUS
 10
37.5676496606
 20
54.9167393234
 11
19.2889393669
 21
44.3628410859
  0
LINE
  5
249
100
AcDbEntity
  8
RACCORDO
100
AcDbLine
 62
253
  6
CONTINUOUS
 10
40.2405132934
 20
54.4190309779
 11
40.1490907076
 21
54.3662447226
  0
LWPOLYLINE
  5
24A
100
AcDbEntity
  8
0
100
AcDbPolyline
 62
253
  6
CONTINUOUS
 90
16
 70
0
 10
37.5676496606
 20
54.9167393234
 10
37.6786709892
 20
54.9774848148
 10
37.7893880162
 20
55.0313501421
 10
37.8994972737
 20
55.0781876643
 10
38.00869696
 20
55.1178690031
 10
38.1166877662
 20
55.1502853945
 10
38.2231736972
 20
55.1753479875
 10
38.3278628824
 20
55.1929880873
 10
38.430468376
 20
55.2031573437
 10
38.5307089434
 20
55.2058278833
 10
38.6283098323
 20
55.2009923865
 10
38.7230035254
 20
55.1886641069
 10
38.8145304739
 20
55.1688768356
 10
38.9026398087
 20
55.141684808
 10
38.9870900283
 20
55.1071625557
 10
39.0676496606
 20
55.0654047017
  0
LWPOLYLINE
  5
24B
100
AcDbEntity
  8
ASSI
100
AcDbPolyline
 62
7
  6
CONTINUOUS
 90
10
 70
0
 10
-25.5683075406
 20
-27.6584059139
 10
-25.5426418419
 20
-27.6637871747
 10
-25.4876806199
 20
-27.6709358988
 10
-25.434329383
 20
-27.6734216809
 10
-25.3826064065
 20
-27.6711915907
 10
-25.3324934152
 20
-27.6642985586
 10
-25.2845571106
 20
-27.6528205342
 10
-25.238822201
 20
-27.636705472
 10
-25.1952639781
 20
-27.6160054176
 10
-25.1848063485
 20
-27.6101610841
  0
LINE
  5
24C
100
AcDbEntity
  8
ASSI
100
AcDbLine
 62
7
  6
CONTINUOUS
 10
-43.4838422242
 20
13.966290171
 11
-45.8496320685
 21
18.201108907
  0
LINE
  5
24D
100
AcDbEntity
  8
ASSI
100
AcDbLine
 62
7
  6
CONTINUOUS
 10
-42.0696286618
 20
13.1497409843
 11
-44.4354185061
 21
17.3845597203
  0
LWPOLYLINE
  5
24E
100
AcDbEntity
  8
ASSI
100
AcDbPolyline
 62
7
  6
CONTINUOUS
 90
19
 70
0
 10
-45.8496320685
 20
18.201108907
 10
-46.0401066079
 20
18.5569369585
 10
-46.2201447031
 20
18.9235782709
 10
-46.3897463543
 20
19.3010328443
 10
-46.5490060422
 20
19.6895541976
 10
-46.697829286
 20
20.0888888119
 10
-46.8359326427
 20
20.49827613
 10
-46.9632956828
 20
20.9177353101
 10
-47.0799388357
 20
21.3472471941
 10
-47.1856399476
 20
21.7859937505
 10
-47.2803781655
 20
22.2339925784
 10
-47.3641743423
 20
22.6912260786
 10
-47.4368688831
 20
23.1568234222
 10
-47.4984406308
 20
23.6308005487
 10
-47.5489107425
 20
24.1131415185
 10
-47.5881830949
 20
24.6029276839
 10
-47.6162256468
 20
25.099852829
 10
-47.6330704393
 20
25.6042231698
 10
-47.6387174724
 20
26.1160387062
  0
LWPOLYLINE
  5
24F
100
AcDbEntity
  8
ASSI
100
AcDbPolyline
 62
7
  6
CONTINUOUS
 90
19
 70
0
 10
-44.4354185061
 20
17.3845597203
 10
-44.6258930455
 20
17.7403877718
 10
-44.8059311408
 20
18.1070290843
 10
-44.9755327919
 20
18.4844836576
 10
-45.1347924798
 20
18.8730050109
 10
-45.2836157236
 20
19.2723396252
 10
-45.4217190804
 20
19.6817269433
 10
-45.5490821204
 20
20.1011861235
 10
-45.6657252733
 20
20.5306980075
 10
-45.7714263853
 20
20.9694445638
 10
-45.8661646031
 20
21.4174433917
 10
-45.9499607799
 20
21.8746768919
 10
-46.0226553207
 20
22.3402742355
 10
-46.0842270684
 20
22.814251362
 10
-46.1346971801
 20
23.2965923318
 10
-46.1739695325
 20
23.7863784973
 10
-46.2020120844
 20
24.2833036424
 10
-46.2188568769
 20
24.7876739832
 10
-46.22450391
 20
25.2994895195
  0
LWPOLYLINE
  5
250
100
AcDbEntity
  8
ASSI
100
AcDbPolyline
 62
7
  6
CONTINUOUS
 90
16
 70
0
 10
-43.4838422242
 20
13.966290171
 10
-43.3018963741
 20
13.6234285642
 10
-43.1320416409
 20
13.2682823472
 10
-42.9742780246
 20
12.9008515201
 10
-42.8284833547
 20
12.5207775682
 10
-42.6947798017
 20
12.1284190061
 10
-42.5735338774
 20
11.7248513779
 10
-42.4647797623
 20
11.3100439288
 10
-42.368483276
 20
10.8840274134
 10
-42.2849083889
 20
10.44796964
 10
-42.2140900058
 20
10.0018430578
 10
-42.155993222
 20
9.5456752175
 10
-42.110777294
 20
9.0807165788
 10
-42.0784953072
 20
8.6073839615
 10
-42.0590941763
 20
8.1252605458
 10
-42.052573901
 20
7.6343463316
  0
LWPOLYLINE
  5
251
100
AcDbEntity
  8
ASSI
100
AcDbPolyline
 62
7
  6
CONTINUOUS
 90
16
 70
0
 10
-42.0696286618
 20
13.1497409843
 10
-41.8876828117
 20
12.8068793775
 10
-41.7178280785
 20
12.4517331606
 10
-41.5600644623
 20
12.0843023335
 10
-41.4142697923
 20
11.7042283815
 10
-41.2805662393
 20
11.3118698195
 10
-41.1593203151
 20
10.9083021912
 10
-41.0505662
 20
10.4934947421
 10
-40.9542697136
 20
10.0674782268
 10
-40.8706948265
 20
9.6314204533
 10
-40.7998764434
 20
9.1852938712
 10
-40.7417796596
 20
8.7291260309
 10
-40.6965637316
 20
8.2641673922
 10
-40.6642817449
 20
7.7908347749
 10
-40.6448806139
 20
7.3087113592
 10
-40.6383603387
 20
6.817797145
  0
LWPOLYLINE
  5
252
100
AcDbEntity
  8
0
100
AcDbPolyline
 62
7
  6
CONTINUOUS
 90
25
 70
0
 10
-20.0615530061
 20
-26.9311114383
 10
-20.0599853402
 20
-26.9857918777
 10
-20.0554563873
 20
-27.041501988
 10
-20.0479661476
 20
-27.0982417693
 10
-20.0374573492
 20
-27.1562622902
 10
-20.0239872639
 20
-27.2153124821
 10
-20.0077277074
 20
-27.2746391391
 10
-19.9886429471
 20
-27.3342458029
 10
-19.9667687155
 20
-27.3941289318
 10
-19.9423840262
 20
-27.4535246957
 10
-19.9154567206
 20
-27.5124268516
 10
-19.8860189572
 20
-27.5708416425
 10
-19.854446225
 20
-27.6280239674
 10
-19.8207111753
 20
-27.6839580387
 10
-19.7848411569
 20
-27.7386596439
 10
-19.7472937042
 20
-27.7914310452
 10
-19.7080473296
 20
-27.8422475168
 10
-19.6671235207
 20
-27.8911337844
 10
-19.625044275
 20
-27.9374662865
 10
-19.5817947916
 20
-27.98121231
 10
-19.5373898714
 20
-28.0224045681
 10
-19.4923959146
 20
-28.0605176391
 10
-19.4470017213
 20
-28.0953763826
 10
-19.4010184914
 20
-28.127155939
 10
-19.354446225
 20
-28.1558563084
  0
LWPOLYLINE
  5
253
100
AcDbEntity
  8
0
100
AcDbPolyline
 62
7
  6
CONTINUOUS
 90
22
 70
0
 10
-20.0615530061
 20
-10.8610928716
 10
-20.0601316658
 20
-10.9131672962
 10
-20.0560116765
 20
-10.966209502
 10
-20.0491930383
 20
-11.0202194891
 10
-20.0396283
 20
-11.0754145702
 10
-20.0273649128
 20
-11.1315774325
 10
-20.0125452301
 20
-11.1880561376
 10
-19.9951394631
 20
-11.2448543659
 10
-19.9751774005
 20
-11.3019684369
 10
-19.9528907621
 20
-11.3587353706
 10
-19.9282524592
 20
-11.4151511216
 10
-19.9012895805
 20
-11.4712197352
 10
-19.8723151109
 20
-11.526290367
 10
-19.8413056093
 20
-11.5803513873
 10
-19.8082845168
 20
-11.6334144258
 10
-19.7736351423
 20
-11.6848635267
 10
-19.7373385114
 20
-11.7346798826
 10
-19.6994135984
 20
-11.7828823009
 10
-19.6603006359
 20
-11.828911248
 10
-19.6201463679
 20
-11.8725802126
 10
-19.5788040502
 20
-11.914075706
 10
-19.4432576781
 20
-12.0389098594
  0
LWPOLYLINE
  5
254
100
AcDbEntity
  8
ASSI
100
AcDbPolyline
 62
7
  6
CONTINUOUS
 90
40
 70
0
 10
-24.9052344573
 20
-26.9922342625
 10
-24.9071019331
 20
-26.9228779531
 10
-24.9125198596
 20
-26.8522380014
 10
-24.9214882368
 20
-26.7803144073
 10
-24.9340678669
 20
-26.7068253158
 10
-24.9501979476
 20
-26.6320525819
 10
-24.9696960724
 20
-26.5568417715
 10
-24.9926004727
 20
-26.481187912
 10
-25.018872917
 20
-26.405095976
 10
-25.048216304
 20
-26.3294264476
 10
-25.0806654927
 20
-26.2541841216
 10
-25.116185624
 20
-26.1793642032
 10
-25.1543750193
 20
-26.1058127918
 10
-25.1952639781
 20
-26.0335442865
 10
-25.238822201
 20
-25.9625442882
 10
-25.2845571106
 20
-25.8936156988
 10
-25.3324934152
 20
-25.8267820314
 10
-25.3826064065
 20
-25.762019773
 10
-25.434329383
 20
-25.7000612861
 10
-25.4876806199
 20
-25.6409383971
 10
-25.5426418419
 20
-25.5846192797
 10
-25.5985915212
 20
-25.5317408173
 10
-25.6555408781
 20
-25.4823420657
 10
-25.7134786923
 20
-25.4363839692
 10
-25.7717497753
 20
-25.3943862438
 10
-25.8303579101
 20
-25.3563938449
 10
-25.8892993137
 20
-25.3223618172
 10
-25.9479074485
 20
-25.2926750111
 10
-26.0061785315
 20
-25.2673827504
 10
-26.0641163457
 20
-25.2464357114
 10
-26.1210657025
 20
-25.2300707731
 10
-26.1770153819
 20
-25.2183399483
 10
-26.2319766039
 20
-25.2111912242
 10
-26.2853278408
 20
-25.2087054421
 10
-26.3370508172
 20
-25.2109355323
 10
-26.3871638086
 20
-25.2178285644
 10
-26.4351001131
 20
-25.2293065888
 10
-26.4808350228
 20
-25.2454216509
 10
-26.5243932456
 20
-25.2661217053
 10
-26.5348508753
 20
-25.2719660389
  0
LINE
  5
255
100
AcDbEntity
  8
0
100
AcDbLine
 62
7
  6
CONTINUOUS
 10
-21.4757665685
 20
-27.7476606249
 11
-21.4757665685
 21
-17.2007481682
  0
LINE
  5
256
100
AcDbEntity
  8
0
100
AcDbLine
 62
7
  6
CONTINUOUS
 10
-21.4757665685
 20
-11.6776420582
 11
-21.4757665685
 21
48.1168739752
  0
LINE
  5
257
100
AcDbEntity
  8
0
100
AcDbLine
 62
7
  6
CONTINUOUS
 10
-21.4757665685
 20
53.6399800852
 11
-21.4757665685
 21
63.4373150538
  0
LINE
  5
258
100
AcDbEntity
  8
0
100
AcDbLine
 62
7
  6
CONTINUOUS
 10
-20.0615530061
 20
-26.9311114383
 11
-20.0615530061
 21
-16.5910986896
  0
LINE
  5
259
100
AcDbEntity
  8
0
100
AcDbLine
 62
7
  6
CONTINUOUS
 10
-20.0615530061
 20
-10.8610928716
 11
-20.0615530061
 21
48.7265234538
  0
LINE
  5
25A
100
AcDbEntity
  8
0
100
AcDbLine
 62
7
  6
CONTINUOUS
 10
-20.0615530061
 20
54.4565292718
 11
-20.0615530061
 21
62.5474511977
  0
LWPOLYLINE
  5
25B
100
AcDbEntity
  8
0
100
AcDbPolyline
 62
7
  6
CONTINUOUS
 90
14
 70
0
 10
-21.4757665685
 20
48.1168739752
 10
-21.4743452282
 20
48.1673070716
 10
-21.4702252389
 20
48.2155916171
 10
-21.4634066006
 20
48.2617276117
 10
-21.4538418624
 20
48.3058775728
 10
-21.4415784752
 20
48.3478789829
 10
-21.4267587924
 20
48.3872442898
 10
-21.4093530254
 20
48.4239427747
 10
-21.3893909629
 20
48.4580051563
 10
-21.3671043245
 20
48.4890360385
 10
-21.3424660216
 20
48.517000095
 10
-21.3155031428
 20
48.541932652
 10
-21.2865286733
 20
48.5635442926
 10
-21.2686783042
 20
48.5746010565
  0
LWPOLYLINE
  5
25C
100
AcDbEntity
  8
0
100
AcDbPolyline
 62
7
  6
CONTINUOUS
 90
14
 70
0
 10
-21.4757665685
 20
-17.2007481682
 10
-21.4743452282
 20
-17.1503150718
 10
-21.4702252389
 20
-17.1020305263
 10
-21.4634066006
 20
-17.0558945318
 10
-21.4538418624
 20
-17.0117445707
 10
-21.4415784752
 20
-16.9697431605
 10
-21.4267587924
 20
-16.9303778536
 10
-21.4093530254
 20
-16.8936793687
 10
-21.3893909629
 20
-16.8596169871
 10
-21.3671043245
 20
-16.8285861049
 10
-21.3424660216
 20
-16.8006220485
 10
-21.3155031428
 20
-16.7756894914
 10
-21.2865286733
 20
-16.7540778508
 10
-21.2686783042
 20
-16.743021087
  0
LWPOLYLINE
  5
25D
100
AcDbEntity
  8
0
100
AcDbPolyline
 62
7
  6
CONTINUOUS
 90
11
 70
0
 10
-20.9504872454
 20
-16.7150227075
 10
-20.8574712405
 20
-16.736923127
 10
-20.7666191734
 20
-16.7520372301
 10
-20.6779310439
 20
-16.7603650169
 10
-20.5911557966
 20
-16.7618908768
 10
-20.506544487
 20
-16.7566304203
 10
-20.4248502815
 20
-16.7446304791
 10
-20.346099224
 20
-16.7258308833
 10
-20.2702652706
 20
-16.7002918027
 10
-20.1980234559
 20
-16.6682405783
 10
-20.1550045724
 20
-16.6450354852
  0
LWPOLYLINE
  5
25E
100
AcDbEntity
  8
0
100
AcDbPolyline
 62
7
  6
CONTINUOUS
 90
22
 70
0
 10
-20.8574712405
 20
-12.8554590461
 10
-20.9930176126
 20
-12.7306248926
 10
-21.0343599302
 20
-12.6891293993
 10
-21.0745141983
 20
-12.6454604347
 10
-21.1136271608
 20
-12.5994314876
 10
-21.1515520737
 20
-12.5512290692
 10
-21.1878487047
 20
-12.5014127133
 10
-21.2224980792
 20
-12.4499636124
 10
-21.2555191716
 20
-12.3969005739
 10
-21.2865286733
 20
-12.3428395536
 10
-21.3155031428
 20
-12.2877689219
 10
-21.3424660216
 20
-12.2317003082
 10
-21.3671043245
 20
-12.1752845572
 10
-21.3893909629
 20
-12.1185176236
 10
-21.4093530254
 20
-12.0614035525
 10
-21.4267587924
 20
-12.0046053242
 10
-21.4415784752
 20
-11.9481266192
 10
-21.4538418624
 20
-11.8919637569
 10
-21.4634066006
 20
-11.8367686758
 10
-21.4702252389
 20
-11.7827586887
 10
-21.4743452282
 20
-11.7297164829
 10
-21.4757665685
 20
-11.6776420582
  0
LWPOLYLINE
  5
25F
100
AcDbEntity
  8
0
100
AcDbPolyline
 62
7
  6
CONTINUOUS
 90
15
 70
0
 10
-11.831623638
 20
-32.2124933092
 10
-11.8023123487
 20
-32.2667651358
 10
-11.7711804764
 20
-32.3197943667
 10
-11.7380955103
 20
-32.3717736118
 10
-11.7031899613
 20
-32.4225102612
 10
-11.6668613615
 20
-32.4714264857
 10
-11.6290934423
 20
-32.5185014738
 10
-11.5899024722
 20
-32.5637560369
 10
-11.5497347893
 20
-32.6066747801
 10
-11.5085792275
 20
-32.6472309998
 10
-11.4664469528
 20
-32.6854513996
 10
-11.423817801
 20
-32.7209006952
 10
-11.3808517175
 20
-32.7534337918
 10
-11.337388757
 20
-32.7831957842
 10
-11.2934289194
 20
-32.8101866723
  0
LWPOLYLINE
  5
260
100
AcDbEntity
  8
0
100
AcDbPolyline
 62
7
  6
CONTINUOUS
 90
32
 70
0
 10
-13.2733279068
 20
-32.9735280736
 10
-13.3230623189
 20
-32.8726505384
 10
-13.3758627418
 20
-32.7737347986
 10
-13.4317291755
 20
-32.6767808542
 10
-13.4908567068
 20
-32.5814956006
 10
-13.5530502489
 20
-32.4881721425
 10
-13.6177245413
 20
-32.3976897934
 10
-13.6849030601
 20
-32.3100752787
 10
-13.7545623291
 20
-32.225301873
 10
-13.8260466592
 20
-32.1441687143
 10
-13.8993733602
 20
-32.06671007
 10
-13.9745251224
 20
-31.9928916728
 10
-14.0507943272
 20
-31.9234098578
 10
-14.1281918458
 20
-31.8583053687
 10
-14.206706807
 20
-31.797537462
 10
-14.2855989795
 20
-31.7416802418
 10
-14.3648730938
 20
-31.6907798781
 10
-14.4445244195
 20
-31.6447902009
 10
-14.5237985338
 20
-31.6041468045
 10
-14.6026907063
 20
-31.5689013213
 10
-14.6812056676
 20
-31.5390021189
 10
-14.7586031861
 20
-31.5147298936
 10
-14.8348723909
 20
-31.4961379426
 10
-14.9100241531
 20
-31.4831729687
 10
-14.9833508541
 20
-31.4759557766
 10
-15.0548351842
 20
-31.4745406227
 10
-15.1244944532
 20
-31.4788732506
 10
-15.191672972
 20
-31.4889116958
 10
-15.2563472644
 20
-31.5047097931
 10
-15.3185408065
 20
-31.5262137077
 10
-15.3776683379
 20
-31.5532199701
 10
-15.404744705
 20
-31.5680342545
  0
LWPOLYLINE
  5
261
100
AcDbEntity
  8
0
100
AcDbPolyline
 62
7
  6
CONTINUOUS
 90
32
 70
0
 10
-11.831623638
 20
-32.2124933092
 10
-11.9088487565
 20
-32.0561013517
 10
-11.9616491794
 20
-31.9571856119
 10
-12.0175156131
 20
-31.8602316675
 10
-12.0766431444
 20
-31.764946414
 10
-12.1388366866
 20
-31.6716229558
 10
-12.2035109789
 20
-31.5811406068
 10
-12.2706894977
 20
-31.493526092
 10
-12.3403487667
 20
-31.4087526863
 10
-12.4118330969
 20
-31.3276195276
 10
-12.4851597979
 20
-31.2501608834
 10
-12.56031156
 20
-31.1763424861
 10
-12.6365807649
 20
-31.1068606711
 10
-12.7139782834
 20
-31.0417561821
 10
-12.7924932446
 20
-30.9809882753
 10
-12.8713854172
 20
-30.9251310551
 10
-12.9506595315
 20
-30.8742306914
 10
-13.0303108571
 20
-30.8282410143
 10
-13.1095849714
 20
-30.7875976178
 10
-13.188477144
 20
-30.7523521347
 10
-13.2669921052
 20
-30.7224529323
 10
-13.3443896237
 20
-30.698180707
 10
-13.4206588285
 20
-30.679588756
 10
-13.4958105907
 20
-30.666623782
 10
-13.5691372917
 20
-30.6594065899
 10
-13.6406216218
 20
-30.657991436
 10
-13.7102808909
 20
-30.6623240639
 10
-13.7774594096
 20
-30.6723625091
 10
-13.842133702
 20
-30.6881606065
 10
-13.9043272441
 20
-30.7096645211
 10
-13.9634547755
 20
-30.7366707835
 10
-13.9905311427
 20
-30.7514850678
  0
LWPOLYLINE
  5
262
100
AcDbEntity
  8
0
100
AcDbPolyline
 62
7
  6
CONTINUOUS
 90
22
 70
0
 10
-20.0615530061
 20
54.4565292718
 10
-20.0601316658
 20
54.4044548472
 10
-20.0560116765
 20
54.3514126414
 10
-20.0491930383
 20
54.2974026543
 10
-20.0396283
 20
54.2422075732
 10
-20.0273649128
 20
54.1860447109
 10
-20.0125452301
 20
54.1295660059
 10
-19.9951394631
 20
54.0727677775
 10
-19.9751774005
 20
54.0156537065
 10
-19.9528907621
 20
53.9588867729
 10
-19.9282524592
 20
53.9024710218
 10
-19.9012895805
 20
53.8464024082
 10
-19.8723151109
 20
53.7913317765
 10
-19.8413056093
 20
53.7372707561
 10
-19.8082845168
 20
53.6842077177
 10
-19.7736351423
 20
53.6327586168
 10
-19.7373385114
 20
53.5829422608
 10
-19.6994135984
 20
53.5347398425
 10
-19.6603006359
 20
53.4887108954
 10
-19.6201463679
 20
53.4450419308
 10
-19.5788040502
 20
53.4035464375
 10
-19.4432576781
 20
53.278712284
  0
LWPOLYLINE
  5
263
100
AcDbEntity
  8
ASSI
100
AcDbPolyline
 62
7
  6
CONTINUOUS
 90
46
 70
0
 10
-12.6369318037
 20
-41.8322660862
 10
-12.6347017987
 20
-41.9301329792
 10
-12.6281725553
 20
-42.0296959507
 10
-12.6173440735
 20
-42.1309550008
 10
-12.6021632027
 20
-42.2341964474
 10
-12.5826830935
 20
-42.3391339725
 10
-12.5590631979
 20
-42.4449086229
 10
-12.5312695377
 20
-42.5515272695
 10
-12.4993360911
 20
-42.6589830413
 10
-12.4635242455
 20
-42.7663963722
 10
-12.423802168
 20
-42.8737669139
 10
-12.3802016915
 20
-42.9810950148
 10
-12.3330797024
 20
-43.0875021536
 10
-12.2824072969
 20
-43.1929807713
 10
-12.2282133789
 20
-43.2975384271
 10
-12.170941546
 20
-43.4003192769
 10
-12.1105665355
 20
-43.501308737
 10
-12.0471136101
 20
-43.6005213912
 10
-11.981102156
 20
-43.6971451463
 10
-11.9125111735
 20
-43.7911587532
 10
-11.8413616623
 20
-43.8825834611
 10
-11.7682360082
 20
-43.970670924
 10
-11.6931179913
 20
-44.0553937506
 10
-11.6160238315
 20
-44.1367793323
 10
-11.5375845735
 20
-44.2141614974
 10
-11.4577891772
 20
-44.2875073866
 10
-11.3766486828
 20
-44.3568498591
 10
-11.2948272559
 20
-44.4216213205
 10
-11.2123193076
 20
-44.4817842531
 10
-11.1291304268
 20
-44.5373761745
 10
-11.045941546
 20
-44.587942044
 10
-10.9627526652
 20
-44.6334406088
 10
-10.8795637845
 20
-44.6739131217
 10
-10.7970558362
 20
-44.7090282997
 10
-10.7152344093
 20
-44.7387421711
 10
-10.6340939148
 20
-44.7630987077
 10
-10.5542985185
 20
-44.7818985421
 10
-10.4758592606
 20
-44.795096066
 10
-10.3987651007
 20
-44.8027368876
 10
-10.3236470839
 20
-44.8047584639
 10
-10.2505214297
 20
-44.8011146735
 10
-10.1793719185
 20
-44.7918516377
 10
-10.110780936
 20
-44.7770451781
 10
-10.044769482
 20
-44.7566497955
 10
-9.9813165566
 20
-44.7307109891
 10
-9.9208871857
 20
-44.6994096938
  0
LINE
  5
264
100
AcDbEntity
  8
RACCORDO
100
AcDbLine
 62
7
  6
CONTINUOUS
 10
-19.2978776825
 20
62.0705975142
 11
-19.2978776825
 21
53.1310653671
  0
LINE
  5
265
100
AcDbEntity
  8
RACCORDO
100
AcDbLine
 62
7
  6
CONTINUOUS
 10
-19.2978776825
 20
49.1674600146
 11
-19.2978776825
 21
-12.1865567763
  0
LINE
  5
266
100
AcDbEntity
  8
RACCORDO
100
AcDbLine
 62
7
  6
CONTINUOUS
 10
-19.2978776825
 20
-16.1501621288
 11
-19.2978776825
 21
-28.1885182759
  0
LINE
  5
267
100
AcDbEntity
  8
ASSI
100
AcDbLine
 62
253
  6
CONTINUOUS
 10
-42.052573901
 20
7.6343463316
 11
-40.6383603387
 21
6.817797145
  0
LINE
  5
268
100
AcDbEntity
  8
ASSI
100
AcDbLine
 62
253
  6
CONTINUOUS
 10
36.4362788107
 20
-37.6841335277
 11
35.0220652483
 21
-36.8675843411
  0
LWPOLYLINE
  5
269
100
AcDbEntity
  8
ASSI
100
AcDbPolyline
 62
7
  6
CONTINUOUS
 90
34
 70
0
 10
-11.2227182413
 20
-41.0157168996
 10
-11.2204882363
 20
-41.1135837925
 10
-11.2139589929
 20
-41.2131467641
 10
-11.2031305111
 20
-41.3144058142
 10
-11.1879496403
 20
-41.4176472607
 10
-11.1684695311
 20
-41.5225847858
 10
-11.1448496356
 20
-41.6283594362
 10
-11.1170559753
 20
-41.7349780828
 10
-11.0851225287
 20
-41.8424338546
 10
-11.0493106831
 20
-41.9498471856
 10
-11.0095886056
 20
-42.0572177273
 10
-10.9659881291
 20
-42.1645458281
 10
-10.91886614
 20
-42.2709529669
 10
-10.8681937345
 20
-42.3764315847
 10
-10.8139998165
 20
-42.4809892404
 10
-10.7567279836
 20
-42.5837700902
 10
-10.6963529731
 20
-42.6847595504
 10
-10.6329000477
 20
-42.7839722046
 10
-10.5668885936
 20
-42.8805959597
 10
-10.4982976111
 20
-42.9746095666
 10
-10.4271481
 20
-43.0660342744
 10
-10.3540224458
 20
-43.1541217373
 10
-10.2789044289
 20
-43.238844564
 10
-10.2018102691
 20
-43.3202301457
 10
-10.1233710112
 20
-43.3976123107
 10
-10.0435756148
 20
-43.4709581999
 10
-9.9624351204
 20
-43.5403006724
 10
-9.8806136935
 20
-43.6050721339
 10
-9.7981057452
 20
-43.6652350664
 10
-9.7149168644
 20
-43.7208269879
 10
-9.6317279836
 20
-43.7713928574
 10
-9.5485391029
 20
-43.8168914222
 10
-9.4653502221
 20
-43.857363935
 10
-9.4638549488
 20
-43.8580003196
  0
LWPOLYLINE
  5
26A
100
AcDbEntity
  8
ASSI
100
AcDbPolyline
 62
7
  6
CONTINUOUS
 90
46
 70
0
 10
-9.4549512883
 20
-41.6283260642
 10
-9.4571812934
 20
-41.5304591713
 10
-9.4637105367
 20
-41.4308961998
 10
-9.4745390185
 20
-41.3296371496
 10
-9.4897198894
 20
-41.2263957031
 10
-9.5091999986
 20
-41.121458178
 10
-9.5328198941
 20
-41.0156835276
 10
-9.5606135544
 20
-40.909064881
 10
-9.592547001
 20
-40.8016091092
 10
-9.6283588465
 20
-40.6941957783
 10
-9.6680809241
 20
-40.5868252365
 10
-9.7116814006
 20
-40.4794971357
 10
-9.7588033897
 20
-40.3730899969
 10
-9.8094757951
 20
-40.2676113792
 10
-9.8636697131
 20
-40.1630537234
 10
-9.920941546
 20
-40.0602728736
 10
-9.9813165566
 20
-39.9592834135
 10
-10.044769482
 20
-39.8600707593
 10
-10.110780936
 20
-39.7634470042
 10
-10.1793719185
 20
-39.6694333973
 10
-10.2505214297
 20
-39.5780086894
 10
-10.3236470839
 20
-39.4899212265
 10
-10.3987651007
 20
-39.4051983999
 10
-10.4758592606
 20
-39.3238128181
 10
-10.5542985185
 20
-39.2464306531
 10
-10.6340939148
 20
-39.1730847639
 10
-10.7152344093
 20
-39.1037422914
 10
-10.7970558362
 20
-39.03897083
 10
-10.8795637845
 20
-38.9788078974
 10
-10.9627526652
 20
-38.923215976
 10
-11.045941546
 20
-38.8726501065
 10
-11.1291304268
 20
-38.8271515417
 10
-11.2123193076
 20
-38.7866790288
 10
-11.2948272559
 20
-38.7515638508
 10
-11.3766486828
 20
-38.7218499794
 10
-11.4577891772
 20
-38.6974934428
 10
-11.5375845735
 20
-38.6786936084
 10
-11.6160238315
 20
-38.6654960845
 10
-11.6931179913
 20
-38.6578552629
 10
-11.7682360082
 20
-38.6558336866
 10
-11.8413616623
 20
-38.659477477
 10
-11.9125111735
 20
-38.6687405128
 10
-11.981102156
 20
-38.6835469724
 10
-12.0471136101
 20
-38.703942355
 10
-12.1105665355
 20
-38.7298811614
 10
-12.1709959063
 20
-38.7611824567
  0
LINE
  5
26B
100
AcDbEntity
  8
ASSI
100
AcDbLine
 62
7
  6
CONTINUOUS
 10
-12.6369318037
 20
-41.8322660862
 11
-12.6369318037
 21
-39.7910903943
  0
LINE
  5
26C
100
AcDbEntity
  8
ASSI
100
AcDbLine
 62
7
  6
CONTINUOUS
 10
-11.2227182413
 20
-41.0157168996
 11
-11.2227182413
 21
-38.9745412076
  0
LINE
  5
26D
100
AcDbEntity
  8
ASSI
100
AcDbLine
 62
7
  6
CONTINUOUS
 10
-9.4549512883
 20
-41.6283260642
 11
-9.4549512883
 21
-43.6695017562
  0
LWPOLYLINE
  5
26E
100
AcDbEntity
  8
ASSI
100
AcDbPolyline
 62
7
  6
CONTINUOUS
 90
4
 70
0
 10
-11.2138145808
 20
-38.7860426442
 10
-11.2139589929
 20
-38.7872263036
 10
-11.2204882363
 20
-38.8792494686
 10
-11.2227182413
 20
-38.9745412076
  0
LWPOLYLINE
  5
26F
100
AcDbEntity
  8
0
100
AcDbPolyline
 62
253
  6
CONTINUOUS
 90
16
 70
0
 10
46.760037816
 20
38.9950560119
 10
46.8681519489
 20
39.060836914
 10
46.9701553568
 20
39.1297946722
 10
47.0657684555
 20
39.2017402779
 10
47.1547291763
 20
39.2764765332
 10
47.2367936838
 20
39.3537985913
 10
47.311737045
 20
39.4334945177
 10
47.3793538454
 20
39.5153458715
 10
47.4394587519
 20
39.5991283039
 10
47.4918870213
 20
39.6846121729
 10
47.5364949513
 20
39.7715631732
 10
47.5731602746
 20
39.8597429783
 10
47.6017824942
 20
39.9489098933
 10
47.6222831585
 20
40.0388195179
 10
47.6346060767
 20
40.1292254162
 10
47.6387174724
 20
40.2198797919
  0
LINE
  5
270
100
AcDbEntity
  8
ASSI
100
AcDbLine
 62
253
  6
CONTINUOUS
 10
46.760037816
 20
38.9950560119
 11
30.8501352393
 21
29.808877662
  0
LINE
  5
271
100
AcDbEntity
  8
ASSI
100
AcDbLine
 62
253
  6
CONTINUOUS
 10
-43.4838422242
 20
13.966290171
 11
-42.0696286618
 21
13.1497409843
  0
LINE
  5
272
100
AcDbEntity
  8
ASSI
100
AcDbLine
 62
253
  6
CONTINUOUS
 10
35.0050104875
 20
-31.3521896884
 11
33.5907969251
 21
-30.5356405017
  0
LINE
  5
273
100
AcDbEntity
  8
ASSI
100
AcDbLine
 62
253
  6
CONTINUOUS
 10
-45.8496320685
 20
18.201108907
 11
-44.4354185061
 21
17.3845597203
  0
LINE
  5
274
100
AcDbEntity
  8
ASSI
100
AcDbLine
 62
253
  6
CONTINUOUS
 10
32.6392206432
 20
-27.1173709524
 11
31.2250070809
 21
-26.3008217657
  0
LWPOLYLINE
  5
275
100
AcDbEntity
  8
0
100
AcDbPolyline
 62
7
  6
CONTINUOUS
 90
15
 70
0
 10
34.4744805984
 20
-48.6848986466
 10
34.6100269705
 20
-48.8097328
 10
34.6513692881
 20
-48.8512282934
 10
34.6915235561
 20
-48.894897258
 10
34.7306365187
 20
-48.9409262051
 10
34.7685614316
 20
-48.9891286234
 10
34.8048580626
 20
-49.0389449793
 10
34.839507437
 20
-49.0903940802
 10
34.8725285295
 20
-49.1434571187
 10
34.9035380312
 20
-49.197518139
 10
34.9325125007
 20
-49.2525887708
 10
34.9594753795
 20
-49.3086573844
 10
34.9841136823
 20
-49.3650731354
 10
35.0064003208
 20
-49.4218400691
 10
35.0220652483
 20
-49.4666594749
  0
LINE
  5
276
100
AcDbEntity
  8
0
100
AcDbLine
 62
253
  6
CONTINUOUS
 10
-21.4757665685
 20
-11.6776420582
 11
-20.0615530061
 21
-10.8610928716
  0
LINE
  5
277
100
AcDbEntity
  8
0
100
AcDbLine
 62
253
  6
CONTINUOUS
 10
-20.9504872454
 20
-12.7699469147
 11
-19.536273683
 21
-11.953397728
  0
LINE
  5
278
100
AcDbEntity
  8
ASSI
100
AcDbLine
 62
253
  6
CONTINUOUS
 10
-47.6387174724
 20
26.1160387062
 11
-46.22450391
 21
25.2994895195
  0
LINE
  5
279
100
AcDbEntity
  8
ASSI
100
AcDbLine
 62
253
  6
CONTINUOUS
 10
30.8501352393
 20
-19.2024411532
 11
29.4359216769
 21
-18.3858919665
  0
LWPOLYLINE
  5
27A
100
AcDbEntity
  8
0
100
AcDbPolyline
 62
7
  6
CONTINUOUS
 90
15
 70
0
 10
30.5947832332
 20
-56.7089689089
 10
30.6240945225
 20
-56.7632407354
 10
30.6552263948
 20
-56.8162699664
 10
30.6883113609
 20
-56.8682492115
 10
30.7232169099
 20
-56.9189858609
 10
30.7595455097
 20
-56.9679020854
 10
30.7973134289
 20
-57.0149770734
 10
30.836504399
 20
-57.0602316365
 10
30.8766720819
 20
-57.1031503797
 10
30.9178276437
 20
-57.1437065995
 10
30.9599599184
 20
-57.1819269993
 10
31.0025890702
 20
-57.2173762949
 10
31.0455551537
 20
-57.2499093915
 10
31.0890181142
 20
-57.2796713838
 10
31.1329779518
 20
-57.306662272
  0
LWPOLYLINE
  5
27B
100
AcDbEntity
  8
0
100
AcDbPolyline
 62
7
  6
CONTINUOUS
 90
32
 70
0
 10
29.1805696708
 20
-57.5255180955
 10
29.1033445523
 20
-57.369126138
 10
29.0505441294
 20
-57.2702103982
 10
28.9946776957
 20
-57.1732564538
 10
28.9355501644
 20
-57.0779712003
 10
28.8733566223
 20
-56.9846477422
 10
28.8086823299
 20
-56.8941653931
 10
28.7415038111
 20
-56.8065508784
 10
28.6718445421
 20
-56.7217774727
 10
28.600360212
 20
-56.6406443139
 10
28.5270335109
 20
-56.5631856697
 10
28.4518817488
 20
-56.4893672724
 10
28.375612544
 20
-56.4198854574
 10
28.2982150254
 20
-56.3547809684
 10
28.2197000642
 20
-56.2940130617
 10
28.1408078917
 20
-56.2381558414
 10
28.0615337774
 20
-56.1872554777
 10
27.9818824517
 20
-56.1412658006
 10
27.9026083374
 20
-56.1006224041
 10
27.8237161649
 20
-56.065376921
 10
27.7452012036
 20
-56.0354777186
 10
27.6678036851
 20
-56.0112054933
 10
27.5915344803
 20
-55.9926135423
 10
27.5163827181
 20
-55.9796485684
 10
27.4430560171
 20
-55.9724313763
 10
27.371571687
 20
-55.9710162224
 10
27.301912418
 20
-55.9753488503
 10
27.2347338992
 20
-55.9853872954
 10
27.1700596068
 20
-56.0011853928
 10
27.1078660647
 20
-56.0226893074
 10
27.0487385333
 20
-56.0496955698
 10
27.0216621662
 20
-56.0645098542
  0
LWPOLYLINE
  5
27C
100
AcDbEntity
  8
ASSI
100
AcDbPolyline
 62
7
  6
CONTINUOUS
 90
49
 70
0
 10
4.8639610307
 20
-52.1411798403
 10
4.8664281542
 20
-52.2549827901
 10
4.8736678028
 20
-52.3707107378
 10
4.8856799766
 20
-52.4883636834
 10
4.9025181814
 20
-52.6082432018
 10
4.9241289114
 20
-52.7300477181
 10
4.950351649
 20
-52.8528725074
 10
4.9812207357
 20
-52.9767251666
 10
5.01670183
 20
-53.1015980988
 10
5.0565313896
 20
-53.2265637876
 10
5.1007417937
 20
-53.3516229239
 10
5.1493006633
 20
-53.4767748169
 10
5.2018473184
 20
-53.6010898784
 10
5.2584114527
 20
-53.7245618772
 10
5.3189633725
 20
-53.8471970446
 10
5.3830533177
 20
-53.9680844857
 10
5.4507076328
 20
-54.0872111867
 10
5.5218999732
 20
-54.2045901614
 10
5.596101545
 20
-54.3193495564
 10
5.6733347553
 20
-54.4314698659
 10
5.7535771969
 20
-54.5409705956
 10
5.8362328548
 20
-54.6470384093
 10
5.921319698
 20
-54.7496477449
 10
6.0088197574
 20
-54.8488241643
 10
6.0980831106
 20
-54.9438310169
 10
6.1891228872
 20
-55.0346372555
 10
6.2819259576
 20
-55.1212739274
 10
6.3758030102
 20
-55.2030975228
 10
6.4707620421
 20
-55.2800722032
 10
6.5667950562
 20
-55.3522338073
 10
6.6631887501
 20
-55.4190463417
 10
6.7599458094
 20
-55.4804699767
 10
6.8570635485
 20
-55.5365445421
 10
6.9538206078
 20
-55.5868535339
 10
7.0502143016
 20
-55.6313540209
 10
7.1462473158
 20
-55.6700889344
 10
7.2412063477
 20
-55.7027705638
 10
7.3350834003
 20
-55.7293538356
 10
7.4278864707
 20
-55.7498838233
 10
7.5189262473
 20
-55.7642080367
 10
7.6081896005
 20
-55.7722802669
 10
7.6956896599
 20
-55.7741467228
 10
7.7807765031
 20
-55.7697935409
 10
7.863432161
 20
-55.7591744092
 10
7.9436746026
 20
-55.7423356397
 10
8.0209078129
 20
-55.7194023055
 10
8.0951093847
 20
-55.6903290257
 10
8.1663017251
 20
-55.6551611812
 10
8.1835620614
 20
-55.6454507791
  0
LWPOLYLINE
  5
27D
100
AcDbEntity
  8
ASSI
100
AcDbPolyline
 62
7
  6
CONTINUOUS
 90
38
 70
0
 10
6.2781745931
 20
-51.3246306537
 10
6.2806417165
 20
-51.4384336034
 10
6.2878813652
 20
-51.5541615511
 10
6.299893539
 20
-51.6718144967
 10
6.3167317438
 20
-51.7916940152
 10
6.3383424738
 20
-51.9134985315
 10
6.3645652114
 20
-52.0363233207
 10
6.3954342981
 20
-52.16017598
 10
6.4309153923
 20
-52.2850489121
 10
6.470744952
 20
-52.410014601
 10
6.5149553561
 20
-52.5350737373
 10
6.5635142256
 20
-52.6602256302
 10
6.6160608808
 20
-52.7845406917
 10
6.672625015
 20
-52.9080126906
 10
6.7331769349
 20
-53.0306478579
 10
6.7972668801
 20
-53.151535299
 10
6.8649211952
 20
-53.270662
 10
6.9361135356
 20
-53.3880409747
 10
7.0103151074
 20
-53.5028003697
 10
7.0875483176
 20
-53.6149206792
 10
7.1677907593
 20
-53.724421409
 10
7.2504464172
 20
-53.8304892226
 10
7.3355332604
 20
-53.9330985582
 10
7.4230333198
 20
-54.0322749776
 10
7.5122966729
 20
-54.1272818302
 10
7.6033364496
 20
-54.2180880689
 10
7.6961395199
 20
-54.3047247407
 10
7.7900165726
 20
-54.3865483362
 10
7.8849756045
 20
-54.4635230166
 10
7.9810086186
 20
-54.5356846206
 10
8.0774023125
 20
-54.6024971551
 10
8.1741593718
 20
-54.6639207901
 10
8.2712771108
 20
-54.7199953554
 10
8.3680341701
 20
-54.7703043472
 10
8.464427864
 20
-54.8148048343
 10
8.5604608782
 20
-54.8535397478
 10
8.65541991
 20
-54.8862213772
 10
8.6948214946
 20
-54.8973787687
  0
LWPOLYLINE
  5
27E
100
AcDbEntity
  8
ASSI
100
AcDbPolyline
 62
7
  6
CONTINUOUS
 90
49
 70
0
 10
8.7530483272
 20
-52.3455144116
 10
8.7505812037
 20
-52.2317114618
 10
8.7433415551
 20
-52.1159835142
 10
8.7313293813
 20
-51.9983305686
 10
8.7144911765
 20
-51.8784510501
 10
8.6928804465
 20
-51.7566465338
 10
8.6666577089
 20
-51.6338217445
 10
8.6357886222
 20
-51.5099690853
 10
8.6003075279
 20
-51.3850961532
 10
8.5604779683
 20
-51.2601304643
 10
8.5162675641
 20
-51.135071328
 10
8.4677086946
 20
-51.009919435
 10
8.4151620395
 20
-50.8856043736
 10
8.3585979052
 20
-50.7621323747
 10
8.2980459854
 20
-50.6394972074
 10
8.2339560402
 20
-50.5186097663
 10
8.1663017251
 20
-50.3994830653
 10
8.0951093847
 20
-50.2821040906
 10
8.0209078129
 20
-50.1673446956
 10
7.9436746026
 20
-50.0552243861
 10
7.863432161
 20
-49.9457236563
 10
7.7807765031
 20
-49.8396558427
 10
7.6956896599
 20
-49.7370465071
 10
7.6081896005
 20
-49.6378700876
 10
7.5189262473
 20
-49.542863235
 10
7.4278864707
 20
-49.4520569964
 10
7.3350834003
 20
-49.3654203246
 10
7.2412063477
 20
-49.2835967291
 10
7.1462473158
 20
-49.2066220487
 10
7.0502143016
 20
-49.1344604446
 10
6.9538206078
 20
-49.0676479102
 10
6.8570635485
 20
-49.0062242752
 10
6.7599458094
 20
-48.9501497099
 10
6.6631887501
 20
-48.8998407181
 10
6.5667950562
 20
-48.855340231
 10
6.4707620421
 20
-48.8166053175
 10
6.3758030102
 20
-48.7839236881
 10
6.2819259576
 20
-48.7573404163
 10
6.1891228872
 20
-48.7368104286
 10
6.0980831106
 20
-48.7224862152
 10
6.0088197574
 20
-48.714413985
 10
5.921319698
 20
-48.7125475292
 10
5.8362328548
 20
-48.716900711
 10
5.7535771969
 20
-48.7275198428
 10
5.6733347553
 20
-48.7443586122
 10
5.596101545
 20
-48.7672919464
 10
5.5218999732
 20
-48.7963652262
 10
5.4507076328
 20
-48.8315330708
 10
5.4334472965
 20
-48.8412434728
  0
LINE
  5
27F
100
AcDbEntity
  8
ASSI
100
AcDbLine
 62
7
  6
CONTINUOUS
 10
4.8639610307
 20
-52.1411798403
 11
4.8639610307
 21
-50.1000041483
  0
LINE
  5
280
100
AcDbEntity
  8
ASSI
100
AcDbLine
 62
7
  6
CONTINUOUS
 10
6.2781745931
 20
-51.3246306537
 11
6.2781745931
 21
-49.2834549617
  0
LWPOLYLINE
  5
281
100
AcDbEntity
  8
0
100
AcDbPolyline
 62
7
  6
CONTINUOUS
 90
13
 70
0
 10
-26.7643997812
 20
-26.0990773041
 10
-26.7820518586
 20
-26.1109565217
 10
-26.8489952024
 20
-26.1786945015
 10
-26.8945325817
 20
-26.266822954
 10
-26.9159385463
 20
-26.3779380348
 10
-26.9159385463
 20
-26.5094435883
 10
-26.8945325817
 20
-26.6452777404
 10
-26.8489952024
 20
-26.785991617
 10
-26.7820518586
 20
-26.9310340923
 10
-26.7018789011
 20
-27.0626899148
 10
-26.6112017803
 20
-27.1750540007
 10
-26.5072950458
 20
-27.2740314338
 10
-26.3901586978
 20
-27.3596222141
  0
LWPOLYLINE
  5
282
100
AcDbEntity
  8
ASSI
100
AcDbPolyline
 62
7
  6
CONTINUOUS
 90
9
 70
0
 10
-26.5348508753
 20
-25.2719660389
 10
-26.5652822045
 20
-25.2911726659
 10
-26.6034715998
 20
-25.3206239209
 10
-26.6389917311
 20
-25.354426082
 10
-26.6714409198
 20
-25.3921968982
 10
-26.7007843067
 20
-25.4339814189
 10
-26.7270567511
 20
-25.4797345947
 10
-26.7499611514
 20
-25.5289390269
 10
-26.7689774565
 20
-25.5803317448
  0
LWPOLYLINE
  5
283
100
AcDbEntity
  8
0
100
AcDbPolyline
 62
7
  6
CONTINUOUS
 90
39
 70
0
 10
-20.1550045724
 20
-16.6450354852
 10
-20.1294058503
 20
-16.62961907
 10
-20.0643803834
 20
-16.5844854178
 10
-20.0035258776
 20
-16.5332413828
 10
-19.9468795711
 20
-16.4758324119
 10
-19.8944042257
 20
-16.4123130582
 10
-19.8465669489
 20
-16.3432487419
 10
-19.8034091493
 20
-16.2685899581
 10
-19.7648894183
 20
-16.1883862118
 10
-19.7313506379
 20
-16.1033514384
 10
-19.7028372779
 20
-16.0134425067
 10
-19.6793048684
 20
-15.9187025479
 10
-19.6609628824
 20
-15.8199748906
 10
-19.6478576596
 20
-15.7172239328
 10
-19.6399428602
 20
-15.6104852765
 10
-19.6372889374
 20
-15.5007090559
 10
-19.6399428602
 20
-15.3878681518
 10
-19.6478576596
 20
-15.2719896835
 10
-19.6609628824
 20
-15.1541051429
 10
-19.6793048684
 20
-15.0341966198
 10
-19.7028372779
 20
-14.9122820245
 10
-19.7313506379
 20
-14.7894465794
 10
-19.7648894183
 20
-14.665682063
 10
-19.8034091493
 20
-14.5409966969
 10
-19.8465669489
 20
-14.4165003679
 10
-19.8944042257
 20
-14.2921947635
 10
-19.9468795711
 20
-14.1680781962
 10
-20.0035258776
 20
-14.0452554905
 10
-20.0643803834
 20
-13.9237381975
 10
-20.1294058503
 20
-13.803514766
 10
-20.1980234559
 20
-13.6856553668
 10
-20.2702652706
 20
-13.5701811055
 10
-20.346099224
 20
-13.4570708764
 10
-20.4248502815
 20
-13.3473315334
 10
-20.506544487
 20
-13.2409931714
 10
-20.5911557966
 20
-13.1380256955
 10
-20.6779310439
 20
-13.0393456749
 10
-20.7666191734
 20
-12.9452586328
 10
-20.8574712405
 20
-12.8554590461
  0
LWPOLYLINE
  5
284
100
AcDbEntity
  8
0
100
AcDbPolyline
 62
7
  6
CONTINUOUS
 90
39
 70
0
 10
-18.7407910101
 20
-15.8284862986
 10
-18.715192288
 20
-15.8130698833
 10
-18.6501668211
 20
-15.7679362312
 10
-18.5893123152
 20
-15.7166921962
 10
-18.5326660087
 20
-15.6592832253
 10
-18.4801906633
 20
-15.5957638715
 10
-18.4323533865
 20
-15.5266995553
 10
-18.3891955869
 20
-15.4520407715
 10
-18.3506758559
 20
-15.3718370252
 10
-18.3171370756
 20
-15.2868022517
 10
-18.2886237155
 20
-15.1968933201
 10
-18.2650913061
 20
-15.1021533613
 10
-18.24674932
 20
-15.0034257039
 10
-18.2336440972
 20
-14.9006747462
 10
-18.2257292978
 20
-14.7939360898
 10
-18.2230753751
 20
-14.6841598692
 10
-18.2257292978
 20
-14.5713189651
 10
-18.2336440972
 20
-14.4554404968
 10
-18.24674932
 20
-14.3375559562
 10
-18.2650913061
 20
-14.2176474332
 10
-18.2886237155
 20
-14.0957328378
 10
-18.3171370756
 20
-13.9728973927
 10
-18.3506758559
 20
-13.8491328764
 10
-18.3891955869
 20
-13.7244475103
 10
-18.4323533865
 20
-13.5999511813
 10
-18.4801906633
 20
-13.4756455769
 10
-18.5326660087
 20
-13.3515290096
 10
-18.5893123152
 20
-13.2287063038
 10
-18.6501668211
 20
-13.1071890108
 10
-18.715192288
 20
-12.9869655794
 10
-18.7838098935
 20
-12.8691061802
 10
-18.8560517083
 20
-12.7536319189
 10
-18.9318856617
 20
-12.6405216898
 10
-19.0106367191
 20
-12.5307823468
 10
-19.0923309246
 20
-12.4244439848
 10
-19.1769422342
 20
-12.3214765088
 10
-19.2637174815
 20
-12.2227964883
 10
-19.352405611
 20
-12.1287094462
 10
-19.4432576781
 20
-12.0389098594
  0
LINE
  5
285
100
AcDbEntity
  8
0
100
AcDbLine
 62
253
  6
CONTINUOUS
 10
-21.4757665685
 20
-17.2007481682
 11
-20.7081373149
 21
-16.7575286578
  0
LINE
  5
286
100
AcDbEntity
  8
ASSI
100
AcDbLine
 62
7
  6
CONTINUOUS
 10
-18.7407819277
 20
-15.8285020221
 11
-20.1549954901
 21
-16.6450512087
  0
LWPOLYLINE
  5
287
100
AcDbEntity
  8
0
100
AcDbPolyline
 62
7
  6
CONTINUOUS
 90
10
 70
0
 10
-21.2686783042
 20
-16.743021087
 10
-21.2555191716
 20
-16.7358258257
 10
-21.2224980792
 20
-16.7208947171
 10
-21.1878487047
 20
-16.7094578453
 10
-21.1515520737
 20
-16.701555929
 10
-21.1136271608
 20
-16.6971482495
 10
-21.0745141983
 20
-16.6962859712
 10
-21.0343599302
 20
-16.6989861488
 10
-20.9930176126
 20
-16.7052317276
 10
-20.9504872454
 20
-16.7150227075
  0
LWPOLYLINE
  5
288
100
AcDbEntity
  8
0
100
AcDbPolyline
 62
7
  6
CONTINUOUS
 90
32
 70
0
 10
30.5947832332
 20
-56.7089689089
 10
30.5175581147
 20
-56.5525769514
 10
30.4647576918
 20
-56.4536612116
 10
30.4088912581
 20
-56.3567072672
 10
30.3497637268
 20
-56.2614220136
 10
30.2875701846
 20
-56.1680985555
 10
30.2228958923
 20
-56.0776162064
 10
30.1557173735
 20
-55.9900016917
 10
30.0860581045
 20
-55.905228286
 10
30.0145737743
 20
-55.8240951273
 10
29.9412470733
 20
-55.7466364831
 10
29.8660953112
 20
-55.6728180858
 10
29.7898261063
 20
-55.6033362708
 10
29.7124285878
 20
-55.5382317818
 10
29.6339136266
 20
-55.477463875
 10
29.555021454
 20
-55.4216066548
 10
29.4757473397
 20
-55.3707062911
 10
29.3960960141
 20
-55.3247166139
 10
29.3168218998
 20
-55.2840732175
 10
29.2379297272
 20
-55.2488277344
 10
29.159414766
 20
-55.2189285319
 10
29.0820172475
 20
-55.1946563066
 10
29.0057480426
 20
-55.1760643556
 10
28.9305962805
 20
-55.1630993817
 10
28.8572695795
 20
-55.1558821896
 10
28.7857852493
 20
-55.1544670357
 10
28.7161259803
 20
-55.1587996636
 10
28.6489474616
 20
-55.1688381088
 10
28.5842731692
 20
-55.1846362061
 10
28.5220796271
 20
-55.2061401207
 10
28.4629520957
 20
-55.2331463831
 10
28.4358757285
 20
-55.2479606675
  0
LINE
  5
289
100
AcDbEntity
  8
ASSI
100
AcDbLine
 62
7
  6
CONTINUOUS
 10
8.7530483272
 20
-52.3455144116
 11
8.7530483272
 21
-54.3866901036
  0
LWPOLYLINE
  5
28A
100
AcDbEntity
  8
0
100
AcDbPolyline
 62
7
  6
CONTINUOUS
 90
4
 70
0
 10
-15.5360696066
 20
-31.667049375
 10
-15.5635603129
 20
-31.6908182186
 10
-15.5928716023
 20
-31.7112421029
 10
-15.6017347525
 20
-31.7165522699
  0
LWPOLYLINE
  5
28B
100
AcDbEntity
  8
0
100
AcDbPolyline
 62
7
  6
CONTINUOUS
 90
13
 70
0
 10
-26.0159176143
 20
-27.3954617089
 10
-25.998265537
 20
-27.3835824913
 10
-25.9313221931
 20
-27.3158445114
 10
-25.8857848138
 20
-27.227716059
 10
-25.8643788493
 20
-27.1166009782
 10
-25.8643788493
 20
-26.9850954247
 10
-25.8857848138
 20
-26.8492612726
 10
-25.9313221931
 20
-26.708547396
 10
-25.998265537
 20
-26.5635049206
 10
-26.0784384944
 20
-26.4318490981
 10
-26.1691156152
 20
-26.3194850122
 10
-26.2730223497
 20
-26.2205075792
 10
-26.3901586978
 20
-26.1349167989
  0
LWPOLYLINE
  5
28C
100
AcDbEntity
  8
ASSI
100
AcDbPolyline
 62
7
  6
CONTINUOUS
 90
14
 70
0
 10
-25.1848063485
 20
-27.6101610841
 10
-25.1543750193
 20
-27.5909544571
 10
-25.116185624
 20
-27.5615032021
 10
-25.0806654927
 20
-27.527701041
 10
-25.048216304
 20
-27.4899302247
 10
-25.018872917
 20
-27.4481457041
 10
-24.9926004727
 20
-27.4023925283
 10
-24.9696960724
 20
-27.3531880961
 10
-24.9501979476
 20
-27.3004932315
 10
-24.9340678669
 20
-27.2443471106
 10
-24.9214882368
 20
-27.1853846605
 10
-24.9125198596
 20
-27.1238175236
 10
-24.9071019331
 20
-27.0594340576
 10
-24.9052344573
 20
-26.9922342625
  0
LINE
  5
28D
100
AcDbEntity
  8
0
100
AcDbLine
 62
7
  6
CONTINUOUS
 10
-26.9901876899
 20
-25.7080557611
 11
-26.1513496831
 21
-25.2237212091
  0
LINE
  5
28E
100
AcDbEntity
  8
0
100
AcDbLine
 62
7
  6
CONTINUOUS
 10
-25.7901297056
 20
-27.7864832519
 11
-24.9506797672
 21
-27.3017953782
  0
LINE
  5
28F
100
AcDbEntity
  8
0
100
AcDbLine
 62
253
  6
CONTINUOUS
 10
-20.0615530061
 20
-26.9311114383
 11
-21.4757665685
 21
-27.7476606249
  0
LWPOLYLINE
  5
290
100
AcDbEntity
  8
0
100
AcDbPolyline
 62
7
  6
CONTINUOUS
 90
6
 70
0
 10
-26.9891545691
 20
-25.7098450748
 10
-26.9336638685
 20
-25.6827924452
 10
-26.8144227665
 20
-25.6538039491
 10
-26.6856326563
 20
-25.6591495561
 10
-26.5442113001
 20
-25.6970499645
 10
-26.3901586978
 20
-25.7675051743
  0
LWPOLYLINE
  5
291
100
AcDbEntity
  8
0
100
AcDbPolyline
 62
7
  6
CONTINUOUS
 90
6
 70
0
 10
-25.7911628264
 20
-27.7846939381
 10
-25.846653527
 20
-27.8117465677
 10
-25.9658946291
 20
-27.8407350638
 10
-26.0946847392
 20
-27.8353894569
 10
-26.2361060955
 20
-27.7974890485
 10
-26.3901586978
 20
-27.7270338386
  0
LWPOLYLINE
  5
292
100
AcDbEntity
  8
0
100
AcDbPolyline
 62
7
  6
CONTINUOUS
 90
5
 70
0
 10
-26.7442573366
 20
66.9009835586
 10
-26.7018789011
 20
66.8313919163
 10
-26.6112017803
 20
66.7190278304
 10
-26.5072950458
 20
66.6200503974
 10
-26.3901586978
 20
66.5344596171
  0
LINE
  5
293
100
AcDbEntity
  8
ASSI
100
AcDbLine
 62
7
  6
CONTINUOUS
 10
33.5907969251
 20
-30.5356405017
 11
31.2250070809
 21
-26.3008217657
  0
LWPOLYLINE
  5
294
100
AcDbEntity
  8
0
100
AcDbPolyline
 62
7
  6
CONTINUOUS
 90
25
 70
0
 10
17.4151063967
 20
43.487201004
 10
17.4162821462
 20
43.4461906745
 10
17.4196788609
 20
43.4044080917
 10
17.4252965406
 20
43.3618532557
 10
17.4331781395
 20
43.3183378651
 10
17.4432807034
 20
43.2740502212
 10
17.4554753708
 20
43.2295552284
 10
17.4697889411
 20
43.1848502306
 10
17.4861946147
 20
43.1399378839
 10
17.5044831317
 20
43.0953910609
 10
17.5246786109
 20
43.051214444
 10
17.5467569335
 20
43.0074033508
 10
17.5704364826
 20
42.9645166072
 10
17.5957377698
 20
42.9225660537
 10
17.6226402837
 20
42.8815398498
 10
17.6508008732
 20
42.8419612989
 10
17.6802356542
 20
42.8038489451
 10
17.7109285108
 20
42.7671842445
 10
17.7424879451
 20
42.7324348678
 10
17.7749250576
 20
42.6996253502
 10
17.8082287478
 20
42.6687311567
 10
17.8419742154
 20
42.6401463534
 10
17.8760198604
 20
42.6140022958
 10
17.9105072828
 20
42.5901676285
 10
17.9454364826
 20
42.5686423514
  0
LINE
  5
295
100
AcDbEntity
  8
ASSI
100
AcDbLine
 62
7
  6
CONTINUOUS
 10
19.2889393669
 20
44.3628410859
 11
19.2889393669
 21
42.7299005323
  0
LWPOLYLINE
  5
296
100
AcDbEntity
  8
ASSI
100
AcDbPolyline
 62
7
  6
CONTINUOUS
 90
6
 70
0
 10
6.3364014257
 20
-48.7727662966
 10
6.3167317438
 20
-48.8609164314
 10
6.299893539
 20
-48.961351613
 10
6.2878813652
 20
-49.0651332013
 10
6.2806417165
 20
-49.1725009842
 10
6.2781745931
 20
-49.2834549617
  0
LWPOLYLINE
  5
297
100
AcDbEntity
  8
0
100
AcDbPolyline
 62
7
  6
CONTINUOUS
 90
4
 70
0
 10
-15.404744705
 20
-31.5680342545
 10
-15.4335347715
 20
-31.5856607573
 10
-15.4863351944
 20
-31.6236038922
 10
-15.5360696066
 20
-31.667049375
  0
LINE
  5
298
100
AcDbEntity
  8
0
100
AcDbLine
 62
253
  6
CONTINUOUS
 10
-19.354446225
 20
-28.1558563084
 11
-20.7686597873
 21
-28.9724054951
  0
LINE
  5
299
100
AcDbEntity
  8
0
100
AcDbLine
 62
253
  6
CONTINUOUS
 10
-16.1017550315
 20
-31.667017811
 11
-14.6875414691
 21
-30.8504686244
  0
LINE
  5
29A
100
AcDbEntity
  8
ASSI
100
AcDbLine
 62
7
  6
CONTINUOUS
 10
-13.9905335146
 20
-30.7514809608
 11
-15.4047470769
 21
-31.5680301475
  0
LINE
  5
29B
100
AcDbEntity
  8
0
100
AcDbLine
 62
7
  6
CONTINUOUS
 10
-37.1028264327
 20
-46.1588720374
 11
-30.3146013334
 21
-42.2394359415
  0
LWPOLYLINE
  5
29C
100
AcDbEntity
  8
0
100
AcDbPolyline
 62
7
  6
CONTINUOUS
 90
14
 70
0
 10
-15.6017347525
 20
-31.7165522699
 10
-15.6240034746
 20
-31.7283210281
 10
-15.6570884406
 20
-31.7420945837
 10
-15.6919939896
 20
-31.7525231801
 10
-15.7283225894
 20
-31.7594880481
 10
-15.7660905086
 20
-31.7629495897
 10
-15.8052814787
 20
-31.762947403
 10
-15.8454491617
 20
-31.7594815127
 10
-15.8866047235
 20
-31.7525123213
 10
-15.9287369982
 20
-31.7420794263
 10
-15.9713661499
 20
-31.728301646
 10
-16.0143322334
 20
-31.7112185864
 10
-16.0577951939
 20
-31.6907906414
 10
-16.1017550315
 20
-31.667017811
  0
LINE
  5
29D
100
AcDbEntity
  8
ASSI
100
AcDbLine
 62
7
  6
CONTINUOUS
 10
35.0050104875
 20
-31.3521896884
 11
32.6392206432
 21
-27.1173709524
  0
LWPOLYLINE
  5
29E
100
AcDbEntity
  8
ASSI
100
AcDbPolyline
 62
7
  6
CONTINUOUS
 90
19
 70
0
 10
31.2250070809
 20
-26.3008217657
 10
31.0345325415
 20
-25.9449937142
 10
30.8544944462
 20
-25.5783524018
 10
30.6848927951
 20
-25.2008978284
 10
30.5256331071
 20
-24.8123764751
 10
30.3768098633
 20
-24.4130418609
 10
30.2387065066
 20
-24.0036545427
 10
30.1113434666
 20
-23.5841953626
 10
29.9947003136
 20
-23.1546834786
 10
29.8889992017
 20
-22.7159369222
 10
29.7942609839
 20
-22.2679380944
 10
29.7104648071
 20
-21.8107045941
 10
29.6377702662
 20
-21.3451072505
 10
29.5761985185
 20
-20.8711301241
 10
29.5257284068
 20
-20.3887891542
 10
29.4864560544
 20
-19.8990029888
 10
29.4584135026
 20
-19.4020778437
 10
29.4415687101
 20
-18.8977075029
 10
29.4359216769
 20
-18.3858919665
  0
LWPOLYLINE
  5
29F
100
AcDbEntity
  8
ASSI
100
AcDbPolyline
 62
7
  6
CONTINUOUS
 90
19
 70
0
 10
32.6392206432
 20
-27.1173709524
 10
32.4487461038
 20
-26.7615429009
 10
32.2687080086
 20
-26.3949015885
 10
32.0991063575
 20
-26.0174470151
 10
31.9398466695
 20
-25.6289256618
 10
31.7910234257
 20
-25.2295910475
 10
31.652920069
 20
-24.8202037294
 10
31.5255570289
 20
-24.4007445493
 10
31.408913876
 20
-23.9712326653
 10
31.3032127641
 20
-23.5324861089
 10
31.2084745462
 20
-23.084487281
 10
31.1246783694
 20
-22.6272537808
 10
31.0519838286
 20
-22.1616564372
 10
30.9904120809
 20
-21.6876793107
 10
30.9399419692
 20
-21.2053383409
 10
30.9006696168
 20
-20.7155521755
 10
30.8726270649
 20
-20.2186270303
 10
30.8557822724
 20
-19.7142566896
 10
30.8501352393
 20
-19.2024411532
  0
LWPOLYLINE
  5
2A0
100
AcDbEntity
  8
ASSI
100
AcDbPolyline
 62
7
  6
CONTINUOUS
 90
16
 70
0
 10
33.5907969251
 20
-30.5356405017
 10
33.7727427752
 20
-30.8785021086
 10
33.9425975084
 20
-31.2336483255
 10
34.1003611247
 20
-31.6010791526
 10
34.2461557946
 20
-31.9811531045
 10
34.3798593476
 20
-32.3735116666
 10
34.5011052719
 20
-32.7770792948
 10
34.609859387
 20
-33.191886744
 10
34.7061558734
 20
-33.6179032593
 10
34.7897307604
 20
-34.0539610328
 10
34.8605491435
 20
-34.5000876149
 10
34.9186459273
 20
-34.9562554552
 10
34.9638618553
 20
-35.4212140939
 10
34.9961438421
 20
-35.8945467112
 10
35.0155449731
 20
-36.3766701269
 10
35.0220652483
 20
-36.8675843411
  0
LWPOLYLINE
  5
2A1
100
AcDbEntity
  8
ASSI
100
AcDbPolyline
 62
7
  6
CONTINUOUS
 90
16
 70
0
 10
35.0050104875
 20
-31.3521896884
 10
35.1869563376
 20
-31.6950512952
 10
35.3568110708
 20
-32.0501975122
 10
35.5145746871
 20
-32.4176283393
 10
35.660369357
 20
-32.7977022912
 10
35.79407291
 20
-33.1900608532
 10
35.9153188343
 20
-33.5936284815
 10
36.0240729494
 20
-34.0084359306
 10
36.1203694357
 20
-34.434452446
 10
36.2039443228
 20
-34.8705102194
 10
36.2747627059
 20
-35.3166368016
 10
36.3328594897
 20
-35.7728046418
 10
36.3780754177
 20
-36.2377632806
 10
36.4103574045
 20
-36.7110958978
 10
36.4297585354
 20
-37.1932193136
 10
36.4362788107
 20
-37.6841335277
  0
LWPOLYLINE
  5
2A2
100
AcDbEntity
  8
ASSI
100
AcDbPolyline
 62
7
  6
CONTINUOUS
 90
46
 70
0
 10
23.0719606462
 20
-62.4501330493
 10
23.0741906512
 20
-62.5479999422
 10
23.0807198946
 20
-62.6475629138
 10
23.0915483764
 20
-62.7488219639
 10
23.1067292472
 20
-62.8520634104
 10
23.1262093565
 20
-62.9570009355
 10
23.149829252
 20
-63.0627755859
 10
23.1776229123
 20
-63.1693942325
 10
23.2095563588
 20
-63.2768500043
 10
23.2453682044
 20
-63.3842633353
 10
23.2850902819
 20
-63.491633877
 10
23.3286907585
 20
-63.5989619778
 10
23.3758127476
 20
-63.7053691166
 10
23.426485153
 20
-63.8108477344
 10
23.480679071
 20
-63.9154053901
 10
23.5379509039
 20
-64.0181862399
 10
23.5983259145
 20
-64.1191757001
 10
23.6617788399
 20
-64.2183883543
 10
23.7277902939
 20
-64.3150121094
 10
23.7963812764
 20
-64.4090257163
 10
23.8675307876
 20
-64.5004504241
 10
23.9406564417
 20
-64.588537887
 10
24.0157744586
 20
-64.6732607137
 10
24.0928686184
 20
-64.7546462954
 10
24.1713078764
 20
-64.8320284604
 10
24.2511032727
 20
-64.9053743496
 10
24.3322437672
 20
-64.9747168221
 10
24.4140651941
 20
-65.0394882836
 10
24.4965731424
 20
-65.0996512161
 10
24.5797620231
 20
-65.1552431376
 10
24.6629509039
 20
-65.2058090071
 10
24.7461397847
 20
-65.2513075719
 10
24.8293286654
 20
-65.2917800847
 10
24.9118366137
 20
-65.3268952627
 10
24.9936580406
 20
-65.3566091342
 10
25.0747985351
 20
-65.3809656708
 10
25.1545939314
 20
-65.3997655051
 10
25.2330331894
 20
-65.412963029
 10
25.3101273492
 20
-65.4206038506
 10
25.3852453661
 20
-65.422625427
 10
25.4583710202
 20
-65.4189816365
 10
25.5295205314
 20
-65.4097186008
 10
25.5981115139
 20
-65.3949121412
 10
25.664122968
 20
-65.3745167586
 10
25.7275758934
 20
-65.3485779521
 10
25.7880052642
 20
-65.3172766568
  0
LWPOLYLINE
  5
2A3
100
AcDbEntity
  8
ASSI
100
AcDbPolyline
 62
7
  6
CONTINUOUS
 90
34
 70
0
 10
24.4861742086
 20
-61.6335838626
 10
24.4884042136
 20
-61.7314507556
 10
24.494933457
 20
-61.8310137271
 10
24.5057619388
 20
-61.9322727772
 10
24.5209428096
 20
-62.0355142238
 10
24.5404229188
 20
-62.1404517489
 10
24.5640428144
 20
-62.2462263993
 10
24.5918364746
 20
-62.3528450459
 10
24.6237699212
 20
-62.4603008177
 10
24.6595817668
 20
-62.5677141486
 10
24.6993038443
 20
-62.6750846903
 10
24.7429043208
 20
-62.7824127912
 10
24.7900263099
 20
-62.88881993
 10
24.8406987154
 20
-62.9942985477
 10
24.8948926334
 20
-63.0988562035
 10
24.9521644663
 20
-63.2016370532
 10
25.0125394768
 20
-63.3026265134
 10
25.0759924022
 20
-63.4018391676
 10
25.1420038563
 20
-63.4984629227
 10
25.2105948388
 20
-63.5924765296
 10
25.28174435
 20
-63.6839012375
 10
25.3548700041
 20
-63.7719887004
 10
25.429988021
 20
-63.856711527
 10
25.5070821808
 20
-63.9380971087
 10
25.5855214388
 20
-64.0154792738
 10
25.6653168351
 20
-64.088825163
 10
25.7464573295
 20
-64.1581676355
 10
25.8282787564
 20
-64.2229390969
 10
25.9107867047
 20
-64.2831020295
 10
25.9939755855
 20
-64.3386939509
 10
26.0771644663
 20
-64.3892598204
 10
26.160353347
 20
-64.4347583852
 10
26.2435422278
 20
-64.4752308981
 10
26.2450375011
 20
-64.4758672827
  0
LWPOLYLINE
  5
2A4
100
AcDbEntity
  8
ASSI
100
AcDbPolyline
 62
7
  6
CONTINUOUS
 90
46
 70
0
 10
26.2539411616
 20
-62.2461930273
 10
26.2517111566
 20
-62.1483261344
 10
26.2451819132
 20
-62.0487631628
 10
26.2343534314
 20
-61.9475041127
 10
26.2191725606
 20
-61.8442626662
 10
26.1996924514
 20
-61.739325141
 10
26.1760725558
 20
-61.6335504907
 10
26.1482788956
 20
-61.5269318441
 10
26.116345449
 20
-61.4194760722
 10
26.0805336034
 20
-61.3120627413
 10
26.0408115259
 20
-61.2046921996
 10
25.9972110493
 20
-61.0973640988
 10
25.9500890602
 20
-60.99095696
 10
25.8994166548
 20
-60.8854783422
 10
25.8452227368
 20
-60.7809206865
 10
25.7879509039
 20
-60.6781398367
 10
25.7275758934
 20
-60.5771503765
 10
25.664122968
 20
-60.4779377223
 10
25.5981115139
 20
-60.3813139672
 10
25.5295205314
 20
-60.2873003603
 10
25.4583710202
 20
-60.1958756525
 10
25.3852453661
 20
-60.1077881896
 10
25.3101273492
 20
-60.0230653629
 10
25.2330331894
 20
-59.9416797812
 10
25.1545939314
 20
-59.8642976162
 10
25.0747985351
 20
-59.790951727
 10
24.9936580406
 20
-59.7216092545
 10
24.9118366137
 20
-59.656837793
 10
24.8293286654
 20
-59.5966748605
 10
24.7461397847
 20
-59.541082939
 10
24.6629509039
 20
-59.4905170695
 10
24.5797620231
 20
-59.4450185047
 10
24.4965731424
 20
-59.4045459919
 10
24.4140651941
 20
-59.3694308138
 10
24.3322437672
 20
-59.3397169424
 10
24.2511032727
 20
-59.3153604058
 10
24.1713078764
 20
-59.2965605715
 10
24.0928686184
 20
-59.2833630476
 10
24.0157744586
 20
-59.2757222259
 10
23.9406564417
 20
-59.2737006496
 10
23.8675307876
 20
-59.2773444401
 10
23.7963812764
 20
-59.2866074758
 10
23.7277902939
 20
-59.3014139354
 10
23.6617788399
 20
-59.321809318
 10
23.5983259145
 20
-59.3477481245
 10
23.5378965436
 20
-59.3790494198
  0
LINE
  5
2A5
100
AcDbEntity
  8
ASSI
100
AcDbLine
 62
7
  6
CONTINUOUS
 10
23.0719606462
 20
-62.4501330493
 11
23.0719606462
 21
-60.4089573573
  0
LINE
  5
2A6
100
AcDbEntity
  8
ASSI
100
AcDbLine
 62
7
  6
CONTINUOUS
 10
24.4861742086
 20
-61.6335838626
 11
24.4861742086
 21
-59.5924081707
  0
LINE
  5
2A7
100
AcDbEntity
  8
ASSI
100
AcDbLine
 62
7
  6
CONTINUOUS
 10
26.2539411616
 20
-62.2461930273
 11
26.2539411616
 21
-64.2873687193
  0
LWPOLYLINE
  5
2A8
100
AcDbEntity
  8
ASSI
100
AcDbPolyline
 62
7
  6
CONTINUOUS
 90
16
 70
0
 10
-12.1709959063
 20
-38.7611824567
 10
-12.2282133789
 20
-38.7977958455
 10
-12.2824072969
 20
-38.8397717231
 10
-12.3330797024
 20
-38.8867351172
 10
-12.3802016915
 20
-38.9387269642
 10
-12.423802168
 20
-38.9957063276
 10
-12.4635242455
 20
-39.0572068098
 10
-12.4993360911
 20
-39.1232655192
 10
-12.5312695377
 20
-39.1938453473
 10
-12.5590631979
 20
-39.2683685717
 10
-12.5826830935
 20
-39.3468675588
 10
-12.6021632027
 20
-39.4293099421
 10
-12.6173440735
 20
-39.5150208995
 10
-12.6281725553
 20
-39.6037754903
 10
-12.6347017987
 20
-39.6957986552
 10
-12.6369318037
 20
-39.7910903943
  0
LINE
  5
2A9
100
AcDbEntity
  8
0
100
AcDbLine
 62
253
  6
CONTINUOUS
 10
-13.2733279068
 20
-32.9735280736
 11
-11.8591143444
 21
-32.156978887
  0
LINE
  5
2AA
100
AcDbEntity
  8
0
100
AcDbLine
 62
253
  6
CONTINUOUS
 10
-12.7076424818
 20
-33.626735859
 11
-11.2934289194
 21
-32.8101866723
  0
LINE
  5
2AB
100
AcDbEntity
  8
ASSI
100
AcDbLine
 62
253
  6
CONTINUOUS
 10
-11.2227182413
 20
-38.9745412076
 11
-12.6369318037
 21
-39.7910903943
  0
LWPOLYLINE
  5
2AC
100
AcDbEntity
  8
0
100
AcDbPolyline
 62
7
  6
CONTINUOUS
 90
22
 70
0
 10
-20.8574712405
 20
52.4621630974
 10
-20.9930176126
 20
52.5869972508
 10
-21.0343599302
 20
52.6284927442
 10
-21.0745141983
 20
52.6721617088
 10
-21.1136271608
 20
52.7181906558
 10
-21.1515520737
 20
52.7663930742
 10
-21.1878487047
 20
52.8162094301
 10
-21.2224980792
 20
52.867658531
 10
-21.2555191716
 20
52.9207215695
 10
-21.2865286733
 20
52.9747825898
 10
-21.3155031428
 20
53.0298532216
 10
-21.3424660216
 20
53.0859218352
 10
-21.3671043245
 20
53.1423375862
 10
-21.3893909629
 20
53.1991045198
 10
-21.4093530254
 20
53.2562185909
 10
-21.4267587924
 20
53.3130168192
 10
-21.4415784752
 20
53.3694955242
 10
-21.4538418624
 20
53.4256583866
 10
-21.4634066006
 20
53.4808534677
 10
-21.4702252389
 20
53.5348634547
 10
-21.4743452282
 20
53.5879056606
 10
-21.4757665685
 20
53.6399800852
  0
LWPOLYLINE
  5
2AD
100
AcDbEntity
  8
0
100
AcDbPolyline
 62
7
  6
CONTINUOUS
 90
19
 70
0
 10
36.4362788107
 20
-88.6198242928
 10
36.4396970903
 20
-88.7964815788
 10
36.4497794179
 20
-88.9682780964
 10
36.4665257933
 20
-89.1352138456
 10
36.4899933925
 20
-89.2975877129
 10
36.5201250396
 20
-89.4551008118
 10
36.5567492071
 20
-89.6068564827
 10
36.5999029246
 20
-89.7528218886
 10
36.6495491625
 20
-89.8930298665
 10
36.7054053044
 20
-90.026682268
 10
36.7675067681
 20
-90.1537417039
 10
36.8358181358
 20
-90.2742455634
 10
36.9099505381
 20
-90.3875078659
 10
36.9899371748
 20
-90.4934873096
 10
37.0757448459
 20
-90.5922251963
 10
37.1668850826
 20
-90.6831594503
 10
37.2633882987
 20
-90.7662455642
 10
37.3652240802
 20
-90.8415280454
 10
37.4716919159
 20
-90.9085085985
  0
LINE
  5
2AE
100
AcDbEntity
  8
ASSI
100
AcDbLine
 62
7
  6
CONTINUOUS
 10
29.4359216769
 20
-18.3858919665
 11
29.4359216769
 21
30.6254268487
  0
LINE
  5
2AF
100
AcDbEntity
  8
ASSI
100
AcDbLine
 62
7
  6
CONTINUOUS
 10
30.8501352393
 20
-19.2024411532
 11
30.8501352393
 21
29.808877662
  0
LINE
  5
2B0
100
AcDbEntity
  8
0
100
AcDbLine
 62
7
  6
CONTINUOUS
 10
35.0220652483
 20
-87.8032751062
 11
35.0220652483
 21
-36.8675843411
  0
LWPOLYLINE
  5
2B1
100
AcDbEntity
  8
ASSI
100
AcDbPolyline
 62
7
  6
CONTINUOUS
 90
4
 70
0
 10
24.4950778691
 20
-59.4039096073
 10
24.494933457
 20
-59.4050932667
 10
24.4884042136
 20
-59.4971164316
 10
24.4861742086
 20
-59.5924081707
  0
LWPOLYLINE
  5
2B2
100
AcDbEntity
  8
ASSI
100
AcDbPolyline
 62
7
  6
CONTINUOUS
 90
16
 70
0
 10
-9.9208871857
 20
-44.6994096938
 10
-9.8636697131
 20
-44.662796305
 10
-9.8094757951
 20
-44.6208204274
 10
-9.7588033897
 20
-44.5738570333
 10
-9.7116814006
 20
-44.5218651863
 10
-9.6680809241
 20
-44.4648858229
 10
-9.6283588465
 20
-44.4033853407
 10
-9.592547001
 20
-44.3373266313
 10
-9.5606135544
 20
-44.2667468032
 10
-9.5328198941
 20
-44.1922235788
 10
-9.5091999986
 20
-44.1137245917
 10
-9.4897198894
 20
-44.0312822084
 10
-9.4745390185
 20
-43.945571251
 10
-9.4637105367
 20
-43.8568166602
 10
-9.4571812934
 20
-43.7647934953
 10
-9.4549512883
 20
-43.6695017562
  0
LINE
  5
2B3
100
AcDbEntity
  8
ASSI
100
AcDbLine
 62
253
  6
CONTINUOUS
 10
-11.2227182413
 20
-41.0157168996
 11
-12.6369318037
 21
-41.8322660862
  0
LINE
  5
2B4
100
AcDbEntity
  8
0
100
AcDbLine
 62
7
  6
CONTINUOUS
 10
36.4362788107
 20
-88.6198242928
 11
36.4362788107
 21
-37.6841335277
  0
LINE
  5
2B5
100
AcDbEntity
  8
ASSI
100
AcDbLine
 62
253
  6
CONTINUOUS
 10
-47.6387174724
 20
75.1273575214
 11
-46.22450391
 21
74.3108083347
  0
LINE
  5
2B6
100
AcDbEntity
  8
ASSI
100
AcDbLine
 62
253
  6
CONTINUOUS
 10
30.8501352393
 20
29.808877662
 11
29.4359216769
 21
30.6254268487
  0
LWPOLYLINE
  5
2B7
100
AcDbEntity
  8
0
100
AcDbPolyline
 62
7
  6
CONTINUOUS
 90
8
 70
0
 10
-26.3901586978
 20
66.1670479925
 10
-26.5442113001
 20
66.2744888664
 10
-26.6856326563
 20
66.3998982953
 10
-26.8144227665
 20
66.5432762793
 10
-26.9336638685
 20
66.7099614112
 10
-27.0402737245
 20
66.8946150982
 10
-27.1250056206
 20
67.0812215621
 10
-27.1567776577
 20
67.1796856831
  0
LWPOLYLINE
  5
2B8
100
AcDbEntity
  8
0
100
AcDbPolyline
 62
7
  6
CONTINUOUS
 90
13
 70
0
 10
26.8648341311
 20
37.1288813751
 10
26.9400716767
 20
36.9765030999
 10
26.9928720996
 20
36.8775873601
 10
27.0487385333
 20
36.7806334157
 10
27.1078660647
 20
36.6853481621
 10
27.1700596068
 20
36.592024704
 10
27.2347338992
 20
36.5015423549
 10
27.301912418
 20
36.4139278402
 10
27.371571687
 20
36.3291544345
 10
27.4430560171
 20
36.2480212758
 10
27.5163827181
 20
36.1705626316
 10
27.5915344803
 20
36.0967442343
 10
27.6329704075
 20
36.0589957953
  0
LINE
  5
2B9
100
AcDbEntity
  8
0
100
AcDbLine
 62
253
  6
CONTINUOUS
 10
46.760037816
 20
38.9950560119
 11
46.760037816
 21
-86.7413666142
  0
LINE
  5
2BA
100
AcDbEntity
  8
0
100
AcDbLine
 62
7
  6
CONTINUOUS
 10
47.6387174724
 20
40.2198797919
 11
47.6387174724
 21
-85.5165428342
  0
LWPOLYLINE
  5
2BB
100
AcDbEntity
  8
ASSI
100
AcDbPolyline
 62
7
  6
CONTINUOUS
 90
17
 70
0
 10
5.4334472965
 20
-48.8412434728
 10
5.3830533177
 20
-48.8725342646
 10
5.3189633725
 20
-48.9194122434
 10
5.2584114527
 20
-48.9721235715
 10
5.2018473184
 20
-49.0302767259
 10
5.1493006633
 20
-49.0939122272
 10
5.1007417937
 20
-49.1629895548
 10
5.0565313896
 20
-49.2369956245
 10
5.01670183
 20
-49.3159671363
 10
4.9812207357
 20
-49.3998673901
 10
4.950351649
 20
-49.4880732018
 10
4.9241289114
 20
-49.580616631
 10
4.9025181814
 20
-49.677465618
 10
4.8856799766
 20
-49.7779007996
 10
4.8736678028
 20
-49.881682388
 10
4.8664281542
 20
-49.9890501709
 10
4.8639610307
 20
-50.1000041483
  0
LINE
  5
2BC
100
AcDbEntity
  8
ASSI
100
AcDbLine
 62
253
  6
CONTINUOUS
 10
6.2781745931
 20
-49.2834549617
 11
4.8639610307
 21
-50.1000041483
  0
LINE
  5
2BD
100
AcDbEntity
  8
ASSI
100
AcDbLine
 62
253
  6
CONTINUOUS
 10
6.2781745931
 20
-51.3246306537
 11
4.8639610307
 21
-52.1411798403
  0
LWPOLYLINE
  5
2BE
100
AcDbEntity
  8
0
100
AcDbPolyline
 62
7
  6
CONTINUOUS
 90
11
 70
0
 10
-20.9504872454
 20
48.6025994359
 10
-20.8574712405
 20
48.5806990164
 10
-20.7666191734
 20
48.5655849133
 10
-20.6779310439
 20
48.5572571265
 10
-20.5911557966
 20
48.5557312666
 10
-20.506544487
 20
48.5609917231
 10
-20.4248502815
 20
48.5729916644
 10
-20.346099224
 20
48.5917912601
 10
-20.2702652706
 20
48.6173303407
 10
-20.1980234559
 20
48.6493815651
 10
-20.1550045724
 20
48.6725866582
  0
LWPOLYLINE
  5
2BF
100
AcDbEntity
  8
ASSI
100
AcDbPolyline
 62
7
  6
CONTINUOUS
 90
49
 70
0
 10
19.2889393669
 20
42.7299005323
 10
19.600532434
 20
42.6084488974
 10
19.9129371083
 20
42.4782603727
 10
20.225875604
 20
42.3395348168
 10
20.5391476265
 20
42.1925357341
 10
20.8524041109
 20
42.0374276654
 10
21.1651471096
 20
41.8742730332
 10
21.4771179824
 20
41.703317356
 10
21.7880408718
 20
41.5247898155
 10
22.0973950983
 20
41.3387344381
 10
22.4048388033
 20
41.1454734162
 10
22.7101985057
 20
40.945203747
 10
23.0132012192
 20
40.7377651237
 10
23.3136127869
 20
40.5234076376
 10
23.611150508
 20
40.302394324
 10
23.9054531443
 20
40.0745537968
 10
24.1964866336
 20
39.8399742928
 10
24.4837557383
 20
39.5990878056
 10
24.7662175196
 20
39.3522564563
 10
25.0436348112
 20
39.0997959176
 10
25.3157765876
 20
38.842013427
 10
25.5816525511
 20
38.5793089312
 10
25.8407841046
 20
38.312320028
 10
26.0932684711
 20
38.0411036062
 10
26.3389742801
 20
37.7651871143
 10
26.5778154568
 20
37.4847527507
 10
26.8094473655
 20
37.2002760457
 10
27.0333157243
 20
36.9117051653
 10
27.2494295063
 20
36.6190559163
 10
27.4573561808
 20
36.3229958461
 10
27.6559367621
 20
36.0244705811
 10
27.8450025728
 20
35.7238256366
 10
28.0244722669
 20
35.4214480225
 10
28.1934499631
 20
35.1183650479
 10
28.3516866253
 20
34.8152621291
 10
28.4993804531
 20
34.5121671469
 10
28.6363703746
 20
34.2091149392
 10
28.7625636161
 20
33.9065857606
 10
28.8780285621
 20
33.6047594978
 10
28.9827993122
 20
33.3032167487
 10
29.0768309336
 20
33.0023002755
 10
29.1600963157
 20
32.7023041313
 10
29.2325671367
 20
32.4027524344
 10
29.2941826429
 20
32.1039453215
 10
29.3448700223
 20
31.8062326274
 10
29.3844921396
 20
31.50924644
 10
29.4129206879
 20
31.2131031478
 10
29.4300903655
 20
30.9183810294
 10
29.4359216769
 20
30.6254268487
  0
LWPOLYLINE
  5
2C0
100
AcDbEntity
  8
ASSI
100
AcDbPolyline
 62
7
  6
CONTINUOUS
 90
28
 70
0
 10
19.2889393669
 20
42.7299005323
 10
16.705239356
 20
43.7857224557
 10
14.1464559883
 20
44.8605280943
 10
11.6125892637
 20
45.9543174482
 10
9.1032169682
 20
47.0672828833
 10
6.6187613158
 20
48.1992320337
 10
4.1604889487
 20
49.3495878013
 10
1.7284132179
 20
50.518359572
 10
-0.6774792277
 20
51.7055379599
 10
-3.0559617998
 20
52.9105177098
 10
-5.4070205216
 20
54.1333078987
 10
-7.7306693698
 20
55.3738994496
 10
-10.025723686
 20
56.6316598756
 10
-12.2921688895
 20
57.9065979313
 10
-14.530019561
 20
59.1987048622
 10
-16.7381347843
 20
60.5073219174
 10
-18.9164993969
 20
61.8324575159
 10
-21.0651285613
 20
63.1741032387
 10
-23.1829268487
 20
64.5315750789
 10
-25.2698785382
 20
65.9048811066
 10
-27.3259993508
 20
67.2940132518
 10
-29.350241021
 20
68.6982632977
 10
-31.3425872933
 20
70.1176389531
 10
-33.3030544232
 20
71.5521325093
 10
-35.2306429121
 20
73.0010126229
 10
-37.1250195937
 20
74.4640355128
 10
-38.9865176344
 20
75.9414449603
 10
-40.815137034
 20
77.4332409652
  0
LWPOLYLINE
  5
2C1
100
AcDbEntity
  8
ASSI
100
AcDbPolyline
 62
7
  6
CONTINUOUS
 90
28
 70
0
 10
19.2889393669
 20
44.3628410859
 10
16.705239356
 20
45.4186630093
 10
14.1464559883
 20
46.4934686479
 10
11.6125892637
 20
47.5872580018
 10
9.1032169682
 20
48.7002234369
 10
6.6187613158
 20
49.8321725872
 10
4.1604889487
 20
50.9825283549
 10
1.7284132179
 20
52.1513001256
 10
-0.6774792277
 20
53.3384785135
 10
-3.0559617998
 20
54.5434582634
 10
-5.4070205216
 20
55.7662484523
 10
-7.7306693698
 20
57.0068400032
 10
-10.025723686
 20
58.2646004292
 10
-12.2921688895
 20
59.5395384849
 10
-14.530019561
 20
60.8316454158
 10
-16.7381347843
 20
62.140262471
 10
-18.9164993969
 20
63.4653980694
 10
-21.0651285613
 20
64.8070437922
 10
-23.1829268487
 20
66.1645156325
 10
-25.2698785382
 20
67.5378216602
 10
-27.3259993508
 20
68.9269538054
 10
-29.350241021
 20
70.3312038513
 10
-31.3425872933
 20
71.7505795067
 10
-33.3030544232
 20
73.1850730628
 10
-35.2306429121
 20
74.6339531764
 10
-37.1250195937
 20
76.0969760664
 10
-38.9865176344
 20
77.5743855139
 10
-41.0637025551
 20
79.2672720232
  0
LWPOLYLINE
  5
2C2
100
AcDbEntity
  8
ASSI
100
AcDbPolyline
 62
7
  6
CONTINUOUS
 90
49
 70
0
 10
19.2889393669
 20
44.3628410859
 10
19.6472110275
 20
44.2135480738
 10
20.0062060251
 20
44.0537934781
 10
20.3655960671
 20
43.8838134953
 10
20.7251292216
 20
43.7039107518
 10
21.0844081776
 20
43.5142884929
 10
21.4428901121
 20
43.3150468546
 10
21.8002666748
 20
43.1064744447
 10
22.156214537
 20
42.8888436646
 10
22.5101720657
 20
42.6622375603
 10
22.8617364826
 20
42.4270376182
 10
23.2107015282
 20
42.1834759396
 10
23.5567945885
 20
41.9313919438
 10
23.899736172
 20
41.6710795995
 10
24.2391949384
 20
41.4028513602
 10
24.5748022585
 20
41.1265383342
 10
24.9065065851
 20
40.8422382813
 10
25.2337339293
 20
40.5504682594
 10
25.5553438898
 20
40.2517094432
 10
25.8710555693
 20
39.9463345485
 10
26.1805965477
 20
39.6347070264
 10
26.4828904653
 20
39.3173538109
 10
26.7773841156
 20
38.9950355911
 10
27.0641799902
 20
38.6678124348
 10
27.3431796014
 20
38.3351586494
 10
27.6142744837
 20
37.9972856684
 10
27.877064081
 20
37.6547593739
 10
28.1309703229
 20
37.3075629607
 10
28.3759950771
 20
36.955710065
 10
28.6116359077
 20
36.5999946511
 10
28.8366263054
 20
36.2415938642
 10
29.0507739761
 20
35.8809201124
 10
29.2539757315
 20
35.5184266992
 10
29.4452548471
 20
35.1553750885
 10
29.6243322552
 20
34.7925841217
 10
29.7914269438
 20
34.4300779448
 10
29.946384856
 20
34.0679186894
 10
30.0891014752
 20
33.7066768885
 10
30.2196524945
 20
33.3465621761
 10
30.3380991377
 20
32.9870909768
 10
30.4443882574
 20
32.6286683472
 10
30.5384878591
 20
32.2716418307
 10
30.6203855325
 20
31.9154611818
 10
30.6900084771
 20
31.5604805301
 10
30.7472716428
 20
31.2071138941
 10
30.7920370243
 20
30.8549403628
 10
30.8241610069
 20
30.5041021172
 10
30.843558395
 20
30.1552779463
 10
30.8501352393
 20
29.808877662
  0
LINE
  5
2C3
100
AcDbEntity
  8
0
100
AcDbLine
 62
7
  6
CONTINUOUS
 10
17.9454364826
 20
42.5686423514
 11
26.3246518397
 21
37.7305884205
  0
LWPOLYLINE
  5
2C4
100
AcDbEntity
  8
0
100
AcDbPolyline
 62
7
  6
CONTINUOUS
 90
4
 70
0
 10
26.3246518397
 20
37.7305884205
 10
26.3686116773
 20
37.7035975323
 10
26.4120746378
 20
37.67383554
 10
26.4253157915
 20
37.6638095917
  0
LWPOLYLINE
  5
2C5
100
AcDbEntity
  8
0
100
AcDbPolyline
 62
7
  6
CONTINUOUS
 90
7
 70
0
 10
35.0220652483
 20
-44.6540107653
 10
35.0064003208
 20
-44.6807407055
 10
34.9841136823
 20
-44.7117715877
 10
34.9594753795
 20
-44.7397356442
 10
34.9325125007
 20
-44.7646682013
 10
34.9035380312
 20
-44.7862798418
 10
34.8856876621
 20
-44.7973366057
  0
LWPOLYLINE
  5
2C6
100
AcDbEntity
  8
ASSI
100
AcDbPolyline
 62
7
  6
CONTINUOUS
 90
17
 70
0
 10
8.1835620614
 20
-55.6454507791
 10
8.2339560402
 20
-55.6141599874
 10
8.2980459854
 20
-55.5672820086
 10
8.3585979052
 20
-55.5145706805
 10
8.4151620395
 20
-55.4564175261
 10
8.4677086946
 20
-55.3927820248
 10
8.5162675641
 20
-55.3237046971
 10
8.5604779683
 20
-55.2496986274
 10
8.6003075279
 20
-55.1707271157
 10
8.6357886222
 20
-55.0868268618
 10
8.6666577089
 20
-54.9986210501
 10
8.6928804465
 20
-54.9060776209
 10
8.7144911765
 20
-54.8092286339
 10
8.7313293813
 20
-54.7087934523
 10
8.7433415551
 20
-54.605011864
 10
8.7505812037
 20
-54.4976440811
 10
8.7530483272
 20
-54.3866901036
  0
LWPOLYLINE
  5
2C7
100
AcDbEntity
  8
0
100
AcDbPolyline
 62
7
  6
CONTINUOUS
 90
4
 70
0
 10
-26.3901586978
 20
66.5344596171
 10
-26.2730223497
 20
66.4847842787
 10
-26.1691156152
 20
66.4637728194
 10
-26.1051152913
 20
66.469173932
  0
LWPOLYLINE
  5
2C8
100
AcDbEntity
  8
0
100
AcDbPolyline
 62
7
  6
CONTINUOUS
 90
7
 70
0
 10
35.0220652483
 20
-60.724238299
 10
35.0198658673
 20
-60.7285677471
 10
34.9979916358
 20
-60.7631910617
 10
34.9736069464
 20
-60.7944279976
 10
34.9466796408
 20
-60.8222351759
 10
34.9172418774
 20
-60.8466559756
 10
34.8856933053
 20
-60.8673649523
  0
LWPOLYLINE
  5
2C9
100
AcDbEntity
  8
0
100
AcDbPolyline
 62
7
  6
CONTINUOUS
 90
4
 70
0
 10
26.8903372646
 20
-56.1635249746
 10
26.8628465583
 20
-56.1872938182
 10
26.8335352689
 20
-56.2077177026
 10
26.8246721187
 20
-56.2130278695
  0
LWPOLYLINE
  5
2CA
100
AcDbEntity
  8
0
100
AcDbPolyline
 62
7
  6
CONTINUOUS
 90
4
 70
0
 10
27.0216621662
 20
-56.0645098542
 10
26.9928720996
 20
-56.0821363569
 10
26.9400716767
 20
-56.1200794919
 10
26.8903372646
 20
-56.1635249746
  0
LWPOLYLINE
  5
2CB
100
AcDbEntity
  8
0
100
AcDbPolyline
 62
7
  6
CONTINUOUS
 90
39
 70
0
 10
33.7720139303
 20
-44.8953222074
 10
33.7464152082
 20
-44.9107386226
 10
33.6813897413
 20
-44.9558722748
 10
33.6205352355
 20
-45.0071163098
 10
33.563888929
 20
-45.0645252807
 10
33.5114135835
 20
-45.1280446345
 10
33.4635763068
 20
-45.1971089507
 10
33.4204185071
 20
-45.2717677345
 10
33.3818987762
 20
-45.3519714808
 10
33.3483599958
 20
-45.4370062543
 10
33.3198466358
 20
-45.5269151859
 10
33.2963142263
 20
-45.6216551447
 10
33.2779722403
 20
-45.720382802
 10
33.2648670175
 20
-45.8231337598
 10
33.2569522181
 20
-45.9298724162
 10
33.2542982953
 20
-46.0396486368
 10
33.2569522181
 20
-46.1524895408
 10
33.2648670175
 20
-46.2683680091
 10
33.2779722403
 20
-46.3862525497
 10
33.2963142263
 20
-46.5061610728
 10
33.3198466358
 20
-46.6280756682
 10
33.3483599958
 20
-46.7509111133
 10
33.3818987762
 20
-46.8746756296
 10
33.4204185071
 20
-46.9993609957
 10
33.4635763068
 20
-47.1238573247
 10
33.5114135835
 20
-47.2481629291
 10
33.563888929
 20
-47.3722794964
 10
33.6205352355
 20
-47.4951022022
 10
33.6813897413
 20
-47.6166194951
 10
33.7464152082
 20
-47.7368429266
 10
33.8150328137
 20
-47.8547023258
 10
33.8872746285
 20
-47.9701765871
 10
33.9631085819
 20
-48.0832868162
 10
34.0418596394
 20
-48.1930261592
 10
34.1235538449
 20
-48.2993645212
 10
34.2081651545
 20
-48.4023319972
 10
34.2949404018
 20
-48.5010120177
 10
34.3836285312
 20
-48.5950990598
 10
34.4744805984
 20
-48.6848986466
  0
LINE
  5
2CC
100
AcDbEntity
  8
ASSI
100
AcDbLine
 62
7
  6
CONTINUOUS
 10
35.0220652483
 20
-44.1735372757
 11
33.7720048479
 21
-44.8953064839
  0
LINE
  5
2CD
100
AcDbEntity
  8
0
100
AcDbLine
 62
253
  6
CONTINUOUS
 10
34.5674966032
 20
-44.8253349851
 11
35.0220652483
 21
-44.5628727466
  0
LINE
  5
2CE
100
AcDbEntity
  8
0
100
AcDbLine
 62
253
  6
CONTINUOUS
 10
26.3246518397
 20
-56.1634934107
 11
27.7388654021
 21
-55.346944224
  0
LINE
  5
2CF
100
AcDbEntity
  8
ASSI
100
AcDbLine
 62
7
  6
CONTINUOUS
 10
28.4358733566
 20
-55.2479565605
 11
27.0216597943
 21
-56.0645057472
  0
LWPOLYLINE
  5
2D0
100
AcDbEntity
  8
0
100
AcDbPolyline
 62
7
  6
CONTINUOUS
 90
10
 70
0
 10
34.8856876621
 20
-44.7973366057
 10
34.8725285295
 20
-44.8045318669
 10
34.839507437
 20
-44.8194629755
 10
34.8048580626
 20
-44.8308998473
 10
34.7685614316
 20
-44.8388017636
 10
34.7306365187
 20
-44.8432094431
 10
34.6915235561
 20
-44.8440717214
 10
34.6513692881
 20
-44.8413715438
 10
34.6100269705
 20
-44.8351259651
 10
34.5674966032
 20
-44.8253349851
  0
LWPOLYLINE
  5
2D1
100
AcDbEntity
  8
0
100
AcDbPolyline
 62
7
  6
CONTINUOUS
 90
14
 70
0
 10
26.8246721187
 20
-56.2130278695
 10
26.8024033966
 20
-56.2247966277
 10
26.7693184306
 20
-56.2385701834
 10
26.7344128816
 20
-56.2489987798
 10
26.6980842818
 20
-56.2559636478
 10
26.6603163625
 20
-56.2594251894
 10
26.6211253925
 20
-56.2594230026
 10
26.5809577095
 20
-56.2559571124
 10
26.5398021477
 20
-56.2489879209
 10
26.497669873
 20
-56.238555026
 10
26.4550407213
 20
-56.2247772457
 10
26.4120746378
 20
-56.2076941861
 10
26.3686116773
 20
-56.1872662411
 10
26.3246518397
 20
-56.1634934107
  0
LWPOLYLINE
  5
2D2
100
AcDbEntity
  8
ASSI
100
AcDbPolyline
 62
7
  6
CONTINUOUS
 90
16
 70
0
 10
23.5378965436
 20
-59.3790494198
 10
23.480679071
 20
-59.4156628086
 10
23.426485153
 20
-59.4576386862
 10
23.3758127476
 20
-59.5046020803
 10
23.3286907585
 20
-59.5565939272
 10
23.2850902819
 20
-59.6135732907
 10
23.2453682044
 20
-59.6750737729
 10
23.2095563588
 20
-59.7411324822
 10
23.1776229123
 20
-59.8117123104
 10
23.149829252
 20
-59.8862355348
 10
23.1262093565
 20
-59.9647345218
 10
23.1067292472
 20
-60.0471769051
 10
23.0915483764
 20
-60.1328878625
 10
23.0807198946
 20
-60.2216424534
 10
23.0741906512
 20
-60.3136656183
 10
23.0719606462
 20
-60.4089573573
  0
LWPOLYLINE
  5
2D3
100
AcDbEntity
  8
ASSI
100
AcDbPolyline
 62
7
  6
CONTINUOUS
 90
16
 70
0
 10
25.7880052642
 20
-65.3172766568
 10
25.8452227368
 20
-65.280663268
 10
25.8994166548
 20
-65.2386873904
 10
25.9500890602
 20
-65.1917239963
 10
25.9972110493
 20
-65.1397321493
 10
26.0408115259
 20
-65.0827527859
 10
26.0805336034
 20
-65.0212523037
 10
26.116345449
 20
-64.9551935944
 10
26.1482788956
 20
-64.8846137662
 10
26.1760725558
 20
-64.8100905418
 10
26.1996924514
 20
-64.7315915547
 10
26.2191725606
 20
-64.6491491715
 10
26.2343534314
 20
-64.5634382141
 10
26.2451819132
 20
-64.4746836232
 10
26.2517111566
 20
-64.3826604583
 10
26.2539411616
 20
-64.2873687193
  0
LINE
  5
2D4
100
AcDbEntity
  8
ASSI
100
AcDbLine
 62
253
  6
CONTINUOUS
 10
24.4861742086
 20
-59.5924081707
 11
23.0719606462
 21
-60.4089573573
  0
LINE
  5
2D5
100
AcDbEntity
  8
0
100
AcDbLine
 62
253
  6
CONTINUOUS
 10
29.1530789644
 20
-57.4700036733
 11
30.5672925268
 21
-56.6534544866
  0
LINE
  5
2D6
100
AcDbEntity
  8
0
100
AcDbLine
 62
253
  6
CONTINUOUS
 10
29.7187643894
 20
-58.1232114587
 11
31.1329779518
 21
-57.306662272
  0
LINE
  5
2D7
100
AcDbEntity
  8
ASSI
100
AcDbLine
 62
253
  6
CONTINUOUS
 10
24.4861742086
 20
-61.6335838626
 11
23.0719606462
 21
-62.4501330493
  0
LINE
  5
2D8
100
AcDbEntity
  8
0
100
AcDbLine
 62
253
  6
CONTINUOUS
 10
-22.5364267403
 20
89.6200797563
 11
37.5676496606
 21
54.9167393234
  0
LINE
  5
2D9
100
AcDbEntity
  8
0
100
AcDbLine
 62
7
  6
CONTINUOUS
 10
-21.0363542599
 20
89.7687032893
 11
39.067722141
 21
55.0653628565
  0
LINE
  5
2DA
100
AcDbEntity
  8
RACCORDO
100
AcDbLine
 62
7
  6
CONTINUOUS
 10
-16.4694505577
 20
87.1626533628
 11
40.2405132934
 21
54.4190309779
  0
LWPOLYLINE
  5
2DB
100
AcDbEntity
  8
0
100
AcDbPolyline
 62
253
  6
CONTINUOUS
 90
46
 70
0
 10
37.5676496606
 20
54.9167393234
 10
37.8884593807
 20
54.7250419805
 10
38.2088782436
 20
54.5206465288
 10
38.5285158682
 20
54.3038019928
 10
38.8469828254
 20
54.074772564
 10
39.1638911122
 20
53.8338372795
 10
39.4788546246
 20
53.581289682
 10
39.7914896282
 20
53.3174374617
 10
40.1014152254
 20
53.0426020819
 10
40.4082538195
 20
52.7571183873
 10
40.711631575
 20
52.4613341956
 10
41.0111788728
 20
52.1556098744
 10
41.3065307607
 20
51.8403179017
 10
41.597327398
 20
51.5158424122
 10
41.8832144936
 20
51.1825787292
 10
42.1638437383
 20
50.8409328833
 10
42.4388732284
 20
50.4913211172
 10
42.707967883
 20
50.1341693792
 10
42.9707998517
 20
49.7699128034
 10
43.2270489141
 20
49.3989951805
 10
43.4764028703
 20
49.0218684165
 10
43.7185579209
 20
48.6389919822
 10
43.9532190372
 20
48.2508323536
 10
44.1801003209
 20
47.8578624434
 10
44.398925352
 20
47.4605610249
 10
44.609427526
 20
47.0594121486
 10
44.8113503784
 20
46.6549045528
 10
45.0044478972
 20
46.2475310675
 10
45.1884848229
 20
45.8377880147
 10
45.3632369349
 20
45.4261746031
 10
45.5284913246
 20
45.0131923202
 10
45.684046655
 20
44.5993443215
 10
45.8297134059
 20
44.1851348168
 10
45.9653141048
 20
43.7710684567
 10
46.0906835432
 20
43.3576497172
 10
46.2056689776
 20
42.9453822854
 10
46.3101303161
 20
42.5347684457
 10
46.4039402886
 20
42.1263084678
 10
46.486984602
 20
41.7204999973
 10
46.5591620798
 20
41.3178374491
 10
46.6203847847
 20
40.9188114058
 10
46.6705781264
 20
40.5239080189
 10
46.7096809519
 20
40.1336084175
 10
46.7376456204
 20
39.7483881215
 10
46.7544380615
 20
39.3687164625
 10
46.760037816
 20
38.9950560119
  0
LWPOLYLINE
  5
2DC
100
AcDbEntity
  8
0
100
AcDbPolyline
 62
7
  6
CONTINUOUS
 90
43
 70
0
 10
39.067722141
 20
55.0653628565
 10
39.4113031989
 20
54.8596369821
 10
39.7516824153
 20
54.6411871221
 10
40.0886399396
 20
54.4103161378
 10
40.4222951521
 20
54.167066004
 10
40.7521018453
 20
53.9119412951
 10
41.0768494792
 20
53.646056755
 10
41.3961436225
 20
53.3699785671
 10
41.7099896525
 20
53.0839294432
 10
42.0177799433
 20
52.7886906403
 10
42.3191202253
 20
52.4848983133
 10
42.6140396264
 20
52.1727675009
 10
42.9025361131
 20
51.8525017025
 10
43.1844432971
 20
51.5244573499
 10
43.4595287177
 20
51.1890646761
 10
43.727651078
 20
50.8466416704
 10
43.9886133191
 20
50.4975685961
 10
44.2422080099
 20
50.142240066
 10
44.4882586543
 20
49.7810071409
 10
44.7265289785
 20
49.4143101029
 10
44.9568570132
 20
49.0424797631
 10
45.17915935
 20
48.6657020138
 10
45.3932299399
 20
48.2843491255
 10
45.5988605508
 20
47.8988002106
 10
45.795941936
 20
47.509237621
 10
45.9842824361
 20
47.1159798527
 10
46.1636413676
 20
46.7194478575
 10
46.3338265332
 20
46.3199612171
 10
46.494626769
 20
45.9178774886
 10
46.6458225426
 20
45.5135759816
 10
46.7872126051
 20
45.1073858014
 10
46.9185760883
 20
44.6996863884
 10
47.0397012514
 20
44.2908278623
 10
47.1503996456
 20
43.8810596
 10
47.2504729553
 20
43.470614309
 10
47.3396546436
 20
43.0599793586
 10
47.4176718601
 20
42.6497360415
 10
47.484318099
 20
42.2401577674
 10
47.5393541041
 20
41.8316753541
 10
47.5825148338
 20
41.4250362972
 10
47.6135940913
 20
41.0206919451
 10
47.6323999947
 20
40.6188537447
 10
47.6387174724
 20
40.2198797919
  0
LWPOLYLINE
  5
2DD
100
AcDbEntity
  8
RACCORDO
100
AcDbPolyline
 62
7
  6
CONTINUOUS
 90
39
 70
0
 10
40.2405132934
 20
54.4190309779
 10
40.5055223381
 20
54.2602421278
 10
40.7694251391
 20
54.0907553122
 10
41.0322216965
 20
53.9105705311
 10
41.2942761209
 20
53.7194061185
 10
41.5552243018
 20
53.5175437404
 10
41.813973907
 20
53.3058283949
 10
42.0705157206
 20
53.0842187798
 10
42.3248589585
 20
52.8527561974
 10
42.5759389374
 20
52.6124095525
 10
42.8237419779
 20
52.3631416044
 10
43.0682817592
 20
52.1049895939
 10
43.3085346352
 20
51.8390341482
 10
43.5444826357
 20
51.5652425562
 10
43.7761437308
 20
51.283647529
 10
44.0025481846
 20
50.9954278263
 10
44.223673962
 20
50.7005556786
 10
44.4395430981
 20
50.3990588555
 10
44.6492519624
 20
50.092199426
 10
44.8527747318
 20
49.7799549108
 10
45.0501372293
 20
49.4623477893
 10
45.2405132934
 20
49.1407075683
 10
45.4238736379
 20
48.8150173416
 10
45.600247549
 20
48.4852940155
 10
45.7688967234
 20
48.1529178154
 10
45.9297887803
 20
47.8178776209
 10
46.0829561005
 20
47.4801845523
 10
46.2277575241
 20
47.1412521967
 10
46.3641579824
 20
46.8010753591
 10
46.4921925439
 20
46.4596592344
 10
46.6113252548
 20
46.1184329943
 10
46.7215187995
 20
45.7773974347
 10
46.8228104935
 20
45.4365517597
 10
46.9147763285
 20
45.097322753
 10
46.997377212
 20
44.7597171915
 10
47.0706522366
 20
44.4237282983
 10
47.1342946722
 20
44.0907625267
 10
47.1882641403
 20
43.7608325491
 10
47.1989836535
 20
43.681794908
  0
LINE
  5
2DE
100
AcDbEntity
  8
0
100
AcDbLine
 62
253
  6
CONTINUOUS
 10
35.0220652483
 20
-60.4503766406
 11
34.3856691452
 21
-60.8178237746
  0
LWPOLYLINE
  5
2DF
100
AcDbEntity
  8
0
100
AcDbPolyline
 62
7
  6
CONTINUOUS
 90
13
 70
0
 10
34.8856933053
 20
-60.8673649523
 10
34.8519340956
 20
-60.8843565823
 10
34.8160640771
 20
-60.8976363893
 10
34.7785166244
 20
-60.9070489333
 10
34.7392702498
 20
-60.9125446753
 10
34.698346441
 20
-60.9141731542
 10
34.6562671953
 20
-60.9119135982
 10
34.6130177119
 20
-60.9057162023
 10
34.5686127917
 20
-60.8956307715
 10
34.5236188349
 20
-60.8817859491
 10
34.4782246416
 20
-60.864224616
 10
34.4322414117
 20
-60.8429038911
 10
34.3856691452
 20
-60.8178237746
  0
LWPOLYLINE
  5
2E0
100
AcDbEntity
  8
RACCORDO
100
AcDbPolyline
 62
7
  6
CONTINUOUS
 90
4
 70
0
 10
-17.0716556048
 20
87.4795359752
 10
-16.9983624034
 20
87.4451518388
 10
-16.7344596023
 20
87.3098903147
 10
-16.4694505577
 20
87.1626533628
  0
LWPOLYLINE
  5
2E1
100
AcDbEntity
  8
0
100
AcDbPolyline
 62
7
  6
CONTINUOUS
 90
16
 70
0
 10
46.760037816
 20
-86.7413666142
 10
46.868588257
 20
-86.6752574115
 10
46.9704984702
 20
-86.6063626562
 10
47.0657684555
 20
-86.5346823482
 10
47.1546225303
 20
-86.4600051336
 10
47.2368363773
 20
-86.3825423663
 10
47.311737045
 20
-86.3029281084
 10
47.3792645086
 20
-86.2211447009
 10
47.4394787929
 20
-86.1372098029
 10
47.4918870213
 20
-86.0518104532
 10
47.5364251234
 20
-85.9649346319
 10
47.5731571696
 20
-85.8765943589
 10
47.6017824942
 20
-85.7875127328
 10
47.622234559
 20
-85.6976836687
 10
47.6345799022
 20
-85.6071132515
 10
47.6387174724
 20
-85.5165428342
  0
LINE
  5
2E2
100
AcDbEntity
  8
0
100
AcDbLine
 62
7
  6
CONTINUOUS
 10
46.760037816
 20
-86.7413666142
 11
39.9718127166
 21
-90.6608027102
  0
ENDSEC
  0
SECTION
  2
OBJECTS
  0
DICTIONARY
  5
C
100
AcDbDictionary
280
0
281
1
  3
ACAD_GROUP
350
D
  3
ACAD_MLINESTYLE
350
17
  3
ACAD_LAYOUT
350
1A
  3
ACAD_PLOTSETTINGS
350
19
  3
ACAD_PLOTSTYLENAME
350
E
  0
DICTIONARY
  5
D
102
{ACAD_REACTORS
330
C
102
}
100
AcDbDictionary
280
0
281
1
  0
ACDBDICTIONARYWDFLT
  5
E
102
{ACAD_REACTORS
330
C
102
}
100
AcDbDictionary
281
1
  3
Normal
350
F
100
AcDbDictionaryWithDefault
340
F
  0
DICTIONARY
  5
17
102
{ACAD_REACTORS
330
C
102
}
100
AcDbDictionary
280
0
281
1
  3
Standard
350
18
  0
DICTIONARY
  5
19
102
{ACAD_REACTORS
330
C
102
}
100
AcDbDictionary
281
1
  0
DICTIONARY
  5
1A
102
{ACAD_REACTORS
330
C
102
}
100
AcDbDictionary
281
1
  3
Model
350
2E3
  3
Layout1
350
2E4
  0
ACDBPLACEHOLDER
  5
F
102
{ACAD_REACTORS
330
E
102
}
  0
MLINESTYLE
  5
18
102
{ACAD_REACTORS
330
17
102
}
100
AcDbMlineStyle
  2
STANDARD
 70
0
  3

 62
256
 51
90.0
 52
90.0
 71
2
 49
0.5
 62
256
  6
BYLAYER
 49
-0.5
 62
256
  6
BYLAYER
  0
LAYOUT
  5
2E3
102
{ACAD_REACTORS
330
1A
102
}
100
AcDbPlotSettings
  1

  2
none_device
  4
ISO_A4_(297.00_x_210.00_MM)
  6

 40
0.0
 41
0.0
 42
0.0
 43
0.0
 44
297.0
 45
210.0
 46
0.0
 47
0.0
 48
0.0
 49
0.0
140
0.0
141
0.0
142
1.0
143
1.0
 70
1024
 72
1
 73
0
 74
0
  7

 75
0
147
1.0
148
0.0
149
0.0
100
AcDbLayout
  1
Model
 70
0
 71
0
 10
0.0
 20
0.0
 11
297.0
 21
210.0
 12
0.0
 22
0.0
 32
0.0
 14
0.0
 24
0.0
 34
0.0
 15
0.0
 25
0.0
 35
0.0
146
0.0
 13
0.0
 23
0.0
 33
0.0
 16
1.0
 26
0.0
 36
0.0
 17
0.0
 27
1.0
 37
0.0
 76
0
330
20F
345
0
346
0
  0
LAYOUT
  5
2E4
102
{ACAD_REACTORS
330
1A
102
}
100
AcDbPlotSettings
  1

  2
none_device
  4
ISO_A4_(297.00_x_210.00_MM)
  6

 40
0.0
 41
0.0
 42
0.0
 43
0.0
 44
297.0
 45
210.0
 46
0.0
 47
0.0
 48
0.0
 49
0.0
140
0.0
141
0.0
142
1.0
143
1.0
 70
0
 72
1
 73
0
 74
0
  7

 75
0
147
1.0
148
0.0
149
0.0
100
AcDbLayout
  1
Layout1
 70
0
 71
1
 10
0.0
 20
0.0
 11
297.0
 21
210.0
 12
0.0
 22
0.0
 32
0.0
 14
0.0
 24
0.0
 34
0.0
 15
0.0
 25
0.0
 35
0.0
146
0.0
 13
0.0
 23
0.0
 33
0.0
 16
1.0
 26
0.0
 36
0.0
 17
0.0
 27
1.0
 37
0.0
 76
0
330
210
345
0
346
0
  0
ENDSEC
  0
EOF
