  0
SECTION
  2
HEADER
  9
$ACADVER
  1
AC1021
  9
$DWGCODEPAGE
  3
ANSI_1252
  9
$EXTMAX
 10
297.0
 20
210.0
 30
0.0
  9
$EXTMIN
 10
0.0
 20
0.0
 30
0.0
  9
$LIMMIN
 10
0.0
 20
0.0
  9
$LIMMAX
 10
297.0
 20
210.0
  9
$VIEWCTR
 10
148.5
 20
105.0
  9
$VIEWSIZE
 40
210.0
  9
$CLAYER
  8
0
  9
$LTSCALE
 40
16.335
  9
$CELTYPE
  6
BYLAYER
  9
$DIMSCALE
 40
1.0
  9
$DIMASZ
 40
3.0
  9
$DIMEXO
 40
0.5
  9
$DIMDLI
 40
11.286
  9
$DIMEXE
 40
1.5
  9
$DIMCEN
 40
2.673
  9
$DIMLFAC
 40
1.0
  9
$DIMBLK
  1
_FILLED
  9
$DIMALT
 70
0
  9
$DIMALTF
 40
0.0393700787
  9
$DIMTXT
 40
3.0
  9
$DIMTOL
 70
1
  9
$DIMLIM
 70
0
  9
$DIMTFAC
 40
1.0
  9
$DIMTP
 40
0.01
  9
$DIMTM
 40
0.01
  9
$DIMGAP
 40
0.625
  9
$DIMDSEP
 70
44
  9
$AUNITS
 70
0
  9
$PDMODE
 70
3
  9
$PDSIZE
 40
3.0
  9
$HANDSEED
  5
2F4
  9
$TILEMODE
 70
1
  9
$MEASUREMENT
 70
1
  9
$INSUNITS
 70
4
  0
ENDSEC
  0
SECTION
  2
CLASSES
  0
CLASS
  1
ACDBDICTIONARYWDFLT
  2
AcDbDictionaryWithDefault
  3
AutoCAD 2000
 90
0
 91
1
280
0
281
0
  0
CLASS
  1
ACDBPLACEHOLDER
  2
AcDbPlaceHolder
  3
AutoCAD 2000
 90
0
 91
1
280
0
281
0
  0
CLASS
  1
LAYOUT
  2
AcDbLayout
  3
AutoCAD 2000
 90
0
 91
0
280
0
281
0
  0
ENDSEC
  0
SECTION
  2
TABLES
  0
TABLE
  2
VPORT
  5
8
100
AcDbSymbolTable
 70
2
  0
VPORT
  5
1F4
100
AcDbSymbolTableRecord
100
AcDbViewportTableRecord
  2
*ACTIVE
 70
0
 10
0.0
 20
0.0
 11
1.0
 21
1.0
 12
148.5
 22
105.0
 13
0.0
 23
0.0
 14
1.0
 24
1.0
 15
0.0
 25
0.0
 16
0.0
 26
0.0
 36
1.0
 17
0.0
 27
0.0
 37
0.0
 40
210.0
 41
1.4142857143
 42
50.0
 43
0.0
 44
0.0
 50
0.0
 51
0.0
 71
0
 72
100
 73
1
 74
1
 75
0
 76
0
 77
0
 78
0
  0
ENDTAB
  0
TABLE
  2
LTYPE
  5
5
100
AcDbSymbolTable
 70
6
  0
LTYPE
  5
14
100
AcDbSymbolTableRecord
100
AcDbLinetypeTableRecord
  2
BYBLOCK
 70
0
  3

 72
65
 73
0
 40
0.0
  0
LTYPE
  5
15
100
AcDbSymbolTableRecord
100
AcDbLinetypeTableRecord
  2
BYLAYER
 70
0
  3

 72
65
 73
0
 40
0.0
  0
LTYPE
  5
16
100
AcDbSymbolTableRecord
100
AcDbLinetypeTableRecord
  2
CONTINUOUS
 70
64
  3
Solid line
 72
65
 73
0
 40
0.0
  0
LTYPE
  5
1F5
100
AcDbSymbolTableRecord
100
AcDbLinetypeTableRecord
  2
CENTER
 70
64
  3
____ _ ____ _ ____ _ ____ _ ____ _ ____ _ ____
 72
65
 73
4
 40
0.6
 49
0.375
 74
0
 49
-0.075
 74
0
 49
0.075
 74
0
 49
-0.075
 74
0
  0
LTYPE
  5
1F6
100
AcDbSymbolTableRecord
100
AcDbLinetypeTableRecord
  2
HIDDEN
 70
64
  3
- - - - - - - - - - - - - - - - - - - -
 72
65
 73
2
 40
0.2
 49
0.1
 74
0
 49
-0.1
 74
0
  0
LTYPE
  5
1F7
100
AcDbSymbolTableRecord
100
AcDbLinetypeTableRecord
  2
PHANTOM
 70
64
  3
_____ _ _ _____ _ _ _____ _ _ _____
 72
65
 73
6
 40
0.8
 49
0.45
 74
0
 49
-0.05
 74
0
 49
0.1
 74
0
 49
-0.05
 74
0
 49
0.1
 74
0
 49
-0.05
 74
0
  0
LTYPE
  5
1F8
100
AcDbSymbolTableRecord
100
AcDbLinetypeTableRecord
  2
DOT
 70
64
  3
. . . . . . . . . . . . . . . . . . . .
 72
65
 73
2
 40
0.2
 49
0.1
 74
0
 49
-0.1
 74
0
  0
LTYPE
  5
1F9
100
AcDbSymbolTableRecord
100
AcDbLinetypeTableRecord
  2
DASHED
 70
64
  3
- - - - - - - - - - - - - - - - - - - -
 72
65
 73
2
 40
0.2
 49
0.1
 74
0
 49
-0.1
 74
0
  0
ENDTAB
  0
TABLE
  2
LAYER
  5
2
100
AcDbSymbolTable
 70
36
  0
LAYER
  5
10
100
AcDbSymbolTableRecord
100
AcDbLayerTableRecord
  2
0
 70
0
 62
7
  6
CONTINUOUS
370
-3
390
F
  0
LAYER
  5
1FA
100
AcDbSymbolTableRecord
100
AcDbLayerTableRecord
  2
DEFAULT_1
 70
0
 62
7
  6
CENTER
370
-3
390
F
  0
LAYER
  5
1FB
100
AcDbSymbolTableRecord
100
AcDbLayerTableRecord
  2
DEFAULT_2
 70
0
 62
7
  6
HIDDEN
370
-3
390
F
  0
LAYER
  5
1FC
100
AcDbSymbolTableRecord
100
AcDbLayerTableRecord
  2
DEFAULT_3
 70
0
 62
7
  6
PHANTOM
370
-3
390
F
  0
LAYER
  5
1FD
100
AcDbSymbolTableRecord
100
AcDbLayerTableRecord
  2
ASSI
 70
0
 62
7
  6
CONTINUOUS
370
-3
390
F
  0
LAYER
  5
1FE
100
AcDbSymbolTableRecord
100
AcDbLayerTableRecord
  2
COORDINATE
 70
0
 62
7
  6
CONTINUOUS
370
-3
390
F
  0
LAYER
  5
1FF
100
AcDbSymbolTableRecord
100
AcDbLayerTableRecord
  2
COPY_PUBLISH
 70
0
 62
7
  6
CONTINUOUS
370
-3
390
F
  0
LAYER
  5
200
100
AcDbSymbolTableRecord
100
AcDbLayerTableRecord
  2
COSMETICI
 70
0
 62
7
  6
CONTINUOUS
370
-3
390
F
  0
LAYER
  5
201
100
AcDbSymbolTableRecord
100
AcDbLayerTableRecord
  2
CURVE
 70
0
 62
7
  6
CONTINUOUS
370
-3
390
F
  0
LAYER
  5
202
100
AcDbSymbolTableRecord
100
AcDbLayerTableRecord
  2
DRAFT
 70
0
 62
7
  6
CONTINUOUS
370
-3
390
F
  0
LAYER
  5
203
100
AcDbSymbolTableRecord
100
AcDbLayerTableRecord
  2
IMPORT_IGES
 70
0
 62
7
  6
CONTINUOUS
370
-3
390
F
  0
LAYER
  5
204
100
AcDbSymbolTableRecord
100
AcDbLayerTableRecord
  2
NOTE
 70
0
 62
7
  6
CONTINUOUS
370
-3
390
F
  0
LAYER
  5
205
100
AcDbSymbolTableRecord
100
AcDbLayerTableRecord
  2
PIANI
 70
0
 62
7
  6
CONTINUOUS
370
-3
390
F
  0
LAYER
  5
206
100
AcDbSymbolTableRecord
100
AcDbLayerTableRecord
  2
PUNTI
 70
0
 62
7
  6
CONTINUOUS
370
-3
390
F
  0
LAYER
  5
207
100
AcDbSymbolTableRecord
100
AcDbLayerTableRecord
  2
RACCORDO
 70
0
 62
7
  6
CONTINUOUS
370
-3
390
F
  0
LAYER
  5
208
100
AcDbSymbolTableRecord
100
AcDbLayerTableRecord
  2
SIMBOLI
 70
0
 62
7
  6
CONTINUOUS
370
-3
390
F
  0
LAYER
  5
209
100
AcDbSymbolTableRecord
100
AcDbLayerTableRecord
  2
SMUSSO
 70
0
 62
7
  6
CONTINUOUS
370
-3
390
F
  0
LAYER
  5
20A
100
AcDbSymbolTableRecord
100
AcDbLayerTableRecord
  2
SNAPLINE
 70
0
 62
7
  6
CONTINUOUS
370
-3
390
F
  0
LAYER
  5
20B
100
AcDbSymbolTableRecord
100
AcDbLayerTableRecord
  2
SUPERFICI
 70
0
 62
7
  6
CONTINUOUS
370
-3
390
F
  0
LAYER
  5
20C
100
AcDbSymbolTableRecord
100
AcDbLayerTableRecord
  2
TRASH
 70
0
 62
7
  6
CONTINUOUS
370
-3
390
F
  0
ENDTAB
  0
TABLE
  2
STYLE
  5
3
100
AcDbSymbolTable
 70
1
  0
STYLE
  5
11
100
AcDbSymbolTableRecord
100
AcDbTextStyleTableRecord
  2
STANDARD
 70
0
 40
0.0
 41
0.8
 50
0.0
 71
0
 42
0.2
  3
txt
  4

  0
STYLE
  5
20D
100
AcDbSymbolTableRecord
100
AcDbTextStyleTableRecord
  2
TEXTSTYLE_1
 70
0
 40
0.0
 41
0.8
 50
0.0
 71
0
 42
0.2
  3
gdt
  4

  0
ENDTAB
  0
TABLE
  2
VIEW
  5
6
100
AcDbSymbolTable
 70
0
  0
ENDTAB
  0
TABLE
  2
UCS
  5
7
100
AcDbSymbolTable
 70
0
  0
ENDTAB
  0
TABLE
  2
APPID
  5
9
100
AcDbSymbolTable
 70
1
  0
APPID
  5
20E
100
AcDbSymbolTableRecord
100
AcDbRegAppTableRecord
  2
ACAD
 70
0
  0
ENDTAB
  0
TABLE
  2
BLOCK_RECORD
  5
1
100
AcDbSymbolTable
 70
0
  0
BLOCK_RECORD
  5
20F
100
AcDbSymbolTableRecord
100
AcDbBlockTableRecord
  2
*Model_Space
  0
BLOCK_RECORD
  5
210
100
AcDbSymbolTableRecord
100
AcDbBlockTableRecord
  2
*Paper_Space
  0
ENDTAB
  0
TABLE
  2
DIMSTYLE
  5
A
100
AcDbSymbolTable
 70
1
100
AcDbDimStyleTable
 71
0
  0
DIMSTYLE
105
211
100
AcDbSymbolTableRecord
100
AcDbDimStyleTableRecord
  2
STANDARD
 70
0
  3

  4

 40
1.0
 41
3.0
 42
0.5
 43
0.38
 44
1.5
 45
0.0
 46
0.0
 47
0.01
 48
0.01
140
3.0
141
0.09
142
0.0
143
25.4
144
1.0
145
0.0
146
1.0
147
0.625
 71
1.0
 72
0.0
 73
0
 74
0
 75
0
 76
0
 77
1
 78
8
170
0
171
2
172
0
173
0
174
0
175
0
176
0
177
0
178
0
270
2
271
2
272
2
273
2
274
2
275
0
280
0
281
0
282
0
283
1
284
8
285
0
286
0
287
3
288
0
340
11
278
44
  0
ENDTAB
  0
ENDSEC
  0
SECTION
  2
BLOCKS
  0
BLOCK
  5
20
100
AcDbEntity
  8
0
100
AcDbBlockBegin
  2
*Model_Space
 70
0
 10
0.0
 20
0.0
 30
0.0
  3
*Model_Space
  1

  0
ENDBLK
  5
21
100
AcDbEntity
  8
0
100
AcDbBlockEnd
  0
BLOCK
  5
1C
100
AcDbEntity
  8
0
100
AcDbBlockBegin
  2
*Paper_Space
 70
0
 10
0.0
 20
0.0
 30
0.0
  3
*Paper_Space
  1

  0
ENDBLK
  5
1D
100
AcDbEntity
  8
0
100
AcDbBlockEnd
  0
ENDSEC
  0
SECTION
  2
ENTITIES
  0
LWPOLYLINE
  5
212
100
AcDbEntity
  8
0
100
AcDbPolyline
 62
253
  6
CONTINUOUS
 90
26
 70
0
 10
-28.9317383517
 20
137.2716270023
 10
-28.7254767672
 20
137.376460041
 10
-28.5133408687
 20
137.4704608869
 10
-28.2955318799
 20
137.5535403743
 10
-28.0722564057
 20
137.6256196973
 10
-27.8437262366
 20
137.6866304844
 10
-27.6101581471
 20
137.736514863
 10
-27.3717736909
 20
137.775225515
 10
-27.1287989899
 20
137.8027257207
 10
-26.8814645205
 20
137.8189893948
 10
-26.6300048943
 20
137.82400111
 10
-26.374658636
 20
137.8177561124
 10
-26.115667957
 20
137.8002603258
 10
-25.8532785257
 20
137.7715303461
 10
-25.5877392344
 20
137.7315934253
 10
-25.319301963
 20
137.6804874461
 10
-25.0482213407
 20
137.6182608855
 10
-24.7747545039
 20
137.5449727692
 10
-24.4991608523
 20
137.4606926154
 10
-24.2217018034
 20
137.365500369
 10
-23.9426405437
 20
137.2594863256
 10
-23.6622417798
 20
137.1427510459
 10
-23.3807714869
 20
137.0154052604
 10
-23.0984966566
 20
136.8775697643
 10
-22.8156850437
 20
136.7293753029
 10
-22.5326049122
 20
136.5709624476
  0
LINE
  5
213
100
AcDbEntity
  8
0
100
AcDbLine
 62
7
  6
CONTINUOUS
 10
-45.792588598
 20
127.5381745761
 11
-29.032918994
 21
137.2149977575
  0
LINE
  5
214
100
AcDbEntity
  8
ASSI
100
AcDbLine
 62
253
  6
CONTINUOUS
 10
-40.8113152059
 20
126.0170642101
 11
-22.5326049122
 21
136.5709624476
  0
LINE
  5
215
100
AcDbEntity
  8
ASSI
100
AcDbLine
 62
253
  6
CONTINUOUS
 10
-46.220682082
 20
121.261691026
 11
-40.8116910767
 21
124.3847746419
  0
LWPOLYLINE
  5
216
100
AcDbEntity
  8
ASSI
100
AcDbPolyline
 62
7
  6
CONTINUOUS
 90
26
 70
0
 10
-45.792627036
 20
127.5381523825
 10
-45.7733662408
 20
127.5491427938
 10
-45.6264645786
 20
127.624728676
 10
-45.4740410203
 20
127.6888654326
 10
-45.3163477354
 20
127.7413457604
 10
-45.1533737712
 20
127.7821913789
 10
-44.985321735
 20
127.8112955857
 10
-44.8124069002
 20
127.8285625652
 10
-44.6346832884
 20
127.8341217142
 10
-44.4524662615
 20
127.8279475084
 10
-44.2659310652
 20
127.8100197777
 10
-44.074943845
 20
127.7805274296
 10
-43.8797242106
 20
127.7394660254
 10
-43.6805587113
 20
127.6868400791
 10
-43.4774199144
 20
127.6228708157
 10
-43.2705221553
 20
127.5475880408
 10
-43.060181629
 20
127.4610428275
 10
-42.8465364306
 20
127.3635375429
 10
-42.6299218249
 20
127.2552147856
 10
-42.4105592409
 20
127.1361416025
 10
-42.1884218626
 20
127.0065392773
 10
-41.9637201373
 20
126.8665022641
 10
-41.7367978642
 20
126.7161778264
 10
-41.5078286484
 20
126.5558860693
 10
-41.2770563734
 20
126.385850538
 10
-41.0447932477
 20
126.2061832087
  0
LWPOLYLINE
  5
217
100
AcDbEntity
  8
ASSI
100
AcDbPolyline
 62
7
  6
CONTINUOUS
 90
27
 70
0
 10
-44.7925789794
 20
125.8061293213
 10
-44.7774966462
 20
125.8147272226
 10
-44.662353762
 20
125.8733964916
 10
-44.5427093269
 20
125.922279408
 10
-44.4187705903
 20
125.9612040977
 10
-44.2904618772
 20
125.9902272818
 10
-44.1579551907
 20
126.0092583465
 10
-44.021432119
 20
126.0182165441
 10
-43.8808702666
 20
126.0172506878
 10
-43.7365314749
 20
126.0063420688
 10
-43.5885690322
 20
125.9854707314
 10
-43.4368165805
 20
125.9548271774
 10
-43.2814596618
 20
125.9144078138
 10
-43.1227410226
 20
125.8642162972
 10
-42.9605851998
 20
125.8044699873
 10
-42.7951732963
 20
125.7351942529
 10
-42.6267731196
 20
125.6564321607
 10
-42.4554500414
 20
125.5684692827
 10
-42.2814823082
 20
125.4714294197
 10
-42.1050627221
 20
125.3653661632
 10
-41.9261334327
 20
125.2504870541
 10
-41.744872074
 20
125.1268722674
 10
-41.5615699898
 20
124.9946461585
 10
-41.3763402268
 20
124.8540991299
 10
-41.1893778649
 20
124.7054268501
 10
-41.0009583635
 20
124.5487175535
 10
-40.8113152059
 20
124.3841236565
  0
LINE
  5
218
100
AcDbEntity
  8
0
100
AcDbLine
 62
253
  6
CONTINUOUS
 10
-29.032918994
 20
137.2149977575
 11
-28.9317383517
 21
137.2716270023
  0
LWPOLYLINE
  5
219
100
AcDbEntity
  8
0
100
AcDbPolyline
 62
253
  6
CONTINUOUS
 90
18
 70
0
 10
-22.5326049122
 20
136.5709624476
 10
-22.4316684262
 20
136.626467558
 10
-22.3309605938
 20
136.676298228
 10
-22.2307095506
 20
136.7203415753
 10
-22.1311423975
 20
136.7584978275
 10
-22.0324846861
 20
136.7906805483
 10
-21.9349599079
 20
136.8168168337
 10
-21.8387889879
 20
136.8368474765
 10
-21.7441897841
 20
136.8507271008
 10
-21.6513765941
 20
136.8584242648
 10
-21.5605596697
 20
136.859921532
 10
-21.4719447404
 20
136.8552155107
 10
-21.3857325476
 20
136.8443168613
 10
-21.3021183895
 20
136.827250273
 10
-21.2212916792
 20
136.8040544069
 10
-21.1434355151
 20
136.7747818092
 10
-21.0687262665
 20
136.7394987918
 10
-21.0325324318
 20
136.7195859807
  0
LWPOLYLINE
  5
21A
100
AcDbEntity
  8
0
100
AcDbPolyline
 62
7
  6
CONTINUOUS
 90
28
 70
0
 10
-29.032918994
 20
137.2149977575
 10
-28.7988215965
 20
137.3436585352
 10
-28.5585296073
 20
137.4628059464
 10
-28.3123117342
 20
137.5721802191
 10
-28.0606751395
 20
137.6714552281
 10
-27.8036953082
 20
137.7605088861
 10
-27.5409659348
 20
137.8393328199
 10
-27.2727193846
 20
137.9076655272
 10
-26.9992702239
 20
137.9652429922
 10
-26.7202646623
 20
138.0119247148
 10
-26.4358763405
 20
138.0474272989
 10
-26.1464504915
 20
138.0714592236
 10
-25.85182536
 20
138.083769898
 10
-25.5520924008
 20
138.0840601336
 10
-25.2476487358
 20
138.0720370484
 10
-24.9387337662
 20
138.0474287248
 10
-24.6254062308
 20
138.0099485139
 10
-24.3080650669
 20
137.9593518438
 10
-23.9874116924
 20
137.8954948935
 10
-23.6634412016
 20
137.8181328074
 10
-23.336584102
 20
137.727119339
 10
-23.0081576717
 20
137.6226448798
 10
-22.6781750932
 20
137.5045843551
 10
-22.3470190999
 20
137.3729361973
 10
-22.0165336862
 20
137.2283942881
 10
-21.6874479042
 20
137.0713581444
 10
-21.3593894287
 20
136.9017181123
 10
-21.0325324318
 20
136.7195859807
  0
LINE
  5
21B
100
AcDbEntity
  8
RACCORDO
100
AcDbLine
 62
253
  6
CONTINUOUS
 10
-16.4656287296
 20
134.1135360541
 11
-16.4923205407
 21
134.0981245369
  0
LINE
  5
21C
100
AcDbEntity
  8
0
100
AcDbLine
 62
7
  6
CONTINUOUS
 10
-25.7863078775
 20
113.0584812707
 11
-25.6675776229
 21
113.1270346316
  0
LWPOLYLINE
  5
21D
100
AcDbEntity
  8
0
100
AcDbPolyline
 62
7
  6
CONTINUOUS
 90
6
 70
0
 10
-25.7873409984
 20
113.0602705844
 10
-25.8428316989
 20
113.0332179548
 10
-25.962072801
 20
113.0042294587
 10
-26.0908629111
 20
113.0095750656
 10
-26.2322842674
 20
113.047475474
 10
-26.3863368697
 20
113.1179306839
  0
LWPOLYLINE
  5
21E
100
AcDbEntity
  8
0
100
AcDbPolyline
 62
7
  6
CONTINUOUS
 90
3
 70
0
 10
-25.6905786995
 20
113.1425743482
 10
-25.7362218429
 20
113.0947612523
 10
-25.7873409984
 20
113.0602705844
  0
LINE
  5
21F
100
AcDbEntity
  8
0
100
AcDbLine
 62
253
  6
CONTINUOUS
 10
-21.4719447404
 20
100.5908627765
 11
-20.0577311781
 21
101.4074119632
  0
LINE
  5
220
100
AcDbEntity
  8
0
100
AcDbLine
 62
253
  6
CONTINUOUS
 10
-20.9466654173
 20
99.4985579201
 11
-19.5324518549
 21
100.3151071067
  0
LWPOLYLINE
  5
221
100
AcDbEntity
  8
0
100
AcDbPolyline
 62
7
  6
CONTINUOUS
 90
22
 70
0
 10
37.475513744
 20
-137.8517077384
 10
37.5708225767
 20
-137.9026768375
 10
37.6695038255
 20
-137.9475257658
 10
37.7712652102
 20
-137.986136527
 10
37.8761196423
 20
-138.0184829718
 10
37.9840542104
 20
-138.0445912496
 10
38.0946170991
 20
-138.064352071
 10
38.207819326
 20
-138.0777388282
 10
38.3236498736
 20
-138.0847781289
 10
38.4416238738
 20
-138.0854405065
 10
38.5617503118
 20
-138.0796992299
 10
38.6840202025
 20
-138.0675810302
 10
38.8079217227
 20
-138.0491366344
 10
38.9334617121
 20
-138.0243395238
 10
39.0606333311
 20
-137.9932162171
 10
39.1889042379
 20
-137.9558969967
 10
39.3182790405
 20
-137.9123558903
 10
39.4487531309
 20
-137.8626188702
 10
39.5797803432
 20
-137.8068941361
 10
39.7111786219
 20
-137.745251088
 10
39.8431300224
 20
-137.677620326
 10
39.9756345447
 20
-137.60400185
  0
LWPOLYLINE
  5
222
100
AcDbEntity
  8
0
100
AcDbPolyline
 62
7
  6
CONTINUOUS
 90
22
 70
0
 10
-39.5991254053
 20
-93.3497770656
 10
-39.5038165726
 20
-93.4007461648
 10
-39.4051353238
 20
-93.445595093
 10
-39.3033739391
 20
-93.4842058543
 10
-39.198519507
 20
-93.5165522991
 10
-39.0905849389
 20
-93.5426605769
 10
-38.9800220502
 20
-93.5624213983
 10
-38.8668198233
 20
-93.5758081555
 10
-38.7509892758
 20
-93.5828474562
 10
-38.6330152755
 20
-93.5835098338
 10
-38.5128888376
 20
-93.5777685572
 10
-38.3906189469
 20
-93.5656503575
 10
-38.2667174266
 20
-93.5472059616
 10
-38.1411774372
 20
-93.5224088511
 10
-38.0140058182
 20
-93.4912855444
 10
-37.8857349114
 20
-93.453966324
 10
-37.7563601088
 20
-93.4104252175
 10
-37.6258860184
 20
-93.3606881974
 10
-37.4948588062
 20
-93.3049634634
 10
-37.3634605275
 20
-93.2433204153
 10
-37.231509127
 20
-93.1756896533
 10
-37.0990046047
 20
-93.1020711773
  0
LINE
  5
223
100
AcDbEntity
  8
0
100
AcDbLine
 62
7
  6
CONTINUOUS
 10
-39.5991254054
 20
-93.3497770657
 11
-41.0133389677
 21
-92.533227879
  0
LINE
  5
224
100
AcDbEntity
  8
0
100
AcDbLine
 62
7
  6
CONTINUOUS
 10
36.0613001816
 20
-137.0351585518
 11
37.475513744
 21
-137.8517077384
  0
LINE
  5
225
100
AcDbEntity
  8
0
100
AcDbLine
 62
253
  6
CONTINUOUS
 10
-40.6345385106
 20
-91.06109276
 11
-42.048752073
 21
-90.2445435733
  0
LINE
  5
226
100
AcDbEntity
  8
0
100
AcDbLine
 62
253
  6
CONTINUOUS
 10
35.0258870764
 20
-134.746474246
 11
36.4401006387
 21
-135.5630234327
  0
LWPOLYLINE
  5
227
100
AcDbEntity
  8
0
100
AcDbPolyline
 62
7
  6
CONTINUOUS
 90
22
 70
0
 10
-41.0133389677
 20
-92.533227879
 10
-41.1048983393
 20
-92.4763224726
 10
-41.1930852948
 20
-92.4132968953
 10
-41.277409882
 20
-92.344484715
 10
-41.3578559104
 20
-92.2698616749
 10
-41.4344395706
 20
-92.1894520317
 10
-41.5068402824
 20
-92.1035923811
 10
-41.5750405115
 20
-92.0122598773
 10
-41.6390577923
 20
-91.9154773662
 10
-41.6986241477
 20
-91.8136499803
 10
-41.7537209201
 20
-91.7067565721
 10
-41.804366767
 20
-91.5948182893
 10
-41.8503496846
 20
-91.4783037065
 10
-41.8916501263
 20
-91.3571936406
 10
-41.9282876386
 20
-91.2315072749
 10
-41.9601088564
 20
-91.1017707337
 10
-41.9870935905
 20
-90.9679670394
 10
-42.0092620301
 20
-90.8301131698
 10
-42.0265213778
 20
-90.6887861825
 10
-42.0388407014
 20
-90.5441784304
 10
-42.0462509331
 20
-90.3960975606
 10
-42.048752073
 20
-90.2445435733
  0
LWPOLYLINE
  5
228
100
AcDbEntity
  8
0
100
AcDbPolyline
 62
7
  6
CONTINUOUS
 90
22
 70
0
 10
36.0613001816
 20
-137.0351585517
 10
35.9697408101
 20
-136.9782531454
 10
35.8815538545
 20
-136.9152275681
 10
35.7972292673
 20
-136.8464153877
 10
35.7167832389
 20
-136.7717923476
 10
35.6401995788
 20
-136.6913827044
 10
35.567798867
 20
-136.6055230538
 10
35.4995986378
 20
-136.5141905501
 10
35.435581357
 20
-136.4174080389
 10
35.3760150016
 20
-136.315580653
 10
35.3209182293
 20
-136.2086872449
 10
35.2702723823
 20
-136.096748962
 10
35.2242894648
 20
-135.9802343792
 10
35.182989023
 20
-135.8591243133
 10
35.1463515107
 20
-135.7334379476
 10
35.1145302929
 20
-135.6037014064
 10
35.0875455589
 20
-135.4698977122
 10
35.0653771193
 20
-135.3320438425
 10
35.0481177715
 20
-135.1907168553
 10
35.035798448
 20
-135.0461091031
 10
35.0283882163
 20
-134.8980282333
 10
35.0258870764
 20
-134.746474246
  0
LWPOLYLINE
  5
229
100
AcDbEntity
  8
0
100
AcDbPolyline
 62
7
  6
CONTINUOUS
 90
44
 70
0
 10
-20.1511856349
 20
95.6234743657
 10
-20.1404018845
 20
95.6298054682
 10
-20.0817943163
 20
95.6682289364
 10
-20.0263127328
 20
95.7116754622
 10
-19.9739352273
 20
95.7601098512
 10
-19.9250305346
 20
95.8131910378
 10
-19.879623162
 20
95.8709518092
 10
-19.8376886022
 20
95.9333593782
 10
-19.799522068
 20
95.9999743175
 10
-19.7651501489
 20
96.0708263136
 10
-19.7345462554
 20
96.14588568
 10
-19.707925832
 20
96.2246239301
 10
-19.6853169876
 20
96.3070670215
 10
-19.6666916133
 20
96.3931889966
 10
-19.6521808266
 20
96.4823834958
 10
-19.6418136612
 20
96.5746721988
 10
-19.6355610834
 20
96.670033426
 10
-19.6334671094
 20
96.7677957789
 10
-19.6355610834
 20
96.8679762005
 10
-19.6418136612
 20
96.9705577478
 10
-19.6521808266
 20
97.0748181936
 10
-19.6666916133
 20
97.1807693856
 10
-19.6853169876
 20
97.288399476
 10
-19.707925832
 20
97.3969506942
 10
-19.7345462554
 20
97.506429542
 10
-19.7651501489
 20
97.6168295175
 10
-19.799522068
 20
97.7273733442
 10
-19.8376886022
 20
97.8380620405
 10
-19.879623162
 20
97.9488945881
 10
-19.9250305346
 20
98.0590906552
 10
-19.9739352273
 20
98.168645755
 10
-20.0263127328
 20
98.2775643744
 10
-20.0817943163
 20
98.3850796423
 10
-20.1404018845
 20
98.4911816612
 10
-20.2021135308
 20
98.5958803285
 10
-20.2664948009
 20
98.6984384649
 10
-20.3335645369
 20
98.7988409719
 10
-20.4033038968
 20
98.8971029478
 10
-20.4752219
 20
98.992532509
 10
-20.5493339253
 20
99.0851096748
 10
-20.6256245939
 20
99.1748544259
 10
-20.7035567891
 20
99.2611348201
 10
-20.7829514719
 20
99.3437402102
 10
-20.8639876813
 20
99.4228812435
  0
LWPOLYLINE
  5
22A
100
AcDbEntity
  8
0
100
AcDbPolyline
 62
7
  6
CONTINUOUS
 90
44
 70
0
 10
-18.7369720725
 20
96.4400235523
 10
-18.7261883221
 20
96.4463546548
 10
-18.667580754
 20
96.4847781231
 10
-18.6120991704
 20
96.5282246489
 10
-18.5597216649
 20
96.5766590379
 10
-18.5108169722
 20
96.6297402244
 10
-18.4654095996
 20
96.6875009958
 10
-18.4234750398
 20
96.7499085648
 10
-18.3853085056
 20
96.8165235042
 10
-18.3509365865
 20
96.8873755003
 10
-18.320332693
 20
96.9624348667
 10
-18.2937122696
 20
97.0411731168
 10
-18.2711034253
 20
97.1236162082
 10
-18.252478051
 20
97.2097381832
 10
-18.2379672642
 20
97.2989326825
 10
-18.2276000988
 20
97.3912213855
 10
-18.221347521
 20
97.4865826126
 10
-18.219253547
 20
97.5843449655
 10
-18.221347521
 20
97.6845253871
 10
-18.2276000988
 20
97.7871069345
 10
-18.2379672642
 20
97.8913673803
 10
-18.252478051
 20
97.9973185723
 10
-18.2711034253
 20
98.1049486627
 10
-18.2937122696
 20
98.2134998808
 10
-18.320332693
 20
98.3229787286
 10
-18.3509365865
 20
98.4333787041
 10
-18.3853085056
 20
98.5439225308
 10
-18.4234750398
 20
98.6546112272
 10
-18.4654095996
 20
98.7654437747
 10
-18.5108169722
 20
98.8756398418
 10
-18.5597216649
 20
98.9851949417
 10
-18.6120991704
 20
99.0941135611
 10
-18.667580754
 20
99.2016288289
 10
-18.7261883221
 20
99.3077308479
 10
-18.7878999684
 20
99.4124295152
 10
-18.8522812385
 20
99.5149876516
 10
-18.9193509745
 20
99.6153901585
 10
-18.9890903344
 20
99.7136521345
 10
-19.0610083376
 20
99.8090816957
 10
-19.1351203629
 20
99.9016588615
 10
-19.2114110315
 20
99.9914036125
 10
-19.2893432267
 20
100.0776840068
 10
-19.3687379095
 20
100.1602893969
 10
-19.4497741189
 20
100.2394304302
  0
LINE
  5
22B
100
AcDbEntity
  8
0
100
AcDbLine
 62
253
  6
CONTINUOUS
 10
-21.4719447404
 20
95.0677566666
 11
-20.7053563002
 21
95.5103752244
  0
LINE
  5
22C
100
AcDbEntity
  8
ASSI
100
AcDbLine
 62
7
  6
CONTINUOUS
 10
-18.7369600996
 20
96.4400028127
 11
-20.151173662
 21
95.623453626
  0
LWPOLYLINE
  5
22D
100
AcDbEntity
  8
0
100
AcDbPolyline
 62
7
  6
CONTINUOUS
 90
10
 70
0
 10
-21.2648584862
 20
95.525487238
 10
-21.2476508178
 20
95.5347693334
 10
-21.2187540896
 20
95.5475898112
 10
-21.1884205085
 20
95.5578054308
 10
-21.1569200895
 20
95.5653252576
 10
-21.124242415
 20
95.5701252235
 10
-21.0903979025
 20
95.5722293966
 10
-21.0556878197
 20
95.5716190466
 10
-21.0202125892
 20
95.56828793
 10
-20.9838717884
 20
95.5622422902
  0
LINE
  5
22E
100
AcDbEntity
  8
0
100
AcDbLine
 62
7
  6
CONTINUOUS
 10
-30.3107795053
 20
-89.999184268
 11
35.0258870764
 21
-127.7237566915
  0
LWPOLYLINE
  5
22F
100
AcDbEntity
  8
ASSI
100
AcDbPolyline
 62
7
  6
CONTINUOUS
 90
10
 70
0
 10
-25.5649317507
 20
-74.6018625906
 10
-25.5212448393
 20
-74.6097695302
 10
-25.4725506795
 20
-74.6150627471
 10
-25.4250292738
 20
-74.616591711
 10
-25.3786700551
 20
-74.6143903396
 10
-25.3338932692
 20
-74.6084785885
 10
-25.2907133044
 20
-74.598822721
 10
-25.2491157724
 20
-74.5854564738
 10
-25.2094777545
 20
-74.5685010117
 10
-25.1809808281
 20
-74.5533666341
  0
LWPOLYLINE
  5
230
100
AcDbEntity
  8
0
100
AcDbPolyline
 62
7
  6
CONTINUOUS
 90
12
 70
0
 10
34.6085248025
 20
-87.6949429039
 10
34.4886406953
 20
-87.6663852404
 10
34.4076044859
 20
-87.6519476903
 10
34.3282098031
 20
-87.6428700908
 10
34.2502776079
 20
-87.6391563395
 10
34.1739869393
 20
-87.6408025388
 10
34.0998749141
 20
-87.6477969955
 10
34.0279569109
 20
-87.6601774492
 10
33.958217551
 20
-87.6779061605
 10
33.8911478149
 20
-87.7008582174
 10
33.8267665448
 20
-87.7290704768
 10
33.775838649
 20
-87.7561749795
  0
LWPOLYLINE
  5
231
100
AcDbEntity
  8
0
100
AcDbPolyline
 62
7
  6
CONTINUOUS
 90
5
 70
0
 10
-26.3863368697
 20
-74.3028213539
 10
-26.2692005216
 20
-74.3524966923
 10
-26.1652937872
 20
-74.3735081516
 10
-26.0746166663
 20
-74.365855732
 10
-26.0120957862
 20
-74.3386608487
  0
LWPOLYLINE
  5
232
100
AcDbEntity
  8
0
100
AcDbPolyline
 62
7
  6
CONTINUOUS
 90
5
 70
0
 10
-26.3863368697
 20
-73.0781159387
 10
-26.5034732178
 20
-73.0284406004
 10
-26.6073799522
 20
-73.007429141
 10
-26.698057073
 20
-73.0150815607
 10
-26.7605779532
 20
-73.0422764439
  0
LINE
  5
233
100
AcDbEntity
  8
ASSI
100
AcDbLine
 62
253
  6
CONTINUOUS
 10
37.5714714886
 20
101.8676220148
 11
19.292761195
 21
91.3137237772
  0
LINE
  5
234
100
AcDbEntity
  8
RACCORDO
100
AcDbLine
 62
253
  6
CONTINUOUS
 10
40.2443351215
 20
101.3699136692
 11
40.1525589543
 21
101.3169232605
  0
LWPOLYLINE
  5
235
100
AcDbEntity
  8
0
100
AcDbPolyline
 62
253
  6
CONTINUOUS
 90
18
 70
0
 10
37.5714714886
 20
101.8676220148
 10
37.6724079747
 20
101.9231271251
 10
37.7731158071
 20
101.9729577951
 10
37.8733668503
 20
102.0170011424
 10
37.9729340033
 20
102.0551573946
 10
38.0715917147
 20
102.0873401155
 10
38.1691164929
 20
102.1134764008
 10
38.265287413
 20
102.1335070436
 10
38.3598866168
 20
102.1473866679
 10
38.4526998067
 20
102.155083832
 10
38.5435167311
 20
102.1565810992
 10
38.6321316604
 20
102.1518750778
 10
38.7183438533
 20
102.1409764284
 10
38.8019580113
 20
102.1239098401
 10
38.8827847217
 20
102.100713974
 10
38.9606408858
 20
102.0714413764
 10
39.0353501344
 20
102.036158359
 10
39.0715439691
 20
102.0162455478
  0
LWPOLYLINE
  5
236
100
AcDbEntity
  8
0
100
AcDbPolyline
 62
7
  6
CONTINUOUS
 90
12
 70
0
 10
27.7426872301
 20
-102.2901433639
 10
27.7792582869
 20
-102.3101519817
 10
27.8155410416
 20
-102.3278573598
 10
27.851535494
 20
-102.343259498
 10
27.8873354542
 20
-102.3563869904
 10
27.9228471121
 20
-102.3672112431
 10
27.9577890383
 20
-102.3756464738
 10
27.9921567055
 20
-102.3816736994
 10
28.025954641
 20
-102.3853119031
 10
28.0589149962
 20
-102.3865322521
 10
28.0910311158
 20
-102.3853155342
 10
28.1065441845
 20
-102.3835129125
  0
LWPOLYLINE
  5
237
100
AcDbEntity
  8
0
100
AcDbPolyline
 62
7
  6
CONTINUOUS
 90
12
 70
0
 10
-14.683719641
 20
-77.7936677642
 10
-14.6471485842
 20
-77.8136763821
 10
-14.6108658296
 20
-77.8313817601
 10
-14.5748713772
 20
-77.8467838983
 10
-14.539071417
 20
-77.8599113908
 10
-14.5035597591
 20
-77.8707356434
 10
-14.4686178329
 20
-77.8791708741
 10
-14.4342501657
 20
-77.8851980997
 10
-14.4004522302
 20
-77.8888363034
 10
-14.367491875
 20
-77.8900566525
 10
-14.3353757554
 20
-77.8888399346
 10
-14.3198626867
 20
-77.8870373128
  0
LINE
  5
238
100
AcDbEntity
  8
0
100
AcDbLine
 62
7
  6
CONTINUOUS
 10
34.3894909733
 20
-107.7610229145
 11
29.7225862175
 21
-105.0664105985
  0
LINE
  5
239
100
AcDbEntity
  8
0
100
AcDbLine
 62
7
  6
CONTINUOUS
 10
26.3284736678
 20
-103.1066925505
 11
-12.7038206537
 21
-80.5699349988
  0
LINE
  5
23A
100
AcDbEntity
  8
0
100
AcDbLine
 62
7
  6
CONTINUOUS
 10
-16.0979332034
 20
-78.6102169509
 11
-20.7648379592
 21
-75.9156046349
  0
LINE
  5
23B
100
AcDbEntity
  8
0
100
AcDbLine
 62
7
  6
CONTINUOUS
 10
35.0258870764
 20
-106.4953716751
 11
31.1367997798
 21
-104.2498614118
  0
LINE
  5
23C
100
AcDbEntity
  8
0
100
AcDbLine
 62
7
  6
CONTINUOUS
 10
27.7426872301
 20
-102.2901433639
 11
-11.2896070913
 21
-79.7533858122
  0
LINE
  5
23D
100
AcDbEntity
  8
0
100
AcDbLine
 62
7
  6
CONTINUOUS
 10
-14.683719641
 20
-77.7936677642
 11
-19.3506243969
 21
-75.0990554482
  0
LWPOLYLINE
  5
23E
100
AcDbEntity
  8
0
100
AcDbPolyline
 62
7
  6
CONTINUOUS
 90
19
 70
0
 10
-12.7038206537
 20
-80.5699349988
 10
-12.7403917105
 20
-80.547712277
 10
-12.7766744651
 20
-80.5235192394
 10
-12.8126689176
 20
-80.4973558862
 10
-12.8484688777
 20
-80.4691424821
 10
-12.8839805357
 20
-80.4389587622
 10
-12.9189224618
 20
-80.4070439324
 10
-12.9532901291
 20
-80.3733842374
 10
-12.9870880645
 20
-80.3379934324
 10
-13.0200484197
 20
-80.3011519894
 10
-13.0521645393
 20
-80.2628483816
 10
-13.0834430787
 20
-80.2230941358
 10
-13.1136361556
 20
-80.1822043041
 10
-13.1427351451
 20
-80.1401698631
 10
-13.1707486721
 20
-80.0969998363
 10
-13.1974547296
 20
-80.0530363456
 10
-13.2227793154
 20
-80.008393432
 10
-13.2467964318
 20
-79.9629570546
 10
-13.3149253725
 20
-79.8242675312
  0
LWPOLYLINE
  5
23F
100
AcDbEntity
  8
0
100
AcDbPolyline
 62
7
  6
CONTINUOUS
 90
19
 70
0
 10
29.7225862175
 20
-105.0664105985
 10
29.6860151607
 20
-105.0441878766
 10
29.6497324061
 20
-105.0199948391
 10
29.6137379536
 20
-104.9938314859
 10
29.5779379935
 20
-104.9656180817
 10
29.5424263355
 20
-104.9354343619
 10
29.5074844093
 20
-104.9035195321
 10
29.4731167421
 20
-104.869859837
 10
29.4393188067
 20
-104.8344690321
 10
29.4063584515
 20
-104.7976275891
 10
29.3742423319
 20
-104.7593239813
 10
29.3429637925
 20
-104.7195697355
 10
29.3127707156
 20
-104.6786799038
 10
29.2836717261
 20
-104.6366454628
 10
29.2556581991
 20
-104.5934754359
 10
29.2289521416
 20
-104.5495119453
 10
29.2036275558
 20
-104.5048690317
 10
29.1796104394
 20
-104.4594326543
 10
29.1114814987
 20
-104.3207431308
  0
LWPOLYLINE
  5
240
100
AcDbEntity
  8
0
100
AcDbPolyline
 62
7
  6
CONTINUOUS
 90
28
 70
0
 10
-20.7648379592
 20
-75.9156046349
 10
-20.8061817656
 20
-75.8903131384
 10
-20.8471110336
 20
-75.8625464193
 10
-20.8876257632
 20
-75.8323044777
 10
-20.9278599354
 20
-75.799468502
 10
-20.9676795693
 20
-75.7641573038
 10
-21.0066827219
 20
-75.7267273174
 10
-21.0448611239
 20
-75.6871570832
 10
-21.0822230447
 20
-75.6454680607
 10
-21.1183913498
 20
-75.6020810626
 10
-21.1533539502
 20
-75.5569788914
 10
-21.1871229349
 20
-75.5101787445
 10
-21.2193574369
 20
-75.4621530267
 10
-21.2500419147
 20
-75.4128893251
 10
-21.2791919098
 20
-75.3624000526
 10
-21.3065131797
 20
-75.3111948522
 10
-21.3319872026
 20
-75.2592664729
 10
-21.3556325002
 20
-75.2066221658
 10
-21.3772103949
 20
-75.153793327
 10
-21.3966999477
 20
-75.1007780875
 10
-21.4141220975
 20
-75.0475783163
 10
-21.4293009836
 20
-74.9947310166
 10
-21.442213886
 20
-74.9422397581
 10
-21.4528835247
 20
-74.8901009711
 10
-21.4612021996
 20
-74.8388409489
 10
-21.4671340104
 20
-74.7886351227
 10
-21.4707148574
 20
-74.7393080613
 10
-21.4719447404
 20
-74.6908597648
  0
LWPOLYLINE
  5
241
100
AcDbEntity
  8
0
100
AcDbPolyline
 62
7
  6
CONTINUOUS
 90
15
 70
0
 10
-26.3863368697
 20
-74.6702329785
 10
-26.540389472
 20
-74.5627921047
 10
-26.6818108282
 20
-74.4373826757
 10
-26.8106009384
 20
-74.2940046917
 10
-26.9298420405
 20
-74.1273195598
 10
-27.0364518965
 20
-73.9426658728
 10
-27.1211837925
 20
-73.756059409
 10
-27.1820836681
 20
-73.5673257532
 10
-27.2211055836
 20
-73.3766393206
 10
-27.2348650071
 20
-73.2005391343
 10
-27.2211055836
 20
-73.0403279854
 10
-27.1820836681
 20
-72.8947030828
 10
-27.1211837925
 20
-72.7762950768
 10
-27.0364518965
 20
-72.6875348826
 10
-26.985332741
 20
-72.6530442147
  0
LWPOLYLINE
  5
242
100
AcDbEntity
  8
0
100
AcDbPolyline
 62
7
  6
CONTINUOUS
 90
15
 70
0
 10
-26.3863368697
 20
-72.7107043142
 10
-26.2322842674
 20
-72.818145188
 10
-26.0908629111
 20
-72.9435546169
 10
-25.962072801
 20
-73.086932601
 10
-25.8428316989
 20
-73.2536177328
 10
-25.7362218429
 20
-73.4382714198
 10
-25.6514899468
 20
-73.6248778837
 10
-25.5905900713
 20
-73.8136115394
 10
-25.5515681557
 20
-74.0042979721
 10
-25.5378087323
 20
-74.1803981583
 10
-25.5515681557
 20
-74.3406093073
 10
-25.5905900713
 20
-74.4862342099
 10
-25.6514899468
 20
-74.6046422159
 10
-25.7362218429
 20
-74.69340241
 10
-25.7873409984
 20
-74.727893078
  0
LWPOLYLINE
  5
243
100
AcDbEntity
  8
0
100
AcDbPolyline
 62
7
  6
CONTINUOUS
 90
12
 70
0
 10
-20.9838717884
 20
-59.5671103005
 10
-20.8639876813
 20
-59.595667964
 10
-20.7829514719
 20
-59.6101055141
 10
-20.7035567891
 20
-59.6191831136
 10
-20.6256245939
 20
-59.6228968649
 10
-20.5493339253
 20
-59.6212506656
 10
-20.4752219
 20
-59.6142562089
 10
-20.4033038968
 20
-59.6018757552
 10
-20.3335645369
 20
-59.5841470439
 10
-20.2664948009
 20
-59.561194987
 10
-20.2021135308
 20
-59.5329827276
 10
-20.1511856349
 20
-59.5058782249
  0
LINE
  5
244
100
AcDbEntity
  8
ASSI
100
AcDbLine
 62
7
  6
CONTINUOUS
 10
-47.6348956443
 20
73.0669213975
 11
-47.6348956443
 21
122.0782402127
  0
LWPOLYLINE
  5
245
100
AcDbEntity
  8
ASSI
100
AcDbPolyline
 62
7
  6
CONTINUOUS
 90
27
 70
0
 10
-47.6348956443
 20
122.0782402127
 10
-47.6322207607
 20
122.3911608738
 10
-47.6241468158
 20
122.6977860788
 10
-47.6106616773
 20
122.997826718
 10
-47.5917808602
 20
123.2909861916
 10
-47.5674865347
 20
123.5769925384
 10
-47.5377278965
 20
123.8555989552
 10
-47.5025506885
 20
124.1264227237
 10
-47.4619581521
 20
124.389306677
 10
-47.4158203658
 20
124.6443263849
 10
-47.3641379861
 20
124.8913051951
 10
-47.3069380313
 20
125.1298461435
 10
-47.2441228797
 20
125.35968431
 10
-47.1757866628
 20
125.5804431048
 10
-47.1019414314
 20
125.7919798152
 10
-47.0223608425
 20
125.9943678989
 10
-46.9370468314
 20
126.187441758
 10
-46.8460860603
 20
126.3708025607
 10
-46.7493863027
 20
126.5441765133
 10
-46.6471069329
 20
126.7072346152
 10
-46.5392847783
 20
126.8598416946
 10
-46.4256612567
 20
127.0020284026
 10
-46.3062715141
 20
127.133629772
 10
-46.1812837462
 20
127.2543261005
 10
-46.0506642974
 20
127.3639466171
 10
-45.9146690995
 20
127.4622475229
 10
-45.792627036
 20
127.5381523825
  0
LWPOLYLINE
  5
246
100
AcDbEntity
  8
0
100
AcDbPolyline
 62
253
  6
CONTINUOUS
 90
18
 70
0
 10
46.7638596441
 20
85.9459387032
 10
46.8623933937
 20
86.0056054751
 10
46.9558984597
 20
86.0679117024
 10
47.0441630233
 20
86.1327162414
 10
47.1269871366
 20
86.199872289
 10
47.2041831766
 20
86.2692277152
 10
47.2755762692
 20
86.3406254076
 10
47.3410046862
 20
86.4139036275
 10
47.4003202113
 20
86.4888963761
 10
47.4533884755
 20
86.5654337707
 10
47.5000892623
 20
86.6433424296
 10
47.5403167794
 20
86.7224458646
 10
47.5739798984
 20
86.8025648808
 10
47.6010023617
 20
86.8835179831
 10
47.6213229545
 20
86.9651217865
 10
47.6348956443
 20
87.0471914323
 10
47.6416896846
 20
87.1295410063
 10
47.6425393005
 20
87.1707624832
  0
LINE
  5
247
100
AcDbEntity
  8
ASSI
100
AcDbLine
 62
253
  6
CONTINUOUS
 10
46.7638596441
 20
85.9459387032
 11
30.8539570674
 21
76.7597603533
  0
LWPOLYLINE
  5
248
100
AcDbEntity
  8
0
100
AcDbPolyline
 62
7
  6
CONTINUOUS
 90
25
 70
0
 10
-20.8639876813
 20
-55.7064713471
 10
-20.9838717884
 20
-55.5965898487
 10
-21.0202125892
 20
-55.5606700426
 10
-21.0556878197
 20
-55.5230352523
 10
-21.0903979025
 20
-55.4835632688
 10
-21.124242415
 20
-55.4423763011
 10
-21.1569200895
 20
-55.3998409757
 10
-21.1884205085
 20
-55.3559452546
 10
-21.2187540896
 20
-55.3107011759
 10
-21.2476508178
 20
-55.2645114806
 10
-21.2750978648
 20
-55.2173677264
 10
-21.3011080589
 20
-55.1692783556
 10
-21.3254498698
 20
-55.1206714369
 10
-21.3481084022
 20
-55.0715423495
 10
-21.3690985513
 20
-55.0218957141
 10
-21.388233473
 20
-54.9721734612
 10
-21.4054966037
 20
-54.9223749159
 10
-21.420904507
 20
-54.872500753
 10
-21.4343200291
 20
-54.8229949286
 10
-21.4457253819
 20
-54.7738607312
 10
-21.4551383535
 20
-54.7250948722
 10
-21.4624751542
 20
-54.677131442
 10
-21.4677078539
 20
-54.6301151373
 10
-21.4708643827
 20
-54.5839012613
 10
-21.4719447404
 20
-54.5384898141
  0
LWPOLYLINE
  5
249
100
AcDbEntity
  8
0
100
AcDbPolyline
 62
7
  6
CONTINUOUS
 90
34
 70
0
 10
-13.3149253725
 20
-79.8242675312
 10
-13.3629596052
 20
-79.7333947764
 10
-13.4136087768
 20
-79.6441089491
 10
-13.4670208919
 20
-79.5561819678
 10
-13.5230479459
 20
-79.4698419141
 10
-13.5812459248
 20
-79.3857730321
 10
-13.6416320787
 20
-79.3039933687
 10
-13.7041891574
 20
-79.2244848771
 10
-13.7684213965
 20
-79.1478776615
 10
-13.834342107
 20
-79.0741947755
 10
-13.9019379778
 20
-79.0034131656
 10
-13.9706733123
 20
-78.9360937755
 10
-14.0405571646
 20
-78.872264116
 10
-14.1115804806
 20
-78.8118966763
 10
-14.1831804009
 20
-78.7554698679
 10
-14.2553615072
 20
-78.7030150032
 10
-14.3281192179
 20
-78.6545007698
 10
-14.4008769286
 20
-78.6103116427
 10
-14.4736346393
 20
-78.5704819892
 10
-14.5463923499
 20
-78.534977442
 10
-14.6185734563
 20
-78.5040793745
 10
-14.6901733766
 20
-78.4778243896
 10
-14.7611966925
 20
-78.4561758843
 10
-14.8310805448
 20
-78.4393054229
 10
-14.8998158793
 20
-78.4272509716
 10
-14.9674117502
 20
-78.4199745642
 10
-15.0333324606
 20
-78.4175338662
 10
-15.0975646998
 20
-78.419967302
 10
-15.1601217785
 20
-78.4272364471
 10
-15.2205079324
 20
-78.4392836937
 10
-15.2787059112
 20
-78.4561470085
 10
-15.3347329652
 20
-78.4777884246
 10
-15.3881450803
 20
-78.5040364341
 10
-15.4009247686
 20
-78.511230119
  0
LWPOLYLINE
  5
24A
100
AcDbEntity
  8
0
100
AcDbPolyline
 62
7
  6
CONTINUOUS
 90
34
 70
0
 10
-11.9007118101
 20
-79.0077183445
 10
-11.9487460428
 20
-78.9168455897
 10
-11.9993952144
 20
-78.8275597624
 10
-12.0528073295
 20
-78.7396327812
 10
-12.1088343835
 20
-78.6532927274
 10
-12.1670323624
 20
-78.5692238455
 10
-12.2274185163
 20
-78.487444182
 10
-12.289975595
 20
-78.4079356904
 10
-12.3542078342
 20
-78.3313284749
 10
-12.4201285446
 20
-78.2576455889
 10
-12.4877244155
 20
-78.1868639789
 10
-12.55645975
 20
-78.1195445888
 10
-12.6263436023
 20
-78.0557149293
 10
-12.6973669182
 20
-77.9953474896
 10
-12.7689668385
 20
-77.9389206813
 10
-12.8411479448
 20
-77.8864658165
 10
-12.9139056555
 20
-77.8379515831
 10
-12.9866633662
 20
-77.793762456
 10
-13.0594210769
 20
-77.7539328025
 10
-13.1321787876
 20
-77.7184282554
 10
-13.2043598939
 20
-77.6875301878
 10
-13.2759598142
 20
-77.6612752029
 10
-13.3469831301
 20
-77.6396266976
 10
-13.4168669824
 20
-77.6227562362
 10
-13.4856023169
 20
-77.610701785
 10
-13.5531981878
 20
-77.6034253776
 10
-13.6191188982
 20
-77.6009846795
 10
-13.6833511374
 20
-77.6034181153
 10
-13.7459082161
 20
-77.6106872605
 10
-13.80629437
 20
-77.6227345071
 10
-13.8644923488
 20
-77.6395978218
 10
-13.9205194028
 20
-77.661239238
 10
-13.973931518
 20
-77.6874872475
 10
-13.9867112062
 20
-77.6946809324
  0
LWPOLYLINE
  5
24B
100
AcDbEntity
  8
0
100
AcDbPolyline
 62
7
  6
CONTINUOUS
 90
22
 70
0
 10
-40.6345385106
 20
-91.06109276
 10
-40.6320373707
 20
-91.2126467473
 10
-40.624627139
 20
-91.360727617
 10
-40.6123078155
 20
-91.5053353692
 10
-40.5950484677
 20
-91.6466623564
 10
-40.5728800281
 20
-91.7845162261
 10
-40.545895294
 20
-91.9183199204
 10
-40.5140740762
 20
-92.0480564615
 10
-40.4774365639
 20
-92.1737428273
 10
-40.4361361222
 20
-92.2948528931
 10
-40.3901532047
 20
-92.4113674759
 10
-40.3395073577
 20
-92.5233057588
 10
-40.2844105853
 20
-92.6301991669
 10
-40.2248442299
 20
-92.7320265528
 10
-40.1608269491
 20
-92.828809064
 10
-40.09262672
 20
-92.9201415677
 10
-40.0202260082
 20
-93.0060012183
 10
-39.9436423481
 20
-93.0864108615
 10
-39.8631963196
 20
-93.1610339016
 10
-39.7788717324
 20
-93.229846082
 10
-39.6906847769
 20
-93.2928716593
 10
-39.5991254053
 20
-93.3497770656
  0
LINE
  5
24C
100
AcDbEntity
  8
ASSI
100
AcDbLine
 62
7
  6
CONTINUOUS
 10
-46.220682082
 20
72.2503722109
 11
-46.220682082
 21
121.261691026
  0
LINE
  5
24D
100
AcDbEntity
  8
0
100
AcDbLine
 62
7
  6
CONTINUOUS
 10
-42.048752073
 20
-90.2445435733
 11
-42.048752073
 21
54.585229023
  0
LINE
  5
24E
100
AcDbEntity
  8
ASSI
100
AcDbLine
 62
7
  6
CONTINUOUS
 10
-40.8113152059
 20
126.0170642101
 11
-40.8113152059
 21
124.3841236565
  0
LINE
  5
24F
100
AcDbEntity
  8
0
100
AcDbLine
 62
7
  6
CONTINUOUS
 10
-40.6345385106
 20
-91.06109276
 11
-40.6345385106
 21
53.7686798363
  0
LWPOLYLINE
  5
250
100
AcDbEntity
  8
ASSI
100
AcDbPolyline
 62
7
  6
CONTINUOUS
 90
27
 70
0
 10
-46.220682082
 20
121.261691026
 10
-46.2186344175
 20
121.5263455053
 10
-46.2124439339
 20
121.7854273141
 10
-46.2021003654
 20
122.038691821
 10
-46.1876199873
 20
122.2858862399
 10
-46.1689845657
 20
122.5267822669
 10
-46.1461416705
 20
122.76117652
 10
-46.1191310187
 20
122.9887445768
 10
-46.0879543415
 20
123.2093540338
 10
-46.0524892299
 20
123.423076038
 10
-46.012740228
 20
123.6297588112
 10
-45.9687262089
 20
123.8290687639
 10
-45.9203401272
 20
124.0207958455
 10
-45.8676614675
 20
124.2046214984
 10
-45.8107005919
 20
124.3804248704
 10
-45.7492420329
 20
124.5482819444
 10
-45.6832936827
 20
124.7080489878
 10
-45.6129226162
 20
124.8593921387
 10
-45.5380080853
 20
125.002104386
 10
-45.4586837634
 20
125.1359080271
 10
-45.3749819938
 20
125.2606880032
 10
-45.2866448124
 20
125.3764928629
 10
-45.1937091384
 20
125.4831788726
 10
-45.0963101109
 20
125.5804796608
 10
-44.9943585466
 20
125.6682857796
 10
-44.8880667793
 20
125.7463933763
 10
-44.7925789794
 20
125.8061293213
  0
LWPOLYLINE
  5
251
100
AcDbEntity
  8
0
100
AcDbPolyline
 62
7
  6
CONTINUOUS
 90
17
 70
0
 10
34.4886406953
 20
-91.5555818573
 10
34.6085248025
 20
-91.6654633557
 10
34.6448656033
 20
-91.7013831618
 10
34.6803408338
 20
-91.7390179521
 10
34.7150509166
 20
-91.7784899356
 10
34.748895429
 20
-91.8196769033
 10
34.7815731035
 20
-91.8622122287
 10
34.8130735226
 20
-91.9061079498
 10
34.8434071037
 20
-91.9513520285
 10
34.8723038319
 20
-91.9975417238
 10
34.8997508789
 20
-92.044685478
 10
34.925761073
 20
-92.0927748488
 10
34.9501028839
 20
-92.1413817675
 10
34.9727614162
 20
-92.1905108549
 10
34.9937515653
 20
-92.2401574903
 10
35.012886487
 20
-92.2898797432
 10
35.0258870764
 20
-92.3273822361
  0
LWPOLYLINE
  5
252
100
AcDbEntity
  8
0
100
AcDbPolyline
 62
7
  6
CONTINUOUS
 90
19
 70
0
 10
-11.9007118101
 20
-79.0077183445
 10
-11.8325828694
 20
-79.1464078679
 10
-11.808565753
 20
-79.1918442453
 10
-11.7832411672
 20
-79.236487159
 10
-11.7565351097
 20
-79.2804506496
 10
-11.7285215827
 20
-79.3236206765
 10
-11.6994225932
 20
-79.3656551175
 10
-11.6692295163
 20
-79.4065449492
 10
-11.637950977
 20
-79.446299195
 10
-11.6058348574
 20
-79.4846028028
 10
-11.5728745022
 20
-79.5214442458
 10
-11.5390765667
 20
-79.5568350507
 10
-11.5047088995
 20
-79.5904947458
 10
-11.4697669733
 20
-79.6224095755
 10
-11.4342553154
 20
-79.6525932954
 10
-11.3984553552
 20
-79.6808066996
 10
-11.3624609028
 20
-79.7069700528
 10
-11.3261781481
 20
-79.7311630903
 10
-11.2896070913
 20
-79.7533858122
  0
LINE
  5
253
100
AcDbEntity
  8
0
100
AcDbLine
 62
7
  6
CONTINUOUS
 10
-30.3107795053
 20
116.3361699113
 11
-30.3107795053
 21
-89.999184268
  0
LWPOLYLINE
  5
254
100
AcDbEntity
  8
0
100
AcDbPolyline
 62
7
  6
CONTINUOUS
 90
13
 70
0
 10
-26.7605779532
 20
20.8518053872
 10
-26.7782300305
 20
20.8399261696
 10
-26.8451733743
 20
20.7721881898
 10
-26.8907107537
 20
20.6840597374
 10
-26.9121167182
 20
20.5729446565
 10
-26.9121167182
 20
20.4414391031
 10
-26.8907107537
 20
20.305604951
 10
-26.8451733743
 20
20.1648910743
 10
-26.7782300305
 20
20.019848599
 10
-26.698057073
 20
19.8881927765
 10
-26.6073799522
 20
19.7758286906
 10
-26.5034732178
 20
19.6768512575
 10
-26.3863368697
 20
19.5912604772
  0
LWPOLYLINE
  5
255
100
AcDbEntity
  8
0
100
AcDbPolyline
 62
7
  6
CONTINUOUS
 90
13
 70
0
 10
-26.0120957862
 20
19.5554209825
 10
-25.9944437089
 20
19.5673002
 10
-25.927500365
 20
19.6350381799
 10
-25.8819629857
 20
19.7231666323
 10
-25.8605570212
 20
19.8342817132
 10
-25.8605570212
 20
19.9657872666
 10
-25.8819629857
 20
20.1016214187
 10
-25.927500365
 20
20.2423352954
 10
-25.9944437089
 20
20.3873777707
 10
-26.0746166663
 20
20.5190335932
 10
-26.1652937872
 20
20.6313976791
 10
-26.2692005216
 20
20.7303751122
 10
-26.3863368697
 20
20.8159658924
  0
LWPOLYLINE
  5
256
100
AcDbEntity
  8
ASSI
100
AcDbPolyline
 62
7
  6
CONTINUOUS
 90
11
 70
0
 10
-26.5310327395
 20
21.6789230626
 10
-26.5401965001
 20
21.6734801284
 10
-26.5758976731
 20
21.6493136016
 10
-26.6093157012
 20
21.6217769294
 10
-26.6404298251
 20
21.5908394686
 10
-26.6692608041
 20
21.5565318622
 10
-26.6955472858
 20
21.5191651084
 10
-26.7192661344
 20
21.478711392
 10
-26.7404404855
 20
21.4351985281
 10
-26.758878394
 20
21.3890209604
 10
-26.7647236374
 20
21.3708003728
  0
LWPOLYLINE
  5
257
100
AcDbEntity
  8
ASSI
100
AcDbPolyline
 62
7
  6
CONTINUOUS
 90
16
 70
0
 10
-25.1809808281
 20
19.3407151971
 10
-25.1718170675
 20
19.3461581313
 10
-25.1361158945
 20
19.370324658
 10
-25.1026978664
 20
19.3978613303
 10
-25.0715837425
 20
19.4287987911
 10
-25.0427527634
 20
19.4631063974
 10
-25.0164662818
 20
19.5004731512
 10
-24.9927474332
 20
19.5409268677
 10
-24.9715730821
 20
19.5844397316
 10
-24.9531351735
 20
19.6306172993
 10
-24.9374585887
 20
19.6794837995
 10
-24.9245184465
 20
19.7310150035
 10
-24.9144320492
 20
19.7847437814
 10
-24.9072384976
 20
19.8405144233
 10
-24.902898691
 20
19.8984826391
 10
-24.9014126292
 20
19.9586484288
  0
LINE
  5
258
100
AcDbEntity
  8
0
100
AcDbLine
 62
7
  6
CONTINUOUS
 10
-26.9863658618
 20
21.2428269302
 11
-26.1470818169
 21
21.7274190191
  0
LINE
  5
259
100
AcDbEntity
  8
0
100
AcDbLine
 62
7
  6
CONTINUOUS
 10
-25.7863078775
 20
19.1643994395
 11
-24.9472899301
 21
19.6488378869
  0
LWPOLYLINE
  5
25A
100
AcDbEntity
  8
0
100
AcDbPolyline
 62
7
  6
CONTINUOUS
 90
6
 70
0
 10
-26.985332741
 20
21.2410376165
 10
-26.9298420405
 20
21.2680902461
 10
-26.8106009384
 20
21.2970787422
 10
-26.6818108282
 20
21.2917331353
 10
-26.540389472
 20
21.2538327268
 10
-26.3863368697
 20
21.183377517
  0
LWPOLYLINE
  5
25B
100
AcDbEntity
  8
0
100
AcDbPolyline
 62
7
  6
CONTINUOUS
 90
6
 70
0
 10
-25.7873409984
 20
19.1661887532
 10
-25.8428316989
 20
19.1391361236
 10
-25.962072801
 20
19.1101476275
 10
-26.0908629111
 20
19.1154932344
 10
-26.2322842674
 20
19.1533936428
 10
-26.3863368697
 20
19.2238488527
  0
LWPOLYLINE
  5
25C
100
AcDbEntity
  8
0
100
AcDbPolyline
 62
7
  6
CONTINUOUS
 90
28
 70
0
 10
-20.0577311781
 20
-73.8743105781
 10
-20.056501295
 20
-73.9227588747
 10
-20.052920448
 20
-73.972085936
 10
-20.0469886372
 20
-74.0222917623
 10
-20.0386699624
 20
-74.0735517845
 10
-20.0280003236
 20
-74.1256905715
 10
-20.0150874213
 20
-74.1781818299
 10
-19.9999085351
 20
-74.2310291297
 10
-19.9824863853
 20
-74.2842289008
 10
-19.9629968326
 20
-74.3372441403
 10
-19.9414189379
 20
-74.3900729791
 10
-19.9177736402
 20
-74.4427172863
 10
-19.8922996173
 20
-74.4946456656
 10
-19.8649783475
 20
-74.5458508659
 10
-19.8358283524
 20
-74.5963401385
 10
-19.8051438745
 20
-74.64560384
 10
-19.7729093725
 20
-74.6936295578
 10
-19.7391403878
 20
-74.7404297047
 10
-19.7041777875
 20
-74.7855318759
 10
-19.6680094823
 20
-74.8289188741
 10
-19.6306475615
 20
-74.8706078965
 10
-19.5924691595
 20
-74.9101781307
 10
-19.5534660069
 20
-74.9476081172
 10
-19.513646373
 20
-74.9829193154
 10
-19.4734122008
 20
-75.015755291
 10
-19.4328974712
 20
-75.0459972327
 10
-19.3919682032
 20
-75.0737639517
 10
-19.3506243969
 20
-75.0990554482
  0
LWPOLYLINE
  5
25D
100
AcDbEntity
  8
ASSI
100
AcDbPolyline
 62
7
  6
CONTINUOUS
 90
44
 70
0
 10
-24.9014126292
 20
-73.9354334023
 10
-24.902898691
 20
-73.8735515457
 10
-24.9072384976
 20
-73.8105718299
 10
-24.9144320492
 20
-73.7464942549
 10
-24.9245184465
 20
-73.6811179583
 10
-24.9374585887
 20
-73.6146438025
 10
-24.9531351735
 20
-73.547674375
 10
-24.9715730821
 20
-73.4802051728
 10
-24.9927474332
 20
-73.4122406989
 10
-25.0164662818
 20
-73.3443970507
 10
-25.0427527634
 20
-73.2766753267
 10
-25.0715837425
 20
-73.2090744284
 10
-25.1026978664
 20
-73.1422071573
 10
-25.1361158945
 20
-73.0760801838
 10
-25.1718170675
 20
-73.0106868374
 10
-25.2094777545
 20
-72.9466199082
 10
-25.2491157724
 20
-72.8838914566
 10
-25.2907133044
 20
-72.8224894221
 10
-25.3338932692
 20
-72.7629704136
 10
-25.3786700551
 20
-72.7053515525
 10
-25.4250292738
 20
-72.6496157174
 10
-25.4725506795
 20
-72.5962681531
 10
-25.5212448393
 20
-72.5453305749
 10
-25.5711011862
 20
-72.4967812674
 10
-25.6216677727
 20
-72.4510603297
 10
-25.6729510568
 20
-72.4081934786
 10
-25.7249445806
 20
-72.3681549974
 10
-25.7771770233
 20
-72.3313078343
 10
-25.8296505573
 20
-72.2976810064
 10
-25.8823630103
 20
-72.2672454967
 10
-25.9348365443
 20
-72.2402772029
 10
-25.987068987
 20
-72.2168076503
 10
-26.0390625108
 20
-72.1968053136
 10
-26.0903457949
 20
-72.1804515136
 10
-26.1409123814
 20
-72.1677794247
 10
-26.1907687282
 20
-72.1587558725
 10
-26.2394628881
 20
-72.1534626555
 10
-26.2869842938
 20
-72.1519336917
 10
-26.3333435125
 20
-72.1541350631
 10
-26.3781202984
 20
-72.1600468142
 10
-26.4213002632
 20
-72.1697026816
 10
-26.4628977952
 20
-72.1830689289
 10
-26.5025358131
 20
-72.200024391
 10
-26.5310327395
 20
-72.2151587685
  0
LWPOLYLINE
  5
25E
100
AcDbEntity
  8
ASSI
100
AcDbPolyline
 62
7
  6
CONTINUOUS
 90
44
 70
0
 10
-24.9014126292
 20
19.9586484288
 10
-24.902898691
 20
20.0205302855
 10
-24.9072384976
 20
20.0835100013
 10
-24.9144320492
 20
20.1475875762
 10
-24.9245184465
 20
20.2129638729
 10
-24.9374585887
 20
20.2794380287
 10
-24.9531351735
 20
20.3464074561
 10
-24.9715730821
 20
20.4138766584
 10
-24.9927474332
 20
20.4818411323
 10
-25.0164662818
 20
20.5496847805
 10
-25.0427527634
 20
20.6174065045
 10
-25.0715837425
 20
20.6850074027
 10
-25.1026978664
 20
20.7518746739
 10
-25.1361158945
 20
20.8180016474
 10
-25.1718170675
 20
20.8833949938
 10
-25.2094777545
 20
20.947461923
 10
-25.2491157724
 20
21.0101903746
 10
-25.2907133044
 20
21.0715924091
 10
-25.3338932692
 20
21.1311114175
 10
-25.3786700551
 20
21.1887302786
 10
-25.4250292738
 20
21.2444661137
 10
-25.4725506795
 20
21.2978136781
 10
-25.5212448393
 20
21.3487512563
 10
-25.5711011862
 20
21.3973005638
 10
-25.6216677727
 20
21.4430215015
 10
-25.6729510568
 20
21.4858883525
 10
-25.7249445806
 20
21.5259268338
 10
-25.7771770233
 20
21.5627739969
 10
-25.8296505573
 20
21.5964008248
 10
-25.8823630103
 20
21.6268363344
 10
-25.9348365443
 20
21.6538046283
 10
-25.987068987
 20
21.6772741809
 10
-26.0390625108
 20
21.6972765176
 10
-26.0903457949
 20
21.7136303175
 10
-26.1409123814
 20
21.7263024065
 10
-26.1907687282
 20
21.7353259587
 10
-26.2394628881
 20
21.7406191756
 10
-26.2869842938
 20
21.7421481395
 10
-26.3333435125
 20
21.7399467681
 10
-26.3781202984
 20
21.734035017
 10
-26.4213002632
 20
21.7243791495
 10
-26.4628977952
 20
21.7110129023
 10
-26.5025358131
 20
21.6940574402
 10
-26.5310327395
 20
21.6789230626
  0
LWPOLYLINE
  5
25F
100
AcDbEntity
  8
0
100
AcDbPolyline
 62
7
  6
CONTINUOUS
 90
25
 70
0
 10
-20.0577311781
 20
-53.7219406275
 10
-20.0566508203
 20
-53.7673520747
 10
-20.0534942915
 20
-53.8135659507
 10
-20.0482615918
 20
-53.8605822554
 10
-20.0409247911
 20
-53.9085456856
 10
-20.0315118195
 20
-53.9573115446
 10
-20.0201064667
 20
-54.006445742
 10
-20.0066909446
 20
-54.0559515664
 10
-19.9912830413
 20
-54.1058257292
 10
-19.9740199106
 20
-54.1556242746
 10
-19.9548849889
 20
-54.2053465274
 10
-19.9338948398
 20
-54.2549931628
 10
-19.9112363075
 20
-54.3041222502
 10
-19.8868944966
 20
-54.352729169
 10
-19.8608843025
 20
-54.4008185397
 10
-19.8334372555
 20
-54.447962294
 10
-19.8045405273
 20
-54.4941519892
 10
-19.7742069462
 20
-54.5393960679
 10
-19.7427065271
 20
-54.5832917891
 10
-19.7100288526
 20
-54.6258271144
 10
-19.6761843401
 20
-54.6670140822
 10
-19.6414742574
 20
-54.7064860656
 10
-19.6059990269
 20
-54.744120856
 10
-19.569658226
 20
-54.7800406621
 10
-19.4497741189
 20
-54.8899221605
  0
LINE
  5
260
100
AcDbEntity
  8
0
100
AcDbLine
 62
7
  6
CONTINUOUS
 10
-21.4719447404
 20
-74.6908597648
 11
-21.4719447404
 21
-60.0615959241
  0
LINE
  5
261
100
AcDbEntity
  8
0
100
AcDbLine
 62
7
  6
CONTINUOUS
 10
-21.4719447404
 20
-54.5384898141
 11
-21.4719447404
 21
95.0677566666
  0
LINE
  5
262
100
AcDbEntity
  8
0
100
AcDbLine
 62
7
  6
CONTINUOUS
 10
-21.4719447404
 20
100.5908627765
 11
-21.4719447404
 21
110.3881977451
  0
LINE
  5
263
100
AcDbEntity
  8
0
100
AcDbLine
 62
7
  6
CONTINUOUS
 10
-20.0577311781
 20
-73.8743105781
 11
-20.0577311781
 21
-59.4519464455
  0
LINE
  5
264
100
AcDbEntity
  8
0
100
AcDbLine
 62
7
  6
CONTINUOUS
 10
-20.0577311781
 20
-53.7219406275
 11
-20.0577311781
 21
95.6774061451
  0
LINE
  5
265
100
AcDbEntity
  8
0
100
AcDbLine
 62
7
  6
CONTINUOUS
 10
-20.0577311781
 20
101.4074119632
 11
-20.0577311781
 21
109.4983338891
  0
LINE
  5
266
100
AcDbEntity
  8
RACCORDO
100
AcDbLine
 62
7
  6
CONTINUOUS
 10
-19.2940558544
 20
109.0214802055
 11
-19.2940558544
 21
100.0825872123
  0
LINE
  5
267
100
AcDbEntity
  8
RACCORDO
100
AcDbLine
 62
7
  6
CONTINUOUS
 10
-19.2940558544
 20
96.1183427059
 11
-19.2940558544
 21
-55.0467653783
  0
LINE
  5
268
100
AcDbEntity
  8
RACCORDO
100
AcDbLine
 62
7
  6
CONTINUOUS
 10
-19.2940558544
 20
-59.0110098847
 11
-19.2940558544
 21
-75.1317174157
  0
LWPOLYLINE
  5
269
100
AcDbEntity
  8
0
100
AcDbPolyline
 62
7
  6
CONTINUOUS
 90
16
 70
0
 10
-21.4719447404
 20
95.0677566666
 10
-21.4708643827
 20
95.1119205437
 10
-21.4677078539
 20
95.1544893394
 10
-21.4624751542
 20
95.1954630536
 10
-21.4551383535
 20
95.2349541304
 10
-21.4457253819
 20
95.2728501256
 10
-21.4343200291
 20
95.3088137075
 10
-21.420904507
 20
95.3428276233
 10
-21.4054966037
 20
95.3749091256
 10
-21.388233473
 20
95.4047726403
 10
-21.3690985513
 20
95.4323983653
 10
-21.3481084022
 20
95.4578061026
 10
-21.3254498698
 20
95.4807696848
 10
-21.3011080589
 20
95.5012672905
 10
-21.2750978648
 20
95.519320741
 10
-21.2648584862
 20
95.525487238
  0
LWPOLYLINE
  5
26A
100
AcDbEntity
  8
0
100
AcDbPolyline
 62
7
  6
CONTINUOUS
 90
16
 70
0
 10
-21.4719447404
 20
-60.0615959241
 10
-21.4708643827
 20
-60.0174320469
 10
-21.4677078539
 20
-59.9748632512
 10
-21.4624751542
 20
-59.933889537
 10
-21.4551383535
 20
-59.8943984603
 10
-21.4457253819
 20
-59.856502465
 10
-21.4343200291
 20
-59.8205388832
 10
-21.420904507
 20
-59.7865249674
 10
-21.4054966037
 20
-59.754443465
 10
-21.388233473
 20
-59.7245799503
 10
-21.3690985513
 20
-59.6969542254
 10
-21.3481084022
 20
-59.6715464881
 10
-21.3254498698
 20
-59.6485829058
 10
-21.3011080589
 20
-59.6280853002
 10
-21.2750978648
 20
-59.6100318496
 10
-21.2648584862
 20
-59.6038653526
  0
LWPOLYLINE
  5
26B
100
AcDbEntity
  8
0
100
AcDbPolyline
 62
7
  6
CONTINUOUS
 90
34
 70
0
 10
29.1114814987
 20
-104.3207431308
 10
29.063447266
 20
-104.229870376
 10
29.0127980944
 20
-104.1405845487
 10
28.9593859793
 20
-104.0526575675
 10
28.9033589253
 20
-103.9663175137
 10
28.8451609464
 20
-103.8822486318
 10
28.7847747925
 20
-103.8004689684
 10
28.7222177138
 20
-103.7209604767
 10
28.6579854746
 20
-103.6443532612
 10
28.5920647642
 20
-103.5706703752
 10
28.5244688934
 20
-103.4998887653
 10
28.4557335589
 20
-103.4325693752
 10
28.3858497066
 20
-103.3687397156
 10
28.3148263906
 20
-103.3083722759
 10
28.2432264703
 20
-103.2519454676
 10
28.171045364
 20
-103.1994906028
 10
28.0982876533
 20
-103.1509763694
 10
28.0255299426
 20
-103.1067872424
 10
27.9527722319
 20
-103.0669575889
 10
27.8800145212
 20
-103.0314530417
 10
27.8078334149
 20
-103.0005549741
 10
27.7362334946
 20
-102.9742999892
 10
27.6652101787
 20
-102.952651484
 10
27.5953263264
 20
-102.9357810226
 10
27.5265909919
 20
-102.9237265713
 10
27.458995121
 20
-102.9164501639
 10
27.3930744106
 20
-102.9140094659
 10
27.3288421714
 20
-102.9164429017
 10
27.2662850927
 20
-102.9237120468
 10
27.2058989388
 20
-102.9357592934
 10
27.14770096
 20
-102.9526226081
 10
27.091673906
 20
-102.9742640243
 10
27.0382617908
 20
-103.0005120338
 10
27.0254821026
 20
-103.0077057187
  0
LWPOLYLINE
  5
26C
100
AcDbEntity
  8
0
100
AcDbPolyline
 62
7
  6
CONTINUOUS
 90
34
 70
0
 10
30.5256950611
 20
-103.5041939442
 10
30.4776608284
 20
-103.4133211894
 10
30.4270116568
 20
-103.3240353621
 10
30.3735995416
 20
-103.2361083808
 10
30.3175724876
 20
-103.1497683271
 10
30.2593745088
 20
-103.0656994451
 10
30.1989883549
 20
-102.9839197817
 10
30.1364312762
 20
-102.9044112901
 10
30.072199037
 20
-102.8278040745
 10
30.0062783266
 20
-102.7541211885
 10
29.9386824557
 20
-102.6833395786
 10
29.8699471212
 20
-102.6160201885
 10
29.8000632689
 20
-102.552190529
 10
29.729039953
 20
-102.4918230893
 10
29.6574400327
 20
-102.4353962809
 10
29.5852589264
 20
-102.3829414162
 10
29.5125012157
 20
-102.3344271828
 10
29.439743505
 20
-102.2902380557
 10
29.3669857943
 20
-102.2504084022
 10
29.2942280836
 20
-102.214903855
 10
29.2220469773
 20
-102.1840057875
 10
29.150447057
 20
-102.1577508026
 10
29.0794237411
 20
-102.1361022973
 10
29.0095398888
 20
-102.1192318359
 10
28.9408045543
 20
-102.1071773846
 10
28.8732086834
 20
-102.0999009772
 10
28.807287973
 20
-102.0974602792
 10
28.7430557338
 20
-102.099893715
 10
28.6804986551
 20
-102.1071628602
 10
28.6201125012
 20
-102.1192101067
 10
28.5619145223
 20
-102.1360734215
 10
28.5058874683
 20
-102.1577148376
 10
28.4524753532
 20
-102.1839628472
 10
28.439695665
 20
-102.191156532
  0
LWPOLYLINE
  5
26D
100
AcDbEntity
  8
0
100
AcDbPolyline
 62
7
  6
CONTINUOUS
 90
19
 70
0
 10
30.5256950611
 20
-103.5041939442
 10
30.5938240018
 20
-103.6428834676
 10
30.6178411182
 20
-103.688319845
 10
30.6431657039
 20
-103.7329627586
 10
30.6698717615
 20
-103.7769262493
 10
30.6978852885
 20
-103.8200962762
 10
30.7269842779
 20
-103.8621307171
 10
30.7571773549
 20
-103.9030205488
 10
30.7884558942
 20
-103.9427747946
 10
30.8205720138
 20
-103.9810784024
 10
30.853532369
 20
-104.0179198454
 10
30.8873303045
 20
-104.0533106504
 10
30.9216979717
 20
-104.0869703454
 10
30.9566398979
 20
-104.1188851752
 10
30.9921515558
 20
-104.1490688951
 10
31.027951516
 20
-104.1772822992
 10
31.0639459684
 20
-104.2034456525
 10
31.100228723
 20
-104.22763869
 10
31.1367997798
 20
-104.2498614118
  0
LWPOLYLINE
  5
26E
100
AcDbEntity
  8
0
100
AcDbPolyline
 62
7
  6
CONTINUOUS
 90
25
 70
0
 10
-20.0577311781
 20
101.4074119632
 10
-20.0566508203
 20
101.3620005159
 10
-20.0534942915
 20
101.31578664
 10
-20.0482615918
 20
101.2687703353
 10
-20.0409247911
 20
101.220806905
 10
-20.0315118195
 20
101.1720410461
 10
-20.0201064667
 20
101.1229068487
 10
-20.0066909446
 20
101.0734010243
 10
-19.9912830413
 20
101.0235268614
 10
-19.9740199106
 20
100.973728316
 10
-19.9548849889
 20
100.9240060632
 10
-19.9338948398
 20
100.8743594278
 10
-19.9112363075
 20
100.8252303404
 10
-19.8868944966
 20
100.7766234217
 10
-19.8608843025
 20
100.7285340509
 10
-19.8334372555
 20
100.6813902967
 10
-19.8045405273
 20
100.6352006014
 10
-19.7742069462
 20
100.5899565227
 10
-19.7427065271
 20
100.5460608016
 10
-19.7100288526
 20
100.5035254762
 10
-19.6761843401
 20
100.4623385085
 10
-19.6414742574
 20
100.422866525
 10
-19.6059990269
 20
100.3852317346
 10
-19.569658226
 20
100.3493119285
 10
-19.4497741189
 20
100.2394304302
  0
LWPOLYLINE
  5
26F
100
AcDbEntity
  8
ASSI
100
AcDbPolyline
 62
7
  6
CONTINUOUS
 90
51
 70
0
 10
-12.6331099756
 20
-87.7548773801
 10
-12.6312740145
 20
-87.8436756706
 10
-12.6258760189
 20
-87.9339392822
 10
-12.6169159888
 20
-88.0256682148
 10
-12.6043575435
 20
-88.1190765791
 10
-12.5882370637
 20
-88.2139502645
 10
-12.5686636913
 20
-88.309646939
 10
-12.545613996
 20
-88.4061721871
 10
-12.5191114081
 20
-88.5035204243
 10
-12.4893353606
 20
-88.6010325648
 10
-12.4562636407
 20
-88.698709721
 10
-12.4199184611
 20
-88.7965507806
 10
-12.3805458929
 20
-88.8938933213
 10
-12.3381253932
 20
-88.9907339603
 10
-12.2926775049
 20
-89.0870760805
 10
-12.244509928
 20
-89.1822674079
 10
-12.1936042075
 20
-89.2763001336
 10
-12.1399787984
 20
-89.3691820666
 10
-12.0839967658
 20
-89.4602843598
 10
-12.0256421182
 20
-89.5495949371
 10
-11.9649308471
 20
-89.6371258746
 10
-11.9022739914
 20
-89.7222845537
 10
-11.8376583491
 20
-89.8050548767
 10
-11.7710971223
 20
-89.8854529413
 10
-11.7030409565
 20
-89.962934421
 10
-11.6334797076
 20
-90.0374795248
 10
-11.5624235197
 20
-90.1091080437
 10
-11.4903534711
 20
-90.1773350246
 10
-11.417262682
 20
-90.2421373857
 10
-11.3431580322
 20
-90.3035382088
 10
-11.2685412391
 20
-90.3611217864
 10
-11.1934088276
 20
-90.4148622156
 10
-11.1177642728
 20
-90.4647853993
 10
-11.0421197179
 20
-90.5105533379
 10
-10.9664751631
 20
-90.5521378351
 10
-10.8908306083
 20
-90.5895670873
 10
-10.8156981967
 20
-90.6225876836
 10
-10.7410814036
 20
-90.6511697084
 10
-10.6669767538
 20
-90.6753430774
 10
-10.5938859647
 20
-90.6949441274
 10
-10.5218159161
 20
-90.7099418321
 10
-10.4507597283
 20
-90.7203672179
 10
-10.3811984794
 20
-90.7261497008
 10
-10.3131423136
 20
-90.7272577754
 10
-10.2465810868
 20
-90.7237229471
 10
-10.1819654445
 20
-90.7155691481
 10
-10.1193085888
 20
-90.7027650355
 10
-10.0585973177
 20
-90.6853419521
 10
-10.0002426701
 20
-90.6634178591
 10
-9.9442606375
 20
-90.6369622139
 10
-9.9170763036
 20
-90.6220020299
  0
LWPOLYLINE
  5
270
100
AcDbEntity
  8
ASSI
100
AcDbPolyline
 62
7
  6
CONTINUOUS
 90
37
 70
0
 10
-11.2188964132
 20
-86.9383281934
 10
-11.2170604522
 20
-87.0271264839
 10
-11.2116624566
 20
-87.1173900955
 10
-11.2027024264
 20
-87.2091190281
 10
-11.1901439811
 20
-87.3025273925
 10
-11.1740235013
 20
-87.3974010779
 10
-11.1544501289
 20
-87.4930977523
 10
-11.1314004336
 20
-87.5896230004
 10
-11.1048978458
 20
-87.6869712376
 10
-11.0751217982
 20
-87.7844833782
 10
-11.0420500783
 20
-87.8821605344
 10
-11.0057048987
 20
-87.9800015939
 10
-10.9663323305
 20
-88.0773441346
 10
-10.9239118308
 20
-88.1741847737
 10
-10.8784639425
 20
-88.2705268938
 10
-10.8302963656
 20
-88.3657182212
 10
-10.7793906451
 20
-88.459750947
 10
-10.725765236
 20
-88.55263288
 10
-10.6697832034
 20
-88.6437351732
 10
-10.6114285558
 20
-88.7330457505
 10
-10.5507172847
 20
-88.820576688
 10
-10.488060429
 20
-88.905735367
 10
-10.4234447867
 20
-88.9885056901
 10
-10.3568835599
 20
-89.0689037547
 10
-10.2888273941
 20
-89.1463852344
 10
-10.2192661452
 20
-89.2209303381
 10
-10.1482099574
 20
-89.292558857
 10
-10.0761399088
 20
-89.360785838
 10
-10.0030491197
 20
-89.4255881991
 10
-9.9289444698
 20
-89.4869890222
 10
-9.8543276768
 20
-89.5445725997
 10
-9.7791952652
 20
-89.598313029
 10
-9.7035507104
 20
-89.6482362126
 10
-9.6279061556
 20
-89.6940041512
 10
-9.5522616007
 20
-89.7355886484
 10
-9.4766170459
 20
-89.7730179006
 10
-9.4602767151
 20
-89.7801994546
  0
LWPOLYLINE
  5
271
100
AcDbEntity
  8
ASSI
100
AcDbPolyline
 62
7
  6
CONTINUOUS
 90
51
 70
0
 10
-9.4511294603
 20
-87.5509373581
 10
-9.4529654213
 20
-87.4621390676
 10
-9.4583634169
 20
-87.371875456
 10
-9.4673234471
 20
-87.2801465234
 10
-9.4798818924
 20
-87.1867381591
 10
-9.4960023722
 20
-87.0918644737
 10
-9.5155757446
 20
-86.9961677992
 10
-9.5386254399
 20
-86.8996425511
 10
-9.5651280277
 20
-86.8022943139
 10
-9.5949040753
 20
-86.7047821734
 10
-9.6279757952
 20
-86.6071050172
 10
-9.6643209748
 20
-86.5092639576
 10
-9.703693543
 20
-86.4119214169
 10
-9.7461140427
 20
-86.3150807779
 10
-9.791561931
 20
-86.2187386577
 10
-9.8397295079
 20
-86.1235473303
 10
-9.8906352284
 20
-86.0295146046
 10
-9.9442606375
 20
-85.9366326716
 10
-10.0002426701
 20
-85.8455303784
 10
-10.0585973177
 20
-85.7562198011
 10
-10.1193085888
 20
-85.6686888636
 10
-10.1819654445
 20
-85.5835301845
 10
-10.2465810868
 20
-85.5007598615
 10
-10.3131423136
 20
-85.4203617969
 10
-10.3811984794
 20
-85.3428803172
 10
-10.4507597283
 20
-85.2683352134
 10
-10.5218159161
 20
-85.1967066945
 10
-10.5938859647
 20
-85.1284797136
 10
-10.6669767538
 20
-85.0636773525
 10
-10.7410814036
 20
-85.0022765294
 10
-10.8156981967
 20
-84.9446929518
 10
-10.8908306083
 20
-84.8909525226
 10
-10.9664751631
 20
-84.8410293389
 10
-11.0421197179
 20
-84.7952614003
 10
-11.1177642728
 20
-84.7536769031
 10
-11.1934088276
 20
-84.716247651
 10
-11.2685412391
 20
-84.6832270546
 10
-11.3431580322
 20
-84.6546450298
 10
-11.417262682
 20
-84.6304716608
 10
-11.4903534711
 20
-84.6108706108
 10
-11.5624235197
 20
-84.5958729061
 10
-11.6334797076
 20
-84.5854475203
 10
-11.7030409565
 20
-84.5796650374
 10
-11.7710971223
 20
-84.5785569628
 10
-11.8376583491
 20
-84.5820917911
 10
-11.9022739914
 20
-84.5902455901
 10
-11.9649308471
 20
-84.6030497027
 10
-12.0256421182
 20
-84.6204727861
 10
-12.0839967658
 20
-84.6423968791
 10
-12.1399787984
 20
-84.6688525243
 10
-12.1671631323
 20
-84.6838127083
  0
LINE
  5
272
100
AcDbEntity
  8
ASSI
100
AcDbLine
 62
7
  6
CONTINUOUS
 10
-12.6331099756
 20
-87.7548773801
 11
-12.6331099756
 21
-85.7137016881
  0
LINE
  5
273
100
AcDbEntity
  8
ASSI
100
AcDbLine
 62
7
  6
CONTINUOUS
 10
-11.2188964132
 20
-86.9383281934
 11
-11.2188964132
 21
-84.8971525015
  0
LINE
  5
274
100
AcDbEntity
  8
ASSI
100
AcDbLine
 62
7
  6
CONTINUOUS
 10
-9.4511294603
 20
-87.5509373581
 11
-9.4511294603
 21
-89.5921130501
  0
LWPOLYLINE
  5
275
100
AcDbEntity
  8
ASSI
100
AcDbPolyline
 62
7
  6
CONTINUOUS
 90
19
 70
0
 10
-45.8458102404
 20
65.1519915983
 10
-46.0362847798
 20
65.5078196498
 10
-46.216322875
 20
65.8744609622
 10
-46.3859245262
 20
66.2519155356
 10
-46.5451842141
 20
66.6404368889
 10
-46.6940074579
 20
67.0397715032
 10
-46.8321108147
 20
67.4491588213
 10
-46.9594738547
 20
67.8686180014
 10
-47.0761170076
 20
68.2981298854
 10
-47.1818181195
 20
68.7368764418
 10
-47.2765563374
 20
69.1848752697
 10
-47.3603525142
 20
69.6421087699
 10
-47.433047055
 20
70.1077061135
 10
-47.4946188027
 20
70.58168324
 10
-47.5450889144
 20
71.0640242098
 10
-47.5843612668
 20
71.5538103752
 10
-47.6124038187
 20
72.0507355204
 10
-47.6292486112
 20
72.5551058611
 10
-47.6348956443
 20
73.0669213975
  0
LWPOLYLINE
  5
276
100
AcDbEntity
  8
ASSI
100
AcDbPolyline
 62
7
  6
CONTINUOUS
 90
19
 70
0
 10
-43.4800203961
 20
60.9171728623
 10
-43.3276407646
 20
60.6325104211
 10
-43.1836102884
 20
60.3391973712
 10
-43.0479289675
 20
60.0372337125
 10
-42.9205212171
 20
59.7264166298
 10
-42.8014626221
 20
59.4069489384
 10
-42.6909799367
 20
59.0794390839
 10
-42.5890895047
 20
58.7438717398
 10
-42.4957749823
 20
58.4002622326
 10
-42.4112140928
 20
58.0492649875
 10
-42.3354235185
 20
57.6908659252
 10
-42.2683865771
 20
57.325079125
 10
-42.2102309444
 20
56.9526012502
 10
-42.1609735463
 20
56.573419549
 10
-42.1205974569
 20
56.1875467731
 10
-42.089179575
 20
55.7957178408
 10
-42.0667455335
 20
55.3981777247
 10
-42.0532696995
 20
54.9946814521
 10
-42.048752073
 20
54.585229023
  0
LWPOLYLINE
  5
277
100
AcDbEntity
  8
ASSI
100
AcDbPolyline
 62
7
  6
CONTINUOUS
 90
19
 70
0
 10
-44.431596678
 20
64.3354424117
 10
-44.6220712174
 20
64.6912704632
 10
-44.8021093127
 20
65.0579117756
 10
-44.9717109638
 20
65.435366349
 10
-45.1309706517
 20
65.8238877023
 10
-45.2797938955
 20
66.2232223165
 10
-45.4178972523
 20
66.6326096346
 10
-45.5452602923
 20
67.0520688148
 10
-45.6619034453
 20
67.4815806988
 10
-45.7676045572
 20
67.9203272552
 10
-45.862342775
 20
68.368326083
 10
-45.9461389518
 20
68.8255595833
 10
-46.0188334926
 20
69.2911569268
 10
-46.0804052403
 20
69.7651340533
 10
-46.1308753521
 20
70.2474750231
 10
-46.1701477044
 20
70.7372611886
 10
-46.1981902563
 20
71.2341863337
 10
-46.2150350488
 20
71.7385566745
 10
-46.220682082
 20
72.2503722109
  0
LWPOLYLINE
  5
278
100
AcDbEntity
  8
ASSI
100
AcDbPolyline
 62
7
  6
CONTINUOUS
 90
19
 70
0
 10
-42.0658068338
 20
60.1006236757
 10
-41.9134272022
 20
59.8159612345
 10
-41.769396726
 20
59.5226481845
 10
-41.6337154051
 20
59.2206845258
 10
-41.5063076548
 20
58.9098674432
 10
-41.3872490597
 20
58.5903997518
 10
-41.2767663743
 20
58.2628898973
 10
-41.1748759423
 20
57.9273225532
 10
-41.08156142
 20
57.583713046
 10
-40.9970005304
 20
57.2327158009
 10
-40.9212099562
 20
56.8743167386
 10
-40.8541730147
 20
56.5085299384
 10
-40.7960173821
 20
56.1360520635
 10
-40.7467599839
 20
55.7568703623
 10
-40.7063838945
 20
55.3709975865
 10
-40.6749660126
 20
54.9791686541
 10
-40.6525319711
 20
54.581628538
 10
-40.6390561371
 20
54.1781322654
 10
-40.6345385106
 20
53.7686798363
  0
LWPOLYLINE
  5
279
100
AcDbEntity
  8
ASSI
100
AcDbPolyline
 62
7
  6
CONTINUOUS
 90
4
 70
0
 10
-11.2097491584
 20
-84.709066097
 10
-11.2116624566
 20
-84.7264441913
 10
-11.2170604522
 20
-84.8104743328
 10
-11.2188964132
 20
-84.8971525015
  0
LWPOLYLINE
  5
27A
100
AcDbEntity
  8
0
100
AcDbPolyline
 62
7
  6
CONTINUOUS
 90
15
 70
0
 10
-26.3863368697
 20
19.2238488527
 10
-26.540389472
 20
19.3312897265
 10
-26.6818108282
 20
19.4566991554
 10
-26.8106009384
 20
19.6000771395
 10
-26.9298420405
 20
19.7667622714
 10
-27.0364518965
 20
19.9514159584
 10
-27.1211837925
 20
20.1380224222
 10
-27.1820836681
 20
20.326756078
 10
-27.2211055836
 20
20.5174425106
 10
-27.2348650071
 20
20.6935426968
 10
-27.2211055836
 20
20.8537538458
 10
-27.1820836681
 20
20.9993787484
 10
-27.1211837925
 20
21.1177867544
 10
-27.0364518965
 20
21.2065469486
 10
-26.985332741
 20
21.2410376165
  0
LINE
  5
27B
100
AcDbEntity
  8
ASSI
100
AcDbLine
 62
7
  6
CONTINUOUS
 10
-43.4800203961
 20
60.9171728623
 11
-45.8458102404
 21
65.1519915983
  0
LINE
  5
27C
100
AcDbEntity
  8
ASSI
100
AcDbLine
 62
7
  6
CONTINUOUS
 10
-42.0658068338
 20
60.1006236757
 11
-44.431596678
 21
64.3354424117
  0
LWPOLYLINE
  5
27D
100
AcDbEntity
  8
ASSI
100
AcDbPolyline
 62
7
  6
CONTINUOUS
 90
53
 70
0
 10
4.8677828588
 20
-98.0637911342
 10
4.8698327442
 20
-98.1675188708
 10
4.875869939
 20
-98.2729160246
 10
4.8858944432
 20
-98.3799825957
 10
4.8999435112
 20
-98.4889470999
 10
4.9179798886
 20
-98.5995810214
 10
4.9398918121
 20
-98.7111988123
 10
4.9657033465
 20
-98.8238065816
 10
4.9953904271
 20
-98.9373982202
 10
5.0287690966
 20
-99.0512698525
 10
5.0658622774
 20
-99.1654232172
 10
5.106647047
 20
-99.2798565756
 10
5.150870681
 20
-99.3938608364
 10
5.1985545324
 20
-99.5074333352
 10
5.249677248
 20
-99.6205767365
 10
5.3039220438
 20
-99.7325899421
 10
5.3613083059
 20
-99.8434659343
 10
5.4218166481
 20
-99.9532117309
 10
5.4850721278
 20
-100.0611472873
 10
5.551091803
 20
-100.1672613629
 10
5.6198586158
 20
-100.2715651983
 10
5.6909464496
 20
-100.3734124702
 10
5.7643697164
 20
-100.4727879248
 10
5.8401140042
 20
-100.569706816
 10
5.9177099601
 20
-100.6635685814
 10
5.9971690819
 20
-100.7543542383
 10
6.0784798719
 20
-100.8420827696
 10
6.1611384842
 20
-100.9262105615
 10
6.245153288
 20
-101.0067152557
 10
6.330515914
 20
-101.0836192105
 10
6.4166974091
 20
-101.1564458873
 10
6.503702858
 20
-101.2251699687
 10
6.5915271759
 20
-101.2898167719
 10
6.6796261556
 20
-101.3499857104
 10
6.7680015026
 20
-101.4056489793
 10
6.8566515115
 20
-101.4568343833
 10
6.9450268585
 20
-101.50322475
 10
7.0331258382
 20
-101.544790305
 10
7.1209501561
 20
-101.5815608227
 10
7.2079556049
 20
-101.6133084527
 10
7.2941371
 20
-101.6400020063
 10
7.3794997261
 20
-101.6616726723
 10
7.4635145298
 20
-101.6781861676
 10
7.5461731421
 20
-101.6895104693
 10
7.6274839321
 20
-101.6956776002
 10
7.7069430539
 20
-101.6966493454
 10
7.7845390099
 20
-101.6923934449
 10
7.8602832977
 20
-101.6829421587
 10
7.9337065645
 20
-101.6683540522
 10
8.0047943982
 20
-101.6485972288
 10
8.073561211
 20
-101.6237035851
 10
8.1395808863
 20
-101.5938273756
 10
8.1873866266
 20
-101.568066821
  0
LWPOLYLINE
  5
27E
100
AcDbEntity
  8
ASSI
100
AcDbPolyline
 62
7
  6
CONTINUOUS
 90
41
 70
0
 10
6.2819964211
 20
-97.2472419475
 10
6.2840463066
 20
-97.3509696841
 10
6.2900835014
 20
-97.4563668379
 10
6.3001080056
 20
-97.563433409
 10
6.3141570736
 20
-97.6723979133
 10
6.332193451
 20
-97.7830318348
 10
6.3541053745
 20
-97.8946496256
 10
6.3799169089
 20
-98.0072573949
 10
6.4096039895
 20
-98.1208490335
 10
6.4429826589
 20
-98.2347206659
 10
6.4800758397
 20
-98.3488740305
 10
6.5208606094
 20
-98.4633073889
 10
6.5650842433
 20
-98.5773116498
 10
6.6127680947
 20
-98.6908841486
 10
6.6638908104
 20
-98.8040275498
 10
6.7181356062
 20
-98.9160407554
 10
6.7755218682
 20
-99.0269167477
 10
6.8360302104
 20
-99.1366625443
 10
6.8992856902
 20
-99.2445981006
 10
6.9653053654
 20
-99.3507121763
 10
7.0340721782
 20
-99.4550160117
 10
7.105160012
 20
-99.5568632835
 10
7.1785832788
 20
-99.6562387382
 10
7.2543275665
 20
-99.7531576293
 10
7.3319235225
 20
-99.8470193947
 10
7.4113826443
 20
-99.9378050517
 10
7.4926934343
 20
-100.0255335829
 10
7.5753520466
 20
-100.1096613748
 10
7.6593668504
 20
-100.190166069
 10
7.7447294764
 20
-100.2670700239
 10
7.8309109715
 20
-100.3398967006
 10
7.9179164203
 20
-100.408620782
 10
8.0057407382
 20
-100.4732675853
 10
8.0938397179
 20
-100.5334365237
 10
8.182215065
 20
-100.5890997926
 10
8.2708650738
 20
-100.6402851967
 10
8.3592404208
 20
-100.6866755633
 10
8.4473394006
 20
-100.7282411184
 10
8.5351637185
 20
-100.765011636
 10
8.6221691673
 20
-100.7967592661
 10
8.6982454645
 20
-100.8203228711
  0
LWPOLYLINE
  5
27F
100
AcDbEntity
  8
ASSI
100
AcDbPolyline
 62
7
  6
CONTINUOUS
 90
53
 70
0
 10
8.7568701553
 20
-98.2681257055
 10
8.7548202698
 20
-98.1643979689
 10
8.748783075
 20
-98.0590008151
 10
8.7387585708
 20
-97.951934244
 10
8.7247095028
 20
-97.8429697397
 10
8.7066731255
 20
-97.7323358182
 10
8.6847612019
 20
-97.6207180274
 10
8.6589496675
 20
-97.5081102581
 10
8.6292625869
 20
-97.3945186195
 10
8.5958839175
 20
-97.2806469871
 10
8.5587907367
 20
-97.1664936225
 10
8.518005967
 20
-97.0520602641
 10
8.4737823331
 20
-96.9380560032
 10
8.4260984817
 20
-96.8244835044
 10
8.374975766
 20
-96.7113401032
 10
8.3207309703
 20
-96.5993268975
 10
8.2633447082
 20
-96.4884509053
 10
8.202836366
 20
-96.3787051087
 10
8.1395808863
 20
-96.2707695524
 10
8.073561211
 20
-96.1646554767
 10
8.0047943982
 20
-96.0603516413
 10
7.9337065645
 20
-95.9585043694
 10
7.8602832977
 20
-95.8591289148
 10
7.7845390099
 20
-95.7622100237
 10
7.7069430539
 20
-95.6683482583
 10
7.6274839321
 20
-95.5775626013
 10
7.5461731421
 20
-95.4898340701
 10
7.4635145298
 20
-95.4057062782
 10
7.3794997261
 20
-95.325201584
 10
7.2941371
 20
-95.2482976291
 10
7.2079556049
 20
-95.1754709524
 10
7.1209501561
 20
-95.106746871
 10
7.0331258382
 20
-95.0421000677
 10
6.9450268585
 20
-94.9819311293
 10
6.8566515115
 20
-94.9262678604
 10
6.7680015026
 20
-94.8750824563
 10
6.6796261556
 20
-94.8286920897
 10
6.5915271759
 20
-94.7871265346
 10
6.503702858
 20
-94.750356017
 10
6.4166974091
 20
-94.7186083869
 10
6.330515914
 20
-94.6919148333
 10
6.245153288
 20
-94.6702441673
 10
6.1611384842
 20
-94.6537306721
 10
6.0784798719
 20
-94.6424063704
 10
5.9971690819
 20
-94.6362392395
 10
5.9177099601
 20
-94.6352674942
 10
5.8401140042
 20
-94.6395233948
 10
5.7643697164
 20
-94.6489746809
 10
5.6909464496
 20
-94.6635627875
 10
5.6198586158
 20
-94.6833196108
 10
5.551091803
 20
-94.7082132545
 10
5.4850721278
 20
-94.738089464
 10
5.4372663874
 20
-94.7638500187
  0
LINE
  5
280
100
AcDbEntity
  8
ASSI
100
AcDbLine
 62
7
  6
CONTINUOUS
 10
4.8677828588
 20
-98.0637911342
 11
4.8677828588
 21
-96.0226154422
  0
LINE
  5
281
100
AcDbEntity
  8
ASSI
100
AcDbLine
 62
7
  6
CONTINUOUS
 10
6.2819964211
 20
-97.2472419475
 11
6.2819964211
 21
-95.2060662555
  0
LINE
  5
282
100
AcDbEntity
  8
ASSI
100
AcDbLine
 62
7
  6
CONTINUOUS
 10
8.7568701553
 20
-98.2681257055
 11
8.7568701553
 21
-100.3093013975
  0
LWPOLYLINE
  5
283
100
AcDbEntity
  8
0
100
AcDbPolyline
 62
7
  6
CONTINUOUS
 90
5
 70
0
 10
-26.3863368697
 20
19.5912604772
 10
-26.2692005216
 20
19.5415851389
 10
-26.1652937872
 20
19.5205736795
 10
-26.0746166663
 20
19.5282260992
 10
-26.0120957862
 20
19.5554209825
  0
LWPOLYLINE
  5
284
100
AcDbEntity
  8
0
100
AcDbPolyline
 62
7
  6
CONTINUOUS
 90
5
 70
0
 10
-26.3863368697
 20
20.8159658924
 10
-26.5034732178
 20
20.8656412308
 10
-26.6073799522
 20
20.8866526901
 10
-26.698057073
 20
20.8790002705
 10
-26.7605779532
 20
20.8518053872
  0
LWPOLYLINE
  5
285
100
AcDbEntity
  8
0
100
AcDbPolyline
 62
7
  6
CONTINUOUS
 90
15
 70
0
 10
-26.3863368697
 20
21.183377517
 10
-26.2322842674
 20
21.0759366432
 10
-26.0908629111
 20
20.9505272142
 10
-25.962072801
 20
20.8071492302
 10
-25.8428316989
 20
20.6404640983
 10
-25.7362218429
 20
20.4558104113
 10
-25.6514899468
 20
20.2692039475
 10
-25.5905900713
 20
20.0804702917
 10
-25.5515681557
 20
19.8897838591
 10
-25.5378087323
 20
19.7136836729
 10
-25.5515681557
 20
19.5534725239
 10
-25.5905900713
 20
19.4078476213
 10
-25.6514899468
 20
19.2894396153
 10
-25.7362218429
 20
19.2006794211
 10
-25.7873409984
 20
19.1661887532
  0
LWPOLYLINE
  5
286
100
AcDbEntity
  8
0
100
AcDbPolyline
 62
7
  6
CONTINUOUS
 90
28
 70
0
 10
17.4189282248
 20
90.4380836953
 10
17.4198506371
 20
90.4017474729
 10
17.4225362723
 20
90.3647521769
 10
17.4269851305
 20
90.3270978072
 10
17.4332241366
 20
90.2886527906
 10
17.4412263656
 20
90.2495487003
 10
17.4509110424
 20
90.2101802565
 10
17.462295207
 20
90.1705447817
 10
17.4753618194
 20
90.1306449533
 10
17.4899789839
 20
90.0908835237
 10
17.506162405
 20
90.0512618946
 10
17.5238963782
 20
90.0117786642
 10
17.5430018954
 20
89.9728323798
 10
17.5634928478
 20
89.9344284795
 10
17.5853553441
 20
89.8965615251
 10
17.6083687025
 20
89.8596137489
 10
17.632544579
 20
89.8235944606
 10
17.6578713175
 20
89.7884943504
 10
17.6840932678
 20
89.754667722
 10
17.7112194966
 20
89.7221274734
 10
17.7392409372
 20
89.6908607065
 10
17.7678747387
 20
89.6611830309
 10
17.7971271032
 20
89.633110541
 10
17.8269918286
 20
89.6066271424
 10
17.8571674577
 20
89.5820001607
 10
17.887553505
 20
89.5593187044
 10
17.9182504559
 20
89.5384936651
 10
17.9492583107
 20
89.5195250428
  0
LINE
  5
287
100
AcDbEntity
  8
ASSI
100
AcDbLine
 62
7
  6
CONTINUOUS
 10
19.292761195
 20
91.3137237772
 11
19.292761195
 21
89.6807832237
  0
LWPOLYLINE
  5
288
100
AcDbEntity
  8
ASSI
100
AcDbPolyline
 62
7
  6
CONTINUOUS
 90
10
 70
0
 10
-25.5649317507
 20
19.2922192406
 10
-25.5212448393
 20
19.284312301
 10
-25.4725506795
 20
19.279019084
 10
-25.4250292738
 20
19.2774901202
 10
-25.3786700551
 20
19.2796914916
 10
-25.3338932692
 20
19.2856032427
 10
-25.2907133044
 20
19.2952591102
 10
-25.2491157724
 20
19.3086253574
 10
-25.2094777545
 20
19.3255808195
 10
-25.1809808281
 20
19.3407151971
  0
LWPOLYLINE
  5
289
100
AcDbEntity
  8
ASSI
100
AcDbPolyline
 62
7
  6
CONTINUOUS
 90
51
 70
0
 10
23.0757824743
 20
-108.3727443432
 10
23.0776184354
 20
-108.4615426336
 10
23.083016431
 20
-108.5518062452
 10
23.0919764611
 20
-108.6435351778
 10
23.1045349064
 20
-108.7369435422
 10
23.1206553863
 20
-108.8318172276
 10
23.1402287587
 20
-108.927513902
 10
23.1632784539
 20
-109.0240391501
 10
23.1897810418
 20
-109.1213873873
 10
23.2195570893
 20
-109.2188995279
 10
23.2526288092
 20
-109.3165766841
 10
23.2889739888
 20
-109.4144177437
 10
23.328346557
 20
-109.5117602844
 10
23.3707670568
 20
-109.6086009234
 10
23.4162149451
 20
-109.7049430435
 10
23.464382522
 20
-109.8001343709
 10
23.5152882424
 20
-109.8941670967
 10
23.5689136515
 20
-109.9870490297
 10
23.6248956841
 20
-110.0781513229
 10
23.6832503317
 20
-110.1674619002
 10
23.7439616029
 20
-110.2549928377
 10
23.8066184585
 20
-110.3401515167
 10
23.8712341008
 20
-110.4229218398
 10
23.9377953277
 20
-110.5033199044
 10
24.0058514934
 20
-110.5808013841
 10
24.0754127423
 20
-110.6553464879
 10
24.1464689302
 20
-110.7269750067
 10
24.2185389788
 20
-110.7952019877
 10
24.2916297679
 20
-110.8600043488
 10
24.3657344177
 20
-110.9214051719
 10
24.4403512108
 20
-110.9789887494
 10
24.5154836223
 20
-111.0327291787
 10
24.5911281772
 20
-111.0826523623
 10
24.666772732
 20
-111.1284203009
 10
24.7424172868
 20
-111.1700047982
 10
24.8180618416
 20
-111.2074340503
 10
24.8931942532
 20
-111.2404546467
 10
24.9678110463
 20
-111.2690366714
 10
25.0419156961
 20
-111.2932100404
 10
25.1150064852
 20
-111.3128110905
 10
25.1870765338
 20
-111.3278087952
 10
25.2581327216
 20
-111.3382341809
 10
25.3276939706
 20
-111.3440166638
 10
25.3957501363
 20
-111.3451247384
 10
25.4623113631
 20
-111.3415899102
 10
25.5269270055
 20
-111.3334361112
 10
25.5895838611
 20
-111.3206319985
 10
25.6502951323
 20
-111.3032089151
 10
25.7086497798
 20
-111.2812848221
 10
25.7646318125
 20
-111.254829177
 10
25.7918161463
 20
-111.2398689929
  0
LWPOLYLINE
  5
28A
100
AcDbEntity
  8
ASSI
100
AcDbPolyline
 62
7
  6
CONTINUOUS
 90
37
 70
0
 10
24.4899960367
 20
-107.5561951565
 10
24.4918319978
 20
-107.644993447
 10
24.4972299934
 20
-107.7352570585
 10
24.5061900235
 20
-107.8269859912
 10
24.5187484688
 20
-107.9203943555
 10
24.5348689486
 20
-108.0152680409
 10
24.554442321
 20
-108.1109647154
 10
24.5774920163
 20
-108.2074899635
 10
24.6039946042
 20
-108.3048382007
 10
24.6337706517
 20
-108.4023503412
 10
24.6668423716
 20
-108.5000274974
 10
24.7031875512
 20
-108.597868557
 10
24.7425601194
 20
-108.6952110977
 10
24.7849806191
 20
-108.7920517367
 10
24.8304285074
 20
-108.8883938569
 10
24.8785960843
 20
-108.9835851843
 10
24.9295018048
 20
-109.07761791
 10
24.9831272139
 20
-109.170499843
 10
25.0391092465
 20
-109.2616021362
 10
25.0974638941
 20
-109.3509127135
 10
25.1581751652
 20
-109.438443651
 10
25.2208320209
 20
-109.5236023301
 10
25.2854476632
 20
-109.6063726531
 10
25.35200889
 20
-109.6867707177
 10
25.4200650558
 20
-109.7642521974
 10
25.4896263047
 20
-109.8387973012
 10
25.5606824926
 20
-109.9104258201
 10
25.6327525412
 20
-109.978652801
 10
25.7058433302
 20
-110.0434551621
 10
25.7799479801
 20
-110.1048559852
 10
25.8545647731
 20
-110.1624395628
 10
25.9296971847
 20
-110.216179992
 10
26.0053417395
 20
-110.2661031757
 10
26.0809862944
 20
-110.3118711143
 10
26.1566308492
 20
-110.3534556115
 10
26.232275404
 20
-110.3908848636
 10
26.2486157348
 20
-110.3980664176
  0
LWPOLYLINE
  5
28B
100
AcDbEntity
  8
ASSI
100
AcDbPolyline
 62
7
  6
CONTINUOUS
 90
51
 70
0
 10
26.2577629897
 20
-108.1688043211
 10
26.2559270286
 20
-108.0800060307
 10
26.250529033
 20
-107.9897424191
 10
26.2415690029
 20
-107.8980134865
 10
26.2290105575
 20
-107.8046051221
 10
26.2128900777
 20
-107.7097314367
 10
26.1933167053
 20
-107.6140347623
 10
26.17026701
 20
-107.5175095142
 10
26.1437644222
 20
-107.420161277
 10
26.1139883747
 20
-107.3226491364
 10
26.0809166547
 20
-107.2249719802
 10
26.0445714751
 20
-107.1271309207
 10
26.005198907
 20
-107.0297883799
 10
25.9627784072
 20
-106.9329477409
 10
25.9173305189
 20
-106.8366056208
 10
25.869162942
 20
-106.7414142934
 10
25.8182572215
 20
-106.6473815676
 10
25.7646318125
 20
-106.5544996346
 10
25.7086497798
 20
-106.4633973414
 10
25.6502951323
 20
-106.3740867641
 10
25.5895838611
 20
-106.2865558266
 10
25.5269270055
 20
-106.2013971476
 10
25.4623113631
 20
-106.1186268245
 10
25.3957501363
 20
-106.0382287599
 10
25.3276939706
 20
-105.9607472802
 10
25.2581327216
 20
-105.8862021765
 10
25.1870765338
 20
-105.8145736576
 10
25.1150064852
 20
-105.7463466766
 10
25.0419156961
 20
-105.6815443155
 10
24.9678110463
 20
-105.6201434924
 10
24.8931942532
 20
-105.5625599149
 10
24.8180618416
 20
-105.5088194856
 10
24.7424172868
 20
-105.458896302
 10
24.666772732
 20
-105.4131283634
 10
24.5911281772
 20
-105.3715438661
 10
24.5154836223
 20
-105.334114614
 10
24.4403512108
 20
-105.3010940176
 10
24.3657344177
 20
-105.2725119929
 10
24.2916297679
 20
-105.2483386239
 10
24.2185389788
 20
-105.2287375738
 10
24.1464689302
 20
-105.2137398691
 10
24.0754127423
 20
-105.2033144834
 10
24.0058514934
 20
-105.1975320005
 10
23.9377953277
 20
-105.1964239259
 10
23.8712341008
 20
-105.1999587541
 10
23.8066184585
 20
-105.2081125531
 10
23.7439616029
 20
-105.2209166658
 10
23.6832503317
 20
-105.2383397492
 10
23.6248956841
 20
-105.2602638422
 10
23.5689136515
 20
-105.2867194873
 10
23.5417293177
 20
-105.3016796714
  0
LINE
  5
28C
100
AcDbEntity
  8
ASSI
100
AcDbLine
 62
7
  6
CONTINUOUS
 10
23.0757824743
 20
-108.3727443432
 11
23.0757824743
 21
-106.3315686512
  0
LINE
  5
28D
100
AcDbEntity
  8
ASSI
100
AcDbLine
 62
7
  6
CONTINUOUS
 10
24.4899960367
 20
-107.5561951565
 11
24.4899960367
 21
-105.5150194645
  0
LINE
  5
28E
100
AcDbEntity
  8
ASSI
100
AcDbLine
 62
7
  6
CONTINUOUS
 10
26.2577629897
 20
-108.1688043211
 11
26.2577629897
 21
-110.2099800131
  0
LINE
  5
28F
100
AcDbEntity
  8
ASSI
100
AcDbLine
 62
7
  6
CONTINUOUS
 10
29.439743505
 20
28.5649907248
 11
29.439743505
 21
77.57630954
  0
LWPOLYLINE
  5
290
100
AcDbEntity
  8
ASSI
100
AcDbPolyline
 62
7
  6
CONTINUOUS
 90
7
 70
0
 10
6.3406211119
 20
-94.6950447818
 10
6.332193451
 20
-94.72824264
 10
6.3141570736
 20
-94.8180486051
 10
6.3001080056
 20
-94.9107895978
 10
6.2900835014
 20
-95.0062801227
 10
6.2840463066
 20
-95.1047056753
 10
6.2819964211
 20
-95.2060662555
  0
LINE
  5
291
100
AcDbEntity
  8
ASSI
100
AcDbLine
 62
253
  6
CONTINUOUS
 10
-42.048752073
 20
54.585229023
 11
-40.6345385106
 21
53.7686798363
  0
LINE
  5
292
100
AcDbEntity
  8
ASSI
100
AcDbLine
 62
253
  6
CONTINUOUS
 10
36.4401006387
 20
9.2667491636
 11
35.0258870764
 21
10.0832983502
  0
LWPOLYLINE
  5
293
100
AcDbEntity
  8
0
100
AcDbPolyline
 62
7
  6
CONTINUOUS
 90
22
 70
0
 10
36.4401006387
 20
-135.5630234327
 10
36.4426017786
 20
-135.71457742
 10
36.4500120103
 20
-135.8626582897
 10
36.4623313339
 20
-136.0072660419
 10
36.4795906816
 20
-136.1485930291
 10
36.5017591212
 20
-136.2864468988
 10
36.5287438553
 20
-136.4202505931
 10
36.5605650731
 20
-136.5499871342
 10
36.5972025854
 20
-136.6756735
 10
36.6385030271
 20
-136.7967835659
 10
36.6844859447
 20
-136.9132981486
 10
36.7351317916
 20
-137.0252364315
 10
36.790228564
 20
-137.1321298396
 10
36.8497949194
 20
-137.2339572256
 10
36.9138122002
 20
-137.3307397367
 10
36.9820124293
 20
-137.4220722404
 10
37.0544131411
 20
-137.507931891
 10
37.1309968013
 20
-137.5883415342
 10
37.2114428297
 20
-137.6629645743
 10
37.2957674169
 20
-137.7317767547
 10
37.3839543724
 20
-137.794802332
 10
37.475513744
 20
-137.8517077384
  0
LINE
  5
294
100
AcDbEntity
  8
ASSI
100
AcDbLine
 62
7
  6
CONTINUOUS
 10
30.8539570674
 20
27.7484415381
 11
30.8539570674
 21
76.7597603533
  0
LINE
  5
295
100
AcDbEntity
  8
0
100
AcDbLine
 62
7
  6
CONTINUOUS
 10
35.0258870764
 20
-134.746474246
 11
35.0258870764
 21
10.0832983502
  0
LINE
  5
296
100
AcDbEntity
  8
0
100
AcDbLine
 62
7
  6
CONTINUOUS
 10
36.4401006387
 20
-135.5630234327
 11
36.4401006387
 21
9.2667491636
  0
LWPOLYLINE
  5
297
100
AcDbEntity
  8
ASSI
100
AcDbPolyline
 62
7
  6
CONTINUOUS
 90
4
 70
0
 10
24.4991432915
 20
-105.32693306
 10
24.4972299934
 20
-105.3443111543
 10
24.4918319978
 20
-105.4283412959
 10
24.4899960367
 20
-105.5150194645
  0
LINE
  5
298
100
AcDbEntity
  8
0
100
AcDbLine
 62
253
  6
CONTINUOUS
 10
-21.4719447404
 20
-54.5384898141
 11
-20.0577311781
 21
-53.7219406275
  0
LINE
  5
299
100
AcDbEntity
  8
0
100
AcDbLine
 62
253
  6
CONTINUOUS
 10
-20.9466654173
 20
-55.6307946706
 11
-19.5324518549
 21
-54.8142454839
  0
LINE
  5
29A
100
AcDbEntity
  8
ASSI
100
AcDbLine
 62
253
  6
CONTINUOUS
 10
-43.4800203961
 20
60.9171728623
 11
-42.0658068338
 21
60.1006236757
  0
LINE
  5
29B
100
AcDbEntity
  8
ASSI
100
AcDbLine
 62
253
  6
CONTINUOUS
 10
35.0088323156
 20
15.5986930029
 11
33.5946187532
 21
16.4152421896
  0
LINE
  5
29C
100
AcDbEntity
  8
ASSI
100
AcDbLine
 62
253
  6
CONTINUOUS
 10
-45.8458102404
 20
65.1519915983
 11
-44.431596678
 21
64.3354424117
  0
LINE
  5
29D
100
AcDbEntity
  8
ASSI
100
AcDbLine
 62
253
  6
CONTINUOUS
 10
32.6430424713
 20
19.8335117389
 11
31.228828909
 21
20.6500609256
  0
LINE
  5
29E
100
AcDbEntity
  8
ASSI
100
AcDbLine
 62
253
  6
CONTINUOUS
 10
-47.6348956443
 20
73.0669213975
 11
-46.220682082
 21
72.2503722109
  0
LINE
  5
29F
100
AcDbEntity
  8
ASSI
100
AcDbLine
 62
253
  6
CONTINUOUS
 10
30.8539570674
 20
27.7484415381
 11
29.439743505
 21
28.5649907248
  0
LWPOLYLINE
  5
2A0
100
AcDbEntity
  8
0
100
AcDbPolyline
 62
7
  6
CONTINUOUS
 90
5
 70
0
 10
-26.7404355085
 20
113.8518662499
 10
-26.698057073
 20
113.7822746077
 10
-26.6073799522
 20
113.6699105218
 10
-26.5034732178
 20
113.5709330887
 10
-26.3863368697
 20
113.4853423084
  0
LINE
  5
2A1
100
AcDbEntity
  8
ASSI
100
AcDbLine
 62
7
  6
CONTINUOUS
 10
33.5946187532
 20
16.4152421896
 11
31.228828909
 21
20.6500609256
  0
LINE
  5
2A2
100
AcDbEntity
  8
ASSI
100
AcDbLine
 62
7
  6
CONTINUOUS
 10
35.0088323156
 20
15.5986930029
 11
32.6430424713
 21
19.8335117389
  0
LWPOLYLINE
  5
2A3
100
AcDbEntity
  8
ASSI
100
AcDbPolyline
 62
7
  6
CONTINUOUS
 90
19
 70
0
 10
31.228828909
 20
20.6500609256
 10
31.0383543695
 20
21.0058889771
 10
30.8583162743
 20
21.3725302895
 10
30.6887146232
 20
21.7499848629
 10
30.5294549352
 20
22.1385062162
 10
30.3806316914
 20
22.5378408305
 10
30.2425283347
 20
22.9472281486
 10
30.1151652947
 20
23.3666873287
 10
29.9985221417
 20
23.7961992127
 10
29.8928210298
 20
24.2349457691
 10
29.7980828119
 20
24.682944597
 10
29.7142866352
 20
25.1401780972
 10
29.6415920943
 20
25.6057754408
 10
29.5800203466
 20
26.0797525673
 10
29.5295502349
 20
26.5620935371
 10
29.4902778825
 20
27.0518797025
 10
29.4622353307
 20
27.5488048477
 10
29.4453905381
 20
28.0531751884
 10
29.439743505
 20
28.5649907248
  0
LWPOLYLINE
  5
2A4
100
AcDbEntity
  8
ASSI
100
AcDbPolyline
 62
7
  6
CONTINUOUS
 90
19
 70
0
 10
33.5946187532
 20
16.4152421896
 10
33.7469983847
 20
16.1305797484
 10
33.8910288609
 20
15.8372666985
 10
34.0267101818
 20
15.5353030398
 10
34.1541179322
 20
15.2244859571
 10
34.2731765272
 20
14.9050182657
 10
34.3836592126
 20
14.5775084112
 10
34.4855496446
 20
14.2419410671
 10
34.578864167
 20
13.8983315599
 10
34.6634250565
 20
13.5473343148
 10
34.7392156308
 20
13.1889352525
 10
34.8062525722
 20
12.8231484523
 10
34.8644082049
 20
12.4506705774
 10
34.9136656031
 20
12.0714888763
 10
34.9540416924
 20
11.6856161004
 10
34.9854595743
 20
11.2937871681
 10
35.0078936158
 20
10.8962470519
 10
35.0213694499
 20
10.4927507793
 10
35.0258870764
 20
10.0832983502
  0
LWPOLYLINE
  5
2A5
100
AcDbEntity
  8
ASSI
100
AcDbPolyline
 62
7
  6
CONTINUOUS
 90
19
 70
0
 10
32.6430424713
 20
19.8335117389
 10
32.4525679319
 20
20.1893397904
 10
32.2725298367
 20
20.5559811029
 10
32.1029281855
 20
20.9334356762
 10
31.9436684976
 20
21.3219570295
 10
31.7948452538
 20
21.7212916438
 10
31.6567418971
 20
22.1306789619
 10
31.529378857
 20
22.5501381421
 10
31.4127357041
 20
22.9796500261
 10
31.3070345922
 20
23.4183965824
 10
31.2122963743
 20
23.8663954103
 10
31.1285001975
 20
24.3236289106
 10
31.0558056567
 20
24.7892262541
 10
30.994233909
 20
25.2632033806
 10
30.9437637973
 20
25.7455443504
 10
30.9044914449
 20
26.2353305159
 10
30.876448893
 20
26.732255661
 10
30.8596041005
 20
27.2366260018
 10
30.8539570674
 20
27.7484415381
  0
LWPOLYLINE
  5
2A6
100
AcDbEntity
  8
ASSI
100
AcDbPolyline
 62
7
  6
CONTINUOUS
 90
19
 70
0
 10
35.0088323156
 20
15.5986930029
 10
35.1612119471
 20
15.3140305617
 10
35.3052424233
 20
15.0207175118
 10
35.4409237442
 20
14.7187538531
 10
35.5683314946
 20
14.4079367705
 10
35.6873900896
 20
14.088469079
 10
35.797872775
 20
13.7609592246
 10
35.899763207
 20
13.4253918804
 10
35.9930777294
 20
13.0817823732
 10
36.0776386189
 20
12.7307851281
 10
36.1534291932
 20
12.3723860658
 10
36.2204661346
 20
12.0065992656
 10
36.2786217673
 20
11.6341213908
 10
36.3278791654
 20
11.2549396896
 10
36.3682552548
 20
10.8690669138
 10
36.3996731367
 20
10.4772379814
 10
36.4221071782
 20
10.0796978653
 10
36.4355830122
 20
9.6762015927
 10
36.4401006387
 20
9.2667491636
  0
LINE
  5
2A7
100
AcDbEntity
  8
0
100
AcDbLine
 62
253
  6
CONTINUOUS
 10
46.7638596441
 20
85.9459387032
 11
46.7638596441
 21
-133.6845657541
  0
LINE
  5
2A8
100
AcDbEntity
  8
0
100
AcDbLine
 62
7
  6
CONTINUOUS
 10
47.6425393005
 20
87.1707624832
 11
47.6425393005
 21
-132.4597419741
  0
LWPOLYLINE
  5
2A9
100
AcDbEntity
  8
0
100
AcDbPolyline
 62
7
  6
CONTINUOUS
 90
4
 70
0
 10
-15.4868284846
 20
-78.5702378946
 10
-15.5549574254
 20
-78.6302538249
 10
-15.5789745417
 20
-78.6479558384
 10
-15.5979092834
 20
-78.6597577127
  0
LWPOLYLINE
  5
2AA
100
AcDbEntity
  8
0
100
AcDbPolyline
 62
7
  6
CONTINUOUS
 90
13
 70
0
 10
-26.7605779532
 20
-73.0422764439
 10
-26.7782300305
 20
-73.0541556615
 10
-26.8451733743
 20
-73.1218936414
 10
-26.8907107537
 20
-73.2100220938
 10
-26.9121167182
 20
-73.3211371747
 10
-26.9121167182
 20
-73.4526427281
 10
-26.8907107537
 20
-73.5884768802
 10
-26.8451733743
 20
-73.7291907569
 10
-26.7782300305
 20
-73.8742332322
 10
-26.698057073
 20
-74.0058890547
 10
-26.6073799522
 20
-74.1182531406
 10
-26.5034732178
 20
-74.2172305737
 10
-26.3863368697
 20
-74.3028213539
  0
LWPOLYLINE
  5
2AB
100
AcDbEntity
  8
0
100
AcDbPolyline
 62
7
  6
CONTINUOUS
 90
13
 70
0
 10
-26.0120957862
 20
-74.3386608487
 10
-25.9944437089
 20
-74.3267816311
 10
-25.927500365
 20
-74.2590436513
 10
-25.8819629857
 20
-74.1709151988
 10
-25.8605570212
 20
-74.059800118
 10
-25.8605570212
 20
-73.9282945646
 10
-25.8819629857
 20
-73.7924604124
 10
-25.927500365
 20
-73.6517465358
 10
-25.9944437089
 20
-73.5067040605
 10
-26.0746166663
 20
-73.375048238
 10
-26.1652937872
 20
-73.2626841521
 10
-26.2692005216
 20
-73.163706719
 10
-26.3863368697
 20
-73.0781159387
  0
LWPOLYLINE
  5
2AC
100
AcDbEntity
  8
ASSI
100
AcDbPolyline
 62
7
  6
CONTINUOUS
 90
11
 70
0
 10
-26.5310327395
 20
-72.2151587685
 10
-26.5401965001
 20
-72.2206017028
 10
-26.5758976731
 20
-72.2447682295
 10
-26.6093157012
 20
-72.2723049018
 10
-26.6404298251
 20
-72.3032423626
 10
-26.6692608041
 20
-72.3375499689
 10
-26.6955472858
 20
-72.3749167227
 10
-26.7192661344
 20
-72.4153704392
 10
-26.7404404855
 20
-72.4588833031
 10
-26.758878394
 20
-72.5050608708
 10
-26.7647236374
 20
-72.5232814584
  0
LWPOLYLINE
  5
2AD
100
AcDbEntity
  8
0
100
AcDbPolyline
 62
7
  6
CONTINUOUS
 90
44
 70
0
 10
-20.1511856349
 20
-59.5058782249
 10
-20.1404018845
 20
-59.4995471225
 10
-20.0817943163
 20
-59.4611236542
 10
-20.0263127328
 20
-59.4176771284
 10
-19.9739352273
 20
-59.3692427394
 10
-19.9250305346
 20
-59.3161615529
 10
-19.879623162
 20
-59.2584007815
 10
-19.8376886022
 20
-59.1959932125
 10
-19.799522068
 20
-59.1293782731
 10
-19.7651501489
 20
-59.058526277
 10
-19.7345462554
 20
-58.9834669106
 10
-19.707925832
 20
-58.9047286605
 10
-19.6853169876
 20
-58.8222855691
 10
-19.6666916133
 20
-58.736163594
 10
-19.6521808266
 20
-58.6469690948
 10
-19.6418136612
 20
-58.5546803918
 10
-19.6355610834
 20
-58.4593191646
 10
-19.6334671094
 20
-58.3615568117
 10
-19.6355610834
 20
-58.2613763901
 10
-19.6418136612
 20
-58.1587948428
 10
-19.6521808266
 20
-58.054534397
 10
-19.6666916133
 20
-57.948583205
 10
-19.6853169876
 20
-57.8409531146
 10
-19.707925832
 20
-57.7324018965
 10
-19.7345462554
 20
-57.6229230487
 10
-19.7651501489
 20
-57.5125230732
 10
-19.799522068
 20
-57.4019792465
 10
-19.8376886022
 20
-57.2912905501
 10
-19.879623162
 20
-57.1804580026
 10
-19.9250305346
 20
-57.0702619355
 10
-19.9739352273
 20
-56.9607068356
 10
-20.0263127328
 20
-56.8517882162
 10
-20.0817943163
 20
-56.7442729484
 10
-20.1404018845
 20
-56.6381709294
 10
-20.2021135308
 20
-56.5334722621
 10
-20.2664948009
 20
-56.4309141257
 10
-20.3335645369
 20
-56.3305116188
 10
-20.4033038968
 20
-56.2322496428
 10
-20.4752219
 20
-56.1368200816
 10
-20.5493339253
 20
-56.0442429158
 10
-20.6256245939
 20
-55.9544981648
 10
-20.7035567891
 20
-55.8682177705
 10
-20.7829514719
 20
-55.7856123804
 10
-20.8639876813
 20
-55.7064713471
  0
LWPOLYLINE
  5
2AE
100
AcDbEntity
  8
0
100
AcDbPolyline
 62
7
  6
CONTINUOUS
 90
44
 70
0
 10
-18.7369720725
 20
-58.6893290383
 10
-18.7261883221
 20
-58.6829979358
 10
-18.667580754
 20
-58.6445744676
 10
-18.6120991704
 20
-58.6011279418
 10
-18.5597216649
 20
-58.5526935528
 10
-18.5108169722
 20
-58.4996123662
 10
-18.4654095996
 20
-58.4418515948
 10
-18.4234750398
 20
-58.3794440258
 10
-18.3853085056
 20
-58.3128290865
 10
-18.3509365865
 20
-58.2419770904
 10
-18.320332693
 20
-58.166917724
 10
-18.2937122696
 20
-58.0881794739
 10
-18.2711034253
 20
-58.0057363825
 10
-18.252478051
 20
-57.9196144074
 10
-18.2379672642
 20
-57.8304199082
 10
-18.2276000988
 20
-57.7381312052
 10
-18.221347521
 20
-57.642769978
 10
-18.219253547
 20
-57.5450076251
 10
-18.221347521
 20
-57.4448272035
 10
-18.2276000988
 20
-57.3422456562
 10
-18.2379672642
 20
-57.2379852104
 10
-18.252478051
 20
-57.1320340184
 10
-18.2711034253
 20
-57.0244039279
 10
-18.2937122696
 20
-56.9158527098
 10
-18.320332693
 20
-56.806373862
 10
-18.3509365865
 20
-56.6959738865
 10
-18.3853085056
 20
-56.5854300598
 10
-18.4234750398
 20
-56.4747413635
 10
-18.4654095996
 20
-56.3639088159
 10
-18.5108169722
 20
-56.2537127488
 10
-18.5597216649
 20
-56.144157649
 10
-18.6120991704
 20
-56.0352390295
 10
-18.667580754
 20
-55.9277237617
 10
-18.7261883221
 20
-55.8216217428
 10
-18.7878999684
 20
-55.7169230754
 10
-18.8522812385
 20
-55.614364939
 10
-18.9193509745
 20
-55.5139624321
 10
-18.9890903344
 20
-55.4157004562
 10
-19.0610083376
 20
-55.320270895
 10
-19.1351203629
 20
-55.2276937292
 10
-19.2114110315
 20
-55.1379489781
 10
-19.2893432267
 20
-55.0516685839
 10
-19.3687379095
 20
-54.9690631938
 10
-19.4497741189
 20
-54.8899221605
  0
LINE
  5
2AF
100
AcDbEntity
  8
0
100
AcDbLine
 62
253
  6
CONTINUOUS
 10
-21.4719447404
 20
-60.0615959241
 11
-20.7053563002
 21
-59.6189773663
  0
LINE
  5
2B0
100
AcDbEntity
  8
ASSI
100
AcDbLine
 62
7
  6
CONTINUOUS
 10
-18.7369600996
 20
-58.6893497779
 11
-20.151173662
 21
-59.5058989646
  0
LINE
  5
2B1
100
AcDbEntity
  8
0
100
AcDbLine
 62
7
  6
CONTINUOUS
 10
-26.9863658618
 20
-72.651254901
 11
-26.1470818169
 21
-72.1666628121
  0
LWPOLYLINE
  5
2B2
100
AcDbEntity
  8
0
100
AcDbPolyline
 62
7
  6
CONTINUOUS
 90
10
 70
0
 10
-21.2648584862
 20
-59.6038653526
 10
-21.2476508178
 20
-59.5945832573
 10
-21.2187540896
 20
-59.5817627794
 10
-21.1884205085
 20
-59.5715471598
 10
-21.1569200895
 20
-59.564027333
 10
-21.124242415
 20
-59.5592273671
 10
-21.0903979025
 20
-59.557123194
 10
-21.0556878197
 20
-59.557733544
 10
-21.0202125892
 20
-59.5610646607
 10
-20.9838717884
 20
-59.5671103005
  0
LWPOLYLINE
  5
2B3
100
AcDbEntity
  8
0
100
AcDbPolyline
 62
7
  6
CONTINUOUS
 90
3
 70
0
 10
-15.4009247686
 20
-78.511230119
 10
-15.4387942519
 20
-78.5348338677
 10
-15.4868284846
 20
-78.5702378946
  0
LWPOLYLINE
  5
2B4
100
AcDbEntity
  8
ASSI
100
AcDbPolyline
 62
7
  6
CONTINUOUS
 90
16
 70
0
 10
-25.1809808281
 20
-74.5533666341
 10
-25.1718170675
 20
-74.5479236999
 10
-25.1361158945
 20
-74.5237571731
 10
-25.1026978664
 20
-74.4962205009
 10
-25.0715837425
 20
-74.4652830401
 10
-25.0427527634
 20
-74.4309754337
 10
-25.0164662818
 20
-74.3936086799
 10
-24.9927474332
 20
-74.3531549635
 10
-24.9715730821
 20
-74.3096420996
 10
-24.9531351735
 20
-74.2634645319
 10
-24.9374585887
 20
-74.2145980317
 10
-24.9245184465
 20
-74.1630668277
 10
-24.9144320492
 20
-74.1093380498
 10
-24.9072384976
 20
-74.0535674079
 10
-24.902898691
 20
-73.9955991921
 10
-24.9014126292
 20
-73.9354334023
  0
LINE
  5
2B5
100
AcDbEntity
  8
0
100
AcDbLine
 62
7
  6
CONTINUOUS
 10
-25.7863078775
 20
-74.7296823917
 11
-24.9472899301
 21
-74.2452439442
  0
LINE
  5
2B6
100
AcDbEntity
  8
0
100
AcDbLine
 62
253
  6
CONTINUOUS
 10
-20.0577311781
 20
-73.8743105781
 11
-21.4719447404
 21
-74.6908597648
  0
LINE
  5
2B7
100
AcDbEntity
  8
0
100
AcDbLine
 62
253
  6
CONTINUOUS
 10
-19.3506243969
 20
-75.0990554482
 11
-20.7648379592
 21
-75.9156046349
  0
LWPOLYLINE
  5
2B8
100
AcDbEntity
  8
0
100
AcDbPolyline
 62
7
  6
CONTINUOUS
 90
6
 70
0
 10
-26.985332741
 20
-72.6530442147
 10
-26.9298420405
 20
-72.6259915851
 10
-26.8106009384
 20
-72.597003089
 10
-26.6818108282
 20
-72.6023486959
 10
-26.540389472
 20
-72.6402491043
 10
-26.3863368697
 20
-72.7107043142
  0
LWPOLYLINE
  5
2B9
100
AcDbEntity
  8
0
100
AcDbPolyline
 62
7
  6
CONTINUOUS
 90
6
 70
0
 10
-25.7873409984
 20
-74.727893078
 10
-25.8428316989
 20
-74.7549457076
 10
-25.962072801
 20
-74.7839342037
 10
-26.0908629111
 20
-74.7785885967
 10
-26.2322842674
 20
-74.7406881883
 10
-26.3863368697
 20
-74.6702329785
  0
LWPOLYLINE
  5
2BA
100
AcDbEntity
  8
0
100
AcDbPolyline
 62
7
  6
CONTINUOUS
 90
25
 70
0
 10
-20.8639876813
 20
99.4228812435
 10
-20.9838717884
 20
99.5327627419
 10
-21.0202125892
 20
99.568682548
 10
-21.0556878197
 20
99.6063173383
 10
-21.0903979025
 20
99.6457893218
 10
-21.124242415
 20
99.6869762896
 10
-21.1569200895
 20
99.7295116149
 10
-21.1884205085
 20
99.773407336
 10
-21.2187540896
 20
99.8186514148
 10
-21.2476508178
 20
99.86484111
 10
-21.2750978648
 20
99.9119848643
 10
-21.3011080589
 20
99.960074235
 10
-21.3254498698
 20
100.0086811538
 10
-21.3481084022
 20
100.0578102412
 10
-21.3690985513
 20
100.1074568766
 10
-21.388233473
 20
100.1571791294
 10
-21.4054966037
 20
100.2069776748
 10
-21.420904507
 20
100.2568518376
 10
-21.4343200291
 20
100.306357662
 10
-21.4457253819
 20
100.3554918594
 10
-21.4551383535
 20
100.4042577184
 10
-21.4624751542
 20
100.4522211486
 10
-21.4677078539
 20
100.4992374533
 10
-21.4708643827
 20
100.5454513293
 10
-21.4719447404
 20
100.5908627765
  0
LWPOLYLINE
  5
2BB
100
AcDbEntity
  8
ASSI
100
AcDbPolyline
 62
7
  6
CONTINUOUS
 90
18
 70
0
 10
-12.1671631323
 20
-84.6838127083
 10
-12.1936042075
 20
-84.699809179
 10
-12.244509928
 20
-84.7350572547
 10
-12.2926775049
 20
-84.7746258717
 10
-12.3381253932
 20
-84.8184859096
 10
-12.3805458929
 20
-84.8663404189
 10
-12.4199184611
 20
-84.9182165048
 10
-12.4562636407
 20
-84.974087062
 10
-12.4893353606
 20
-85.0335738249
 10
-12.5191114081
 20
-85.0967013322
 10
-12.545613996
 20
-85.1634450452
 10
-12.5686636913
 20
-85.233353083
 10
-12.5882370637
 20
-85.3064469177
 10
-12.6043575435
 20
-85.382705077
 10
-12.6169159888
 20
-85.4616112635
 10
-12.6258760189
 20
-85.5429933779
 10
-12.6312740145
 20
-85.6270235195
 10
-12.6331099756
 20
-85.7137016881
  0
LINE
  5
2BC
100
AcDbEntity
  8
0
100
AcDbLine
 62
253
  6
CONTINUOUS
 10
-16.0979332034
 20
-78.6102169509
 11
-14.683719641
 21
-77.7936677642
  0
LINE
  5
2BD
100
AcDbEntity
  8
ASSI
100
AcDbLine
 62
7
  6
CONTINUOUS
 10
-13.9867116865
 20
-77.6946801007
 11
-15.4009252488
 21
-78.5112292873
  0
LINE
  5
2BE
100
AcDbEntity
  8
0
100
AcDbLine
 62
7
  6
CONTINUOUS
 10
-37.0990046047
 20
-93.1020711773
 11
-30.3107795053
 21
-89.1826350813
  0
LINE
  5
2BF
100
AcDbEntity
  8
0
100
AcDbLine
 62
253
  6
CONTINUOUS
 10
-13.2695060787
 20
-79.9167272135
 11
-11.8552925163
 21
-79.1001780268
  0
LINE
  5
2C0
100
AcDbEntity
  8
0
100
AcDbLine
 62
253
  6
CONTINUOUS
 10
-12.7038206537
 20
-80.5699349988
 11
-11.2896070913
 21
-79.7533858122
  0
LINE
  5
2C1
100
AcDbEntity
  8
ASSI
100
AcDbLine
 62
253
  6
CONTINUOUS
 10
-11.2188964132
 20
-84.8971525015
 11
-12.6331099756
 21
-85.7137016881
  0
LWPOLYLINE
  5
2C2
100
AcDbEntity
  8
0
100
AcDbPolyline
 62
7
  6
CONTINUOUS
 90
17
 70
0
 10
-15.5979092834
 20
-78.6597577127
 10
-15.6042991275
 20
-78.6633545551
 10
-15.6310051851
 20
-78.6764785599
 10
-15.6590187121
 20
-78.687299268
 10
-15.6881177015
 20
-78.6957309253
 10
-15.7183107785
 20
-78.7017545486
 10
-15.7495893178
 20
-78.7053891212
 10
-15.7817054374
 20
-78.7066058391
 10
-15.8146657926
 20
-78.7053854901
 10
-15.848463728
 20
-78.7017472864
 10
-15.8828313953
 20
-78.6957200608
 10
-15.9177733214
 20
-78.6872848301
 10
-15.9532849794
 20
-78.6764605774
 10
-15.9890849396
 20
-78.663333085
 10
-16.025079392
 20
-78.6479309467
 10
-16.0613621466
 20
-78.6302255687
 10
-16.0979332034
 20
-78.6102169509
  0
LWPOLYLINE
  5
2C3
100
AcDbEntity
  8
0
100
AcDbPolyline
 62
7
  6
CONTINUOUS
 90
13
 70
0
 10
26.9395783866
 20
83.9358036442
 10
26.9876126193
 20
83.8449308894
 10
27.0382617908
 20
83.7556450621
 10
27.091673906
 20
83.6677180808
 10
27.14770096
 20
83.581378027
 10
27.2058989388
 20
83.4973091451
 10
27.2662850927
 20
83.4155294817
 10
27.3288421714
 20
83.3360209901
 10
27.3930744106
 20
83.2594137745
 10
27.458995121
 20
83.1857308885
 10
27.5265909919
 20
83.1149492786
 10
27.5953263264
 20
83.0476298885
 10
27.6354737211
 20
83.0109605514
  0
LWPOLYLINE
  5
2C4
100
AcDbEntity
  8
0
100
AcDbPolyline
 62
7
  6
CONTINUOUS
 90
3
 70
0
 10
26.8690213594
 20
84.079086702
 10
26.8714494458
 20
84.0744931676
 10
26.9395783866
 20
83.9358036442
  0
LWPOLYLINE
  5
2C5
100
AcDbEntity
  8
0
100
AcDbPolyline
 62
7
  6
CONTINUOUS
 90
8
 70
0
 10
35.0258870764
 20
-87.5149835159
 10
35.012886487
 20
-87.5374732541
 10
34.9937515653
 20
-87.565098979
 10
34.9727614162
 20
-87.5905067163
 10
34.9501028839
 20
-87.6134702986
 10
34.925761073
 20
-87.6339679042
 10
34.8997508789
 20
-87.6520213548
 10
34.8895115003
 20
-87.6581878518
  0
LWPOLYLINE
  5
2C6
100
AcDbEntity
  8
ASSI
100
AcDbPolyline
 62
7
  6
CONTINUOUS
 90
18
 70
0
 10
-9.9170763036
 20
-90.6220020299
 10
-9.8906352284
 20
-90.6060055592
 10
-9.8397295079
 20
-90.5707574835
 10
-9.791561931
 20
-90.5311888665
 10
-9.7461140427
 20
-90.4873288286
 10
-9.703693543
 20
-90.4394743193
 10
-9.6643209748
 20
-90.3875982334
 10
-9.6279757952
 20
-90.3317276762
 10
-9.5949040753
 20
-90.2722409133
 10
-9.5651280277
 20
-90.209113406
 10
-9.5386254399
 20
-90.142369693
 10
-9.5155757446
 20
-90.0724616552
 10
-9.4960023722
 20
-89.9993678205
 10
-9.4798818924
 20
-89.9231096612
 10
-9.4673234471
 20
-89.8442034747
 10
-9.4583634169
 20
-89.7628213603
 10
-9.4529654213
 20
-89.6787912187
 10
-9.4511294603
 20
-89.5921130501
  0
LINE
  5
2C7
100
AcDbEntity
  8
ASSI
100
AcDbLine
 62
253
  6
CONTINUOUS
 10
-11.2188964132
 20
-86.9383281934
 11
-12.6331099756
 21
-87.7548773801
  0
LWPOLYLINE
  5
2C8
100
AcDbEntity
  8
0
100
AcDbPolyline
 62
7
  6
CONTINUOUS
 90
8
 70
0
 10
-26.3863368697
 20
113.1179306839
 10
-26.540389472
 20
113.2253715577
 10
-26.6818108282
 20
113.3507809866
 10
-26.8106009384
 20
113.4941589707
 10
-26.9298420405
 20
113.6608441025
 10
-27.0364518965
 20
113.8454977895
 10
-27.1211837925
 20
114.0321042534
 10
-27.1529558296
 20
114.1305683744
  0
LWPOLYLINE
  5
2C9
100
AcDbEntity
  8
0
100
AcDbPolyline
 62
7
  6
CONTINUOUS
 90
8
 70
0
 10
35.0258870764
 20
-107.6672453942
 10
35.0213529617
 20
-107.6758547531
 10
35.001863409
 20
-107.7063639456
 10
34.9802855143
 20
-107.7342751725
 10
34.9566402166
 20
-107.7596144826
 10
34.9311661937
 20
-107.7821260988
 10
34.9038449239
 20
-107.8017813816
 10
34.8895042865
 20
-107.8105453058
  0
LWPOLYLINE
  5
2CA
100
AcDbEntity
  8
ASSI
100
AcDbPolyline
 62
7
  6
CONTINUOUS
 90
19
 70
0
 10
5.4372663874
 20
-94.7638500187
 10
5.4218166481
 20
-94.772979178
 10
5.3613083059
 20
-94.8128514577
 10
5.3039220438
 20
-94.8574592329
 10
5.249677248
 20
-94.9068319081
 10
5.1985545324
 20
-94.9609400787
 10
5.150870681
 20
-95.0194484612
 10
5.106647047
 20
-95.082384378
 10
5.0658622774
 20
-95.1497205067
 10
5.0287690966
 20
-95.221039596
 10
4.9953904271
 20
-95.2963663775
 10
4.9657033465
 20
-95.3756761196
 10
4.9398918121
 20
-95.4584773759
 10
4.9179798886
 20
-95.5447918267
 10
4.8999435112
 20
-95.6345977917
 10
4.8858944432
 20
-95.7273387845
 10
4.875869939
 20
-95.8228293093
 10
4.8698327442
 20
-95.9212548619
 10
4.8677828588
 20
-96.0226154422
  0
LINE
  5
2CB
100
AcDbEntity
  8
ASSI
100
AcDbLine
 62
253
  6
CONTINUOUS
 10
6.2819964211
 20
-95.2060662555
 11
4.8677828588
 21
-96.0226154422
  0
LINE
  5
2CC
100
AcDbEntity
  8
ASSI
100
AcDbLine
 62
253
  6
CONTINUOUS
 10
6.2819964211
 20
-97.2472419475
 11
4.8677828588
 21
-98.0637911342
  0
LWPOLYLINE
  5
2CD
100
AcDbEntity
  8
0
100
AcDbPolyline
 62
7
  6
CONTINUOUS
 90
12
 70
0
 10
-20.9838717884
 20
95.5622422902
 10
-20.8639876813
 20
95.5336846266
 10
-20.7829514719
 20
95.5192470766
 10
-20.7035567891
 20
95.5101694771
 10
-20.6256245939
 20
95.5064557258
 10
-20.5493339253
 20
95.508101925
 10
-20.4752219
 20
95.5150963817
 10
-20.4033038968
 20
95.5274768355
 10
-20.3335645369
 20
95.5452055467
 10
-20.2664948009
 20
95.5681576036
 10
-20.2021135308
 20
95.5963698631
 10
-20.1511856349
 20
95.6234743657
  0
LINE
  5
2CE
100
AcDbEntity
  8
ASSI
100
AcDbLine
 62
253
  6
CONTINUOUS
 10
-47.6348956443
 20
122.0782402127
 11
-46.220682082
 21
121.261691026
  0
LINE
  5
2CF
100
AcDbEntity
  8
ASSI
100
AcDbLine
 62
253
  6
CONTINUOUS
 10
30.8539570674
 20
76.7597603533
 11
29.439743505
 21
77.57630954
  0
LINE
  5
2D0
100
AcDbEntity
  8
0
100
AcDbLine
 62
7
  6
CONTINUOUS
 10
17.9492583107
 20
89.5195250428
 11
26.3284736678
 21
84.6814711118
  0
LWPOLYLINE
  5
2D1
100
AcDbEntity
  8
0
100
AcDbPolyline
 62
7
  6
CONTINUOUS
 90
4
 70
0
 10
26.3284736678
 20
84.6814711118
 10
26.3650447246
 20
84.65924839
 10
26.4013274792
 20
84.6350553524
 10
26.4293275633
 20
84.6147028803
  0
LWPOLYLINE
  5
2D2
100
AcDbEntity
  8
0
100
AcDbPolyline
 62
7
  6
CONTINUOUS
 90
4
 70
0
 10
26.9395783866
 20
-103.0667134942
 10
26.8714494458
 20
-103.1267294246
 10
26.8474323295
 20
-103.144431438
 10
26.8284975878
 20
-103.1562333124
  0
LWPOLYLINE
  5
2D3
100
AcDbEntity
  8
ASSI
100
AcDbPolyline
 62
7
  6
CONTINUOUS
 90
19
 70
0
 10
8.1873866266
 20
-101.568066821
 10
8.202836366
 20
-101.5589376617
 10
8.2633447082
 20
-101.519065382
 10
8.3207309703
 20
-101.4744576067
 10
8.374975766
 20
-101.4250849316
 10
8.4260984817
 20
-101.370976761
 10
8.4737823331
 20
-101.3124683785
 10
8.518005967
 20
-101.2495324616
 10
8.5587907367
 20
-101.1821963329
 10
8.5958839175
 20
-101.1108772437
 10
8.6292625869
 20
-101.0355504622
 10
8.6589496675
 20
-100.9562407201
 10
8.6847612019
 20
-100.8734394637
 10
8.7066731255
 20
-100.787125013
 10
8.7247095028
 20
-100.6973190479
 10
8.7387585708
 20
-100.6045780552
 10
8.748783075
 20
-100.5090875303
 10
8.7548202698
 20
-100.4106619777
 10
8.7568701553
 20
-100.3093013975
  0
LWPOLYLINE
  5
2D4
100
AcDbEntity
  8
0
100
AcDbPolyline
 62
7
  6
CONTINUOUS
 90
44
 70
0
 10
33.775838649
 20
-87.7561749795
 10
33.7650548986
 20
-87.7625060819
 10
33.7064473304
 20
-87.8009295502
 10
33.6509657468
 20
-87.844376076
 10
33.5985882413
 20
-87.892810465
 10
33.5496835486
 20
-87.9458916515
 10
33.504276176
 20
-88.0036524229
 10
33.4623416162
 20
-88.0660599919
 10
33.424175082
 20
-88.1326749313
 10
33.3898031629
 20
-88.2035269274
 10
33.3591992694
 20
-88.2785862938
 10
33.332578846
 20
-88.3573245439
 10
33.3099700017
 20
-88.4397676353
 10
33.2913446274
 20
-88.5258896104
 10
33.2768338407
 20
-88.6150841096
 10
33.2664666753
 20
-88.7073728126
 10
33.2602140974
 20
-88.8027340398
 10
33.2581201234
 20
-88.9004963927
 10
33.2602140974
 20
-89.0006768143
 10
33.2664666753
 20
-89.1032583616
 10
33.2768338407
 20
-89.2075188074
 10
33.2913446274
 20
-89.3134699994
 10
33.3099700017
 20
-89.4211000898
 10
33.332578846
 20
-89.5296513079
 10
33.3591992694
 20
-89.6391301557
 10
33.3898031629
 20
-89.7495301312
 10
33.424175082
 20
-89.8600739579
 10
33.4623416162
 20
-89.9707626543
 10
33.504276176
 20
-90.0815952018
 10
33.5496835486
 20
-90.1917912689
 10
33.5985882413
 20
-90.3013463688
 10
33.6509657468
 20
-90.4102649882
 10
33.7064473304
 20
-90.517780256
 10
33.7650548986
 20
-90.623882275
 10
33.8267665448
 20
-90.7285809423
 10
33.8911478149
 20
-90.8311390787
 10
33.958217551
 20
-90.9315415856
 10
34.0279569109
 20
-91.0298035616
 10
34.0998749141
 20
-91.1252331228
 10
34.1739869393
 20
-91.2178102886
 10
34.2502776079
 20
-91.3075550396
 10
34.3282098031
 20
-91.3938354339
 10
34.4076044859
 20
-91.476440824
 10
34.4886406953
 20
-91.5555818573
  0
LINE
  5
2D5
100
AcDbEntity
  8
ASSI
100
AcDbLine
 62
7
  6
CONTINUOUS
 10
35.0258870764
 20
-87.0343850316
 11
33.775826676
 21
-87.7561542398
  0
LINE
  5
2D6
100
AcDbEntity
  8
0
100
AcDbLine
 62
253
  6
CONTINUOUS
 10
34.5713184313
 20
-87.686182741
 11
35.0258870764
 21
-87.4237205024
  0
LWPOLYLINE
  5
2D7
100
AcDbEntity
  8
0
100
AcDbPolyline
 62
7
  6
CONTINUOUS
 90
10
 70
0
 10
34.8895115003
 20
-87.6581878518
 10
34.8723038319
 20
-87.6674699471
 10
34.8434071037
 20
-87.680290425
 10
34.8130735226
 20
-87.6905060446
 10
34.7815731035
 20
-87.6980258714
 10
34.748895429
 20
-87.7028258373
 10
34.7150509166
 20
-87.7049300104
 10
34.6803408338
 20
-87.7043196604
 10
34.6448656033
 20
-87.7009885437
 10
34.6085248025
 20
-87.6949429039
  0
LWPOLYLINE
  5
2D8
100
AcDbEntity
  8
ASSI
100
AcDbPolyline
 62
7
  6
CONTINUOUS
 90
52
 70
0
 10
19.292761195
 20
89.6807832237
 10
19.5852996516
 20
89.5669711038
 10
19.8791591608
 20
89.4452184723
 10
20.1741062371
 20
89.3156424256
 10
20.4700124348
 20
89.1783878581
 10
20.7665356355
 20
89.0335691161
 10
21.0631217125
 20
88.8812808844
 10
21.3594851224
 20
88.721731901
 10
21.6554424071
 20
88.5550504364
 10
21.9505929349
 20
88.3812268709
 10
22.2448134633
 20
88.2003902543
 10
22.537756246
 20
88.0127783368
 10
22.828688819
 20
87.8185660708
 10
23.1173476328
 20
87.6180169782
 10
23.4035472485
 20
87.4113173252
 10
23.6866831099
 20
87.1985553033
 10
23.966518684
 20
86.9800034
 10
24.2428621167
 20
86.7558835316
 10
24.5151813227
 20
86.5262186925
 10
24.783381072
 20
86.291175311
 10
25.0471424585
 20
86.0511061387
 10
25.3056164562
 20
85.8063351106
 10
25.5586194155
 20
85.5571510526
 10
25.8059806025
 20
85.3038439548
 10
26.0469087348
 20
85.0467713387
 10
26.281116965
 20
84.7863900231
 10
26.5086133754
 20
84.5228582031
 10
26.7290641625
 20
84.2560915861
 10
26.9424608951
 20
83.9862071874
 10
27.1485381325
 20
83.7136838389
 10
27.3465972633
 20
83.4389820229
 10
27.5364100494
 20
83.1625777701
 10
27.7180326792
 20
82.8846038417
 10
27.8912144733
 20
82.6050069564
 10
28.0559386724
 20
82.3239302067
 10
28.212055912
 20
82.0418149636
 10
28.3591313641
 20
81.7590498895
 10
28.4970165845
 20
81.476093325
 10
28.6257850326
 20
81.1930511051
 10
28.7453407358
 20
80.9097784693
 10
28.8556754433
 20
80.6264071069
 10
28.956707585
 20
80.3433484965
 10
29.0482264899
 20
80.0608725068
 10
29.1301614301
 20
79.7793645043
 10
29.2025597352
 20
79.4989515329
 10
29.2653816763
 20
79.2195145779
 10
29.3186123811
 20
78.9411956167
 10
29.3622252672
 20
78.6643573689
 10
29.3961500222
 20
78.3892134512
 10
29.4203639569
 20
78.1159947112
 10
29.434891699
 20
77.8449491458
 10
29.439743505
 20
77.57630954
  0
LWPOLYLINE
  5
2D9
100
AcDbEntity
  8
ASSI
100
AcDbPolyline
 62
7
  6
CONTINUOUS
 90
28
 70
0
 10
19.292761195
 20
89.6807832237
 10
16.7090611841
 20
90.736605147
 10
14.1502778164
 20
91.8114107856
 10
11.6164110917
 20
92.9052001395
 10
9.1070387963
 20
94.0181655746
 10
6.6225831439
 20
95.150114725
 10
4.1643107768
 20
96.3004704926
 10
1.732235046
 20
97.4692422633
 10
-0.6736573997
 20
98.6564206513
 10
-3.0521399717
 20
99.8614004011
 10
-5.4031986935
 20
101.0841905901
 10
-7.7268475417
 20
102.3247821409
 10
-10.021901858
 20
103.5825425669
 10
-12.2883470614
 20
104.8574806226
 10
-14.5261977329
 20
106.1495875535
 10
-16.7343129562
 20
107.4582046088
 10
-18.9126775688
 20
108.7833402072
 10
-21.0613067332
 20
110.12498593
 10
-23.1791050207
 20
111.4824577703
 10
-25.2660567102
 20
112.855763798
 10
-27.3221775227
 20
114.2448959432
 10
-29.346419193
 20
115.6491459891
 10
-31.3387654652
 20
117.0685216445
 10
-33.2992325951
 20
118.5030152006
 10
-35.226821084
 20
119.9518953142
 10
-37.1211977656
 20
121.4149182042
 10
-38.9826958063
 20
122.8923276516
 10
-40.8113152059
 20
124.3841236565
  0
LWPOLYLINE
  5
2DA
100
AcDbEntity
  8
ASSI
100
AcDbPolyline
 62
7
  6
CONTINUOUS
 90
28
 70
0
 10
19.292761195
 20
91.3137237772
 10
16.7090611841
 20
92.3695457006
 10
14.1502778164
 20
93.4443513392
 10
11.6164110917
 20
94.5381406931
 10
9.1070387963
 20
95.6511061282
 10
6.6225831439
 20
96.7830552786
 10
4.1643107768
 20
97.9334110462
 10
1.732235046
 20
99.1021828169
 10
-0.6736573997
 20
100.2893612048
 10
-3.0521399717
 20
101.4943409547
 10
-5.4031986935
 20
102.7171311436
 10
-7.7268475417
 20
103.9577226945
 10
-10.021901858
 20
105.2154831205
 10
-12.2883470614
 20
106.4904211762
 10
-14.5261977329
 20
107.7825281071
 10
-16.7343129562
 20
109.0911451624
 10
-18.9126775688
 20
110.4162807608
 10
-21.0613067332
 20
111.7579264836
 10
-23.1791050207
 20
113.1153983239
 10
-25.2660567102
 20
114.4887043516
 10
-27.3221775227
 20
115.8778364967
 10
-29.346419193
 20
117.2820865426
 10
-31.3387654652
 20
118.7014621981
 10
-33.2992325951
 20
120.1359557542
 10
-35.226821084
 20
121.5848358678
 10
-37.1211977656
 20
123.0478587577
 10
-38.9826958063
 20
124.5252682052
 10
-41.0447932477
 20
126.2061832087
  0
LWPOLYLINE
  5
2DB
100
AcDbEntity
  8
ASSI
100
AcDbPolyline
 62
7
  6
CONTINUOUS
 90
52
 70
0
 10
19.292761195
 20
91.3137237772
 10
19.6291342238
 20
91.1738175249
 10
19.9668372304
 20
91.0243935012
 10
20.3055942772
 20
90.8655900931
 10
20.6452402197
 20
90.6975708335
 10
20.9853840812
 20
90.5204785651
 10
21.3254110214
 20
90.3344483042
 10
21.6649830566
 20
90.1397264391
 10
22.0038838961
 20
89.9364648645
 10
22.3416816729
 20
89.7246762351
 10
22.6782243536
 20
89.5045093784
 10
23.0131073485
 20
89.2762489576
 10
23.3455257753
 20
89.0401368151
 10
23.6751678254
 20
88.7964841887
 10
24.0018146847
 20
88.5455114083
 10
24.3248136589
 20
88.2873583718
 10
24.6438847696
 20
88.0223468562
 10
24.9588017194
 20
87.7507393799
 10
25.2689987788
 20
87.4725995503
 10
25.5743578104
 20
87.1881208263
 10
25.874507518
 20
86.8977233253
 10
26.1685243839
 20
86.6018359993
 10
26.4561917773
 20
86.3008004245
 10
26.7373075122
 20
85.9949590802
 10
27.0110150853
 20
85.6847799023
 10
27.2769827302
 20
85.3708069452
 10
27.5352127636
 20
85.0532229892
 10
27.7853676332
 20
84.7319612938
 10
28.0274324647
 20
84.4071573147
 10
28.2610984655
 20
84.0793797792
 10
28.4856116788
 20
83.7492142779
 10
28.700710839
 20
83.417228283
 10
28.9064538801
 20
83.0835738034
 10
29.1025908066
 20
82.7482145815
 10
29.2891004012
 20
82.411318912
 10
29.4658075533
 20
82.0734092299
 10
29.6322488703
 20
81.7349740187
 10
29.7882563142
 20
81.3965592238
 10
29.9339093047
 20
81.0582856529
 10
30.0691227274
 20
80.7199985698
 10
30.1938866391
 20
80.3818534964
 10
30.3081048309
 20
80.0443368365
 10
30.411557212
 20
79.7077842031
 10
30.504164909
 20
79.3726537511
 10
30.5859791426
 20
79.0390929015
 10
30.6569677022
 20
78.7069695121
 10
30.7171142055
 20
78.3764520639
 10
30.7663860426
 20
78.0479685359
 10
30.8047112765
 20
77.7217778276
 10
30.8320668122
 20
77.3981549064
 10
30.8484780353
 20
77.0773907117
 10
30.8539570674
 20
76.7597603533
  0
LWPOLYLINE
  5
2DC
100
AcDbEntity
  8
0
100
AcDbPolyline
 62
7
  6
CONTINUOUS
 90
4
 70
0
 10
-26.3863368697
 20
113.4853423084
 10
-26.2692005216
 20
113.4356669701
 10
-26.1652937872
 20
113.4146555107
 10
-26.1012934632
 20
113.4200566233
  0
LWPOLYLINE
  5
2DD
100
AcDbEntity
  8
0
100
AcDbPolyline
 62
7
  6
CONTINUOUS
 90
3
 70
0
 10
27.0254821026
 20
-103.0077057187
 10
26.9876126193
 20
-103.0313094673
 10
26.9395783866
 20
-103.0667134942
  0
LWPOLYLINE
  5
2DE
100
AcDbEntity
  8
ASSI
100
AcDbPolyline
 62
7
  6
CONTINUOUS
 90
18
 70
0
 10
23.5417293177
 20
-105.3016796714
 10
23.5152882424
 20
-105.3176761421
 10
23.464382522
 20
-105.3529242178
 10
23.4162149451
 20
-105.3924928348
 10
23.3707670568
 20
-105.4363528727
 10
23.328346557
 20
-105.4842073819
 10
23.2889739888
 20
-105.5360834678
 10
23.2526288092
 20
-105.591954025
 10
23.2195570893
 20
-105.651440788
 10
23.1897810418
 20
-105.7145682953
 10
23.1632784539
 20
-105.7813120083
 10
23.1402287587
 20
-105.8512200461
 10
23.1206553863
 20
-105.9243138807
 10
23.1045349064
 20
-106.0005720401
 10
23.0919764611
 20
-106.0794782266
 10
23.083016431
 20
-106.160860341
 10
23.0776184354
 20
-106.2448904825
 10
23.0757824743
 20
-106.3315686512
  0
LINE
  5
2DF
100
AcDbEntity
  8
0
100
AcDbLine
 62
253
  6
CONTINUOUS
 10
26.3284736678
 20
-103.1066925505
 11
27.7426872301
 21
-102.2901433639
  0
LINE
  5
2E0
100
AcDbEntity
  8
ASSI
100
AcDbLine
 62
7
  6
CONTINUOUS
 10
28.4396951847
 20
-102.1911557003
 11
27.0254816223
 21
-103.007704887
  0
LINE
  5
2E1
100
AcDbEntity
  8
ASSI
100
AcDbLine
 62
253
  6
CONTINUOUS
 10
24.4899960367
 20
-105.5150194645
 11
23.0757824743
 21
-106.3315686512
  0
LINE
  5
2E2
100
AcDbEntity
  8
0
100
AcDbLine
 62
253
  6
CONTINUOUS
 10
29.1569007925
 20
-104.4132028131
 11
30.5711143549
 21
-103.5966536265
  0
LINE
  5
2E3
100
AcDbEntity
  8
ASSI
100
AcDbLine
 62
253
  6
CONTINUOUS
 10
24.4899960367
 20
-107.5561951565
 11
23.0757824743
 21
-108.3727443432
  0
LINE
  5
2E4
100
AcDbEntity
  8
0
100
AcDbLine
 62
253
  6
CONTINUOUS
 10
29.7225862175
 20
-105.0664105985
 11
31.1367997798
 21
-104.2498614118
  0
LWPOLYLINE
  5
2E5
100
AcDbEntity
  8
0
100
AcDbPolyline
 62
7
  6
CONTINUOUS
 90
17
 70
0
 10
26.8284975878
 20
-103.1562333124
 10
26.8221077437
 20
-103.1598301548
 10
26.7954016861
 20
-103.1729541596
 10
26.7673881591
 20
-103.1837748676
 10
26.7382891697
 20
-103.192206525
 10
26.7080960927
 20
-103.1982301483
 10
26.6768175534
 20
-103.2018647209
 10
26.6447014338
 20
-103.2030814388
 10
26.6117410786
 20
-103.2018610898
 10
26.5779431432
 20
-103.1982228861
 10
26.5435754759
 20
-103.1921956604
 10
26.5086335497
 20
-103.1837604297
 10
26.4731218918
 20
-103.1729361771
 10
26.4373219316
 20
-103.1598086846
 10
26.4013274792
 20
-103.1444065464
 10
26.3650447246
 20
-103.1267011684
 10
26.3284736678
 20
-103.1066925505
  0
LINE
  5
2E6
100
AcDbEntity
  8
0
100
AcDbLine
 62
253
  6
CONTINUOUS
 10
-22.5326049122
 20
136.5709624476
 11
37.5714714886
 21
101.8676220148
  0
LINE
  5
2E7
100
AcDbEntity
  8
0
100
AcDbLine
 62
7
  6
CONTINUOUS
 10
-21.0325324318
 20
136.7195859807
 11
39.0715439691
 21
102.0162455478
  0
LINE
  5
2E8
100
AcDbEntity
  8
RACCORDO
100
AcDbLine
 62
7
  6
CONTINUOUS
 10
-16.4656287296
 20
134.1135360541
 11
40.2443351215
 21
101.3699136692
  0
LWPOLYLINE
  5
2E9
100
AcDbEntity
  8
0
100
AcDbPolyline
 62
253
  6
CONTINUOUS
 90
52
 70
0
 10
37.5714714886
 20
101.8676220148
 10
37.8545516202
 20
101.6991410298
 10
38.137363233
 20
101.5207517296
 10
38.4196380633
 20
101.3326233272
 10
38.7011083562
 20
101.1349342738
 10
38.9815071201
 20
100.9278720894
 10
39.2605683798
 20
100.711633185
 10
39.5380274288
 20
100.4864226764
 10
39.8136210803
 20
100.2524541893
 10
40.0870879172
 20
100.0099496571
 10
40.3581685394
 20
99.75913911
 10
40.6266058108
 20
99.5002604569
 10
40.8921451021
 20
99.23355926
 10
41.1545345334
 20
98.9592885015
 10
41.4135252124
 20
98.6777083438
 10
41.6688714707
 20
98.3890858828
 10
41.9203310969
 20
98.0936948943
 10
42.1676655664
 20
97.7918155746
 10
42.4106402673
 20
97.4837342745
 10
42.6490247236
 20
97.1697432279
 10
42.882592813
 20
96.8501402741
 10
43.1111229821
 20
96.525228576
 10
43.3343984563
 20
96.195316332
 10
43.5522074451
 20
95.8607164839
 10
43.7643433437
 20
95.5217464198
 10
43.9706049281
 20
95.1787276735
 10
44.1707965469
 20
94.8319856189
 10
44.3647283061
 20
94.4818491619
 10
44.5522162497
 20
94.1286504282
 10
44.733082534
 20
93.7727244482
 10
44.9071555965
 20
93.4144088391
 10
45.0742703183
 20
93.0540434851
 10
45.2342681809
 20
92.6919702145
 10
45.3869974167
 20
92.3285324757
 10
45.5323131527
 20
91.9640750116
 10
45.6700775482
 20
91.5989435319
 10
45.8001599253
 20
91.2334843862
 10
45.9224368929
 20
90.8680442344
 10
46.0367924641
 20
90.5029697188
 10
46.1431181655
 20
90.1386071346
 10
46.2413131408
 20
89.7753021018
 10
46.3312842462
 20
89.4133992372
 10
46.4129461385
 20
89.0532418276
 10
46.4862213566
 20
88.6951715042
 10
46.5510403945
 20
88.3395279183
 10
46.6073417673
 20
87.9866484194
 10
46.6550720698
 20
87.6368677351
 10
46.694186027
 20
87.2905176535
 10
46.7246465368
 20
86.9479267088
 10
46.7464247056
 20
86.6094198691
 10
46.7594998756
 20
86.2753182287
 10
46.7638596441
 20
85.9459387032
  0
LWPOLYLINE
  5
2EA
100
AcDbEntity
  8
RACCORDO
100
AcDbPolyline
 62
7
  6
CONTINUOUS
 90
44
 70
0
 10
40.2443351215
 20
101.3699136692
 10
40.4761053808
 20
101.2316819926
 10
40.7071339961
 20
101.0851838738
 10
40.9374209675
 20
100.9304193127
 10
41.1672111288
 20
100.7672050107
 10
41.3962596461
 20
100.5957242665
 10
41.6238320179
 20
100.4165269761
 10
41.8499235056
 20
100.229588368
 10
42.0745388478
 20
100.0349332136
 10
42.2969577591
 20
99.8331857236
 10
42.5171731886
 20
99.6243231303
 10
42.7351921872
 20
99.4083682014
 10
42.9503156223
 20
99.1860134504
 10
43.1625341986
 20
98.9572383329
 10
43.3718572114
 20
98.7220633933
 10
43.5776134139
 20
98.4812427792
 10
43.7797913561
 20
98.2347583669
 10
43.9784024881
 20
97.9826282799
 10
44.1728099135
 20
97.7256610368
 10
44.3630001375
 20
97.4638411093
 10
44.5489866549
 20
97.1971840256
 10
44.7301730532
 20
96.9265448885
 10
44.9065439233
 20
96.6519109149
 10
45.0781146742
 20
96.3732948879
 10
45.2443351215
 20
96.0915902596
 10
45.4051880897
 20
95.8067871151
 10
45.5606907541
 20
95.5188953695
 10
45.7103444565
 20
95.2288382196
 10
45.8541304208
 20
94.9366087143
 10
45.992067423
 20
94.6422138048
 10
46.1237131336
 20
94.3465975423
 10
46.2490473565
 20
94.0497560061
 10
46.3680902878
 20
93.7516931167
 10
46.4804601865
 20
93.4533646878
 10
46.5861356309
 20
93.1547698668
 10
46.6851380427
 20
92.8559095061
 10
46.7771499459
 20
92.5577419766
 10
46.8621488996
 20
92.2602695022
 10
46.9401573447
 20
91.9634898589
 10
47.0109251274
 20
91.6683547451
 10
47.074429004
 20
91.3748694399
 10
47.1306922183
 20
91.0830286642
 10
47.1795343481
 20
90.7937682785
 10
47.2016671223
 20
90.6405009841
  0
LWPOLYLINE
  5
2EB
100
AcDbEntity
  8
0
100
AcDbPolyline
 62
7
  6
CONTINUOUS
 90
46
 70
0
 10
39.0715439691
 20
102.0162455478
 10
39.3923927659
 20
101.8245870784
 10
39.7104553566
 20
101.6218272192
 10
40.0255543556
 20
101.408212858
 10
40.3377766758
 20
101.1837906698
 10
40.6466915267
 20
100.9489626361
 10
40.9513490021
 20
100.7045946268
 10
41.2514609804
 20
100.4511060288
 10
41.5469947544
 20
100.1887005304
 10
41.8373848873
 20
99.9180627431
 10
42.1222830314
 20
99.6397287312
 10
42.401738605
 20
99.3538509815
 10
42.6757603976
 20
99.0605859786
 10
42.9442652081
 20
98.7601609058
 10
43.2070059187
 20
98.452980944
 10
43.4637209256
 20
98.1394851615
 10
43.7141772829
 20
97.820096351
 10
43.9582963526
 20
97.495044662
 10
44.1960333788
 20
97.1644949283
 10
44.4272206028
 20
96.8287673621
 10
44.6517001414
 20
96.4881694405
 10
44.8694181334
 20
96.1428405098
 10
45.0802312627
 20
95.7930414899
 10
45.2839425724
 20
95.4391224316
 10
45.480405079
 20
95.0813515151
 10
45.6694304626
 20
94.7200728413
 10
45.8508733645
 20
94.3555527468
 10
46.0246426114
 20
93.9879339865
 10
46.1905632769
 20
93.6175176149
 10
46.3484619981
 20
93.2446032057
 10
46.4982344488
 20
92.8693135999
 10
46.6397372705
 20
92.4918334164
 10
46.7727402839
 20
92.1125718168
 10
46.89701451
 20
91.7319678987
 10
47.0123720781
 20
91.3503646996
 10
47.1186537733
 20
90.9680114469
 10
47.2156897574
 20
90.5851778374
 10
47.3033141499
 20
90.2020965734
 10
47.3813305269
 20
89.8191173948
 10
47.4495364587
 20
89.4366455257
 10
47.5077640933
 20
89.0549009238
 10
47.555820099
 20
88.6742332623
 10
47.5934965961
 20
88.2951893077
 10
47.6206212548
 20
87.9181176839
 10
47.6370290458
 20
87.5432113819
 10
47.6425393005
 20
87.1707624832
  0
LWPOLYLINE
  5
2EC
100
AcDbEntity
  8
ASSI
100
AcDbPolyline
 62
7
  6
CONTINUOUS
 90
18
 70
0
 10
25.7918161463
 20
-111.2398689929
 10
25.8182572215
 20
-111.2238725222
 10
25.869162942
 20
-111.1886244465
 10
25.9173305189
 20
-111.1490558295
 10
25.9627784072
 20
-111.1051957916
 10
26.005198907
 20
-111.0573412824
 10
26.0445714751
 20
-111.0054651965
 10
26.0809166547
 20
-110.9495946393
 10
26.1139883747
 20
-110.8901078763
 10
26.1437644222
 20
-110.826980369
 10
26.17026701
 20
-110.760236656
 10
26.1933167053
 20
-110.6903286182
 10
26.2128900777
 20
-110.6172347836
 10
26.2290105575
 20
-110.5409766242
 10
26.2415690029
 20
-110.4620704377
 10
26.250529033
 20
-110.3806883233
 10
26.2559270286
 20
-110.2966581818
 10
26.2577629897
 20
-110.2099800131
  0
LINE
  5
2ED
100
AcDbEntity
  8
0
100
AcDbLine
 62
253
  6
CONTINUOUS
 10
35.0258870764
 20
-107.3935757805
 11
34.3894909733
 21
-107.7610229145
  0
LWPOLYLINE
  5
2EE
100
AcDbEntity
  8
0
100
AcDbPolyline
 62
7
  6
CONTINUOUS
 90
15
 70
0
 10
34.8895042865
 20
-107.8105453058
 10
34.8746949288
 20
-107.8186089704
 10
34.844010451
 20
-107.8324390061
 10
34.811775949
 20
-107.843241129
 10
34.7780069643
 20
-107.8510456988
 10
34.7430443639
 20
-107.8557739355
 10
34.7068760587
 20
-107.8573946814
 10
34.6695141379
 20
-107.8559390942
 10
34.6313357359
 20
-107.8514218668
 10
34.5923325833
 20
-107.8438119902
 10
34.5525129495
 20
-107.8331404734
 10
34.5122787773
 20
-107.8195150355
 10
34.4717640476
 20
-107.8029715829
 10
34.4308347797
 20
-107.7834742092
 10
34.3894909733
 20
-107.7610229145
  0
LWPOLYLINE
  5
2EF
100
AcDbEntity
  8
RACCORDO
100
AcDbPolyline
 62
7
  6
CONTINUOUS
 90
4
 70
0
 10
-17.0690047169
 20
134.4310947528
 10
-16.9284276043
 20
134.3632347986
 10
-16.6973989889
 20
134.2429468634
 10
-16.4656287296
 20
134.1135360541
  0
LWPOLYLINE
  5
2F0
100
AcDbEntity
  8
0
100
AcDbPolyline
 62
7
  6
CONTINUOUS
 90
18
 70
0
 10
46.7638596441
 20
-133.6845657541
 10
46.8627263408
 20
-133.6246545333
 10
46.9561608006
 20
-133.5623953539
 10
47.0441630233
 20
-133.4977882159
 10
47.126907487
 20
-133.4306763624
 10
47.2042197136
 20
-133.3612165503
 10
47.2755762692
 20
-133.2898790497
 10
47.3409367403
 20
-133.216651119
 10
47.4003415403
 20
-133.1415454998
 10
47.4533884755
 20
-133.0650706865
 10
47.5000344033
 20
-132.9872173882
 10
47.5403224662
 20
-132.9079948957
 10
47.5739798984
 20
-132.8279395764
 10
47.6009617063
 20
-132.747045779
 10
47.6213128834
 20
-132.6653191548
 10
47.6348956443
 20
-132.583313025
 10
47.6416640606
 20
-132.5010254929
 10
47.6425101126
 20
-132.4597419741
  0
LINE
  5
2F1
100
AcDbEntity
  8
0
100
AcDbLine
 62
7
  6
CONTINUOUS
 10
46.7638596441
 20
-133.6845657541
 11
39.9756345447
 21
-137.60400185
  0
ENDSEC
  0
SECTION
  2
OBJECTS
  0
DICTIONARY
  5
C
100
AcDbDictionary
280
0
281
1
  3
ACAD_GROUP
350
D
  3
ACAD_MLINESTYLE
350
17
  3
ACAD_LAYOUT
350
1A
  3
ACAD_PLOTSETTINGS
350
19
  3
ACAD_PLOTSTYLENAME
350
E
  0
DICTIONARY
  5
D
102
{ACAD_REACTORS
330
C
102
}
100
AcDbDictionary
280
0
281
1
  0
ACDBDICTIONARYWDFLT
  5
E
102
{ACAD_REACTORS
330
C
102
}
100
AcDbDictionary
281
1
  3
Normal
350
F
100
AcDbDictionaryWithDefault
340
F
  0
DICTIONARY
  5
17
102
{ACAD_REACTORS
330
C
102
}
100
AcDbDictionary
280
0
281
1
  3
Standard
350
18
  0
DICTIONARY
  5
19
102
{ACAD_REACTORS
330
C
102
}
100
AcDbDictionary
281
1
  0
DICTIONARY
  5
1A
102
{ACAD_REACTORS
330
C
102
}
100
AcDbDictionary
281
1
  3
Model
350
2F2
  3
Layout1
350
2F3
  0
ACDBPLACEHOLDER
  5
F
102
{ACAD_REACTORS
330
E
102
}
  0
MLINESTYLE
  5
18
102
{ACAD_REACTORS
330
17
102
}
100
AcDbMlineStyle
  2
STANDARD
 70
0
  3

 62
256
 51
90.0
 52
90.0
 71
2
 49
0.5
 62
256
  6
BYLAYER
 49
-0.5
 62
256
  6
BYLAYER
  0
LAYOUT
  5
2F2
102
{ACAD_REACTORS
330
1A
102
}
100
AcDbPlotSettings
  1

  2
none_device
  4
ISO_A4_(297.00_x_210.00_MM)
  6

 40
0.0
 41
0.0
 42
0.0
 43
0.0
 44
297.0
 45
210.0
 46
0.0
 47
0.0
 48
0.0
 49
0.0
140
0.0
141
0.0
142
1.0
143
1.0
 70
1024
 72
1
 73
0
 74
0
  7

 75
0
147
1.0
148
0.0
149
0.0
100
AcDbLayout
  1
Model
 70
0
 71
0
 10
0.0
 20
0.0
 11
297.0
 21
210.0
 12
0.0
 22
0.0
 32
0.0
 14
0.0
 24
0.0
 34
0.0
 15
0.0
 25
0.0
 35
0.0
146
0.0
 13
0.0
 23
0.0
 33
0.0
 16
1.0
 26
0.0
 36
0.0
 17
0.0
 27
1.0
 37
0.0
 76
0
330
20F
345
0
346
0
  0
LAYOUT
  5
2F3
102
{ACAD_REACTORS
330
1A
102
}
100
AcDbPlotSettings
  1

  2
none_device
  4
ISO_A4_(297.00_x_210.00_MM)
  6

 40
0.0
 41
0.0
 42
0.0
 43
0.0
 44
297.0
 45
210.0
 46
0.0
 47
0.0
 48
0.0
 49
0.0
140
0.0
141
0.0
142
1.0
143
1.0
 70
0
 72
1
 73
0
 74
0
  7

 75
0
147
1.0
148
0.0
149
0.0
100
AcDbLayout
  1
Layout1
 70
0
 71
1
 10
0.0
 20
0.0
 11
297.0
 21
210.0
 12
0.0
 22
0.0
 32
0.0
 14
0.0
 24
0.0
 34
0.0
 15
0.0
 25
0.0
 35
0.0
146
0.0
 13
0.0
 23
0.0
 33
0.0
 16
1.0
 26
0.0
 36
0.0
 17
0.0
 27
1.0
 37
0.0
 76
0
330
210
345
0
346
0
  0
ENDSEC
  0
EOF
