  0
SECTION
  2
HEADER
  9
$ACADVER
  1
AC1021
  9
$DWGCODEPAGE
  3
ANSI_1252
  9
$EXTMAX
 10
297.0
 20
210.0
 30
0.0
  9
$EXTMIN
 10
0.0
 20
0.0
 30
0.0
  9
$LIMMIN
 10
0.0
 20
0.0
  9
$LIMMAX
 10
297.0
 20
210.0
  9
$VIEWCTR
 10
148.5
 20
105.0
  9
$VIEWSIZE
 40
210.0
  9
$CLAYER
  8
0
  9
$LTSCALE
 40
16.335
  9
$CELTYPE
  6
BYLAYER
  9
$DIMSCALE
 40
1.0
  9
$DIMASZ
 40
3.0
  9
$DIMEXO
 40
0.5
  9
$DIMDLI
 40
11.286
  9
$DIMEXE
 40
1.5
  9
$DIMCEN
 40
2.673
  9
$DIMLFAC
 40
1.0
  9
$DIMBLK
  1
_FILLED
  9
$DIMALT
 70
0
  9
$DIMALTF
 40
0.0393700787
  9
$DIMTXT
 40
3.0
  9
$DIMTOL
 70
1
  9
$DIMLIM
 70
0
  9
$DIMTFAC
 40
1.0
  9
$DIMTP
 40
0.01
  9
$DIMTM
 40
0.01
  9
$DIMGAP
 40
0.625
  9
$DIMDSEP
 70
44
  9
$AUNITS
 70
0
  9
$PDMODE
 70
3
  9
$PDSIZE
 40
3.0
  9
$HANDSEED
  5
316
  9
$TILEMODE
 70
1
  9
$MEASUREMENT
 70
1
  9
$INSUNITS
 70
4
  0
ENDSEC
  0
SECTION
  2
CLASSES
  0
CLASS
  1
ACDBDICTIONARYWDFLT
  2
AcDbDictionaryWithDefault
  3
AutoCAD 2000
 90
0
 91
1
280
0
281
0
  0
CLASS
  1
ACDBPLACEHOLDER
  2
AcDbPlaceHolder
  3
AutoCAD 2000
 90
0
 91
1
280
0
281
0
  0
CLASS
  1
LAYOUT
  2
AcDbLayout
  3
AutoCAD 2000
 90
0
 91
0
280
0
281
0
  0
ENDSEC
  0
SECTION
  2
TABLES
  0
TABLE
  2
VPORT
  5
8
100
AcDbSymbolTable
 70
2
  0
VPORT
  5
1F4
100
AcDbSymbolTableRecord
100
AcDbViewportTableRecord
  2
*ACTIVE
 70
0
 10
0.0
 20
0.0
 11
1.0
 21
1.0
 12
148.5
 22
105.0
 13
0.0
 23
0.0
 14
1.0
 24
1.0
 15
0.0
 25
0.0
 16
0.0
 26
0.0
 36
1.0
 17
0.0
 27
0.0
 37
0.0
 40
210.0
 41
1.4142857143
 42
50.0
 43
0.0
 44
0.0
 50
0.0
 51
0.0
 71
0
 72
100
 73
1
 74
1
 75
0
 76
0
 77
0
 78
0
  0
ENDTAB
  0
TABLE
  2
LTYPE
  5
5
100
AcDbSymbolTable
 70
6
  0
LTYPE
  5
14
100
AcDbSymbolTableRecord
100
AcDbLinetypeTableRecord
  2
BYBLOCK
 70
0
  3

 72
65
 73
0
 40
0.0
  0
LTYPE
  5
15
100
AcDbSymbolTableRecord
100
AcDbLinetypeTableRecord
  2
BYLAYER
 70
0
  3

 72
65
 73
0
 40
0.0
  0
LTYPE
  5
16
100
AcDbSymbolTableRecord
100
AcDbLinetypeTableRecord
  2
CONTINUOUS
 70
64
  3
Solid line
 72
65
 73
0
 40
0.0
  0
LTYPE
  5
1F5
100
AcDbSymbolTableRecord
100
AcDbLinetypeTableRecord
  2
CENTER
 70
64
  3
____ _ ____ _ ____ _ ____ _ ____ _ ____ _ ____
 72
65
 73
4
 40
0.6
 49
0.375
 74
0
 49
-0.075
 74
0
 49
0.075
 74
0
 49
-0.075
 74
0
  0
LTYPE
  5
1F6
100
AcDbSymbolTableRecord
100
AcDbLinetypeTableRecord
  2
HIDDEN
 70
64
  3
- - - - - - - - - - - - - - - - - - - -
 72
65
 73
2
 40
0.2
 49
0.1
 74
0
 49
-0.1
 74
0
  0
LTYPE
  5
1F7
100
AcDbSymbolTableRecord
100
AcDbLinetypeTableRecord
  2
PHANTOM
 70
64
  3
_____ _ _ _____ _ _ _____ _ _ _____
 72
65
 73
6
 40
0.8
 49
0.45
 74
0
 49
-0.05
 74
0
 49
0.1
 74
0
 49
-0.05
 74
0
 49
0.1
 74
0
 49
-0.05
 74
0
  0
LTYPE
  5
1F8
100
AcDbSymbolTableRecord
100
AcDbLinetypeTableRecord
  2
DOT
 70
64
  3
. . . . . . . . . . . . . . . . . . . .
 72
65
 73
2
 40
0.2
 49
0.1
 74
0
 49
-0.1
 74
0
  0
LTYPE
  5
1F9
100
AcDbSymbolTableRecord
100
AcDbLinetypeTableRecord
  2
DASHED
 70
64
  3
- - - - - - - - - - - - - - - - - - - -
 72
65
 73
2
 40
0.2
 49
0.1
 74
0
 49
-0.1
 74
0
  0
ENDTAB
  0
TABLE
  2
LAYER
  5
2
100
AcDbSymbolTable
 70
36
  0
LAYER
  5
10
100
AcDbSymbolTableRecord
100
AcDbLayerTableRecord
  2
0
 70
0
 62
7
  6
CONTINUOUS
370
-3
390
F
  0
LAYER
  5
1FA
100
AcDbSymbolTableRecord
100
AcDbLayerTableRecord
  2
DEFAULT_1
 70
0
 62
7
  6
CENTER
370
-3
390
F
  0
LAYER
  5
1FB
100
AcDbSymbolTableRecord
100
AcDbLayerTableRecord
  2
DEFAULT_2
 70
0
 62
7
  6
HIDDEN
370
-3
390
F
  0
LAYER
  5
1FC
100
AcDbSymbolTableRecord
100
AcDbLayerTableRecord
  2
DEFAULT_3
 70
0
 62
7
  6
PHANTOM
370
-3
390
F
  0
LAYER
  5
1FD
100
AcDbSymbolTableRecord
100
AcDbLayerTableRecord
  2
ASSI
 70
0
 62
7
  6
CONTINUOUS
370
-3
390
F
  0
LAYER
  5
1FE
100
AcDbSymbolTableRecord
100
AcDbLayerTableRecord
  2
COORDINATE
 70
0
 62
7
  6
CONTINUOUS
370
-3
390
F
  0
LAYER
  5
1FF
100
AcDbSymbolTableRecord
100
AcDbLayerTableRecord
  2
COPY_PUBLISH
 70
0
 62
7
  6
CONTINUOUS
370
-3
390
F
  0
LAYER
  5
200
100
AcDbSymbolTableRecord
100
AcDbLayerTableRecord
  2
COSMETICI
 70
0
 62
7
  6
CONTINUOUS
370
-3
390
F
  0
LAYER
  5
201
100
AcDbSymbolTableRecord
100
AcDbLayerTableRecord
  2
CURVE
 70
0
 62
7
  6
CONTINUOUS
370
-3
390
F
  0
LAYER
  5
202
100
AcDbSymbolTableRecord
100
AcDbLayerTableRecord
  2
DRAFT
 70
0
 62
7
  6
CONTINUOUS
370
-3
390
F
  0
LAYER
  5
203
100
AcDbSymbolTableRecord
100
AcDbLayerTableRecord
  2
IMPORT_IGES
 70
0
 62
7
  6
CONTINUOUS
370
-3
390
F
  0
LAYER
  5
204
100
AcDbSymbolTableRecord
100
AcDbLayerTableRecord
  2
NOTE
 70
0
 62
7
  6
CONTINUOUS
370
-3
390
F
  0
LAYER
  5
205
100
AcDbSymbolTableRecord
100
AcDbLayerTableRecord
  2
PIANI
 70
0
 62
7
  6
CONTINUOUS
370
-3
390
F
  0
LAYER
  5
206
100
AcDbSymbolTableRecord
100
AcDbLayerTableRecord
  2
PUNTI
 70
0
 62
7
  6
CONTINUOUS
370
-3
390
F
  0
LAYER
  5
207
100
AcDbSymbolTableRecord
100
AcDbLayerTableRecord
  2
RACCORDO
 70
0
 62
7
  6
CONTINUOUS
370
-3
390
F
  0
LAYER
  5
208
100
AcDbSymbolTableRecord
100
AcDbLayerTableRecord
  2
SIMBOLI
 70
0
 62
7
  6
CONTINUOUS
370
-3
390
F
  0
LAYER
  5
209
100
AcDbSymbolTableRecord
100
AcDbLayerTableRecord
  2
SMUSSO
 70
0
 62
7
  6
CONTINUOUS
370
-3
390
F
  0
LAYER
  5
20A
100
AcDbSymbolTableRecord
100
AcDbLayerTableRecord
  2
SNAPLINE
 70
0
 62
7
  6
CONTINUOUS
370
-3
390
F
  0
LAYER
  5
20B
100
AcDbSymbolTableRecord
100
AcDbLayerTableRecord
  2
SUPERFICI
 70
0
 62
7
  6
CONTINUOUS
370
-3
390
F
  0
LAYER
  5
20C
100
AcDbSymbolTableRecord
100
AcDbLayerTableRecord
  2
TRASH
 70
0
 62
7
  6
CONTINUOUS
370
-3
390
F
  0
ENDTAB
  0
TABLE
  2
STYLE
  5
3
100
AcDbSymbolTable
 70
1
  0
STYLE
  5
11
100
AcDbSymbolTableRecord
100
AcDbTextStyleTableRecord
  2
STANDARD
 70
0
 40
0.0
 41
0.8
 50
0.0
 71
0
 42
0.2
  3
txt
  4

  0
STYLE
  5
20D
100
AcDbSymbolTableRecord
100
AcDbTextStyleTableRecord
  2
TEXTSTYLE_1
 70
0
 40
0.0
 41
0.8
 50
0.0
 71
0
 42
0.2
  3
gdt
  4

  0
ENDTAB
  0
TABLE
  2
VIEW
  5
6
100
AcDbSymbolTable
 70
0
  0
ENDTAB
  0
TABLE
  2
UCS
  5
7
100
AcDbSymbolTable
 70
0
  0
ENDTAB
  0
TABLE
  2
APPID
  5
9
100
AcDbSymbolTable
 70
1
  0
APPID
  5
20E
100
AcDbSymbolTableRecord
100
AcDbRegAppTableRecord
  2
ACAD
 70
0
  0
ENDTAB
  0
TABLE
  2
BLOCK_RECORD
  5
1
100
AcDbSymbolTable
 70
0
  0
BLOCK_RECORD
  5
20F
100
AcDbSymbolTableRecord
100
AcDbBlockTableRecord
  2
*Model_Space
  0
BLOCK_RECORD
  5
210
100
AcDbSymbolTableRecord
100
AcDbBlockTableRecord
  2
*Paper_Space
  0
ENDTAB
  0
TABLE
  2
DIMSTYLE
  5
A
100
AcDbSymbolTable
 70
1
100
AcDbDimStyleTable
 71
0
  0
DIMSTYLE
105
211
100
AcDbSymbolTableRecord
100
AcDbDimStyleTableRecord
  2
STANDARD
 70
0
  3

  4

 40
1.0
 41
3.0
 42
0.5
 43
0.38
 44
1.5
 45
0.0
 46
0.0
 47
0.01
 48
0.01
140
3.0
141
0.09
142
0.0
143
25.4
144
1.0
145
0.0
146
1.0
147
0.625
 71
1.0
 72
0.0
 73
0
 74
0
 75
0
 76
0
 77
1
 78
8
170
0
171
2
172
0
173
0
174
0
175
0
176
0
177
0
178
0
270
2
271
2
272
2
273
2
274
2
275
0
280
0
281
0
282
0
283
1
284
8
285
0
286
0
287
3
288
0
340
11
278
44
  0
ENDTAB
  0
ENDSEC
  0
SECTION
  2
BLOCKS
  0
BLOCK
  5
20
100
AcDbEntity
  8
0
100
AcDbBlockBegin
  2
*Model_Space
 70
0
 10
0.0
 20
0.0
 30
0.0
  3
*Model_Space
  1

  0
ENDBLK
  5
21
100
AcDbEntity
  8
0
100
AcDbBlockEnd
  0
BLOCK
  5
1C
100
AcDbEntity
  8
0
100
AcDbBlockBegin
  2
*Paper_Space
 70
0
 10
0.0
 20
0.0
 30
0.0
  3
*Paper_Space
  1

  0
ENDBLK
  5
1D
100
AcDbEntity
  8
0
100
AcDbBlockEnd
  0
ENDSEC
  0
SECTION
  2
ENTITIES
  0
LINE
  5
212
100
AcDbEntity
  8
0
100
AcDbLine
 62
7
  6
CONTINUOUS
 10
-45.796413619
 20
174.4831760034
 11
-29.0367408221
 21
184.1600010283
  0
LINE
  5
213
100
AcDbEntity
  8
ASSI
100
AcDbLine
 62
253
  6
CONTINUOUS
 10
-40.815137034
 20
172.962067481
 11
-22.5364267403
 21
183.5159657185
  0
LINE
  5
214
100
AcDbEntity
  8
ASSI
100
AcDbLine
 62
253
  6
CONTINUOUS
 10
-46.22450391
 20
168.2066942969
 11
-40.8155129048
 21
171.3297779128
  0
LINE
  5
215
100
AcDbEntity
  8
RACCORDO
100
AcDbLine
 62
253
  6
CONTINUOUS
 10
-16.4694505577
 20
181.058539325
 11
-16.4961423688
 21
181.0431278078
  0
LWPOLYLINE
  5
216
100
AcDbEntity
  8
ASSI
100
AcDbPolyline
 62
7
  6
CONTINUOUS
 90
29
 70
0
 10
-45.7964436178
 20
174.4831586825
 10
-45.7811112431
 20
174.491928626
 10
-45.6498613488
 20
174.560472319
 10
-45.5143641451
 20
174.6197571767
 10
-45.3747332633
 20
174.6696964579
 10
-45.2309923539
 20
174.7103148022
 10
-45.0833701266
 20
174.7415429758
 10
-44.9319575042
 20
174.7633536734
 10
-44.776586029
 20
174.7758616894
 10
-44.6173902664
 20
174.7790223255
 10
-44.4545600477
 20
174.7727922013
 10
-44.2880100418
 20
174.7572879464
 10
-44.1178613038
 20
174.7324803397
 10
-43.9443370424
 20
174.6983525589
 10
-43.7675179021
 20
174.6550740756
 10
-43.5876174122
 20
174.602680145
 10
-43.4047997908
 20
174.5411871206
 10
-43.2190843568
 20
174.4707770857
 10
-43.03074899
 20
174.3915438284
 10
-42.8399070758
 20
174.303508006
 10
-42.6463275261
 20
174.2067276206
 10
-42.4500350445
 20
174.1011583046
 10
-42.2513855516
 20
173.9869138025
 10
-42.0506458063
 20
173.8643005617
 10
-41.8479877992
 20
173.7334099039
 10
-41.6436401826
 20
173.5943401737
 10
-41.4379640037
 20
173.4474879879
 10
-41.2312152368
 20
173.2931022755
 10
-41.0235404108
 20
173.1312428161
  0
LWPOLYLINE
  5
217
100
AcDbEntity
  8
ASSI
100
AcDbPolyline
 62
7
  6
CONTINUOUS
 90
30
 70
0
 10
-44.7963955033
 20
172.7511356547
 10
-44.7843892138
 20
172.7579978934
 10
-44.6815270356
 20
172.8112644673
 10
-44.5751989112
 20
172.8566227764
 10
-44.465500922
 20
172.8939994637
 10
-44.3524033467
 20
172.9234440932
 10
-44.2360955549
 20
172.9449004812
 10
-44.1166586356
 20
172.9583431245
 10
-43.9939127771
 20
172.9638906762
 10
-43.8679726402
 20
172.9615048542
 10
-43.7389980538
 20
172.9511494125
 10
-43.6068771513
 20
172.9329459388
 10
-43.4717139604
 20
172.9068687857
 10
-43.3336957537
 20
172.8729046408
 10
-43.1928463164
 20
172.8312225693
 10
-43.0493435814
 20
172.7818539879
 10
-42.9033292482
 20
172.7248111489
 10
-42.7547834487
 20
172.6602690327
 10
-42.6039361043
 20
172.5883100054
 10
-42.450888364
 20
172.5089485394
 10
-42.2954240997
 20
172.422245603
 10
-42.1375694225
 20
172.3281606474
 10
-41.977620288
 20
172.2267929249
 10
-41.8157661981
 20
172.1184226484
 10
-41.6521509835
 20
172.0031280717
 10
-41.4869698191
 20
171.880991428
 10
-41.3204970894
 20
171.7523662825
 10
-41.1529390158
 20
171.6174692564
 10
-40.9844299565
 20
171.4763449436
 10
-40.815137034
 20
171.3291269274
  0
LWPOLYLINE
  5
218
100
AcDbEntity
  8
0
100
AcDbPolyline
 62
7
  6
CONTINUOUS
 90
31
 70
0
 10
-29.0367408221
 20
184.1600010283
 10
-28.8262483538
 20
184.2762658041
 10
-28.6107616022
 20
184.384816474
 10
-28.3904782049
 20
184.4854670525
 10
-28.1657630008
 20
184.577981014
 10
-27.9366762264
 20
184.662269348
 10
-27.7029413869
 20
184.7383332745
 10
-27.4647415462
 20
184.8059862073
 10
-27.2222976549
 20
184.8650437141
 10
-26.9753441254
 20
184.9154268918
 10
-26.7240348222
 20
184.9569355297
 10
-26.4686020236
 20
184.9893667758
 10
-26.2088534667
 20
185.0125648604
 10
-25.9448977215
 20
185.0263174177
 10
-25.6769918011
 20
185.0304111407
 10
-25.4051251324
 20
185.0246421121
 10
-25.129398957
 20
185.0087954665
 10
-24.8500566188
 20
184.9826688563
 10
-24.5672634181
 20
184.9460651567
 10
-24.2809245357
 20
184.8987446619
 10
-23.9914569771
 20
184.8405470844
 10
-23.6997645632
 20
184.7714762004
 10
-23.4059221089
 20
184.6914041673
 10
-23.1101594959
 20
184.6002438338
 10
-22.8135909095
 20
184.4982398267
 10
-22.5163284513
 20
184.3853762641
 10
-22.2185421051
 20
184.261656636
 10
-21.921417124
 20
184.1275630191
 10
-21.6254330938
 20
183.9833687477
 10
-21.3303698899
 20
183.829015107
 10
-21.0363542599
 20
183.6645892515
  0
LWPOLYLINE
  5
219
100
AcDbEntity
  8
0
100
AcDbPolyline
 62
253
  6
CONTINUOUS
 90
19
 70
0
 10
-22.5364267403
 20
183.5159657185
 10
-22.4438960465
 20
183.567060485
 10
-22.3515414902
 20
183.6133953971
 10
-22.2595388734
 20
183.6548822534
 10
-22.1680633284
 20
183.6914420815
 10
-22.0772889841
 20
183.7230052877
 10
-21.9873886346
 20
183.7495117895
 10
-21.8985334104
 20
183.7709111304
 10
-21.8108924524
 20
183.7871625755
 10
-21.7246325901
 20
183.7982351892
 10
-21.6399180241
 20
183.8041078942
 10
-21.5569100134
 20
183.8047695114
 10
-21.4757665685
 20
183.8002187815
 10
-21.3966421505
 20
183.790464367
 10
-21.3196873773
 20
183.775524836
 10
-21.2450487366
 20
183.7554286267
 10
-21.1728683073
 20
183.7302139935
 10
-21.103283489
 20
183.6999289337
 10
-21.0364267403
 20
183.6646310968
  0
LWPOLYLINE
  5
21A
100
AcDbEntity
  8
0
100
AcDbPolyline
 62
253
  6
CONTINUOUS
 90
28
 70
0
 10
-29.0367408221
 20
184.1600010283
 10
-28.844626244
 20
184.2645539134
 10
-28.6474883811
 20
184.3593114889
 10
-28.44517995
 20
184.44437491
 10
-28.2378721238
 20
184.5196722045
 10
-28.0257403056
 20
184.5851396633
 10
-27.80896398
 20
184.6407218944
 10
-27.5877265616
 20
184.6863718697
 10
-27.3622152392
 20
184.7220509648
 10
-27.132620818
 20
184.7477289916
 10
-26.8991375577
 20
184.7633842239
 10
-26.6619630085
 20
184.7690034159
 10
-26.4212978438
 20
184.7645818131
 10
-26.1773456902
 20
184.7501231567
 10
-25.9303129558
 20
184.7256396801
 10
-25.6804086547
 20
184.6911520987
 10
-25.4278442311
 20
184.6466895926
 10
-25.1728333796
 20
184.5922897815
 10
-24.9155918649
 20
184.527998693
 10
-24.656337339
 20
184.4538707237
 10
-24.395289157
 20
184.3699685934
 10
-24.1326681919
 20
184.2763632917
 10
-23.8686966471
 20
184.1731340179
 10
-23.603597869
 20
184.0603681144
 10
-23.3375961576
 20
183.9381609923
 10
-23.0709165769
 20
183.8066160511
 10
-22.8037847644
 20
183.6658445909
 10
-22.5364267403
 20
183.5159657185
  0
LINE
  5
21B
100
AcDbEntity
  8
0
100
AcDbLine
 62
7
  6
CONTINUOUS
 10
-25.7901297056
 20
160.0034845415
 11
-25.671399451
 21
160.0720379025
  0
LWPOLYLINE
  5
21C
100
AcDbEntity
  8
0
100
AcDbPolyline
 62
7
  6
CONTINUOUS
 90
6
 70
0
 10
-25.7911628264
 20
160.0052738552
 10
-25.846653527
 20
159.9782212256
 10
-25.9658946291
 20
159.9492327295
 10
-26.0946847392
 20
159.9545783365
 10
-26.2361060955
 20
159.9924787449
 10
-26.3901586978
 20
160.0629339547
  0
LINE
  5
21D
100
AcDbEntity
  8
0
100
AcDbLine
 62
253
  6
CONTINUOUS
 10
-21.4757665685
 20
147.5358660474
 11
-20.0615530061
 21
148.352415234
  0
LWPOLYLINE
  5
21E
100
AcDbEntity
  8
0
100
AcDbPolyline
 62
7
  6
CONTINUOUS
 90
24
 70
0
 10
37.4716989562
 20
-184.8007741054
 10
37.5158660489
 20
-184.8253933899
 10
37.6060787703
 20
-184.8704524641
 10
37.6991819513
 20
-184.9101359454
 10
37.795165074
 20
-184.9444633944
 10
37.8936780277
 20
-184.9733095972
 10
37.9947300515
 20
-184.9966545361
 10
38.0983119062
 20
-185.0145182288
 10
38.2040457636
 20
-185.0268355154
 10
38.3119394831
 20
-185.0335861398
 10
38.4219852053
 20
-185.034790358
 10
38.5337815242
 20
-185.0304437774
 10
38.6473348332
 20
-185.0205261261
 10
38.7626387389
 20
-185.0050576761
 10
38.8792726555
 20
-184.9840948504
 10
38.9972414402
 20
-184.9576175833
 10
39.1165402357
 20
-184.9256459406
 10
39.2367338843
 20
-184.888296543
 10
39.357825654
 20
-184.8455497506
 10
39.4798122767
 20
-184.7974252032
 10
39.6022487906
 20
-184.7440984415
 10
39.7249868748
 20
-184.6856279788
 10
39.8481748502
 20
-184.6219553018
 10
39.9718127166
 20
-184.5530804103
  0
LWPOLYLINE
  5
21F
100
AcDbEntity
  8
0
100
AcDbPolyline
 62
7
  6
CONTINUOUS
 90
24
 70
0
 10
-39.6029401932
 20
-140.2988434327
 10
-39.5587731004
 20
-140.3234627172
 10
-39.468560379
 20
-140.3685217914
 10
-39.3754571981
 20
-140.4082052727
 10
-39.2794740753
 20
-140.4425327216
 10
-39.1809611216
 20
-140.4713789245
 10
-39.0799090979
 20
-140.4947238634
 10
-38.9763272432
 20
-140.5125875561
 10
-38.8705933857
 20
-140.5249048426
 10
-38.7626996663
 20
-140.5316554671
 10
-38.6526539441
 20
-140.5328596853
 10
-38.5408576251
 20
-140.5285131047
 10
-38.4273043161
 20
-140.5185954534
 10
-38.3120004104
 20
-140.5031270034
 10
-38.1953664939
 20
-140.4821641777
 10
-38.0773977092
 20
-140.4556869106
 10
-37.9580989137
 20
-140.4237152679
 10
-37.8379052651
 20
-140.3863658703
 10
-37.7168134954
 20
-140.3436190778
 10
-37.5948268726
 20
-140.2954945305
 10
-37.4723903588
 20
-140.2421677687
 10
-37.3496522745
 20
-140.1836973061
 10
-37.2264642992
 20
-140.120024629
 10
-37.1028264327
 20
-140.0511497376
  0
LINE
  5
220
100
AcDbEntity
  8
0
100
AcDbLine
 62
7
  6
CONTINUOUS
 10
-39.6029472334
 20
-140.298855626
 11
-41.0171607958
 21
-139.4823064393
  0
LINE
  5
221
100
AcDbEntity
  8
0
100
AcDbLine
 62
7
  6
CONTINUOUS
 10
36.0574783535
 20
-183.9842371121
 11
37.4716919159
 21
-184.8007862987
  0
LINE
  5
222
100
AcDbEntity
  8
0
100
AcDbLine
 62
253
  6
CONTINUOUS
 10
-40.6383603387
 20
-138.0101713203
 11
-42.052573901
 21
-137.1936221336
  0
LINE
  5
223
100
AcDbEntity
  8
0
100
AcDbLine
 62
253
  6
CONTINUOUS
 10
35.0220652483
 20
-181.6955528063
 11
36.4362788107
 21
-182.512101993
  0
LWPOLYLINE
  5
224
100
AcDbEntity
  8
0
100
AcDbPolyline
 62
7
  6
CONTINUOUS
 90
24
 70
0
 10
-41.0171537555
 20
-139.482294246
 10
-41.0603194424
 20
-139.4564984241
 10
-41.1444537226
 20
-139.4009111809
 10
-41.2253778223
 20
-139.3401329121
 10
-41.3031034225
 20
-139.2741825066
 10
-41.3773470092
 20
-139.203300527
 10
-41.4480958657
 20
-139.127468963
 10
-41.5153627087
 20
-139.0467058248
 10
-41.5789021736
 20
-138.9613057067
 10
-41.6387006477
 20
-138.8712516739
 10
-41.6947717438
 20
-138.776560661
 10
-41.7469109352
 20
-138.6775780658
 10
-41.7951038624
 20
-138.5742882151
 10
-41.8393648849
 20
-138.466706782
 10
-41.8795325549
 20
-138.3552261838
 10
-41.9155919233
 20
-138.2398321803
 10
-41.9475579392
 20
-138.1205390117
 10
-41.9753140025
 20
-137.9977818153
 10
-41.9988447381
 20
-137.87154794
 10
-42.0181655211
 20
-137.7418500368
 10
-42.0332058764
 20
-137.6091611956
 10
-42.0439423123
 20
-137.473639113
 10
-42.0503983205
 20
-137.3351260923
 10
-42.052573901
 20
-137.1936221336
  0
LWPOLYLINE
  5
225
100
AcDbEntity
  8
0
100
AcDbPolyline
 62
7
  6
CONTINUOUS
 90
24
 70
0
 10
36.0574853938
 20
-183.9842249188
 10
36.0143197069
 20
-183.9584290968
 10
35.9301854267
 20
-183.9028418537
 10
35.8492613271
 20
-183.8420635848
 10
35.7715357268
 20
-183.7761131793
 10
35.6972921401
 20
-183.7052311997
 10
35.6265432836
 20
-183.6293996357
 10
35.5592764406
 20
-183.5486364976
 10
35.4957369757
 20
-183.4632363794
 10
35.4359385016
 20
-183.3731823466
 10
35.3798674055
 20
-183.2784913337
 10
35.3277282141
 20
-183.1795087385
 10
35.2795352869
 20
-183.0762188878
 10
35.2352742644
 20
-182.9686374547
 10
35.1951065944
 20
-182.8571568565
 10
35.159047226
 20
-182.7417628531
 10
35.1270812101
 20
-182.6224696845
 10
35.0993251468
 20
-182.499712488
 10
35.0757944112
 20
-182.3734786127
 10
35.0564736282
 20
-182.2437807095
 10
35.041433273
 20
-182.1110918683
 10
35.030696837
 20
-181.9755697857
 10
35.0242408288
 20
-181.837056765
 10
35.0220652483
 20
-181.6955528063
  0
LWPOLYLINE
  5
226
100
AcDbEntity
  8
0
100
AcDbPolyline
 62
7
  6
CONTINUOUS
 90
3
 70
0
 10
-25.6944005275
 20
160.0875776191
 10
-25.740043671
 20
160.0397645232
 10
-25.7911628264
 20
160.0052738552
  0
LWPOLYLINE
  5
227
100
AcDbEntity
  8
0
100
AcDbPolyline
 62
7
  6
CONTINUOUS
 90
48
 70
0
 10
-20.1549954978
 20
142.5684569103
 10
-20.1029107357
 20
142.6011641589
 10
-20.0518712279
 20
142.6387690523
 10
-20.0035034729
 20
142.6802874411
 10
-19.9578227456
 20
142.7257416857
 10
-19.914813771
 20
142.7751094257
 10
-19.874721889
 20
142.8281088075
 10
-19.8375637742
 20
142.8847605802
 10
-19.803322752
 20
142.9450439949
 10
-19.7721941383
 20
143.0086149505
 10
-19.7441957218
 20
143.0754922301
 10
-19.7193097137
 20
143.1456570506
 10
-19.697678063
 20
143.2187089629
 10
-19.6793193684
 20
143.2946644623
 10
-19.6642150312
 20
143.3735070534
 10
-19.6524512042
 20
143.4547868012
 10
-19.6440469776
 20
143.5385176312
 10
-19.6389832612
 20
143.624685618
 10
-19.6372889374
 20
143.7127990498
 10
-19.6389832612
 20
143.8028690442
 10
-19.6440469776
 20
143.8948844836
 10
-19.6524512042
 20
143.9883203039
 10
-19.6642150312
 20
144.0831846242
 10
-19.6793193684
 20
144.1794693254
 10
-19.697678063
 20
144.2766249851
 10
-19.7193097137
 20
144.3746565854
 10
-19.7441957218
 20
144.4735591443
 10
-19.7721941383
 20
144.5727682934
 10
-19.803322752
 20
144.672285792
 10
-19.8375637742
 20
144.7721098807
 10
-19.874721889
 20
144.871670913
 10
-19.914813771
 20
144.9709673952
 10
-19.9578227456
 20
145.070000821
 10
-20.0035034729
 20
145.1682060245
 10
-20.0518712279
 20
145.2655782843
 10
-20.1029107357
 20
145.3621223219
 10
-20.1563308316
 20
145.4572871356
 10
-20.2121451292
 20
145.5510648565
 10
-20.270340015
 20
145.6434633535
 10
-20.3305834837
 20
145.7339552308
 10
-20.3928872542
 20
145.8225296066
 10
-20.4572396076
 20
145.9091973629
 10
-20.5232733817
 20
145.9934637491
 10
-20.5909982
 20
146.0753150563
 10
-20.660404439
 20
146.1547649935
 10
-20.7310960663
 20
146.2313599379
 10
-20.8029410711
 20
146.3049486817
 10
-20.8760714641
 20
146.3756824327
  0
LWPOLYLINE
  5
228
100
AcDbEntity
  8
0
100
AcDbPolyline
 62
7
  6
CONTINUOUS
 90
48
 70
0
 10
-18.7407819354
 20
143.385006097
 10
-18.6886971733
 20
143.4177133456
 10
-18.6376576655
 20
143.455318239
 10
-18.5892899105
 20
143.4968366278
 10
-18.5436091832
 20
143.5422908724
 10
-18.5006002086
 20
143.5916586123
 10
-18.4605083266
 20
143.6446579941
 10
-18.4233502118
 20
143.7013097669
 10
-18.3891091897
 20
143.7615931815
 10
-18.3579805759
 20
143.8251641372
 10
-18.3299821594
 20
143.8920414167
 10
-18.3050961513
 20
143.9622062373
 10
-18.2834645007
 20
144.0352581496
 10
-18.265105806
 20
144.1112136489
 10
-18.2500014688
 20
144.19005624
 10
-18.2382376418
 20
144.2713359879
 10
-18.2298334152
 20
144.3550668179
 10
-18.2247696988
 20
144.4412348046
 10
-18.2230753751
 20
144.5293482364
 10
-18.2247696988
 20
144.6194182308
 10
-18.2298334152
 20
144.7114336703
 10
-18.2382376418
 20
144.8048694905
 10
-18.2500014688
 20
144.8997338109
 10
-18.265105806
 20
144.996018512
 10
-18.2834645007
 20
145.0931741718
 10
-18.3050961513
 20
145.1912057721
 10
-18.3299821594
 20
145.290108331
 10
-18.3579805759
 20
145.38931748
 10
-18.3891091897
 20
145.4888349786
 10
-18.4233502118
 20
145.5886590674
 10
-18.4605083266
 20
145.6882200996
 10
-18.5006002086
 20
145.7875165819
 10
-18.5436091832
 20
145.8865500076
 10
-18.5892899105
 20
145.9847552111
 10
-18.6376576655
 20
146.082127471
 10
-18.6886971733
 20
146.1786715086
 10
-18.7421172692
 20
146.2738363222
 10
-18.7979315668
 20
146.3676140432
 10
-18.8561264526
 20
146.4600125401
 10
-18.9163699213
 20
146.5505044174
 10
-18.9786736918
 20
146.6390787933
 10
-19.0430260452
 20
146.7257465495
 10
-19.1090598193
 20
146.8100129358
 10
-19.1767846376
 20
146.8918642429
 10
-19.2461908767
 20
146.9713141801
 10
-19.3168825039
 20
147.0479091245
 10
-19.3887275087
 20
147.1214978684
 10
-19.4618579017
 20
147.1922316194
  0
LINE
  5
229
100
AcDbEntity
  8
0
100
AcDbLine
 62
253
  6
CONTINUOUS
 10
-20.9504872454
 20
146.4435611909
 11
-19.536273683
 21
147.2601103776
  0
LINE
  5
22A
100
AcDbEntity
  8
0
100
AcDbLine
 62
253
  6
CONTINUOUS
 10
-21.4757665685
 20
142.0127599374
 11
-20.708563475
 21
142.4557333883
  0
LINE
  5
22B
100
AcDbEntity
  8
ASSI
100
AcDbLine
 62
7
  6
CONTINUOUS
 10
-18.7407819277
 20
143.3850060836
 11
-20.1549954901
 21
142.5684568969
  0
LWPOLYLINE
  5
22C
100
AcDbEntity
  8
0
100
AcDbPolyline
 62
7
  6
CONTINUOUS
 90
11
 70
0
 10
-21.2686803143
 20
142.4704905089
 10
-21.2514726459
 20
142.4797726042
 10
-21.2225759177
 20
142.4925930821
 10
-21.1922423366
 20
142.5028087017
 10
-21.1607419176
 20
142.5103285285
 10
-21.128064243
 20
142.5151284944
 10
-21.0942197306
 20
142.5172326675
 10
-21.0595096478
 20
142.5166223175
 10
-21.0240344173
 20
142.5132912008
 10
-20.9876936165
 20
142.507245561
 10
-20.9504872454
 20
142.4984853981
  0
LINE
  5
22D
100
AcDbEntity
  8
0
100
AcDbLine
 62
7
  6
CONTINUOUS
 10
-30.3146013334
 20
-136.9482628283
 11
35.0220652483
 21
-174.6728352518
  0
LWPOLYLINE
  5
22E
100
AcDbEntity
  8
ASSI
100
AcDbPolyline
 62
7
  6
CONTINUOUS
 90
12
 70
0
 10
-25.5686313918
 20
-121.5508706016
 10
-25.5557684596
 20
-121.5537161523
 10
-25.5110762056
 20
-121.5607480389
 10
-25.467256014
 20
-121.5647107701
 10
-25.4243014394
 20
-121.5656270302
 10
-25.3825315346
 20
-121.5634900137
 10
-25.3419551207
 20
-121.5582769854
 10
-25.3025633766
 20
-121.5500106804
 10
-25.2646488916
 20
-121.5387524981
 10
-25.2282226654
 20
-121.5244801608
 10
-25.1932736983
 20
-121.5072159462
 10
-25.1848004423
 20
-121.5024490215
  0
LWPOLYLINE
  5
22F
100
AcDbEntity
  8
0
100
AcDbPolyline
 62
7
  6
CONTINUOUS
 90
13
 70
0
 10
34.5674966032
 20
-130.5529099174
 10
34.493080822
 20
-130.5348551966
 10
34.4199504289
 20
-130.5211398028
 10
34.3481054242
 20
-130.5117637361
 10
34.2774137969
 20
-130.5067257612
 10
34.2080075579
 20
-130.5060271133
 10
34.1402827396
 20
-130.5096714979
 10
34.0742489655
 20
-130.517683737
 10
34.0098966121
 20
-130.5300390086
 10
33.9475928416
 20
-130.546666552
 10
33.8873493729
 20
-130.5675907817
 10
33.8291544871
 20
-130.5927872832
 10
33.7720048557
 20
-130.6228814296
  0
LWPOLYLINE
  5
230
100
AcDbEntity
  8
0
100
AcDbPolyline
 62
7
  6
CONTINUOUS
 90
5
 70
0
 10
-26.3901586978
 20
-121.2518999142
 10
-26.2730223497
 20
-121.3015752526
 10
-26.1691156152
 20
-121.3225867119
 10
-26.0784384944
 20
-121.3149342923
 10
-26.0159176143
 20
-121.287739409
  0
LWPOLYLINE
  5
231
100
AcDbEntity
  8
0
100
AcDbPolyline
 62
7
  6
CONTINUOUS
 90
5
 70
0
 10
-26.3901586978
 20
-120.027194499
 10
-26.5072950458
 20
-119.9775191607
 10
-26.6112017803
 20
-119.9565077013
 10
-26.7018789011
 20
-119.964160121
 10
-26.7643997812
 20
-119.9913550043
  0
LWPOLYLINE
  5
232
100
AcDbEntity
  8
0
100
AcDbPolyline
 62
7
  6
CONTINUOUS
 90
12
 70
0
 10
27.7388654021
 20
-149.2392219242
 10
27.7754364589
 20
-149.259230542
 10
27.8117192135
 20
-149.2769359201
 10
27.8477136659
 20
-149.2923380583
 10
27.8835136261
 20
-149.3054655507
 10
27.919025284
 20
-149.3162898034
 10
27.9539672102
 20
-149.3247250341
 10
27.9883348774
 20
-149.3307522597
 10
28.0221328129
 20
-149.3343904634
 10
28.0550931681
 20
-149.3356108124
 10
28.0872092877
 20
-149.3343940945
 10
28.1027223564
 20
-149.3325914728
  0
LWPOLYLINE
  5
233
100
AcDbEntity
  8
0
100
AcDbPolyline
 62
7
  6
CONTINUOUS
 90
12
 70
0
 10
-14.6875414691
 20
-124.7427463245
 10
-14.6509704123
 20
-124.7627549424
 10
-14.6146876577
 20
-124.7804603204
 10
-14.5786932053
 20
-124.7958624586
 10
-14.5428932451
 20
-124.8089899511
 10
-14.5073815872
 20
-124.8198142037
 10
-14.472439661
 20
-124.8282494344
 10
-14.4380719938
 20
-124.8342766601
 10
-14.4042740583
 20
-124.8379148638
 10
-14.3713137031
 20
-124.8391352128
 10
-14.3391975835
 20
-124.8379184949
 10
-14.3236845148
 20
-124.8361158732
  0
LINE
  5
234
100
AcDbEntity
  8
0
100
AcDbLine
 62
7
  6
CONTINUOUS
 10
34.3856691452
 20
-154.7101014748
 11
29.7187643894
 21
-152.0154891588
  0
LINE
  5
235
100
AcDbEntity
  8
0
100
AcDbLine
 62
7
  6
CONTINUOUS
 10
26.3246518397
 20
-150.0557711108
 11
-12.7076424818
 21
-127.5190135591
  0
LINE
  5
236
100
AcDbEntity
  8
0
100
AcDbLine
 62
7
  6
CONTINUOUS
 10
-16.1017550315
 20
-125.5592955112
 11
-20.7686597873
 21
-122.8646831952
  0
LINE
  5
237
100
AcDbEntity
  8
0
100
AcDbLine
 62
7
  6
CONTINUOUS
 10
35.0220652483
 20
-153.4444502355
 11
31.1329779518
 21
-151.1989399722
  0
LINE
  5
238
100
AcDbEntity
  8
0
100
AcDbLine
 62
7
  6
CONTINUOUS
 10
27.7388654021
 20
-149.2392219242
 11
-11.2934289194
 21
-126.7024643725
  0
LINE
  5
239
100
AcDbEntity
  8
0
100
AcDbLine
 62
7
  6
CONTINUOUS
 10
-14.6875414691
 20
-124.7427463245
 11
-19.354446225
 21
-122.0481340086
  0
LWPOLYLINE
  5
23A
100
AcDbEntity
  8
0
100
AcDbPolyline
 62
7
  6
CONTINUOUS
 90
18
 70
0
 10
-12.7076424818
 20
-127.5190135591
 10
-12.7442135386
 20
-127.4967908373
 10
-12.7804962932
 20
-127.4725977998
 10
-12.8164907457
 20
-127.4464344465
 10
-12.8522907058
 20
-127.4182210424
 10
-12.8878023638
 20
-127.3880373225
 10
-12.9227442899
 20
-127.3561224927
 10
-12.9571119572
 20
-127.3224627977
 10
-12.9909098926
 20
-127.2870719927
 10
-13.0238702478
 20
-127.2502305497
 10
-13.0559863674
 20
-127.211926942
 10
-13.0872649068
 20
-127.1721726961
 10
-13.1174579837
 20
-127.1312828644
 10
-13.1465569731
 20
-127.0892484235
 10
-13.1745705001
 20
-127.0460783966
 10
-13.2012765577
 20
-127.002114906
 10
-13.2266011435
 20
-126.9574719923
 10
-13.2506182598
 20
-126.9120356149
  0
LWPOLYLINE
  5
23B
100
AcDbEntity
  8
0
100
AcDbPolyline
 62
7
  6
CONTINUOUS
 90
18
 70
0
 10
29.7187643894
 20
-152.0154891588
 10
29.6821933326
 20
-151.993266437
 10
29.645910578
 20
-151.9690733994
 10
29.6099161255
 20
-151.9429100462
 10
29.5741161654
 20
-151.914696642
 10
29.5386045074
 20
-151.8845129222
 10
29.5036625813
 20
-151.8525980924
 10
29.469294914
 20
-151.8189383974
 10
29.4354969786
 20
-151.7835475924
 10
29.4025366234
 20
-151.7467061494
 10
29.3704205038
 20
-151.7084025416
 10
29.3391419644
 20
-151.6686482958
 10
29.3089488875
 20
-151.6277584641
 10
29.2798498981
 20
-151.5857240231
 10
29.2518363711
 20
-151.5425539962
 10
29.2251303135
 20
-151.4985905056
 10
29.1998057277
 20
-151.453947592
 10
29.1757886113
 20
-151.4085112146
  0
LWPOLYLINE
  5
23C
100
AcDbEntity
  8
0
100
AcDbPolyline
 62
7
  6
CONTINUOUS
 90
31
 70
0
 10
-20.7686597873
 20
-122.8646831952
 10
-20.805834381
 20
-122.8420746485
 10
-20.842706338
 20
-122.8174345413
 10
-20.8792756584
 20
-122.7907628737
 10
-20.915640737
 20
-122.7619755575
 10
-20.951703179
 20
-122.7311566808
 10
-20.9871677996
 20
-122.6985585078
 10
-21.022029692
 20
-122.6641664345
 10
-21.056293763
 20
-122.6279950648
 10
-21.0896795483
 20
-122.5903404752
 10
-21.122179839
 20
-122.5511904917
 10
-21.153801844
 20
-122.5105572882
 10
-21.1842867251
 20
-122.4687734629
 10
-21.2136251491
 20
-122.4258295717
 10
-21.2418264493
 20
-122.3817350588
 10
-21.2686597873
 20
-122.3368508542
 10
-21.2941139353
 20
-122.2911704766
 10
-21.3182001211
 20
-122.2447004073
 10
-21.3407211902
 20
-122.1978210217
 10
-21.3616642964
 20
-122.15052896
 10
-21.381042286
 20
-122.1028275818
 10
-21.3986965427
 20
-122.0551073411
 10
-21.4146129185
 20
-122.0073680829
 10
-21.4288055614
 20
-121.9596099621
 10
-21.4411582993
 20
-121.9122238969
 10
-21.4516560306
 20
-121.8652129412
 10
-21.460313857
 20
-121.8185740411
 10
-21.4670609107
 20
-121.7726889538
 10
-21.4718735692
 20
-121.7276849315
 10
-21.4747754552
 20
-121.6834347219
 10
-21.4757665685
 20
-121.6399383251
  0
LWPOLYLINE
  5
23D
100
AcDbEntity
  8
0
100
AcDbPolyline
 62
7
  6
CONTINUOUS
 90
15
 70
0
 10
-26.3901586978
 20
-121.6193115388
 10
-26.5442113001
 20
-121.511870665
 10
-26.6856326563
 20
-121.386461236
 10
-26.8144227665
 20
-121.243083252
 10
-26.9336638685
 20
-121.0763981201
 10
-27.0402737245
 20
-120.8917444331
 10
-27.1250056206
 20
-120.7051379693
 10
-27.1859054961
 20
-120.5164043135
 10
-27.2249274117
 20
-120.3257178809
 10
-27.2386868352
 20
-120.1496176947
 10
-27.2249274117
 20
-119.9894065457
 10
-27.1859054961
 20
-119.8437816431
 10
-27.1250056206
 20
-119.7253736371
 10
-27.0402737245
 20
-119.6366134429
 10
-26.9891545691
 20
-119.602122775
  0
LWPOLYLINE
  5
23E
100
AcDbEntity
  8
0
100
AcDbPolyline
 62
7
  6
CONTINUOUS
 90
15
 70
0
 10
-26.3901586978
 20
-119.6597828745
 10
-26.2361060955
 20
-119.7672237483
 10
-26.0946847392
 20
-119.8926331772
 10
-25.9658946291
 20
-120.0360111613
 10
-25.846653527
 20
-120.2026962932
 10
-25.740043671
 20
-120.3873499802
 10
-25.6553117749
 20
-120.573956444
 10
-25.5944118994
 20
-120.7626900998
 10
-25.5553899838
 20
-120.9533765324
 10
-25.5416305603
 20
-121.1294767186
 10
-25.5553899838
 20
-121.2896878676
 10
-25.5944118994
 20
-121.4353127702
 10
-25.6553117749
 20
-121.5537207762
 10
-25.740043671
 20
-121.6424809704
 10
-25.7911628264
 20
-121.6769716383
  0
LINE
  5
23F
100
AcDbEntity
  8
ASSI
100
AcDbLine
 62
253
  6
CONTINUOUS
 10
37.5676496606
 20
148.8126252856
 11
19.2889393669
 21
138.2587270481
  0
LINE
  5
240
100
AcDbEntity
  8
RACCORDO
100
AcDbLine
 62
253
  6
CONTINUOUS
 10
40.2405132934
 20
148.3149169401
 11
40.1494742816
 21
148.2623521557
  0
LWPOLYLINE
  5
241
100
AcDbEntity
  8
0
100
AcDbPolyline
 62
253
  6
CONTINUOUS
 90
19
 70
0
 10
37.5676496606
 20
148.8126252856
 10
37.6601803543
 20
148.8637200522
 10
37.7525349107
 20
148.9100549642
 10
37.8445375275
 20
148.9515418206
 10
37.9360130725
 20
148.9881016487
 10
38.0267874168
 20
149.0196648548
 10
38.1166877662
 20
149.0461713567
 10
38.2055429905
 20
149.0675706975
 10
38.2931839485
 20
149.0838221426
 10
38.3794438108
 20
149.0948947563
 10
38.4641583767
 20
149.1007674613
 10
38.5471663874
 20
149.1014290786
 10
38.6283098323
 20
149.0968783487
 10
38.7074342503
 20
149.0871239342
 10
38.7843890236
 20
149.0721844031
 10
38.8590276643
 20
149.0520881939
 10
38.9312080936
 20
149.0268735606
 10
39.0007929119
 20
148.9965885008
 10
39.0676496606
 20
148.9612906639
  0
LWPOLYLINE
  5
242
100
AcDbEntity
  8
0
100
AcDbPolyline
 62
7
  6
CONTINUOUS
 90
13
 70
0
 10
-20.9504872454
 20
-102.4425976397
 10
-20.8760714641
 20
-102.4606523605
 10
-20.8029410711
 20
-102.4743677543
 10
-20.7310960663
 20
-102.483743821
 10
-20.660404439
 20
-102.4887817959
 10
-20.5909982
 20
-102.4894804438
 10
-20.5232733817
 20
-102.4858360592
 10
-20.4572396076
 20
-102.4778238201
 10
-20.3928872542
 20
-102.4654685485
 10
-20.3305834837
 20
-102.4488410051
 10
-20.270340015
 20
-102.4279167754
 10
-20.2121451292
 20
-102.4027202739
 10
-20.1549954978
 20
-102.3726261275
  0
LWPOLYLINE
  5
243
100
AcDbEntity
  8
0
100
AcDbPolyline
 62
253
  6
CONTINUOUS
 90
19
 70
0
 10
46.760037816
 20
132.8909419741
 10
46.8505494829
 20
132.9455337978
 10
46.9368508018
 20
133.0023532246
 10
47.0187774933
 20
133.0612920954
 10
47.0961736053
 20
133.1222382168
 10
47.1688918099
 20
133.1850755743
 10
47.2367936838
 20
133.2496845535
 10
47.299749972
 20
133.3159421674
 10
47.3576408335
 20
133.383722291
 10
47.41035607
 20
133.452895901
 10
47.4577953348
 20
133.5233313213
 10
47.4998683247
 20
133.5948944743
 10
47.5364949513
 20
133.6674491354
 10
47.5676054938
 20
133.7408571927
 10
47.5931407315
 20
133.8149789097
 10
47.6130520565
 20
133.8896731915
 10
47.6273015667
 20
133.9647978534
 10
47.6358621372
 20
134.0402098913
 10
47.6387174724
 20
134.115765754
  0
LINE
  5
244
100
AcDbEntity
  8
ASSI
100
AcDbLine
 62
253
  6
CONTINUOUS
 10
46.760037816
 20
132.8909419741
 11
30.8501352393
 21
123.7047636242
  0
LWPOLYLINE
  5
245
100
AcDbEntity
  8
0
100
AcDbPolyline
 62
7
  6
CONTINUOUS
 90
25
 70
0
 10
-20.8760714641
 20
-98.5654006051
 10
-20.9876936165
 20
-98.4633170251
 10
-21.0240344173
 20
-98.427397219
 10
-21.0595096478
 20
-98.3897624286
 10
-21.0942197306
 20
-98.3502904452
 10
-21.128064243
 20
-98.3091034774
 10
-21.1607419176
 20
-98.2665681521
 10
-21.1922423366
 20
-98.2226724309
 10
-21.2225759177
 20
-98.1774283522
 10
-21.2514726459
 20
-98.131238657
 10
-21.2789196929
 20
-98.0840949027
 10
-21.304929887
 20
-98.036005532
 10
-21.3292716979
 20
-97.9873986132
 10
-21.3519302303
 20
-97.9382695258
 10
-21.3729203794
 20
-97.8886228904
 10
-21.3920553011
 20
-97.8389006376
 10
-21.4093184318
 20
-97.7891020922
 10
-21.4247263351
 20
-97.7392279294
 10
-21.4381418571
 20
-97.689722105
 10
-21.44954721
 20
-97.6405879076
 10
-21.4589601816
 20
-97.5918220486
 10
-21.4662969822
 20
-97.5438586184
 10
-21.471529682
 20
-97.4968423137
 10
-21.4746862107
 20
-97.4506284377
 10
-21.4757665685
 20
-97.4052169905
  0
LWPOLYLINE
  5
246
100
AcDbEntity
  8
0
100
AcDbPolyline
 62
7
  6
CONTINUOUS
 90
17
 70
0
 10
34.493080822
 20
-134.430106952
 10
34.6047029744
 20
-134.532190532
 10
34.6410437752
 20
-134.5681103381
 10
34.6765190057
 20
-134.6057451285
 10
34.7112290885
 20
-134.6452171119
 10
34.7450736009
 20
-134.6864040797
 10
34.7777512754
 20
-134.728939405
 10
34.8092516945
 20
-134.7728351262
 10
34.8395852756
 20
-134.8180792049
 10
34.8684820038
 20
-134.8642689001
 10
34.8959290508
 20
-134.9114126544
 10
34.9219392449
 20
-134.9595020251
 10
34.9462810558
 20
-135.0081089439
 10
34.9689395881
 20
-135.0572380313
 10
34.9899297373
 20
-135.1068846667
 10
35.0090646589
 20
-135.1566069195
 10
35.0220652483
 20
-135.1941094124
  0
LWPOLYLINE
  5
247
100
AcDbEntity
  8
0
100
AcDbPolyline
 62
7
  6
CONTINUOUS
 90
13
 70
0
 10
-26.7643997812
 20
67.7968086581
 10
-26.7820518586
 20
67.7849294405
 10
-26.8489952024
 20
67.7171914607
 10
-26.8945325817
 20
67.6290630082
 10
-26.9159385463
 20
67.5179479274
 10
-26.9159385463
 20
67.3864423739
 10
-26.8945325817
 20
67.2506082218
 10
-26.8489952024
 20
67.1098943452
 10
-26.7820518586
 20
66.9648518699
 10
-26.7018789011
 20
66.8331960473
 10
-26.6112017803
 20
66.7208319615
 10
-26.5072950458
 20
66.6218545284
 10
-26.3901586978
 20
66.5362637481
  0
LWPOLYLINE
  5
248
100
AcDbEntity
  8
0
100
AcDbPolyline
 62
7
  6
CONTINUOUS
 90
13
 70
0
 10
-26.0159176143
 20
66.5004242533
 10
-25.998265537
 20
66.5123034709
 10
-25.9313221931
 20
66.5800414508
 10
-25.8857848138
 20
66.6681699032
 10
-25.8643788493
 20
66.779284984
 10
-25.8643788493
 20
66.9107905375
 10
-25.8857848138
 20
67.0466246896
 10
-25.9313221931
 20
67.1873385662
 10
-25.998265537
 20
67.3323810416
 10
-26.0784384944
 20
67.4640368641
 10
-26.1691156152
 20
67.57640095
 10
-26.2730223497
 20
67.675378383
 10
-26.3901586978
 20
67.7609691633
  0
LWPOLYLINE
  5
249
100
AcDbEntity
  8
ASSI
100
AcDbPolyline
 62
7
  6
CONTINUOUS
 90
11
 70
0
 10
-26.5348567815
 20
68.6239301606
 10
-26.5595956437
 20
68.6085692265
 10
-26.5910579805
 20
68.5855564005
 10
-26.6207834684
 20
68.5596799303
 10
-26.6485513161
 20
68.5311320182
 10
-26.6743469468
 20
68.4998927721
 10
-26.6981849373
 20
68.465982084
 10
-26.7198882267
 20
68.4296518316
 10
-26.7394409196
 20
68.3908839985
 10
-26.7568589113
 20
68.3496966012
 10
-26.768764592
 20
68.3156771227
  0
LWPOLYLINE
  5
24A
100
AcDbEntity
  8
ASSI
100
AcDbPolyline
 62
7
  6
CONTINUOUS
 90
17
 70
0
 10
-25.1848004423
 20
66.2857146408
 10
-25.16006158
 20
66.301075575
 10
-25.1285992433
 20
66.3240884009
 10
-25.0988737553
 20
66.3499648711
 10
-25.0711059076
 20
66.3785127832
 10
-25.0453102769
 20
66.4097520293
 10
-25.0214722864
 20
66.4436627174
 10
-24.9997689971
 20
66.4799929698
 10
-24.9802163042
 20
66.5187608029
 10
-24.9627983125
 20
66.5599482002
 10
-24.9476443972
 20
66.6032492351
 10
-24.9347714169
 20
66.6486796458
 10
-24.9241625131
 20
66.6962236939
 10
-24.9158964853
 20
66.7455282376
 10
-24.9099995999
 20
66.7964755628
 10
-24.9064455906
 20
66.8491833835
 10
-24.9052344573
 20
66.9036516997
  0
LINE
  5
24B
100
AcDbEntity
  8
0
100
AcDbLine
 62
7
  6
CONTINUOUS
 10
-26.9901876899
 20
68.1878302011
 11
-26.151025832
 21
68.6723517407
  0
LINE
  5
24C
100
AcDbEntity
  8
0
100
AcDbLine
 62
7
  6
CONTINUOUS
 10
-25.7901297056
 20
66.1094027103
 11
-24.9508926318
 21
66.5939676787
  0
LWPOLYLINE
  5
24D
100
AcDbEntity
  8
0
100
AcDbPolyline
 62
7
  6
CONTINUOUS
 90
6
 70
0
 10
-26.9891545691
 20
68.1860408874
 10
-26.9336638685
 20
68.213093517
 10
-26.8144227665
 20
68.2420820131
 10
-26.6856326563
 20
68.2367364061
 10
-26.5442113001
 20
68.1988359977
 10
-26.3901586978
 20
68.1283807879
  0
LWPOLYLINE
  5
24E
100
AcDbEntity
  8
0
100
AcDbPolyline
 62
7
  6
CONTINUOUS
 90
6
 70
0
 10
-25.7911628264
 20
66.111192024
 10
-25.846653527
 20
66.0841393944
 10
-25.9658946291
 20
66.0551508983
 10
-26.0946847392
 20
66.0604965053
 10
-26.2361060955
 20
66.0983969137
 10
-26.3901586978
 20
66.1688521236
  0
LWPOLYLINE
  5
24F
100
AcDbEntity
  8
0
100
AcDbPolyline
 62
7
  6
CONTINUOUS
 90
18
 70
0
 10
-11.8364046975
 20
-126.0954864283
 10
-11.8123875811
 20
-126.1409228056
 10
-11.7870629953
 20
-126.1855657193
 10
-11.7603569378
 20
-126.2295292099
 10
-11.7323434108
 20
-126.2726992368
 10
-11.7032444213
 20
-126.3147336778
 10
-11.6730513444
 20
-126.3556235095
 10
-11.641772805
 20
-126.3953777553
 10
-11.6096566855
 20
-126.4336813631
 10
-11.5766963302
 20
-126.4705228061
 10
-11.5428983948
 20
-126.505913611
 10
-11.5085307276
 20
-126.5395733061
 10
-11.4735888014
 20
-126.5714881359
 10
-11.4380771434
 20
-126.6016718557
 10
-11.4022771833
 20
-126.6298852599
 10
-11.3662827308
 20
-126.6560486131
 10
-11.3299999762
 20
-126.6802416506
 10
-11.2934289194
 20
-126.7024643725
  0
LWPOLYLINE
  5
250
100
AcDbEntity
  8
0
100
AcDbPolyline
 62
7
  6
CONTINUOUS
 90
37
 70
0
 10
-13.2506182598
 20
-126.9120356149
 10
-13.3151171748
 20
-126.7804748833
 10
-13.3591622218
 20
-126.6964502147
 10
-13.4054630478
 20
-126.6137317678
 10
-13.4541343632
 20
-126.5321387049
 10
-13.5050614576
 20
-126.4518518638
 10
-13.5579001994
 20
-126.3734137582
 10
-13.6126635345
 20
-126.2968369088
 10
-13.6693385169
 20
-126.222108795
 10
-13.7275421774
 20
-126.1497343678
 10
-13.7872848683
 20
-126.0797295678
 10
-13.8485562373
 20
-126.0120784546
 10
-13.910942258
 20
-125.9472381581
 10
-13.9744504789
 20
-125.8852277146
 10
-14.0390733516
 20
-125.8260280879
 10
-14.1043742042
 20
-125.7700393
 10
-14.1703576281
 20
-125.717283096
 10
-14.2370190319
 20
-125.6677377309
 10
-14.30390797
 20
-125.6217379918
 10
-14.371025983
 20
-125.5793078908
 10
-14.4383715303
 20
-125.5404234159
 10
-14.5054895433
 20
-125.5053473177
 10
-14.5723784814
 20
-125.4741053879
 10
-14.6390398852
 20
-125.4466718348
 10
-14.7050233091
 20
-125.4232320348
 10
-14.7703241617
 20
-125.4038130349
 10
-14.8349470344
 20
-125.388387788
 10
-14.8984552553
 20
-125.3770605299
 10
-14.960841276
 20
-125.3698590134
 10
-15.022112645
 20
-125.3667554856
 10
-15.0818553359
 20
-125.3677709236
 10
-15.1400589964
 20
-125.3729332225
 10
-15.1967339789
 20
-125.3822144873
 10
-15.2514973139
 20
-125.39555201
 10
-15.3043360557
 20
-125.4129732611
 10
-15.3552631501
 20
-125.4344507701
 10
-15.4047470752
 20
-125.4603078507
  0
LWPOLYLINE
  5
251
100
AcDbEntity
  8
0
100
AcDbPolyline
 62
7
  6
CONTINUOUS
 90
37
 70
0
 10
-11.8364046975
 20
-126.0954864283
 10
-11.9009036124
 20
-125.9639256967
 10
-11.9449486594
 20
-125.879901028
 10
-11.9912494854
 20
-125.7971825812
 10
-12.0399208008
 20
-125.7155895183
 10
-12.0908478952
 20
-125.6353026772
 10
-12.143686637
 20
-125.5568645715
 10
-12.1984499721
 20
-125.4802877222
 10
-12.2551249545
 20
-125.4055596083
 10
-12.313328615
 20
-125.3331851812
 10
-12.3730713059
 20
-125.2631803812
 10
-12.4343426749
 20
-125.1955292679
 10
-12.4967286956
 20
-125.1306889715
 10
-12.5602369165
 20
-125.0686785279
 10
-12.6248597892
 20
-125.0094789012
 10
-12.6901606419
 20
-124.9534901134
 10
-12.7561440658
 20
-124.9007339094
 10
-12.8228054696
 20
-124.8511885442
 10
-12.8896944076
 20
-124.8051888051
 10
-12.9568124207
 20
-124.7627587042
 10
-13.0241579679
 20
-124.7238742292
 10
-13.091275981
 20
-124.6887981311
 10
-13.158164919
 20
-124.6575562012
 10
-13.2248263228
 20
-124.6301226481
 10
-13.2908097467
 20
-124.6066828482
 10
-13.3561105993
 20
-124.5872638482
 10
-13.420733472
 20
-124.5718386013
 10
-13.484241693
 20
-124.5605113432
 10
-13.5466277137
 20
-124.5533098267
 10
-13.6078990826
 20
-124.5502062989
 10
-13.6676417735
 20
-124.551221737
 10
-13.725845434
 20
-124.5563840359
 10
-13.7825204165
 20
-124.5656653006
 10
-13.8372837515
 20
-124.5790028233
 10
-13.8901224933
 20
-124.5964240744
 10
-13.9410495877
 20
-124.6179015835
 10
-13.9905335128
 20
-124.643758664
  0
LWPOLYLINE
  5
252
100
AcDbEntity
  8
0
100
AcDbPolyline
 62
7
  6
CONTINUOUS
 90
24
 70
0
 10
-40.6383603387
 20
-138.0101713203
 10
-40.6361847581
 20
-138.151675279
 10
-40.6297287499
 20
-138.2901882996
 10
-40.618992314
 20
-138.4257103823
 10
-40.6039519587
 20
-138.5583992235
 10
-40.5846311758
 20
-138.6880971266
 10
-40.5611004401
 20
-138.8143310019
 10
-40.5333443769
 20
-138.9370881984
 10
-40.5013783609
 20
-139.056381367
 10
-40.4653189926
 20
-139.1717753704
 10
-40.4251513225
 20
-139.2832559686
 10
-40.3808903
 20
-139.3908374017
 10
-40.3326973728
 20
-139.4941272524
 10
-40.2805581814
 20
-139.5931098477
 10
-40.2244870854
 20
-139.6878008605
 10
-40.1646886112
 20
-139.7778548933
 10
-40.1011491463
 20
-139.8632550115
 10
-40.0338823034
 20
-139.9440181496
 10
-39.9631334468
 20
-140.0198497137
 10
-39.8888898602
 20
-140.0907316932
 10
-39.8111642599
 20
-140.1566820988
 10
-39.7302401602
 20
-140.2174603676
 10
-39.64610588
 20
-140.2730476107
 10
-39.6029401932
 20
-140.2988434327
  0
LINE
  5
253
100
AcDbEntity
  8
ASSI
100
AcDbLine
 62
7
  6
CONTINUOUS
 10
-47.6387174724
 20
120.0119246684
 11
-47.6387174724
 21
169.0232434836
  0
LINE
  5
254
100
AcDbEntity
  8
ASSI
100
AcDbLine
 62
7
  6
CONTINUOUS
 10
-46.22450391
 20
119.1953754817
 11
-46.22450391
 21
168.2066942969
  0
LINE
  5
255
100
AcDbEntity
  8
0
100
AcDbLine
 62
7
  6
CONTINUOUS
 10
-42.052573901
 20
-137.1936221336
 11
-42.052573901
 21
101.5302322938
  0
LINE
  5
256
100
AcDbEntity
  8
ASSI
100
AcDbLine
 62
7
  6
CONTINUOUS
 10
-40.815137034
 20
172.962067481
 11
-40.815137034
 21
171.3291269274
  0
LINE
  5
257
100
AcDbEntity
  8
0
100
AcDbLine
 62
7
  6
CONTINUOUS
 10
-40.6383603387
 20
-138.0101713203
 11
-40.6383603387
 21
100.7136831072
  0
LWPOLYLINE
  5
258
100
AcDbEntity
  8
ASSI
100
AcDbPolyline
 62
7
  6
CONTINUOUS
 90
30
 70
0
 10
-46.22450391
 20
168.2066942969
 10
-46.2228525659
 20
168.4430638367
 10
-46.2179201207
 20
168.675400735
 10
-46.2096701087
 20
168.9035124039
 10
-46.1980704064
 20
169.127294981
 10
-46.1830874948
 20
169.3464637085
 10
-46.1647097056
 20
169.5605696997
 10
-46.1429612234
 20
169.7694165625
 10
-46.1178236992
 20
169.9728508801
 10
-46.0892676464
 20
170.1705212405
 10
-46.057367055
 20
170.3620979183
 10
-46.0221255968
 20
170.5476155677
 10
-45.9834079127
 20
170.7272665711
 10
-45.9412236191
 20
170.9009248132
 10
-45.8956026536
 20
171.0683811973
 10
-45.8464085297
 20
171.2296709657
 10
-45.7936381431
 20
171.3847069817
 10
-45.7373319616
 20
171.5332235278
 10
-45.6774293588
 20
171.6749964495
 10
-45.6140000892
 20
171.8098607768
 10
-45.5470792322
 20
171.9376897613
 10
-45.4765901142
 20
172.0583563981
 10
-45.4026856289
 20
172.171634335
 10
-45.3253776022
 20
172.2775264936
 10
-45.2443686324
 20
172.376233867
 10
-45.1596616095
 20
172.4676693146
 10
-45.0713731742
 20
172.5516216996
 10
-44.9793574433
 20
172.6280750412
 10
-44.8836592133
 20
172.6969192377
 10
-44.7963955033
 20
172.7511356547
  0
LWPOLYLINE
  5
259
100
AcDbEntity
  8
ASSI
100
AcDbPolyline
 62
7
  6
CONTINUOUS
 90
30
 70
0
 10
-47.6387174724
 20
169.0232434836
 10
-47.6365670308
 20
169.3027041186
 10
-47.6301325219
 20
169.5776335562
 10
-47.6193708498
 20
169.8478041926
 10
-47.6042422956
 20
170.1130942944
 10
-47.5847090007
 20
170.3731663167
 10
-47.5607624394
 20
170.6274867172
 10
-47.5324271622
 20
170.8758257242
 10
-47.4996855153
 20
171.117999699
 10
-47.4625200092
 20
171.3535833141
 10
-47.4210195044
 20
171.5821860753
 10
-47.3751869227
 20
171.8038497564
 10
-47.3248753989
 20
172.0187941516
 10
-47.2700947468
 20
172.2268711114
 10
-47.2108818982
 20
172.4278326258
 10
-47.1470933094
 20
172.6217100913
 10
-47.0787195643
 20
172.8084038467
 10
-47.0058142356
 20
172.9875965436
 10
-46.9283406747
 20
173.1590030636
 10
-46.8463788244
 20
173.322429882
 10
-46.7599726364
 20
173.4777257652
 10
-46.6690739785
 20
173.6247160879
 10
-46.5738698823
 20
173.7631296828
 10
-46.4743679848
 20
173.8929736629
 10
-46.3702402766
 20
174.0144720171
 10
-46.261483886
 20
174.1275253907
 10
-46.1482429481
 20
174.2318806287
 10
-46.0303873814
 20
174.3274944062
 10
-45.9079647248
 20
174.4142397221
 10
-45.7964436178
 20
174.4831586825
  0
LWPOLYLINE
  5
25A
100
AcDbEntity
  8
0
100
AcDbPolyline
 62
7
  6
CONTINUOUS
 90
15
 70
0
 10
-26.3901586978
 20
-27.7252297076
 10
-26.5442113001
 20
-27.6177888338
 10
-26.6856326563
 20
-27.4923794049
 10
-26.8144227665
 20
-27.3490014208
 10
-26.9336638685
 20
-27.182316289
 10
-27.0402737245
 20
-26.997662602
 10
-27.1250056206
 20
-26.8110561381
 10
-27.1859054961
 20
-26.6223224824
 10
-27.2249274117
 20
-26.4316360497
 10
-27.2386868352
 20
-26.2555358635
 10
-27.2249274117
 20
-26.0953247145
 10
-27.1859054961
 20
-25.9496998119
 10
-27.1250056206
 20
-25.8312918059
 10
-27.0402737245
 20
-25.7425316118
 10
-26.9891545691
 20
-25.7080409438
  0
LWPOLYLINE
  5
25B
100
AcDbEntity
  8
0
100
AcDbPolyline
 62
7
  6
CONTINUOUS
 90
18
 70
0
 10
30.5900021737
 20
-150.5919620279
 10
30.6140192901
 20
-150.6373984053
 10
30.6393438759
 20
-150.682041319
 10
30.6660499334
 20
-150.7260048096
 10
30.6940634604
 20
-150.7691748365
 10
30.7231624499
 20
-150.8112092774
 10
30.7533555268
 20
-150.8520991092
 10
30.7846340662
 20
-150.891853355
 10
30.8167501857
 20
-150.9301569627
 10
30.849710541
 20
-150.9669984057
 10
30.8835084764
 20
-151.0023892107
 10
30.9178761436
 20
-151.0360489058
 10
30.9528180698
 20
-151.0679637355
 10
30.9883297278
 20
-151.0981474554
 10
31.0241296879
 20
-151.1263608595
 10
31.0601241403
 20
-151.1525242128
 10
31.096406895
 20
-151.1767172503
 10
31.1329779518
 20
-151.1989399722
  0
LWPOLYLINE
  5
25C
100
AcDbEntity
  8
0
100
AcDbPolyline
 62
7
  6
CONTINUOUS
 90
37
 70
0
 10
29.1757886113
 20
-151.4085112146
 10
29.1112896964
 20
-151.276950483
 10
29.0672446494
 20
-151.1929258143
 10
29.0209438234
 20
-151.1102073675
 10
28.972272508
 20
-151.0286143046
 10
28.9213454136
 20
-150.9483274635
 10
28.8685066718
 20
-150.8698893578
 10
28.8137433367
 20
-150.7933125085
 10
28.7570683543
 20
-150.7185843946
 10
28.6988646938
 20
-150.6462099675
 10
28.6391220029
 20
-150.5762051675
 10
28.5778506339
 20
-150.5085540542
 10
28.5154646132
 20
-150.4437137578
 10
28.4519563923
 20
-150.3817033142
 10
28.3873335196
 20
-150.3225036875
 10
28.322032667
 20
-150.2665148997
 10
28.2560492431
 20
-150.2137586957
 10
28.1893878392
 20
-150.1642133306
 10
28.1224989012
 20
-150.1182135915
 10
28.0553808882
 20
-150.0757834905
 10
27.9880353409
 20
-150.0368990155
 10
27.9209173278
 20
-150.0018229174
 10
27.8540283898
 20
-149.9705809875
 10
27.787366986
 20
-149.9431474344
 10
27.7213835621
 20
-149.9197076345
 10
27.6560827095
 20
-149.9002886345
 10
27.5914598368
 20
-149.8848633877
 10
27.5279516159
 20
-149.8735361296
 10
27.4655655951
 20
-149.866334613
 10
27.4042942262
 20
-149.8632310852
 10
27.3445515353
 20
-149.8642465233
 10
27.2863478748
 20
-149.8694088222
 10
27.2296728923
 20
-149.878690087
 10
27.1749095573
 20
-149.8920276097
 10
27.1220708155
 20
-149.9094488607
 10
27.0711437211
 20
-149.9309263698
 10
27.021659796
 20
-149.9567834503
  0
LWPOLYLINE
  5
25D
100
AcDbEntity
  8
0
100
AcDbPolyline
 62
7
  6
CONTINUOUS
 90
37
 70
0
 10
30.5900021737
 20
-150.5919620279
 10
30.5255032588
 20
-150.4604012963
 10
30.4814582117
 20
-150.3763766277
 10
30.4351573858
 20
-150.2936581809
 10
30.3864860703
 20
-150.2120651179
 10
30.335558976
 20
-150.1317782768
 10
30.2827202342
 20
-150.0533401712
 10
30.2279568991
 20
-149.9767633218
 10
30.1712819167
 20
-149.902035208
 10
30.1130782562
 20
-149.8296607808
 10
30.0533355653
 20
-149.7596559808
 10
29.9920641963
 20
-149.6920048676
 10
29.9296781756
 20
-149.6271645711
 10
29.8661699546
 20
-149.5651541276
 10
29.801547082
 20
-149.5059545009
 10
29.7362462293
 20
-149.4499657131
 10
29.6702628054
 20
-149.397209509
 10
29.6036014016
 20
-149.3476641439
 10
29.5367124636
 20
-149.3016644048
 10
29.4695944505
 20
-149.2592343038
 10
29.4022489033
 20
-149.2203498289
 10
29.3351308902
 20
-149.1852737307
 10
29.2682419522
 20
-149.1540318009
 10
29.2015805484
 20
-149.1265982478
 10
29.1355971245
 20
-149.1031584478
 10
29.0702962719
 20
-149.0837394479
 10
29.0056733992
 20
-149.068314201
 10
28.9421651782
 20
-149.0569869429
 10
28.8797791575
 20
-149.0497854264
 10
28.8185077886
 20
-149.0466818986
 10
28.7587650977
 20
-149.0476973367
 10
28.7005614372
 20
-149.0528596356
 10
28.6438864547
 20
-149.0621409003
 10
28.5891231196
 20
-149.075478423
 10
28.5362843779
 20
-149.0928996741
 10
28.4853572835
 20
-149.1143771831
 10
28.4358733584
 20
-149.1402342637
  0
LWPOLYLINE
  5
25E
100
AcDbEntity
  8
ASSI
100
AcDbPolyline
 62
7
  6
CONTINUOUS
 90
49
 70
0
 10
-24.9052344573
 20
-120.8845119626
 10
-24.9064455906
 20
-120.82864506
 10
-24.9099995999
 20
-120.7718331584
 10
-24.9158964853
 20
-120.7140762579
 10
-24.9241625131
 20
-120.6552263124
 10
-24.9347714169
 20
-120.5954313681
 10
-24.9476443972
 20
-120.5351355624
 10
-24.9627983125
 20
-120.4743351661
 10
-24.9802163042
 20
-120.4130339085
 10
-24.9997689971
 20
-120.3516871158
 10
-25.0214722864
 20
-120.2902944489
 10
-25.0453102769
 20
-120.2288562469
 10
-25.0711059076
 20
-120.167828853
 10
-25.0988737553
 20
-120.1072153263
 10
-25.1285992433
 20
-120.0470126078
 10
-25.16006158
 20
-119.987667864
 10
-25.1932736983
 20
-119.9291874835
 10
-25.2282226654
 20
-119.8715650777
 10
-25.2646488916
 20
-119.8152286475
 10
-25.3025633766
 20
-119.7601877683
 10
-25.3419551207
 20
-119.7064328646
 10
-25.3825315346
 20
-119.6543632106
 10
-25.4243014394
 20
-119.603991355
 10
-25.467256014
 20
-119.555304749
 10
-25.5110762056
 20
-119.5086650214
 10
-25.5557684596
 20
-119.4640874133
 10
-25.6013263305
 20
-119.4215566835
 10
-25.647411429
 20
-119.3813887367
 10
-25.6940276811
 20
-119.3436011663
 10
-25.7411711607
 20
-119.3081763788
 10
-25.7884917014
 20
-119.2753774983
 10
-25.8359906214
 20
-119.2452240775
 10
-25.8836666024
 20
-119.2176965636
 10
-25.9311655224
 20
-119.1929994222
 10
-25.978486063
 20
-119.1711537285
 10
-26.0256295427
 20
-119.1521384073
 10
-26.0722457947
 20
-119.1360946984
 10
-26.1183308933
 20
-119.1230447286
 10
-26.1638887642
 20
-119.112966371
 10
-26.2085810182
 20
-119.1059344844
 10
-26.2524012097
 20
-119.1019717532
 10
-26.2953557843
 20
-119.1010554931
 10
-26.3371256892
 20
-119.1031925096
 10
-26.377702103
 20
-119.1084055379
 10
-26.4170938471
 20
-119.1166718429
 10
-26.4550083322
 20
-119.1279300252
 10
-26.4914345583
 20
-119.1422023625
 10
-26.5263835254
 20
-119.1594665771
 10
-26.5348567815
 20
-119.1642335018
  0
LWPOLYLINE
  5
25F
100
AcDbEntity
  8
ASSI
100
AcDbPolyline
 62
7
  6
CONTINUOUS
 90
49
 70
0
 10
-24.9052344573
 20
-26.9904301315
 10
-24.9064455906
 20
-26.9345632288
 10
-24.9099995999
 20
-26.8777513272
 10
-24.9158964853
 20
-26.8199944267
 10
-24.9241625131
 20
-26.7611444813
 10
-24.9347714169
 20
-26.7013495369
 10
-24.9476443972
 20
-26.6410537313
 10
-24.9627983125
 20
-26.5802533349
 10
-24.9802163042
 20
-26.5189520773
 10
-24.9997689971
 20
-26.4576052846
 10
-25.0214722864
 20
-26.3962126177
 10
-25.0453102769
 20
-26.3347744157
 10
-25.0711059076
 20
-26.2737470219
 10
-25.0988737553
 20
-26.2131334952
 10
-25.1285992433
 20
-26.1529307766
 10
-25.16006158
 20
-26.0935860328
 10
-25.1932736983
 20
-26.0351056523
 10
-25.2282226654
 20
-25.9774832466
 10
-25.2646488916
 20
-25.9211468163
 10
-25.3025633766
 20
-25.8661059371
 10
-25.3419551207
 20
-25.8123510334
 10
-25.3825315346
 20
-25.7602813794
 10
-25.4243014394
 20
-25.7099095238
 10
-25.467256014
 20
-25.6612229179
 10
-25.5110762056
 20
-25.6145831902
 10
-25.5557684596
 20
-25.5700055822
 10
-25.6013263305
 20
-25.5274748524
 10
-25.647411429
 20
-25.4873069055
 10
-25.6940276811
 20
-25.4495193351
 10
-25.7411711607
 20
-25.4140945477
 10
-25.7884917014
 20
-25.3812956671
 10
-25.8359906214
 20
-25.3511422463
 10
-25.8836666024
 20
-25.3236147324
 10
-25.9311655224
 20
-25.298917591
 10
-25.978486063
 20
-25.2770718973
 10
-26.0256295427
 20
-25.2580565762
 10
-26.0722457947
 20
-25.2420128672
 10
-26.1183308933
 20
-25.2289628974
 10
-26.1638887642
 20
-25.2188845398
 10
-26.2085810182
 20
-25.2118526532
 10
-26.2524012097
 20
-25.2078899221
 10
-26.2953557843
 20
-25.2069736619
 10
-26.3371256892
 20
-25.2091106784
 10
-26.377702103
 20
-25.2143237067
 10
-26.4170938471
 20
-25.2225900118
 10
-26.4550083322
 20
-25.233848194
 10
-26.4914345583
 20
-25.2481205314
 10
-26.5263835254
 20
-25.265384746
 10
-26.5348567815
 20
-25.2701516706
  0
LINE
  5
260
100
AcDbEntity
  8
0
100
AcDbLine
 62
7
  6
CONTINUOUS
 10
-30.3146013334
 20
163.2811731821
 11
-30.3146013334
 21
-136.9482628283
  0
LWPOLYLINE
  5
261
100
AcDbEntity
  8
0
100
AcDbPolyline
 62
7
  6
CONTINUOUS
 90
16
 70
0
 10
-21.4757665685
 20
142.0127599374
 10
-21.4746862107
 20
142.0569238146
 10
-21.471529682
 20
142.0994926103
 10
-21.4662969822
 20
142.1404663245
 10
-21.4589601816
 20
142.1799574012
 10
-21.44954721
 20
142.2178533965
 10
-21.4381418571
 20
142.2538169783
 10
-21.4247263351
 20
142.2878308941
 10
-21.4093184318
 20
142.3199123965
 10
-21.3920553011
 20
142.3497759112
 10
-21.3729203794
 20
142.3774016361
 10
-21.3519302303
 20
142.4028093734
 10
-21.3292716979
 20
142.4257729557
 10
-21.304929887
 20
142.4462705613
 10
-21.2789196929
 20
142.4643240119
 10
-21.2686803143
 20
142.4704905089
  0
LWPOLYLINE
  5
262
100
AcDbEntity
  8
0
100
AcDbPolyline
 62
7
  6
CONTINUOUS
 90
48
 70
0
 10
-20.1549954978
 20
20.0979153914
 10
-20.1029107357
 20
20.13062264
 10
-20.0518712279
 20
20.1682275334
 10
-20.0035034729
 20
20.2097459222
 10
-19.9578227456
 20
20.2552001668
 10
-19.914813771
 20
20.3045679067
 10
-19.874721889
 20
20.3575672886
 10
-19.8375637742
 20
20.4142190613
 10
-19.803322752
 20
20.4745024759
 10
-19.7721941382
 20
20.5380734316
 10
-19.7441957218
 20
20.6049507111
 10
-19.7193097137
 20
20.6751155317
 10
-19.697678063
 20
20.748167444
 10
-19.6793193684
 20
20.8241229434
 10
-19.6642150312
 20
20.9029655345
 10
-19.6524512042
 20
20.9842452823
 10
-19.6440469776
 20
21.0679761123
 10
-19.6389832612
 20
21.154144099
 10
-19.6372889374
 20
21.2422575308
 10
-19.6389832612
 20
21.3323275252
 10
-19.6440469776
 20
21.4243429647
 10
-19.6524512042
 20
21.517778785
 10
-19.6642150312
 20
21.6126431053
 10
-19.6793193684
 20
21.7089278065
 10
-19.697678063
 20
21.8060834662
 10
-19.7193097137
 20
21.9041150665
 10
-19.7441957218
 20
22.0030176254
 10
-19.7721941382
 20
22.1022267744
 10
-19.803322752
 20
22.201744273
 10
-19.8375637742
 20
22.3015683618
 10
-19.874721889
 20
22.4011293941
 10
-19.914813771
 20
22.5004258763
 10
-19.9578227456
 20
22.599459302
 10
-20.0035034729
 20
22.6976645055
 10
-20.0518712279
 20
22.7950367654
 10
-20.1029107357
 20
22.891580803
 10
-20.1563308316
 20
22.9867456166
 10
-20.2121451292
 20
23.0805233376
 10
-20.270340015
 20
23.1729218345
 10
-20.3305834837
 20
23.2634137119
 10
-20.3928872542
 20
23.3519880877
 10
-20.4572396076
 20
23.4386558439
 10
-20.5232733817
 20
23.5229222302
 10
-20.5909982
 20
23.6047735374
 10
-20.660404439
 20
23.6842234746
 10
-20.7310960663
 20
23.7608184189
 10
-20.8029410711
 20
23.8344071628
 10
-20.8760714641
 20
23.9051409138
  0
LWPOLYLINE
  5
263
100
AcDbEntity
  8
0
100
AcDbPolyline
 62
7
  6
CONTINUOUS
 90
48
 70
0
 10
-18.7407819354
 20
20.914464578
 10
-18.6886971733
 20
20.9471718267
 10
-18.6376576655
 20
20.9847767201
 10
-18.5892899105
 20
21.0262951089
 10
-18.5436091832
 20
21.0717493534
 10
-18.5006002086
 20
21.1211170934
 10
-18.4605083266
 20
21.1741164752
 10
-18.4233502118
 20
21.230768248
 10
-18.3891091897
 20
21.2910516626
 10
-18.3579805759
 20
21.3546226183
 10
-18.3299821594
 20
21.4214998978
 10
-18.3050961513
 20
21.4916647183
 10
-18.2834645007
 20
21.5647166307
 10
-18.265105806
 20
21.64067213
 10
-18.2500014688
 20
21.7195147211
 10
-18.2382376418
 20
21.8007944689
 10
-18.2298334152
 20
21.884525299
 10
-18.2247696988
 20
21.9706932857
 10
-18.2230753751
 20
22.0588067175
 10
-18.2247696988
 20
22.1488767119
 10
-18.2298334152
 20
22.2408921514
 10
-18.2382376418
 20
22.3343279716
 10
-18.2500014688
 20
22.429192292
 10
-18.265105806
 20
22.5254769931
 10
-18.2834645007
 20
22.6226326528
 10
-18.3050961513
 20
22.7206642532
 10
-18.3299821594
 20
22.8195668121
 10
-18.3579805759
 20
22.9187759611
 10
-18.3891091897
 20
23.0182934597
 10
-18.4233502118
 20
23.1181175484
 10
-18.4605083266
 20
23.2176785807
 10
-18.5006002086
 20
23.3169750629
 10
-18.5436091832
 20
23.4160084887
 10
-18.5892899105
 20
23.5142136922
 10
-18.6376576655
 20
23.6115859521
 10
-18.6886971733
 20
23.7081299897
 10
-18.7421172692
 20
23.8032948033
 10
-18.7979315668
 20
23.8970725242
 10
-18.8561264526
 20
23.9894710212
 10
-18.9163699213
 20
24.0799628985
 10
-18.9786736918
 20
24.1685372744
 10
-19.0430260452
 20
24.2552050306
 10
-19.1090598193
 20
24.3394714168
 10
-19.1767846376
 20
24.421322724
 10
-19.2461908767
 20
24.5007726612
 10
-19.3168825039
 20
24.5773676056
 10
-19.3887275087
 20
24.6509563495
 10
-19.4618579017
 20
24.7216901005
  0
LINE
  5
264
100
AcDbEntity
  8
0
100
AcDbLine
 62
253
  6
CONTINUOUS
 10
-21.4757665685
 20
25.0653245285
 11
-20.0615530061
 21
25.8818737151
  0
LINE
  5
265
100
AcDbEntity
  8
0
100
AcDbLine
 62
253
  6
CONTINUOUS
 10
-20.9504872454
 20
23.973019672
 11
-19.536273683
 21
24.7895688586
  0
LINE
  5
266
100
AcDbEntity
  8
0
100
AcDbLine
 62
253
  6
CONTINUOUS
 10
-21.4757665685
 20
19.5422184185
 11
-20.708563475
 21
19.9851918694
  0
LINE
  5
267
100
AcDbEntity
  8
ASSI
100
AcDbLine
 62
7
  6
CONTINUOUS
 10
-18.7407819277
 20
20.9144645646
 11
-20.1549954901
 21
20.097915378
  0
LWPOLYLINE
  5
268
100
AcDbEntity
  8
0
100
AcDbPolyline
 62
7
  6
CONTINUOUS
 90
11
 70
0
 10
-21.2686803143
 20
19.9999489899
 10
-21.2514726459
 20
20.0092310853
 10
-21.2225759177
 20
20.0220515632
 10
-21.1922423366
 20
20.0322671828
 10
-21.1607419176
 20
20.0397870096
 10
-21.128064243
 20
20.0445869755
 10
-21.0942197306
 20
20.0466911486
 10
-21.0595096478
 20
20.0460807985
 10
-21.0240344173
 20
20.0427496819
 10
-20.9876936165
 20
20.0367040421
 10
-20.9504872454
 20
20.0279438792
  0
LWPOLYLINE
  5
269
100
AcDbEntity
  8
ASSI
100
AcDbPolyline
 62
7
  6
CONTINUOUS
 90
12
 70
0
 10
-25.5686313918
 20
-27.6567887705
 10
-25.5557684596
 20
-27.6596343211
 10
-25.5110762056
 20
-27.6666662077
 10
-25.467256014
 20
-27.6706289389
 10
-25.4243014394
 20
-27.6715451991
 10
-25.3825315346
 20
-27.6694081825
 10
-25.3419551207
 20
-27.6641951542
 10
-25.3025633766
 20
-27.6559288492
 10
-25.2646488916
 20
-27.6446706669
 10
-25.2282226654
 20
-27.6303983296
 10
-25.1932736983
 20
-27.613134115
 10
-25.1848004423
 20
-27.6083671903
  0
LWPOLYLINE
  5
26A
100
AcDbEntity
  8
0
100
AcDbPolyline
 62
7
  6
CONTINUOUS
 90
5
 70
0
 10
-26.3901586978
 20
-27.3578180831
 10
-26.2730223497
 20
-27.4074934214
 10
-26.1691156152
 20
-27.4285048808
 10
-26.0784384944
 20
-27.4208524611
 10
-26.0159176143
 20
-27.3936575779
  0
LWPOLYLINE
  5
26B
100
AcDbEntity
  8
0
100
AcDbPolyline
 62
7
  6
CONTINUOUS
 90
5
 70
0
 10
-26.3901586978
 20
-26.1331126679
 10
-26.5072950458
 20
-26.0834373295
 10
-26.6112017803
 20
-26.0624258702
 10
-26.7018789011
 20
-26.0700782898
 10
-26.7643997812
 20
-26.0972731731
  0
LWPOLYLINE
  5
26C
100
AcDbEntity
  8
0
100
AcDbPolyline
 62
7
  6
CONTINUOUS
 90
15
 70
0
 10
-26.3901586978
 20
-25.7657010433
 10
-26.2361060955
 20
-25.8731419171
 10
-26.0946847392
 20
-25.9985513461
 10
-25.9658946291
 20
-26.1419293301
 10
-25.846653527
 20
-26.308614462
 10
-25.740043671
 20
-26.493268149
 10
-25.6553117749
 20
-26.6798746128
 10
-25.5944118994
 20
-26.8686082686
 10
-25.5553899838
 20
-27.0592947012
 10
-25.5416305603
 20
-27.2353948875
 10
-25.5553899838
 20
-27.3956060364
 10
-25.5944118994
 20
-27.541230939
 10
-25.6553117749
 20
-27.659638945
 10
-25.740043671
 20
-27.7483991392
 10
-25.7911628264
 20
-27.7828898071
  0
LWPOLYLINE
  5
26D
100
AcDbEntity
  8
0
100
AcDbPolyline
 62
7
  6
CONTINUOUS
 90
25
 70
0
 10
-20.0615530061
 20
-96.5886678038
 10
-20.0604726484
 20
-96.634079251
 10
-20.0573161196
 20
-96.680293127
 10
-20.0520834199
 20
-96.7273094317
 10
-20.0447466192
 20
-96.7752728619
 10
-20.0353336476
 20
-96.8240387209
 10
-20.0239282948
 20
-96.8731729183
 10
-20.0105127727
 20
-96.9226787427
 10
-19.9951048694
 20
-96.9725529055
 10
-19.9778417387
 20
-97.0223514509
 10
-19.958706817
 20
-97.0720737038
 10
-19.9377166679
 20
-97.1217203392
 10
-19.9150581355
 20
-97.1708494266
 10
-19.8907163247
 20
-97.2194563453
 10
-19.8647061306
 20
-97.2675457161
 10
-19.8372590835
 20
-97.3146894703
 10
-19.8083623554
 20
-97.3608791656
 10
-19.7780287742
 20
-97.4061232443
 10
-19.7465283552
 20
-97.4500189654
 10
-19.7138506807
 20
-97.4925542908
 10
-19.6800061682
 20
-97.5337412585
 10
-19.6452960855
 20
-97.573213242
 10
-19.6098208549
 20
-97.6108480323
 10
-19.5734800541
 20
-97.6467678384
 10
-19.4618579017
 20
-97.7488514184
  0
LWPOLYLINE
  5
26E
100
AcDbEntity
  8
0
100
AcDbPolyline
 62
7
  6
CONTINUOUS
 90
25
 70
0
 10
-20.0615530061
 20
25.8818737151
 10
-20.0604726484
 20
25.8364622679
 10
-20.0573161196
 20
25.7902483919
 10
-20.0520834199
 20
25.7432320872
 10
-20.0447466192
 20
25.695268657
 10
-20.0353336476
 20
25.646502798
 10
-20.0239282948
 20
25.5973686006
 10
-20.0105127727
 20
25.5478627762
 10
-19.9951048694
 20
25.4979886134
 10
-19.9778417387
 20
25.448190068
 10
-19.958706817
 20
25.3984678151
 10
-19.9377166679
 20
25.3488211798
 10
-19.9150581355
 20
25.2996920923
 10
-19.8907163247
 20
25.2510851736
 10
-19.8647061306
 20
25.2029958029
 10
-19.8372590835
 20
25.1558520486
 10
-19.8083623554
 20
25.1096623534
 10
-19.7780287742
 20
25.0644182746
 10
-19.7465283552
 20
25.0205225535
 10
-19.7138506807
 20
24.9779872282
 10
-19.6800061682
 20
24.9368002604
 10
-19.6452960855
 20
24.8973282769
 10
-19.6098208549
 20
24.8596934866
 10
-19.5734800541
 20
24.8237736805
 10
-19.4618579017
 20
24.7216901005
  0
LWPOLYLINE
  5
26F
100
AcDbEntity
  8
0
100
AcDbPolyline
 62
7
  6
CONTINUOUS
 90
25
 70
0
 10
-20.0615530061
 20
148.352415234
 10
-20.0604726484
 20
148.3070037868
 10
-20.0573161196
 20
148.2607899108
 10
-20.0520834199
 20
148.2137736061
 10
-20.0447466192
 20
148.1658101759
 10
-20.0353336476
 20
148.1170443169
 10
-20.0239282948
 20
148.0679101195
 10
-20.0105127727
 20
148.0184042951
 10
-19.9951048694
 20
147.9685301323
 10
-19.9778417387
 20
147.9187315869
 10
-19.958706817
 20
147.8690093341
 10
-19.9377166679
 20
147.8193626987
 10
-19.9150581355
 20
147.7702336113
 10
-19.8907163247
 20
147.7216266925
 10
-19.8647061306
 20
147.6735373218
 10
-19.8372590835
 20
147.6263935675
 10
-19.8083623554
 20
147.5802038723
 10
-19.7780287742
 20
147.5349597936
 10
-19.7465283552
 20
147.4910640724
 10
-19.7138506807
 20
147.4485287471
 10
-19.6800061682
 20
147.4073417793
 10
-19.6452960855
 20
147.3678697959
 10
-19.6098208549
 20
147.3302350055
 10
-19.5734800541
 20
147.2943151994
 10
-19.4618579017
 20
147.1922316194
  0
LWPOLYLINE
  5
270
100
AcDbEntity
  8
0
100
AcDbPolyline
 62
7
  6
CONTINUOUS
 90
31
 70
0
 10
-20.0615530061
 20
-120.8233891384
 10
-20.0605618928
 20
-120.8668855353
 10
-20.0576600069
 20
-120.9111357449
 10
-20.0528473483
 20
-120.9561397671
 10
-20.0461002946
 20
-121.0020248545
 10
-20.0374424683
 20
-121.0486637545
 10
-20.0269447369
 20
-121.0956747103
 10
-20.014591999
 20
-121.1430607754
 10
-20.0003993561
 20
-121.1908188962
 10
-19.9844829803
 20
-121.2385581544
 10
-19.9668287236
 20
-121.2862783952
 10
-19.947450734
 20
-121.3339797733
 10
-19.9265076278
 20
-121.381271835
 10
-19.9039865587
 20
-121.4281512207
 10
-19.8799003729
 20
-121.4746212899
 10
-19.854446225
 20
-121.5203016676
 10
-19.8276128869
 20
-121.5651858721
 10
-19.7994115868
 20
-121.6092803851
 10
-19.7700731627
 20
-121.6522242762
 10
-19.7395882816
 20
-121.6940081015
 10
-19.7079662767
 20
-121.734641305
 10
-19.6754659859
 20
-121.7737912885
 10
-19.6420802006
 20
-121.8114458782
 10
-19.6078161296
 20
-121.8476172478
 10
-19.5729542372
 20
-121.8820093212
 10
-19.5374896166
 20
-121.9146074941
 10
-19.5014271746
 20
-121.9454263708
 10
-19.465062096
 20
-121.974213687
 10
-19.4284927756
 20
-122.0008853547
 10
-19.3916208186
 20
-122.0255254618
 10
-19.354446225
 20
-122.0481340086
  0
LWPOLYLINE
  5
271
100
AcDbEntity
  8
ASSI
100
AcDbPolyline
 62
7
  6
CONTINUOUS
 90
49
 70
0
 10
-24.9052344573
 20
66.9036516997
 10
-24.9064455906
 20
66.9595186023
 10
-24.9099995999
 20
67.0163305039
 10
-24.9158964853
 20
67.0740874045
 10
-24.9241625131
 20
67.1329373499
 10
-24.9347714169
 20
67.1927322943
 10
-24.9476443972
 20
67.2530280999
 10
-24.9627983125
 20
67.3138284963
 10
-24.9802163042
 20
67.3751297539
 10
-24.9997689971
 20
67.4364765466
 10
-25.0214722864
 20
67.4978692135
 10
-25.0453102769
 20
67.5593074155
 10
-25.0711059076
 20
67.6203348093
 10
-25.0988737553
 20
67.680948336
 10
-25.1285992433
 20
67.7411510545
 10
-25.16006158
 20
67.8004957983
 10
-25.1932736983
 20
67.8589761788
 10
-25.2282226654
 20
67.9165985846
 10
-25.2646488916
 20
67.9729350149
 10
-25.3025633766
 20
68.0279758941
 10
-25.3419551207
 20
68.0817307978
 10
-25.3825315346
 20
68.1338004517
 10
-25.4243014394
 20
68.1841723074
 10
-25.467256014
 20
68.2328589133
 10
-25.5110762056
 20
68.2794986409
 10
-25.5557684596
 20
68.324076249
 10
-25.6013263305
 20
68.3666069788
 10
-25.647411429
 20
68.4067749257
 10
-25.6940276811
 20
68.4445624961
 10
-25.7411711607
 20
68.4799872835
 10
-25.7884917014
 20
68.512786164
 10
-25.8359906214
 20
68.5429395849
 10
-25.8836666024
 20
68.5704670988
 10
-25.9311655224
 20
68.5951642402
 10
-25.978486063
 20
68.6170099338
 10
-26.0256295427
 20
68.636025255
 10
-26.0722457947
 20
68.652068964
 10
-26.1183308933
 20
68.6651189338
 10
-26.1638887642
 20
68.6751972914
 10
-26.2085810182
 20
68.6822291779
 10
-26.2524012097
 20
68.6861919091
 10
-26.2953557843
 20
68.6871081693
 10
-26.3371256892
 20
68.6849711527
 10
-26.377702103
 20
68.6797581244
 10
-26.4170938471
 20
68.6714918194
 10
-26.4550083322
 20
68.6602336372
 10
-26.4914345583
 20
68.6459612998
 10
-26.5263835254
 20
68.6286970852
 10
-26.5348567815
 20
68.6239301606
  0
LWPOLYLINE
  5
272
100
AcDbEntity
  8
ASSI
100
AcDbPolyline
 62
7
  6
CONTINUOUS
 90
53
 70
0
 10
-12.6369318037
 20
-133.6833680944
 10
-12.6352546247
 20
-133.7682362426
 10
-12.6303151016
 20
-133.8544702775
 10
-12.6221132346
 20
-133.9420701993
 10
-12.6106185426
 20
-134.0312229755
 10
-12.5958615066
 20
-134.1217416386
 10
-12.5779335691
 20
-134.2130652856
 10
-12.556815041
 20
-134.305198915
 10
-12.5325256114
 20
-134.3981375284
 10
-12.5052157909
 20
-134.4913052276
 10
-12.4748668248
 20
-134.5847034351
 10
-12.4414974678
 20
-134.6783307283
 10
-12.4053144946
 20
-134.7716069417
 10
-12.3663004344
 20
-134.8645298953
 10
-12.3244727579
 20
-134.957101769
 10
-12.2800906523
 20
-135.0487489373
 10
-12.2331382561
 20
-135.1394656582
 10
-12.1836314306
 20
-135.2292576736
 10
-12.1318769472
 20
-135.3175685833
 10
-12.0778608493
 20
-135.4043891907
 10
-12.0215970934
 20
-135.4897286924
 10
-11.9634343203
 20
-135.5730582785
 10
-11.9033607384
 20
-135.6543654686
 10
-11.8413881393
 20
-135.7336627432
 10
-11.7779005389
 20
-135.8104587331
 10
-11.7128885302
 20
-135.8847379069
 10
-11.6463615202
 20
-135.9565157961
 10
-11.5787317465
 20
-136.0253476259
 10
-11.5099923616
 20
-136.0912151029
 10
-11.440150213
 20
-136.1541365205
 10
-11.3696380806
 20
-136.2137219834
 10
-11.2984518043
 20
-136.2699507772
 10
-11.2265955442
 20
-136.3228436162
 10
-11.1545145608
 20
-136.3720727477
 10
-11.0822074587
 20
-136.4176154222
 10
-11.0096756333
 20
-136.4594943892
 10
-10.9373685312
 20
-136.4974501437
 10
-10.8652875478
 20
-136.5314583251
 10
-10.7934312877
 20
-136.5615432941
 10
-10.7222450114
 20
-136.5875186278
 10
-10.651732879
 20
-136.609358808
 10
-10.5818907304
 20
-136.6270893529
 10
-10.5131513456
 20
-136.6406003945
 10
-10.4455215719
 20
-136.6498657322
 10
-10.3789945619
 20
-136.6549115666
 10
-10.3139825531
 20
-136.6557066309
 10
-10.2504949528
 20
-136.6522245305
 10
-10.1885223537
 20
-136.64449166
 10
-10.1284487717
 20
-136.6325559364
 10
-10.0702859987
 20
-136.6163912628
 10
-10.0140222427
 20
-136.5960237361
 10
-9.9600061448
 20
-136.5715795647
 10
-9.9208923573
 20
-136.5505027473
  0
LWPOLYLINE
  5
273
100
AcDbEntity
  8
ASSI
100
AcDbPolyline
 62
7
  6
CONTINUOUS
 90
38
 70
0
 10
-11.2227182413
 20
-132.8668189078
 10
-11.2210410623
 20
-132.9516870559
 10
-11.2161015393
 20
-133.0379210909
 10
-11.2078996722
 20
-133.1255210126
 10
-11.1964049802
 20
-133.2146737889
 10
-11.1816479442
 20
-133.3051924519
 10
-11.1637200068
 20
-133.3965160989
 10
-11.1426014786
 20
-133.4886497284
 10
-11.118312049
 20
-133.5815883418
 10
-11.0910022286
 20
-133.674756041
 10
-11.0606532625
 20
-133.7681542484
 10
-11.0272839055
 20
-133.8617815417
 10
-10.9911009322
 20
-133.9550577551
 10
-10.952086872
 20
-134.0479807086
 10
-10.9102591956
 20
-134.1405525824
 10
-10.8658770899
 20
-134.2321997506
 10
-10.8189246937
 20
-134.3229164715
 10
-10.7694178683
 20
-134.4127084869
 10
-10.7176633848
 20
-134.5010193967
 10
-10.6636472869
 20
-134.587840004
 10
-10.607383531
 20
-134.6731795057
 10
-10.5492207579
 20
-134.7565090918
 10
-10.489147176
 20
-134.837816282
 10
-10.4271745769
 20
-134.9171135565
 10
-10.3636869766
 20
-134.9939095464
 10
-10.2986749678
 20
-135.0681887203
 10
-10.2321479578
 20
-135.1399666095
 10
-10.1645181841
 20
-135.2087984392
 10
-10.0957787992
 20
-135.2746659163
 10
-10.0259366506
 20
-135.3375873339
 10
-9.9554245183
 20
-135.3971727967
 10
-9.884238242
 20
-135.4534015905
 10
-9.8123819819
 20
-135.5062944296
 10
-9.7403009985
 20
-135.555523561
 10
-9.6679938964
 20
-135.6010662356
 10
-9.5954620709
 20
-135.6429452025
 10
-9.5231549688
 20
-135.6809009571
 10
-9.4641579205
 20
-135.7087360701
  0
LWPOLYLINE
  5
274
100
AcDbEntity
  8
ASSI
100
AcDbPolyline
 62
7
  6
CONTINUOUS
 90
53
 70
0
 10
-9.4549512883
 20
-133.4794280724
 10
-9.4566284674
 20
-133.3945599243
 10
-9.4615679904
 20
-133.3083258893
 10
-9.4697698575
 20
-133.2207259676
 10
-9.4812645494
 20
-133.1315731913
 10
-9.4960215855
 20
-133.0410545283
 10
-9.5139495229
 20
-132.9497308813
 10
-9.5350680511
 20
-132.8575972518
 10
-9.5593574806
 20
-132.7646586384
 10
-9.5866673011
 20
-132.6714909392
 10
-9.6170162672
 20
-132.5780927318
 10
-9.6503856242
 20
-132.4844654385
 10
-9.6865685974
 20
-132.3911892251
 10
-9.7255826576
 20
-132.2982662715
 10
-9.7674103341
 20
-132.2056943978
 10
-9.8117924397
 20
-132.1140472296
 10
-9.858744836
 20
-132.0233305087
 10
-9.9082516614
 20
-131.9335384933
 10
-9.9600061448
 20
-131.8452275835
 10
-10.0140222427
 20
-131.7584069762
 10
-10.0702859987
 20
-131.6730674745
 10
-10.1284487717
 20
-131.5897378884
 10
-10.1885223537
 20
-131.5084306982
 10
-10.2504949528
 20
-131.4291334237
 10
-10.3139825531
 20
-131.3523374338
 10
-10.3789945619
 20
-131.2780582599
 10
-10.4455215719
 20
-131.2062803707
 10
-10.5131513456
 20
-131.137448541
 10
-10.5818907304
 20
-131.0715810639
 10
-10.651732879
 20
-131.0086596463
 10
-10.7222450114
 20
-130.9490741835
 10
-10.7934312877
 20
-130.8928453897
 10
-10.8652875478
 20
-130.8399525506
 10
-10.9373685312
 20
-130.7907234192
 10
-11.0096756333
 20
-130.7451807446
 10
-11.0822074587
 20
-130.7033017776
 10
-11.1545145608
 20
-130.6653460231
 10
-11.2265955442
 20
-130.6313378417
 10
-11.2984518043
 20
-130.6012528727
 10
-11.3696380806
 20
-130.575277539
 10
-11.440150213
 20
-130.5534373588
 10
-11.5099923616
 20
-130.5357068139
 10
-11.5787317465
 20
-130.5221957724
 10
-11.6463615202
 20
-130.5129304346
 10
-11.7128885302
 20
-130.5078846002
 10
-11.7779005389
 20
-130.507089536
 10
-11.8413881393
 20
-130.5105716364
 10
-11.9033607384
 20
-130.5183045069
 10
-11.9634343203
 20
-130.5302402304
 10
-12.0215970934
 20
-130.5464049041
 10
-12.0778608493
 20
-130.5667724307
 10
-12.1318769472
 20
-130.5912166021
 10
-12.1709907348
 20
-130.6122934196
  0
LINE
  5
275
100
AcDbEntity
  8
0
100
AcDbLine
 62
7
  6
CONTINUOUS
 10
-21.4757665685
 20
-121.6399383251
 11
-21.4757665685
 21
-102.9283231004
  0
LINE
  5
276
100
AcDbEntity
  8
0
100
AcDbLine
 62
7
  6
CONTINUOUS
 10
-21.4757665685
 20
-97.4052169905
 11
-21.4757665685
 21
19.5422184185
  0
LINE
  5
277
100
AcDbEntity
  8
0
100
AcDbLine
 62
7
  6
CONTINUOUS
 10
-21.4757665685
 20
25.0653245285
 11
-21.4757665685
 21
142.0127599374
  0
LINE
  5
278
100
AcDbEntity
  8
0
100
AcDbLine
 62
7
  6
CONTINUOUS
 10
-21.4757665685
 20
147.5358660474
 11
-21.4757665685
 21
157.333201016
  0
LINE
  5
279
100
AcDbEntity
  8
0
100
AcDbLine
 62
7
  6
CONTINUOUS
 10
-20.0615530061
 20
-120.8233891384
 11
-20.0615530061
 21
-102.3186736219
  0
LINE
  5
27A
100
AcDbEntity
  8
0
100
AcDbLine
 62
7
  6
CONTINUOUS
 10
-20.0615530061
 20
-96.5886678038
 11
-20.0615530061
 21
20.1518678971
  0
LINE
  5
27B
100
AcDbEntity
  8
0
100
AcDbLine
 62
7
  6
CONTINUOUS
 10
-20.0615530061
 20
25.8818737151
 11
-20.0615530061
 21
142.622409416
  0
LINE
  5
27C
100
AcDbEntity
  8
0
100
AcDbLine
 62
7
  6
CONTINUOUS
 10
-20.0615530061
 20
148.352415234
 11
-20.0615530061
 21
156.4433371599
  0
LINE
  5
27D
100
AcDbEntity
  8
RACCORDO
100
AcDbLine
 62
7
  6
CONTINUOUS
 10
-19.2978776825
 20
155.9664834764
 11
-19.2978776825
 21
147.0273172482
  0
LINE
  5
27E
100
AcDbEntity
  8
RACCORDO
100
AcDbLine
 62
7
  6
CONTINUOUS
 10
-19.2978776825
 20
143.0633459768
 11
-19.2978776825
 21
24.5567757293
  0
LINE
  5
27F
100
AcDbEntity
  8
RACCORDO
100
AcDbLine
 62
7
  6
CONTINUOUS
 10
-19.2978776825
 20
20.5928044579
 11
-19.2978776825
 21
-97.9137657896
  0
LINE
  5
280
100
AcDbEntity
  8
RACCORDO
100
AcDbLine
 62
7
  6
CONTINUOUS
 10
-19.2978776825
 20
-101.8777370611
 11
-19.2978776825
 21
-122.080795976
  0
LINE
  5
281
100
AcDbEntity
  8
ASSI
100
AcDbLine
 62
7
  6
CONTINUOUS
 10
-12.6369318037
 20
-133.6833680944
 11
-12.6369318037
 21
-131.6421924024
  0
LINE
  5
282
100
AcDbEntity
  8
ASSI
100
AcDbLine
 62
7
  6
CONTINUOUS
 10
-11.2227182413
 20
-132.8668189078
 11
-11.2227182413
 21
-130.8256432158
  0
LWPOLYLINE
  5
283
100
AcDbEntity
  8
0
100
AcDbPolyline
 62
7
  6
CONTINUOUS
 90
16
 70
0
 10
-21.4757665685
 20
19.5422184185
 10
-21.4746862107
 20
19.5863822957
 10
-21.471529682
 20
19.6289510913
 10
-21.4662969822
 20
19.6699248055
 10
-21.4589601816
 20
19.7094158823
 10
-21.44954721
 20
19.7473118776
 10
-21.4381418571
 20
19.7832754594
 10
-21.4247263351
 20
19.8172893752
 10
-21.4093184318
 20
19.8493708775
 10
-21.3920553011
 20
19.8792343923
 10
-21.3729203794
 20
19.9068601172
 10
-21.3519302303
 20
19.9322678545
 10
-21.3292716979
 20
19.9552314367
 10
-21.304929887
 20
19.9757290424
 10
-21.2789196929
 20
19.993782493
 10
-21.2686803143
 20
19.9999489899
  0
LWPOLYLINE
  5
284
100
AcDbEntity
  8
0
100
AcDbPolyline
 62
7
  6
CONTINUOUS
 90
16
 70
0
 10
-21.4757665685
 20
-102.9283231004
 10
-21.4746862107
 20
-102.8841592233
 10
-21.471529682
 20
-102.8415904276
 10
-21.4662969822
 20
-102.8006167134
 10
-21.4589601816
 20
-102.7611256366
 10
-21.44954721
 20
-102.7232296413
 10
-21.4381418571
 20
-102.6872660595
 10
-21.4247263351
 20
-102.6532521437
 10
-21.4093184318
 20
-102.6211706414
 10
-21.3920553011
 20
-102.5913071267
 10
-21.3729203794
 20
-102.5636814017
 10
-21.3519302303
 20
-102.5382736644
 10
-21.3292716979
 20
-102.5153100822
 10
-21.304929887
 20
-102.4948124765
 10
-21.2789196929
 20
-102.4767590259
 10
-21.2686803143
 20
-102.470592529
  0
LINE
  5
285
100
AcDbEntity
  8
ASSI
100
AcDbLine
 62
7
  6
CONTINUOUS
 10
-9.4549512883
 20
-133.4794280724
 11
-9.4549512883
 21
-135.5206037644
  0
LWPOLYLINE
  5
286
100
AcDbEntity
  8
0
100
AcDbPolyline
 62
7
  6
CONTINUOUS
 90
13
 70
0
 10
34.5674966032
 20
-8.0823683984
 10
34.493080822
 20
-8.0643136777
 10
34.4199504289
 20
-8.0505982839
 10
34.3481054242
 20
-8.0412222172
 10
34.2774137969
 20
-8.0361842423
 10
34.2080075579
 20
-8.0354855944
 10
34.1402827396
 20
-8.039129979
 10
34.0742489655
 20
-8.0471422181
 10
34.0098966121
 20
-8.0594974897
 10
33.9475928416
 20
-8.076125033
 10
33.8873493729
 20
-8.0970492628
 10
33.8291544871
 20
-8.1222457643
 10
33.7720048557
 20
-8.1523399106
  0
LWPOLYLINE
  5
287
100
AcDbEntity
  8
ASSI
100
AcDbPolyline
 62
7
  6
CONTINUOUS
 90
58
 70
0
 10
4.8639610307
 20
-143.9922818485
 10
4.8656915999
 20
-144.087577457
 10
4.8708027024
 20
-144.1843318318
 10
4.8792943382
 20
-144.2825449728
 10
4.8911932343
 20
-144.3823940902
 10
4.9064726638
 20
-144.4837019738
 10
4.9250524452
 20
-144.5859369933
 10
4.9469499279
 20
-144.6891040225
 10
4.9721477625
 20
-144.7931981876
 10
5.000513719
 20
-144.8976732367
 10
5.0320644519
 20
-145.0025311721
 10
5.0667833067
 20
-145.1077699915
 10
5.1044880903
 20
-145.2128374362
 10
5.1451944994
 20
-145.3177326055
 10
5.1888868374
 20
-145.4224564001
 10
5.2353358212
 20
-145.5264592641
 10
5.2845559422
 20
-145.6297374077
 10
5.336532709
 20
-145.7322946208
 10
5.3909933647
 20
-145.8335927168
 10
5.4479509668
 20
-145.9336250768
 10
5.5073924578
 20
-146.0323983197
 10
5.5690059084
 20
-146.1293941163
 10
5.6328027363
 20
-146.2246031225
 10
5.6987715237
 20
-146.3180346824
 10
5.7665660882
 20
-146.4091984978
 10
5.8361960277
 20
-146.4980826474
 10
5.9076517443
 20
-146.5846990526
 10
5.980558262
 20
-146.668593179
 10
6.0549232074
 20
-146.7497507159
 10
6.1307389538
 20
-146.8281859741
 10
6.2076076453
 20
-146.903487351
 10
6.285534817
 20
-146.9756383723
 10
6.3645149337
 20
-147.0446555125
 10
6.4441335339
 20
-147.1101765922
 10
6.5243939738
 20
-147.1721832333
 10
6.6052928972
 20
-147.2306938139
 10
6.686405773
 20
-147.2854012899
 10
6.7677337261
 20
-147.3362856689
 10
6.8492756318
 20
-147.3833669433
 10
6.9306035849
 20
-147.426398046
 10
7.0117164607
 20
-147.4653576858
 10
7.0926153841
 20
-147.5002671541
 10
7.172875824
 20
-147.5309432573
 10
7.2524944241
 20
-147.5573637412
 10
7.3314745409
 20
-147.5795508602
 10
7.4094017126
 20
-147.5973881834
 10
7.486270404
 20
-147.6108528446
 10
7.5620861505
 20
-147.6199677101
 10
7.6364510959
 20
-147.6246849481
 10
7.7093576136
 20
-147.6249814409
 10
7.7808133302
 20
-147.6208803061
 10
7.8504432697
 20
-147.6124030652
 10
7.9182378342
 20
-147.5995267136
 10
7.9842066216
 20
-147.5822742559
 10
8.0480034495
 20
-147.5607362273
 10
8.1096169
 20
-147.5348900991
 10
8.1690583911
 20
-147.5047584001
 10
8.1835666101
 20
-147.4965606688
  0
LWPOLYLINE
  5
288
100
AcDbEntity
  8
ASSI
100
AcDbPolyline
 62
7
  6
CONTINUOUS
 90
45
 70
0
 10
6.2781745931
 20
-143.1757326618
 10
6.2799051623
 20
-143.2710282703
 10
6.2850162648
 20
-143.3677826451
 10
6.2935079005
 20
-143.4659957861
 10
6.3054067967
 20
-143.5658449035
 10
6.3206862262
 20
-143.6671527872
 10
6.3392660075
 20
-143.7693878067
 10
6.3611634902
 20
-143.8725548359
 10
6.3863613248
 20
-143.976649001
 10
6.4147272814
 20
-144.0811240501
 10
6.4462780142
 20
-144.1859819854
 10
6.4809968691
 20
-144.2912208048
 10
6.5187016527
 20
-144.3962882496
 10
6.5594080618
 20
-144.5011834188
 10
6.6031003998
 20
-144.6059072134
 10
6.6495493836
 20
-144.7099100774
 10
6.6987695045
 20
-144.8131882211
 10
6.7507462714
 20
-144.9157454341
 10
6.8052069271
 20
-145.0170435301
 10
6.8621645292
 20
-145.1170758901
 10
6.9216060202
 20
-145.2158491331
 10
6.9832194708
 20
-145.3128449296
 10
7.0470162986
 20
-145.4080539359
 10
7.1129850861
 20
-145.5014854957
 10
7.1807796506
 20
-145.5926493111
 10
7.2504095901
 20
-145.6815334608
 10
7.3218653067
 20
-145.768149866
 10
7.3947718243
 20
-145.8520439924
 10
7.4691367697
 20
-145.9332015293
 10
7.5449525162
 20
-146.0116367874
 10
7.6218212077
 20
-146.0869381643
 10
7.6997483794
 20
-146.1590891857
 10
7.7787284961
 20
-146.2281063258
 10
7.8583470962
 20
-146.2936274056
 10
7.9386075362
 20
-146.3556340466
 10
8.0195064595
 20
-146.4141446273
 10
8.1006193354
 20
-146.4688521033
 10
8.1819472885
 20
-146.5197364823
 10
8.2634891941
 20
-146.5668177566
 10
8.3448171472
 20
-146.6098488593
 10
8.4259300231
 20
-146.6488084992
 10
8.5068289465
 20
-146.6837179674
 10
8.5870893864
 20
-146.7143940706
 10
8.6667079865
 20
-146.7408145546
 10
8.6947639902
 20
-146.7486960558
  0
LWPOLYLINE
  5
289
100
AcDbEntity
  8
ASSI
100
AcDbPolyline
 62
7
  6
CONTINUOUS
 90
58
 70
0
 10
8.7530483272
 20
-144.1966164198
 10
8.751317758
 20
-144.1013208113
 10
8.7462066555
 20
-144.0045664365
 10
8.7377150197
 20
-143.9063532955
 10
8.7258161235
 20
-143.8065041781
 10
8.7105366941
 20
-143.7051962945
 10
8.6919569127
 20
-143.602961275
 10
8.67005943
 20
-143.4997942457
 10
8.6448615954
 20
-143.3957000807
 10
8.6164956389
 20
-143.2912250316
 10
8.584944906
 20
-143.1863670962
 10
8.5502260512
 20
-143.0811282768
 10
8.5125212676
 20
-142.9760608321
 10
8.4718148584
 20
-142.8711656628
 10
8.4281225205
 20
-142.7664418682
 10
8.3816735367
 20
-142.6624390042
 10
8.3324534157
 20
-142.5591608606
 10
8.2804766489
 20
-142.4566036475
 10
8.2260159932
 20
-142.3553055515
 10
8.1690583911
 20
-142.2552731915
 10
8.1096169
 20
-142.1564999486
 10
8.0480034495
 20
-142.059504152
 10
7.9842066216
 20
-141.9642951457
 10
7.9182378342
 20
-141.8708635859
 10
7.8504432697
 20
-141.7796997705
 10
7.7808133302
 20
-141.6908156209
 10
7.7093576136
 20
-141.6041992157
 10
7.6364510959
 20
-141.5203050893
 10
7.5620861505
 20
-141.4391475524
 10
7.486270404
 20
-141.3607122942
 10
7.4094017126
 20
-141.2854109173
 10
7.3314745409
 20
-141.213259896
 10
7.2524944241
 20
-141.1442427558
 10
7.172875824
 20
-141.0787216761
 10
7.0926153841
 20
-141.016715035
 10
7.0117164607
 20
-140.9582044544
 10
6.9306035849
 20
-140.9034969784
 10
6.8492756318
 20
-140.8526125994
 10
6.7677337261
 20
-140.805531325
 10
6.686405773
 20
-140.7625002223
 10
6.6052928972
 20
-140.7235405825
 10
6.5243939738
 20
-140.6886311142
 10
6.4441335339
 20
-140.657955011
 10
6.3645149337
 20
-140.6315345271
 10
6.285534817
 20
-140.6093474081
 10
6.2076076453
 20
-140.5915100849
 10
6.1307389538
 20
-140.5780454237
 10
6.0549232074
 20
-140.5689305582
 10
5.980558262
 20
-140.5642133202
 10
5.9076517443
 20
-140.5639168274
 10
5.8361960277
 20
-140.5680179622
 10
5.7665660882
 20
-140.5764952031
 10
5.6987715237
 20
-140.5893715547
 10
5.6328027363
 20
-140.6066240124
 10
5.5690059084
 20
-140.628162041
 10
5.5073924578
 20
-140.6540081692
 10
5.4479509668
 20
-140.6841398682
 10
5.4334427478
 20
-140.6923375995
  0
LINE
  5
28A
100
AcDbEntity
  8
ASSI
100
AcDbLine
 62
7
  6
CONTINUOUS
 10
4.8639610307
 20
-143.9922818485
 11
4.8639610307
 21
-141.9511061565
  0
LINE
  5
28B
100
AcDbEntity
  8
ASSI
100
AcDbLine
 62
7
  6
CONTINUOUS
 10
6.2781745931
 20
-143.1757326618
 11
6.2781745931
 21
-141.1345569698
  0
LINE
  5
28C
100
AcDbEntity
  8
ASSI
100
AcDbLine
 62
7
  6
CONTINUOUS
 10
8.7530483272
 20
-144.1966164198
 11
8.7530483272
 21
-146.2377921118
  0
LWPOLYLINE
  5
28D
100
AcDbEntity
  8
ASSI
100
AcDbPolyline
 62
7
  6
CONTINUOUS
 90
4
 70
0
 10
-11.2135116092
 20
-130.6375109101
 10
-11.2161015393
 20
-130.6621818344
 10
-11.2210410623
 20
-130.7427118319
 10
-11.2227182413
 20
-130.8256432158
  0
LWPOLYLINE
  5
28E
100
AcDbEntity
  8
0
100
AcDbPolyline
 62
7
  6
CONTINUOUS
 90
13
 70
0
 10
-26.7643997812
 20
-26.0972731731
 10
-26.7820518586
 20
-26.1091523907
 10
-26.8489952024
 20
-26.1768903705
 10
-26.8945325817
 20
-26.265018823
 10
-26.9159385463
 20
-26.3761339038
 10
-26.9159385463
 20
-26.5076394572
 10
-26.8945325817
 20
-26.6434736094
 10
-26.8489952024
 20
-26.784187486
 10
-26.7820518586
 20
-26.9292299613
 10
-26.7018789011
 20
-27.0608857838
 10
-26.6112017803
 20
-27.1732498697
 10
-26.5072950458
 20
-27.2722273028
 10
-26.3901586978
 20
-27.3578180831
  0
LWPOLYLINE
  5
28F
100
AcDbEntity
  8
0
100
AcDbPolyline
 62
7
  6
CONTINUOUS
 90
13
 70
0
 10
-26.0159176143
 20
-27.3936575779
 10
-25.998265537
 20
-27.3817783603
 10
-25.9313221931
 20
-27.3140403804
 10
-25.8857848138
 20
-27.225911928
 10
-25.8643788493
 20
-27.1147968471
 10
-25.8643788493
 20
-26.9832912937
 10
-25.8857848138
 20
-26.8474571416
 10
-25.9313221931
 20
-26.7067432649
 10
-25.998265537
 20
-26.5617007896
 10
-26.0784384944
 20
-26.4300449671
 10
-26.1691156152
 20
-26.3176808812
 10
-26.2730223497
 20
-26.2187034481
 10
-26.3901586978
 20
-26.1331126679
  0
LWPOLYLINE
  5
290
100
AcDbEntity
  8
ASSI
100
AcDbPolyline
 62
7
  6
CONTINUOUS
 90
11
 70
0
 10
-26.5348567815
 20
-25.2701516706
 10
-26.5595956437
 20
-25.2855126047
 10
-26.5910579805
 20
-25.3085254307
 10
-26.6207834684
 20
-25.3344019008
 10
-26.6485513161
 20
-25.362949813
 10
-26.6743469468
 20
-25.3941890591
 10
-26.6981849373
 20
-25.4280997472
 10
-26.7198882267
 20
-25.4644299996
 10
-26.7394409196
 20
-25.5031978327
 10
-26.7568589113
 20
-25.54438523
 10
-26.768764592
 20
-25.5784047084
  0
LWPOLYLINE
  5
291
100
AcDbEntity
  8
ASSI
100
AcDbPolyline
 62
7
  6
CONTINUOUS
 90
17
 70
0
 10
-25.1848004423
 20
-27.6083671903
 10
-25.16006158
 20
-27.5930062562
 10
-25.1285992433
 20
-27.5699934303
 10
-25.0988737553
 20
-27.5441169601
 10
-25.0711059076
 20
-27.5155690479
 10
-25.0453102769
 20
-27.4843298019
 10
-25.0214722864
 20
-27.4504191137
 10
-24.9997689971
 20
-27.4140888613
 10
-24.9802163042
 20
-27.3753210283
 10
-24.9627983125
 20
-27.3341336309
 10
-24.9476443972
 20
-27.2908325961
 10
-24.9347714169
 20
-27.2454021854
 10
-24.9241625131
 20
-27.1978581372
 10
-24.9158964853
 20
-27.1485535936
 10
-24.9099995999
 20
-27.0976062684
 10
-24.9064455906
 20
-27.0448984477
 10
-24.9052344573
 20
-26.9904301315
  0
LINE
  5
292
100
AcDbEntity
  8
0
100
AcDbLine
 62
7
  6
CONTINUOUS
 10
-26.9901876899
 20
-25.7062516301
 11
-26.151025832
 21
-25.2217300905
  0
LINE
  5
293
100
AcDbEntity
  8
0
100
AcDbLine
 62
7
  6
CONTINUOUS
 10
-25.7901297056
 20
-27.7846791208
 11
-24.9508926318
 21
-27.3001141525
  0
LWPOLYLINE
  5
294
100
AcDbEntity
  8
0
100
AcDbPolyline
 62
7
  6
CONTINUOUS
 90
6
 70
0
 10
-26.9891545691
 20
-25.7080409438
 10
-26.9336638685
 20
-25.6809883142
 10
-26.8144227665
 20
-25.6519998181
 10
-26.6856326563
 20
-25.6573454251
 10
-26.5442113001
 20
-25.6952458335
 10
-26.3901586978
 20
-25.7657010433
  0
LWPOLYLINE
  5
295
100
AcDbEntity
  8
0
100
AcDbPolyline
 62
7
  6
CONTINUOUS
 90
6
 70
0
 10
-25.7911628264
 20
-27.7828898071
 10
-25.846653527
 20
-27.8099424367
 10
-25.9658946291
 20
-27.8389309328
 10
-26.0946847392
 20
-27.8335853259
 10
-26.2361060955
 20
-27.7956849175
 10
-26.3901586978
 20
-27.7252297076
  0
LWPOLYLINE
  5
296
100
AcDbEntity
  8
0
100
AcDbPolyline
 62
7
  6
CONTINUOUS
 90
25
 70
0
 10
-20.8760714641
 20
23.9051409138
 10
-20.9876936165
 20
24.0072244938
 10
-21.0240344173
 20
24.0431442999
 10
-21.0595096478
 20
24.0807790903
 10
-21.0942197306
 20
24.1202510738
 10
-21.128064243
 20
24.1614380415
 10
-21.1607419176
 20
24.2039733669
 10
-21.1922423366
 20
24.247869088
 10
-21.2225759177
 20
24.2931131667
 10
-21.2514726459
 20
24.339302862
 10
-21.2789196929
 20
24.3864466162
 10
-21.304929887
 20
24.4345359869
 10
-21.3292716979
 20
24.4831429057
 10
-21.3519302303
 20
24.5322719931
 10
-21.3729203794
 20
24.5819186285
 10
-21.3920553011
 20
24.6316408813
 10
-21.4093184318
 20
24.6814394267
 10
-21.4247263351
 20
24.7313135896
 10
-21.4381418571
 20
24.7808194139
 10
-21.44954721
 20
24.8299536114
 10
-21.4589601816
 20
24.8787194703
 10
-21.4662969822
 20
24.9266829005
 10
-21.471529682
 20
24.9736992053
 10
-21.4746862107
 20
25.0199130812
 10
-21.4757665685
 20
25.0653245285
  0
LWPOLYLINE
  5
297
100
AcDbEntity
  8
ASSI
100
AcDbPolyline
 62
7
  6
CONTINUOUS
 90
22
 70
0
 10
-45.8496320685
 20
112.0969948692
 10
-46.0134804378
 20
112.4012001448
 10
-46.1696936086
 20
112.7134270603
 10
-46.3182715809
 20
113.0336756156
 10
-46.4592765797
 20
113.3621027845
 10
-46.59264638
 20
113.6985515932
 10
-46.7181943064
 20
114.0425511204
 10
-46.8359094058
 20
114.3941119397
 10
-46.9458026313
 20
114.7532234776
 10
-47.0477201674
 20
115.1193830921
 10
-47.1416508455
 20
115.4926006529
 10
-47.2276058343
 20
115.8728662904
 10
-47.305464824
 20
116.2596477536
 10
-47.3752164775
 20
116.6529541669
 10
-47.4368721321
 20
117.0527764059
 10
-47.4903454893
 20
117.4585548467
 10
-47.5356250912
 20
117.8702978301
 10
-47.5727223958
 20
118.2879970152
 10
-47.6015854787
 20
118.7110677562
 10
-47.6221970317
 20
119.1393151711
 10
-47.6345743629
 20
119.5729341418
 10
-47.6387174724
 20
120.0119246684
  0
LWPOLYLINE
  5
298
100
AcDbEntity
  8
ASSI
100
AcDbPolyline
 62
7
  6
CONTINUOUS
 90
22
 70
0
 10
-44.4354185061
 20
111.2804456825
 10
-44.5992668755
 20
111.5846509582
 10
-44.7554800463
 20
111.8968778736
 10
-44.9040580185
 20
112.2171264289
 10
-45.0450630174
 20
112.5455535978
 10
-45.1784328176
 20
112.8820024065
 10
-45.3039807441
 20
113.2260019337
 10
-45.4216958434
 20
113.5775627531
 10
-45.5315890689
 20
113.9366742909
 10
-45.6335066051
 20
114.3028339054
 10
-45.7274372832
 20
114.6760514663
 10
-45.8133922719
 20
115.0563171037
 10
-45.8912512616
 20
115.4430985669
 10
-45.9610029152
 20
115.8364049802
 10
-46.0226585697
 20
116.2362272193
 10
-46.0761319269
 20
116.6420056601
 10
-46.1214115289
 20
117.0537486434
 10
-46.1585088335
 20
117.4714478286
 10
-46.1873719163
 20
117.8945185696
 10
-46.2079834693
 20
118.3227659844
 10
-46.2203608006
 20
118.7563849551
 10
-46.22450391
 20
119.1953754817
  0
LWPOLYLINE
  5
299
100
AcDbEntity
  8
ASSI
100
AcDbPolyline
 62
7
  6
CONTINUOUS
 90
19
 70
0
 10
-43.4838422242
 20
107.8621761332
 10
-43.3314625927
 20
107.577513692
 10
-43.1874321165
 20
107.284200642
 10
-43.0517507956
 20
106.9822369833
 10
-42.9243430452
 20
106.6714199007
 10
-42.8052844502
 20
106.3519522093
 10
-42.6948017648
 20
106.0244423548
 10
-42.5929113328
 20
105.6888750107
 10
-42.4995968104
 20
105.3452655035
 10
-42.4150359209
 20
104.9942682584
 10
-42.3392453466
 20
104.6358691961
 10
-42.2722084052
 20
104.2700823959
 10
-42.2140527725
 20
103.897604521
 10
-42.1647953744
 20
103.5184228198
 10
-42.124419285
 20
103.132550044
 10
-42.0930014031
 20
102.7407211116
 10
-42.0705673616
 20
102.3431809955
 10
-42.0570915276
 20
101.9396847229
 10
-42.052573901
 20
101.5302322938
  0
LWPOLYLINE
  5
29A
100
AcDbEntity
  8
ASSI
100
AcDbPolyline
 62
7
  6
CONTINUOUS
 90
19
 70
0
 10
-42.0696286618
 20
107.0456269465
 10
-41.9172490303
 20
106.7609645053
 10
-41.7732185541
 20
106.4676514554
 10
-41.6375372332
 20
106.1656877967
 10
-41.5101294829
 20
105.854870714
 10
-41.3910708878
 20
105.5354030226
 10
-41.2805882024
 20
105.2078931681
 10
-41.1786977704
 20
104.872325824
 10
-41.085383248
 20
104.5287163168
 10
-41.0008223585
 20
104.1777190717
 10
-40.9250317842
 20
103.8193200094
 10
-40.8579948428
 20
103.4535332092
 10
-40.7998392101
 20
103.0810553344
 10
-40.750581812
 20
102.7018736332
 10
-40.7102057226
 20
102.3160008573
 10
-40.6787878407
 20
101.924171925
 10
-40.6563537992
 20
101.5266318089
 10
-40.6428779652
 20
101.1231355363
 10
-40.6383603387
 20
100.7136831072
  0
LWPOLYLINE
  5
29B
100
AcDbEntity
  8
0
100
AcDbPolyline
 62
7
  6
CONTINUOUS
 90
28
 70
0
 10
17.4151063967
 20
137.3830869662
 10
17.416028809
 20
137.3467507438
 10
17.4187144443
 20
137.3097554478
 10
17.4231633024
 20
137.2721010781
 10
17.4294023085
 20
137.2336560615
 10
17.4374045376
 20
137.1945519712
 10
17.4470892143
 20
137.1551835274
 10
17.458473379
 20
137.1155480525
 10
17.4715399913
 20
137.0756482242
 10
17.4861571559
 20
137.0358867946
 10
17.5023405769
 20
136.9962651655
 10
17.5200745501
 20
136.9567819351
 10
17.5391800673
 20
136.9178356506
 10
17.5596710197
 20
136.8794317503
 10
17.581533516
 20
136.841564796
 10
17.6045468744
 20
136.8046170198
 10
17.6287227509
 20
136.7685977314
 10
17.6540494894
 20
136.7334976213
 10
17.6802714397
 20
136.6996709929
 10
17.7073976685
 20
136.6671307443
 10
17.7354191091
 20
136.6358639774
 10
17.7640529106
 20
136.6061863018
 10
17.7933052751
 20
136.5781138119
 10
17.8231700005
 20
136.5516304133
 10
17.8533456297
 20
136.5270034315
 10
17.8837316769
 20
136.5043219753
 10
17.9144286279
 20
136.483496936
 10
17.9454364826
 20
136.4645283136
  0
LWPOLYLINE
  5
29C
100
AcDbEntity
  8
ASSI
100
AcDbPolyline
 62
7
  6
CONTINUOUS
 90
53
 70
0
 10
23.0719606462
 20
-154.3012350575
 10
23.0736378252
 20
-154.3861032056
 10
23.0785773483
 20
-154.4723372406
 10
23.0867792153
 20
-154.5599371623
 10
23.0982739073
 20
-154.6490899386
 10
23.1130309434
 20
-154.7396086016
 10
23.1309588808
 20
-154.8309322486
 10
23.1520774089
 20
-154.9230658781
 10
23.1763668385
 20
-155.0160044915
 10
23.203676659
 20
-155.1091721907
 10
23.2340256251
 20
-155.2025703981
 10
23.2673949821
 20
-155.2961976914
 10
23.3035779553
 20
-155.3894739048
 10
23.3425920155
 20
-155.4823968584
 10
23.384419692
 20
-155.5749687321
 10
23.4288017976
 20
-155.6666159003
 10
23.4757541939
 20
-155.7573326212
 10
23.5252610193
 20
-155.8471246366
 10
23.5770155027
 20
-155.9354355464
 10
23.6310316006
 20
-156.0222561537
 10
23.6872953566
 20
-156.1075956554
 10
23.7454581296
 20
-156.1909252415
 10
23.8055317116
 20
-156.2722324317
 10
23.8675043107
 20
-156.3515297062
 10
23.930991911
 20
-156.4283256961
 10
23.9960039197
 20
-156.50260487
 10
24.0625309297
 20
-156.5743827592
 10
24.1301607034
 20
-156.6432145889
 10
24.1989000883
 20
-156.709082066
 10
24.2687422369
 20
-156.7720034836
 10
24.3392543693
 20
-156.8315889464
 10
24.4104406456
 20
-156.8878177402
 10
24.4822969057
 20
-156.9407105793
 10
24.5543778891
 20
-156.9899397107
 10
24.6266849912
 20
-157.0354823853
 10
24.6992168166
 20
-157.0773613522
 10
24.7715239187
 20
-157.1153171068
 10
24.8436049021
 20
-157.1493252882
 10
24.9154611622
 20
-157.1794102572
 10
24.9866474385
 20
-157.2053855909
 10
25.0571595709
 20
-157.227225771
 10
25.1270017195
 20
-157.244956316
 10
25.1957411044
 20
-157.2584673575
 10
25.2633708781
 20
-157.2677326953
 10
25.3298978881
 20
-157.2727785297
 10
25.3949098968
 20
-157.2735735939
 10
25.4583974972
 20
-157.2700914935
 10
25.5203700962
 20
-157.262358623
 10
25.5804436782
 20
-157.2504228995
 10
25.6386064513
 20
-157.2342582258
 10
25.6948702072
 20
-157.2138906992
 10
25.7488863051
 20
-157.1894465278
 10
25.7880000927
 20
-157.1683697103
  0
LWPOLYLINE
  5
29D
100
AcDbEntity
  8
ASSI
100
AcDbPolyline
 62
7
  6
CONTINUOUS
 90
38
 70
0
 10
24.4861742086
 20
-153.4846858708
 10
24.4878513876
 20
-153.5695540189
 10
24.4927909106
 20
-153.6557880539
 10
24.5009927777
 20
-153.7433879757
 10
24.5124874697
 20
-153.8325407519
 10
24.5272445057
 20
-153.923059415
 10
24.5451724432
 20
-154.014383062
 10
24.5662909713
 20
-154.1065166914
 10
24.5905804009
 20
-154.1994553048
 10
24.6178902214
 20
-154.292623004
 10
24.6482391875
 20
-154.3860212115
 10
24.6816085445
 20
-154.4796485047
 10
24.7177915177
 20
-154.5729247181
 10
24.7568055779
 20
-154.6658476717
 10
24.7986332544
 20
-154.7584195454
 10
24.84301536
 20
-154.8500667137
 10
24.8899677562
 20
-154.9407834346
 10
24.9394745817
 20
-155.03057545
 10
24.9912290651
 20
-155.1188863597
 10
25.045245163
 20
-155.2057069671
 10
25.1015089189
 20
-155.2910464688
 10
25.159671692
 20
-155.3743760549
 10
25.2197452739
 20
-155.455683245
 10
25.281717873
 20
-155.5349805196
 10
25.3452054734
 20
-155.6117765095
 10
25.4102174821
 20
-155.6860556833
 10
25.4767444921
 20
-155.7578335725
 10
25.5443742658
 20
-155.8266654023
 10
25.6131136507
 20
-155.8925328793
 10
25.6829557993
 20
-155.9554542969
 10
25.7534679316
 20
-156.0150397597
 10
25.824654208
 20
-156.0712685536
 10
25.896510468
 20
-156.1241613926
 10
25.9685914515
 20
-156.1733905241
 10
26.0408985536
 20
-156.2189331986
 10
26.113430379
 20
-156.2608121656
 10
26.1857374811
 20
-156.2987679201
 10
26.2447345294
 20
-156.3266030332
  0
LWPOLYLINE
  5
29E
100
AcDbEntity
  8
ASSI
100
AcDbPolyline
 62
7
  6
CONTINUOUS
 90
53
 70
0
 10
26.2539411616
 20
-154.0972950355
 10
26.2522639826
 20
-154.0124268873
 10
26.2473244595
 20
-153.9261928524
 10
26.2391225925
 20
-153.8385929306
 10
26.2276279005
 20
-153.7494401544
 10
26.2128708645
 20
-153.6589214913
 10
26.194942927
 20
-153.5675978443
 10
26.1738243989
 20
-153.4754642149
 10
26.1495349693
 20
-153.3825256015
 10
26.1222251488
 20
-153.2893579023
 10
26.0918761827
 20
-153.1959596948
 10
26.0585068257
 20
-153.1023324016
 10
26.0223238525
 20
-153.0090561882
 10
25.9833097923
 20
-152.9161332346
 10
25.9414821158
 20
-152.8235613609
 10
25.8971000102
 20
-152.7319141926
 10
25.8501476139
 20
-152.6411974717
 10
25.8006407885
 20
-152.5514054563
 10
25.7488863051
 20
-152.4630945466
 10
25.6948702072
 20
-152.3762739392
 10
25.6386064513
 20
-152.2909344375
 10
25.5804436782
 20
-152.2076048514
 10
25.5203700962
 20
-152.1262976613
 10
25.4583974972
 20
-152.0470003867
 10
25.3949098968
 20
-151.9702043968
 10
25.3298978881
 20
-151.895925223
 10
25.2633708781
 20
-151.8241473338
 10
25.1957411044
 20
-151.755315504
 10
25.1270017195
 20
-151.689448027
 10
25.0571595709
 20
-151.6265266094
 10
24.9866474385
 20
-151.5669411465
 10
24.9154611622
 20
-151.5107123527
 10
24.8436049021
 20
-151.4578195137
 10
24.7715239187
 20
-151.4085903822
 10
24.6992168166
 20
-151.3630477077
 10
24.6266849912
 20
-151.3211687407
 10
24.5543778891
 20
-151.2832129862
 10
24.4822969057
 20
-151.2492048048
 10
24.4104406456
 20
-151.2191198358
 10
24.3392543693
 20
-151.1931445021
 10
24.2687422369
 20
-151.1713043219
 10
24.1989000883
 20
-151.153573777
 10
24.1301607034
 20
-151.1400627354
 10
24.0625309297
 20
-151.1307973977
 10
23.9960039197
 20
-151.1257515633
 10
23.930991911
 20
-151.124956499
 10
23.8675043107
 20
-151.1284385994
 10
23.8055317116
 20
-151.1361714699
 10
23.7454581296
 20
-151.1481071935
 10
23.6872953566
 20
-151.1642718671
 10
23.6310316006
 20
-151.1846393938
 10
23.5770155027
 20
-151.2090835652
 10
23.5379017151
 20
-151.2301603826
  0
LINE
  5
29F
100
AcDbEntity
  8
ASSI
100
AcDbLine
 62
7
  6
CONTINUOUS
 10
19.2889393669
 20
138.2587270481
 11
19.2889393669
 21
136.6257864945
  0
LINE
  5
2A0
100
AcDbEntity
  8
ASSI
100
AcDbLine
 62
7
  6
CONTINUOUS
 10
23.0719606462
 20
-154.3012350575
 11
23.0719606462
 21
-152.2600593655
  0
LINE
  5
2A1
100
AcDbEntity
  8
ASSI
100
AcDbLine
 62
7
  6
CONTINUOUS
 10
24.4861742086
 20
-153.4846858708
 11
24.4861742086
 21
-151.4435101788
  0
LINE
  5
2A2
100
AcDbEntity
  8
ASSI
100
AcDbLine
 62
7
  6
CONTINUOUS
 10
26.2539411616
 20
-154.0972950355
 11
26.2539411616
 21
-156.1384707275
  0
LWPOLYLINE
  5
2A3
100
AcDbEntity
  8
0
100
AcDbPolyline
 62
7
  6
CONTINUOUS
 90
49
 70
0
 10
33.7720048557
 20
-8.1523399106
 10
33.7199200935
 20
-8.1850471593
 10
33.6688805858
 20
-8.2226520527
 10
33.6205128308
 20
-8.2641704414
 10
33.5748321034
 20
-8.309624686
 10
33.5318231289
 20
-8.358992426
 10
33.4917312469
 20
-8.4119918078
 10
33.4545731321
 20
-8.4686435806
 10
33.4203321099
 20
-8.5289269952
 10
33.3892034961
 20
-8.5924979509
 10
33.3612050797
 20
-8.6593752304
 10
33.3363190716
 20
-8.7295400509
 10
33.3146874209
 20
-8.8025919633
 10
33.2963287263
 20
-8.8785474626
 10
33.2812243891
 20
-8.9573900537
 10
33.2694605621
 20
-9.0386698015
 10
33.2610563355
 20
-9.1224006316
 10
33.2559926191
 20
-9.2085686183
 10
33.2542982953
 20
-9.2966820501
 10
33.2559926191
 20
-9.3867520445
 10
33.2610563355
 20
-9.478767484
 10
33.2694605621
 20
-9.5722033042
 10
33.2812243891
 20
-9.6670676246
 10
33.2963287263
 20
-9.7633523257
 10
33.3146874209
 20
-9.8605079854
 10
33.3363190716
 20
-9.9585395858
 10
33.3612050797
 20
-10.0574421446
 10
33.3892034961
 20
-10.1566512937
 10
33.4203321099
 20
-10.2561687923
 10
33.4545731321
 20
-10.355992881
 10
33.4917312469
 20
-10.4555539133
 10
33.5318231289
 20
-10.5548503955
 10
33.5748321034
 20
-10.6538838213
 10
33.6205128308
 20
-10.7520890248
 10
33.6688805858
 20
-10.8494612847
 10
33.7199200935
 20
-10.9460053223
 10
33.7733401895
 20
-11.0411701359
 10
33.8291544871
 20
-11.1349478568
 10
33.8873493729
 20
-11.2273463538
 10
33.9475928416
 20
-11.3178382311
 10
34.0098966121
 20
-11.406412607
 10
34.0742489655
 20
-11.4930803632
 10
34.1402827396
 20
-11.5773467494
 10
34.2080075579
 20
-11.6591980566
 10
34.2774137969
 20
-11.7386479938
 10
34.3481054242
 20
-11.8152429382
 10
34.4199504289
 20
-11.8888316821
 10
34.493080822
 20
-11.9595654331
 10
34.5674966032
 20
-12.0274441912
  0
LINE
  5
2A4
100
AcDbEntity
  8
ASSI
100
AcDbLine
 62
7
  6
CONTINUOUS
 10
35.0220652483
 20
-7.430570689
 11
33.7720048479
 21
-8.1523398972
  0
LINE
  5
2A5
100
AcDbEntity
  8
0
100
AcDbLine
 62
253
  6
CONTINUOUS
 10
34.5674966032
 20
-8.0823683984
 11
35.0220652483
 21
-7.8199061599
  0
LWPOLYLINE
  5
2A6
100
AcDbEntity
  8
0
100
AcDbPolyline
 62
7
  6
CONTINUOUS
 90
11
 70
0
 10
34.8856896722
 20
-8.0543735092
 10
34.8684820038
 20
-8.0636556046
 10
34.8395852756
 20
-8.0764760824
 10
34.8092516945
 20
-8.086691702
 10
34.7777512754
 20
-8.0942115288
 10
34.7450736009
 20
-8.0990114947
 10
34.7112290885
 20
-8.1011156678
 10
34.6765190057
 20
-8.1005053178
 10
34.6410437752
 20
-8.0971742011
 10
34.6047029744
 20
-8.0911285614
 10
34.5674966032
 20
-8.0823683984
  0
LWPOLYLINE
  5
2A7
100
AcDbEntity
  8
0
100
AcDbPolyline
 62
7
  6
CONTINUOUS
 90
13
 70
0
 10
-20.9504872454
 20
20.0279438792
 10
-20.8760714641
 20
20.0098891584
 10
-20.8029410711
 20
19.9961737647
 10
-20.7310960663
 20
19.9867976979
 10
-20.660404439
 20
19.981759723
 10
-20.5909982
 20
19.9810610752
 10
-20.5232733817
 20
19.9847054598
 10
-20.4572396076
 20
19.9927176988
 10
-20.3928872542
 20
20.0050729704
 10
-20.3305834837
 20
20.0217005138
 10
-20.270340015
 20
20.0426247435
 10
-20.2121451292
 20
20.0678212451
 10
-20.1549954978
 20
20.0979153914
  0
LWPOLYLINE
  5
2A8
100
AcDbEntity
  8
0
100
AcDbPolyline
 62
7
  6
CONTINUOUS
 90
17
 70
0
 10
34.5674966032
 20
-12.0274441912
 10
34.6047029744
 20
-12.0616490131
 10
34.6410437752
 20
-12.0975688192
 10
34.6765190057
 20
-12.1352036095
 10
34.7112290885
 20
-12.174675593
 10
34.7450736009
 20
-12.2158625608
 10
34.7777512754
 20
-12.2583978861
 10
34.8092516945
 20
-12.3022936072
 10
34.8395852756
 20
-12.347537686
 10
34.8684820038
 20
-12.3937273812
 10
34.8959290508
 20
-12.4408711354
 10
34.9219392449
 20
-12.4889605062
 10
34.9462810558
 20
-12.5375674249
 10
34.9689395881
 20
-12.5866965123
 10
34.9899297373
 20
-12.6363431477
 10
35.0090646589
 20
-12.6860654006
 10
35.0220652483
 20
-12.7235678935
  0
LINE
  5
2A9
100
AcDbEntity
  8
ASSI
100
AcDbLine
 62
7
  6
CONTINUOUS
 10
-43.4838422242
 20
107.8621761332
 11
-45.8496320685
 21
112.0969948692
  0
LINE
  5
2AA
100
AcDbEntity
  8
ASSI
100
AcDbLine
 62
7
  6
CONTINUOUS
 10
-42.0696286618
 20
107.0456269465
 11
-44.4354185061
 21
111.2804456825
  0
LWPOLYLINE
  5
2AB
100
AcDbEntity
  8
0
100
AcDbPolyline
 62
7
  6
CONTINUOUS
 90
24
 70
0
 10
36.4362788107
 20
-182.512101993
 10
36.4384543912
 20
-182.6536059517
 10
36.4449103994
 20
-182.7921189724
 10
36.4556468353
 20
-182.927641055
 10
36.4706871906
 20
-183.0603298962
 10
36.4900079736
 20
-183.1900277994
 10
36.5135387092
 20
-183.3162616746
 10
36.5412947725
 20
-183.4390188711
 10
36.5732607884
 20
-183.5583120397
 10
36.6093201568
 20
-183.6737060431
 10
36.6494878268
 20
-183.7851866414
 10
36.6937488493
 20
-183.8927680744
 10
36.7419417765
 20
-183.9960579252
 10
36.7940809679
 20
-184.0950405204
 10
36.850152064
 20
-184.1897315332
 10
36.9099505381
 20
-184.2797855661
 10
36.973490003
 20
-184.3651856842
 10
37.040756846
 20
-184.4459488223
 10
37.1115057025
 20
-184.5217803864
 10
37.1857492892
 20
-184.592662366
 10
37.2634748894
 20
-184.6586127715
 10
37.3443989891
 20
-184.7193910403
 10
37.4285332693
 20
-184.7749782835
 10
37.4716989562
 20
-184.8007741054
  0
LINE
  5
2AC
100
AcDbEntity
  8
ASSI
100
AcDbLine
 62
7
  6
CONTINUOUS
 10
29.4359216769
 20
75.5099939957
 11
29.4359216769
 21
124.5213128108
  0
LINE
  5
2AD
100
AcDbEntity
  8
ASSI
100
AcDbLine
 62
7
  6
CONTINUOUS
 10
30.8501352393
 20
74.693444809
 11
30.8501352393
 21
123.7047636242
  0
LINE
  5
2AE
100
AcDbEntity
  8
0
100
AcDbLine
 62
7
  6
CONTINUOUS
 10
35.0220652483
 20
-181.6955528063
 11
35.0220652483
 21
57.0283016211
  0
LINE
  5
2AF
100
AcDbEntity
  8
0
100
AcDbLine
 62
7
  6
CONTINUOUS
 10
36.4362788107
 20
-182.512101993
 11
36.4362788107
 21
56.2117524344
  0
LWPOLYLINE
  5
2B0
100
AcDbEntity
  8
ASSI
100
AcDbPolyline
 62
7
  6
CONTINUOUS
 90
7
 70
0
 10
6.3364589301
 20
-140.6236530258
 10
6.3206862262
 20
-140.6922282129
 10
6.3054067967
 20
-140.7758917944
 10
6.2935079005
 20
-140.8620003647
 10
6.2850162648
 20
-140.9504075776
 10
6.2799051623
 20
-141.0412597793
 10
6.2781745931
 20
-141.1345569698
  0
LWPOLYLINE
  5
2B1
100
AcDbEntity
  8
0
100
AcDbPolyline
 62
7
  6
CONTINUOUS
 90
8
 70
0
 10
35.0220652483
 20
-7.9111691733
 10
35.0090646589
 20
-7.9336589115
 10
34.9899297373
 20
-7.9612846364
 10
34.9689395881
 20
-7.9866923738
 10
34.9462810558
 20
-8.009655956
 10
34.9219392449
 20
-8.0301535617
 10
34.8959290508
 20
-8.0482070122
 10
34.8856896722
 20
-8.0543735092
  0
LWPOLYLINE
  5
2B2
100
AcDbEntity
  8
0
100
AcDbPolyline
 62
7
  6
CONTINUOUS
 90
15
 70
0
 10
-26.3901586978
 20
66.1688521236
 10
-26.5442113001
 20
66.2762929974
 10
-26.6856326563
 20
66.4017024263
 10
-26.8144227665
 20
66.5450804103
 10
-26.9336638685
 20
66.7117655422
 10
-27.0402737245
 20
66.8964192292
 10
-27.1250056206
 20
67.0830256931
 10
-27.1859054961
 20
67.2717593488
 10
-27.2249274117
 20
67.4624457814
 10
-27.2386868352
 20
67.6385459677
 10
-27.2249274117
 20
67.7987571166
 10
-27.1859054961
 20
67.9443820193
 10
-27.1250056206
 20
68.0627900252
 10
-27.0402737245
 20
68.1515502194
 10
-26.9891545691
 20
68.1860408874
  0
LINE
  5
2B3
100
AcDbEntity
  8
0
100
AcDbLine
 62
253
  6
CONTINUOUS
 10
46.760037816
 20
132.8909419741
 11
46.760037816
 21
-180.6336443144
  0
LINE
  5
2B4
100
AcDbEntity
  8
0
100
AcDbLine
 62
7
  6
CONTINUOUS
 10
47.6387174724
 20
134.115765754
 11
47.6387174724
 21
-179.4088205344
  0
LWPOLYLINE
  5
2B5
100
AcDbEntity
  8
ASSI
100
AcDbPolyline
 62
7
  6
CONTINUOUS
 90
4
 70
0
 10
24.4953808407
 20
-151.2553778731
 10
24.4927909106
 20
-151.2800487974
 10
24.4878513876
 20
-151.360578795
 10
24.4861742086
 20
-151.4435101788
  0
LWPOLYLINE
  5
2B6
100
AcDbEntity
  8
0
100
AcDbPolyline
 62
7
  6
CONTINUOUS
 90
5
 70
0
 10
-26.3901586978
 20
66.5362637481
 10
-26.2730223497
 20
66.4865884097
 10
-26.1691156152
 20
66.4655769504
 10
-26.0784384944
 20
66.4732293701
 10
-26.0159176143
 20
66.5004242533
  0
LWPOLYLINE
  5
2B7
100
AcDbEntity
  8
0
100
AcDbPolyline
 62
7
  6
CONTINUOUS
 90
5
 70
0
 10
-26.3901586978
 20
67.7609691633
 10
-26.5072950458
 20
67.8106445017
 10
-26.6112017803
 20
67.831655961
 10
-26.7018789011
 20
67.8240035413
 10
-26.7643997812
 20
67.7968086581
  0
LWPOLYLINE
  5
2B8
100
AcDbEntity
  8
0
100
AcDbPolyline
 62
7
  6
CONTINUOUS
 90
15
 70
0
 10
-26.3901586978
 20
68.1283807879
 10
-26.2361060955
 20
68.020939914
 10
-26.0946847392
 20
67.8955304851
 10
-25.9658946291
 20
67.7521525011
 10
-25.846653527
 20
67.5854673692
 10
-25.740043671
 20
67.4008136822
 10
-25.6553117749
 20
67.2142072183
 10
-25.5944118994
 20
67.0254735626
 10
-25.5553899838
 20
66.83478713
 10
-25.5416305603
 20
66.6586869437
 10
-25.5553899838
 20
66.4984757948
 10
-25.5944118994
 20
66.3528508922
 10
-25.6553117749
 20
66.2344428862
 10
-25.740043671
 20
66.145682692
 10
-25.7911628264
 20
66.111192024
  0
LWPOLYLINE
  5
2B9
100
AcDbEntity
  8
ASSI
100
AcDbPolyline
 62
7
  6
CONTINUOUS
 90
12
 70
0
 10
-25.5686313918
 20
66.2372930607
 10
-25.5557684596
 20
66.23444751
 10
-25.5110762056
 20
66.2274156235
 10
-25.467256014
 20
66.2234528923
 10
-25.4243014394
 20
66.2225366321
 10
-25.3825315346
 20
66.2246736487
 10
-25.3419551207
 20
66.229886677
 10
-25.3025633766
 20
66.238152982
 10
-25.2646488916
 20
66.2494111642
 10
-25.2282226654
 20
66.2636835016
 10
-25.1932736983
 20
66.2809477162
 10
-25.1848004423
 20
66.2857146408
  0
LWPOLYLINE
  5
2BA
100
AcDbEntity
  8
0
100
AcDbPolyline
 62
7
  6
CONTINUOUS
 90
5
 70
0
 10
-26.7442573366
 20
160.7968695208
 10
-26.7018789011
 20
160.7272778785
 10
-26.6112017803
 20
160.6149137926
 10
-26.5072950458
 20
160.5159363596
 10
-26.3901586978
 20
160.4303455793
  0
LINE
  5
2BB
100
AcDbEntity
  8
ASSI
100
AcDbLine
 62
7
  6
CONTINUOUS
 10
33.5907969251
 20
63.3602454604
 11
31.2250070809
 21
67.5950641965
  0
LINE
  5
2BC
100
AcDbEntity
  8
ASSI
100
AcDbLine
 62
7
  6
CONTINUOUS
 10
35.0050104875
 20
62.5436962738
 11
32.6392206432
 21
66.7785150098
  0
LWPOLYLINE
  5
2BD
100
AcDbEntity
  8
ASSI
100
AcDbPolyline
 62
7
  6
CONTINUOUS
 90
22
 70
0
 10
31.2250070809
 20
67.5950641965
 10
31.0611587115
 20
67.8992694721
 10
30.9049455407
 20
68.2114963876
 10
30.7563675684
 20
68.5317449429
 10
30.6153625696
 20
68.8601721117
 10
30.4819927693
 20
69.1966209204
 10
30.3564448429
 20
69.5406204477
 10
30.2387297435
 20
69.892181267
 10
30.128836518
 20
70.2512928049
 10
30.0269189819
 20
70.6174524194
 10
29.9329883038
 20
70.9906699802
 10
29.8470333151
 20
71.3709356177
 10
29.7691743254
 20
71.7577170809
 10
29.6994226718
 20
72.1510234942
 10
29.6377670173
 20
72.5508457332
 10
29.58429366
 20
72.956624174
 10
29.5390140581
 20
73.3683671574
 10
29.5019167535
 20
73.7860663425
 10
29.4730536706
 20
74.2091370835
 10
29.4524421176
 20
74.6373844984
 10
29.4400647864
 20
75.0710034691
 10
29.4359216769
 20
75.5099939957
  0
LWPOLYLINE
  5
2BE
100
AcDbEntity
  8
ASSI
100
AcDbPolyline
 62
7
  6
CONTINUOUS
 90
22
 70
0
 10
32.6392206432
 20
66.7785150098
 10
32.4753722739
 20
67.0827202854
 10
32.3191591031
 20
67.3949472009
 10
32.1705811308
 20
67.7151957562
 10
32.029576132
 20
68.0436229251
 10
31.8962063317
 20
68.3800717338
 10
31.7706584053
 20
68.724071261
 10
31.6529433059
 20
69.0756320803
 10
31.5430500804
 20
69.4347436182
 10
31.4411325443
 20
69.8009032327
 10
31.3472018662
 20
70.1741207935
 10
31.2612468774
 20
70.554386431
 10
31.1833878877
 20
70.9411678942
 10
31.1136362342
 20
71.3344743075
 10
31.0519805796
 20
71.7342965465
 10
30.9985072224
 20
72.1400749874
 10
30.9532276205
 20
72.5518179707
 10
30.9161303159
 20
72.9695171558
 10
30.887267233
 20
73.3925878968
 10
30.86665568
 20
73.8208353117
 10
30.8542783488
 20
74.2544542824
 10
30.8501352393
 20
74.693444809
  0
LWPOLYLINE
  5
2BF
100
AcDbEntity
  8
ASSI
100
AcDbPolyline
 62
7
  6
CONTINUOUS
 90
19
 70
0
 10
33.5907969251
 20
63.3602454604
 10
33.7431765566
 20
63.0755830193
 10
33.8872070329
 20
62.7822699693
 10
34.0228883537
 20
62.4803063106
 10
34.1502961041
 20
62.169489228
 10
34.2693546991
 20
61.8500215366
 10
34.3798373845
 20
61.5225116821
 10
34.4817278166
 20
61.186944338
 10
34.5750423389
 20
60.8433348308
 10
34.6596032285
 20
60.4923375857
 10
34.7353938027
 20
60.1339385234
 10
34.8024307442
 20
59.7681517232
 10
34.8605863768
 20
59.3956738483
 10
34.909843775
 20
59.0164921471
 10
34.9502198644
 20
58.6306193713
 10
34.9816377463
 20
58.2387904389
 10
35.0040717878
 20
57.8412503228
 10
35.0175476218
 20
57.4377540502
 10
35.0220652483
 20
57.0283016211
  0
LWPOLYLINE
  5
2C0
100
AcDbEntity
  8
ASSI
100
AcDbPolyline
 62
7
  6
CONTINUOUS
 90
19
 70
0
 10
35.0050104875
 20
62.5436962738
 10
35.157390119
 20
62.2590338326
 10
35.3014205952
 20
61.9657207827
 10
35.4371019161
 20
61.663757124
 10
35.5645096665
 20
61.3529400413
 10
35.6835682615
 20
61.0334723499
 10
35.7940509469
 20
60.7059624954
 10
35.8959413789
 20
60.3703951513
 10
35.9892559013
 20
60.0267856441
 10
36.0738167908
 20
59.675788399
 10
36.1496073651
 20
59.3173893367
 10
36.2166443065
 20
58.9516025365
 10
36.2747999392
 20
58.5791246617
 10
36.3240573374
 20
58.1999429605
 10
36.3644334267
 20
57.8140701846
 10
36.3958513086
 20
57.4222412523
 10
36.4182853501
 20
57.0247011362
 10
36.4317611841
 20
56.6212048635
 10
36.4362788107
 20
56.2117524344
  0
LWPOLYLINE
  5
2C1
100
AcDbEntity
  8
0
100
AcDbPolyline
 62
7
  6
CONTINUOUS
 90
48
 70
0
 10
-20.1549954978
 20
-102.3726261275
 10
-20.1029107357
 20
-102.3399188789
 10
-20.0518712279
 20
-102.3023139855
 10
-20.0035034729
 20
-102.2607955967
 10
-19.9578227456
 20
-102.2153413521
 10
-19.914813771
 20
-102.1659736122
 10
-19.874721889
 20
-102.1129742304
 10
-19.8375637742
 20
-102.0563224576
 10
-19.803322752
 20
-101.996039043
 10
-19.7721941382
 20
-101.9324680873
 10
-19.7441957218
 20
-101.8655908078
 10
-19.7193097137
 20
-101.7954259872
 10
-19.697678063
 20
-101.7223740749
 10
-19.6793193684
 20
-101.6464185756
 10
-19.6642150312
 20
-101.5675759845
 10
-19.6524512042
 20
-101.4862962366
 10
-19.6440469776
 20
-101.4025654066
 10
-19.6389832612
 20
-101.3163974199
 10
-19.6372889374
 20
-101.2282839881
 10
-19.6389832612
 20
-101.1382139937
 10
-19.6440469776
 20
-101.0461985542
 10
-19.6524512042
 20
-100.952762734
 10
-19.6642150312
 20
-100.8578984136
 10
-19.6793193684
 20
-100.7616137125
 10
-19.697678063
 20
-100.6644580528
 10
-19.7193097137
 20
-100.5664264524
 10
-19.7441957218
 20
-100.4675238935
 10
-19.7721941382
 20
-100.3683147445
 10
-19.803322752
 20
-100.2687972459
 10
-19.8375637742
 20
-100.1689731571
 10
-19.874721889
 20
-100.0694121249
 10
-19.914813771
 20
-99.9701156426
 10
-19.9578227456
 20
-99.8710822169
 10
-20.0035034729
 20
-99.7728770134
 10
-20.0518712279
 20
-99.6755047535
 10
-20.1029107357
 20
-99.5789607159
 10
-20.1563308316
 20
-99.4837959023
 10
-20.2121451292
 20
-99.3900181813
 10
-20.270340015
 20
-99.2976196844
 10
-20.3305834837
 20
-99.2071278071
 10
-20.3928872542
 20
-99.1185534312
 10
-20.4572396076
 20
-99.031885675
 10
-20.5232733817
 20
-98.9476192887
 10
-20.5909982
 20
-98.8657679816
 10
-20.660404439
 20
-98.7863180444
 10
-20.7310960663
 20
-98.7097231
 10
-20.8029410711
 20
-98.6361343561
 10
-20.8760714641
 20
-98.5654006051
  0
LWPOLYLINE
  5
2C2
100
AcDbEntity
  8
0
100
AcDbPolyline
 62
7
  6
CONTINUOUS
 90
48
 70
0
 10
-18.7407819354
 20
-101.5560769409
 10
-18.6886971733
 20
-101.5233696923
 10
-18.6376576655
 20
-101.4857647988
 10
-18.5892899105
 20
-101.4442464101
 10
-18.5436091832
 20
-101.3987921655
 10
-18.5006002086
 20
-101.3494244255
 10
-18.4605083266
 20
-101.2964250437
 10
-18.4233502118
 20
-101.2397732709
 10
-18.3891091897
 20
-101.1794898563
 10
-18.3579805759
 20
-101.1159189007
 10
-18.3299821594
 20
-101.0490416211
 10
-18.3050961513
 20
-100.9788768006
 10
-18.2834645007
 20
-100.9058248882
 10
-18.265105806
 20
-100.8298693889
 10
-18.2500014688
 20
-100.7510267978
 10
-18.2382376418
 20
-100.66974705
 10
-18.2298334152
 20
-100.58601622
 10
-18.2247696988
 20
-100.4998482332
 10
-18.2230753751
 20
-100.4117348014
 10
-18.2247696988
 20
-100.321664807
 10
-18.2298334152
 20
-100.2296493676
 10
-18.2382376418
 20
-100.1362135473
 10
-18.2500014688
 20
-100.0413492269
 10
-18.265105806
 20
-99.9450645258
 10
-18.2834645007
 20
-99.8479088661
 10
-18.3050961513
 20
-99.7498772658
 10
-18.3299821594
 20
-99.6509747069
 10
-18.3579805759
 20
-99.5517655578
 10
-18.3891091897
 20
-99.4522480592
 10
-18.4233502118
 20
-99.3524239705
 10
-18.4605083266
 20
-99.2528629382
 10
-18.5006002086
 20
-99.153566456
 10
-18.5436091832
 20
-99.0545330302
 10
-18.5892899105
 20
-98.9563278267
 10
-18.6376576655
 20
-98.8589555669
 10
-18.6886971733
 20
-98.7624115293
 10
-18.7421172692
 20
-98.6672467156
 10
-18.7979315668
 20
-98.5734689947
 10
-18.8561264526
 20
-98.4810704977
 10
-18.9163699213
 20
-98.3905786204
 10
-18.9786736918
 20
-98.3020042446
 10
-19.0430260452
 20
-98.2153364883
 10
-19.1090598193
 20
-98.1310701021
 10
-19.1767846376
 20
-98.0492187949
 10
-19.2461908767
 20
-97.9697688577
 10
-19.3168825039
 20
-97.8931739133
 10
-19.3887275087
 20
-97.8195851695
 10
-19.4618579017
 20
-97.7488514184
  0
LINE
  5
2C3
100
AcDbEntity
  8
0
100
AcDbLine
 62
253
  6
CONTINUOUS
 10
-21.4757665685
 20
-97.4052169905
 11
-20.0615530061
 21
-96.5886678038
  0
LINE
  5
2C4
100
AcDbEntity
  8
0
100
AcDbLine
 62
253
  6
CONTINUOUS
 10
-20.9504872454
 20
-98.4975218469
 11
-19.536273683
 21
-97.6809726603
  0
LINE
  5
2C5
100
AcDbEntity
  8
ASSI
100
AcDbLine
 62
253
  6
CONTINUOUS
 10
-42.052573901
 20
101.5302322938
 11
-40.6383603387
 21
100.7136831072
  0
LINE
  5
2C6
100
AcDbEntity
  8
ASSI
100
AcDbLine
 62
253
  6
CONTINUOUS
 10
36.4362788107
 20
56.2117524344
 11
35.0220652483
 21
57.0283016211
  0
LINE
  5
2C7
100
AcDbEntity
  8
ASSI
100
AcDbLine
 62
253
  6
CONTINUOUS
 10
-43.4838422242
 20
107.8621761332
 11
-42.0696286618
 21
107.0456269465
  0
LINE
  5
2C8
100
AcDbEntity
  8
ASSI
100
AcDbLine
 62
253
  6
CONTINUOUS
 10
35.0050104875
 20
62.5436962738
 11
33.5907969251
 21
63.3602454604
  0
LINE
  5
2C9
100
AcDbEntity
  8
ASSI
100
AcDbLine
 62
253
  6
CONTINUOUS
 10
-45.8496320685
 20
112.0969948692
 11
-44.4354185061
 21
111.2804456825
  0
LINE
  5
2CA
100
AcDbEntity
  8
ASSI
100
AcDbLine
 62
253
  6
CONTINUOUS
 10
32.6392206432
 20
66.7785150098
 11
31.2250070809
 21
67.5950641965
  0
LWPOLYLINE
  5
2CB
100
AcDbEntity
  8
0
100
AcDbPolyline
 62
7
  6
CONTINUOUS
 90
4
 70
0
 10
-15.4942803385
 20
-125.5222533839
 10
-15.5587792535
 20
-125.5793323852
 10
-15.5827963698
 20
-125.5970343987
 10
-15.6017311115
 20
-125.608836273
  0
LWPOLYLINE
  5
2CC
100
AcDbEntity
  8
0
100
AcDbPolyline
 62
7
  6
CONTINUOUS
 90
13
 70
0
 10
-26.7643997812
 20
-119.9913550043
 10
-26.7820518586
 20
-120.0032342218
 10
-26.8489952024
 20
-120.0709722017
 10
-26.8945325817
 20
-120.1591006541
 10
-26.9159385463
 20
-120.270215735
 10
-26.9159385463
 20
-120.4017212884
 10
-26.8945325817
 20
-120.5375554405
 10
-26.8489952024
 20
-120.6782693172
 10
-26.7820518586
 20
-120.8233117925
 10
-26.7018789011
 20
-120.954967615
 10
-26.6112017803
 20
-121.0673317009
 10
-26.5072950458
 20
-121.166309134
 10
-26.3901586978
 20
-121.2518999142
  0
LWPOLYLINE
  5
2CD
100
AcDbEntity
  8
0
100
AcDbPolyline
 62
7
  6
CONTINUOUS
 90
13
 70
0
 10
-26.0159176143
 20
-121.287739409
 10
-25.998265537
 20
-121.2758601914
 10
-25.9313221931
 20
-121.2081222116
 10
-25.8857848138
 20
-121.1199937592
 10
-25.8643788493
 20
-121.0088786783
 10
-25.8643788493
 20
-120.8773731249
 10
-25.8857848138
 20
-120.7415389728
 10
-25.9313221931
 20
-120.6008250961
 10
-25.998265537
 20
-120.4557826208
 10
-26.0784384944
 20
-120.3241267983
 10
-26.1691156152
 20
-120.2117627124
 10
-26.2730223497
 20
-120.1127852793
 10
-26.3901586978
 20
-120.027194499
  0
LWPOLYLINE
  5
2CE
100
AcDbEntity
  8
ASSI
100
AcDbPolyline
 62
7
  6
CONTINUOUS
 90
11
 70
0
 10
-26.5348567815
 20
-119.1642335018
 10
-26.5595956437
 20
-119.1795944359
 10
-26.5910579805
 20
-119.2026072619
 10
-26.6207834684
 20
-119.228483732
 10
-26.6485513161
 20
-119.2570316442
 10
-26.6743469468
 20
-119.2882708903
 10
-26.6981849373
 20
-119.3221815784
 10
-26.7198882267
 20
-119.3585118308
 10
-26.7394409196
 20
-119.3972796638
 10
-26.7568589113
 20
-119.4384670612
 10
-26.768764592
 20
-119.4724865396
  0
LWPOLYLINE
  5
2CF
100
AcDbEntity
  8
ASSI
100
AcDbPolyline
 62
7
  6
CONTINUOUS
 90
17
 70
0
 10
-25.1848004423
 20
-121.5024490215
 10
-25.16006158
 20
-121.4870880874
 10
-25.1285992433
 20
-121.4640752614
 10
-25.0988737553
 20
-121.4381987913
 10
-25.0711059076
 20
-121.4096508791
 10
-25.0453102769
 20
-121.378411633
 10
-25.0214722864
 20
-121.3445009449
 10
-24.9997689971
 20
-121.3081706925
 10
-24.9802163042
 20
-121.2694028595
 10
-24.9627983125
 20
-121.2282154621
 10
-24.9476443972
 20
-121.1849144273
 10
-24.9347714169
 20
-121.1394840166
 10
-24.9241625131
 20
-121.0919399684
 10
-24.9158964853
 20
-121.0426354247
 10
-24.9099995999
 20
-120.9916880995
 10
-24.9064455906
 20
-120.9389802788
 10
-24.9052344573
 20
-120.8845119626
  0
LINE
  5
2D0
100
AcDbEntity
  8
0
100
AcDbLine
 62
253
  6
CONTINUOUS
 10
-21.4757665685
 20
-102.9283231004
 11
-20.708563475
 21
-102.4853496495
  0
LINE
  5
2D1
100
AcDbEntity
  8
ASSI
100
AcDbLine
 62
7
  6
CONTINUOUS
 10
-18.7407819277
 20
-101.5560769543
 11
-20.1549954901
 21
-102.372626141
  0
LINE
  5
2D2
100
AcDbEntity
  8
0
100
AcDbLine
 62
7
  6
CONTINUOUS
 10
-26.9901876899
 20
-119.6003334613
 11
-26.151025832
 21
-119.1158119217
  0
LWPOLYLINE
  5
2D3
100
AcDbEntity
  8
0
100
AcDbPolyline
 62
7
  6
CONTINUOUS
 90
11
 70
0
 10
-21.2686803143
 20
-102.470592529
 10
-21.2514726459
 20
-102.4613104336
 10
-21.2225759177
 20
-102.4484899558
 10
-21.1922423366
 20
-102.4382743362
 10
-21.1607419176
 20
-102.4307545094
 10
-21.128064243
 20
-102.4259545435
 10
-21.0942197306
 20
-102.4238503704
 10
-21.0595096478
 20
-102.4244607204
 10
-21.0240344173
 20
-102.427791837
 10
-20.9876936165
 20
-102.4338374768
 10
-20.9504872454
 20
-102.4425976397
  0
LINE
  5
2D4
100
AcDbEntity
  8
ASSI
100
AcDbLine
 62
253
  6
CONTINUOUS
 10
-47.6387174724
 20
120.0119246684
 11
-46.22450391
 21
119.1953754817
  0
LINE
  5
2D5
100
AcDbEntity
  8
ASSI
100
AcDbLine
 62
253
  6
CONTINUOUS
 10
30.8501352393
 20
74.693444809
 11
29.4359216769
 21
75.5099939956
  0
LWPOLYLINE
  5
2D6
100
AcDbEntity
  8
0
100
AcDbPolyline
 62
7
  6
CONTINUOUS
 90
15
 70
0
 10
26.8903372646
 20
130.9732665973
 10
26.9321265327
 20
130.8879357069
 10
26.9761715797
 20
130.8039110382
 10
27.0224724057
 20
130.7211925914
 10
27.0711437211
 20
130.6395995285
 10
27.1220708155
 20
130.5593126873
 10
27.1749095573
 20
130.4808745817
 10
27.2296728923
 20
130.4042977324
 10
27.2863478748
 20
130.3295696185
 10
27.3445515353
 20
130.2571951914
 10
27.4042942262
 20
130.1871903914
 10
27.4655655951
 20
130.1195392781
 10
27.5279516159
 20
130.0546989817
 10
27.5914598368
 20
129.9926885381
 10
27.632800325
 20
129.9548174041
  0
LWPOLYLINE
  5
2D7
100
AcDbEntity
  8
0
100
AcDbPolyline
 62
7
  6
CONTINUOUS
 90
8
 70
0
 10
35.0220652483
 20
-130.3817106922
 10
35.0090646589
 20
-130.4042004304
 10
34.9899297373
 20
-130.4318261554
 10
34.9689395881
 20
-130.4572338927
 10
34.9462810558
 20
-130.4801974749
 10
34.9219392449
 20
-130.5006950806
 10
34.8959290508
 20
-130.5187485312
 10
34.8856896722
 20
-130.5249150281
  0
LWPOLYLINE
  5
2D8
100
AcDbEntity
  8
0
100
AcDbPolyline
 62
7
  6
CONTINUOUS
 90
3
 70
0
 10
-15.4047470752
 20
-125.4603078507
 10
-15.4502352915
 20
-125.4890908316
 10
-15.4942803385
 20
-125.5222533839
  0
LINE
  5
2D9
100
AcDbEntity
  8
0
100
AcDbLine
 62
7
  6
CONTINUOUS
 10
-25.7901297056
 20
-121.678760952
 11
-24.9508926318
 21
-121.1941959837
  0
LINE
  5
2DA
100
AcDbEntity
  8
0
100
AcDbLine
 62
253
  6
CONTINUOUS
 10
-21.4757665685
 20
-121.6399383251
 11
-20.0615530061
 21
-120.8233891384
  0
LINE
  5
2DB
100
AcDbEntity
  8
0
100
AcDbLine
 62
253
  6
CONTINUOUS
 10
-20.7686597873
 20
-122.8646831952
 11
-19.354446225
 21
-122.0481340086
  0
LINE
  5
2DC
100
AcDbEntity
  8
0
100
AcDbLine
 62
253
  6
CONTINUOUS
 10
-16.1017550315
 20
-125.5592955112
 11
-14.6875414691
 21
-124.7427463245
  0
LINE
  5
2DD
100
AcDbEntity
  8
ASSI
100
AcDbLine
 62
7
  6
CONTINUOUS
 10
-13.9905335146
 20
-124.643758661
 11
-15.4047470769
 21
-125.4603078477
  0
LINE
  5
2DE
100
AcDbEntity
  8
0
100
AcDbLine
 62
7
  6
CONTINUOUS
 10
-37.1028264327
 20
-140.0511497376
 11
-30.3146013334
 21
-136.1317136417
  0
LINE
  5
2DF
100
AcDbEntity
  8
0
100
AcDbLine
 62
253
  6
CONTINUOUS
 10
-13.2733279068
 20
-126.8658057738
 11
-11.8591143444
 21
-126.0492565871
  0
LWPOLYLINE
  5
2E0
100
AcDbEntity
  8
0
100
AcDbPolyline
 62
7
  6
CONTINUOUS
 90
17
 70
0
 10
-15.6017311115
 20
-125.608836273
 10
-15.6081209556
 20
-125.6124331154
 10
-15.6348270132
 20
-125.6255571202
 10
-15.6628405402
 20
-125.6363778283
 10
-15.6919395296
 20
-125.6448094857
 10
-15.7221326065
 20
-125.6508331089
 10
-15.7534111459
 20
-125.6544676815
 10
-15.7855272655
 20
-125.6556843994
 10
-15.8184876207
 20
-125.6544640504
 10
-15.8522855561
 20
-125.6508258467
 10
-15.8866532234
 20
-125.6447986211
 10
-15.9215951495
 20
-125.6363633904
 10
-15.9571068075
 20
-125.6255391377
 10
-15.9929067676
 20
-125.6124116453
 10
-16.0289012201
 20
-125.5970095071
 10
-16.0651839747
 20
-125.579304129
 10
-16.1017550315
 20
-125.5592955112
  0
LWPOLYLINE
  5
2E1
100
AcDbEntity
  8
0
100
AcDbPolyline
 62
7
  6
CONTINUOUS
 90
6
 70
0
 10
-26.9891545691
 20
-119.602122775
 10
-26.9336638685
 20
-119.5750701454
 10
-26.8144227665
 20
-119.5460816493
 10
-26.6856326563
 20
-119.5514272562
 10
-26.5442113001
 20
-119.5893276646
 10
-26.3901586978
 20
-119.6597828745
  0
LWPOLYLINE
  5
2E2
100
AcDbEntity
  8
0
100
AcDbPolyline
 62
7
  6
CONTINUOUS
 90
6
 70
0
 10
-25.7911628264
 20
-121.6769716383
 10
-25.846653527
 20
-121.7040242679
 10
-25.9658946291
 20
-121.733012764
 10
-26.0946847392
 20
-121.7276671571
 10
-26.2361060955
 20
-121.6897667486
 10
-26.3901586978
 20
-121.6193115388
  0
LWPOLYLINE
  5
2E3
100
AcDbEntity
  8
0
100
AcDbPolyline
 62
7
  6
CONTINUOUS
 90
25
 70
0
 10
-20.8760714641
 20
146.3756824327
 10
-20.9876936165
 20
146.4777660128
 10
-21.0240344173
 20
146.5136858188
 10
-21.0595096478
 20
146.5513206092
 10
-21.0942197306
 20
146.5907925927
 10
-21.128064243
 20
146.6319795604
 10
-21.1607419176
 20
146.6745148858
 10
-21.1922423366
 20
146.7184106069
 10
-21.2225759177
 20
146.7636546856
 10
-21.2514726459
 20
146.8098443809
 10
-21.2789196929
 20
146.8569881351
 10
-21.304929887
 20
146.9050775059
 10
-21.3292716979
 20
146.9536844246
 10
-21.3519302303
 20
147.002813512
 10
-21.3729203794
 20
147.0524601474
 10
-21.3920553011
 20
147.1021824003
 10
-21.4093184318
 20
147.1519809456
 10
-21.4247263351
 20
147.2018551085
 10
-21.4381418571
 20
147.2513609329
 10
-21.44954721
 20
147.3004951303
 10
-21.4589601816
 20
147.3492609893
 10
-21.4662969822
 20
147.3972244195
 10
-21.471529682
 20
147.4442407242
 10
-21.4746862107
 20
147.4904546002
 10
-21.4757665685
 20
147.5358660474
  0
LWPOLYLINE
  5
2E4
100
AcDbEntity
  8
0
100
AcDbPolyline
 62
7
  6
CONTINUOUS
 90
8
 70
0
 10
35.0220652483
 20
-154.6163457887
 10
35.0157059006
 20
-154.6280762733
 10
34.9980516439
 20
-154.6554098209
 10
34.9786736543
 20
-154.6807339825
 10
34.957730548
 20
-154.70384147
 10
34.9352094789
 20
-154.7247140896
 10
34.9111232932
 20
-154.7433700352
 10
34.8856933053
 20
-154.7596426524
  0
LWPOLYLINE
  5
2E5
100
AcDbEntity
  8
ASSI
100
AcDbPolyline
 62
7
  6
CONTINUOUS
 90
19
 70
0
 10
-12.1709907348
 20
-130.6122934196
 10
-12.1836314306
 20
-130.6197627317
 10
-12.2331382561
 20
-130.652385506
 10
-12.2800906523
 20
-130.6888827767
 10
-12.3244727579
 20
-130.7292786018
 10
-12.3663004344
 20
-130.7735489232
 10
-12.4053144946
 20
-130.821419418
 10
-12.4414974678
 20
-130.8729124409
 10
-12.4748668248
 20
-130.9280056371
 10
-12.5052157909
 20
-130.9863576192
 10
-12.5325256114
 20
-131.0479886222
 10
-12.556815041
 20
-131.1128784112
 10
-12.5779335691
 20
-131.1806248937
 10
-12.5958615066
 20
-131.251245808
 10
-12.6106185426
 20
-131.3247234157
 10
-12.6221132346
 20
-131.4006024098
 10
-12.6303151016
 20
-131.478731021
 10
-12.6352546247
 20
-131.5592610186
 10
-12.6369318037
 20
-131.6421924024
  0
LWPOLYLINE
  5
2E6
100
AcDbEntity
  8
ASSI
100
AcDbPolyline
 62
7
  6
CONTINUOUS
 90
19
 70
0
 10
-9.9208923573
 20
-136.5505027473
 10
-9.9082516614
 20
-136.5430334351
 10
-9.858744836
 20
-136.5104106608
 10
-9.8117924397
 20
-136.4739133902
 10
-9.7674103341
 20
-136.4335175651
 10
-9.7255826576
 20
-136.3892472436
 10
-9.6865685974
 20
-136.3413767489
 10
-9.6503856242
 20
-136.289883726
 10
-9.6170162672
 20
-136.2347905298
 10
-9.5866673011
 20
-136.1764385477
 10
-9.5593574806
 20
-136.1148075446
 10
-9.5350680511
 20
-136.0499177556
 10
-9.5139495229
 20
-135.9821712731
 10
-9.4960215855
 20
-135.9115503589
 10
-9.4812645494
 20
-135.8380727511
 10
-9.4697698575
 20
-135.7621937571
 10
-9.4615679904
 20
-135.6840651458
 10
-9.4566284674
 20
-135.6035351483
 10
-9.4549512883
 20
-135.5206037644
  0
LINE
  5
2E7
100
AcDbEntity
  8
0
100
AcDbLine
 62
253
  6
CONTINUOUS
 10
-12.7076424818
 20
-127.5190135591
 11
-11.2934289194
 21
-126.7024643725
  0
LINE
  5
2E8
100
AcDbEntity
  8
ASSI
100
AcDbLine
 62
253
  6
CONTINUOUS
 10
-11.2227182413
 20
-130.8256432158
 11
-12.6369318037
 21
-131.6421924024
  0
LINE
  5
2E9
100
AcDbEntity
  8
ASSI
100
AcDbLine
 62
253
  6
CONTINUOUS
 10
-11.2227182413
 20
-132.8668189078
 11
-12.6369318037
 21
-133.6833680944
  0
LWPOLYLINE
  5
2EA
100
AcDbEntity
  8
0
100
AcDbPolyline
 62
7
  6
CONTINUOUS
 90
8
 70
0
 10
-26.3901586978
 20
160.0629339547
 10
-26.5442113001
 20
160.1703748285
 10
-26.6856326563
 20
160.2957842575
 10
-26.8144227665
 20
160.4391622415
 10
-26.9336638685
 20
160.6058473734
 10
-27.0402737245
 20
160.7905010604
 10
-27.1250056206
 20
160.9771075243
 10
-27.1567776577
 20
161.0755716453
  0
LWPOLYLINE
  5
2EB
100
AcDbEntity
  8
0
100
AcDbPolyline
 62
7
  6
CONTINUOUS
 90
48
 70
0
 10
33.7720048557
 20
-130.6228814296
 10
33.7199200935
 20
-130.6555886782
 10
33.6688805858
 20
-130.6931935716
 10
33.6205128308
 20
-130.7347119604
 10
33.5748321034
 20
-130.780166205
 10
33.5318231289
 20
-130.8295339449
 10
33.4917312469
 20
-130.8825333267
 10
33.4545731321
 20
-130.9391850995
 10
33.4203321099
 20
-130.9994685141
 10
33.3892034961
 20
-131.0630394698
 10
33.3612050797
 20
-131.1299167493
 10
33.3363190716
 20
-131.2000815699
 10
33.3146874209
 20
-131.2731334822
 10
33.2963287263
 20
-131.3490889815
 10
33.2812243891
 20
-131.4279315726
 10
33.2694605621
 20
-131.5092113204
 10
33.2610563355
 20
-131.5929421505
 10
33.2559926191
 20
-131.6791101372
 10
33.2542982953
 20
-131.767223569
 10
33.2559926191
 20
-131.8572935634
 10
33.2610563355
 20
-131.9493090029
 10
33.2694605621
 20
-132.0427448231
 10
33.2812243891
 20
-132.1376091435
 10
33.2963287263
 20
-132.2338938446
 10
33.3146874209
 20
-132.3310495043
 10
33.3363190716
 20
-132.4290811047
 10
33.3612050797
 20
-132.5279836636
 10
33.3892034961
 20
-132.6271928126
 10
33.4203321099
 20
-132.7267103112
 10
33.4545731321
 20
-132.8265344
 10
33.4917312469
 20
-132.9260954322
 10
33.5318231289
 20
-133.0253919145
 10
33.5748321034
 20
-133.1244253402
 10
33.6205128308
 20
-133.2226305437
 10
33.6688805858
 20
-133.3200028036
 10
33.7199200935
 20
-133.4165468412
 10
33.7733401895
 20
-133.5117116548
 10
33.8291544871
 20
-133.6054893758
 10
33.8873493729
 20
-133.6978878727
 10
33.9475928416
 20
-133.78837975
 10
34.0098966121
 20
-133.8769541259
 10
34.0742489655
 20
-133.9636218821
 10
34.1402827396
 20
-134.0478882684
 10
34.2080075579
 20
-134.1297395755
 10
34.2774137969
 20
-134.2091895127
 10
34.3481054242
 20
-134.2857844571
 10
34.4199504289
 20
-134.359373201
 10
34.493080822
 20
-134.430106952
  0
LWPOLYLINE
  5
2EC
100
AcDbEntity
  8
ASSI
100
AcDbPolyline
 62
7
  6
CONTINUOUS
 90
20
 70
0
 10
5.4334427478
 20
-140.6923375995
 10
5.3909933647
 20
-140.718399017
 10
5.336532709
 20
-140.7568073129
 10
5.2845559422
 20
-140.7993430585
 10
5.2353358212
 20
-140.8457830401
 10
5.1888868374
 20
-140.896147782
 10
5.1451944994
 20
-140.9504167599
 10
5.1044880903
 20
-141.0083051882
 10
5.0667833067
 20
-141.0698320939
 10
5.0320644519
 20
-141.13497845
 10
5.000513719
 20
-141.2034023899
 10
4.9721477625
 20
-141.2751211434
 10
4.9469499279
 20
-141.3501174807
 10
4.9250524452
 20
-141.4279978458
 10
4.9064726638
 20
-141.5087773995
 10
4.8911932343
 20
-141.592440981
 10
4.8792943382
 20
-141.6785495513
 10
4.8708027024
 20
-141.7669567642
 10
4.8656915999
 20
-141.8578089659
 10
4.8639610307
 20
-141.9511061565
  0
LINE
  5
2ED
100
AcDbEntity
  8
ASSI
100
AcDbLine
 62
253
  6
CONTINUOUS
 10
6.2781745931
 20
-141.1345569698
 11
4.8639610307
 21
-141.9511061565
  0
LINE
  5
2EE
100
AcDbEntity
  8
ASSI
100
AcDbLine
 62
253
  6
CONTINUOUS
 10
6.2781745931
 20
-143.1757326618
 11
4.8639610307
 21
-143.9922818485
  0
LINE
  5
2EF
100
AcDbEntity
  8
ASSI
100
AcDbLine
 62
253
  6
CONTINUOUS
 10
-47.6387174724
 20
169.0232434836
 11
-46.22450391
 21
168.2066942969
  0
LINE
  5
2F0
100
AcDbEntity
  8
ASSI
100
AcDbLine
 62
253
  6
CONTINUOUS
 10
30.8501352393
 20
123.7047636242
 11
29.4359216769
 21
124.5213128108
  0
LINE
  5
2F1
100
AcDbEntity
  8
0
100
AcDbLine
 62
7
  6
CONTINUOUS
 10
17.9454364826
 20
136.4645283136
 11
26.3246518397
 21
131.6264743827
  0
LWPOLYLINE
  5
2F2
100
AcDbEntity
  8
0
100
AcDbPolyline
 62
7
  6
CONTINUOUS
 90
4
 70
0
 10
26.3246518397
 20
131.6264743827
 10
26.3612228965
 20
131.6042516608
 10
26.3975056511
 20
131.5800586233
 10
26.4262245243
 20
131.5591836836
  0
LWPOLYLINE
  5
2F3
100
AcDbEntity
  8
0
100
AcDbPolyline
 62
7
  6
CONTINUOUS
 90
4
 70
0
 10
26.9321265327
 20
-150.0187289836
 10
26.8676276177
 20
-150.0758079849
 10
26.8436105014
 20
-150.0935099983
 10
26.8246757597
 20
-150.1053118727
  0
LWPOLYLINE
  5
2F4
100
AcDbEntity
  8
0
100
AcDbPolyline
 62
7
  6
CONTINUOUS
 90
3
 70
0
 10
27.021659796
 20
-149.9567834503
 10
26.9761715797
 20
-149.9855664312
 10
26.9321265327
 20
-150.0187289836
  0
LWPOLYLINE
  5
2F5
100
AcDbEntity
  8
ASSI
100
AcDbPolyline
 62
7
  6
CONTINUOUS
 90
20
 70
0
 10
8.1835666101
 20
-147.4965606688
 10
8.2260159932
 20
-147.4704992513
 10
8.2804766489
 20
-147.4320909554
 10
8.3324534157
 20
-147.3895552098
 10
8.3816735367
 20
-147.3431152282
 10
8.4281225205
 20
-147.2927504863
 10
8.4718148584
 20
-147.2384815084
 10
8.5125212676
 20
-147.1805930801
 10
8.5502260512
 20
-147.1190661744
 10
8.584944906
 20
-147.0539198183
 10
8.6164956389
 20
-146.9854958784
 10
8.6448615954
 20
-146.9137771249
 10
8.67005943
 20
-146.8387807876
 10
8.6919569127
 20
-146.7609004225
 10
8.7105366941
 20
-146.6801208688
 10
8.7258161235
 20
-146.5964572873
 10
8.7377150197
 20
-146.5103487169
 10
8.7462066555
 20
-146.4219415041
 10
8.751317758
 20
-146.3310893024
 10
8.7530483272
 20
-146.2377921118
  0
LINE
  5
2F6
100
AcDbEntity
  8
ASSI
100
AcDbLine
 62
7
  6
CONTINUOUS
 10
35.0220652483
 20
-129.9011122079
 11
33.7720048479
 21
-130.6228814161
  0
LINE
  5
2F7
100
AcDbEntity
  8
0
100
AcDbLine
 62
253
  6
CONTINUOUS
 10
34.5674966032
 20
-130.5529099174
 11
35.0220652483
 21
-130.2904476788
  0
LWPOLYLINE
  5
2F8
100
AcDbEntity
  8
0
100
AcDbPolyline
 62
7
  6
CONTINUOUS
 90
11
 70
0
 10
34.8856896722
 20
-130.5249150281
 10
34.8684820038
 20
-130.5341971235
 10
34.8395852756
 20
-130.5470176013
 10
34.8092516945
 20
-130.5572332209
 10
34.7777512754
 20
-130.5647530477
 10
34.7450736009
 20
-130.5695530136
 10
34.7112290885
 20
-130.5716571867
 10
34.6765190057
 20
-130.5710468367
 10
34.6410437752
 20
-130.5677157201
 10
34.6047029744
 20
-130.5616700803
 10
34.5674966032
 20
-130.5529099174
  0
LWPOLYLINE
  5
2F9
100
AcDbEntity
  8
0
100
AcDbPolyline
 62
7
  6
CONTINUOUS
 90
13
 70
0
 10
-20.9504872454
 20
142.4984853981
 10
-20.8760714641
 20
142.4804306773
 10
-20.8029410711
 20
142.4667152836
 10
-20.7310960663
 20
142.4573392168
 10
-20.660404439
 20
142.452301242
 10
-20.5909982
 20
142.4516025941
 10
-20.5232733817
 20
142.4552469787
 10
-20.4572396076
 20
142.4632592178
 10
-20.3928872542
 20
142.4756144893
 10
-20.3305834837
 20
142.4922420327
 10
-20.270340015
 20
142.5131662624
 10
-20.2121451292
 20
142.538362764
 10
-20.1549954978
 20
142.5684569103
  0
LWPOLYLINE
  5
2FA
100
AcDbEntity
  8
ASSI
100
AcDbPolyline
 62
7
  6
CONTINUOUS
 90
58
 70
0
 10
19.2889393669
 20
136.6257864945
 10
19.5498682538
 20
136.5246010837
 10
19.8121874183
 20
136.416971168
 10
20.0757297343
 20
136.3029563132
 10
20.340495492
 20
136.1825894892
 10
20.6061438391
 20
136.0559701229
 10
20.871996475
 20
135.9232948554
 10
21.1378803592
 20
135.7846941503
 10
21.4036295714
 20
135.6402687188
 10
21.6685843508
 20
135.4902287817
 10
21.9323797651
 20
135.3348567402
 10
22.1950587502
 20
135.1741835466
 10
22.4565741218
 20
135.0080504659
 10
22.7168933284
 20
134.8365198469
 10
22.9757176871
 20
134.6598143175
 10
23.2325975728
 20
134.4780066224
 10
23.4874307931
 20
134.2912243308
 10
23.7399995094
 20
134.0996646342
 10
23.9896915996
 20
133.9035275562
 10
24.2362936463
 20
133.703059588
 10
24.4797282661
 20
133.4983904328
 10
24.7195982864
 20
133.28956167
 10
24.9557361191
 20
133.0767976211
 10
25.1880347011
 20
132.8602652837
 10
25.4161876574
 20
132.6399196563
 10
25.6401674832
 20
132.4158491765
 10
25.8597313003
 20
132.1883594954
 10
26.074262099
 20
131.9577403456
 10
26.2836627013
 20
131.7241768725
 10
26.4878080888
 20
131.4879102636
 10
26.6860753924
 20
131.2493346915
 10
26.8782944418
 20
131.0087688063
 10
27.0644799372
 20
130.7663400584
 10
27.2443128127
 20
130.5221639753
 10
27.4176074708
 20
130.276626005
 10
27.5844299272
 20
130.0297769743
 10
27.7448193838
 20
129.7812215505
 10
27.8988337229
 20
129.530930205
 10
28.0462503071
 20
129.2793460955
 10
28.1866784397
 20
129.0267775492
 10
28.3200556092
 20
128.7734076215
 10
28.4463394593
 20
128.5194660289
 10
28.5652055044
 20
128.265329379
 10
28.6765500193
 20
128.0113466885
 10
28.7804393555
 20
127.75756494
 10
28.8768146526
 20
127.5039040384
 10
28.9656289359
 20
127.2506173913
 10
29.0468896043
 20
126.9978324832
 10
29.120587767
 20
126.7452841638
 10
29.1867353323
 20
126.4929330857
 10
29.2452427559
 20
126.2412033417
 10
29.2959485969
 20
125.9905226162
 10
29.338826875
 20
125.7410487104
 10
29.3738977665
 20
125.4929803555
 10
29.4011150608
 20
125.2467865375
 10
29.4204930048
 20
125.0027244859
 10
29.4320830466
 20
124.760849757
 10
29.4359216769
 20
124.5213128108
  0
LWPOLYLINE
  5
2FB
100
AcDbEntity
  8
ASSI
100
AcDbPolyline
 62
7
  6
CONTINUOUS
 90
28
 70
0
 10
19.2889393669
 20
136.6257864945
 10
16.705239356
 20
137.6816084179
 10
14.1464559883
 20
138.7564140565
 10
11.6125892637
 20
139.8502034104
 10
9.1032169682
 20
140.9631688455
 10
6.6187613158
 20
142.0951179959
 10
4.1604889487
 20
143.2454737635
 10
1.7284132179
 20
144.4142455342
 10
-0.6774792277
 20
145.6014239221
 10
-3.0559617998
 20
146.806403672
 10
-5.4070205216
 20
148.0291938609
 10
-7.7306693698
 20
149.2697854118
 10
-10.025723686
 20
150.5275458378
 10
-12.2921688895
 20
151.8024838935
 10
-14.530019561
 20
153.0945908244
 10
-16.7381347843
 20
154.4032078796
 10
-18.9164993969
 20
155.728343478
 10
-21.0651285613
 20
157.0699892008
 10
-23.1829268487
 20
158.4274610411
 10
-25.2698785382
 20
159.8007670688
 10
-27.3259993508
 20
161.189899214
 10
-29.350241021
 20
162.5941492599
 10
-31.3425872933
 20
164.0135249153
 10
-33.3030544232
 20
165.4480184715
 10
-35.2306429121
 20
166.896898585
 10
-37.1250195937
 20
168.359921475
 10
-38.9865176344
 20
169.8373309225
 10
-40.815137034
 20
171.3291269274
  0
LWPOLYLINE
  5
2FC
100
AcDbEntity
  8
ASSI
100
AcDbPolyline
 62
7
  6
CONTINUOUS
 90
28
 70
0
 10
19.2889393669
 20
138.2587270481
 10
16.705239356
 20
139.3145489715
 10
14.1464559883
 20
140.3893546101
 10
11.6125892637
 20
141.4831439639
 10
9.1032169682
 20
142.5961093991
 10
6.6187613158
 20
143.7280585494
 10
4.1604889487
 20
144.8784143171
 10
1.7284132179
 20
146.0471860878
 10
-0.6774792277
 20
147.2343644757
 10
-3.0559617998
 20
148.4393442256
 10
-5.4070205216
 20
149.6621344145
 10
-7.7306693698
 20
150.9027259654
 10
-10.025723686
 20
152.1604863913
 10
-12.2921688895
 20
153.4354244471
 10
-14.530019561
 20
154.727531378
 10
-16.7381347843
 20
156.0361484332
 10
-18.9164993969
 20
157.3612840316
 10
-21.0651285613
 20
158.7029297544
 10
-23.1829268487
 20
160.0604015947
 10
-25.2698785382
 20
161.4337076224
 10
-27.3259993508
 20
162.8228397676
 10
-29.350241021
 20
164.2270898135
 10
-31.3425872933
 20
165.6464654689
 10
-33.3030544232
 20
167.080959025
 10
-35.2306429121
 20
168.5298391386
 10
-37.1250195937
 20
169.9928620286
 10
-38.9865176344
 20
171.4702714761
 10
-41.0235404108
 20
173.1312428161
  0
LWPOLYLINE
  5
2FD
100
AcDbEntity
  8
ASSI
100
AcDbPolyline
 62
7
  6
CONTINUOUS
 90
58
 70
0
 10
19.2889393669
 20
138.2587270481
 10
19.5889797213
 20
138.1343345666
 10
19.8904653631
 20
138.0022116635
 10
20.1931987801
 20
137.8624287345
 10
20.4971680609
 20
137.715017669
 10
20.8019826341
 20
137.5601030467
 10
21.1068776339
 20
137.3979384877
 10
21.4116465503
 20
137.2286770169
 10
21.7160953031
 20
137.0524388159
 10
22.0194869606
 20
136.8694970311
 10
22.3213964458
 20
136.6801889933
 10
22.6218682942
 20
136.4845476986
 10
22.9208709072
 20
136.2823995033
 10
23.2183596239
 20
136.0738145179
 10
23.5139876463
 20
135.8590594226
 10
23.8072663368
 20
135.6382448645
 10
24.0980715125
 20
135.4115196384
 10
24.386149138
 20
135.1791187576
 10
24.6708287633
 20
134.9413091963
 10
24.9518602904
 20
134.6983834878
 10
25.2291501436
 20
134.4504936921
 10
25.5022755363
 20
134.1977158543
 10
25.7710392361
 20
133.9403155587
 10
26.0353138875
 20
133.678489689
 10
26.2947815319
 20
133.4122105365
 10
26.5494047757
 20
133.1415797959
 10
26.7989014691
 20
132.8669615139
 10
27.0426012023
 20
132.5887320423
 10
27.2803892222
 20
132.3071102435
 10
27.5121176863
 20
132.0223811033
 10
27.73710898
 20
131.7350442412
 10
27.9551673959
 20
131.4454793633
 10
28.1663049043
 20
131.1538339733
 10
28.3701867216
 20
130.8602690238
 10
28.5665997805
 20
130.5652436676
 10
28.7556158244
 20
130.2688143496
 10
28.9373046527
 20
129.9705274095
 10
29.1117283328
 20
129.67034429
 10
29.2786300866
 20
129.3687923828
 10
29.4375906683
 20
129.0662606057
 10
29.5885386937
 20
128.7629667366
 10
29.7314216122
 20
128.459180819
 10
29.8658909473
 20
128.155368147
 10
29.9918298639
 20
127.8519445141
 10
30.1093110282
 20
127.548962126
 10
30.2182826372
 20
127.2463365789
 10
30.3186907252
 20
126.9443682491
 10
30.4105424864
 20
126.6432069053
 10
30.4938405232
 20
126.3425467575
 10
30.5685974935
 20
126.0423404867
 10
30.6347089877
 20
125.7430901111
 10
30.6920015683
 20
125.445311097
 10
30.7404485632
 20
125.1491922645
 10
30.7800697849
 20
124.8549661501
 10
30.8108158818
 20
124.563190047
 10
30.8327054446
 20
124.2741689666
 10
30.845797522
 20
123.9879675534
 10
30.8501352393
 20
123.7047636242
  0
LWPOLYLINE
  5
2FE
100
AcDbEntity
  8
0
100
AcDbPolyline
 62
7
  6
CONTINUOUS
 90
4
 70
0
 10
-26.3901586978
 20
160.4303455793
 10
-26.2730223497
 20
160.3806702409
 10
-26.1691156152
 20
160.3596587816
 10
-26.1051152913
 20
160.3650598942
  0
LWPOLYLINE
  5
2FF
100
AcDbEntity
  8
ASSI
100
AcDbPolyline
 62
7
  6
CONTINUOUS
 90
19
 70
0
 10
23.5379017151
 20
-151.2301603826
 10
23.5252610193
 20
-151.2376296948
 10
23.4757541939
 20
-151.2702524691
 10
23.4288017976
 20
-151.3067497397
 10
23.384419692
 20
-151.3471455648
 10
23.3425920155
 20
-151.3914158863
 10
23.3035779553
 20
-151.439286381
 10
23.2673949821
 20
-151.4907794039
 10
23.2340256251
 20
-151.5458726001
 10
23.203676659
 20
-151.6042245822
 10
23.1763668385
 20
-151.6658555853
 10
23.1520774089
 20
-151.7307453743
 10
23.1309588808
 20
-151.7984918568
 10
23.1130309434
 20
-151.869112771
 10
23.0982739073
 20
-151.9425903788
 10
23.0867792153
 20
-152.0184693728
 10
23.0785773483
 20
-152.0965979841
 10
23.0736378252
 20
-152.1771279816
 10
23.0719606462
 20
-152.2600593655
  0
LWPOLYLINE
  5
300
100
AcDbEntity
  8
ASSI
100
AcDbPolyline
 62
7
  6
CONTINUOUS
 90
19
 70
0
 10
25.7880000927
 20
-157.1683697103
 10
25.8006407885
 20
-157.1609003982
 10
25.8501476139
 20
-157.1282776239
 10
25.8971000102
 20
-157.0917803532
 10
25.9414821158
 20
-157.0513845281
 10
25.9833097923
 20
-157.0071142067
 10
26.0223238525
 20
-156.9592437119
 10
26.0585068257
 20
-156.907750689
 10
26.0918761827
 20
-156.8526574928
 10
26.1222251488
 20
-156.7943055107
 10
26.1495349693
 20
-156.7326745077
 10
26.1738243989
 20
-156.6677847187
 10
26.194942927
 20
-156.6000382362
 10
26.2128708645
 20
-156.5294173219
 10
26.2276279005
 20
-156.4559397142
 10
26.2391225925
 20
-156.3800607201
 10
26.2473244595
 20
-156.3019321089
 10
26.2522639826
 20
-156.2214021113
 10
26.2539411616
 20
-156.1384707275
  0
LINE
  5
301
100
AcDbEntity
  8
0
100
AcDbLine
 62
253
  6
CONTINUOUS
 10
26.3246518397
 20
-150.0557711108
 11
27.7388654021
 21
-149.2392219242
  0
LINE
  5
302
100
AcDbEntity
  8
ASSI
100
AcDbLine
 62
7
  6
CONTINUOUS
 10
28.4358733566
 20
-149.1402342607
 11
27.0216597943
 21
-149.9567834473
  0
LINE
  5
303
100
AcDbEntity
  8
ASSI
100
AcDbLine
 62
253
  6
CONTINUOUS
 10
24.4861742086
 20
-151.4435101788
 11
23.0719606462
 21
-152.2600593655
  0
LINE
  5
304
100
AcDbEntity
  8
ASSI
100
AcDbLine
 62
253
  6
CONTINUOUS
 10
24.4861742086
 20
-153.4846858708
 11
23.0719606462
 21
-154.3012350575
  0
LINE
  5
305
100
AcDbEntity
  8
0
100
AcDbLine
 62
253
  6
CONTINUOUS
 10
29.1530789644
 20
-151.3622813734
 11
30.5672925268
 21
-150.5457321868
  0
LINE
  5
306
100
AcDbEntity
  8
0
100
AcDbLine
 62
253
  6
CONTINUOUS
 10
29.7187643894
 20
-152.0154891588
 11
31.1329779518
 21
-151.1989399722
  0
LINE
  5
307
100
AcDbEntity
  8
0
100
AcDbLine
 62
253
  6
CONTINUOUS
 10
34.3856691452
 20
-154.7101014748
 11
35.0220652483
 21
-154.3426543408
  0
LWPOLYLINE
  5
308
100
AcDbEntity
  8
0
100
AcDbPolyline
 62
7
  6
CONTINUOUS
 90
17
 70
0
 10
26.8246757597
 20
-150.1053118727
 10
26.8182859156
 20
-150.1089087151
 10
26.791579858
 20
-150.1220327199
 10
26.763566331
 20
-150.132853428
 10
26.7344673416
 20
-150.1412850853
 10
26.7042742647
 20
-150.1473087086
 10
26.6729957253
 20
-150.1509432812
 10
26.6408796057
 20
-150.1521599991
 10
26.6079192505
 20
-150.1509396501
 10
26.5741213151
 20
-150.1473014464
 10
26.5397536478
 20
-150.1412742207
 10
26.5048117217
 20
-150.13283899
 10
26.4693000637
 20
-150.1220147374
 10
26.4335001035
 20
-150.1088872449
 10
26.3975056511
 20
-150.0934851067
 10
26.3612228965
 20
-150.0757797287
 10
26.3246518397
 20
-150.0557711108
  0
LWPOLYLINE
  5
309
100
AcDbEntity
  8
0
100
AcDbPolyline
 62
7
  6
CONTINUOUS
 90
16
 70
0
 10
34.8856933053
 20
-154.7596426524
 10
34.8588358072
 20
-154.7735543392
 10
34.830634507
 20
-154.7850826977
 10
34.801296083
 20
-154.7941473122
 10
34.7708112019
 20
-154.8007279609
 10
34.7391891969
 20
-154.8048448656
 10
34.7066889062
 20
-154.8064643281
 10
34.6733031209
 20
-154.8055658497
 10
34.6390390499
 20
-154.802169929
 10
34.6041771574
 20
-154.7963043628
 10
34.5687125369
 20
-154.7879488809
 10
34.5326500949
 20
-154.7771237535
 10
34.4962850163
 20
-154.7639175884
 10
34.4597156959
 20
-154.7483599216
 10
34.4228437389
 20
-154.730421217
 10
34.3856691452
 20
-154.7101014748
  0
LINE
  5
30A
100
AcDbEntity
  8
0
100
AcDbLine
 62
253
  6
CONTINUOUS
 10
-22.5364267403
 20
183.5159657185
 11
37.5676496606
 21
148.8126252856
  0
LINE
  5
30B
100
AcDbEntity
  8
0
100
AcDbLine
 62
7
  6
CONTINUOUS
 10
-21.0363542599
 20
183.6645892515
 11
39.067722141
 21
148.9612488187
  0
LINE
  5
30C
100
AcDbEntity
  8
0
100
AcDbLine
 62
253
  6
CONTINUOUS
 10
39.0676496606
 20
148.9612906639
 11
39.067722141
 21
148.9612488187
  0
LINE
  5
30D
100
AcDbEntity
  8
RACCORDO
100
AcDbLine
 62
7
  6
CONTINUOUS
 10
-16.4694505577
 20
181.058539325
 11
40.2405132934
 21
148.3149169401
  0
LWPOLYLINE
  5
30E
100
AcDbEntity
  8
0
100
AcDbPolyline
 62
253
  6
CONTINUOUS
 90
55
 70
0
 10
37.5676496606
 20
148.8126252856
 10
37.8350076846
 20
148.6537658134
 10
38.1021394971
 20
148.4860601524
 10
38.3688190779
 20
148.3096501984
 10
38.6348207893
 20
148.1246852117
 10
38.8999195674
 20
147.9313216912
 10
39.1638911122
 20
147.7297232417
 10
39.4265120773
 20
147.5200604358
 10
39.6875602592
 20
147.302510669
 10
39.9468147852
 20
147.0772580101
 10
40.2040562999
 20
146.8444930454
 10
40.4590671514
 20
146.6044127173
 10
40.711631575
 20
146.3572201578
 10
40.961535876
 20
146.1031245163
 10
41.2085686105
 20
145.8423407833
 10
41.452520764
 20
145.5750896077
 10
41.6931859288
 20
145.3015971107
 10
41.930360478
 20
145.0220946943
 10
42.1638437383
 20
144.7368188455
 10
42.3934381595
 20
144.446010936
 10
42.6189494819
 20
144.1499170185
 10
42.8401869003
 20
143.8487876179
 10
43.0569632258
 20
143.5428775197
 10
43.2690950441
 20
143.2324455545
 10
43.4764028703
 20
142.9177543787
 10
43.6787113014
 20
142.5990702524
 10
43.8758491643
 20
142.2766628143
 10
44.0676496606
 20
141.9508048531
 10
44.2539505079
 20
141.6217720773
 10
44.4345940772
 20
141.2898428815
 10
44.609427526
 20
140.9552981108
 10
44.7783029277
 20
140.6184208236
 10
44.9410773968
 20
140.2794960517
 10
45.09761321
 20
139.9388105592
 10
45.2477779222
 20
139.5966526002
 10
45.3914444792
 20
139.2533116744
 10
45.5284913246
 20
138.9090782824
 10
45.6588025032
 20
138.5642436802
 10
45.7822677588
 20
138.2190996322
 10
45.8987826273
 20
137.8739381648
 10
46.0082485256
 20
137.5290513189
 10
46.1105728345
 20
137.1847309034
 10
46.2056689776
 20
136.8412682476
 10
46.293456494
 20
136.4989539553
 10
46.3738611066
 20
136.1580776585
 10
46.4468147852
 20
135.8189277726
 10
46.5122558036
 20
135.4817912522
 10
46.5701287922
 20
135.1469533486
 10
46.6203847847
 20
134.8146973679
 10
46.6629812595
 20
134.4853044321
 10
46.6978821758
 20
134.1590532402
 10
46.7250580038
 20
133.8362198335
 10
46.7444857501
 20
133.5170773612
 10
46.7561489769
 20
133.2018958497
 10
46.760037816
 20
132.8909419741
  0
LWPOLYLINE
  5
30F
100
AcDbEntity
  8
0
100
AcDbPolyline
 62
7
  6
CONTINUOUS
 90
52
 70
0
 10
39.067722141
 20
148.9612488187
 10
39.3511206212
 20
148.7926242038
 10
39.6322995664
 20
148.6153659779
 10
39.911139701
 20
148.4296495729
 10
40.1876477357
 20
148.2355565465
 10
40.4615876604
 20
148.0333304655
 10
40.7324738142
 20
147.8234264948
 10
41.0001528876
 20
147.606074883
 10
41.2645496858
 20
147.3814406298
 10
41.5252886136
 20
147.1499520589
 10
41.7822886968
 20
146.9117963357
 10
42.0354050865
 20
146.6672161532
 10
42.2841682301
 20
146.4167905891
 10
42.5282801515
 20
146.1609728372
 10
42.7678446598
 20
145.8998014001
 10
43.0029836888
 20
145.633257903
 10
43.2336381392
 20
145.3615001772
 10
43.4596433685
 20
145.0848075659
 10
43.6809380528
 20
144.8033351658
 10
43.897431104
 20
144.5172682377
 10
44.1089855511
 20
144.2268518548
 10
44.3154635492
 20
143.9323377908
 10
44.5167068712
 20
143.6340151133
 10
44.7126558899
 20
143.3320303688
 10
44.9033108882
 20
143.0264214775
 10
45.0885889897
 20
142.7173399355
 10
45.268337624
 20
142.4050524969
 10
45.4424431482
 20
142.0897654475
 10
45.6107623413
 20
141.7717430732
 10
45.7732112616
 20
141.4511414594
 10
45.9297577823
 20
141.1279986147
 10
46.0803095992
 20
140.8024541967
 10
46.2247127651
 20
140.4747792713
 10
46.3628378141
 20
140.1452000464
 10
46.4945589718
 20
139.8139386636
 10
46.6197640305
 20
139.4811846708
 10
46.7383473358
 20
139.1471049953
 10
46.8501663805
 20
138.8119705411
 10
46.9551245313
 20
138.4759183059
 10
47.053171635
 20
138.1388976861
 10
47.1442354498
 20
137.8008564649
 10
47.2280999138
 20
137.4622515125
 10
47.3045193398
 20
137.123774127
 10
47.3733539044
 20
136.7857830116
 10
47.4345316532
 20
136.4483137219
 10
47.4879434494
 20
136.1115443474
 10
47.5334741157
 20
135.7756721592
 10
47.5710073143
 20
135.4408849009
 10
47.6004274568
 20
135.1073175768
 10
47.6216086797
 20
134.7751340018
 10
47.6344172357
 20
134.4445489337
 10
47.6387174724
 20
134.115765754
  0
LWPOLYLINE
  5
310
100
AcDbEntity
  8
RACCORDO
100
AcDbPolyline
 62
7
  6
CONTINUOUS
 90
47
 70
0
 10
40.2405132934
 20
148.3149169401
 10
40.4586103859
 20
148.1850874864
 10
40.6760889948
 20
148.0479083358
 10
40.8929491201
 20
147.9033794881
 10
41.1093951641
 20
147.7513500014
 10
41.3252227245
 20
147.5919708176
 10
41.5398185943
 20
147.4256947633
 10
41.7531792709
 20
147.2525022246
 10
41.9653082569
 20
147.0724128153
 10
42.1756028538
 20
146.8859382034
 10
42.3840578449
 20
146.6930602304
 10
42.5906784469
 20
146.4937970548
 10
42.7948776115
 20
146.288714821
 10
42.9966484526
 20
146.0777969805
 10
43.1959978564
 20
145.8610600818
 10
43.3923594335
 20
145.6391199155
 10
43.5857246869
 20
145.4119616841
 10
43.7761021137
 20
145.1796001851
 10
43.9629508155
 20
144.9426956015
 10
44.1462607571
 20
144.7012350132
 10
44.3260419738
 20
144.4552313403
 10
44.5017836731
 20
144.2053835257
 10
44.6734743671
 20
143.9516806371
 10
44.8411255437
 20
143.6941336069
 10
45.0042608742
 20
143.4334741748
 10
45.1628675162
 20
143.1696934895
 10
45.316958312
 20
142.9028004024
 10
45.4660954607
 20
142.6335532072
 10
45.6102648746
 20
142.361945209
 10
45.7494806413
 20
142.0879831027
 10
45.8833472226
 20
141.8124452665
 10
46.0118494059
 20
141.5353272191
 10
46.1350024037
 20
141.2566334418
 10
46.252456315
 20
140.9771557562
 10
46.3641949323
 20
140.6968919331
 10
46.4702344632
 20
140.4158442018
 10
46.5702736293
 20
140.1348110719
 10
46.6642953662
 20
139.8537925852
 10
46.7523167383
 20
139.5727887
 10
46.8340876602
 20
139.2925978015
 10
46.9095903564
 20
139.0132222017
 10
46.9788426024
 20
138.7346595887
 10
47.0416476395
 20
138.4577014115
 10
47.0979871326
 20
138.1823522329
 10
47.1478794167
 20
137.9086074901
 10
47.1911827385
 20
137.6372449436
 10
47.1990614707
 20
137.5794949811
  0
LWPOLYLINE
  5
311
100
AcDbEntity
  8
RACCORDO
100
AcDbPolyline
 62
7
  6
CONTINUOUS
 90
4
 70
0
 10
-17.0769107157
 20
181.3784561726
 10
-16.9050262591
 20
181.2945226225
 10
-16.6875476502
 20
181.1805629269
 10
-16.4694505577
 20
181.058539325
  0
LWPOLYLINE
  5
312
100
AcDbEntity
  8
0
100
AcDbPolyline
 62
7
  6
CONTINUOUS
 90
19
 70
0
 10
46.760037816
 20
-180.6336443144
 10
46.850809207
 20
-180.5788656447
 10
46.9370557661
 20
-180.5220822709
 10
47.0187774933
 20
-180.463294193
 10
47.0961125486
 20
-180.4023820241
 10
47.168922772
 20
-180.3394651512
 10
47.2367936838
 20
-180.274901735
 10
47.299697113
 20
-180.2086823846
 10
47.3576612306
 20
-180.1408164909
 10
47.41035607
 20
-180.0716903875
 10
47.457751578
 20
-180.001296887
 10
47.4998778078
 20
-179.9296431768
 10
47.5364949513
 20
-179.857137153
 10
47.5675715879
 20
-179.7837739547
 10
47.5931391383
 20
-179.7095584428
 10
47.6130520565
 20
-179.6349130969
 10
47.6272780919
 20
-179.5598354655
 10
47.635849495
 20
-179.4843279999
 10
47.6387174724
 20
-179.4088205344
  0
LINE
  5
313
100
AcDbEntity
  8
0
100
AcDbLine
 62
7
  6
CONTINUOUS
 10
46.760037816
 20
-180.6336443144
 11
39.9718127166
 21
-184.5530804103
  0
ENDSEC
  0
SECTION
  2
OBJECTS
  0
DICTIONARY
  5
C
100
AcDbDictionary
280
0
281
1
  3
ACAD_GROUP
350
D
  3
ACAD_MLINESTYLE
350
17
  3
ACAD_LAYOUT
350
1A
  3
ACAD_PLOTSETTINGS
350
19
  3
ACAD_PLOTSTYLENAME
350
E
  0
DICTIONARY
  5
D
102
{ACAD_REACTORS
330
C
102
}
100
AcDbDictionary
280
0
281
1
  0
ACDBDICTIONARYWDFLT
  5
E
102
{ACAD_REACTORS
330
C
102
}
100
AcDbDictionary
281
1
  3
Normal
350
F
100
AcDbDictionaryWithDefault
340
F
  0
DICTIONARY
  5
17
102
{ACAD_REACTORS
330
C
102
}
100
AcDbDictionary
280
0
281
1
  3
Standard
350
18
  0
DICTIONARY
  5
19
102
{ACAD_REACTORS
330
C
102
}
100
AcDbDictionary
281
1
  0
DICTIONARY
  5
1A
102
{ACAD_REACTORS
330
C
102
}
100
AcDbDictionary
281
1
  3
Model
350
314
  3
Layout1
350
315
  0
ACDBPLACEHOLDER
  5
F
102
{ACAD_REACTORS
330
E
102
}
  0
MLINESTYLE
  5
18
102
{ACAD_REACTORS
330
17
102
}
100
AcDbMlineStyle
  2
STANDARD
 70
0
  3

 62
256
 51
90.0
 52
90.0
 71
2
 49
0.5
 62
256
  6
BYLAYER
 49
-0.5
 62
256
  6
BYLAYER
  0
LAYOUT
  5
314
102
{ACAD_REACTORS
330
1A
102
}
100
AcDbPlotSettings
  1

  2
none_device
  4
ISO_A4_(297.00_x_210.00_MM)
  6

 40
0.0
 41
0.0
 42
0.0
 43
0.0
 44
297.0
 45
210.0
 46
0.0
 47
0.0
 48
0.0
 49
0.0
140
0.0
141
0.0
142
1.0
143
1.0
 70
1024
 72
1
 73
0
 74
0
  7

 75
0
147
1.0
148
0.0
149
0.0
100
AcDbLayout
  1
Model
 70
0
 71
0
 10
0.0
 20
0.0
 11
297.0
 21
210.0
 12
0.0
 22
0.0
 32
0.0
 14
0.0
 24
0.0
 34
0.0
 15
0.0
 25
0.0
 35
0.0
146
0.0
 13
0.0
 23
0.0
 33
0.0
 16
1.0
 26
0.0
 36
0.0
 17
0.0
 27
1.0
 37
0.0
 76
0
330
20F
345
0
346
0
  0
LAYOUT
  5
315
102
{ACAD_REACTORS
330
1A
102
}
100
AcDbPlotSettings
  1

  2
none_device
  4
ISO_A4_(297.00_x_210.00_MM)
  6

 40
0.0
 41
0.0
 42
0.0
 43
0.0
 44
297.0
 45
210.0
 46
0.0
 47
0.0
 48
0.0
 49
0.0
140
0.0
141
0.0
142
1.0
143
1.0
 70
0
 72
1
 73
0
 74
0
  7

 75
0
147
1.0
148
0.0
149
0.0
100
AcDbLayout
  1
Layout1
 70
0
 71
1
 10
0.0
 20
0.0
 11
297.0
 21
210.0
 12
0.0
 22
0.0
 32
0.0
 14
0.0
 24
0.0
 34
0.0
 15
0.0
 25
0.0
 35
0.0
146
0.0
 13
0.0
 23
0.0
 33
0.0
 16
1.0
 26
0.0
 36
0.0
 17
0.0
 27
1.0
 37
0.0
 76
0
330
210
345
0
346
0
  0
ENDSEC
  0
EOF
