  0
SECTION
  2
HEADER
  9
$ACADVER
  1
AC1021
  9
$DWGCODEPAGE
  3
ANSI_1252
  9
$EXTMAX
 10
297.0
 20
210.0
 30
0.0
  9
$EXTMIN
 10
0.0
 20
0.0
 30
0.0
  9
$LIMMIN
 10
0.0
 20
0.0
  9
$LIMMAX
 10
297.0
 20
210.0
  9
$VIEWCTR
 10
148.5
 20
105.0
  9
$VIEWSIZE
 40
210.0
  9
$CLAYER
  8
0
  9
$LTSCALE
 40
16.335
  9
$CELTYPE
  6
BYLAYER
  9
$DIMSCALE
 40
1.0
  9
$DIMASZ
 40
3.0
  9
$DIMEXO
 40
0.5
  9
$DIMDLI
 40
11.286
  9
$DIMEXE
 40
1.5
  9
$DIMCEN
 40
2.673
  9
$DIMLFAC
 40
1.0
  9
$DIMBLK
  1
_FILLED
  9
$DIMALT
 70
0
  9
$DIMALTF
 40
0.0393700787
  9
$DIMTXT
 40
3.0
  9
$DIMTOL
 70
1
  9
$DIMLIM
 70
0
  9
$DIMTFAC
 40
1.0
  9
$DIMTP
 40
0.01
  9
$DIMTM
 40
0.01
  9
$DIMGAP
 40
0.625
  9
$DIMDSEP
 70
44
  9
$AUNITS
 70
0
  9
$PDMODE
 70
3
  9
$PDSIZE
 40
3.0
  9
$HANDSEED
  5
3A6
  9
$TILEMODE
 70
1
  9
$MEASUREMENT
 70
1
  9
$INSUNITS
 70
4
  0
ENDSEC
  0
SECTION
  2
CLASSES
  0
CLASS
  1
ACDBDICTIONARYWDFLT
  2
AcDbDictionaryWithDefault
  3
AutoCAD 2000
 90
0
 91
1
280
0
281
0
  0
CLASS
  1
ACDBPLACEHOLDER
  2
AcDbPlaceHolder
  3
AutoCAD 2000
 90
0
 91
1
280
0
281
0
  0
CLASS
  1
LAYOUT
  2
AcDbLayout
  3
AutoCAD 2000
 90
0
 91
0
280
0
281
0
  0
ENDSEC
  0
SECTION
  2
TABLES
  0
TABLE
  2
VPORT
  5
8
100
AcDbSymbolTable
 70
2
  0
VPORT
  5
1F4
100
AcDbSymbolTableRecord
100
AcDbViewportTableRecord
  2
*ACTIVE
 70
0
 10
0.0
 20
0.0
 11
1.0
 21
1.0
 12
148.5
 22
105.0
 13
0.0
 23
0.0
 14
1.0
 24
1.0
 15
0.0
 25
0.0
 16
0.0
 26
0.0
 36
1.0
 17
0.0
 27
0.0
 37
0.0
 40
210.0
 41
1.4142857143
 42
50.0
 43
0.0
 44
0.0
 50
0.0
 51
0.0
 71
0
 72
100
 73
1
 74
1
 75
0
 76
0
 77
0
 78
0
  0
ENDTAB
  0
TABLE
  2
LTYPE
  5
5
100
AcDbSymbolTable
 70
6
  0
LTYPE
  5
14
100
AcDbSymbolTableRecord
100
AcDbLinetypeTableRecord
  2
BYBLOCK
 70
0
  3

 72
65
 73
0
 40
0.0
  0
LTYPE
  5
15
100
AcDbSymbolTableRecord
100
AcDbLinetypeTableRecord
  2
BYLAYER
 70
0
  3

 72
65
 73
0
 40
0.0
  0
LTYPE
  5
16
100
AcDbSymbolTableRecord
100
AcDbLinetypeTableRecord
  2
CONTINUOUS
 70
64
  3
Solid line
 72
65
 73
0
 40
0.0
  0
LTYPE
  5
1F5
100
AcDbSymbolTableRecord
100
AcDbLinetypeTableRecord
  2
CENTER
 70
64
  3
____ _ ____ _ ____ _ ____ _ ____ _ ____ _ ____
 72
65
 73
4
 40
0.6
 49
0.375
 74
0
 49
-0.075
 74
0
 49
0.075
 74
0
 49
-0.075
 74
0
  0
LTYPE
  5
1F6
100
AcDbSymbolTableRecord
100
AcDbLinetypeTableRecord
  2
HIDDEN
 70
64
  3
- - - - - - - - - - - - - - - - - - - -
 72
65
 73
2
 40
0.2
 49
0.1
 74
0
 49
-0.1
 74
0
  0
LTYPE
  5
1F7
100
AcDbSymbolTableRecord
100
AcDbLinetypeTableRecord
  2
PHANTOM
 70
64
  3
_____ _ _ _____ _ _ _____ _ _ _____
 72
65
 73
6
 40
0.8
 49
0.45
 74
0
 49
-0.05
 74
0
 49
0.1
 74
0
 49
-0.05
 74
0
 49
0.1
 74
0
 49
-0.05
 74
0
  0
LTYPE
  5
1F8
100
AcDbSymbolTableRecord
100
AcDbLinetypeTableRecord
  2
DOT
 70
64
  3
. . . . . . . . . . . . . . . . . . . .
 72
65
 73
2
 40
0.2
 49
0.1
 74
0
 49
-0.1
 74
0
  0
LTYPE
  5
1F9
100
AcDbSymbolTableRecord
100
AcDbLinetypeTableRecord
  2
DASHED
 70
64
  3
- - - - - - - - - - - - - - - - - - - -
 72
65
 73
2
 40
0.2
 49
0.1
 74
0
 49
-0.1
 74
0
  0
ENDTAB
  0
TABLE
  2
LAYER
  5
2
100
AcDbSymbolTable
 70
36
  0
LAYER
  5
10
100
AcDbSymbolTableRecord
100
AcDbLayerTableRecord
  2
0
 70
0
 62
7
  6
CONTINUOUS
370
-3
390
F
  0
LAYER
  5
1FA
100
AcDbSymbolTableRecord
100
AcDbLayerTableRecord
  2
DEFAULT_1
 70
0
 62
7
  6
CENTER
370
-3
390
F
  0
LAYER
  5
1FB
100
AcDbSymbolTableRecord
100
AcDbLayerTableRecord
  2
DEFAULT_2
 70
0
 62
7
  6
HIDDEN
370
-3
390
F
  0
LAYER
  5
1FC
100
AcDbSymbolTableRecord
100
AcDbLayerTableRecord
  2
DEFAULT_3
 70
0
 62
7
  6
PHANTOM
370
-3
390
F
  0
LAYER
  5
1FD
100
AcDbSymbolTableRecord
100
AcDbLayerTableRecord
  2
ASSI
 70
0
 62
7
  6
CONTINUOUS
370
-3
390
F
  0
LAYER
  5
1FE
100
AcDbSymbolTableRecord
100
AcDbLayerTableRecord
  2
COORDINATE
 70
0
 62
7
  6
CONTINUOUS
370
-3
390
F
  0
LAYER
  5
1FF
100
AcDbSymbolTableRecord
100
AcDbLayerTableRecord
  2
COPY_PUBLISH
 70
0
 62
7
  6
CONTINUOUS
370
-3
390
F
  0
LAYER
  5
200
100
AcDbSymbolTableRecord
100
AcDbLayerTableRecord
  2
COSMETICI
 70
0
 62
7
  6
CONTINUOUS
370
-3
390
F
  0
LAYER
  5
201
100
AcDbSymbolTableRecord
100
AcDbLayerTableRecord
  2
CURVE
 70
0
 62
7
  6
CONTINUOUS
370
-3
390
F
  0
LAYER
  5
202
100
AcDbSymbolTableRecord
100
AcDbLayerTableRecord
  2
DRAFT
 70
0
 62
7
  6
CONTINUOUS
370
-3
390
F
  0
LAYER
  5
203
100
AcDbSymbolTableRecord
100
AcDbLayerTableRecord
  2
IMPORT_IGES
 70
0
 62
7
  6
CONTINUOUS
370
-3
390
F
  0
LAYER
  5
204
100
AcDbSymbolTableRecord
100
AcDbLayerTableRecord
  2
NOTE
 70
0
 62
7
  6
CONTINUOUS
370
-3
390
F
  0
LAYER
  5
205
100
AcDbSymbolTableRecord
100
AcDbLayerTableRecord
  2
PIANI
 70
0
 62
7
  6
CONTINUOUS
370
-3
390
F
  0
LAYER
  5
206
100
AcDbSymbolTableRecord
100
AcDbLayerTableRecord
  2
PUNTI
 70
0
 62
7
  6
CONTINUOUS
370
-3
390
F
  0
LAYER
  5
207
100
AcDbSymbolTableRecord
100
AcDbLayerTableRecord
  2
RACCORDO
 70
0
 62
7
  6
CONTINUOUS
370
-3
390
F
  0
LAYER
  5
208
100
AcDbSymbolTableRecord
100
AcDbLayerTableRecord
  2
SIMBOLI
 70
0
 62
7
  6
CONTINUOUS
370
-3
390
F
  0
LAYER
  5
209
100
AcDbSymbolTableRecord
100
AcDbLayerTableRecord
  2
SMUSSO
 70
0
 62
7
  6
CONTINUOUS
370
-3
390
F
  0
LAYER
  5
20A
100
AcDbSymbolTableRecord
100
AcDbLayerTableRecord
  2
SNAPLINE
 70
0
 62
7
  6
CONTINUOUS
370
-3
390
F
  0
LAYER
  5
20B
100
AcDbSymbolTableRecord
100
AcDbLayerTableRecord
  2
SUPERFICI
 70
0
 62
7
  6
CONTINUOUS
370
-3
390
F
  0
LAYER
  5
20C
100
AcDbSymbolTableRecord
100
AcDbLayerTableRecord
  2
TRASH
 70
0
 62
7
  6
CONTINUOUS
370
-3
390
F
  0
ENDTAB
  0
TABLE
  2
STYLE
  5
3
100
AcDbSymbolTable
 70
1
  0
STYLE
  5
11
100
AcDbSymbolTableRecord
100
AcDbTextStyleTableRecord
  2
STANDARD
 70
0
 40
0.0
 41
0.8
 50
0.0
 71
0
 42
0.2
  3
txt
  4

  0
STYLE
  5
20D
100
AcDbSymbolTableRecord
100
AcDbTextStyleTableRecord
  2
TEXTSTYLE_1
 70
0
 40
0.0
 41
0.8
 50
0.0
 71
0
 42
0.2
  3
gdt
  4

  0
ENDTAB
  0
TABLE
  2
VIEW
  5
6
100
AcDbSymbolTable
 70
0
  0
ENDTAB
  0
TABLE
  2
UCS
  5
7
100
AcDbSymbolTable
 70
0
  0
ENDTAB
  0
TABLE
  2
APPID
  5
9
100
AcDbSymbolTable
 70
1
  0
APPID
  5
20E
100
AcDbSymbolTableRecord
100
AcDbRegAppTableRecord
  2
ACAD
 70
0
  0
ENDTAB
  0
TABLE
  2
BLOCK_RECORD
  5
1
100
AcDbSymbolTable
 70
0
  0
BLOCK_RECORD
  5
20F
100
AcDbSymbolTableRecord
100
AcDbBlockTableRecord
  2
*Model_Space
  0
BLOCK_RECORD
  5
210
100
AcDbSymbolTableRecord
100
AcDbBlockTableRecord
  2
*Paper_Space
  0
ENDTAB
  0
TABLE
  2
DIMSTYLE
  5
A
100
AcDbSymbolTable
 70
1
100
AcDbDimStyleTable
 71
0
  0
DIMSTYLE
105
211
100
AcDbSymbolTableRecord
100
AcDbDimStyleTableRecord
  2
STANDARD
 70
0
  3

  4

 40
1.0
 41
3.0
 42
0.5
 43
0.38
 44
1.5
 45
0.0
 46
0.0
 47
0.01
 48
0.01
140
3.0
141
0.09
142
0.0
143
25.4
144
1.0
145
0.0
146
1.0
147
0.625
 71
1.0
 72
0.0
 73
0
 74
0
 75
0
 76
0
 77
1
 78
8
170
0
171
2
172
0
173
0
174
0
175
0
176
0
177
0
178
0
270
2
271
2
272
2
273
2
274
2
275
0
280
0
281
0
282
0
283
1
284
8
285
0
286
0
287
3
288
0
340
11
278
44
  0
ENDTAB
  0
ENDSEC
  0
SECTION
  2
BLOCKS
  0
BLOCK
  5
20
100
AcDbEntity
  8
0
100
AcDbBlockBegin
  2
*Model_Space
 70
0
 10
0.0
 20
0.0
 30
0.0
  3
*Model_Space
  1

  0
ENDBLK
  5
21
100
AcDbEntity
  8
0
100
AcDbBlockEnd
  0
BLOCK
  5
1C
100
AcDbEntity
  8
0
100
AcDbBlockBegin
  2
*Paper_Space
 70
0
 10
0.0
 20
0.0
 30
0.0
  3
*Paper_Space
  1

  0
ENDBLK
  5
1D
100
AcDbEntity
  8
0
100
AcDbBlockEnd
  0
ENDSEC
  0
SECTION
  2
ENTITIES
  0
LINE
  5
212
100
AcDbEntity
  8
0
100
AcDbLine
 62
7
  6
CONTINUOUS
 10
-81.0095318342
 20
147.6333707677
 11
-64.0517350026
 21
157.4245901272
  0
LWPOLYLINE
  5
213
100
AcDbEntity
  8
0
100
AcDbPolyline
 62
7
  6
CONTINUOUS
 90
31
 70
0
 10
-64.0517350026
 20
157.4245901272
 10
-63.8412425343
 20
157.5408549029
 10
-63.6257557827
 20
157.6494055729
 10
-63.4054723854
 20
157.7500561513
 10
-63.1807571813
 20
157.8425701129
 10
-62.9516704068
 20
157.9268584469
 10
-62.7179355674
 20
158.0029223733
 10
-62.4797357267
 20
158.0705753062
 10
-62.2372918353
 20
158.129632813
 10
-61.9903383059
 20
158.1800159907
 10
-61.7390290027
 20
158.2215246285
 10
-61.4835962041
 20
158.2539558747
 10
-61.2238476471
 20
158.2771539593
 10
-60.959891902
 20
158.2909065166
 10
-60.6919859816
 20
158.2950002396
 10
-60.4201193129
 20
158.289231211
 10
-60.1443931375
 20
158.2733845653
 10
-59.8650507992
 20
158.2472579552
 10
-59.5822575986
 20
158.2106542555
 10
-59.2959187162
 20
158.1633337608
 10
-59.0064511576
 20
158.1051361833
 10
-58.7147587437
 20
158.0360652993
 10
-58.4209162894
 20
157.9559932662
 10
-58.1251536764
 20
157.8648329327
 10
-57.82858509
 20
157.7628289256
 10
-57.5313226318
 20
157.649965363
 10
-57.2335362856
 20
157.5262457348
 10
-56.9364113044
 20
157.3921521179
 10
-56.6404272742
 20
157.2479578465
 10
-56.3453640704
 20
157.0936042059
 10
-56.0513484404
 20
156.9291783504
  0
LWPOLYLINE
  5
214
100
AcDbEntity
  8
0
100
AcDbPolyline
 62
253
  6
CONTINUOUS
 90
18
 70
0
 10
-57.5514209208
 20
156.7805548173
 10
-57.4504844348
 20
156.8360599277
 10
-57.3497766023
 20
156.8858905977
 10
-57.2495255592
 20
156.929933945
 10
-57.1499584061
 20
156.9680901972
 10
-57.0513006947
 20
157.0002729181
 10
-56.9537759165
 20
157.0264092034
 10
-56.8576049965
 20
157.0464398462
 10
-56.7630057926
 20
157.0603194705
 10
-56.6701926027
 20
157.0680166345
 10
-56.5793756783
 20
157.0695139018
 10
-56.490760749
 20
157.0648078804
 10
-56.4045485561
 20
157.053909231
 10
-56.3209343981
 20
157.0368426427
 10
-56.2401076877
 20
157.0136467766
 10
-56.1622515237
 20
156.984374179
 10
-56.0875422751
 20
156.9490911615
 10
-56.0513484404
 20
156.9291783504
  0
LWPOLYLINE
  5
215
100
AcDbEntity
  8
0
100
AcDbPolyline
 62
253
  6
CONTINUOUS
 90
28
 70
0
 10
-64.0517350026
 20
157.4245901272
 10
-63.8596204245
 20
157.5291430122
 10
-63.6624825616
 20
157.6239005878
 10
-63.4601741305
 20
157.7089640089
 10
-63.2528663043
 20
157.7842613033
 10
-63.0407344861
 20
157.8497287621
 10
-62.8239581605
 20
157.9053109932
 10
-62.6027207421
 20
157.9509609686
 10
-62.3772094197
 20
157.9866400637
 10
-62.1476149985
 20
158.0123180905
 10
-61.9141317382
 20
158.0279733228
 10
-61.676957189
 20
158.0335925148
 10
-61.4362920243
 20
158.029170912
 10
-61.1923398707
 20
158.0147122555
 10
-60.9453071362
 20
157.9902287789
 10
-60.6954028352
 20
157.9557411976
 10
-60.4428384116
 20
157.9112786915
 10
-60.1878275601
 20
157.8568788803
 10
-59.9305860454
 20
157.7925877918
 10
-59.6713315194
 20
157.7184598226
 10
-59.4102833375
 20
157.6345576923
 10
-59.1476623724
 20
157.5409523906
 10
-58.8836908276
 20
157.4377231168
 10
-58.6185920495
 20
157.3249572132
 10
-58.3525903381
 20
157.2027500912
 10
-58.0859107573
 20
157.07120515
 10
-57.8187789449
 20
156.9304336898
 10
-57.5514209208
 20
156.7805548173
  0
LWPOLYLINE
  5
216
100
AcDbEntity
  8
ASSI
100
AcDbPolyline
 62
7
  6
CONTINUOUS
 90
28
 70
0
 10
-81.0094715254
 20
147.6334055893
 10
-80.9118456324
 20
147.686107526
 10
-80.7747612954
 20
147.7485707935
 10
-80.6320686371
 20
147.8008212664
 10
-80.4840228339
 20
147.8427853361
 10
-80.3307686577
 20
147.8744308511
 10
-80.1721164797
 20
147.8960034974
 10
-80.0082753372
 20
147.9075057918
 10
-79.8394758445
 20
147.9089295161
 10
-79.6655850036
 20
147.9005637565
 10
-79.4868239482
 20
147.8824646159
 10
-79.303438221
 20
147.8546670852
 10
-79.1153458141
 20
147.8174751508
 10
-78.9227715956
 20
147.7709882521
 10
-78.7259684628
 20
147.7152776271
 10
-78.5249025596
 20
147.6506373039
 10
-78.3199389377
 20
147.5772459429
 10
-78.1111923246
 20
147.4951708885
 10
-77.8982400501
 20
147.4045004986
 10
-77.6810769467
 20
147.3052252335
 10
-77.4601518998
 20
147.1975010811
 10
-77.2357157051
 20
147.0816476509
 10
-77.0079331554
 20
146.9577993373
 10
-76.7770952455
 20
146.826086231
 10
-76.5436489993
 20
146.6868975274
 10
-76.3078949734
 20
146.5405061456
 10
-76.0699826772
 20
146.3870267147
 10
-75.8301312144
 20
146.2266565798
  0
LWPOLYLINE
  5
217
100
AcDbEntity
  8
ASSI
100
AcDbPolyline
 62
7
  6
CONTINUOUS
 90
28
 70
0
 10
-80.0094228941
 20
145.9013828599
 10
-79.9341396783
 20
145.9417484195
 10
-79.8281232497
 20
145.9888407754
 10
-79.7173304965
 20
146.027309332
 10
-79.6019711618
 20
146.0570953709
 10
-79.4821739204
 20
146.0781681212
 10
-79.3576898658
 20
146.0907865417
 10
-79.2286922978
 20
146.0949548279
 10
-79.0953799294
 20
146.0906639602
 10
-78.9575625067
 20
146.0782034229
 10
-78.8154226722
 20
146.0576232689
 10
-78.6691726633
 20
146.0289505247
 10
-78.5186787827
 20
145.9924795389
 10
-78.3641265703
 20
145.9482971856
 10
-78.2057347493
 20
145.8964610103
 10
-78.0434245664
 20
145.8372487361
 10
-77.8774966145
 20
145.7708163281
 10
-77.7080562677
 20
145.6972159793
 10
-77.534720668
 20
145.6165370124
 10
-77.3574886132
 20
145.5287695248
 10
-77.1767367591
 20
145.4340473367
 10
-76.9926425926
 20
145.3326609369
 10
-76.8053407689
 20
145.224726806
 10
-76.6150822992
 20
145.1103522583
 10
-76.4222250638
 20
144.9898783749
 10
-76.2270165894
 20
144.8635400077
 10
-76.0295901745
 20
144.73143023
 10
-75.8301312144
 20
144.5937160262
  0
LINE
  5
218
100
AcDbEntity
  8
ASSI
100
AcDbLine
 62
253
  6
CONTINUOUS
 10
-75.8301312144
 20
146.2266565798
 11
-57.5514209208
 21
156.7805548173
  0
LINE
  5
219
100
AcDbEntity
  8
ASSI
100
AcDbLine
 62
253
  6
CONTINUOUS
 10
-81.2394980905
 20
141.4712833958
 11
-75.8305070853
 21
144.5943670116
  0
LINE
  5
21A
100
AcDbEntity
  8
RACCORDO
100
AcDbLine
 62
253
  6
CONTINUOUS
 10
-51.8379981288
 20
154.5272657205
 11
-51.8646899398
 21
154.5118542033
  0
LWPOLYLINE
  5
21B
100
AcDbEntity
  8
0
100
AcDbPolyline
 62
7
  6
CONTINUOUS
 90
13
 70
0
 10
-61.7793939617
 20
134.9554795881
 10
-61.797046039
 20
134.9436003705
 10
-61.8639893829
 20
134.8758623907
 10
-61.9095267622
 20
134.7877339383
 10
-61.9309327267
 20
134.6766188574
 10
-61.9309327267
 20
134.545113304
 10
-61.9095267622
 20
134.4092791519
 10
-61.8639893829
 20
134.2685652752
 10
-61.797046039
 20
134.1235227999
 10
-61.7168730816
 20
133.9918669774
 10
-61.6261959608
 20
133.8795028915
 10
-61.5222892263
 20
133.7805254584
 10
-61.4051528782
 20
133.6949346781
  0
LWPOLYLINE
  5
21C
100
AcDbEntity
  8
0
100
AcDbPolyline
 62
7
  6
CONTINUOUS
 90
13
 70
0
 10
-61.0309117948
 20
133.6590951833
 10
-61.0132597174
 20
133.6709744009
 10
-60.9463163736
 20
133.7387123808
 10
-60.9007789943
 20
133.8268408332
 10
-60.8793730298
 20
133.9379559141
 10
-60.8793730298
 20
134.0694614675
 10
-60.9007789943
 20
134.2052956196
 10
-60.9463163736
 20
134.3460094963
 10
-61.0132597174
 20
134.4910519716
 10
-61.0934326749
 20
134.6227077941
 10
-61.1841097957
 20
134.73507188
 10
-61.2880165302
 20
134.8340493131
 10
-61.4051528782
 20
134.9196400933
  0
LWPOLYLINE
  5
21D
100
AcDbEntity
  8
ASSI
100
AcDbPolyline
 62
7
  6
CONTINUOUS
 90
16
 70
0
 10
-60.1997901762
 20
133.4443778672
 10
-60.1654596926
 20
133.4663459005
 10
-60.1329433418
 20
133.4915314271
 10
-60.1025398985
 20
133.5197094635
 10
-60.0742667051
 20
133.5509045717
 10
-60.0481064192
 20
133.5850921897
 10
-60.0242731726
 20
133.6219924791
 10
-60.0027860653
 20
133.6616277047
 10
-59.9836259974
 20
133.7039756016
 10
-59.9669498012
 20
133.7486895362
 10
-59.9527778639
 20
133.7957889285
 10
-59.9410897984
 20
133.8452543584
 10
-59.9319812758
 20
133.8966809329
 10
-59.9254841868
 20
133.9499336874
 10
-59.9215666408
 20
134.0051475863
 10
-59.9214144503
 20
134.0116509327
  0
LINE
  5
21E
100
AcDbEntity
  8
0
100
AcDbLine
 62
7
  6
CONTINUOUS
 10
-60.8051238861
 20
133.2680736404
 11
-59.9657352096
 21
133.7527261422
  0
LINE
  5
21F
100
AcDbEntity
  8
0
100
AcDbLine
 62
253
  6
CONTINUOUS
 10
-56.7322827635
 20
131.9427785229
 11
-56.8443141396
 21
131.8780930104
  0
LINE
  5
220
100
AcDbEntity
  8
0
100
AcDbLine
 62
7
  6
CONTINUOUS
 10
-62.0041487496
 20
135.3447118174
 11
-61.9829397796
 21
135.3550515392
  0
LWPOLYLINE
  5
221
100
AcDbEntity
  8
0
100
AcDbPolyline
 62
7
  6
CONTINUOUS
 90
6
 70
0
 10
-60.8061570069
 20
133.2698629541
 10
-60.8616477075
 20
133.2428103245
 10
-60.9808888095
 20
133.2138218284
 10
-61.1096789197
 20
133.2191674353
 10
-61.2511002759
 20
133.2570678437
 10
-61.4051528782
 20
133.3275230536
  0
LINE
  5
222
100
AcDbEntity
  8
0
100
AcDbLine
 62
253
  6
CONTINUOUS
 10
-56.8443141396
 20
121.0045924429
 11
-55.4301005772
 21
121.8211416296
  0
LINE
  5
223
100
AcDbEntity
  8
0
100
AcDbLine
 62
253
  6
CONTINUOUS
 10
-56.3190348164
 20
119.9122875864
 11
-54.904821254
 21
120.7288367731
  0
LWPOLYLINE
  5
224
100
AcDbEntity
  8
0
100
AcDbPolyline
 62
7
  6
CONTINUOUS
 90
46
 70
0
 10
-55.5235471651
 20
116.0371904021
 10
-55.4908411924
 20
116.0570798458
 10
-55.4363229289
 20
116.0951407926
 10
-55.384513747
 20
116.1377316867
 10
-55.3357410836
 20
116.1845831866
 10
-55.2900241732
 20
116.2357222713
 10
-55.2473437814
 20
116.2911219617
 10
-55.2079696428
 20
116.350431979
 10
-55.1719226983
 20
116.4136770837
 10
-55.1391820069
 20
116.4808325154
 10
-55.1099544808
 20
116.5514737139
 10
-55.08426237
 20
116.6256227512
 10
-55.0620834244
 20
116.7032575553
 10
-55.0435578067
 20
116.78388735
 10
-55.0287086533
 20
116.8675310999
 10
-55.0175128278
 20
116.9541698404
 10
-55.0100410826
 20
117.0432559004
 10
-55.0063170022
 20
117.1348047778
 10
-55.0063170022
 20
117.2288009748
 10
-55.0100410826
 20
117.324650327
 10
-55.0175128278
 20
117.4223645709
 10
-55.0287086533
 20
117.5219319701
 10
-55.0435578067
 20
117.6227231502
 10
-55.0620834244
 20
117.7247458639
 10
-55.08426237
 20
117.8279923584
 10
-55.1099544808
 20
117.9318100014
 10
-55.1391820069
 20
118.0362024143
 10
-55.1719226983
 20
118.1411659757
 10
-55.2079696428
 20
118.2460371884
 10
-55.2473437814
 20
118.350815474
 10
-55.2900241732
 20
118.455501411
 10
-55.3357410836
 20
118.5594332379
 10
-55.384513747
 20
118.6626061869
 10
-55.4363229289
 20
118.7650250258
 10
-55.4908411924
 20
118.8660422966
 10
-55.5480856997
 20
118.9656491325
 10
-55.6080392884
 20
119.0638544003
 10
-55.670323034
 20
119.1600372428
 10
-55.7349517012
 20
119.2541848619
 10
-55.8019105253
 20
119.3463100558
 10
-55.8707762874
 20
119.4358303614
 10
-55.9415610741
 20
119.522729292
 10
-56.0142527988
 20
119.6070233342
 10
-56.0883919832
 20
119.6881794851
 10
-56.1638254679
 20
119.7660200769
 10
-56.2407064123
 20
119.8407227774
  0
LWPOLYLINE
  5
225
100
AcDbEntity
  8
0
100
AcDbPolyline
 62
7
  6
CONTINUOUS
 90
46
 70
0
 10
-54.1093336028
 20
116.8537395888
 10
-54.07662763
 20
116.8736290324
 10
-54.0221093666
 20
116.9116899792
 10
-53.9703001846
 20
116.9542808734
 10
-53.9215275213
 20
117.0011323733
 10
-53.8758106108
 20
117.052271458
 10
-53.833130219
 20
117.1076711483
 10
-53.7937560804
 20
117.1669811657
 10
-53.7577091359
 20
117.2302262704
 10
-53.7249684445
 20
117.297381702
 10
-53.6957409185
 20
117.3680229005
 10
-53.6700488076
 20
117.4421719378
 10
-53.6478698621
 20
117.519806742
 10
-53.6293442443
 20
117.6004365366
 10
-53.6144950909
 20
117.6840802866
 10
-53.6032992654
 20
117.7707190271
 10
-53.5958275203
 20
117.8598050871
 10
-53.5921034398
 20
117.9513539645
 10
-53.5921034398
 20
118.0453501615
 10
-53.5958275203
 20
118.1411995136
 10
-53.6032992654
 20
118.2389137576
 10
-53.6144950909
 20
118.3384811568
 10
-53.6293442443
 20
118.4392723369
 10
-53.6478698621
 20
118.5412950505
 10
-53.6700488076
 20
118.6445415451
 10
-53.6957409185
 20
118.748359188
 10
-53.7249684445
 20
118.852751601
 10
-53.7577091359
 20
118.9577151623
 10
-53.7937560804
 20
119.0625863751
 10
-53.833130219
 20
119.1673646607
 10
-53.8758106108
 20
119.2720505977
 10
-53.9215275213
 20
119.3759824246
 10
-53.9703001846
 20
119.4791553736
 10
-54.0221093666
 20
119.5815742125
 10
-54.07662763
 20
119.6825914833
 10
-54.1338721373
 20
119.7821983191
 10
-54.193825726
 20
119.8804035869
 10
-54.2561094716
 20
119.9765864294
 10
-54.3207381388
 20
120.0707340486
 10
-54.3876969629
 20
120.1628592425
 10
-54.456562725
 20
120.2523795481
 10
-54.5273475117
 20
120.3392784786
 10
-54.6000392364
 20
120.4235725209
 10
-54.6741784208
 20
120.5047286717
 10
-54.7496119055
 20
120.5825692636
 10
-54.8264928499
 20
120.657271964
  0
LINE
  5
226
100
AcDbEntity
  8
0
100
AcDbLine
 62
253
  6
CONTINUOUS
 10
-56.8443141396
 20
115.481486333
 11
-56.0773600808
 21
115.9243159943
  0
LINE
  5
227
100
AcDbEntity
  8
ASSI
100
AcDbLine
 62
7
  6
CONTINUOUS
 10
-54.1093294987
 20
116.8537324791
 11
-55.5235430611
 21
116.0371832924
  0
LWPOLYLINE
  5
228
100
AcDbEntity
  8
0
100
AcDbPolyline
 62
7
  6
CONTINUOUS
 90
11
 70
0
 10
-56.6372278854
 20
115.9392169044
 10
-56.620020217
 20
115.9484989998
 10
-56.5911234888
 20
115.9613194776
 10
-56.5607899077
 20
115.9715350972
 10
-56.5292894886
 20
115.979054924
 10
-56.4966118141
 20
115.9838548899
 10
-56.4627673017
 20
115.985959063
 10
-56.4280572189
 20
115.985348713
 10
-56.3925819884
 20
115.9820175963
 10
-56.3562411876
 20
115.9759719566
 10
-56.3190348164
 20
115.9672117936
  0
LWPOLYLINE
  5
229
100
AcDbEntity
  8
0
100
AcDbPolyline
 62
7
  6
CONTINUOUS
 90
9
 70
0
 10
70.0106424053
 20
-128.2697420925
 10
69.9811695975
 20
-128.266821035
 10
69.946307705
 20
-128.2609554689
 10
69.9108430844
 20
-128.2525999869
 10
69.8747806425
 20
-128.2417748596
 10
69.8384155638
 20
-128.2285686945
 10
69.8018462435
 20
-128.2130110276
 10
69.7649742865
 20
-128.1950723231
 10
69.7277996928
 20
-128.1747525808
  0
LWPOLYLINE
  5
22A
100
AcDbEntity
  8
ASSI
100
AcDbPolyline
 62
7
  6
CONTINUOUS
 90
11
 70
0
 10
61.8870391136
 20
-139.8019569109
 10
61.8910575257
 20
-139.8029036507
 10
61.9381210804
 20
-139.8108221651
 10
61.9843775763
 20
-139.8154066581
 10
62.0294483865
 20
-139.8166196039
 10
62.0733237789
 20
-139.8144333296
 10
62.1160134856
 20
-139.8088755081
 10
62.1571680752
 20
-139.7999916324
 10
62.1967749476
 20
-139.7877544028
 10
62.2348467028
 20
-139.7721911189
 10
62.2711043253
 20
-139.7534103418
  0
LWPOLYLINE
  5
22B
100
AcDbEntity
  8
ASSI
100
AcDbPolyline
 62
7
  6
CONTINUOUS
 90
11
 70
0
 10
22.9961661484
 20
-117.3468542779
 10
23.0001845604
 20
-117.3478010177
 10
23.0472481152
 20
-117.3557195321
 10
23.0935046111
 20
-117.360304025
 10
23.1385754212
 20
-117.3615169708
 10
23.1824508137
 20
-117.3593306966
 10
23.2251405204
 20
-117.3537728751
 10
23.2662951099
 20
-117.3448889994
 10
23.3059019823
 20
-117.3326517698
 10
23.3439737376
 20
-117.3170884859
 10
23.3802313601
 20
-117.2983077087
  0
LWPOLYLINE
  5
22C
100
AcDbEntity
  8
0
100
AcDbPolyline
 62
7
  6
CONTINUOUS
 90
4
 70
0
 10
70.0106424053
 20
-108.1172974572
 10
69.9831743228
 20
-108.1147182101
 10
69.946833522
 20
-108.1086725703
 10
69.9096271508
 20
-108.0999124074
  0
LWPOLYLINE
  5
22D
100
AcDbEntity
  8
ASSI
100
AcDbPolyline
 62
7
  6
CONTINUOUS
 90
11
 70
0
 10
-8.823639005
 20
-98.9744975781
 10
-8.819620593
 20
-98.975444318
 10
-8.7725570382
 20
-98.9833628323
 10
-8.7263005423
 20
-98.9879473253
 10
-8.6812297322
 20
-98.9891602711
 10
-8.6373543397
 20
-98.9869739968
 10
-8.594664633
 20
-98.9814161754
 10
-8.5535100435
 20
-98.9725322996
 10
-8.5139031711
 20
-98.96029507
 10
-8.4758314158
 20
-98.9447317862
 10
-8.4395737933
 20
-98.925951009
  0
LWPOLYLINE
  5
22E
100
AcDbEntity
  8
0
100
AcDbPolyline
 62
7
  6
CONTINUOUS
 90
5
 70
0
 10
61.0657416233
 20
-139.5028535308
 10
61.1828779713
 20
-139.5525288692
 10
61.2867847058
 20
-139.5735403285
 10
61.3774618266
 20
-139.5658879089
 10
61.4399827067
 20
-139.5386930256
  0
LWPOLYLINE
  5
22F
100
AcDbEntity
  8
0
100
AcDbPolyline
 62
7
  6
CONTINUOUS
 90
5
 70
0
 10
61.0657416233
 20
-138.2781481156
 10
60.9486052752
 20
-138.2284727773
 10
60.8446985407
 20
-138.2074613179
 10
60.7540214199
 20
-138.2151137376
 10
60.6915005398
 20
-138.2423086209
  0
LWPOLYLINE
  5
230
100
AcDbEntity
  8
0
100
AcDbPolyline
 62
7
  6
CONTINUOUS
 90
5
 70
0
 10
22.174868658
 20
-117.0477508978
 10
22.2920050061
 20
-117.0974262362
 10
22.3959117405
 20
-117.1184376955
 10
22.4865888613
 20
-117.1107852758
 10
22.5491097415
 20
-117.0835903926
  0
LWPOLYLINE
  5
231
100
AcDbEntity
  8
0
100
AcDbPolyline
 62
7
  6
CONTINUOUS
 90
5
 70
0
 10
22.174868658
 20
-115.8230454826
 10
22.0577323099
 20
-115.7733701443
 10
21.9538255755
 20
-115.7523586849
 10
21.8631484547
 20
-115.7600111046
 10
21.8006275745
 20
-115.7872059878
  0
LWPOLYLINE
  5
232
100
AcDbEntity
  8
0
100
AcDbPolyline
 62
7
  6
CONTINUOUS
 90
5
 70
0
 10
-9.6449364954
 20
-98.6753941981
 10
-9.5278001473
 20
-98.7250695364
 10
-9.4238934129
 20
-98.7460809958
 10
-9.3332162921
 20
-98.7384285761
 10
-9.2706954119
 20
-98.7112336929
  0
LWPOLYLINE
  5
233
100
AcDbEntity
  8
0
100
AcDbPolyline
 62
7
  6
CONTINUOUS
 90
22
 70
0
 10
72.4602690729
 20
-158.0613001081
 10
72.5555779056
 20
-158.1122692073
 10
72.6542591544
 20
-158.1571181355
 10
72.7560205391
 20
-158.1957288967
 10
72.8608749712
 20
-158.2280753415
 10
72.9688095393
 20
-158.2541836194
 10
73.079372428
 20
-158.2739444407
 10
73.1925746549
 20
-158.2873311979
 10
73.3084052025
 20
-158.2943704986
 10
73.4263792027
 20
-158.2950328763
 10
73.5465056407
 20
-158.2892915996
 10
73.6687755314
 20
-158.2771733999
 10
73.7926770516
 20
-158.2587290041
 10
73.918217041
 20
-158.2339318935
 10
74.04538866
 20
-158.2028085868
 10
74.1736595668
 20
-158.1654893664
 10
74.3030343694
 20
-158.12194826
 10
74.4335084598
 20
-158.0722112399
 10
74.5645356721
 20
-158.0164865058
 10
74.6959339508
 20
-157.9548434577
 10
74.8278853513
 20
-157.8872126957
 10
74.9603898736
 20
-157.8135942197
  0
LWPOLYLINE
  5
234
100
AcDbEntity
  8
0
100
AcDbPolyline
 62
7
  6
CONTINUOUS
 90
22
 70
0
 10
-74.6179414139
 20
-73.1401846959
 10
-74.5226325812
 20
-73.1911537951
 10
-74.4239513324
 20
-73.2360027233
 10
-74.3221899477
 20
-73.2746134846
 10
-74.2173355156
 20
-73.3069599294
 10
-74.1094009475
 20
-73.3330682072
 10
-73.9988380588
 20
-73.3528290285
 10
-73.8856358319
 20
-73.3662157857
 10
-73.7698052843
 20
-73.3732550865
 10
-73.6518312841
 20
-73.3739174641
 10
-73.5317048461
 20
-73.3681761875
 10
-73.4094349554
 20
-73.3560579878
 10
-73.2855334352
 20
-73.3376135919
 10
-73.1599934458
 20
-73.3128164814
 10
-73.0328218268
 20
-73.2816931746
 10
-72.90455092
 20
-73.2443739543
 10
-72.7751761174
 20
-73.2008328478
 10
-72.644702027
 20
-73.1510958277
 10
-72.5136748147
 20
-73.0953710937
 10
-72.382276536
 20
-73.0337280456
 10
-72.2503251355
 20
-72.9660972835
 10
-72.1178206132
 20
-72.8924788076
  0
LINE
  5
235
100
AcDbEntity
  8
0
100
AcDbLine
 62
7
  6
CONTINUOUS
 10
-74.6179414139
 20
-73.140184696
 11
-76.0321549763
 21
-72.3236355093
  0
LINE
  5
236
100
AcDbEntity
  8
0
100
AcDbLine
 62
7
  6
CONTINUOUS
 10
71.0460555105
 20
-157.2447509215
 11
72.4602690729
 21
-158.0613001081
  0
LINE
  5
237
100
AcDbEntity
  8
0
100
AcDbLine
 62
253
  6
CONTINUOUS
 10
-75.6533545191
 20
-70.8515003902
 11
-77.0675680815
 21
-70.0349512036
  0
LINE
  5
238
100
AcDbEntity
  8
0
100
AcDbLine
 62
253
  6
CONTINUOUS
 10
70.0106424053
 20
-154.9560666158
 11
71.4248559677
 21
-155.7726158024
  0
LWPOLYLINE
  5
239
100
AcDbEntity
  8
0
100
AcDbPolyline
 62
7
  6
CONTINUOUS
 90
22
 70
0
 10
-76.0321549763
 20
-72.3236355093
 10
-76.1237143478
 20
-72.2667301029
 10
-76.2119013034
 20
-72.2037045256
 10
-76.2962258906
 20
-72.1348923452
 10
-76.376671919
 20
-72.0602693051
 10
-76.4532555791
 20
-71.9798596619
 10
-76.5256562909
 20
-71.8940000113
 10
-76.5938565201
 20
-71.8026675076
 10
-76.6578738008
 20
-71.7058849965
 10
-76.7174401562
 20
-71.6040576105
 10
-76.7725369286
 20
-71.4971642024
 10
-76.8231827756
 20
-71.3852259195
 10
-76.8691656931
 20
-71.2687113368
 10
-76.9104661349
 20
-71.1476012709
 10
-76.9471036472
 20
-71.0219149051
 10
-76.9789248649
 20
-70.892178364
 10
-77.005909599
 20
-70.7583746697
 10
-77.0280780386
 20
-70.6205208
 10
-77.0453373864
 20
-70.4791938128
 10
-77.0576567099
 20
-70.3345860606
 10
-77.0650669416
 20
-70.1865051909
 10
-77.0675680815
 20
-70.0349512036
  0
LWPOLYLINE
  5
23A
100
AcDbEntity
  8
0
100
AcDbPolyline
 62
7
  6
CONTINUOUS
 90
22
 70
0
 10
71.0460555105
 20
-157.2447509214
 10
70.954496139
 20
-157.1878455151
 10
70.8663091834
 20
-157.1248199378
 10
70.7819845962
 20
-157.0560077574
 10
70.7015385678
 20
-156.9813847173
 10
70.6249549077
 20
-156.9009750741
 10
70.5525541959
 20
-156.8151154235
 10
70.4843539667
 20
-156.7237829198
 10
70.420336686
 20
-156.6270004086
 10
70.3607703306
 20
-156.5251730227
 10
70.3056735582
 20
-156.4182796146
 10
70.2550277112
 20
-156.3063413317
 10
70.2090447937
 20
-156.1898267489
 10
70.1677443519
 20
-156.0687166831
 10
70.1311068397
 20
-155.9430303173
 10
70.0992856219
 20
-155.8132937762
 10
70.0723008878
 20
-155.6794900819
 10
70.0501324482
 20
-155.5416362122
 10
70.0328731004
 20
-155.400309225
 10
70.0205537769
 20
-155.2557014728
 10
70.0131435452
 20
-155.1076206031
 10
70.0106424053
 20
-154.9560666158
  0
LINE
  5
23B
100
AcDbEntity
  8
ASSI
100
AcDbLine
 62
7
  6
CONTINUOUS
 10
-82.6537116529
 20
93.2765137672
 11
-82.6537116529
 21
142.2878325824
  0
LWPOLYLINE
  5
23C
100
AcDbEntity
  8
ASSI
100
AcDbPolyline
 62
7
  6
CONTINUOUS
 90
29
 70
0
 10
-81.2394980905
 20
141.4712833958
 10
-81.2380778603
 20
141.7159636216
 10
-81.2339175337
 20
141.9564196514
 10
-81.226933474
 20
142.192408672
 10
-81.2170457355
 20
142.4238189408
 10
-81.2041731784
 20
142.650262554
 10
-81.1882702444
 20
142.8711020908
 10
-81.169358789
 20
143.0860620048
 10
-81.1473598724
 20
143.294963288
 10
-81.1221455881
 20
143.4973604425
 10
-81.0937937464
 20
143.692813407
 10
-81.0622703563
 20
143.8813743023
 10
-81.0272811273
 20
144.0633306316
 10
-80.9888116444
 20
144.2385522888
 10
-80.9468628673
 20
144.4067086797
 10
-80.901137144
 20
144.5677553749
 10
-80.8516552781
 20
144.7215143177
 10
-80.7984214729
 20
144.8677121308
 10
-80.7411438265
 20
145.0061889002
 10
-80.6799235996
 20
145.136695212
 10
-80.6147748294
 20
145.2591080276
 10
-80.5453091795
 20
145.3734927668
 10
-80.471659274
 20
145.4796081081
 10
-80.3938538931
 20
145.5773634677
 10
-80.3113358946
 20
145.6670252331
 10
-80.2240779651
 20
145.7484827927
 10
-80.1322384355
 20
145.821440522
 10
-80.0355539773
 20
145.8859057416
 10
-80.0094228941
 20
145.9013828599
  0
LWPOLYLINE
  5
23D
100
AcDbEntity
  8
ASSI
100
AcDbPolyline
 62
7
  6
CONTINUOUS
 90
29
 70
0
 10
-82.6537116529
 20
142.2878325824
 10
-82.6517553467
 20
142.5771605504
 10
-82.6459762689
 20
142.8618337559
 10
-82.6362755763
 20
143.1415652376
 10
-82.6225562811
 20
143.4162243832
 10
-82.6047249972
 20
143.6853513141
 10
-82.5827354021
 20
143.9481883731
 10
-82.5566042464
 20
144.2044151564
 10
-82.5262473162
 20
144.4538148673
 10
-82.4915482042
 20
144.6958409412
 10
-82.452599766
 20
144.929972787
 10
-82.4093609324
 20
145.1562725208
 10
-82.3615159659
 20
145.3750614075
 10
-82.3090403162
 20
145.5861900245
 10
-82.2519426319
 20
145.7892633304
 10
-82.189925747
 20
145.98419729
 10
-82.1230049828
 20
146.1707868222
 10
-82.0511945716
 20
146.348703495
 10
-81.9742319374
 20
146.517710743
 10
-81.8922351627
 20
146.6775147224
 10
-81.8052224262
 20
146.8279691057
 10
-81.7128219526
 20
146.969100878
 10
-81.6151944846
 20
147.1006225286
 10
-81.5123700301
 20
147.2224293165
 10
-81.4037653005
 20
147.3347926712
 10
-81.2893327956
 20
147.4375906582
 10
-81.1692748547
 20
147.5304651147
 10
-81.0434010863
 20
147.6133549352
 10
-81.0094715254
 20
147.6334055893
  0
LWPOLYLINE
  5
23E
100
AcDbEntity
  8
ASSI
100
AcDbPolyline
 62
7
  6
CONTINUOUS
 90
11
 70
0
 10
-47.7145119703
 20
-76.5193949451
 10
-47.7104935583
 20
-76.5203416849
 10
-47.6634300035
 20
-76.5282601993
 10
-47.6171735076
 20
-76.5328446923
 10
-47.5721026975
 20
-76.5340576381
 10
-47.528227305
 20
-76.5318713638
 10
-47.4855375983
 20
-76.5263135423
 10
-47.4443830088
 20
-76.5174296666
 10
-47.4047761363
 20
-76.505192437
 10
-47.3667043811
 20
-76.4896291532
 10
-47.3304467586
 20
-76.470848376
  0
LWPOLYLINE
  5
23F
100
AcDbEntity
  8
0
100
AcDbPolyline
 62
7
  6
CONTINUOUS
 90
13
 70
0
 10
69.9096271508
 20
-108.0999124074
 10
69.8312987467
 20
-108.0810255388
 10
69.7544178023
 20
-108.0669480517
 10
69.6789843176
 20
-108.0576799462
 10
69.6048451332
 20
-108.0532220253
 10
69.5321534085
 20
-108.0535734859
 10
69.4613686218
 20
-108.0587319191
 10
69.3925028597
 20
-108.0687277688
 10
69.3255440356
 20
-108.083530591
 10
69.2609153684
 20
-108.1030466453
 10
69.1986316228
 20
-108.1273057796
 10
69.1386780341
 20
-108.1562781458
 10
69.1141394996
 20
-108.1698910159
  0
LWPOLYLINE
  5
240
100
AcDbEntity
  8
0
100
AcDbPolyline
 62
7
  6
CONTINUOUS
 90
5
 70
0
 10
-9.6449364954
 20
-97.4506887829
 10
-9.7620728435
 20
-97.4010134445
 10
-9.8659795779
 20
-97.3800019852
 10
-9.9566566987
 20
-97.3876544048
 10
-10.0191775789
 20
-97.4148492881
  0
LWPOLYLINE
  5
241
100
AcDbEntity
  8
0
100
AcDbPolyline
 62
7
  6
CONTINUOUS
 90
5
 70
0
 10
-48.5358094606
 20
-76.220291565
 10
-48.4186731126
 20
-76.2699669034
 10
-48.3147663781
 20
-76.2909783627
 10
-48.2240892573
 20
-76.2833259431
 10
-48.1615683772
 20
-76.2561310598
  0
LWPOLYLINE
  5
242
100
AcDbEntity
  8
0
100
AcDbPolyline
 62
7
  6
CONTINUOUS
 90
5
 70
0
 10
-48.5358094606
 20
-74.9955861498
 10
-48.6529458087
 20
-74.9459108115
 10
-48.7568525432
 20
-74.9248993521
 10
-48.847529664
 20
-74.9325517718
 10
-48.9100505441
 20
-74.9597466551
  0
LINE
  5
243
100
AcDbEntity
  8
0
100
AcDbLine
 62
7
  6
CONTINUOUS
 10
-65.3295955138
 20
-69.7895918983
 11
70.0106424053
 21
-147.9333490612
  0
LINE
  5
244
100
AcDbEntity
  8
RACCORDO
100
AcDbLine
 62
7
  6
CONTINUOUS
 10
-28.4800000467
 20
-78.8187166957
 11
-26.6153625636
 21
-79.8953350091
  0
LINE
  5
245
100
AcDbEntity
  8
RACCORDO
100
AcDbLine
 62
7
  6
CONTINUOUS
 10
42.2306780719
 20
-119.6461760285
 11
44.0953155551
 21
-120.7227943419
  0
LWPOLYLINE
  5
246
100
AcDbEntity
  8
0
100
AcDbPolyline
 62
7
  6
CONTINUOUS
 90
15
 70
0
 10
-48.5358094606
 20
-76.5877031896
 10
-48.6898620629
 20
-76.4802623158
 10
-48.8312834192
 20
-76.3548528868
 10
-48.9600735294
 20
-76.2114749028
 10
-49.0793146314
 20
-76.0447897709
 10
-49.1859244874
 20
-75.8601360839
 10
-49.2706563835
 20
-75.6735296201
 10
-49.331556259
 20
-75.4847959643
 10
-49.3705781746
 20
-75.2941095317
 10
-49.3843375981
 20
-75.1180093455
 10
-49.3705781746
 20
-74.9577981965
 10
-49.331556259
 20
-74.8121732939
 10
-49.2706563835
 20
-74.6937652879
 10
-49.1859244874
 20
-74.6050050937
 10
-49.134805332
 20
-74.5705144258
  0
LWPOLYLINE
  5
247
100
AcDbEntity
  8
0
100
AcDbPolyline
 62
7
  6
CONTINUOUS
 90
15
 70
0
 10
-48.5358094606
 20
-74.6281745253
 10
-48.3817568583
 20
-74.7356153991
 10
-48.2403355021
 20
-74.861024828
 10
-48.1115453919
 20
-75.0044028121
 10
-47.9923042899
 20
-75.171087944
 10
-47.8856944339
 20
-75.355741631
 10
-47.8009625378
 20
-75.5423480948
 10
-47.7400626623
 20
-75.7310817506
 10
-47.7010407467
 20
-75.9217681832
 10
-47.6872813232
 20
-76.0978683694
 10
-47.7010407467
 20
-76.2580795184
 10
-47.7400626623
 20
-76.403704421
 10
-47.8009625378
 20
-76.522112427
 10
-47.8856944339
 20
-76.6108726212
 10
-47.9368135893
 20
-76.6453632891
  0
LWPOLYLINE
  5
248
100
AcDbEntity
  8
0
100
AcDbPolyline
 62
7
  6
CONTINUOUS
 90
15
 70
0
 10
-9.6449364954
 20
-99.0428058226
 10
-9.7989890977
 20
-98.9353649488
 10
-9.9404104539
 20
-98.8099555199
 10
-10.0692005641
 20
-98.6665775358
 10
-10.1884416662
 20
-98.499892404
 10
-10.2950515222
 20
-98.315238717
 10
-10.3797834182
 20
-98.1286322531
 10
-10.4406832938
 20
-97.9398985974
 10
-10.4797052093
 20
-97.7492121647
 10
-10.4934646328
 20
-97.5731119785
 10
-10.4797052093
 20
-97.4129008295
 10
-10.4406832938
 20
-97.2672759269
 10
-10.3797834182
 20
-97.1488679209
 10
-10.2950515222
 20
-97.0601077268
 10
-10.2439323667
 20
-97.0256170588
  0
LWPOLYLINE
  5
249
100
AcDbEntity
  8
0
100
AcDbPolyline
 62
7
  6
CONTINUOUS
 90
15
 70
0
 10
-9.6449364954
 20
-97.0832771583
 10
-9.4908838931
 20
-97.1907180321
 10
-9.3494625368
 20
-97.3161274611
 10
-9.2206724267
 20
-97.4595054451
 10
-9.1014313246
 20
-97.626190577
 10
-8.9948214686
 20
-97.810844264
 10
-8.9100895725
 20
-97.9974507278
 10
-8.849189697
 20
-98.1861843836
 10
-8.8101677814
 20
-98.3768708162
 10
-8.796408358
 20
-98.5529710025
 10
-8.8101677814
 20
-98.7131821514
 10
-8.849189697
 20
-98.858807054
 10
-8.9100895725
 20
-98.97721506
 10
-8.9948214686
 20
-99.0659752542
 10
-9.0459406241
 20
-99.1004659221
  0
LWPOLYLINE
  5
24A
100
AcDbEntity
  8
0
100
AcDbPolyline
 62
7
  6
CONTINUOUS
 90
15
 70
0
 10
22.174868658
 20
-117.4151625224
 10
22.0208160557
 20
-117.3077216485
 10
21.8793946995
 20
-117.1823122196
 10
21.7506045893
 20
-117.0389342356
 10
21.6313634872
 20
-116.8722491037
 10
21.5247536312
 20
-116.6875954167
 10
21.4400217352
 20
-116.5009889528
 10
21.3791218596
 20
-116.3122552971
 10
21.340099944
 20
-116.1215688645
 10
21.3263405206
 20
-115.9454686782
 10
21.340099944
 20
-115.7852575293
 10
21.3791218596
 20
-115.6396326267
 10
21.4400217352
 20
-115.5212246207
 10
21.5247536312
 20
-115.4324644265
 10
21.5758727867
 20
-115.3979737586
  0
LWPOLYLINE
  5
24B
100
AcDbEntity
  8
0
100
AcDbPolyline
 62
7
  6
CONTINUOUS
 90
15
 70
0
 10
22.174868658
 20
-115.4556338581
 10
22.3289212603
 20
-115.5630747319
 10
22.4703426166
 20
-115.6884841608
 10
22.5991327267
 20
-115.8318621448
 10
22.7183738288
 20
-115.9985472767
 10
22.8249836848
 20
-116.1832009637
 10
22.9097155808
 20
-116.3698074276
 10
22.9706154564
 20
-116.5585410833
 10
23.009637372
 20
-116.7492275159
 10
23.0233967954
 20
-116.9253277022
 10
23.009637372
 20
-117.0855388512
 10
22.9706154564
 20
-117.2311637538
 10
22.9097155808
 20
-117.3495717597
 10
22.8249836848
 20
-117.4383319539
 10
22.7738645293
 20
-117.4728226219
  0
LWPOLYLINE
  5
24C
100
AcDbEntity
  8
0
100
AcDbPolyline
 62
7
  6
CONTINUOUS
 90
22
 70
0
 10
-75.6533545191
 20
-70.8515003902
 10
-75.6508533793
 20
-71.0030543775
 10
-75.6434431476
 20
-71.1511352473
 10
-75.631123824
 20
-71.2957429995
 10
-75.6138644763
 20
-71.4370699867
 10
-75.5916960367
 20
-71.5749238564
 10
-75.5647113026
 20
-71.7087275507
 10
-75.5328900848
 20
-71.8384640918
 10
-75.4962525725
 20
-71.9641504576
 10
-75.4549521308
 20
-72.0852605234
 10
-75.4089692132
 20
-72.2017751062
 10
-75.3583233662
 20
-72.3137133891
 10
-75.3032265939
 20
-72.4206067972
 10
-75.2436602385
 20
-72.5224341831
 10
-75.1796429577
 20
-72.6192166943
 10
-75.1114427286
 20
-72.710549198
 10
-75.0390420168
 20
-72.7964088486
 10
-74.9624583566
 20
-72.8768184918
 10
-74.8820123282
 20
-72.9514415319
 10
-74.797687741
 20
-73.0202537123
 10
-74.7095007855
 20
-73.0832792896
 10
-74.6179414139
 20
-73.1401846959
  0
LINE
  5
24D
100
AcDbEntity
  8
ASSI
100
AcDbLine
 62
7
  6
CONTINUOUS
 10
-81.2394980905
 20
92.4599645806
 11
-81.2394980905
 21
141.4712833958
  0
LINE
  5
24E
100
AcDbEntity
  8
0
100
AcDbLine
 62
7
  6
CONTINUOUS
 10
-77.0675680815
 20
-70.0349512036
 11
-77.0675680815
 21
74.7948213927
  0
LINE
  5
24F
100
AcDbEntity
  8
ASSI
100
AcDbLine
 62
253
  6
CONTINUOUS
 10
-75.8301312144
 20
146.2266565798
 11
-75.8301312144
 21
144.5937160262
  0
LINE
  5
250
100
AcDbEntity
  8
0
100
AcDbLine
 62
7
  6
CONTINUOUS
 10
-75.6533545191
 20
-70.8515003902
 11
-75.6533545191
 21
73.978272206
  0
LWPOLYLINE
  5
251
100
AcDbEntity
  8
0
100
AcDbPolyline
 62
7
  6
CONTINUOUS
 90
46
 70
0
 10
-1.5965386191
 20
87.7869209075
 10
-1.6292445919
 20
87.7670314639
 10
-1.6837628553
 20
87.7289705171
 10
-1.7355720373
 20
87.6863796229
 10
-1.7843447006
 20
87.639528123
 10
-1.8300616111
 20
87.5883890383
 10
-1.8727420028
 20
87.532989348
 10
-1.9121161414
 20
87.4736793306
 10
-1.948163086
 20
87.4104342259
 10
-1.9809037774
 20
87.3432787943
 10
-2.0101313034
 20
87.2726375958
 10
-2.0358234143
 20
87.1984885585
 10
-2.0580023598
 20
87.1208537543
 10
-2.0765279776
 20
87.0402239597
 10
-2.0913771309
 20
86.9565802097
 10
-2.1025729565
 20
86.8699414692
 10
-2.1100447016
 20
86.7808554092
 10
-2.113768782
 20
86.6893065318
 10
-2.113768782
 20
86.5953103348
 10
-2.1100447016
 20
86.4994609827
 10
-2.1025729565
 20
86.4017467387
 10
-2.0913771309
 20
86.3021793395
 10
-2.0765279776
 20
86.2013881594
 10
-2.0580023598
 20
86.0993654458
 10
-2.0358234143
 20
85.9961189513
 10
-2.0101313034
 20
85.8923013083
 10
-1.9809037774
 20
85.7879088953
 10
-1.948163086
 20
85.682945334
 10
-1.9121161414
 20
85.5780741212
 10
-1.8727420028
 20
85.4732958356
 10
-1.8300616111
 20
85.3686098986
 10
-1.7843447006
 20
85.2646780717
 10
-1.7355720373
 20
85.1615051227
 10
-1.6837628553
 20
85.0590862838
 10
-1.6292445919
 20
84.958069013
 10
-1.5720000846
 20
84.8584621772
 10
-1.5120464958
 20
84.7602569094
 10
-1.4497627502
 20
84.6640740669
 10
-1.385134083
 20
84.5699264477
 10
-1.318175259
 20
84.4778012538
 10
-1.2493094969
 20
84.3882809482
 10
-1.1785247102
 20
84.3013820177
 10
-1.1058329855
 20
84.2170879754
 10
-1.031693801
 20
84.1359318246
 10
-0.9562603163
 20
84.0580912327
 10
-0.8793793719
 20
83.9833885323
  0
LINE
  5
252
100
AcDbEntity
  8
ASSI
100
AcDbLine
 62
7
  6
CONTINUOUS
 10
-0.2757716447
 20
88.5495246848
 11
-1.5965427231
 21
87.7869280172
  0
LINE
  5
253
100
AcDbEntity
  8
0
100
AcDbLine
 62
253
  6
CONTINUOUS
 10
-0.8010509678
 20
87.856899516
 11
-0.2998106733
 21
88.14630938
  0
LWPOLYLINE
  5
254
100
AcDbEntity
  8
0
100
AcDbPolyline
 62
7
  6
CONTINUOUS
 90
11
 70
0
 10
-0.4828578989
 20
87.8848944053
 10
-0.5000655673
 20
87.8756123099
 10
-0.5289622955
 20
87.862791832
 10
-0.5592958766
 20
87.8525762124
 10
-0.5907962956
 20
87.8450563856
 10
-0.6234739701
 20
87.8402564197
 10
-0.6573184826
 20
87.8381522466
 10
-0.6920285654
 20
87.8387625967
 10
-0.7275037959
 20
87.8420937133
 10
-0.7638445967
 20
87.8481393531
 10
-0.8010509678
 20
87.856899516
  0
LWPOLYLINE
  5
255
100
AcDbEntity
  8
0
100
AcDbPolyline
 62
7
  6
CONTINUOUS
 90
13
 70
0
 10
14.3916433022
 20
-79.9896001298
 10
14.4699717063
 20
-80.0084869984
 10
14.5468526508
 20
-80.0225644855
 10
14.6222861354
 20
-80.0318325909
 10
14.6964253199
 20
-80.0362905119
 10
14.7691170446
 20
-80.0359390513
 10
14.8399018313
 20
-80.0307806181
 10
14.9087675934
 20
-80.0207847684
 10
14.9757264174
 20
-80.0059819462
 10
15.0403550846
 20
-79.9864658919
 10
15.1026388302
 20
-79.9622067576
 10
15.162592419
 20
-79.9332343913
 10
15.1871309535
 20
-79.9196215213
  0
LWPOLYLINE
  5
256
100
AcDbEntity
  8
0
100
AcDbPolyline
 62
7
  6
CONTINUOUS
 90
5
 70
0
 10
-61.4051528782
 20
-54.0932289842
 10
-61.2880165302
 20
-54.1429043226
 10
-61.1841097957
 20
-54.1639157819
 10
-61.0934326749
 20
-54.1562633622
 10
-61.0309117948
 20
-54.129068479
  0
LWPOLYLINE
  5
257
100
AcDbEntity
  8
0
100
AcDbPolyline
 62
7
  6
CONTINUOUS
 90
5
 70
0
 10
-61.4051528782
 20
-52.868523569
 10
-61.5222892263
 20
-52.8188482307
 10
-61.6261959608
 20
-52.7978367713
 10
-61.7168730816
 20
-52.805489191
 10
-61.7793939617
 20
-52.8326840742
  0
LWPOLYLINE
  5
258
100
AcDbEntity
  8
0
100
AcDbPolyline
 62
7
  6
CONTINUOUS
 90
12
 70
0
 10
63.0809959497
 20
-122.7038730303
 10
63.1175670064
 20
-122.7238816481
 10
63.1538497611
 20
-122.7415870261
 10
63.1898442135
 20
-122.7569891644
 10
63.2256441737
 20
-122.7701166568
 10
63.2611558316
 20
-122.7809409095
 10
63.2960977578
 20
-122.7893761402
 10
63.330465425
 20
-122.7954033658
 10
63.3642633605
 20
-122.7990415695
 10
63.3972237157
 20
-122.8002619185
 10
63.4293398353
 20
-122.7990452006
 10
63.444852904
 20
-122.7972425789
  0
LWPOLYLINE
  5
259
100
AcDbEntity
  8
0
100
AcDbPolyline
 62
7
  6
CONTINUOUS
 90
12
 70
0
 10
20.6545890785
 20
-98.2073974306
 10
20.6911601353
 20
-98.2274060484
 10
20.7274428899
 20
-98.2451114265
 10
20.7634373423
 20
-98.2605135647
 10
20.7992373025
 20
-98.2736410572
 10
20.8347489604
 20
-98.2844653098
 10
20.8696908866
 20
-98.2929005405
 10
20.9040585538
 20
-98.2989277661
 10
20.9378564893
 20
-98.3025659698
 10
20.9708168445
 20
-98.3037863188
 10
21.0029329641
 20
-98.3025696009
 10
21.0184460328
 20
-98.3007669792
  0
LWPOLYLINE
  5
25A
100
AcDbEntity
  8
0
100
AcDbPolyline
 62
7
  6
CONTINUOUS
 90
12
 70
0
 10
-7.629682169
 20
-81.8764136975
 10
-7.5931111122
 20
-81.8964223153
 10
-7.5568283576
 20
-81.9141276934
 10
-7.5208339051
 20
-81.9295298316
 10
-7.485033945
 20
-81.942657324
 10
-7.449522287
 20
-81.9534815767
 10
-7.4145803609
 20
-81.9619168074
 10
-7.3802126936
 20
-81.967944033
 10
-7.3464147582
 20
-81.9715822367
 10
-7.313454403
 20
-81.9728025857
 10
-7.2813382834
 20
-81.9715858678
 10
-7.2658252146
 20
-81.9697832461
  0
LWPOLYLINE
  5
25B
100
AcDbEntity
  8
0
100
AcDbPolyline
 62
7
  6
CONTINUOUS
 90
12
 70
0
 10
-50.0560890402
 20
-57.3799380978
 10
-50.0195179834
 20
-57.3999467157
 10
-49.9832352288
 20
-57.4176520937
 10
-49.9472407763
 20
-57.4330542319
 10
-49.9114408162
 20
-57.4461817244
 10
-49.8759291582
 20
-57.457005977
 10
-49.8409872321
 20
-57.4654412077
 10
-49.8066195648
 20
-57.4714684334
 10
-49.7728216294
 20
-57.4751066371
 10
-49.7398612742
 20
-57.4763269861
 10
-49.7077451546
 20
-57.4751102682
 10
-49.6922320858
 20
-57.4733076465
  0
LINE
  5
25C
100
AcDbEntity
  8
0
100
AcDbLine
 62
7
  6
CONTINUOUS
 10
69.7277996928
 20
-128.1747525808
 11
65.060894937
 21
-125.4801402649
  0
LINE
  5
25D
100
AcDbEntity
  8
0
100
AcDbLine
 62
7
  6
CONTINUOUS
 10
61.6667823873
 20
-123.5204222169
 11
22.6344880658
 21
-100.9836646652
  0
LINE
  5
25E
100
AcDbEntity
  8
0
100
AcDbLine
 62
7
  6
CONTINUOUS
 10
19.2403755161
 20
-99.0239466172
 11
14.5734707603
 21
-96.3293343013
  0
LINE
  5
25F
100
AcDbEntity
  8
0
100
AcDbLine
 62
7
  6
CONTINUOUS
 10
-0.9828784258
 20
-87.3472932481
 11
-5.6497831817
 21
-84.6526809321
  0
LINE
  5
260
100
AcDbEntity
  8
0
100
AcDbLine
 62
7
  6
CONTINUOUS
 10
-9.0438957314
 20
-82.6929628841
 11
-48.0761900529
 21
-60.1562053324
  0
LINE
  5
261
100
AcDbEntity
  8
0
100
AcDbLine
 62
7
  6
CONTINUOUS
 10
-51.4703026026
 20
-58.1964872845
 11
-56.1372073584
 21
-55.5018749685
  0
LINE
  5
262
100
AcDbEntity
  8
0
100
AcDbLine
 62
7
  6
CONTINUOUS
 10
70.0106424053
 20
-126.7049640449
 11
66.4751084993
 21
-124.6635910782
  0
LINE
  5
263
100
AcDbEntity
  8
0
100
AcDbLine
 62
7
  6
CONTINUOUS
 10
63.0809959497
 20
-122.7038730303
 11
24.0487016282
 21
-100.1671154786
  0
LINE
  5
264
100
AcDbEntity
  8
0
100
AcDbLine
 62
7
  6
CONTINUOUS
 10
20.6545890785
 20
-98.2073974306
 11
15.9876843226
 21
-95.5127851146
  0
LINE
  5
265
100
AcDbEntity
  8
0
100
AcDbLine
 62
7
  6
CONTINUOUS
 10
-0.2757716447
 20
-86.1224694681
 11
-4.2355696193
 21
-83.8361317455
  0
LINE
  5
266
100
AcDbEntity
  8
0
100
AcDbLine
 62
7
  6
CONTINUOUS
 10
-7.629682169
 20
-81.8764136975
 11
-46.6619764905
 21
-59.3396561458
  0
LINE
  5
267
100
AcDbEntity
  8
0
100
AcDbLine
 62
7
  6
CONTINUOUS
 10
-50.0560890402
 20
-57.3799380978
 11
-54.722993796
 21
-54.6853257819
  0
LWPOLYLINE
  5
268
100
AcDbEntity
  8
0
100
AcDbPolyline
 62
7
  6
CONTINUOUS
 90
18
 70
0
 10
-48.0761900529
 20
-60.1562053324
 10
-48.1127611097
 20
-60.1339826106
 10
-48.1490438643
 20
-60.1097895731
 10
-48.1850383167
 20
-60.0836262198
 10
-48.2208382769
 20
-60.0554128157
 10
-48.2563499348
 20
-60.0252290958
 10
-48.291291861
 20
-59.993314266
 10
-48.3256595282
 20
-59.959654571
 10
-48.3594574637
 20
-59.924263766
 10
-48.3924178189
 20
-59.887422323
 10
-48.4245339385
 20
-59.8491187153
 10
-48.4558124778
 20
-59.8093644694
 10
-48.4860055548
 20
-59.7684746377
 10
-48.5151045442
 20
-59.7264401968
 10
-48.5431180712
 20
-59.6832701699
 10
-48.5698241288
 20
-59.6393066793
 10
-48.5951487146
 20
-59.5946637656
 10
-48.6191658309
 20
-59.5492273882
  0
LWPOLYLINE
  5
269
100
AcDbEntity
  8
0
100
AcDbPolyline
 62
7
  6
CONTINUOUS
 90
18
 70
0
 10
-5.6497831817
 20
-84.6526809321
 10
-5.6863542385
 20
-84.6304582103
 10
-5.7226369931
 20
-84.6062651727
 10
-5.7586314455
 20
-84.5801018195
 10
-5.7944314057
 20
-84.5518884153
 10
-5.8299430637
 20
-84.5217046955
 10
-5.8648849898
 20
-84.4897898657
 10
-5.8992526571
 20
-84.4561301707
 10
-5.9330505925
 20
-84.4207393657
 10
-5.9660109477
 20
-84.3838979227
 10
-5.9981270673
 20
-84.3455943149
 10
-6.0294056066
 20
-84.3058400691
 10
-6.0595986836
 20
-84.2649502374
 10
-6.088697673
 20
-84.2229157964
 10
-6.1167112
 20
-84.1797457695
 10
-6.1434172576
 20
-84.1357822789
 10
-6.1687418434
 20
-84.0911393653
 10
-6.1927589597
 20
-84.0457029879
  0
LWPOLYLINE
  5
26A
100
AcDbEntity
  8
0
100
AcDbPolyline
 62
7
  6
CONTINUOUS
 90
19
 70
0
 10
22.6344880658
 20
-100.9836646652
 10
22.597917009
 20
-100.9614419434
 10
22.5616342544
 20
-100.9372489058
 10
22.5256398019
 20
-100.9110855526
 10
22.4898398418
 20
-100.8828721484
 10
22.4543281838
 20
-100.8526884286
 10
22.4193862577
 20
-100.8207735988
 10
22.3850185904
 20
-100.7871139038
 10
22.351220655
 20
-100.7517230988
 10
22.3182602998
 20
-100.7148816558
 10
22.2861441802
 20
-100.676578048
 10
22.2548656408
 20
-100.6368238022
 10
22.2246725639
 20
-100.5959339705
 10
22.1955735745
 20
-100.5538995295
 10
22.1675600474
 20
-100.5107295026
 10
22.1408539899
 20
-100.466766012
 10
22.1155294041
 20
-100.4221230984
 10
22.0915122877
 20
-100.376686721
 10
22.023383347
 20
-100.2379971976
  0
LWPOLYLINE
  5
26B
100
AcDbEntity
  8
0
100
AcDbPolyline
 62
7
  6
CONTINUOUS
 90
19
 70
0
 10
65.060894937
 20
-125.4801402649
 10
65.0243238802
 20
-125.457917543
 10
64.9880411256
 20
-125.4337245055
 10
64.9520466731
 20
-125.4075611523
 10
64.916246713
 20
-125.3793477481
 10
64.880735055
 20
-125.3491640283
 10
64.8457931288
 20
-125.3172491985
 10
64.8114254616
 20
-125.2835895034
 10
64.7776275262
 20
-125.2481986985
 10
64.744667171
 20
-125.2113572555
 10
64.7125510514
 20
-125.1730536477
 10
64.681272512
 20
-125.1332994019
 10
64.6510794351
 20
-125.0924095702
 10
64.6219804456
 20
-125.0503751292
 10
64.5939669186
 20
-125.0072051023
 10
64.5672608611
 20
-124.9632416117
 10
64.5419362753
 20
-124.918598698
 10
64.5179191589
 20
-124.8731623206
 10
64.4497902182
 20
-124.7344727972
  0
LWPOLYLINE
  5
26C
100
AcDbEntity
  8
0
100
AcDbPolyline
 62
7
  6
CONTINUOUS
 90
31
 70
0
 10
-56.1372073584
 20
-55.5018749685
 10
-56.1743819521
 20
-55.4792664218
 10
-56.2112539091
 20
-55.4546263146
 10
-56.2478232294
 20
-55.427954647
 10
-56.2841883081
 20
-55.3991673308
 10
-56.32025075
 20
-55.3683484541
 10
-56.3557153706
 20
-55.3357502811
 10
-56.390577263
 20
-55.3013582078
 10
-56.4248413341
 20
-55.2651868381
 10
-56.4582271194
 20
-55.2275322485
 10
-56.4907274101
 20
-55.188382265
 10
-56.5223494151
 20
-55.1477490615
 10
-56.5528342962
 20
-55.1059652362
 10
-56.5821727202
 20
-55.063021345
 10
-56.6103740204
 20
-55.0189268321
 10
-56.6372073584
 20
-54.9740426275
 10
-56.6626615063
 20
-54.9283622499
 10
-56.6867476921
 20
-54.8818921806
 10
-56.7092687612
 20
-54.835012795
 10
-56.7302118675
 20
-54.7877207333
 10
-56.749589857
 20
-54.7400193551
 10
-56.7672441137
 20
-54.6922991144
 10
-56.7831604895
 20
-54.6445598562
 10
-56.7973531325
 20
-54.5968017354
 10
-56.8097058704
 20
-54.5494156702
 10
-56.8202036017
 20
-54.5024047145
 10
-56.828861428
 20
-54.4557658144
 10
-56.8356084817
 20
-54.4098807271
 10
-56.8404211403
 20
-54.3648767048
 10
-56.8433230262
 20
-54.3206264952
 10
-56.8443141396
 20
-54.2771300984
  0
LWPOLYLINE
  5
26D
100
AcDbEntity
  8
0
100
AcDbPolyline
 62
7
  6
CONTINUOUS
 90
31
 70
0
 10
14.5734707603
 20
-96.3293343013
 10
14.5362961666
 20
-96.3067257546
 10
14.4994242096
 20
-96.2820856474
 10
14.4628548892
 20
-96.2554139797
 10
14.4264898106
 20
-96.2266266635
 10
14.3904273686
 20
-96.1958077869
 10
14.354962748
 20
-96.1632096139
 10
14.3201008556
 20
-96.1288175405
 10
14.2858367846
 20
-96.0926461709
 10
14.2524509993
 20
-96.0549915813
 10
14.2199507086
 20
-96.0158415978
 10
14.1883287036
 20
-95.9752083943
 10
14.1578438225
 20
-95.933424569
 10
14.1285053985
 20
-95.8904806778
 10
14.1003040983
 20
-95.8463861648
 10
14.0734707603
 20
-95.8015019603
 10
14.0480166123
 20
-95.7558215826
 10
14.0239304265
 20
-95.7093515134
 10
14.0014093574
 20
-95.6624721278
 10
13.9804662512
 20
-95.6151800661
 10
13.9610882616
 20
-95.5674786879
 10
13.9434340049
 20
-95.5197584472
 10
13.9275176291
 20
-95.472019189
 10
13.9133249862
 20
-95.4242610681
 10
13.9009722483
 20
-95.376875003
 10
13.8904745169
 20
-95.3298640473
 10
13.8818166906
 20
-95.2832251472
 10
13.8750696369
 20
-95.2373400599
 10
13.8702569784
 20
-95.1923360376
 10
13.8673550924
 20
-95.148085828
 10
13.8663639791
 20
-95.1045894312
  0
LWPOLYLINE
  5
26E
100
AcDbEntity
  8
0
100
AcDbPolyline
 62
7
  6
CONTINUOUS
 90
15
 70
0
 10
-61.4051528782
 20
-54.4606406088
 10
-61.5592054805
 20
-54.3531997349
 10
-61.7006268368
 20
-54.227790306
 10
-61.829416947
 20
-54.084412322
 10
-61.948658049
 20
-53.9177271901
 10
-62.055267905
 20
-53.7330735031
 10
-62.1399998011
 20
-53.5464670392
 10
-62.2008996766
 20
-53.3577333835
 10
-62.2399215922
 20
-53.1670469509
 10
-62.2536810157
 20
-52.9909467646
 10
-62.2399215922
 20
-52.8307356157
 10
-62.2008996766
 20
-52.6851107131
 10
-62.1399998011
 20
-52.5667027071
 10
-62.055267905
 20
-52.4779425129
 10
-62.0041487496
 20
-52.443451845
  0
LWPOLYLINE
  5
26F
100
AcDbEntity
  8
0
100
AcDbPolyline
 62
7
  6
CONTINUOUS
 90
15
 70
0
 10
61.0657416233
 20
-139.8702651554
 10
60.911689021
 20
-139.7628242816
 10
60.7702676647
 20
-139.6374148526
 10
60.6414775546
 20
-139.4940368686
 10
60.5222364525
 20
-139.3273517367
 10
60.4156265965
 20
-139.1426980497
 10
60.3308947004
 20
-138.9560915859
 10
60.2699948249
 20
-138.7673579301
 10
60.2309729093
 20
-138.5766714975
 10
60.2172134858
 20
-138.4005713112
 10
60.2309729093
 20
-138.2403601623
 10
60.2699948249
 20
-138.0947352597
 10
60.3308947004
 20
-137.9763272537
 10
60.4156265965
 20
-137.8875670595
 10
60.466745752
 20
-137.8530763916
  0
LWPOLYLINE
  5
270
100
AcDbEntity
  8
0
100
AcDbPolyline
 62
7
  6
CONTINUOUS
 90
15
 70
0
 10
-61.4051528782
 20
-52.5011119445
 10
-61.2511002759
 20
-52.6085528183
 10
-61.1096789197
 20
-52.7339622472
 10
-60.9808888095
 20
-52.8773402312
 10
-60.8616477075
 20
-53.0440253631
 10
-60.7550378515
 20
-53.2286790501
 10
-60.6703059554
 20
-53.415285514
 10
-60.6094060799
 20
-53.6040191697
 10
-60.5703841643
 20
-53.7947056023
 10
-60.5566247408
 20
-53.9708057886
 10
-60.5703841643
 20
-54.1310169376
 10
-60.6094060799
 20
-54.2766418402
 10
-60.6703059554
 20
-54.3950498461
 10
-60.7550378515
 20
-54.4838100403
 10
-60.8061570069
 20
-54.5183007083
  0
LWPOLYLINE
  5
271
100
AcDbEntity
  8
0
100
AcDbPolyline
 62
7
  6
CONTINUOUS
 90
15
 70
0
 10
61.0657416233
 20
-137.9107364911
 10
61.2197942256
 20
-138.0181773649
 10
61.3612155818
 20
-138.1435867938
 10
61.490005692
 20
-138.2869647779
 10
61.609246794
 20
-138.4536499098
 10
61.7158566501
 20
-138.6383035968
 10
61.8005885461
 20
-138.8249100606
 10
61.8614884216
 20
-139.0136437164
 10
61.9005103372
 20
-139.204330149
 10
61.9142697607
 20
-139.3804303352
 10
61.9005103372
 20
-139.5406414842
 10
61.8614884216
 20
-139.6862663868
 10
61.8005885461
 20
-139.8046743928
 10
61.7158566501
 20
-139.893434587
 10
61.6647374946
 20
-139.9279252549
  0
LWPOLYLINE
  5
272
100
AcDbEntity
  8
0
100
AcDbPolyline
 62
7
  6
CONTINUOUS
 90
35
 70
0
 10
-48.6191658309
 20
-59.5492273882
 10
-48.6872947717
 20
-59.4105378648
 10
-48.7353290044
 20
-59.31966511
 10
-48.7859781759
 20
-59.2303792827
 10
-48.8393902911
 20
-59.1424523014
 10
-48.8954173451
 20
-59.0561122477
 10
-48.9536153239
 20
-58.9720433657
 10
-49.0140014778
 20
-58.8902637023
 10
-49.0765585565
 20
-58.8107552107
 10
-49.1407907957
 20
-58.7341479951
 10
-49.2067115061
 20
-58.6604651091
 10
-49.274307377
 20
-58.5896834992
 10
-49.3430427115
 20
-58.5223641091
 10
-49.4129265638
 20
-58.4585344496
 10
-49.4839498797
 20
-58.3981670099
 10
-49.5555498
 20
-58.3417402015
 10
-49.6277309063
 20
-58.2892853368
 10
-49.700488617
 20
-58.2407711034
 10
-49.7732463277
 20
-58.1965819763
 10
-49.8460040384
 20
-58.1567523228
 10
-49.9187617491
 20
-58.1212477756
 10
-49.9909428554
 20
-58.0903497081
 10
-50.0625427757
 20
-58.0640947232
 10
-50.1335660917
 20
-58.0424462179
 10
-50.203449944
 20
-58.0255757565
 10
-50.2721852785
 20
-58.0135213052
 10
-50.3397811493
 20
-58.0062448978
 10
-50.4057018597
 20
-58.0038041998
 10
-50.4699340989
 20
-58.0062376356
 10
-50.5324911776
 20
-58.0135067808
 10
-50.5928773315
 20
-58.0255540273
 10
-50.6510753104
 20
-58.0424173421
 10
-50.7071023644
 20
-58.0640587582
 10
-50.7605144795
 20
-58.0903067678
 10
-50.7732941677
 20
-58.0975004527
  0
LWPOLYLINE
  5
273
100
AcDbEntity
  8
ASSI
100
AcDbPolyline
 62
7
  6
CONTINUOUS
 90
46
 70
0
 10
-59.9202286377
 20
-53.7258410326
 10
-59.9215666408
 20
-53.6671208968
 10
-59.9254841868
 20
-53.6073831139
 10
-59.9319812758
 20
-53.5466276838
 10
-59.9410897984
 20
-53.4846828159
 10
-59.9527778639
 20
-53.4217203009
 10
-59.9669498012
 20
-53.3582555106
 10
-59.9836259974
 20
-53.2942843227
 10
-60.0027860653
 20
-53.2298108596
 10
-60.0242731726
 20
-53.165362861
 10
-60.0481064192
 20
-53.100940536
 10
-60.0742667051
 20
-53.0365436755
 10
-60.1025398985
 20
-52.9726993922
 10
-60.1329433418
 20
-52.9094122216
 10
-60.1654596926
 20
-52.8466776281
 10
-60.1998227923
 20
-52.7850091182
 10
-60.2360477987
 20
-52.7244154421
 10
-60.2741195539
 20
-52.6648878496
 10
-60.3137264264
 20
-52.6069135966
 10
-60.3548810159
 20
-52.5505054324
 10
-60.3975707226
 20
-52.4956506077
 10
-60.4414461151
 20
-52.44279813
 10
-60.4865169252
 20
-52.391964434
 10
-60.5327734211
 20
-52.3431330849
 10
-60.5798369758
 20
-52.2967037859
 10
-60.6277142136
 20
-52.2526962524
 10
-60.6763985103
 20
-52.2110907689
 10
-60.7254913664
 20
-52.172227892
 10
-60.7749961354
 20
-52.1361301325
 10
-60.8249094639
 20
-52.1027749796
 10
-60.8748227923
 20
-52.0724354579
 10
-60.9247361208
 20
-52.0451363191
 10
-60.9746494493
 20
-52.0208528114
 10
-61.0241542183
 20
-51.9997837045
 10
-61.0732470744
 20
-51.9819553817
 10
-61.1219313711
 20
-51.9673414597
 10
-61.1698086089
 20
-51.9560615591
 10
-61.2168721636
 20
-51.9481430448
 10
-61.2631286595
 20
-51.9435585518
 10
-61.3081994696
 20
-51.942345606
 10
-61.3520748621
 20
-51.9445318803
 10
-61.3947645688
 20
-51.9500897017
 10
-61.4359191583
 20
-51.9589735775
 10
-61.4755260308
 20
-51.971210807
 10
-61.513597786
 20
-51.9867740909
 10
-61.5498554085
 20
-52.0055548681
  0
LWPOLYLINE
  5
274
100
AcDbEntity
  8
ASSI
100
AcDbPolyline
 62
7
  6
CONTINUOUS
 90
46
 70
0
 10
-59.9202286377
 20
40.1682407986
 10
-59.9215666408
 20
40.2269609343
 10
-59.9254841868
 20
40.2866987172
 10
-59.9319812758
 20
40.3474541473
 10
-59.9410897984
 20
40.4093990152
 10
-59.9527778639
 20
40.4723615303
 10
-59.9669498012
 20
40.5358263205
 10
-59.9836259974
 20
40.5997975085
 10
-60.0027860653
 20
40.6642709716
 10
-60.0242731726
 20
40.7287189702
 10
-60.0481064192
 20
40.7931412952
 10
-60.0742667051
 20
40.8575381557
 10
-60.1025398985
 20
40.921382439
 10
-60.1329433418
 20
40.9846696096
 10
-60.1654596926
 20
41.0474042031
 10
-60.1998227923
 20
41.1090727129
 10
-60.2360477987
 20
41.169666389
 10
-60.2741195539
 20
41.2291939816
 10
-60.3137264264
 20
41.2871682346
 10
-60.3548810159
 20
41.3435763988
 10
-60.3975707226
 20
41.3984312235
 10
-60.4414461151
 20
41.4512837012
 10
-60.4865169252
 20
41.5021173972
 10
-60.5327734211
 20
41.5509487462
 10
-60.5798369758
 20
41.5973780452
 10
-60.6277142136
 20
41.6413855788
 10
-60.6763985103
 20
41.6829910623
 10
-60.7254913664
 20
41.7218539391
 10
-60.7749961354
 20
41.7579516987
 10
-60.8249094639
 20
41.7913068515
 10
-60.8748227923
 20
41.8216463732
 10
-60.9247361208
 20
41.8489455121
 10
-60.9746494493
 20
41.8732290198
 10
-61.0241542183
 20
41.8942981266
 10
-61.0732470744
 20
41.9121264495
 10
-61.1219313711
 20
41.9267403715
 10
-61.1698086089
 20
41.9380202721
 10
-61.2168721636
 20
41.9459387864
 10
-61.2631286595
 20
41.9505232794
 10
-61.3081994696
 20
41.9517362252
 10
-61.3520748621
 20
41.9495499509
 10
-61.3947645688
 20
41.9439921295
 10
-61.4359191583
 20
41.9351082537
 10
-61.4755260308
 20
41.9228710241
 10
-61.513597786
 20
41.9073077403
 10
-61.5498554085
 20
41.8885269631
  0
LINE
  5
275
100
AcDbEntity
  8
0
100
AcDbLine
 62
7
  6
CONTINUOUS
 10
-65.3295955138
 20
137.5589420972
 11
-65.3295955138
 21
-69.7895918983
  0
LWPOLYLINE
  5
276
100
AcDbEntity
  8
0
100
AcDbPolyline
 62
7
  6
CONTINUOUS
 90
5
 70
0
 10
-56.8443141396
 20
131.8780930104
 10
-56.8433230262
 20
131.9204448944
 10
-56.8404211403
 20
131.9613440788
 10
-56.8356084817
 20
132.0007905636
 10
-56.8342559022
 20
132.0084272061
  0
LWPOLYLINE
  5
277
100
AcDbEntity
  8
0
100
AcDbPolyline
 62
7
  6
CONTINUOUS
 90
16
 70
0
 10
-56.8443141396
 20
115.481486333
 10
-56.8432337818
 20
115.5256502101
 10
-56.840077253
 20
115.5682190058
 10
-56.8348445533
 20
115.60919272
 10
-56.8275077527
 20
115.6486837967
 10
-56.818094781
 20
115.686579792
 10
-56.8066894282
 20
115.7225433739
 10
-56.7932739061
 20
115.7565572896
 10
-56.7778660029
 20
115.788638792
 10
-56.7606028721
 20
115.8185023067
 10
-56.7414679504
 20
115.8461280316
 10
-56.7204778013
 20
115.871535769
 10
-56.697819269
 20
115.8944993512
 10
-56.6734774581
 20
115.9149969569
 10
-56.647467264
 20
115.9330504074
 10
-56.6372278854
 20
115.9392169044
  0
LWPOLYLINE
  5
278
100
AcDbEntity
  8
0
100
AcDbPolyline
 62
7
  6
CONTINUOUS
 90
13
 70
0
 10
-61.7793939617
 20
41.061397757
 10
-61.797046039
 20
41.0495185394
 10
-61.8639893829
 20
40.9817805595
 10
-61.9095267622
 20
40.8936521071
 10
-61.9309327267
 20
40.7825370262
 10
-61.9309327267
 20
40.6510314728
 10
-61.9095267622
 20
40.5151973207
 10
-61.8639893829
 20
40.374483444
 10
-61.797046039
 20
40.2294409687
 10
-61.7168730816
 20
40.0977851462
 10
-61.6261959608
 20
39.9854210603
 10
-61.5222892263
 20
39.8864436272
 10
-61.4051528782
 20
39.800852847
  0
LWPOLYLINE
  5
279
100
AcDbEntity
  8
0
100
AcDbPolyline
 62
7
  6
CONTINUOUS
 90
13
 70
0
 10
-61.0309117948
 20
39.7650133522
 10
-61.0132597174
 20
39.7768925698
 10
-60.9463163736
 20
39.8446305496
 10
-60.9007789943
 20
39.9327590021
 10
-60.8793730298
 20
40.0438740829
 10
-60.8793730298
 20
40.1753796363
 10
-60.9007789943
 20
40.3112137884
 10
-60.9463163736
 20
40.4519276651
 10
-61.0132597174
 20
40.5969701404
 10
-61.0934326749
 20
40.7286259629
 10
-61.1841097957
 20
40.8409900488
 10
-61.2880165302
 20
40.9399674819
 10
-61.4051528782
 20
41.0255582622
  0
LWPOLYLINE
  5
27A
100
AcDbEntity
  8
ASSI
100
AcDbPolyline
 62
7
  6
CONTINUOUS
 90
11
 70
0
 10
-61.5498554085
 20
41.8885269631
 10
-61.5841858921
 20
41.8665589298
 10
-61.6167022429
 20
41.8413734032
 10
-61.6471056862
 20
41.8131953668
 10
-61.6753788796
 20
41.7820002586
 10
-61.7015391655
 20
41.7478126405
 10
-61.7253724121
 20
41.7109123512
 10
-61.7468595194
 20
41.6712771256
 10
-61.7660195873
 20
41.6289292287
 10
-61.7826957835
 20
41.5842152941
 10
-61.7839103751
 20
41.5801786881
  0
LWPOLYLINE
  5
27B
100
AcDbEntity
  8
ASSI
100
AcDbPolyline
 62
7
  6
CONTINUOUS
 90
16
 70
0
 10
-60.1997901762
 20
39.5502960361
 10
-60.1654596926
 20
39.5722640693
 10
-60.1329433418
 20
39.5974495959
 10
-60.1025398985
 20
39.6256276324
 10
-60.0742667051
 20
39.6568227405
 10
-60.0481064192
 20
39.6910103586
 10
-60.0242731726
 20
39.7279106479
 10
-60.0027860653
 20
39.7675458735
 10
-59.9836259974
 20
39.8098937704
 10
-59.9669498012
 20
39.854607705
 10
-59.9527778639
 20
39.9017070973
 10
-59.9410897984
 20
39.9511725273
 10
-59.9319812758
 20
40.0025991017
 10
-59.9254841868
 20
40.0558518562
 10
-59.9215666408
 20
40.1110657551
 10
-59.9202286377
 20
40.1682407986
  0
LINE
  5
27C
100
AcDbEntity
  8
0
100
AcDbLine
 62
7
  6
CONTINUOUS
 10
-62.0051818704
 20
41.4524192999
 11
-61.1657901968
 21
41.9370735322
  0
LINE
  5
27D
100
AcDbEntity
  8
0
100
AcDbLine
 62
7
  6
CONTINUOUS
 10
-60.8051238861
 20
39.3739918092
 11
-59.9657352096
 21
39.858644311
  0
LINE
  5
27E
100
AcDbEntity
  8
0
100
AcDbLine
 62
253
  6
CONTINUOUS
 10
13.8663639791
 20
80.1771331101
 11
15.2805775414
 21
80.9936822968
  0
LINE
  5
27F
100
AcDbEntity
  8
0
100
AcDbLine
 62
253
  6
CONTINUOUS
 10
14.3916433022
 20
79.0848282537
 11
15.8058568646
 21
79.9013774403
  0
LWPOLYLINE
  5
280
100
AcDbEntity
  8
0
100
AcDbPolyline
 62
7
  6
CONTINUOUS
 90
11
 70
0
 10
14.0734502333
 20
75.1117575716
 10
14.0906579017
 20
75.121039667
 10
14.1195546299
 20
75.1338601448
 10
14.149888211
 20
75.1440757644
 10
14.18138863
 20
75.1515955912
 10
14.2140663045
 20
75.1563955571
 10
14.247910817
 20
75.1584997302
 10
14.2826208998
 20
75.1578893802
 10
14.3180961303
 20
75.1545582636
 10
14.3544369311
 20
75.1485126238
 10
14.3916433022
 20
75.1397524609
  0
LWPOLYLINE
  5
281
100
AcDbEntity
  8
0
100
AcDbPolyline
 62
7
  6
CONTINUOUS
 90
6
 70
0
 10
-62.0041487496
 20
41.4506299862
 10
-61.948658049
 20
41.4776826158
 10
-61.829416947
 20
41.5066711119
 10
-61.7006268368
 20
41.501325505
 10
-61.5592054805
 20
41.4634250966
 10
-61.4051528782
 20
41.3929698867
  0
LWPOLYLINE
  5
282
100
AcDbEntity
  8
0
100
AcDbPolyline
 62
7
  6
CONTINUOUS
 90
6
 70
0
 10
-60.8061570069
 20
39.3757811229
 10
-60.8616477075
 20
39.3487284933
 10
-60.9808888095
 20
39.3197399972
 10
-61.1096789197
 20
39.3250856042
 10
-61.2511002759
 20
39.3629860126
 10
-61.4051528782
 20
39.4334412224
  0
LWPOLYLINE
  5
283
100
AcDbEntity
  8
ASSI
100
AcDbPolyline
 62
7
  6
CONTINUOUS
 90
11
 70
0
 10
-60.5838553879
 20
-54.3923323643
 10
-60.5798369758
 20
-54.3932791041
 10
-60.5327734211
 20
-54.4011976185
 10
-60.4865169252
 20
-54.4057821114
 10
-60.4414461151
 20
-54.4069950572
 10
-60.3975707226
 20
-54.404808783
 10
-60.3548810159
 20
-54.3992509615
 10
-60.3137264264
 20
-54.3903670857
 10
-60.2741195539
 20
-54.3781298562
 10
-60.2360477987
 20
-54.3625665723
 10
-60.1997901762
 20
-54.3437857951
  0
LWPOLYLINE
  5
284
100
AcDbEntity
  8
0
100
AcDbPolyline
 62
7
  6
CONTINUOUS
 90
13
 70
0
 10
-0.8010509678
 20
-67.2724530746
 10
-0.8793793719
 20
-67.253566206
 10
-0.9562603163
 20
-67.2394887189
 10
-1.031693801
 20
-67.2302206135
 10
-1.1058329855
 20
-67.2257626925
 10
-1.1785247102
 20
-67.2261141531
 10
-1.2493094969
 20
-67.2312725863
 10
-1.318175259
 20
-67.241268436
 10
-1.385134083
 20
-67.2560712582
 10
-1.4497627502
 20
-67.2755873125
 10
-1.5120464958
 20
-67.2998464468
 10
-1.5720000846
 20
-67.3288188131
 10
-1.5965386191
 20
-67.3424316831
  0
LWPOLYLINE
  5
285
100
AcDbEntity
  8
0
100
AcDbPolyline
 62
7
  6
CONTINUOUS
 90
25
 70
0
 10
-56.2407064123
 20
-35.2886298133
 10
-56.3562411876
 20
-35.1828601824
 10
-56.3925819884
 20
-35.1469403763
 10
-56.4280572189
 20
-35.1093055859
 10
-56.4627673017
 20
-35.0698336024
 10
-56.4966118141
 20
-35.0286466347
 10
-56.5292894886
 20
-34.9861113093
 10
-56.5607899077
 20
-34.9422155882
 10
-56.5911234888
 20
-34.8969715095
 10
-56.620020217
 20
-34.8507818142
 10
-56.647467264
 20
-34.80363806
 10
-56.6734774581
 20
-34.7555486892
 10
-56.697819269
 20
-34.7069417705
 10
-56.7204778013
 20
-34.6578126831
 10
-56.7414679504
 20
-34.6081660477
 10
-56.7606028721
 20
-34.5584437949
 10
-56.7778660029
 20
-34.5086452495
 10
-56.7932739061
 20
-34.4587710866
 10
-56.8066894282
 20
-34.4092652622
 10
-56.818094781
 20
-34.3601310648
 10
-56.8275077527
 20
-34.3113652059
 10
-56.8348445533
 20
-34.2634017756
 10
-56.840077253
 20
-34.2163854709
 10
-56.8432337818
 20
-34.170171595
 10
-56.8443141396
 20
-34.1247601477
  0
LWPOLYLINE
  5
286
100
AcDbEntity
  8
0
100
AcDbPolyline
 62
7
  6
CONTINUOUS
 90
34
 70
0
 10
-47.2730812093
 20
-58.5939886781
 10
-47.321115442
 20
-58.5031159233
 10
-47.3717646136
 20
-58.413830096
 10
-47.4251767287
 20
-58.3259031148
 10
-47.4812037827
 20
-58.239563061
 10
-47.5394017616
 20
-58.1554941791
 10
-47.5997879154
 20
-58.0737145156
 10
-47.6623449942
 20
-57.994206024
 10
-47.7265772333
 20
-57.9175988085
 10
-47.7924979437
 20
-57.8439159225
 10
-47.8600938146
 20
-57.7731343126
 10
-47.9288291491
 20
-57.7058149224
 10
-47.9987130014
 20
-57.6419852629
 10
-48.0697363173
 20
-57.5816178232
 10
-48.1413362376
 20
-57.5251910149
 10
-48.213517344
 20
-57.4727361501
 10
-48.2862750547
 20
-57.4242219167
 10
-48.3590327653
 20
-57.3800327897
 10
-48.431790476
 20
-57.3402031362
 10
-48.5045481867
 20
-57.304698589
 10
-48.5767292931
 20
-57.2738005214
 10
-48.6483292133
 20
-57.2475455365
 10
-48.7193525293
 20
-57.2258970312
 10
-48.7892363816
 20
-57.2090265698
 10
-48.8579717161
 20
-57.1969721186
 10
-48.925567587
 20
-57.1896957112
 10
-48.9914882974
 20
-57.1872550132
 10
-49.0557205365
 20
-57.189688449
 10
-49.1182776153
 20
-57.1969575941
 10
-49.1786637691
 20
-57.2090048407
 10
-49.236861748
 20
-57.2258681554
 10
-49.292888802
 20
-57.2475095716
 10
-49.3463009171
 20
-57.2737575811
 10
-49.3590806054
 20
-57.280951266
  0
LWPOLYLINE
  5
287
100
AcDbEntity
  8
0
100
AcDbPolyline
 62
7
  6
CONTINUOUS
 90
19
 70
0
 10
-47.2730812093
 20
-58.5939886781
 10
-47.2049522685
 20
-58.7326782016
 10
-47.1809351522
 20
-58.7781145789
 10
-47.1556105664
 20
-58.8227574926
 10
-47.1289045088
 20
-58.8667209832
 10
-47.1008909818
 20
-58.9098910101
 10
-47.0717919924
 20
-58.9519254511
 10
-47.0415989155
 20
-58.9928152828
 10
-47.0103203761
 20
-59.0325695286
 10
-46.9782042565
 20
-59.0708731364
 10
-46.9452439013
 20
-59.1077145794
 10
-46.9114459659
 20
-59.1431053843
 10
-46.8770782986
 20
-59.1767650794
 10
-46.8421363725
 20
-59.2086799092
 10
-46.8066247145
 20
-59.238863629
 10
-46.7708247544
 20
-59.2670770332
 10
-46.7348303019
 20
-59.2932403864
 10
-46.6985475473
 20
-59.3174334239
 10
-46.6619764905
 20
-59.3396561458
  0
LWPOLYLINE
  5
288
100
AcDbEntity
  8
0
100
AcDbPolyline
 62
7
  6
CONTINUOUS
 90
25
 70
0
 10
-55.4301005772
 20
-33.3082109611
 10
-55.4290202194
 20
-33.3536224083
 10
-55.4258636907
 20
-33.3998362843
 10
-55.4206309909
 20
-33.446852589
 10
-55.4132941903
 20
-33.4948160192
 10
-55.4038812187
 20
-33.5435818782
 10
-55.3924758658
 20
-33.5927160756
 10
-55.3790603438
 20
-33.6422219
 10
-55.3636524405
 20
-33.6920960628
 10
-55.3463893098
 20
-33.7418946082
 10
-55.3272543881
 20
-33.791616861
 10
-55.3062642389
 20
-33.8412634964
 10
-55.2836057066
 20
-33.8903925838
 10
-55.2592638957
 20
-33.9389995026
 10
-55.2332537016
 20
-33.9870888733
 10
-55.2058066546
 20
-34.0342326276
 10
-55.1769099264
 20
-34.0804223228
 10
-55.1465763453
 20
-34.1256664016
 10
-55.1150759263
 20
-34.1695621227
 10
-55.0823982517
 20
-34.212097448
 10
-55.0485537393
 20
-34.2532844158
 10
-55.0138436565
 20
-34.2927563993
 10
-54.978368426
 20
-34.3303911896
 10
-54.9420276252
 20
-34.3663109957
 10
-54.8264928499
 20
-34.4720806266
  0
LWPOLYLINE
  5
289
100
AcDbEntity
  8
0
100
AcDbPolyline
 62
7
  6
CONTINUOUS
 90
25
 70
0
 10
-55.4301005772
 20
121.8211416296
 10
-55.4290202194
 20
121.7757301823
 10
-55.4258636907
 20
121.7295163064
 10
-55.4206309909
 20
121.6825000017
 10
-55.4132941903
 20
121.6345365714
 10
-55.4038812187
 20
121.5857707125
 10
-55.3924758658
 20
121.536636515
 10
-55.3790603438
 20
121.4871306907
 10
-55.3636524405
 20
121.4372565278
 10
-55.3463893098
 20
121.3874579824
 10
-55.3272543881
 20
121.3377357296
 10
-55.3062642389
 20
121.2880890942
 10
-55.2836057066
 20
121.2389600068
 10
-55.2592638957
 20
121.1903530881
 10
-55.2332537016
 20
121.1422637173
 10
-55.2058066546
 20
121.0951199631
 10
-55.1769099264
 20
121.0489302678
 10
-55.1465763453
 20
121.0036861891
 10
-55.1150759263
 20
120.959790468
 10
-55.0823982517
 20
120.9172551426
 10
-55.0485537393
 20
120.8760681749
 10
-55.0138436565
 20
120.8365961914
 10
-54.978368426
 20
120.798961401
 10
-54.9420276252
 20
120.7630415949
 10
-54.8264928499
 20
120.657271964
  0
LWPOLYLINE
  5
28A
100
AcDbEntity
  8
0
100
AcDbPolyline
 62
7
  6
CONTINUOUS
 90
31
 70
0
 10
-55.4301005772
 20
-53.4605809117
 10
-55.4291094639
 20
-53.5040773086
 10
-55.4262075779
 20
-53.5483275182
 10
-55.4213949194
 20
-53.5933315404
 10
-55.4146478657
 20
-53.6392166278
 10
-55.4059900393
 20
-53.6858555278
 10
-55.395492308
 20
-53.7328664836
 10
-55.3831395701
 20
-53.7802525487
 10
-55.3689469272
 20
-53.8280106695
 10
-55.3530305514
 20
-53.8757499277
 10
-55.3353762947
 20
-53.9234701685
 10
-55.3159983051
 20
-53.9711715466
 10
-55.2950551988
 20
-54.0184636083
 10
-55.2725341298
 20
-54.065342994
 10
-55.248447944
 20
-54.1118130632
 10
-55.222993796
 20
-54.1574934409
 10
-55.196160458
 20
-54.2023776454
 10
-55.1679591578
 20
-54.2464721584
 10
-55.1386207338
 20
-54.2894160495
 10
-55.1081358527
 20
-54.3311998748
 10
-55.0765138477
 20
-54.3718330783
 10
-55.044013557
 20
-54.4109830618
 10
-55.0106277717
 20
-54.4486376515
 10
-54.9763637007
 20
-54.4848090211
 10
-54.9415018083
 20
-54.5192010945
 10
-54.9060371877
 20
-54.5517992674
 10
-54.8699747457
 20
-54.5826181441
 10
-54.8336096671
 20
-54.6114054603
 10
-54.7970403467
 20
-54.638077128
 10
-54.7601683897
 20
-54.6627172351
 10
-54.722993796
 20
-54.6853257819
  0
LWPOLYLINE
  5
28B
100
AcDbEntity
  8
ASSI
100
AcDbPolyline
 62
7
  6
CONTINUOUS
 90
46
 70
0
 10
-47.0508852202
 20
-75.8529036134
 10
-47.0522232232
 20
-75.7941834777
 10
-47.0561407692
 20
-75.7344456948
 10
-47.0626378583
 20
-75.6736902647
 10
-47.0717463808
 20
-75.6117453968
 10
-47.0834344463
 20
-75.5487828817
 10
-47.0976063836
 20
-75.4853180915
 10
-47.1142825798
 20
-75.4213469035
 10
-47.1334426477
 20
-75.3568734404
 10
-47.1549297551
 20
-75.2924254418
 10
-47.1787630016
 20
-75.2280031168
 10
-47.2049232875
 20
-75.1636062563
 10
-47.233196481
 20
-75.099761973
 10
-47.2635999242
 20
-75.0364748024
 10
-47.296116275
 20
-74.9737402089
 10
-47.3304793748
 20
-74.9120716991
 10
-47.3667043811
 20
-74.851478023
 10
-47.4047761363
 20
-74.7919504305
 10
-47.4443830088
 20
-74.7339761774
 10
-47.4855375983
 20
-74.6775680132
 10
-47.528227305
 20
-74.6227131886
 10
-47.5721026975
 20
-74.5698607108
 10
-47.6171735076
 20
-74.5190270148
 10
-47.6634300035
 20
-74.4701956658
 10
-47.7104935583
 20
-74.4237663668
 10
-47.758370796
 20
-74.3797588332
 10
-47.8070550927
 20
-74.3381533497
 10
-47.8561479488
 20
-74.2992904729
 10
-47.9056527178
 20
-74.2631927134
 10
-47.9555660463
 20
-74.2298375605
 10
-48.0054793748
 20
-74.1994980388
 10
-48.0553927032
 20
-74.1721988999
 10
-48.1053060317
 20
-74.1479153922
 10
-48.1548108007
 20
-74.1268462854
 10
-48.2039036568
 20
-74.1090179625
 10
-48.2525879535
 20
-74.0944040405
 10
-48.3004651913
 20
-74.0831241399
 10
-48.347528746
 20
-74.0752056256
 10
-48.3937852419
 20
-74.0706211326
 10
-48.4388560521
 20
-74.0694081868
 10
-48.4827314445
 20
-74.0715944611
 10
-48.5254211512
 20
-74.0771522826
 10
-48.5665757408
 20
-74.0860361583
 10
-48.6061826132
 20
-74.0982733879
 10
-48.6442543684
 20
-74.1138366717
 10
-48.6805119909
 20
-74.1326174489
  0
LWPOLYLINE
  5
28C
100
AcDbEntity
  8
ASSI
100
AcDbPolyline
 62
7
  6
CONTINUOUS
 90
53
 70
0
 10
-48.0054793748
 20
-67.3411477137
 10
-48.0038021958
 20
-67.4260158618
 10
-47.9988626727
 20
-67.5122498968
 10
-47.9906608056
 20
-67.5998498186
 10
-47.9791661137
 20
-67.6890025948
 10
-47.9644090776
 20
-67.7795212579
 10
-47.9464811402
 20
-67.8708449049
 10
-47.925362612
 20
-67.9629785343
 10
-47.9010731825
 20
-68.0559171477
 10
-47.873763362
 20
-68.1490848469
 10
-47.8434143959
 20
-68.2424830544
 10
-47.8100450389
 20
-68.3361103476
 10
-47.7738620657
 20
-68.429386561
 10
-47.7348480055
 20
-68.5223095146
 10
-47.693020329
 20
-68.6148813883
 10
-47.6486382234
 20
-68.7065285566
 10
-47.6016858271
 20
-68.7972452775
 10
-47.5521790017
 20
-68.8870372929
 10
-47.5004245183
 20
-68.9753482026
 10
-47.4464084204
 20
-69.06216881
 10
-47.3901446644
 20
-69.1475083117
 10
-47.3319818914
 20
-69.2308378977
 10
-47.2719083094
 20
-69.3121450879
 10
-47.2099357103
 20
-69.3914423625
 10
-47.14644811
 20
-69.4682383524
 10
-47.0814361012
 20
-69.5425175262
 10
-47.0149090912
 20
-69.6142954154
 10
-46.9472793175
 20
-69.6831272452
 10
-46.8785399327
 20
-69.7489947222
 10
-46.8086977841
 20
-69.8119161398
 10
-46.7381856517
 20
-69.8715016026
 10
-46.6669993754
 20
-69.9277303965
 10
-46.5951431153
 20
-69.9806232355
 10
-46.5230621319
 20
-70.029852367
 10
-46.4507550298
 20
-70.0753950415
 10
-46.3782232044
 20
-70.1172740085
 10
-46.3059161023
 20
-70.155229763
 10
-46.2338351189
 20
-70.1892379444
 10
-46.1619788588
 20
-70.2193229134
 10
-46.0907925825
 20
-70.2452982471
 10
-46.0202804501
 20
-70.2671384273
 10
-45.9504383015
 20
-70.2848689722
 10
-45.8816989166
 20
-70.2983800138
 10
-45.8140691429
 20
-70.3076453515
 10
-45.7475421329
 20
-70.3126911859
 10
-45.6825301242
 20
-70.3134862502
 10
-45.6190425238
 20
-70.3100041498
 10
-45.5570699247
 20
-70.3022712793
 10
-45.4969963428
 20
-70.2903355557
 10
-45.4388335697
 20
-70.2741708821
 10
-45.3825698138
 20
-70.2538033554
 10
-45.3285537159
 20
-70.229359184
 10
-45.2894399283
 20
-70.2082823666
  0
LWPOLYLINE
  5
28D
100
AcDbEntity
  8
ASSI
100
AcDbPolyline
 62
7
  6
CONTINUOUS
 90
38
 70
0
 10
-46.5912658124
 20
-66.5245985271
 10
-46.5895886334
 20
-66.6094666752
 10
-46.5846491103
 20
-66.6957007101
 10
-46.5764472433
 20
-66.7833006319
 10
-46.5649525513
 20
-66.8724534082
 10
-46.5501955153
 20
-66.9629720712
 10
-46.5322675778
 20
-67.0542957182
 10
-46.5111490497
 20
-67.1464293477
 10
-46.4868596201
 20
-67.2393679611
 10
-46.4595497996
 20
-67.3325356603
 10
-46.4292008335
 20
-67.4259338677
 10
-46.3958314765
 20
-67.519561161
 10
-46.3596485033
 20
-67.6128373744
 10
-46.3206344431
 20
-67.7057603279
 10
-46.2788067666
 20
-67.7983322017
 10
-46.234424661
 20
-67.8899793699
 10
-46.1874722648
 20
-67.9806960908
 10
-46.1379654393
 20
-68.0704881062
 10
-46.0862109559
 20
-68.158799016
 10
-46.032194858
 20
-68.2456196233
 10
-45.9759311021
 20
-68.330959125
 10
-45.917768329
 20
-68.4142887111
 10
-45.8576947471
 20
-68.4955959013
 10
-45.795722148
 20
-68.5748931758
 10
-45.7322345476
 20
-68.6516891657
 10
-45.6672225389
 20
-68.7259683396
 10
-45.6006955289
 20
-68.7977462288
 10
-45.5330657552
 20
-68.8665780585
 10
-45.4643263703
 20
-68.9324455356
 10
-45.3944842217
 20
-68.9953669532
 10
-45.3239720893
 20
-69.054952416
 10
-45.252785813
 20
-69.1111812098
 10
-45.1809295529
 20
-69.1640740489
 10
-45.1088485695
 20
-69.2133031803
 10
-45.0365414674
 20
-69.2588458549
 10
-44.964009642
 20
-69.3007248218
 10
-44.8917025399
 20
-69.3386805764
 10
-44.8327054916
 20
-69.3665156894
  0
LWPOLYLINE
  5
28E
100
AcDbEntity
  8
ASSI
100
AcDbPolyline
 62
7
  6
CONTINUOUS
 90
53
 70
0
 10
-44.8234988594
 20
-67.1372076917
 10
-44.8251760384
 20
-67.0523395436
 10
-44.8301155615
 20
-66.9661055086
 10
-44.8383174285
 20
-66.8785055868
 10
-44.8498121205
 20
-66.7893528106
 10
-44.8645691565
 20
-66.6988341476
 10
-44.882497094
 20
-66.6075105005
 10
-44.9036156221
 20
-66.5153768711
 10
-44.9279050517
 20
-66.4224382577
 10
-44.9552148722
 20
-66.3292705585
 10
-44.9855638383
 20
-66.2358723511
 10
-45.0189331953
 20
-66.1422450578
 10
-45.0551161685
 20
-66.0489688444
 10
-45.0941302287
 20
-65.9560458908
 10
-45.1359579052
 20
-65.8634740171
 10
-45.1803400108
 20
-65.7718268489
 10
-45.227292407
 20
-65.6811101279
 10
-45.2767992325
 20
-65.5913181126
 10
-45.3285537159
 20
-65.5030072028
 10
-45.3825698138
 20
-65.4161865955
 10
-45.4388335697
 20
-65.3308470938
 10
-45.4969963428
 20
-65.2475175077
 10
-45.5570699247
 20
-65.1662103175
 10
-45.6190425238
 20
-65.086913043
 10
-45.6825301242
 20
-65.0101170531
 10
-45.7475421329
 20
-64.9358378792
 10
-45.8140691429
 20
-64.86405999
 10
-45.8816989166
 20
-64.7952281603
 10
-45.9504383015
 20
-64.7293606832
 10
-46.0202804501
 20
-64.6664392656
 10
-46.0907925825
 20
-64.6068538028
 10
-46.1619788588
 20
-64.5506250089
 10
-46.2338351189
 20
-64.4977321699
 10
-46.3059161023
 20
-64.4485030385
 10
-46.3782232044
 20
-64.4029603639
 10
-46.4507550298
 20
-64.3610813969
 10
-46.5230621319
 20
-64.3231256424
 10
-46.5951431153
 20
-64.289117461
 10
-46.6669993754
 20
-64.259032492
 10
-46.7381856517
 20
-64.2330571583
 10
-46.8086977841
 20
-64.2112169781
 10
-46.8785399327
 20
-64.1934864332
 10
-46.9472793175
 20
-64.1799753916
 10
-47.0149090912
 20
-64.1707100539
 10
-47.0814361012
 20
-64.1656642195
 10
-47.14644811
 20
-64.1648691552
 10
-47.2099357103
 20
-64.1683512557
 10
-47.2719083094
 20
-64.1760841262
 10
-47.3319818914
 20
-64.1880198497
 10
-47.3901446644
 20
-64.2041845234
 10
-47.4464084204
 20
-64.22455205
 10
-47.5004245183
 20
-64.2489962214
 10
-47.5395383058
 20
-64.2700730388
  0
LINE
  5
28F
100
AcDbEntity
  8
0
100
AcDbLine
 62
7
  6
CONTINUOUS
 10
-56.8443141396
 20
-54.2771300984
 11
-56.8443141396
 21
-39.6478662577
  0
LINE
  5
290
100
AcDbEntity
  8
0
100
AcDbLine
 62
7
  6
CONTINUOUS
 10
-56.8443141396
 20
-34.1247601477
 11
-56.8443141396
 21
115.481486333
  0
LINE
  5
291
100
AcDbEntity
  8
0
100
AcDbLine
 62
7
  6
CONTINUOUS
 10
-56.8443141396
 20
121.0045924429
 11
-56.8443141396
 21
131.8780930104
  0
LINE
  5
292
100
AcDbEntity
  8
0
100
AcDbLine
 62
7
  6
CONTINUOUS
 10
-55.4301005772
 20
-53.4605809117
 11
-55.4301005772
 21
-39.0382167791
  0
LINE
  5
293
100
AcDbEntity
  8
0
100
AcDbLine
 62
7
  6
CONTINUOUS
 10
-55.4301005772
 20
-33.3082109611
 11
-55.4301005772
 21
116.0911358115
  0
LINE
  5
294
100
AcDbEntity
  8
0
100
AcDbLine
 62
7
  6
CONTINUOUS
 10
-55.4301005772
 20
121.8211416296
 11
-55.4301005772
 21
131.1044543636
  0
LINE
  5
295
100
AcDbEntity
  8
RACCORDO
100
AcDbLine
 62
7
  6
CONTINUOUS
 10
-54.6664252535
 20
130.6128123487
 11
-54.6664252535
 21
120.4962416993
  0
LINE
  5
296
100
AcDbEntity
  8
RACCORDO
100
AcDbLine
 62
7
  6
CONTINUOUS
 10
-54.6664252535
 20
116.5320723723
 11
-54.6664252535
 21
-34.6331108914
  0
LINE
  5
297
100
AcDbEntity
  8
RACCORDO
100
AcDbLine
 62
7
  6
CONTINUOUS
 10
-54.6664252535
 20
-38.5972802183
 11
-54.6664252535
 21
-54.7179877493
  0
LINE
  5
298
100
AcDbEntity
  8
ASSI
100
AcDbLine
 62
7
  6
CONTINUOUS
 10
-48.0054793748
 20
-67.3411477137
 11
-48.0054793748
 21
-65.2999720217
  0
LINE
  5
299
100
AcDbEntity
  8
ASSI
100
AcDbLine
 62
7
  6
CONTINUOUS
 10
-46.5912658124
 20
-66.5245985271
 11
-46.5912658124
 21
-64.4834228351
  0
LWPOLYLINE
  5
29A
100
AcDbEntity
  8
0
100
AcDbPolyline
 62
7
  6
CONTINUOUS
 90
16
 70
0
 10
-56.8443141396
 20
-39.6478662577
 10
-56.8432337818
 20
-39.6037023805
 10
-56.840077253
 20
-39.5611335849
 10
-56.8348445533
 20
-39.5201598706
 10
-56.8275077527
 20
-39.4806687939
 10
-56.818094781
 20
-39.4427727986
 10
-56.8066894282
 20
-39.4068092168
 10
-56.7932739061
 20
-39.372795301
 10
-56.7778660029
 20
-39.3407137987
 10
-56.7606028721
 20
-39.3108502839
 10
-56.7414679504
 20
-39.283224559
 10
-56.7204778013
 20
-39.2578168217
 10
-56.697819269
 20
-39.2348532395
 10
-56.6734774581
 20
-39.2143556338
 10
-56.647467264
 20
-39.1963021832
 10
-56.6372278854
 20
-39.1901356863
  0
LWPOLYLINE
  5
29B
100
AcDbEntity
  8
0
100
AcDbPolyline
 62
7
  6
CONTINUOUS
 90
46
 70
0
 10
15.1871309535
 20
75.2097310694
 10
15.2198369263
 20
75.229620513
 10
15.2743551897
 20
75.2676814598
 10
15.3261643717
 20
75.310272354
 10
15.374937035
 20
75.3571238539
 10
15.4206539455
 20
75.4082629385
 10
15.4633343373
 20
75.4636626289
 10
15.5027084758
 20
75.5229726462
 10
15.5387554204
 20
75.586217751
 10
15.5714961118
 20
75.6533731826
 10
15.6007236378
 20
75.7240143811
 10
15.6264157487
 20
75.7981634184
 10
15.6485946942
 20
75.8757982226
 10
15.667120312
 20
75.9564280172
 10
15.6819694653
 20
76.0400717672
 10
15.6931652909
 20
76.1267105076
 10
15.700637036
 20
76.2157965677
 10
15.7043611165
 20
76.3073454451
 10
15.7043611165
 20
76.401341642
 10
15.700637036
 20
76.4971909942
 10
15.6931652909
 20
76.5949052382
 10
15.6819694653
 20
76.6944726374
 10
15.667120312
 20
76.7952638174
 10
15.6485946942
 20
76.8972865311
 10
15.6264157487
 20
77.0005330256
 10
15.6007236378
 20
77.1043506686
 10
15.5714961118
 20
77.2087430815
 10
15.5387554204
 20
77.3137066429
 10
15.5027084758
 20
77.4185778556
 10
15.4633343373
 20
77.5233561413
 10
15.4206539455
 20
77.6280420782
 10
15.374937035
 20
77.7319739051
 10
15.3261643717
 20
77.8351468541
 10
15.2743551897
 20
77.937565693
 10
15.2198369263
 20
78.0385829639
 10
15.162592419
 20
78.1381897997
 10
15.1026388302
 20
78.2363950675
 10
15.0403550846
 20
78.33257791
 10
14.9757264174
 20
78.4267255292
 10
14.9087675934
 20
78.5188507231
 10
14.8399018313
 20
78.6083710286
 10
14.7691170446
 20
78.6952699592
 10
14.6964253199
 20
78.7795640014
 10
14.6222861354
 20
78.8607201523
 10
14.5468526508
 20
78.9385607441
 10
14.4699717063
 20
79.0132634446
  0
LWPOLYLINE
  5
29C
100
AcDbEntity
  8
0
100
AcDbPolyline
 62
7
  6
CONTINUOUS
 90
46
 70
0
 10
16.6013445159
 20
76.026280256
 10
16.6340504887
 20
76.0461696997
 10
16.6885687521
 20
76.0842306464
 10
16.7403779341
 20
76.1268215406
 10
16.7891505974
 20
76.1736730405
 10
16.8348675078
 20
76.2248121252
 10
16.8775478996
 20
76.2802118156
 10
16.9169220382
 20
76.3395218329
 10
16.9529689828
 20
76.4027669376
 10
16.9857096741
 20
76.4699223693
 10
17.0149372002
 20
76.5405635677
 10
17.040629311
 20
76.6147126051
 10
17.0628082566
 20
76.6923474092
 10
17.0813338744
 20
76.7729772038
 10
17.0961830277
 20
76.8566209538
 10
17.1073788533
 20
76.9432596943
 10
17.1148505984
 20
77.0323457543
 10
17.1185746788
 20
77.1238946317
 10
17.1185746788
 20
77.2178908287
 10
17.1148505984
 20
77.3137401808
 10
17.1073788533
 20
77.4114544248
 10
17.0961830277
 20
77.511021824
 10
17.0813338744
 20
77.6118130041
 10
17.0628082566
 20
77.7138357177
 10
17.040629311
 20
77.8170822123
 10
17.0149372002
 20
77.9208998552
 10
16.9857096741
 20
78.0252922682
 10
16.9529689828
 20
78.1302558295
 10
16.9169220382
 20
78.2351270423
 10
16.8775478996
 20
78.3399053279
 10
16.8348675078
 20
78.4445912649
 10
16.7891505974
 20
78.5485230918
 10
16.7403779341
 20
78.6516960408
 10
16.6885687521
 20
78.7541148797
 10
16.6340504887
 20
78.8551321505
 10
16.5768059814
 20
78.9547389864
 10
16.5168523926
 20
79.0529442541
 10
16.454568647
 20
79.1491270966
 10
16.3899399798
 20
79.2432747158
 10
16.3229811557
 20
79.3353999097
 10
16.2541153936
 20
79.4249202153
 10
16.183330607
 20
79.5118191459
 10
16.1106388822
 20
79.5961131881
 10
16.0364996978
 20
79.677269339
 10
15.9610662131
 20
79.7551099308
 10
15.8841852687
 20
79.8298126312
  0
LINE
  5
29D
100
AcDbEntity
  8
0
100
AcDbLine
 62
253
  6
CONTINUOUS
 10
13.8663639791
 20
74.6540270002
 11
14.6333180379
 21
75.0968566615
  0
LINE
  5
29E
100
AcDbEntity
  8
ASSI
100
AcDbLine
 62
7
  6
CONTINUOUS
 10
16.6013486199
 20
76.0262731463
 11
15.1871350575
 21
75.2097239596
  0
LWPOLYLINE
  5
29F
100
AcDbEntity
  8
0
100
AcDbPolyline
 62
7
  6
CONTINUOUS
 90
13
 70
0
 10
-56.3190348164
 20
-39.162140797
 10
-56.2407064123
 20
-39.1810276656
 10
-56.1638254679
 20
-39.1951051527
 10
-56.0883919832
 20
-39.2043732582
 10
-56.0142527988
 20
-39.2088311791
 10
-55.9415610741
 20
-39.2084797185
 10
-55.8707762874
 20
-39.2033212853
 10
-55.8019105253
 20
-39.1933254356
 10
-55.7349517012
 20
-39.1785226134
 10
-55.670323034
 20
-39.1590065591
 10
-55.6080392884
 20
-39.1347474248
 10
-55.5480856997
 20
-39.1057750586
 10
-55.5235471651
 20
-39.0921621885
  0
LWPOLYLINE
  5
2A0
100
AcDbEntity
  8
0
100
AcDbPolyline
 62
7
  6
CONTINUOUS
 90
25
 70
0
 10
-0.8793793719
 20
-71.1459640583
 10
-0.7638445967
 20
-71.2517336893
 10
-0.7275037959
 20
-71.2876534954
 10
-0.6920285654
 20
-71.3252882857
 10
-0.6573184826
 20
-71.3647602692
 10
-0.6234739701
 20
-71.4059472369
 10
-0.5907962956
 20
-71.4484825623
 10
-0.5592958766
 20
-71.4923782834
 10
-0.5289622955
 20
-71.5376223622
 10
-0.5000655673
 20
-71.5838120574
 10
-0.4726185202
 20
-71.6309558116
 10
-0.4466083262
 20
-71.6790451824
 10
-0.4222665153
 20
-71.7276521011
 10
-0.3996079829
 20
-71.7767811885
 10
-0.3786178338
 20
-71.8264278239
 10
-0.3594829121
 20
-71.8761500768
 10
-0.3422197814
 20
-71.9259486222
 10
-0.3268118781
 20
-71.975822785
 10
-0.313396356
 20
-72.0253286094
 10
-0.3019910032
 20
-72.0744628068
 10
-0.2925780316
 20
-72.1232286658
 10
-0.2852412309
 20
-72.171192096
 10
-0.2800085312
 20
-72.2182084007
 10
-0.2768520024
 20
-72.2644222767
 10
-0.2757716447
 20
-72.3098337239
  0
LWPOLYLINE
  5
2A1
100
AcDbEntity
  8
0
100
AcDbPolyline
 62
7
  6
CONTINUOUS
 90
25
 70
0
 10
14.4699717063
 20
-76.1160891461
 10
14.3544369311
 20
-76.0103195151
 10
14.3180961303
 20
-75.974399709
 10
14.2826208998
 20
-75.9367649187
 10
14.247910817
 20
-75.8972929352
 10
14.2140663045
 20
-75.8561059675
 10
14.18138863
 20
-75.8135706421
 10
14.149888211
 20
-75.769674921
 10
14.1195546299
 20
-75.7244308422
 10
14.0906579017
 20
-75.678241147
 10
14.0632108547
 20
-75.6310973928
 10
14.0372006606
 20
-75.583008022
 10
14.0128588497
 20
-75.5344011033
 10
13.9902003173
 20
-75.4852720159
 10
13.9692101682
 20
-75.4356253805
 10
13.9500752465
 20
-75.3859031276
 10
13.9328121158
 20
-75.3361045822
 10
13.9174042125
 20
-75.2862304194
 10
13.9039886904
 20
-75.236724595
 10
13.8925833376
 20
-75.1875903976
 10
13.883170366
 20
-75.1388245386
 10
13.8758335653
 20
-75.0908611084
 10
13.8706008656
 20
-75.0438448037
 10
13.8674443368
 20
-74.9976309277
 10
13.8663639791
 20
-74.9522194805
  0
LINE
  5
2A2
100
AcDbEntity
  8
ASSI
100
AcDbLine
 62
7
  6
CONTINUOUS
 10
-44.8234988594
 20
-67.1372076917
 11
-44.8234988594
 21
-69.1783833837
  0
LWPOLYLINE
  5
2A3
100
AcDbEntity
  8
ASSI
100
AcDbPolyline
 62
7
  6
CONTINUOUS
 90
4
 70
0
 10
-46.5820591802
 20
-64.2952905294
 10
-46.5846491103
 20
-64.3199614537
 10
-46.5895886334
 20
-64.4004914512
 10
-46.5912658124
 20
-64.4834228351
  0
LINE
  5
2A4
100
AcDbEntity
  8
ASSI
100
AcDbLine
 62
253
  6
CONTINUOUS
 10
72.5562268176
 20
81.658029645
 11
54.2775165239
 21
71.1041314075
  0
LWPOLYLINE
  5
2A5
100
AcDbEntity
  8
0
100
AcDbPolyline
 62
253
  6
CONTINUOUS
 90
18
 70
0
 10
72.5562268176
 20
81.658029645
 10
72.6571633036
 20
81.7135347554
 10
72.757871136
 20
81.7633654254
 10
72.8581221792
 20
81.8074087727
 10
72.9576893323
 20
81.8455650249
 10
73.0563470436
 20
81.8777477458
 10
73.1538718218
 20
81.9038840311
 10
73.2500427419
 20
81.9239146739
 10
73.3446419457
 20
81.9377942982
 10
73.4374551357
 20
81.9454914622
 10
73.5282720601
 20
81.9469887295
 10
73.6168869893
 20
81.9422827081
 10
73.7030991822
 20
81.9313840587
 10
73.7867133402
 20
81.9143174704
 10
73.8675400506
 20
81.8911216043
 10
73.9453962147
 20
81.8618490067
 10
74.0201054633
 20
81.8265659892
 10
74.056299298
 20
81.8066531781
  0
LWPOLYLINE
  5
2A6
100
AcDbEntity
  8
0
100
AcDbPolyline
 62
7
  6
CONTINUOUS
 90
4
 70
0
 10
69.8312987467
 20
-111.9734233911
 10
69.946833522
 20
-112.079193022
 10
69.9831743228
 20
-112.1151128281
 10
70.0106424053
 20
-112.1442530342
  0
LWPOLYLINE
  5
2A7
100
AcDbEntity
  8
0
100
AcDbPolyline
 62
7
  6
CONTINUOUS
 90
34
 70
0
 10
-4.8466743381
 20
-83.0904642778
 10
-4.8947085708
 20
-82.999591523
 10
-4.9453577424
 20
-82.9103056957
 10
-4.9987698575
 20
-82.8223787144
 10
-5.0547969115
 20
-82.7360386607
 10
-5.1129948904
 20
-82.6519697787
 10
-5.1733810442
 20
-82.5701901153
 10
-5.235938123
 20
-82.4906816237
 10
-5.3001703621
 20
-82.4140744081
 10
-5.3660910725
 20
-82.3403915221
 10
-5.4336869434
 20
-82.2696099122
 10
-5.5024222779
 20
-82.2022905221
 10
-5.5723061302
 20
-82.1384608626
 10
-5.6433294462
 20
-82.0780934229
 10
-5.7149293664
 20
-82.0216666145
 10
-5.7871104728
 20
-81.9692117498
 10
-5.8598681835
 20
-81.9206975164
 10
-5.9326258942
 20
-81.8765083893
 10
-6.0053836048
 20
-81.8366787358
 10
-6.0781413155
 20
-81.8011741886
 10
-6.1503224219
 20
-81.7702761211
 10
-6.2219223422
 20
-81.7440211362
 10
-6.2929456581
 20
-81.7223726309
 10
-6.3628295104
 20
-81.7055021695
 10
-6.4315648449
 20
-81.6934477182
 10
-6.4991607158
 20
-81.6861713109
 10
-6.5650814262
 20
-81.6837306128
 10
-6.6293136654
 20
-81.6861640486
 10
-6.6918707441
 20
-81.6934331938
 10
-6.7522568979
 20
-81.7054804404
 10
-6.8104548768
 20
-81.7223437551
 10
-6.8664819308
 20
-81.7439851712
 10
-6.9198940459
 20
-81.7702331808
 10
-6.9326737342
 20
-81.7774268657
  0
LWPOLYLINE
  5
2A8
100
AcDbEntity
  8
0
100
AcDbPolyline
 62
7
  6
CONTINUOUS
 90
35
 70
0
 10
-6.1927589597
 20
-84.0457029879
 10
-6.2608879005
 20
-83.9070134644
 10
-6.3089221332
 20
-83.8161407096
 10
-6.3595713047
 20
-83.7268548823
 10
-6.4129834199
 20
-83.6389279011
 10
-6.4690104739
 20
-83.5525878473
 10
-6.5272084527
 20
-83.4685189654
 10
-6.5875946066
 20
-83.386739302
 10
-6.6501516853
 20
-83.3072308104
 10
-6.7143839245
 20
-83.2306235948
 10
-6.7803046349
 20
-83.1569407088
 10
-6.8479005058
 20
-83.0861590989
 10
-6.9166358403
 20
-83.0188397088
 10
-6.9865196926
 20
-82.9550100492
 10
-7.0575430085
 20
-82.8946426095
 10
-7.1291429288
 20
-82.8382158012
 10
-7.2013240352
 20
-82.7857609364
 10
-7.2740817458
 20
-82.737246703
 10
-7.3468394565
 20
-82.693057576
 10
-7.4195971672
 20
-82.6532279225
 10
-7.4923548779
 20
-82.6177233753
 10
-7.5645359842
 20
-82.5868253078
 10
-7.6361359045
 20
-82.5605703229
 10
-7.7071592205
 20
-82.5389218176
 10
-7.7770430728
 20
-82.5220513562
 10
-7.8457784073
 20
-82.5099969049
 10
-7.9133742781
 20
-82.5027204975
 10
-7.9792949886
 20
-82.5002797995
 10
-8.0435272277
 20
-82.5027132353
 10
-8.1060843064
 20
-82.5099823804
 10
-8.1664704603
 20
-82.522029627
 10
-8.2246684392
 20
-82.5388929417
 10
-8.2806954932
 20
-82.5605343579
 10
-8.3341076083
 20
-82.5867823674
 10
-8.3468872965
 20
-82.5939760523
  0
LWPOLYLINE
  5
2A9
100
AcDbEntity
  8
0
100
AcDbPolyline
 62
7
  6
CONTINUOUS
 90
19
 70
0
 10
-4.8466743381
 20
-83.0904642778
 10
-4.7785453973
 20
-83.2291538012
 10
-4.754528281
 20
-83.2745901786
 10
-4.7292036952
 20
-83.3192330923
 10
-4.7024976376
 20
-83.3631965829
 10
-4.6744841106
 20
-83.4063666098
 10
-4.6453851212
 20
-83.4484010507
 10
-4.6151920443
 20
-83.4892908825
 10
-4.5839135049
 20
-83.5290451283
 10
-4.5517973853
 20
-83.567348736
 10
-4.5188370301
 20
-83.604190179
 10
-4.4850390947
 20
-83.639580984
 10
-4.4506714274
 20
-83.6732406791
 10
-4.4157295013
 20
-83.7051555088
 10
-4.3802178433
 20
-83.7353392287
 10
-4.3444178832
 20
-83.7635526328
 10
-4.3084234307
 20
-83.7897159861
 10
-4.2721406761
 20
-83.8139090236
 10
-4.2355696193
 20
-83.8361317455
  0
LWPOLYLINE
  5
2AA
100
AcDbEntity
  8
ASSI
100
AcDbPolyline
 62
7
  6
CONTINUOUS
 90
55
 70
0
 10
-30.5045865404
 20
-77.6500614678
 10
-30.5027064866
 20
-77.7493940141
 10
-30.4971612064
 20
-77.8502856493
 10
-30.4879506999
 20
-77.9527363734
 10
-30.4750435204
 20
-78.0569468878
 10
-30.4584711144
 20
-78.1627164912
 10
-30.4383278223
 20
-78.269443079
 10
-30.4145932777
 20
-78.3771321094
 10
-30.3872878469
 20
-78.4857781244
 10
-30.3565669688
 20
-78.5947626451
 10
-30.3224111638
 20
-78.7040876024
 10
-30.2848399115
 20
-78.8137510655
 10
-30.2440670903
 20
-78.9231287638
 10
-30.2000744401
 20
-79.0322190675
 10
-30.152880221
 20
-79.1410236065
 10
-30.1027530908
 20
-79.2489229996
 10
-30.049676322
 20
-79.3559120845
 10
-29.9936666421
 20
-79.4619960235
 10
-29.9350428921
 20
-79.566570923
 10
-29.8737901628
 20
-79.6696281761
 10
-29.8099233634
 20
-79.7711763896
 10
-29.7438060622
 20
-79.8706374897
 10
-29.6754254237
 20
-79.9679995729
 10
-29.6047942833
 20
-80.0632745428
 10
-29.5323147163
 20
-80.1559200367
 10
-29.4579761801
 20
-80.2459210577
 10
-29.3817892173
 20
-80.3332926028
 10
-29.3041875298
 20
-80.4175373004
 10
-29.2251630491
 20
-80.4986373168
 10
-29.1447238437
 20
-80.5766104858
 10
-29.0633278223
 20
-80.6510129369
 10
-28.9809695277
 20
-80.721824305
 10
-28.897654417
 20
-80.7890649552
 10
-28.8138567701
 20
-80.8523521134
 10
-28.7295738349
 20
-80.9116632309
 10
-28.6448083635
 20
-80.9670208563
 10
-28.5600428921
 20
-81.0181098606
 10
-28.4752774207
 20
-81.064905898
 10
-28.3905119493
 20
-81.1074333142
 10
-28.3062290141
 20
-81.1454500176
 10
-28.2224313672
 20
-81.1789302817
 10
-28.1391162565
 20
-81.2078998329
 10
-28.0567579619
 20
-81.2321937591
 10
-27.9753619405
 20
-81.2517853932
 10
-27.8949227352
 20
-81.2667014022
 10
-27.8158982544
 20
-81.2768568754
 10
-27.738296567
 20
-81.2822246613
 10
-27.6621096041
 20
-81.2828319112
 10
-27.587771068
 20
-81.2786751684
 10
-27.5152915009
 20
-81.2697272617
 10
-27.4446603606
 20
-81.2560153623
 10
-27.376279722
 20
-81.2376175265
 10
-27.3101624208
 20
-81.2145070284
 10
-27.2462956214
 20
-81.186710594
 10
-27.1849764518
 20
-81.1543480992
  0
LWPOLYLINE
  5
2AB
100
AcDbEntity
  8
ASSI
100
AcDbPolyline
 62
7
  6
CONTINUOUS
 90
43
 70
0
 10
-29.090372978
 20
-76.8335122811
 10
-29.0884929242
 20
-76.9328448274
 10
-29.082947644
 20
-77.0337364626
 10
-29.0737371375
 20
-77.1361871867
 10
-29.060829958
 20
-77.2403977012
 10
-29.0442575521
 20
-77.3461673045
 10
-29.02411426
 20
-77.4528938923
 10
-29.0003797153
 20
-77.5605829228
 10
-28.9730742845
 20
-77.6692289377
 10
-28.9423534065
 20
-77.7782134585
 10
-28.9081976014
 20
-77.8875384157
 10
-28.8706263492
 20
-77.9972018788
 10
-28.8298535279
 20
-78.1065795771
 10
-28.7858608778
 20
-78.2156698809
 10
-28.7386666586
 20
-78.3244744198
 10
-28.6885395284
 20
-78.432373813
 10
-28.6354627596
 20
-78.5393628978
 10
-28.5794530797
 20
-78.6454468369
 10
-28.5208293298
 20
-78.7500217363
 10
-28.4595766005
 20
-78.8530789894
 10
-28.395709801
 20
-78.9546272029
 10
-28.3295924998
 20
-79.0540883031
 10
-28.2612118613
 20
-79.1514503863
 10
-28.1905807209
 20
-79.2467253561
 10
-28.1181011539
 20
-79.3393708501
 10
-28.0437626177
 20
-79.4293718711
 10
-27.9675756549
 20
-79.5167434162
 10
-27.8899739675
 20
-79.6009881138
 10
-27.8109494867
 20
-79.6820881302
 10
-27.7305102814
 20
-79.7600612991
 10
-27.64911426
 20
-79.8344637503
 10
-27.5667559653
 20
-79.9052751183
 10
-27.4834408547
 20
-79.9725157686
 10
-27.3996432078
 20
-80.0358029267
 10
-27.3153602726
 20
-80.0951140443
 10
-27.2305948012
 20
-80.1504716697
 10
-27.1458293298
 20
-80.201560674
 10
-27.0610638583
 20
-80.2483567113
 10
-26.9762983869
 20
-80.2908841276
 10
-26.8920154517
 20
-80.328900831
 10
-26.8082178048
 20
-80.362381095
 10
-26.7249026942
 20
-80.3913506462
 10
-26.6740162785
 20
-80.4063610448
  0
LWPOLYLINE
  5
2AC
100
AcDbEntity
  8
ASSI
100
AcDbPolyline
 62
7
  6
CONTINUOUS
 90
55
 70
0
 10
-26.6154992439
 20
-77.8543960391
 10
-26.6173792977
 20
-77.7550634928
 10
-26.6229245778
 20
-77.6541718576
 10
-26.6321350843
 20
-77.5517211335
 10
-26.6450422639
 20
-77.4475106191
 10
-26.6616146698
 20
-77.3417410157
 10
-26.6817579619
 20
-77.2350144279
 10
-26.7054925065
 20
-77.1273253974
 10
-26.7327979374
 20
-77.0186793825
 10
-26.7635188154
 20
-76.9096948617
 10
-26.7976746205
 20
-76.8003699045
 10
-26.8352458727
 20
-76.6907064414
 10
-26.876018694
 20
-76.5813287431
 10
-26.9200113441
 20
-76.4722384394
 10
-26.9672055633
 20
-76.3634339004
 10
-27.0173326934
 20
-76.2555345073
 10
-27.0704094623
 20
-76.1485454224
 10
-27.1264191421
 20
-76.0424614833
 10
-27.1850428921
 20
-75.9378865839
 10
-27.2462956214
 20
-75.8348293308
 10
-27.3101624208
 20
-75.7332811173
 10
-27.376279722
 20
-75.6338200171
 10
-27.4446603606
 20
-75.536457934
 10
-27.5152915009
 20
-75.4411829641
 10
-27.587771068
 20
-75.3485374701
 10
-27.6621096041
 20
-75.2585364491
 10
-27.738296567
 20
-75.1711649041
 10
-27.8158982544
 20
-75.0869202064
 10
-27.8949227352
 20
-75.00582019
 10
-27.9753619405
 20
-74.9278470211
 10
-28.0567579619
 20
-74.8534445699
 10
-28.1391162565
 20
-74.7826332019
 10
-28.2224313672
 20
-74.7153925516
 10
-28.3062290141
 20
-74.6521053935
 10
-28.3905119493
 20
-74.592794276
 10
-28.4752774207
 20
-74.5374366505
 10
-28.5600428921
 20
-74.4863476463
 10
-28.6448083635
 20
-74.4395516089
 10
-28.7295738349
 20
-74.3970241926
 10
-28.8138567701
 20
-74.3590074892
 10
-28.897654417
 20
-74.3255272252
 10
-28.9809695277
 20
-74.296557674
 10
-29.0633278223
 20
-74.2722637478
 10
-29.1447238437
 20
-74.2526721137
 10
-29.2251630491
 20
-74.2377561046
 10
-29.3041875298
 20
-74.2276006315
 10
-29.3817892173
 20
-74.2222328456
 10
-29.4579761801
 20
-74.2216255957
 10
-29.5323147163
 20
-74.2257823385
 10
-29.6047942833
 20
-74.2347302452
 10
-29.6754254237
 20
-74.2484421446
 10
-29.7438060622
 20
-74.2668399804
 10
-29.8099233634
 20
-74.2899504784
 10
-29.8737901628
 20
-74.3177469128
 10
-29.9351093325
 20
-74.3501094077
  0
LINE
  5
2AD
100
AcDbEntity
  8
ASSI
100
AcDbLine
 62
7
  6
CONTINUOUS
 10
-30.5045865404
 20
-77.6500614678
 11
-30.5045865404
 21
-75.6088857758
  0
LINE
  5
2AE
100
AcDbEntity
  8
ASSI
100
AcDbLine
 62
7
  6
CONTINUOUS
 10
-29.090372978
 20
-76.8335122811
 11
-29.090372978
 21
-74.7923365891
  0
LINE
  5
2AF
100
AcDbEntity
  8
ASSI
100
AcDbLine
 62
7
  6
CONTINUOUS
 10
-26.6154992439
 20
-77.8543960391
 11
-26.6154992439
 21
-79.8955717311
  0
LINE
  5
2B0
100
AcDbEntity
  8
RACCORDO
100
AcDbLine
 62
253
  6
CONTINUOUS
 10
75.582643841
 20
80.9561840028
 11
75.4485581542
 21
80.8787646078
  0
LINE
  5
2B1
100
AcDbEntity
  8
ASSI
100
AcDbLine
 62
7
  6
CONTINUOUS
 10
-78.4988364047
 20
81.126765232
 11
-80.8646262489
 21
85.3615839681
  0
LINE
  5
2B2
100
AcDbEntity
  8
ASSI
100
AcDbLine
 62
7
  6
CONTINUOUS
 10
-77.0846228423
 20
80.3102160454
 11
-79.4504126866
 21
84.5450347814
  0
LWPOLYLINE
  5
2B3
100
AcDbEntity
  8
ASSI
100
AcDbPolyline
 62
7
  6
CONTINUOUS
 90
19
 70
0
 10
-80.8646262489
 20
85.3615839681
 10
-81.0551007883
 20
85.7174120195
 10
-81.2351388836
 20
86.084053332
 10
-81.4047405347
 20
86.4615079053
 10
-81.5640002227
 20
86.8500292586
 10
-81.7128234665
 20
87.2493638729
 10
-81.8509268232
 20
87.658751191
 10
-81.9782898632
 20
88.0782103712
 10
-82.0949330162
 20
88.5077222552
 10
-82.2006341281
 20
88.9464688115
 10
-82.2953723459
 20
89.3944676394
 10
-82.3791685227
 20
89.8517011397
 10
-82.4518630636
 20
90.3172984832
 10
-82.5134348113
 20
90.7912756097
 10
-82.563904923
 20
91.2736165795
 10
-82.6031772754
 20
91.763402745
 10
-82.6312198272
 20
92.2603278901
 10
-82.6480646197
 20
92.7646982309
 10
-82.6537116529
 20
93.2765137672
  0
LWPOLYLINE
  5
2B4
100
AcDbEntity
  8
ASSI
100
AcDbPolyline
 62
7
  6
CONTINUOUS
 90
19
 70
0
 10
-78.4988364047
 20
81.126765232
 10
-78.3464567732
 20
80.8421027908
 10
-78.202426297
 20
80.5487897409
 10
-78.0667449761
 20
80.2468260822
 10
-77.9393372257
 20
79.9360089996
 10
-77.8202786307
 20
79.6165413081
 10
-77.7097959453
 20
79.2890314537
 10
-77.6079055133
 20
78.9534641095
 10
-77.5145909909
 20
78.6098546023
 10
-77.4300301014
 20
78.2588573572
 10
-77.3542395271
 20
77.9004582949
 10
-77.2872025856
 20
77.5346714947
 10
-77.229046953
 20
77.1621936199
 10
-77.1797895548
 20
76.7830119187
 10
-77.1394134654
 20
76.3971391429
 10
-77.1079955835
 20
76.0053102105
 10
-77.0855615421
 20
75.6077700944
 10
-77.072085708
 20
75.2042738218
 10
-77.0675680815
 20
74.7948213927
  0
LWPOLYLINE
  5
2B5
100
AcDbEntity
  8
ASSI
100
AcDbPolyline
 62
7
  6
CONTINUOUS
 90
19
 70
0
 10
-79.4504126866
 20
84.5450347814
 10
-79.640887226
 20
84.9008628329
 10
-79.8209253212
 20
85.2675041453
 10
-79.9905269724
 20
85.6449587187
 10
-80.1497866603
 20
86.033480072
 10
-80.2986099041
 20
86.4328146862
 10
-80.4367132608
 20
86.8422020044
 10
-80.5640763009
 20
87.2616611845
 10
-80.6807194538
 20
87.6911730685
 10
-80.7864205657
 20
88.1299196249
 10
-80.8811587836
 20
88.5779184528
 10
-80.9649549604
 20
89.035151953
 10
-81.0376495012
 20
89.5007492966
 10
-81.0992212489
 20
89.9747264231
 10
-81.1496913606
 20
90.4570673929
 10
-81.188963713
 20
90.9468535583
 10
-81.2170062649
 20
91.4437787034
 10
-81.2338510574
 20
91.9481490442
 10
-81.2394980905
 20
92.4599645806
  0
LWPOLYLINE
  5
2B6
100
AcDbEntity
  8
ASSI
100
AcDbPolyline
 62
7
  6
CONTINUOUS
 90
19
 70
0
 10
-77.0846228423
 20
80.3102160454
 10
-76.9322432108
 20
80.0255536042
 10
-76.7882127346
 20
79.7322405542
 10
-76.6525314137
 20
79.4302768956
 10
-76.5251236633
 20
79.1194598129
 10
-76.4060650683
 20
78.7999921215
 10
-76.2955823829
 20
78.472482267
 10
-76.1936919509
 20
78.1369149229
 10
-76.1003774285
 20
77.7933054157
 10
-76.015816539
 20
77.4423081706
 10
-75.9400259647
 20
77.0839091083
 10
-75.8729890233
 20
76.7181223081
 10
-75.8148333906
 20
76.3456444332
 10
-75.7655759925
 20
75.966462732
 10
-75.7251999031
 20
75.5805899562
 10
-75.6937820212
 20
75.1887610238
 10
-75.6713479797
 20
74.7912209077
 10
-75.6578721457
 20
74.3877246351
 10
-75.6533545191
 20
73.978272206
  0
LWPOLYLINE
  5
2B7
100
AcDbEntity
  8
0
100
AcDbPolyline
 62
7
  6
CONTINUOUS
 90
34
 70
0
 10
22.023383347
 20
-100.2379971976
 10
21.9753491143
 20
-100.1471244428
 10
21.9246999427
 20
-100.0578386155
 10
21.8712878276
 20
-99.9699116342
 10
21.8152607736
 20
-99.8835715804
 10
21.7570627947
 20
-99.7995026985
 10
21.6966766409
 20
-99.7177230351
 10
21.6341195621
 20
-99.6382145435
 10
21.569887323
 20
-99.5616073279
 10
21.5039666125
 20
-99.4879244419
 10
21.4363707417
 20
-99.417142832
 10
21.3676354072
 20
-99.3498234419
 10
21.2977515549
 20
-99.2859937823
 10
21.2267282389
 20
-99.2256263426
 10
21.1551283186
 20
-99.1691995343
 10
21.0829472123
 20
-99.1167446695
 10
21.0101895016
 20
-99.0682304361
 10
20.9374317909
 20
-99.0240413091
 10
20.8646740802
 20
-98.9842116556
 10
20.7919163696
 20
-98.9487071084
 10
20.7197352632
 20
-98.9178090409
 10
20.6481353429
 20
-98.891554056
 10
20.577112027
 20
-98.8699055507
 10
20.5072281747
 20
-98.8530350893
 10
20.4384928402
 20
-98.840980638
 10
20.3708969693
 20
-98.8337042306
 10
20.3049762589
 20
-98.8312635326
 10
20.2407440197
 20
-98.8336969684
 10
20.178186941
 20
-98.8409661135
 10
20.1178007872
 20
-98.8530133601
 10
20.0596028083
 20
-98.8698766748
 10
20.0035757543
 20
-98.891518091
 10
19.9501636392
 20
-98.9177661005
 10
19.9373839509
 20
-98.9249597854
  0
LWPOLYLINE
  5
2B8
100
AcDbEntity
  8
0
100
AcDbPolyline
 62
7
  6
CONTINUOUS
 90
34
 70
0
 10
23.4375969094
 20
-99.4214480109
 10
23.3895626767
 20
-99.3305752561
 10
23.3389135051
 20
-99.2412894288
 10
23.28550139
 20
-99.1533624475
 10
23.229474336
 20
-99.0670223938
 10
23.1712763571
 20
-98.9829535119
 10
23.1108902032
 20
-98.9011738484
 10
23.0483331245
 20
-98.8216653568
 10
22.9841008853
 20
-98.7450581413
 10
22.9181801749
 20
-98.6713752553
 10
22.8505843041
 20
-98.6005936453
 10
22.7818489695
 20
-98.5332742552
 10
22.7119651172
 20
-98.4694445957
 10
22.6409418013
 20
-98.409077156
 10
22.569341881
 20
-98.3526503477
 10
22.4971607747
 20
-98.3001954829
 10
22.424403064
 20
-98.2516812495
 10
22.3516453533
 20
-98.2074921224
 10
22.2788876426
 20
-98.1676624689
 10
22.2061299319
 20
-98.1321579218
 10
22.1339488256
 20
-98.1012598542
 10
22.0623489053
 20
-98.0750048693
 10
21.9913255894
 20
-98.053356364
 10
21.9214417371
 20
-98.0364859026
 10
21.8527064026
 20
-98.0244314514
 10
21.7851105317
 20
-98.017155044
 10
21.7191898213
 20
-98.0147143459
 10
21.6549575821
 20
-98.0171477817
 10
21.5924005034
 20
-98.0244169269
 10
21.5320143495
 20
-98.0364641735
 10
21.4738163707
 20
-98.0533274882
 10
21.4177893167
 20
-98.0749689044
 10
21.3643772015
 20
-98.1012169139
 10
21.3515975133
 20
-98.1084105988
  0
LWPOLYLINE
  5
2B9
100
AcDbEntity
  8
0
100
AcDbPolyline
 62
7
  6
CONTINUOUS
 90
19
 70
0
 10
23.4375969094
 20
-99.4214480109
 10
23.5057258501
 20
-99.5601375343
 10
23.5297429665
 20
-99.6055739117
 10
23.5550675523
 20
-99.6502168254
 10
23.5817736098
 20
-99.694180316
 10
23.6097871368
 20
-99.7373503429
 10
23.6388861263
 20
-99.7793847838
 10
23.6690792032
 20
-99.8202746156
 10
23.7003577426
 20
-99.8600288614
 10
23.7324738621
 20
-99.8983324691
 10
23.7654342173
 20
-99.9351739121
 10
23.7992321528
 20
-99.9705647171
 10
23.83359982
 20
-100.0042244122
 10
23.8685417462
 20
-100.0361392419
 10
23.9040534042
 20
-100.0663229618
 10
23.9398533643
 20
-100.094536366
 10
23.9758478167
 20
-100.1206997192
 10
24.0121305714
 20
-100.1448927567
 10
24.0487016282
 20
-100.1671154786
  0
LWPOLYLINE
  5
2BA
100
AcDbEntity
  8
ASSI
100
AcDbPolyline
 62
7
  6
CONTINUOUS
 90
46
 70
0
 10
-8.1600122549
 20
-98.3080062465
 10
-8.1613502579
 20
-98.2492861107
 10
-8.1652678039
 20
-98.1895483278
 10
-8.171764893
 20
-98.1287928977
 10
-8.1808734155
 20
-98.0668480298
 10
-8.192561481
 20
-98.0038855147
 10
-8.2067334183
 20
-97.9404207245
 10
-8.2234096145
 20
-97.8764495365
 10
-8.2425696825
 20
-97.8119760734
 10
-8.2640567898
 20
-97.7475280749
 10
-8.2878900363
 20
-97.6831057498
 10
-8.3140503222
 20
-97.6187088894
 10
-8.3423235157
 20
-97.5548646061
 10
-8.372726959
 20
-97.4915774354
 10
-8.4052433098
 20
-97.428842842
 10
-8.4396064095
 20
-97.3671743321
 10
-8.4758314158
 20
-97.306580656
 10
-8.5139031711
 20
-97.2470530635
 10
-8.5535100435
 20
-97.1890788104
 10
-8.594664633
 20
-97.1326706463
 10
-8.6373543397
 20
-97.0778158216
 10
-8.6812297322
 20
-97.0249633438
 10
-8.7263005423
 20
-96.9741296478
 10
-8.7725570382
 20
-96.9252982988
 10
-8.819620593
 20
-96.8788689998
 10
-8.8674978308
 20
-96.8348614663
 10
-8.9161821274
 20
-96.7932559828
 10
-8.9652749836
 20
-96.7543931059
 10
-9.0147797526
 20
-96.7182953464
 10
-9.064693081
 20
-96.6849401935
 10
-9.1146064095
 20
-96.6546006718
 10
-9.164519738
 20
-96.6273015329
 10
-9.2144330664
 20
-96.6030180252
 10
-9.2639378354
 20
-96.5819489184
 10
-9.3130306915
 20
-96.5641205955
 10
-9.3617149882
 20
-96.5495066736
 10
-9.409592226
 20
-96.538226773
 10
-9.4566557808
 20
-96.5303082586
 10
-9.5029122767
 20
-96.5257237657
 10
-9.5479830868
 20
-96.5245108199
 10
-9.5918584793
 20
-96.5266970941
 10
-9.634548186
 20
-96.5322549156
 10
-9.6757027755
 20
-96.5411387913
 10
-9.7153096479
 20
-96.5533760209
 10
-9.7533814032
 20
-96.5689393048
 10
-9.7896390257
 20
-96.587720082
  0
LWPOLYLINE
  5
2BB
100
AcDbEntity
  8
ASSI
100
AcDbPolyline
 62
7
  6
CONTINUOUS
 90
53
 70
0
 10
-12.2965869248
 20
-87.9590146768
 10
-12.2949097458
 20
-88.0438828249
 10
-12.2899702228
 20
-88.1301168598
 10
-12.2817683557
 20
-88.2177167816
 10
-12.2702736637
 20
-88.3068695579
 10
-12.2555166277
 20
-88.3973882209
 10
-12.2375886903
 20
-88.4887118679
 10
-12.2164701621
 20
-88.5808454974
 10
-12.1921807326
 20
-88.6737841108
 10
-12.1648709121
 20
-88.76695181
 10
-12.134521946
 20
-88.8603500174
 10
-12.101152589
 20
-88.9539773107
 10
-12.0649696158
 20
-89.0472535241
 10
-12.0259555555
 20
-89.1401764776
 10
-11.9841278791
 20
-89.2327483514
 10
-11.9397457734
 20
-89.3243955196
 10
-11.8927933772
 20
-89.4151122405
 10
-11.8432865518
 20
-89.5049042559
 10
-11.7915320684
 20
-89.5932151657
 10
-11.7375159704
 20
-89.680035773
 10
-11.6812522145
 20
-89.7653752747
 10
-11.6230894414
 20
-89.8487048608
 10
-11.5630158595
 20
-89.930012051
 10
-11.5010432604
 20
-90.0093093255
 10
-11.4375556601
 20
-90.0861053154
 10
-11.3725436513
 20
-90.1603844893
 10
-11.3060166413
 20
-90.2321623785
 10
-11.2383868676
 20
-90.3009942082
 10
-11.1696474827
 20
-90.3668616853
 10
-11.0998053342
 20
-90.4297831029
 10
-11.0292932018
 20
-90.4893685657
 10
-10.9581069255
 20
-90.5455973595
 10
-10.8862506654
 20
-90.5984901986
 10
-10.814169682
 20
-90.64771933
 10
-10.7418625799
 20
-90.6932620046
 10
-10.6693307545
 20
-90.7351409715
 10
-10.5970236523
 20
-90.7730967261
 10
-10.5249426689
 20
-90.8071049075
 10
-10.4530864088
 20
-90.8371898764
 10
-10.3819001325
 20
-90.8631652101
 10
-10.3113880002
 20
-90.8850053903
 10
-10.2415458516
 20
-90.9027359353
 10
-10.1728064667
 20
-90.9162469768
 10
-10.105176693
 20
-90.9255123146
 10
-10.038649683
 20
-90.930558149
 10
-9.9736376742
 20
-90.9313532132
 10
-9.9101500739
 20
-90.9278711128
 10
-9.8481774748
 20
-90.9201382423
 10
-9.7881038929
 20
-90.9082025188
 10
-9.7299411198
 20
-90.8920378451
 10
-9.6736773639
 20
-90.8716703185
 10
-9.619661266
 20
-90.847226147
 10
-9.5805474784
 20
-90.8261493296
  0
LWPOLYLINE
  5
2BC
100
AcDbEntity
  8
ASSI
100
AcDbPolyline
 62
7
  6
CONTINUOUS
 90
38
 70
0
 10
-10.8823733625
 20
-87.1424654901
 10
-10.8806961835
 20
-87.2273336382
 10
-10.8757566604
 20
-87.3135676732
 10
-10.8675547933
 20
-87.401167595
 10
-10.8560601014
 20
-87.4903203712
 10
-10.8413030653
 20
-87.5808390343
 10
-10.8233751279
 20
-87.6721626813
 10
-10.8022565998
 20
-87.7642963107
 10
-10.7779671702
 20
-87.8572349241
 10
-10.7506573497
 20
-87.9504026233
 10
-10.7203083836
 20
-88.0438008308
 10
-10.6869390266
 20
-88.137428124
 10
-10.6507560534
 20
-88.2307043374
 10
-10.6117419932
 20
-88.323627291
 10
-10.5699143167
 20
-88.4161991647
 10
-10.5255322111
 20
-88.507846333
 10
-10.4785798148
 20
-88.5985630539
 10
-10.4290729894
 20
-88.6883550693
 10
-10.377318506
 20
-88.776665979
 10
-10.3233024081
 20
-88.8634865864
 10
-10.2670386521
 20
-88.9488260881
 10
-10.2088758791
 20
-89.0321556741
 10
-10.1488022971
 20
-89.1134628643
 10
-10.086829698
 20
-89.1927601389
 10
-10.0233420977
 20
-89.2695561288
 10
-9.958330089
 20
-89.3438353026
 10
-9.891803079
 20
-89.4156131918
 10
-9.8241733052
 20
-89.4844450215
 10
-9.7554339204
 20
-89.5503124986
 10
-9.6855917718
 20
-89.6132339162
 10
-9.6150796394
 20
-89.672819379
 10
-9.5438933631
 20
-89.7290481729
 10
-9.472037103
 20
-89.7819410119
 10
-9.3999561196
 20
-89.8311701434
 10
-9.3276490175
 20
-89.8767128179
 10
-9.2551171921
 20
-89.9185917849
 10
-9.18281009
 20
-89.9565475394
 10
-9.1238130416
 20
-89.9843826525
  0
LWPOLYLINE
  5
2BD
100
AcDbEntity
  8
ASSI
100
AcDbPolyline
 62
7
  6
CONTINUOUS
 90
53
 70
0
 10
-9.1146064095
 20
-87.7550746548
 10
-9.1162835885
 20
-87.6702065066
 10
-9.1212231115
 20
-87.5839724717
 10
-9.1294249786
 20
-87.4963725499
 10
-9.1409196706
 20
-87.4072197737
 10
-9.1556767066
 20
-87.3167011106
 10
-9.1736046441
 20
-87.2253774636
 10
-9.1947231722
 20
-87.1332438342
 10
-9.2190126018
 20
-87.0403052208
 10
-9.2463224222
 20
-86.9471375216
 10
-9.2766713883
 20
-86.8537393141
 10
-9.3100407453
 20
-86.7601120209
 10
-9.3462237186
 20
-86.6668358075
 10
-9.3852377788
 20
-86.5739128539
 10
-9.4270654552
 20
-86.4813409801
 10
-9.4714475609
 20
-86.3896938119
 10
-9.5183999571
 20
-86.298977091
 10
-9.5679067825
 20
-86.2091850756
 10
-9.619661266
 20
-86.1208741659
 10
-9.6736773639
 20
-86.0340535585
 10
-9.7299411198
 20
-85.9487140568
 10
-9.7881038929
 20
-85.8653844707
 10
-9.8481774748
 20
-85.7840772806
 10
-9.9101500739
 20
-85.704780006
 10
-9.9736376742
 20
-85.6279840161
 10
-10.038649683
 20
-85.5537048423
 10
-10.105176693
 20
-85.4819269531
 10
-10.1728064667
 20
-85.4130951233
 10
-10.2415458516
 20
-85.3472276462
 10
-10.3113880002
 20
-85.2843062286
 10
-10.3819001325
 20
-85.2247207658
 10
-10.4530864088
 20
-85.168491972
 10
-10.5249426689
 20
-85.115599133
 10
-10.5970236523
 20
-85.0663700015
 10
-10.6693307545
 20
-85.020827327
 10
-10.7418625799
 20
-84.97894836
 10
-10.814169682
 20
-84.9409926055
 10
-10.8862506654
 20
-84.9069844241
 10
-10.9581069255
 20
-84.8768994551
 10
-11.0292932018
 20
-84.8509241214
 10
-11.0998053342
 20
-84.8290839412
 10
-11.1696474827
 20
-84.8113533963
 10
-11.2383868676
 20
-84.7978423547
 10
-11.3060166413
 20
-84.788577017
 10
-11.3725436513
 20
-84.7835311826
 10
-11.4375556601
 20
-84.7827361183
 10
-11.5010432604
 20
-84.7862182187
 10
-11.5630158595
 20
-84.7939510892
 10
-11.6230894414
 20
-84.8058868128
 10
-11.6812522145
 20
-84.8220514864
 10
-11.7375159704
 20
-84.8424190131
 10
-11.7915320684
 20
-84.8668631845
 10
-11.8306458559
 20
-84.8879400019
  0
LINE
  5
2BE
100
AcDbEntity
  8
ASSI
100
AcDbLine
 62
7
  6
CONTINUOUS
 10
-12.2965869248
 20
-87.9590146768
 11
-12.2965869248
 21
-85.9178389848
  0
LINE
  5
2BF
100
AcDbEntity
  8
ASSI
100
AcDbLine
 62
7
  6
CONTINUOUS
 10
-10.8823733625
 20
-87.1424654901
 11
-10.8823733625
 21
-85.1012897981
  0
LWPOLYLINE
  5
2C0
100
AcDbEntity
  8
ASSI
100
AcDbPolyline
 62
7
  6
CONTINUOUS
 90
7
 70
0
 10
-29.0318559433
 20
-74.2815472755
 10
-29.0442575521
 20
-74.3329345037
 10
-29.060829958
 20
-74.4195667081
 10
-29.0737371375
 20
-74.5088723351
 10
-29.082947644
 20
-74.6006869972
 10
-29.0884929242
 20
-74.6951750819
 10
-29.090372978
 20
-74.7923365891
  0
LWPOLYLINE
  5
2C1
100
AcDbEntity
  8
0
100
AcDbPolyline
 62
253
  6
CONTINUOUS
 90
18
 70
0
 10
81.748614973
 20
65.7363463335
 10
81.8471487226
 20
65.7960131054
 10
81.9406537887
 20
65.8583193327
 10
82.0289183522
 20
65.9231238717
 10
82.1117424656
 20
65.9902799193
 10
82.1889385055
 20
66.0596353455
 10
82.2603315981
 20
66.1310330379
 10
82.3257600151
 20
66.2043112577
 10
82.3850755402
 20
66.2793040063
 10
82.4381438044
 20
66.355841401
 10
82.4848445912
 20
66.4337500599
 10
82.5250721083
 20
66.5128534948
 10
82.5587352273
 20
66.5929725111
 10
82.5857576906
 20
66.6739256134
 10
82.6060782834
 20
66.7555294168
 10
82.6196509732
 20
66.8375990626
 10
82.6264450135
 20
66.9199486365
 10
82.6272946294
 20
66.9611701135
  0
LINE
  5
2C2
100
AcDbEntity
  8
RACCORDO
100
AcDbLine
 62
253
  6
CONTINUOUS
 10
82.6537116529
 20
68.7087353016
 11
82.5198909734
 21
68.6314689184
  0
LINE
  5
2C3
100
AcDbEntity
  8
ASSI
100
AcDbLine
 62
253
  6
CONTINUOUS
 10
81.748614973
 20
65.7363463335
 11
65.8387123963
 21
56.5501679836
  0
LINE
  5
2C4
100
AcDbEntity
  8
ASSI
100
AcDbLine
 62
7
  6
CONTINUOUS
 10
-9.1146064095
 20
-87.7550746548
 11
-9.1146064095
 21
-89.7962503467
  0
LINE
  5
2C5
100
AcDbEntity
  8
0
100
AcDbLine
 62
7
  6
CONTINUOUS
 10
-0.2757716447
 20
98.033148983
 11
-0.2757716447
 21
88.3426249767
  0
LINE
  5
2C6
100
AcDbEntity
  8
0
100
AcDbLine
 62
7
  6
CONTINUOUS
 10
-0.2757716447
 20
82.8195188667
 11
-0.2757716447
 21
-66.786727614
  0
LINE
  5
2C7
100
AcDbEntity
  8
0
100
AcDbLine
 62
7
  6
CONTINUOUS
 10
-0.2757716447
 20
-72.3098337239
 11
-0.2757716447
 21
-86.9390975646
  0
LWPOLYLINE
  5
2C8
100
AcDbEntity
  8
0
100
AcDbPolyline
 62
7
  6
CONTINUOUS
 90
16
 70
0
 10
-0.2757716447
 20
88.3426249767
 10
-0.2768520024
 20
88.2984610995
 10
-0.2800085312
 20
88.2558923039
 10
-0.2852412309
 20
88.2149185896
 10
-0.2925780316
 20
88.1754275129
 10
-0.3019910032
 20
88.1375315176
 10
-0.313396356
 20
88.1015679358
 10
-0.3268118781
 20
88.06755402
 10
-0.3422197814
 20
88.0354725177
 10
-0.3594829121
 20
88.0056090029
 10
-0.3786178338
 20
87.977983278
 10
-0.3996079829
 20
87.9525755407
 10
-0.4222665153
 20
87.9296119585
 10
-0.4466083262
 20
87.9091143528
 10
-0.4726185202
 20
87.8910609022
 10
-0.4828578989
 20
87.8848944053
  0
LWPOLYLINE
  5
2C9
100
AcDbEntity
  8
0
100
AcDbPolyline
 62
7
  6
CONTINUOUS
 90
16
 70
0
 10
-0.2757716447
 20
-66.786727614
 10
-0.2768520024
 20
-66.8308914911
 10
-0.2800085312
 20
-66.8734602868
 10
-0.2852412309
 20
-66.914434001
 10
-0.2925780316
 20
-66.9539250777
 10
-0.3019910032
 20
-66.991821073
 10
-0.313396356
 20
-67.0277846549
 10
-0.3268118781
 20
-67.0617985706
 10
-0.3422197814
 20
-67.093880073
 10
-0.3594829121
 20
-67.1237435877
 10
-0.3786178338
 20
-67.1513693126
 10
-0.3996079829
 20
-67.1767770499
 10
-0.4222665153
 20
-67.1997406322
 10
-0.4466083262
 20
-67.2202382378
 10
-0.4726185202
 20
-67.2382916884
 10
-0.4828578989
 20
-67.2444581854
  0
LWPOLYLINE
  5
2CA
100
AcDbEntity
  8
ASSI
100
AcDbPolyline
 62
7
  6
CONTINUOUS
 90
4
 70
0
 10
-10.8731667303
 20
-84.9131574924
 10
-10.8757566604
 20
-84.9378284167
 10
-10.8806961835
 20
-85.0183584143
 10
-10.8823733625
 20
-85.1012897981
  0
LINE
  5
2CB
100
AcDbEntity
  8
0
100
AcDbLine
 62
253
  6
CONTINUOUS
 10
-56.8443141396
 20
-34.1247601477
 11
-55.4301005772
 21
-33.3082109611
  0
LWPOLYLINE
  5
2CC
100
AcDbEntity
  8
0
100
AcDbPolyline
 62
7
  6
CONTINUOUS
 90
15
 70
0
 10
-61.4051528782
 20
39.4334412224
 10
-61.5592054805
 20
39.5408820962
 10
-61.7006268368
 20
39.6662915252
 10
-61.829416947
 20
39.8096695092
 10
-61.948658049
 20
39.9763546411
 10
-62.055267905
 20
40.1610083281
 10
-62.1399998011
 20
40.3476147919
 10
-62.2008996766
 20
40.5363484477
 10
-62.2399215922
 20
40.7270348803
 10
-62.2536810157
 20
40.9031350666
 10
-62.2399215922
 20
41.0633462155
 10
-62.2008996766
 20
41.2089711181
 10
-62.1399998011
 20
41.3273791241
 10
-62.055267905
 20
41.4161393183
 10
-62.0041487496
 20
41.4506299862
  0
LWPOLYLINE
  5
2CD
100
AcDbEntity
  8
0
100
AcDbPolyline
 62
7
  6
CONTINUOUS
 90
15
 70
0
 10
-61.4051528782
 20
41.3929698867
 10
-61.2511002759
 20
41.2855290129
 10
-61.1096789197
 20
41.160119584
 10
-60.9808888095
 20
41.0167415999
 10
-60.8616477075
 20
40.850056468
 10
-60.7550378515
 20
40.6654027811
 10
-60.6703059554
 20
40.4787963172
 10
-60.6094060799
 20
40.2900626615
 10
-60.5703841643
 20
40.0993762288
 10
-60.5566247408
 20
39.9232760426
 10
-60.5703841643
 20
39.7630648936
 10
-60.6094060799
 20
39.617439991
 10
-60.6703059554
 20
39.499031985
 10
-60.7550378515
 20
39.4102717909
 10
-60.8061570069
 20
39.3757811229
  0
LWPOLYLINE
  5
2CE
100
AcDbEntity
  8
0
100
AcDbPolyline
 62
7
  6
CONTINUOUS
 90
34
 70
0
 10
64.4497902182
 20
-124.7344727972
 10
64.4017559855
 20
-124.6436000424
 10
64.3511068139
 20
-124.5543142151
 10
64.2976946988
 20
-124.4663872339
 10
64.2416676448
 20
-124.3800471801
 10
64.1834696659
 20
-124.2959782982
 10
64.123083512
 20
-124.2141986347
 10
64.0605264333
 20
-124.1346901431
 10
63.9962941942
 20
-124.0580829276
 10
63.9303734837
 20
-123.9844000416
 10
63.8627776129
 20
-123.9136184316
 10
63.7940422784
 20
-123.8462990415
 10
63.7241584261
 20
-123.782469382
 10
63.6531351101
 20
-123.7221019423
 10
63.5815351898
 20
-123.665675134
 10
63.5093540835
 20
-123.6132202692
 10
63.4365963728
 20
-123.5647060358
 10
63.3638386621
 20
-123.5205169087
 10
63.2910809514
 20
-123.4806872552
 10
63.2183232408
 20
-123.4451827081
 10
63.1461421344
 20
-123.4142846405
 10
63.0745422141
 20
-123.3880296556
 10
63.0035188982
 20
-123.3663811503
 10
62.9336350459
 20
-123.3495106889
 10
62.8648997114
 20
-123.3374562377
 10
62.7973038405
 20
-123.3301798303
 10
62.7313831301
 20
-123.3277391323
 10
62.6671508909
 20
-123.330172568
 10
62.6045938122
 20
-123.3374417132
 10
62.5442076583
 20
-123.3494889598
 10
62.4860096795
 20
-123.3663522745
 10
62.4299826255
 20
-123.3879936907
 10
62.3765705103
 20
-123.4142417002
 10
62.3637908221
 20
-123.4214353851
  0
LWPOLYLINE
  5
2CF
100
AcDbEntity
  8
0
100
AcDbPolyline
 62
7
  6
CONTINUOUS
 90
34
 70
0
 10
65.8640037806
 20
-123.9179236106
 10
65.8159695479
 20
-123.8270508558
 10
65.7653203763
 20
-123.7377650285
 10
65.7119082612
 20
-123.6498380472
 10
65.6558812071
 20
-123.5634979935
 10
65.5976832283
 20
-123.4794291115
 10
65.5372970744
 20
-123.3976494481
 10
65.4747399957
 20
-123.3181409565
 10
65.4105077565
 20
-123.2415337409
 10
65.3445870461
 20
-123.1678508549
 10
65.2769911752
 20
-123.097069245
 10
65.2082558407
 20
-123.0297498549
 10
65.1383719884
 20
-122.9659201954
 10
65.0673486725
 20
-122.9055527556
 10
64.9957487522
 20
-122.8491259473
 10
64.9235676459
 20
-122.7966710826
 10
64.8508099352
 20
-122.7481568492
 10
64.7780522245
 20
-122.7039677221
 10
64.7052945138
 20
-122.6641380686
 10
64.6325368031
 20
-122.6286335214
 10
64.5603556968
 20
-122.5977354539
 10
64.4887557765
 20
-122.571480469
 10
64.4177324606
 20
-122.5498319637
 10
64.3478486083
 20
-122.5329615023
 10
64.2791132738
 20
-122.520907051
 10
64.2115174029
 20
-122.5136306436
 10
64.1455966925
 20
-122.5111899456
 10
64.0813644533
 20
-122.5136233814
 10
64.0188073746
 20
-122.5208925265
 10
63.9584212207
 20
-122.5329397731
 10
63.9002232419
 20
-122.5498030879
 10
63.8441961878
 20
-122.571444504
 10
63.7907840727
 20
-122.5976925135
 10
63.7780043845
 20
-122.6048861984
  0
LWPOLYLINE
  5
2D0
100
AcDbEntity
  8
0
100
AcDbPolyline
 62
7
  6
CONTINUOUS
 90
10
 70
0
 10
-60.7520714385
 20
134.5529516317
 10
-60.6703059554
 20
134.3728781484
 10
-60.6094060799
 20
134.1841444926
 10
-60.5703841643
 20
133.99345806
 10
-60.5566247408
 20
133.8173578737
 10
-60.5703841643
 20
133.6571467248
 10
-60.6094060799
 20
133.5115218222
 10
-60.6703059554
 20
133.3931138162
 10
-60.7550378515
 20
133.304353622
 10
-60.8061570069
 20
133.2698629541
  0
LWPOLYLINE
  5
2D1
100
AcDbEntity
  8
0
100
AcDbPolyline
 62
7
  6
CONTINUOUS
 90
31
 70
0
 10
15.2805775414
 20
-94.2880402445
 10
15.2815686548
 20
-94.3315366414
 10
15.2844705407
 20
-94.3757868509
 10
15.2892831993
 20
-94.4207908732
 10
15.296030253
 20
-94.4666759606
 10
15.3046880793
 20
-94.5133148606
 10
15.3151858107
 20
-94.5603258163
 10
15.3275385486
 20
-94.6077118815
 10
15.3417311915
 20
-94.6554700023
 10
15.3576475673
 20
-94.7032092605
 10
15.375301824
 20
-94.7509295013
 10
15.3946798135
 20
-94.7986308794
 10
15.4156229198
 20
-94.8459229411
 10
15.4381439889
 20
-94.8928023268
 10
15.4622301747
 20
-94.939272396
 10
15.4876843226
 20
-94.9849527737
 10
15.5145176607
 20
-95.0298369782
 10
15.5427189608
 20
-95.0739314912
 10
15.5720573849
 20
-95.1168753823
 10
15.602542266
 20
-95.1586592076
 10
15.6341642709
 20
-95.1992924111
 10
15.6666645617
 20
-95.2384423946
 10
15.7000503469
 20
-95.2760969842
 10
15.734314418
 20
-95.3122683539
 10
15.7691763104
 20
-95.3466604272
 10
15.804640931
 20
-95.3792586002
 10
15.840703373
 20
-95.4100774769
 10
15.8770684516
 20
-95.4388647931
 10
15.9136377719
 20
-95.4655364607
 10
15.950509729
 20
-95.4901765679
 10
15.9876843226
 20
-95.5127851146
  0
LWPOLYLINE
  5
2D2
100
AcDbEntity
  8
0
100
AcDbPolyline
 62
7
  6
CONTINUOUS
 90
16
 70
0
 10
-0.2757716447
 20
-86.9390975646
 10
-0.276762758
 20
-86.9814494486
 10
-0.279664644
 20
-87.022348633
 10
-0.2844773025
 20
-87.0617951178
 10
-0.2912243562
 20
-87.0998888767
 10
-0.2998821825
 20
-87.1365299359
 10
-0.3103799139
 20
-87.1714183746
 10
-0.3227326518
 20
-87.2045398077
 10
-0.3369252947
 20
-87.2359086202
 10
-0.3528416705
 20
-87.2652680466
 10
-0.3704959272
 20
-87.2926015942
 10
-0.3898739168
 20
-87.3179257558
 10
-0.410817023
 20
-87.3410332433
 10
-0.4333380921
 20
-87.3619058629
 10
-0.4574242779
 20
-87.3805618085
 10
-0.4828542657
 20
-87.3968344257
  0
LWPOLYLINE
  5
2D3
100
AcDbEntity
  8
0
100
AcDbPolyline
 62
7
  6
CONTINUOUS
 90
16
 70
0
 10
13.8663639791
 20
74.6540270002
 10
13.8674443368
 20
74.6981908773
 10
13.8706008656
 20
74.740759673
 10
13.8758335653
 20
74.7817333872
 10
13.883170366
 20
74.821224464
 10
13.8925833376
 20
74.8591204593
 10
13.9039886904
 20
74.8950840411
 10
13.9174042125
 20
74.9290979569
 10
13.9328121158
 20
74.9611794592
 10
13.9500752465
 20
74.9910429739
 10
13.9692101682
 20
75.0186686989
 10
13.9902003173
 20
75.0440764362
 10
14.0128588497
 20
75.0670400184
 10
14.0372006606
 20
75.0875376241
 10
14.0632108547
 20
75.1055910747
 10
14.0734502333
 20
75.1117575716
  0
LWPOLYLINE
  5
2D4
100
AcDbEntity
  8
0
100
AcDbPolyline
 62
7
  6
CONTINUOUS
 90
4
 70
0
 10
-50.8591978838
 20
-58.1565082282
 10
-50.9273268245
 20
-58.2165241585
 10
-50.9513439409
 20
-58.234226172
 10
-50.9702786826
 20
-58.2460280463
  0
LWPOLYLINE
  5
2D5
100
AcDbEntity
  8
0
100
AcDbPolyline
 62
7
  6
CONTINUOUS
 90
13
 70
0
 10
-61.7793939617
 20
-52.8326840742
 10
-61.797046039
 20
-52.8445632918
 10
-61.8639893829
 20
-52.9123012717
 10
-61.9095267622
 20
-53.0004297241
 10
-61.9309327267
 20
-53.1115448049
 10
-61.9309327267
 20
-53.2430503584
 10
-61.9095267622
 20
-53.3788845105
 10
-61.8639893829
 20
-53.5195983871
 10
-61.797046039
 20
-53.6646408625
 10
-61.7168730816
 20
-53.796296685
 10
-61.6261959608
 20
-53.9086607709
 10
-61.5222892263
 20
-54.0076382039
 10
-61.4051528782
 20
-54.0932289842
  0
LWPOLYLINE
  5
2D6
100
AcDbEntity
  8
0
100
AcDbPolyline
 62
7
  6
CONTINUOUS
 90
13
 70
0
 10
-61.0309117948
 20
-54.129068479
 10
-61.0132597174
 20
-54.1171892614
 10
-60.9463163736
 20
-54.0494512816
 10
-60.9007789943
 20
-53.9613228291
 10
-60.8793730298
 20
-53.8502077483
 10
-60.8793730298
 20
-53.7187021948
 10
-60.9007789943
 20
-53.5828680427
 10
-60.9463163736
 20
-53.4421541661
 10
-61.0132597174
 20
-53.2971116908
 10
-61.0934326749
 20
-53.1654558682
 10
-61.1841097957
 20
-53.0530917824
 10
-61.2880165302
 20
-52.9541143493
 10
-61.4051528782
 20
-52.868523569
  0
LWPOLYLINE
  5
2D7
100
AcDbEntity
  8
ASSI
100
AcDbPolyline
 62
7
  6
CONTINUOUS
 90
11
 70
0
 10
-61.5498554085
 20
-52.0055548681
 10
-61.5841858921
 20
-52.0275229014
 10
-61.6167022429
 20
-52.0527084279
 10
-61.6471056862
 20
-52.0808864644
 10
-61.6753788796
 20
-52.1120815726
 10
-61.7015391655
 20
-52.1462691906
 10
-61.7253724121
 20
-52.18316948
 10
-61.7468595194
 20
-52.2228047056
 10
-61.7660195873
 20
-52.2651526025
 10
-61.7826957835
 20
-52.3098665371
 10
-61.7839103751
 20
-52.313903143
  0
LWPOLYLINE
  5
2D8
100
AcDbEntity
  8
ASSI
100
AcDbPolyline
 62
7
  6
CONTINUOUS
 90
16
 70
0
 10
-60.1997901762
 20
-54.3437857951
 10
-60.1654596926
 20
-54.3218177619
 10
-60.1329433418
 20
-54.2966322353
 10
-60.1025398985
 20
-54.2684541988
 10
-60.0742667051
 20
-54.2372590906
 10
-60.0481064192
 20
-54.2030714726
 10
-60.0242731726
 20
-54.1661711833
 10
-60.0027860653
 20
-54.1265359577
 10
-59.9836259974
 20
-54.0841880608
 10
-59.9669498012
 20
-54.0394741261
 10
-59.9527778639
 20
-53.9923747339
 10
-59.9410897984
 20
-53.9429093039
 10
-59.9319812758
 20
-53.8914827295
 10
-59.9254841868
 20
-53.838229975
 10
-59.9215666408
 20
-53.783016076
 10
-59.9202286377
 20
-53.7258410326
  0
LWPOLYLINE
  5
2D9
100
AcDbEntity
  8
0
100
AcDbPolyline
 62
7
  6
CONTINUOUS
 90
46
 70
0
 10
-55.5235471651
 20
-39.0921621885
 10
-55.4908411924
 20
-39.0722727449
 10
-55.4363229289
 20
-39.0342117981
 10
-55.384513747
 20
-38.9916209039
 10
-55.3357410836
 20
-38.944769404
 10
-55.2900241732
 20
-38.8936303193
 10
-55.2473437814
 20
-38.838230629
 10
-55.2079696428
 20
-38.7789206116
 10
-55.1719226983
 20
-38.7156755069
 10
-55.1391820069
 20
-38.6485200753
 10
-55.1099544808
 20
-38.5778788768
 10
-55.08426237
 20
-38.5037298394
 10
-55.0620834244
 20
-38.4260950353
 10
-55.0435578067
 20
-38.3454652407
 10
-55.0287086533
 20
-38.2618214907
 10
-55.0175128278
 20
-38.1751827502
 10
-55.0100410826
 20
-38.0860966902
 10
-55.0063170022
 20
-37.9945478128
 10
-55.0063170022
 20
-37.9005516158
 10
-55.0100410826
 20
-37.8047022637
 10
-55.0175128278
 20
-37.7069880197
 10
-55.0287086533
 20
-37.6074206205
 10
-55.0435578067
 20
-37.5066294404
 10
-55.0620834244
 20
-37.4046067268
 10
-55.08426237
 20
-37.3013602322
 10
-55.1099544808
 20
-37.1975425893
 10
-55.1391820069
 20
-37.0931501763
 10
-55.1719226983
 20
-36.988186615
 10
-55.2079696428
 20
-36.8833154022
 10
-55.2473437814
 20
-36.7785371166
 10
-55.2900241732
 20
-36.6738511796
 10
-55.3357410836
 20
-36.5699193527
 10
-55.384513747
 20
-36.4667464037
 10
-55.4363229289
 20
-36.3643275648
 10
-55.4908411924
 20
-36.263310294
 10
-55.5480856997
 20
-36.1637034582
 10
-55.6080392884
 20
-36.0654981904
 10
-55.670323034
 20
-35.9693153479
 10
-55.7349517012
 20
-35.8751677287
 10
-55.8019105253
 20
-35.7830425348
 10
-55.8707762874
 20
-35.6935222292
 10
-55.9415610741
 20
-35.6066232987
 10
-56.0142527988
 20
-35.5223292564
 10
-56.0883919832
 20
-35.4411731056
 10
-56.1638254679
 20
-35.3633325137
 10
-56.2407064123
 20
-35.2886298133
  0
LWPOLYLINE
  5
2DA
100
AcDbEntity
  8
0
100
AcDbPolyline
 62
7
  6
CONTINUOUS
 90
46
 70
0
 10
-54.1093336028
 20
-38.2756130018
 10
-54.07662763
 20
-38.2557235582
 10
-54.0221093666
 20
-38.2176626114
 10
-53.9703001846
 20
-38.1750717172
 10
-53.9215275213
 20
-38.1282202173
 10
-53.8758106108
 20
-38.0770811327
 10
-53.833130219
 20
-38.0216814423
 10
-53.7937560804
 20
-37.962371425
 10
-53.7577091359
 20
-37.8991263203
 10
-53.7249684445
 20
-37.8319708886
 10
-53.6957409185
 20
-37.7613296901
 10
-53.6700488076
 20
-37.6871806528
 10
-53.6478698621
 20
-37.6095458486
 10
-53.6293442443
 20
-37.528916054
 10
-53.6144950909
 20
-37.445272304
 10
-53.6032992654
 20
-37.3586335636
 10
-53.5958275203
 20
-37.2695475035
 10
-53.5921034398
 20
-37.1779986261
 10
-53.5921034398
 20
-37.0840024292
 10
-53.5958275203
 20
-36.988153077
 10
-53.6032992654
 20
-36.890438833
 10
-53.6144950909
 20
-36.7908714338
 10
-53.6293442443
 20
-36.6900802538
 10
-53.6478698621
 20
-36.5880575401
 10
-53.6700488076
 20
-36.4848110456
 10
-53.6957409185
 20
-36.3809934026
 10
-53.7249684445
 20
-36.2766009897
 10
-53.7577091359
 20
-36.1716374283
 10
-53.7937560804
 20
-36.0667662156
 10
-53.833130219
 20
-35.96198793
 10
-53.8758106108
 20
-35.857301993
 10
-53.9215275213
 20
-35.7533701661
 10
-53.9703001846
 20
-35.6501972171
 10
-54.0221093666
 20
-35.5477783782
 10
-54.07662763
 20
-35.4467611073
 10
-54.1338721373
 20
-35.3471542715
 10
-54.193825726
 20
-35.2489490037
 10
-54.2561094716
 20
-35.1527661612
 10
-54.3207381388
 20
-35.058618542
 10
-54.3876969629
 20
-34.9664933481
 10
-54.456562725
 20
-34.8769730426
 10
-54.5273475117
 20
-34.790074112
 10
-54.6000392364
 20
-34.7057800698
 10
-54.6741784208
 20
-34.6246239189
 10
-54.7496119055
 20
-34.5467833271
 10
-54.8264928499
 20
-34.4720806266
  0
LINE
  5
2DB
100
AcDbEntity
  8
0
100
AcDbLine
 62
253
  6
CONTINUOUS
 10
-56.3190348164
 20
-35.2170650042
 11
-54.904821254
 21
-34.4005158175
  0
LINE
  5
2DC
100
AcDbEntity
  8
0
100
AcDbLine
 62
253
  6
CONTINUOUS
 10
-56.8443141396
 20
-39.6478662577
 11
-56.0773600808
 21
-39.2050365963
  0
LINE
  5
2DD
100
AcDbEntity
  8
ASSI
100
AcDbLine
 62
7
  6
CONTINUOUS
 10
-54.1093294987
 20
-38.2756201116
 11
-55.5235430611
 21
-39.0921692982
  0
LWPOLYLINE
  5
2DE
100
AcDbEntity
  8
0
100
AcDbPolyline
 62
7
  6
CONTINUOUS
 90
11
 70
0
 10
-56.6372278854
 20
-39.1901356863
 10
-56.620020217
 20
-39.1808535909
 10
-56.5911234888
 20
-39.168033113
 10
-56.5607899077
 20
-39.1578174934
 10
-56.5292894886
 20
-39.1502976666
 10
-56.4966118141
 20
-39.1454977007
 10
-56.4627673017
 20
-39.1433935276
 10
-56.4280572189
 20
-39.1440038777
 10
-56.3925819884
 20
-39.1473349943
 10
-56.3562411876
 20
-39.1533806341
 10
-56.3190348164
 20
-39.162140797
  0
LWPOLYLINE
  5
2DF
100
AcDbEntity
  8
0
100
AcDbPolyline
 62
7
  6
CONTINUOUS
 90
5
 70
0
 10
-61.4051528782
 20
39.800852847
 10
-61.2880165302
 20
39.7511775086
 10
-61.1841097957
 20
39.7301660493
 10
-61.0934326749
 20
39.7378184689
 10
-61.0309117948
 20
39.7650133522
  0
LWPOLYLINE
  5
2E0
100
AcDbEntity
  8
0
100
AcDbPolyline
 62
7
  6
CONTINUOUS
 90
19
 70
0
 10
65.8640037806
 20
-123.9179236106
 10
65.9321327213
 20
-124.056613134
 10
65.9561498377
 20
-124.1020495114
 10
65.9814744235
 20
-124.146692425
 10
66.008180481
 20
-124.1906559157
 10
66.036194008
 20
-124.2338259425
 10
66.0652929975
 20
-124.2758603835
 10
66.0954860744
 20
-124.3167502152
 10
66.1267646137
 20
-124.356504461
 10
66.1588807333
 20
-124.3948080688
 10
66.1918410885
 20
-124.4316495118
 10
66.225639024
 20
-124.4670403168
 10
66.2600066912
 20
-124.5007000118
 10
66.2949486174
 20
-124.5326148416
 10
66.3304602753
 20
-124.5627985614
 10
66.3662602355
 20
-124.5910119656
 10
66.4022546879
 20
-124.6171753188
 10
66.4385374426
 20
-124.6413683564
 10
66.4751084993
 20
-124.6635910782
  0
LWPOLYLINE
  5
2E1
100
AcDbEntity
  8
0
100
AcDbPolyline
 62
7
  6
CONTINUOUS
 90
25
 70
0
 10
15.2805775414
 20
-74.1356702939
 10
15.2816578992
 20
-74.1810817411
 10
15.284814428
 20
-74.227295617
 10
15.2900471277
 20
-74.2743119218
 10
15.2973839284
 20
-74.322275352
 10
15.3067969
 20
-74.3710412109
 10
15.3182022528
 20
-74.4201754084
 10
15.3316177749
 20
-74.4696812327
 10
15.3470256782
 20
-74.5195553956
 10
15.3642888089
 20
-74.569353941
 10
15.3834237306
 20
-74.6190761938
 10
15.4044138797
 20
-74.6687228292
 10
15.427072412
 20
-74.7178519166
 10
15.4514142229
 20
-74.7664588354
 10
15.477424417
 20
-74.8145482061
 10
15.504871464
 20
-74.8616919603
 10
15.5337681922
 20
-74.9078816556
 10
15.5641017734
 20
-74.9531257343
 10
15.5956021924
 20
-74.9970214554
 10
15.6282798669
 20
-75.0395567808
 10
15.6621243794
 20
-75.0807437485
 10
15.6968344621
 20
-75.120215732
 10
15.7323096926
 20
-75.1578505224
 10
15.7686504935
 20
-75.1937703285
 10
15.8841852687
 20
-75.2995399594
  0
LWPOLYLINE
  5
2E2
100
AcDbEntity
  8
0
100
AcDbPolyline
 62
7
  6
CONTINUOUS
 90
25
 70
0
 10
15.2805775414
 20
80.9936822968
 10
15.2816578992
 20
80.9482708496
 10
15.284814428
 20
80.9020569736
 10
15.2900471277
 20
80.8550406689
 10
15.2973839284
 20
80.8070772387
 10
15.3067969
 20
80.7583113797
 10
15.3182022528
 20
80.7091771823
 10
15.3316177749
 20
80.6596713579
 10
15.3470256782
 20
80.6097971951
 10
15.3642888089
 20
80.5599986497
 10
15.3834237306
 20
80.5102763968
 10
15.4044138797
 20
80.4606297614
 10
15.427072412
 20
80.411500674
 10
15.4514142229
 20
80.3628937553
 10
15.477424417
 20
80.3148043845
 10
15.504871464
 20
80.2676606303
 10
15.5337681922
 20
80.221470935
 10
15.5641017734
 20
80.1762268563
 10
15.5956021924
 20
80.1323311352
 10
15.6282798669
 20
80.0897958098
 10
15.6621243794
 20
80.0486088421
 10
15.6968344621
 20
80.0091368586
 10
15.7323096926
 20
79.9715020683
 10
15.7686504935
 20
79.9355822622
 10
15.8841852687
 20
79.8298126312
  0
LWPOLYLINE
  5
2E3
100
AcDbEntity
  8
ASSI
100
AcDbPolyline
 62
7
  6
CONTINUOUS
 90
46
 70
0
 10
23.6597928985
 20
-116.6803629462
 10
23.6584548955
 20
-116.6216428105
 10
23.6545373495
 20
-116.5619050275
 10
23.6480402604
 20
-116.5011495975
 10
23.6389317379
 20
-116.4392047295
 10
23.6272436724
 20
-116.3762422145
 10
23.6130717351
 20
-116.3127774242
 10
23.5963955389
 20
-116.2488062363
 10
23.5772354709
 20
-116.1843327732
 10
23.5557483636
 20
-116.1198847746
 10
23.5319151171
 20
-116.0554624496
 10
23.5057548312
 20
-115.9910655891
 10
23.4774816377
 20
-115.9272213058
 10
23.4470781944
 20
-115.8639341352
 10
23.4145618436
 20
-115.8011995417
 10
23.3801987439
 20
-115.7395310319
 10
23.3439737376
 20
-115.6789373557
 10
23.3059019823
 20
-115.6194097632
 10
23.2662951099
 20
-115.5614355102
 10
23.2251405204
 20
-115.505027346
 10
23.1824508137
 20
-115.4501725213
 10
23.1385754212
 20
-115.3973200436
 10
23.0935046111
 20
-115.3464863476
 10
23.0472481152
 20
-115.2976549986
 10
23.0001845604
 20
-115.2512256995
 10
22.9523073226
 20
-115.207218166
 10
22.9036230259
 20
-115.1656126825
 10
22.8545301698
 20
-115.1267498057
 10
22.8050254008
 20
-115.0906520461
 10
22.7551120724
 20
-115.0572968932
 10
22.7051987439
 20
-115.0269573716
 10
22.6552854154
 20
-114.9996582327
 10
22.605372087
 20
-114.975374725
 10
22.555867318
 20
-114.9543056181
 10
22.5067744619
 20
-114.9364772953
 10
22.4580901652
 20
-114.9218633733
 10
22.4102129274
 20
-114.9105834727
 10
22.3631493726
 20
-114.9026649584
 10
22.3168928767
 20
-114.8980804654
 10
22.2718220666
 20
-114.8968675196
 10
22.2279466741
 20
-114.8990537939
 10
22.1852569674
 20
-114.9046116153
 10
22.1441023779
 20
-114.9134954911
 10
22.1044955055
 20
-114.9257327207
 10
22.0664237502
 20
-114.9412960045
 10
22.0301661277
 20
-114.9600767817
  0
LWPOLYLINE
  5
2E4
100
AcDbEntity
  8
ASSI
100
AcDbPolyline
 62
7
  6
CONTINUOUS
 90
53
 70
0
 10
22.7051987439
 20
-108.1686070465
 10
22.7068759229
 20
-108.2534751946
 10
22.7118154459
 20
-108.3397092296
 10
22.720017313
 20
-108.4273091514
 10
22.731512005
 20
-108.5164619276
 10
22.746269041
 20
-108.6069805906
 10
22.7641969785
 20
-108.6983042377
 10
22.7853155066
 20
-108.7904378671
 10
22.8096049362
 20
-108.8833764805
 10
22.8369147567
 20
-108.9765441797
 10
22.8672637227
 20
-109.0699423871
 10
22.9006330797
 20
-109.1635696804
 10
22.936816053
 20
-109.2568458938
 10
22.9758301132
 20
-109.3497688474
 10
23.0176577897
 20
-109.4423407211
 10
23.0620398953
 20
-109.5339878894
 10
23.1089922915
 20
-109.6247046103
 10
23.158499117
 20
-109.7144966256
 10
23.2102536004
 20
-109.8028075354
 10
23.2642696983
 20
-109.8896281427
 10
23.3205334542
 20
-109.9749676444
 10
23.3786962273
 20
-110.0582972305
 10
23.4387698092
 20
-110.1396044207
 10
23.5007424083
 20
-110.2189016952
 10
23.5642300086
 20
-110.2956976851
 10
23.6292420174
 20
-110.369976859
 10
23.6957690274
 20
-110.4417547482
 10
23.7633988011
 20
-110.5105865779
 10
23.832138186
 20
-110.576454055
 10
23.9019803346
 20
-110.6393754726
 10
23.9724924669
 20
-110.6989609354
 10
24.0436787433
 20
-110.7551897293
 10
24.1155350033
 20
-110.8080825683
 10
24.1876159867
 20
-110.8573116997
 10
24.2599230889
 20
-110.9028543743
 10
24.3324549143
 20
-110.9447333413
 10
24.4047620164
 20
-110.9826890958
 10
24.4768429998
 20
-111.0166972772
 10
24.5486992599
 20
-111.0467822462
 10
24.6198855362
 20
-111.0727575799
 10
24.6903976686
 20
-111.0945977601
 10
24.7602398171
 20
-111.112328305
 10
24.828979202
 20
-111.1258393466
 10
24.8966089757
 20
-111.1351046843
 10
24.9631359857
 20
-111.1401505187
 10
25.0281479945
 20
-111.140945583
 10
25.0916355948
 20
-111.1374634825
 10
25.1536081939
 20
-111.129730612
 10
25.2136817758
 20
-111.1177948885
 10
25.2718445489
 20
-111.1016302148
 10
25.3281083048
 20
-111.0812626882
 10
25.3821244028
 20
-111.0568185168
 10
25.4212381903
 20
-111.0357416994
  0
LWPOLYLINE
  5
2E5
100
AcDbEntity
  8
ASSI
100
AcDbPolyline
 62
7
  6
CONTINUOUS
 90
38
 70
0
 10
24.1194123063
 20
-107.3520578598
 10
24.1210894853
 20
-107.436926008
 10
24.1260290083
 20
-107.5231600429
 10
24.1342308754
 20
-107.6107599647
 10
24.1457255674
 20
-107.6999127409
 10
24.1604826034
 20
-107.790431404
 10
24.1784105408
 20
-107.881755051
 10
24.199529069
 20
-107.9738886804
 10
24.2238184986
 20
-108.0668272938
 10
24.251128319
 20
-108.159994993
 10
24.2814772851
 20
-108.2533932005
 10
24.3148466421
 20
-108.3470204937
 10
24.3510296153
 20
-108.4402967071
 10
24.3900436756
 20
-108.5332196607
 10
24.431871352
 20
-108.6257915345
 10
24.4762534577
 20
-108.7174387027
 10
24.5232058539
 20
-108.8081554236
 10
24.5727126793
 20
-108.897947439
 10
24.6244671627
 20
-108.9862583487
 10
24.6784832607
 20
-109.0730789561
 10
24.7347470166
 20
-109.1584184578
 10
24.7929097897
 20
-109.2417480439
 10
24.8529833716
 20
-109.323055234
 10
24.9149559707
 20
-109.4023525086
 10
24.978443571
 20
-109.4791484985
 10
25.0434555798
 20
-109.5534276723
 10
25.1099825898
 20
-109.6252055615
 10
25.1776123635
 20
-109.6940373913
 10
25.2463517484
 20
-109.7599048684
 10
25.316193897
 20
-109.822826286
 10
25.3867060293
 20
-109.8824117488
 10
25.4578923056
 20
-109.9386405426
 10
25.5297485657
 20
-109.9915333816
 10
25.6018295491
 20
-110.0407625131
 10
25.6741366512
 20
-110.0863051876
 10
25.7466684767
 20
-110.1281841546
 10
25.8189755788
 20
-110.1661399091
 10
25.8779726271
 20
-110.1939750222
  0
LWPOLYLINE
  5
2E6
100
AcDbEntity
  8
ASSI
100
AcDbPolyline
 62
7
  6
CONTINUOUS
 90
53
 70
0
 10
25.8871792592
 20
-107.9646670245
 10
25.8855020802
 20
-107.8797988764
 10
25.8805625572
 20
-107.7935648414
 10
25.8723606901
 20
-107.7059649196
 10
25.8608659981
 20
-107.6168121434
 10
25.8461089621
 20
-107.5262934803
 10
25.8281810247
 20
-107.4349698333
 10
25.8070624965
 20
-107.3428362039
 10
25.782773067
 20
-107.2498975905
 10
25.7554632465
 20
-107.1567298913
 10
25.7251142804
 20
-107.0633316838
 10
25.6917449234
 20
-106.9697043906
 10
25.6555619502
 20
-106.8764281772
 10
25.6165478899
 20
-106.7835052236
 10
25.5747202135
 20
-106.6909333499
 10
25.5303381078
 20
-106.5992861816
 10
25.4833857116
 20
-106.5085694607
 10
25.4338788862
 20
-106.4187774453
 10
25.3821244028
 20
-106.3304665356
 10
25.3281083048
 20
-106.2436459282
 10
25.2718445489
 20
-106.1583064265
 10
25.2136817758
 20
-106.0749768405
 10
25.1536081939
 20
-105.9936696503
 10
25.0916355948
 20
-105.9143723757
 10
25.0281479945
 20
-105.8375763858
 10
24.9631359857
 20
-105.763297212
 10
24.8966089757
 20
-105.6915193228
 10
24.828979202
 20
-105.6226874931
 10
24.7602398171
 20
-105.556820016
 10
24.6903976686
 20
-105.4938985984
 10
24.6198855362
 20
-105.4343131356
 10
24.5486992599
 20
-105.3780843417
 10
24.4768429998
 20
-105.3251915027
 10
24.4047620164
 20
-105.2759623712
 10
24.3324549143
 20
-105.2304196967
 10
24.2599230889
 20
-105.1885407297
 10
24.1876159867
 20
-105.1505849752
 10
24.1155350033
 20
-105.1165767938
 10
24.0436787433
 20
-105.0864918248
 10
23.9724924669
 20
-105.0605164911
 10
23.9019803346
 20
-105.0386763109
 10
23.832138186
 20
-105.020945766
 10
23.7633988011
 20
-105.0074347244
 10
23.6957690274
 20
-104.9981693867
 10
23.6292420174
 20
-104.9931235523
 10
23.5642300086
 20
-104.992328488
 10
23.5007424083
 20
-104.9958105884
 10
23.4387698092
 20
-105.0035434589
 10
23.3786962273
 20
-105.0154791825
 10
23.3205334542
 20
-105.0316438561
 10
23.2642696983
 20
-105.0520113828
 10
23.2102536004
 20
-105.0764555542
 10
23.1711398128
 20
-105.0975323716
  0
LINE
  5
2E7
100
AcDbEntity
  8
0
100
AcDbLine
 62
7
  6
CONTINUOUS
 10
13.8663639791
 20
-95.1045894312
 11
13.8663639791
 21
-80.4753255904
  0
LINE
  5
2E8
100
AcDbEntity
  8
0
100
AcDbLine
 62
7
  6
CONTINUOUS
 10
13.8663639791
 20
-74.9522194805
 11
13.8663639791
 21
74.6540270002
  0
LINE
  5
2E9
100
AcDbEntity
  8
0
100
AcDbLine
 62
7
  6
CONTINUOUS
 10
13.8663639791
 20
80.1771331101
 11
13.8663639791
 21
90.2636698696
  0
LINE
  5
2EA
100
AcDbEntity
  8
0
100
AcDbLine
 62
7
  6
CONTINUOUS
 10
15.2805775414
 20
-94.2880402445
 11
15.2805775414
 21
-79.8656761119
  0
LINE
  5
2EB
100
AcDbEntity
  8
0
100
AcDbLine
 62
7
  6
CONTINUOUS
 10
15.2805775414
 20
-74.1356702939
 11
15.2805775414
 21
75.2636764787
  0
LINE
  5
2EC
100
AcDbEntity
  8
0
100
AcDbLine
 62
7
  6
CONTINUOUS
 10
15.2805775414
 20
80.9936822968
 11
15.2805775414
 21
89.5042156226
  0
LINE
  5
2ED
100
AcDbEntity
  8
ASSI
100
AcDbLine
 62
7
  6
CONTINUOUS
 10
22.7051987439
 20
-108.1686070465
 11
22.7051987439
 21
-106.1274313545
  0
LINE
  5
2EE
100
AcDbEntity
  8
ASSI
100
AcDbLine
 62
7
  6
CONTINUOUS
 10
24.1194123063
 20
-107.3520578598
 11
24.1194123063
 21
-105.3108821679
  0
LWPOLYLINE
  5
2EF
100
AcDbEntity
  8
0
100
AcDbPolyline
 62
7
  6
CONTINUOUS
 90
16
 70
0
 10
13.8663639791
 20
-80.4753255904
 10
13.8674443368
 20
-80.4311617133
 10
13.8706008656
 20
-80.3885929176
 10
13.8758335653
 20
-80.3476192034
 10
13.883170366
 20
-80.3081281267
 10
13.8925833376
 20
-80.2702321314
 10
13.9039886904
 20
-80.2342685495
 10
13.9174042125
 20
-80.2002546338
 10
13.9328121158
 20
-80.1681731314
 10
13.9500752465
 20
-80.1383096167
 10
13.9692101682
 20
-80.1106838918
 10
13.9902003173
 20
-80.0852761545
 10
14.0128588497
 20
-80.0623125722
 10
14.0372006606
 20
-80.0418149666
 10
14.0632108547
 20
-80.023761516
 10
14.0734502333
 20
-80.017595019
  0
LWPOLYLINE
  5
2F0
100
AcDbEntity
  8
0
100
AcDbPolyline
 62
7
  6
CONTINUOUS
 90
3
 70
0
 10
-50.7732941677
 20
-58.0975004527
 10
-50.8111636511
 20
-58.1211042013
 10
-50.8591978838
 20
-58.1565082282
  0
LINE
  5
2F1
100
AcDbEntity
  8
0
100
AcDbLine
 62
7
  6
CONTINUOUS
 10
-62.0051818704
 20
-52.4416625312
 11
-61.1657901968
 21
-51.957008299
  0
LINE
  5
2F2
100
AcDbEntity
  8
0
100
AcDbLine
 62
7
  6
CONTINUOUS
 10
-60.8051238861
 20
-54.520090022
 11
-59.9657352096
 21
-54.0354375202
  0
LINE
  5
2F3
100
AcDbEntity
  8
0
100
AcDbLine
 62
253
  6
CONTINUOUS
 10
-56.8443141396
 20
-54.2771300984
 11
-55.4301005772
 21
-53.4605809117
  0
LINE
  5
2F4
100
AcDbEntity
  8
0
100
AcDbLine
 62
253
  6
CONTINUOUS
 10
-56.1372073584
 20
-55.5018749685
 11
-54.722993796
 21
-54.6853257819
  0
LINE
  5
2F5
100
AcDbEntity
  8
0
100
AcDbLine
 62
253
  6
CONTINUOUS
 10
-51.4703026026
 20
-58.1964872845
 11
-50.0560890402
 21
-57.3799380978
  0
LINE
  5
2F6
100
AcDbEntity
  8
ASSI
100
AcDbLine
 62
7
  6
CONTINUOUS
 10
-49.3590810856
 20
-57.2809504343
 11
-50.773294648
 21
-58.097499621
  0
LWPOLYLINE
  5
2F7
100
AcDbEntity
  8
0
100
AcDbPolyline
 62
7
  6
CONTINUOUS
 90
6
 70
0
 10
-62.0041487496
 20
-52.443451845
 10
-61.948658049
 20
-52.4163992153
 10
-61.829416947
 20
-52.3874107192
 10
-61.7006268368
 20
-52.3927563262
 10
-61.5592054805
 20
-52.4306567346
 10
-61.4051528782
 20
-52.5011119445
  0
LWPOLYLINE
  5
2F8
100
AcDbEntity
  8
0
100
AcDbPolyline
 62
7
  6
CONTINUOUS
 90
6
 70
0
 10
-60.8061570069
 20
-54.5183007083
 10
-60.8616477075
 20
-54.5453533379
 10
-60.9808888095
 20
-54.574341834
 10
-61.1096789197
 20
-54.568996227
 10
-61.2511002759
 20
-54.5310958186
 10
-61.4051528782
 20
-54.4606406088
  0
LWPOLYLINE
  5
2F9
100
AcDbEntity
  8
ASSI
100
AcDbPolyline
 62
7
  6
CONTINUOUS
 90
11
 70
0
 10
-60.5838553879
 20
39.5017494669
 10
-60.5798369758
 20
39.5008027271
 10
-60.5327734211
 20
39.4928842127
 10
-60.4865169252
 20
39.4882997197
 10
-60.4414461151
 20
39.4870867739
 10
-60.3975707226
 20
39.4892730482
 10
-60.3548810159
 20
39.4948308697
 10
-60.3137264264
 20
39.5037147454
 10
-60.2741195539
 20
39.515951975
 10
-60.2360477987
 20
39.5315152589
 10
-60.1997901762
 20
39.5502960361
  0
LWPOLYLINE
  5
2FA
100
AcDbEntity
  8
0
100
AcDbPolyline
 62
7
  6
CONTINUOUS
 90
5
 70
0
 10
-61.4051528782
 20
41.0255582622
 10
-61.5222892263
 20
41.0752336005
 10
-61.6261959608
 20
41.0962450599
 10
-61.7168730816
 20
41.0885926402
 10
-61.7793939617
 20
41.061397757
  0
LINE
  5
2FB
100
AcDbEntity
  8
ASSI
100
AcDbLine
 62
7
  6
CONTINUOUS
 10
25.8871792592
 20
-107.9646670245
 11
25.8871792592
 21
-110.0058427165
  0
LWPOLYLINE
  5
2FC
100
AcDbEntity
  8
ASSI
100
AcDbPolyline
 62
7
  6
CONTINUOUS
 90
4
 70
0
 10
24.1286189384
 20
-105.1227498621
 10
24.1260290083
 20
-105.1474207864
 10
24.1210894853
 20
-105.227950784
 10
24.1194123063
 20
-105.3108821679
  0
LWPOLYLINE
  5
2FD
100
AcDbEntity
  8
0
100
AcDbPolyline
 62
7
  6
CONTINUOUS
 90
13
 70
0
 10
-48.9100505441
 20
-74.9597466551
 10
-48.9277026215
 20
-74.9716258726
 10
-48.9946459653
 20
-75.0393638525
 10
-49.0401833446
 20
-75.1274923049
 10
-49.0615893091
 20
-75.2386073858
 10
-49.0615893091
 20
-75.3701129392
 10
-49.0401833446
 20
-75.5059470913
 10
-48.9946459653
 20
-75.646660968
 10
-48.9277026215
 20
-75.7917034433
 10
-48.847529664
 20
-75.9233592658
 10
-48.7568525432
 20
-76.0357233517
 10
-48.6529458087
 20
-76.1347007848
 10
-48.5358094606
 20
-76.220291565
  0
LWPOLYLINE
  5
2FE
100
AcDbEntity
  8
0
100
AcDbPolyline
 62
7
  6
CONTINUOUS
 90
13
 70
0
 10
-48.1615683772
 20
-76.2561310598
 10
-48.1439162998
 20
-76.2442518422
 10
-48.076972956
 20
-76.1765138624
 10
-48.0314355767
 20
-76.08838541
 10
-48.0100296122
 20
-75.9772703291
 10
-48.0100296122
 20
-75.8457647757
 10
-48.0314355767
 20
-75.7099306236
 10
-48.076972956
 20
-75.5692167469
 10
-48.1439162998
 20
-75.4241742716
 10
-48.2240892573
 20
-75.2925184491
 10
-48.3147663781
 20
-75.1801543632
 10
-48.4186731126
 20
-75.0811769301
 10
-48.5358094606
 20
-74.9955861498
  0
LWPOLYLINE
  5
2FF
100
AcDbEntity
  8
ASSI
100
AcDbPolyline
 62
7
  6
CONTINUOUS
 90
11
 70
0
 10
-48.6805119909
 20
-74.1326174489
 10
-48.7148424745
 20
-74.1545854822
 10
-48.7473588253
 20
-74.1797710088
 10
-48.7777622686
 20
-74.2079490452
 10
-48.806035462
 20
-74.2391441534
 10
-48.8321957479
 20
-74.2733317715
 10
-48.8560289945
 20
-74.3102320608
 10
-48.8775161018
 20
-74.3498672864
 10
-48.8966761697
 20
-74.3922151833
 10
-48.9133523659
 20
-74.4369291179
 10
-48.9145669575
 20
-74.4409657239
  0
LWPOLYLINE
  5
300
100
AcDbEntity
  8
ASSI
100
AcDbPolyline
 62
7
  6
CONTINUOUS
 90
19
 70
0
 10
-47.5395383058
 20
-64.2700730388
 10
-47.5521790017
 20
-64.277542351
 10
-47.6016858271
 20
-64.3101651253
 10
-47.6486382234
 20
-64.346662396
 10
-47.693020329
 20
-64.3870582211
 10
-47.7348480055
 20
-64.4313285425
 10
-47.7738620657
 20
-64.4791990373
 10
-47.8100450389
 20
-64.5306920601
 10
-47.8434143959
 20
-64.5857852564
 10
-47.873763362
 20
-64.6441372385
 10
-47.9010731825
 20
-64.7057682415
 10
-47.925362612
 20
-64.7706580305
 10
-47.9464811402
 20
-64.838404513
 10
-47.9644090776
 20
-64.9090254272
 10
-47.9791661137
 20
-64.982503035
 10
-47.9906608056
 20
-65.058382029
 10
-47.9988626727
 20
-65.1365106403
 10
-48.0038021958
 20
-65.2170406379
 10
-48.0054793748
 20
-65.2999720217
  0
LINE
  5
301
100
AcDbEntity
  8
0
100
AcDbLine
 62
7
  6
CONTINUOUS
 10
-72.1178206132
 20
-72.8924788076
 11
-65.3295955138
 21
-68.9730427116
  0
LINE
  5
302
100
AcDbEntity
  8
0
100
AcDbLine
 62
253
  6
CONTINUOUS
 10
-48.6418754778
 20
-59.5029975471
 11
-47.2276619154
 21
-58.6864483604
  0
LINE
  5
303
100
AcDbEntity
  8
0
100
AcDbLine
 62
253
  6
CONTINUOUS
 10
-48.0761900529
 20
-60.1562053324
 11
-46.6619764905
 21
-59.3396561458
  0
LINE
  5
304
100
AcDbEntity
  8
ASSI
100
AcDbLine
 62
253
  6
CONTINUOUS
 10
-46.5912658124
 20
-64.4834228351
 11
-48.0054793748
 21
-65.2999720217
  0
LINE
  5
305
100
AcDbEntity
  8
ASSI
100
AcDbLine
 62
253
  6
CONTINUOUS
 10
-46.5912658124
 20
-66.5245985271
 11
-48.0054793748
 21
-67.3411477137
  0
LWPOLYLINE
  5
306
100
AcDbEntity
  8
0
100
AcDbPolyline
 62
7
  6
CONTINUOUS
 90
17
 70
0
 10
-50.9702786826
 20
-58.2460280463
 10
-50.9766685267
 20
-58.2496248887
 10
-51.0033745842
 20
-58.2627488935
 10
-51.0313881112
 20
-58.2735696016
 10
-51.0604871007
 20
-58.282001259
 10
-51.0906801776
 20
-58.2880248822
 10
-51.121958717
 20
-58.2916594548
 10
-51.1540748366
 20
-58.2928761727
 10
-51.1870351918
 20
-58.2916558237
 10
-51.2208331272
 20
-58.28801762
 10
-51.2552007944
 20
-58.2819903944
 10
-51.2901427206
 20
-58.2735551637
 10
-51.3256543786
 20
-58.262730911
 10
-51.3614543387
 20
-58.2496034186
 10
-51.3974487912
 20
-58.2342012804
 10
-51.4337315458
 20
-58.2164959023
 10
-51.4703026026
 20
-58.1964872845
  0
LINE
  5
307
100
AcDbEntity
  8
ASSI
100
AcDbLine
 62
253
  6
CONTINUOUS
 10
-77.0675680815
 20
74.7948213927
 11
-75.6533545191
 21
73.978272206
  0
LINE
  5
308
100
AcDbEntity
  8
ASSI
100
AcDbLine
 62
253
  6
CONTINUOUS
 10
71.4248559677
 20
-10.9428432061
 11
70.0106424053
 21
-10.1262940195
  0
LINE
  5
309
100
AcDbEntity
  8
ASSI
100
AcDbLine
 62
253
  6
CONTINUOUS
 10
-78.4988364047
 20
81.126765232
 11
-77.0846228423
 21
80.3102160454
  0
LINE
  5
30A
100
AcDbEntity
  8
ASSI
100
AcDbLine
 62
253
  6
CONTINUOUS
 10
69.9935876445
 20
-4.6108993668
 11
68.5793740821
 21
-3.7943501801
  0
LINE
  5
30B
100
AcDbEntity
  8
ASSI
100
AcDbLine
 62
253
  6
CONTINUOUS
 10
-80.8646262489
 20
85.3615839681
 11
-79.4504126866
 21
84.5450347814
  0
LINE
  5
30C
100
AcDbEntity
  8
ASSI
100
AcDbLine
 62
253
  6
CONTINUOUS
 10
67.6277978002
 20
-0.3760806308
 11
66.2135842379
 21
0.4404685559
  0
LWPOLYLINE
  5
30D
100
AcDbEntity
  8
ASSI
100
AcDbPolyline
 62
7
  6
CONTINUOUS
 90
55
 70
0
 10
40.2060915783
 20
-118.4775208006
 10
40.2079716321
 20
-118.5768533469
 10
40.2135169122
 20
-118.6777449821
 10
40.2227274187
 20
-118.7801957061
 10
40.2356345983
 20
-118.8844062206
 10
40.2522070042
 20
-118.9901758239
 10
40.2723502963
 20
-119.0969024118
 10
40.2960848409
 20
-119.2045914422
 10
40.3233902718
 20
-119.3132374571
 10
40.3541111498
 20
-119.4222219779
 10
40.3882669549
 20
-119.5315469351
 10
40.4258382071
 20
-119.6412103982
 10
40.4666110284
 20
-119.7505880966
 10
40.5106036785
 20
-119.8596784003
 10
40.5577978977
 20
-119.9684829393
 10
40.6079250278
 20
-120.0763823324
 10
40.6610017967
 20
-120.1833714173
 10
40.7170114765
 20
-120.2894553563
 10
40.7756352265
 20
-120.3940302557
 10
40.8368879558
 20
-120.4970875088
 10
40.9007547552
 20
-120.5986357223
 10
40.9668720564
 20
-120.6980968225
 10
41.035252695
 20
-120.7954589057
 10
41.1058838353
 20
-120.8907338756
 10
41.1783634024
 20
-120.9833793695
 10
41.2527019385
 20
-121.0733803905
 10
41.3288889014
 20
-121.1607519356
 10
41.4064905888
 20
-121.2449966332
 10
41.4855150696
 20
-121.3260966496
 10
41.5659542749
 20
-121.4040698186
 10
41.6473502963
 20
-121.4784722697
 10
41.7297085909
 20
-121.5492836378
 10
41.8130237016
 20
-121.616524288
 10
41.8968213485
 20
-121.6798114461
 10
41.9811042837
 20
-121.7391225637
 10
42.0658697551
 20
-121.7944801891
 10
42.1506352265
 20
-121.8455691934
 10
42.2354006979
 20
-121.8923652308
 10
42.3201661693
 20
-121.934892647
 10
42.4044491045
 20
-121.9729093504
 10
42.4882467514
 20
-122.0063896144
 10
42.5715618621
 20
-122.0353591656
 10
42.6539201567
 20
-122.0596530918
 10
42.7353161781
 20
-122.0792447259
 10
42.8157553835
 20
-122.094160735
 10
42.8947798642
 20
-122.1043162082
 10
42.9723815517
 20
-122.109683994
 10
43.0485685145
 20
-122.110291244
 10
43.1229070507
 20
-122.1061345012
 10
43.1953866177
 20
-122.0971865945
 10
43.2660177581
 20
-122.0834746951
 10
43.3343983966
 20
-122.0650768593
 10
43.4005156978
 20
-122.0419663612
 10
43.4643824972
 20
-122.0141699268
 10
43.5257016669
 20
-121.981807432
  0
LWPOLYLINE
  5
30E
100
AcDbEntity
  8
ASSI
100
AcDbPolyline
 62
7
  6
CONTINUOUS
 90
43
 70
0
 10
41.6203051406
 20
-117.6609716139
 10
41.6221851945
 20
-117.7603041602
 10
41.6277304746
 20
-117.8611957954
 10
41.6369409811
 20
-117.9636465195
 10
41.6498481607
 20
-118.0678570339
 10
41.6664205666
 20
-118.1736266373
 10
41.6865638587
 20
-118.2803532251
 10
41.7102984033
 20
-118.3880422556
 10
41.7376038341
 20
-118.4966882705
 10
41.7683247122
 20
-118.6056727912
 10
41.8024805172
 20
-118.7149977485
 10
41.8400517695
 20
-118.8246612116
 10
41.8808245907
 20
-118.9340389099
 10
41.9248172409
 20
-119.0431292136
 10
41.97201146
 20
-119.1519337526
 10
42.0221385902
 20
-119.2598331457
 10
42.075215359
 20
-119.3668222306
 10
42.1312250389
 20
-119.4729061697
 10
42.1898487889
 20
-119.5774810691
 10
42.2511015182
 20
-119.6805383222
 10
42.3149683176
 20
-119.7820865357
 10
42.3810856188
 20
-119.8815476359
 10
42.4494662574
 20
-119.978909719
 10
42.5200973977
 20
-120.0741846889
 10
42.5925769648
 20
-120.1668301828
 10
42.6669155009
 20
-120.2568312039
 10
42.7431024638
 20
-120.3442027489
 10
42.8207041512
 20
-120.4284474466
 10
42.899728632
 20
-120.509547463
 10
42.9801678373
 20
-120.5875206319
 10
43.0615638587
 20
-120.6619230831
 10
43.1439221533
 20
-120.7327344511
 10
43.227237264
 20
-120.7999751014
 10
43.3110349109
 20
-120.8632622595
 10
43.3953178461
 20
-120.922573377
 10
43.4800833175
 20
-120.9779310024
 10
43.5648487889
 20
-121.0290200067
 10
43.6496142603
 20
-121.0758160441
 10
43.7343797317
 20
-121.1183434604
 10
43.8186626669
 20
-121.1563601638
 10
43.9024603138
 20
-121.1898404278
 10
43.9857754245
 20
-121.218809979
 10
44.0366618401
 20
-121.2338203775
  0
LWPOLYLINE
  5
30F
100
AcDbEntity
  8
ASSI
100
AcDbPolyline
 62
7
  6
CONTINUOUS
 90
55
 70
0
 10
44.0951788748
 20
-118.6818553719
 10
44.093298821
 20
-118.5825228256
 10
44.0877535408
 20
-118.4816311904
 10
44.0785430343
 20
-118.3791804663
 10
44.0656358548
 20
-118.2749699518
 10
44.0490634489
 20
-118.1692003485
 10
44.0289201567
 20
-118.0624737606
 10
44.0051856121
 20
-117.9547847302
 10
43.9778801813
 20
-117.8461387153
 10
43.9471593032
 20
-117.7371541945
 10
43.9130034982
 20
-117.6278292373
 10
43.8754322459
 20
-117.5181657742
 10
43.8346594247
 20
-117.4087880759
 10
43.7906667745
 20
-117.2996977721
 10
43.7434725554
 20
-117.1908932332
 10
43.6933454252
 20
-117.08299384
 10
43.6402686564
 20
-116.9760047552
 10
43.5842589765
 20
-116.8699208161
 10
43.5256352265
 20
-116.7653459167
 10
43.4643824972
 20
-116.6622886636
 10
43.4005156978
 20
-116.5607404501
 10
43.3343983966
 20
-116.4612793499
 10
43.2660177581
 20
-116.3639172667
 10
43.1953866177
 20
-116.2686422969
 10
43.1229070507
 20
-116.1759968029
 10
43.0485685145
 20
-116.0859957819
 10
42.9723815517
 20
-115.9986242368
 10
42.8947798642
 20
-115.9143795392
 10
42.8157553835
 20
-115.8332795228
 10
42.7353161781
 20
-115.7553063539
 10
42.6539201567
 20
-115.6809039027
 10
42.5715618621
 20
-115.6100925347
 10
42.4882467514
 20
-115.5428518844
 10
42.4044491045
 20
-115.4795647263
 10
42.3201661693
 20
-115.4202536087
 10
42.2354006979
 20
-115.3648959833
 10
42.1506352265
 20
-115.313806979
 10
42.0658697551
 20
-115.2670109417
 10
41.9811042837
 20
-115.2244835254
 10
41.8968213485
 20
-115.186466822
 10
41.8130237016
 20
-115.152986558
 10
41.7297085909
 20
-115.1240170068
 10
41.6473502963
 20
-115.0997230806
 10
41.5659542749
 20
-115.0801314465
 10
41.4855150696
 20
-115.0652154374
 10
41.4064905888
 20
-115.0550599642
 10
41.3288889014
 20
-115.0496921784
 10
41.2527019385
 20
-115.0490849284
 10
41.1783634024
 20
-115.0532416713
 10
41.1058838353
 20
-115.0621895779
 10
41.035252695
 20
-115.0759014774
 10
40.9668720564
 20
-115.0942993132
 10
40.9007547552
 20
-115.1174098112
 10
40.8368879558
 20
-115.1452062456
 10
40.7755687862
 20
-115.1775687405
  0
LINE
  5
310
100
AcDbEntity
  8
ASSI
100
AcDbLine
 62
7
  6
CONTINUOUS
 10
40.2060915783
 20
-118.4775208006
 11
40.2060915783
 21
-116.4363451086
  0
LINE
  5
311
100
AcDbEntity
  8
ASSI
100
AcDbLine
 62
7
  6
CONTINUOUS
 10
41.6203051406
 20
-117.6609716139
 11
41.6203051406
 21
-115.6197959219
  0
LINE
  5
312
100
AcDbEntity
  8
ASSI
100
AcDbLine
 62
7
  6
CONTINUOUS
 10
44.0951788748
 20
-118.6818553719
 11
44.0951788748
 21
-120.7230310639
  0
LWPOLYLINE
  5
313
100
AcDbEntity
  8
ASSI
100
AcDbPolyline
 62
7
  6
CONTINUOUS
 90
16
 70
0
 10
-47.3304467586
 20
-76.470848376
 10
-47.296116275
 20
-76.4488803427
 10
-47.2635999242
 20
-76.4236948161
 10
-47.233196481
 20
-76.3955167797
 10
-47.2049232875
 20
-76.3643216715
 10
-47.1787630016
 20
-76.3301340534
 10
-47.1549297551
 20
-76.2932337641
 10
-47.1334426477
 20
-76.2535985385
 10
-47.1142825798
 20
-76.2112506416
 10
-47.0976063836
 20
-76.166536707
 10
-47.0834344463
 20
-76.1194373147
 10
-47.0717463808
 20
-76.0699718847
 10
-47.0626378583
 20
-76.0185453103
 10
-47.0561407692
 20
-75.9652925558
 10
-47.0522232232
 20
-75.9100786569
 10
-47.0508852202
 20
-75.8529036134
  0
LWPOLYLINE
  5
314
100
AcDbEntity
  8
ASSI
100
AcDbPolyline
 62
7
  6
CONTINUOUS
 90
19
 70
0
 10
-29.9351093325
 20
-74.3501094077
 10
-29.9936666421
 20
-74.3869487119
 10
-30.049676322
 20
-74.4283540766
 10
-30.1027530908
 20
-74.4740514392
 10
-30.152880221
 20
-74.5240652789
 10
-30.2000744401
 20
-74.5783711166
 10
-30.2440670903
 20
-74.6366598106
 10
-30.2848399115
 20
-74.698954077
 10
-30.3224111638
 20
-74.7652311997
 10
-30.3565669688
 20
-74.8351138894
 10
-30.3872878469
 20
-74.9086227103
 10
-30.4145932777
 20
-74.9857370981
 10
-30.4383278223
 20
-75.0660180714
 10
-30.4584711144
 20
-75.1494836904
 10
-30.4750435204
 20
-75.2361158948
 10
-30.4879506999
 20
-75.3254215218
 10
-30.4971612064
 20
-75.4172361838
 10
-30.5027064866
 20
-75.5117242685
 10
-30.5045865404
 20
-75.6088857758
  0
LWPOLYLINE
  5
315
100
AcDbEntity
  8
ASSI
100
AcDbPolyline
 62
7
  6
CONTINUOUS
 90
19
 70
0
 10
-45.2894399283
 20
-70.2082823666
 10
-45.2767992325
 20
-70.2008130544
 10
-45.227292407
 20
-70.1681902801
 10
-45.1803400108
 20
-70.1316930095
 10
-45.1359579052
 20
-70.0912971843
 10
-45.0941302287
 20
-70.0470268629
 10
-45.0551161685
 20
-69.9991563682
 10
-45.0189331953
 20
-69.9476633453
 10
-44.9855638383
 20
-69.8925701491
 10
-44.9552148722
 20
-69.8342181669
 10
-44.9279050517
 20
-69.7725871639
 10
-44.9036156221
 20
-69.7076973749
 10
-44.882497094
 20
-69.6399508924
 10
-44.8645691565
 20
-69.5693299782
 10
-44.8498121205
 20
-69.4958523704
 10
-44.8383174285
 20
-69.4199733764
 10
-44.8301155615
 20
-69.3418447651
 10
-44.8251760384
 20
-69.2613147675
 10
-44.8234988594
 20
-69.1783833837
  0
LINE
  5
316
100
AcDbEntity
  8
0
100
AcDbLine
 62
7
  6
CONTINUOUS
 10
-49.1358384528
 20
-74.5687251121
 11
-48.2964467792
 21
-74.0840708798
  0
LINE
  5
317
100
AcDbEntity
  8
0
100
AcDbLine
 62
7
  6
CONTINUOUS
 10
-47.9357804685
 20
-76.6471526028
 11
-47.096391792
 21
-76.162500101
  0
LWPOLYLINE
  5
318
100
AcDbEntity
  8
0
100
AcDbPolyline
 62
7
  6
CONTINUOUS
 90
6
 70
0
 10
-49.134805332
 20
-74.5705144258
 10
-49.0793146314
 20
-74.5434617962
 10
-48.9600735294
 20
-74.5144733001
 10
-48.8312834192
 20
-74.519818907
 10
-48.6898620629
 20
-74.5577193154
 10
-48.5358094606
 20
-74.6281745253
  0
LWPOLYLINE
  5
319
100
AcDbEntity
  8
0
100
AcDbPolyline
 62
7
  6
CONTINUOUS
 90
6
 70
0
 10
-47.9368135893
 20
-76.6453632891
 10
-47.9923042899
 20
-76.6724159187
 10
-48.1115453919
 20
-76.7014044148
 10
-48.2403355021
 20
-76.6960588079
 10
-48.3817568583
 20
-76.6581583994
 10
-48.5358094606
 20
-76.5877031896
  0
LINE
  5
31A
100
AcDbEntity
  8
ASSI
100
AcDbLine
 62
253
  6
CONTINUOUS
 10
-82.6537116529
 20
93.2765137672
 11
-81.2394980905
 21
92.4599645806
  0
LINE
  5
31B
100
AcDbEntity
  8
ASSI
100
AcDbLine
 62
253
  6
CONTINUOUS
 10
65.8387123963
 20
7.5388491684
 11
64.4244988339
 21
8.3553983551
  0
LWPOLYLINE
  5
31C
100
AcDbEntity
  8
0
100
AcDbPolyline
 62
7
  6
CONTINUOUS
 90
27
 70
0
 10
52.7581593566
 20
69.9880178066
 10
52.7608449918
 20
69.9510225105
 10
52.76529385
 20
69.9133681409
 10
52.7715328561
 20
69.8749231242
 10
52.7795350851
 20
69.8358190339
 10
52.7892197619
 20
69.7964505901
 10
52.8006039265
 20
69.7568151153
 10
52.8136705389
 20
69.7169152869
 10
52.8282877034
 20
69.6771538573
 10
52.8444711245
 20
69.6375322282
 10
52.8622050977
 20
69.5980489978
 10
52.8813106149
 20
69.5591027134
 10
52.9018015673
 20
69.5206988131
 10
52.9236640636
 20
69.4828318587
 10
52.946677422
 20
69.4458840825
 10
52.9708532985
 20
69.4098647942
 10
52.996180037
 20
69.374764684
 10
53.0224019873
 20
69.3409380556
 10
53.0495282161
 20
69.308397807
 10
53.0775496567
 20
69.2771310402
 10
53.1061834582
 20
69.2474533645
 10
53.1354358227
 20
69.2193808747
 10
53.1653005481
 20
69.192897476
 10
53.1954761772
 20
69.1682704943
 10
53.2258622245
 20
69.1455890381
 10
53.2565591755
 20
69.1247639988
 10
53.2875670302
 20
69.1057953764
  0
LWPOLYLINE
  5
31D
100
AcDbEntity
  8
ASSI
100
AcDbPolyline
 62
7
  6
CONTINUOUS
 90
46
 70
0
 10
62.5506658638
 20
-139.1354655792
 10
62.5493278608
 20
-139.0767454435
 10
62.5454103147
 20
-139.0170076606
 10
62.5389132257
 20
-138.9562522305
 10
62.5298047032
 20
-138.8943073626
 10
62.5181166376
 20
-138.8313448475
 10
62.5039447003
 20
-138.7678800573
 10
62.4872685041
 20
-138.7039088693
 10
62.4681084362
 20
-138.6394354062
 10
62.4466213289
 20
-138.5749874076
 10
62.4227880823
 20
-138.5105650826
 10
62.3966277964
 20
-138.4461682221
 10
62.368354603
 20
-138.3823239388
 10
62.3379511597
 20
-138.3190367682
 10
62.3054348089
 20
-138.2563021747
 10
62.2710717092
 20
-138.1946336649
 10
62.2348467028
 20
-138.1340399888
 10
62.1967749476
 20
-138.0745123963
 10
62.1571680752
 20
-138.0165381432
 10
62.1160134856
 20
-137.960129979
 10
62.0733237789
 20
-137.9052751543
 10
62.0294483865
 20
-137.8524226766
 10
61.9843775763
 20
-137.8015889806
 10
61.9381210804
 20
-137.7527576316
 10
61.8910575257
 20
-137.7063283326
 10
61.8431802879
 20
-137.662320799
 10
61.7944959912
 20
-137.6207153155
 10
61.7454031351
 20
-137.5818524387
 10
61.6958983661
 20
-137.5457546792
 10
61.6459850376
 20
-137.5123995263
 10
61.5960717092
 20
-137.4820600046
 10
61.5461583807
 20
-137.4547608657
 10
61.4962450522
 20
-137.430477358
 10
61.4467402833
 20
-137.4094082512
 10
61.3976474271
 20
-137.3915799283
 10
61.3489631305
 20
-137.3769660063
 10
61.3010858927
 20
-137.3656861057
 10
61.2540223379
 20
-137.3577675914
 10
61.207765842
 20
-137.3531830984
 10
61.1626950319
 20
-137.3519701526
 10
61.1188196394
 20
-137.3541564269
 10
61.0761299327
 20
-137.3597142484
 10
61.0349753432
 20
-137.3685981241
 10
60.9953684707
 20
-137.3808353537
 10
60.9572967155
 20
-137.3963986375
 10
60.921039093
 20
-137.4151794147
  0
LWPOLYLINE
  5
31E
100
AcDbEntity
  8
ASSI
100
AcDbPolyline
 62
7
  6
CONTINUOUS
 90
53
 70
0
 10
58.4140911938
 20
-128.7864740095
 10
58.4157683728
 20
-128.8713421577
 10
58.4207078959
 20
-128.9575761926
 10
58.4289097629
 20
-129.0451761144
 10
58.4404044549
 20
-129.1343288906
 10
58.4551614909
 20
-129.2248475537
 10
58.4730894284
 20
-129.3161712007
 10
58.4942079565
 20
-129.4083048301
 10
58.5184973861
 20
-129.5012434436
 10
58.5458072066
 20
-129.5944111427
 10
58.5761561727
 20
-129.6878093502
 10
58.6095255297
 20
-129.7814366434
 10
58.6457085029
 20
-129.8747128568
 10
58.6847225631
 20
-129.9676358104
 10
58.7265502396
 20
-130.0602076842
 10
58.7709323452
 20
-130.1518548524
 10
58.8178847414
 20
-130.2425715733
 10
58.8673915669
 20
-130.3323635887
 10
58.9191460503
 20
-130.4206744984
 10
58.9731621482
 20
-130.5074951058
 10
59.0294259041
 20
-130.5928346075
 10
59.0875886772
 20
-130.6761641936
 10
59.1476622591
 20
-130.7574713837
 10
59.2096348582
 20
-130.8367686583
 10
59.2731224586
 20
-130.9135646482
 10
59.3381344673
 20
-130.987843822
 10
59.4046614773
 20
-131.0596217112
 10
59.472291251
 20
-131.128453541
 10
59.5410306359
 20
-131.1943210181
 10
59.6108727845
 20
-131.2572424357
 10
59.6813849169
 20
-131.3168278985
 10
59.7525711932
 20
-131.3730566923
 10
59.8244274533
 20
-131.4259495313
 10
59.8965084367
 20
-131.4751786628
 10
59.9688155388
 20
-131.5207213374
 10
60.0413473642
 20
-131.5626003043
 10
60.1136544663
 20
-131.6005560588
 10
60.1857354497
 20
-131.6345642402
 10
60.2575917098
 20
-131.6646492092
 10
60.3287779861
 20
-131.6906245429
 10
60.3992901185
 20
-131.7124647231
 10
60.4691322671
 20
-131.730195268
 10
60.5378716519
 20
-131.7437063096
 10
60.6055014257
 20
-131.7529716473
 10
60.6720284357
 20
-131.7580174817
 10
60.7370404444
 20
-131.758812546
 10
60.8005280447
 20
-131.7553304456
 10
60.8625006438
 20
-131.7475975751
 10
60.9225742258
 20
-131.7356618515
 10
60.9807369988
 20
-131.7194971779
 10
61.0370007548
 20
-131.6991296512
 10
61.0910168527
 20
-131.6746854798
 10
61.1301306402
 20
-131.6536086624
  0
LWPOLYLINE
  5
31F
100
AcDbEntity
  8
ASSI
100
AcDbPolyline
 62
7
  6
CONTINUOUS
 90
38
 70
0
 10
59.8283047562
 20
-127.9699248229
 10
59.8299819352
 20
-128.054792971
 10
59.8349214582
 20
-128.141027006
 10
59.8431233253
 20
-128.2286269277
 10
59.8546180173
 20
-128.317779704
 10
59.8693750533
 20
-128.408298367
 10
59.8873029908
 20
-128.4996220141
 10
59.9084215189
 20
-128.5917556435
 10
59.9327109485
 20
-128.6846942569
 10
59.9600207689
 20
-128.7778619561
 10
59.990369735
 20
-128.8712601635
 10
60.023739092
 20
-128.9648874568
 10
60.0599220653
 20
-129.0581636702
 10
60.0989361255
 20
-129.1510866238
 10
60.1407638019
 20
-129.2436584975
 10
60.1851459076
 20
-129.3353056657
 10
60.2320983038
 20
-129.4260223866
 10
60.2816051292
 20
-129.515814402
 10
60.3333596127
 20
-129.6041253118
 10
60.3873757106
 20
-129.6909459191
 10
60.4436394665
 20
-129.7762854208
 10
60.5018022396
 20
-129.8596150069
 10
60.5618758215
 20
-129.9409221971
 10
60.6238484206
 20
-130.0202194716
 10
60.6873360209
 20
-130.0970154615
 10
60.7523480297
 20
-130.1712946354
 10
60.8188750397
 20
-130.2430725246
 10
60.8865048134
 20
-130.3119043543
 10
60.9552441983
 20
-130.3777718314
 10
61.0250863469
 20
-130.440693249
 10
61.0955984792
 20
-130.5002787118
 10
61.1667847555
 20
-130.5565075057
 10
61.2386410156
 20
-130.6094003447
 10
61.310721999
 20
-130.6586294761
 10
61.3830291012
 20
-130.7041721507
 10
61.4555609266
 20
-130.7460511177
 10
61.5278680287
 20
-130.7840068722
 10
61.586865077
 20
-130.8118419852
  0
LWPOLYLINE
  5
320
100
AcDbEntity
  8
ASSI
100
AcDbPolyline
 62
7
  6
CONTINUOUS
 90
53
 70
0
 10
61.5960717092
 20
-128.5825339875
 10
61.5943945302
 20
-128.4976658394
 10
61.5894550071
 20
-128.4114318045
 10
61.58125314
 20
-128.3238318827
 10
61.5697584481
 20
-128.2346791064
 10
61.555001412
 20
-128.1441604434
 10
61.5370734746
 20
-128.0528367964
 10
61.5159549465
 20
-127.9607031669
 10
61.4916655169
 20
-127.8677645535
 10
61.4643556964
 20
-127.7745968543
 10
61.4340067303
 20
-127.6811986469
 10
61.4006373733
 20
-127.5875713536
 10
61.3644544001
 20
-127.4942951402
 10
61.3254403399
 20
-127.4013721867
 10
61.2836126634
 20
-127.3088003129
 10
61.2392305578
 20
-127.2171531447
 10
61.1922781615
 20
-127.1264364238
 10
61.1427713361
 20
-127.0366444084
 10
61.0910168527
 20
-126.9483334986
 10
61.0370007548
 20
-126.8615128913
 10
60.9807369988
 20
-126.7761733896
 10
60.9225742258
 20
-126.6928438035
 10
60.8625006438
 20
-126.6115366133
 10
60.8005280447
 20
-126.5322393388
 10
60.7370404444
 20
-126.4554433489
 10
60.6720284357
 20
-126.381164175
 10
60.6055014257
 20
-126.3093862858
 10
60.5378716519
 20
-126.2405544561
 10
60.4691322671
 20
-126.174686979
 10
60.3992901185
 20
-126.1117655614
 10
60.3287779861
 20
-126.0521800986
 10
60.2575917098
 20
-125.9959513048
 10
60.1857354497
 20
-125.9430584657
 10
60.1136544663
 20
-125.8938293343
 10
60.0413473642
 20
-125.8482866597
 10
59.9688155388
 20
-125.8064076928
 10
59.8965084367
 20
-125.7684519382
 10
59.8244274533
 20
-125.7344437568
 10
59.7525711932
 20
-125.7043587879
 10
59.6813849169
 20
-125.6783834542
 10
59.6108727845
 20
-125.656543274
 10
59.5410306359
 20
-125.638812729
 10
59.472291251
 20
-125.6253016875
 10
59.4046614773
 20
-125.6160363497
 10
59.3381344673
 20
-125.6109905153
 10
59.2731224586
 20
-125.6101954511
 10
59.2096348582
 20
-125.6136775515
 10
59.1476622591
 20
-125.621410422
 10
59.0875886772
 20
-125.6333461455
 10
59.0294259041
 20
-125.6495108192
 10
58.9731621482
 20
-125.6698783458
 10
58.9191460503
 20
-125.6943225173
 10
58.8800322627
 20
-125.7153993347
  0
LINE
  5
321
100
AcDbEntity
  8
ASSI
100
AcDbLine
 62
253
  6
CONTINUOUS
 10
54.2775165239
 20
71.1041314075
 11
54.2775165239
 21
69.4711908539
  0
LINE
  5
322
100
AcDbEntity
  8
ASSI
100
AcDbLine
 62
7
  6
CONTINUOUS
 10
58.4140911938
 20
-128.7864740095
 11
58.4140911938
 21
-126.7452983176
  0
LINE
  5
323
100
AcDbEntity
  8
ASSI
100
AcDbLine
 62
7
  6
CONTINUOUS
 10
59.8283047562
 20
-127.9699248229
 11
59.8283047562
 21
-125.9287491309
  0
LWPOLYLINE
  5
324
100
AcDbEntity
  8
0
100
AcDbPolyline
 62
7
  6
CONTINUOUS
 90
4
 70
0
 10
-8.4327910126
 20
-82.6529838278
 10
-8.5009199533
 20
-82.7129997582
 10
-8.5249370697
 20
-82.7307017716
 10
-8.5438718114
 20
-82.742503646
  0
LWPOLYLINE
  5
325
100
AcDbEntity
  8
ASSI
100
AcDbPolyline
 62
7
  6
CONTINUOUS
 90
19
 70
0
 10
-27.1849764518
 20
-81.1543480992
 10
-27.1264191421
 20
-81.117508795
 10
-27.0704094623
 20
-81.0761034303
 10
-27.0173326934
 20
-81.0304060677
 10
-26.9672055633
 20
-80.980392228
 10
-26.9200113441
 20
-80.9260863903
 10
-26.876018694
 20
-80.8677976963
 10
-26.8352458727
 20
-80.8055034299
 10
-26.7976746205
 20
-80.7392263072
 10
-26.7635188154
 20
-80.6693436174
 10
-26.7327979374
 20
-80.5958347966
 10
-26.7054925065
 20
-80.5187204088
 10
-26.6817579619
 20
-80.4384394355
 10
-26.6616146698
 20
-80.3549738165
 10
-26.6450422639
 20
-80.2683416121
 10
-26.6321350843
 20
-80.1790359851
 10
-26.6229245778
 20
-80.087221323
 10
-26.6173792977
 20
-79.9927332384
 10
-26.6154992439
 20
-79.8955717311
  0
LWPOLYLINE
  5
326
100
AcDbEntity
  8
0
100
AcDbPolyline
 62
7
  6
CONTINUOUS
 90
46
 70
0
 10
-1.5965386191
 20
-67.3424316831
 10
-1.6292445919
 20
-67.3623211268
 10
-1.6837628553
 20
-67.4003820736
 10
-1.7355720373
 20
-67.4429729677
 10
-1.7843447006
 20
-67.4898244676
 10
-1.8300616111
 20
-67.5409635523
 10
-1.8727420028
 20
-67.5963632427
 10
-1.9121161414
 20
-67.65567326
 10
-1.948163086
 20
-67.7189183647
 10
-1.9809037774
 20
-67.7860737964
 10
-2.0101313034
 20
-67.8567149948
 10
-2.0358234143
 20
-67.9308640322
 10
-2.0580023598
 20
-68.0084988363
 10
-2.0765279776
 20
-68.089128631
 10
-2.0913771309
 20
-68.1727723809
 10
-2.1025729565
 20
-68.2594111214
 10
-2.1100447016
 20
-68.3484971814
 10
-2.113768782
 20
-68.4400460588
 10
-2.113768782
 20
-68.5340422558
 10
-2.1100447016
 20
-68.6298916079
 10
-2.1025729565
 20
-68.7276058519
 10
-2.0913771309
 20
-68.8271732511
 10
-2.0765279776
 20
-68.9279644312
 10
-2.0580023598
 20
-69.0299871449
 10
-2.0358234143
 20
-69.1332336394
 10
-2.0101313034
 20
-69.2370512824
 10
-1.9809037774
 20
-69.3414436953
 10
-1.948163086
 20
-69.4464072567
 10
-1.9121161414
 20
-69.5512784694
 10
-1.8727420028
 20
-69.656056755
 10
-1.8300616111
 20
-69.760742692
 10
-1.7843447006
 20
-69.8646745189
 10
-1.7355720373
 20
-69.9678474679
 10
-1.6837628553
 20
-70.0702663068
 10
-1.6292445919
 20
-70.1712835776
 10
-1.5720000846
 20
-70.2708904135
 10
-1.5120464958
 20
-70.3690956812
 10
-1.4497627502
 20
-70.4652785238
 10
-1.385134083
 20
-70.5594261429
 10
-1.318175259
 20
-70.6515513368
 10
-1.2493094969
 20
-70.7410716424
 10
-1.1785247102
 20
-70.827970573
 10
-1.1058329855
 20
-70.9122646152
 10
-1.031693801
 20
-70.9934207661
 10
-0.9562603163
 20
-71.0712613579
 10
-0.8793793719
 20
-71.1459640583
  0
LINE
  5
327
100
AcDbEntity
  8
ASSI
100
AcDbLine
 62
253
  6
CONTINUOUS
 10
-29.090372978
 20
-74.7923365891
 11
-30.5045865404
 21
-75.6088857758
  0
LINE
  5
328
100
AcDbEntity
  8
ASSI
100
AcDbLine
 62
253
  6
CONTINUOUS
 10
-29.090372978
 20
-76.8335122811
 11
-30.5045865404
 21
-77.6500614678
  0
LINE
  5
329
100
AcDbEntity
  8
ASSI
100
AcDbLine
 62
7
  6
CONTINUOUS
 10
-0.2757716447
 20
-66.5798279059
 11
-1.5965427231
 21
-67.3424245734
  0
LINE
  5
32A
100
AcDbEntity
  8
0
100
AcDbLine
 62
253
  6
CONTINUOUS
 10
-0.8010509678
 20
-67.2724530746
 11
-0.2998106733
 21
-66.9830432106
  0
LWPOLYLINE
  5
32B
100
AcDbEntity
  8
0
100
AcDbPolyline
 62
7
  6
CONTINUOUS
 90
11
 70
0
 10
-0.4828578989
 20
-67.2444581854
 10
-0.5000655673
 20
-67.2537402807
 10
-0.5289622955
 20
-67.2665607586
 10
-0.5592958766
 20
-67.2767763782
 10
-0.5907962956
 20
-67.284296205
 10
-0.6234739701
 20
-67.2890961709
 10
-0.6573184826
 20
-67.291200344
 10
-0.6920285654
 20
-67.290589994
 10
-0.7275037959
 20
-67.2872588773
 10
-0.7638445967
 20
-67.2812132375
 10
-0.8010509678
 20
-67.2724530746
  0
LWPOLYLINE
  5
32C
100
AcDbEntity
  8
0
100
AcDbPolyline
 62
7
  6
CONTINUOUS
 90
25
 70
0
 10
-56.2407064123
 20
119.8407227774
 10
-56.3562411876
 20
119.9464924083
 10
-56.3925819884
 20
119.9824122144
 10
-56.4280572189
 20
120.0200470047
 10
-56.4627673017
 20
120.0595189882
 10
-56.4966118141
 20
120.100705956
 10
-56.5292894886
 20
120.1432412813
 10
-56.5607899077
 20
120.1871370024
 10
-56.5911234888
 20
120.2323810812
 10
-56.620020217
 20
120.2785707764
 10
-56.647467264
 20
120.3257145306
 10
-56.6734774581
 20
120.3738039014
 10
-56.697819269
 20
120.4224108201
 10
-56.7204778013
 20
120.4715399075
 10
-56.7414679504
 20
120.5211865429
 10
-56.7606028721
 20
120.5709087958
 10
-56.7778660029
 20
120.6207073412
 10
-56.7932739061
 20
120.670581504
 10
-56.8066894282
 20
120.7200873284
 10
-56.818094781
 20
120.7692215258
 10
-56.8275077527
 20
120.8179873848
 10
-56.8348445533
 20
120.865950815
 10
-56.840077253
 20
120.9129671197
 10
-56.8432337818
 20
120.9591809957
 10
-56.8443141396
 20
121.0045924429
  0
LINE
  5
32D
100
AcDbEntity
  8
ASSI
100
AcDbLine
 62
7
  6
CONTINUOUS
 10
68.5793740821
 20
-3.7943501801
 11
66.2135842379
 21
0.4404685559
  0
LINE
  5
32E
100
AcDbEntity
  8
ASSI
100
AcDbLine
 62
7
  6
CONTINUOUS
 10
69.9935876445
 20
-4.6108993668
 11
67.6277978002
 21
-0.3760806308
  0
LWPOLYLINE
  5
32F
100
AcDbEntity
  8
ASSI
100
AcDbPolyline
 62
7
  6
CONTINUOUS
 90
19
 70
0
 10
66.2135842379
 20
0.4404685559
 10
66.0231096985
 20
0.7962966074
 10
65.8430716032
 20
1.1629379198
 10
65.6734699521
 20
1.5403924932
 10
65.5142102641
 20
1.9289138465
 10
65.3653870203
 20
2.3282484607
 10
65.2272836636
 20
2.7376357789
 10
65.0999206236
 20
3.157094959
 10
64.9832774706
 20
3.586606843
 10
64.8775763587
 20
4.0253533994
 10
64.7828381409
 20
4.4733522272
 10
64.6990419641
 20
4.9305857275
 10
64.6263474232
 20
5.3961830711
 10
64.5647756755
 20
5.8701601975
 10
64.5143055638
 20
6.3525011674
 10
64.4750332114
 20
6.8422873328
 10
64.4469906596
 20
7.3392124779
 10
64.4301458671
 20
7.8435828187
 10
64.4244988339
 20
8.3553983551
  0
LWPOLYLINE
  5
330
100
AcDbEntity
  8
ASSI
100
AcDbPolyline
 62
7
  6
CONTINUOUS
 90
19
 70
0
 10
68.5793740821
 20
-3.7943501801
 10
68.7317537136
 20
-4.0790126213
 10
68.8757841898
 20
-4.3723256713
 10
69.0114655107
 20
-4.67428933
 10
69.1388732611
 20
-4.9851064126
 10
69.2579318561
 20
-5.304574104
 10
69.3684145415
 20
-5.6320839585
 10
69.4703049736
 20
-5.9676513026
 10
69.5636194959
 20
-6.3112608098
 10
69.6481803854
 20
-6.6622580549
 10
69.7239709597
 20
-7.0206571172
 10
69.7910079012
 20
-7.3864439174
 10
69.8491635338
 20
-7.7589217923
 10
69.898420932
 20
-8.1381034935
 10
69.9387970214
 20
-8.5239762693
 10
69.9702149033
 20
-8.9158052017
 10
69.9926489448
 20
-9.3133453178
 10
70.0061247788
 20
-9.7168415904
 10
70.0106424053
 20
-10.1262940195
  0
LWPOLYLINE
  5
331
100
AcDbEntity
  8
ASSI
100
AcDbPolyline
 62
7
  6
CONTINUOUS
 90
19
 70
0
 10
67.6277978002
 20
-0.3760806308
 10
67.4373232608
 20
-0.0202525793
 10
67.2572851656
 20
0.3463887331
 10
67.0876835145
 20
0.7238433065
 10
66.9284238265
 20
1.1123646598
 10
66.7796005827
 20
1.5116992741
 10
66.641497226
 20
1.9210865922
 10
66.5141341859
 20
2.3405457723
 10
66.397491033
 20
2.7700576563
 10
66.2917899211
 20
3.2088042127
 10
66.1970517032
 20
3.6568030406
 10
66.1132555264
 20
4.1140365408
 10
66.0405609856
 20
4.5796338844
 10
65.9789892379
 20
5.0536110109
 10
65.9285191262
 20
5.5359519807
 10
65.8892467738
 20
6.0257381461
 10
65.8612042219
 20
6.5226632913
 10
65.8443594294
 20
7.027033632
 10
65.8387123963
 20
7.5388491684
  0
LWPOLYLINE
  5
332
100
AcDbEntity
  8
ASSI
100
AcDbPolyline
 62
7
  6
CONTINUOUS
 90
19
 70
0
 10
69.9935876445
 20
-4.6108993668
 10
70.145967276
 20
-4.895561808
 10
70.2899977522
 20
-5.1888748579
 10
70.4256790731
 20
-5.4908385166
 10
70.5530868235
 20
-5.8016555993
 10
70.6721454185
 20
-6.1211232907
 10
70.7826281039
 20
-6.4486331452
 10
70.8845185359
 20
-6.7842004893
 10
70.9778330583
 20
-7.1278099965
 10
71.0623939478
 20
-7.4788072416
 10
71.1381845221
 20
-7.8372063039
 10
71.2052214635
 20
-8.2029931041
 10
71.2633770962
 20
-8.5754709789
 10
71.3126344943
 20
-8.9546526801
 10
71.3530105837
 20
-9.340525456
 10
71.3844284656
 20
-9.7323543883
 10
71.4068625071
 20
-10.1298945044
 10
71.4203383411
 20
-10.533390777
 10
71.4248559677
 20
-10.9428432061
  0
LWPOLYLINE
  5
333
100
AcDbEntity
  8
0
100
AcDbPolyline
 62
7
  6
CONTINUOUS
 90
22
 70
0
 10
71.4248559677
 20
-155.7726158024
 10
71.4273571075
 20
-155.9241697897
 10
71.4347673392
 20
-156.0722506595
 10
71.4470866628
 20
-156.2168584116
 10
71.4643460106
 20
-156.3581853989
 10
71.4865144501
 20
-156.4960392685
 10
71.5134991842
 20
-156.6298429628
 10
71.545320402
 20
-156.759579504
 10
71.5819579143
 20
-156.8852658697
 10
71.623258356
 20
-157.0063759356
 10
71.6692412736
 20
-157.1228905184
 10
71.7198871206
 20
-157.2348288013
 10
71.7749838929
 20
-157.3417222094
 10
71.8345502483
 20
-157.4435495953
 10
71.8985675291
 20
-157.5403321064
 10
71.9667677582
 20
-157.6316646102
 10
72.03916847
 20
-157.7175242608
 10
72.1157521302
 20
-157.797933904
 10
72.1961981586
 20
-157.8725569441
 10
72.2805227458
 20
-157.9413691244
 10
72.3687097013
 20
-158.0043947017
 10
72.4602690729
 20
-158.0613001081
  0
LINE
  5
334
100
AcDbEntity
  8
ASSI
100
AcDbLine
 62
7
  6
CONTINUOUS
 10
61.5960717092
 20
-128.5825339875
 11
61.5960717092
 21
-130.6237096795
  0
LINE
  5
335
100
AcDbEntity
  8
ASSI
100
AcDbLine
 62
7
  6
CONTINUOUS
 10
64.4244988339
 20
8.3553983551
 11
64.4244988339
 21
57.3667171703
  0
LINE
  5
336
100
AcDbEntity
  8
ASSI
100
AcDbLine
 62
7
  6
CONTINUOUS
 10
65.8387123963
 20
7.5388491684
 11
65.8387123963
 21
56.5501679836
  0
LINE
  5
337
100
AcDbEntity
  8
0
100
AcDbLine
 62
7
  6
CONTINUOUS
 10
70.0106424053
 20
-154.9560666158
 11
70.0106424053
 21
-10.1262940195
  0
LINE
  5
338
100
AcDbEntity
  8
0
100
AcDbLine
 62
7
  6
CONTINUOUS
 10
71.4248559677
 20
-155.7726158024
 11
71.4248559677
 21
-10.9428432061
  0
LWPOLYLINE
  5
339
100
AcDbEntity
  8
ASSI
100
AcDbPolyline
 62
7
  6
CONTINUOUS
 90
4
 70
0
 10
59.8375113883
 20
-125.7406168252
 10
59.8349214582
 20
-125.7652877495
 10
59.8299819352
 20
-125.845817747
 10
59.8283047562
 20
-125.9287491309
  0
LWPOLYLINE
  5
33A
100
AcDbEntity
  8
ASSI
100
AcDbPolyline
 62
7
  6
CONTINUOUS
 90
7
 70
0
 10
41.6788221753
 20
-115.1090066082
 10
41.6664205666
 20
-115.1603938365
 10
41.6498481607
 20
-115.2470260409
 10
41.6369409811
 20
-115.3363316679
 10
41.6277304746
 20
-115.42814633
 10
41.6221851945
 20
-115.5226344146
 10
41.6203051406
 20
-115.6197959219
  0
LWPOLYLINE
  5
33B
100
AcDbEntity
  8
0
100
AcDbPolyline
 62
7
  6
CONTINUOUS
 90
3
 70
0
 10
-8.3468872965
 20
-82.5939760523
 10
-8.3847567799
 20
-82.617579801
 10
-8.4327910126
 20
-82.6529838278
  0
LWPOLYLINE
  5
33C
100
AcDbEntity
  8
ASSI
100
AcDbPolyline
 62
7
  6
CONTINUOUS
 90
19
 70
0
 10
-11.8306458559
 20
-84.8879400019
 10
-11.8432865518
 20
-84.8954093141
 10
-11.8927933772
 20
-84.9280320884
 10
-11.9397457734
 20
-84.964529359
 10
-11.9841278791
 20
-85.0049251841
 10
-12.0259555555
 20
-85.0491955056
 10
-12.0649696158
 20
-85.0970660003
 10
-12.101152589
 20
-85.1485590232
 10
-12.134521946
 20
-85.2036522194
 10
-12.1648709121
 20
-85.2620042015
 10
-12.1921807326
 20
-85.3236352046
 10
-12.2164701621
 20
-85.3885249936
 10
-12.2375886903
 20
-85.456271476
 10
-12.2555166277
 20
-85.5268923903
 10
-12.2702736637
 20
-85.6003699981
 10
-12.2817683557
 20
-85.6762489921
 10
-12.2899702228
 20
-85.7543776034
 10
-12.2949097458
 20
-85.8349076009
 10
-12.2965869248
 20
-85.9178389848
  0
LINE
  5
33D
100
AcDbEntity
  8
0
100
AcDbLine
 62
253
  6
CONTINUOUS
 10
-9.0438957314
 20
-82.6929628841
 11
-7.629682169
 21
-81.8764136975
  0
LINE
  5
33E
100
AcDbEntity
  8
ASSI
100
AcDbLine
 62
7
  6
CONTINUOUS
 10
-6.9326742144
 20
-81.777426034
 11
-8.3468877768
 21
-82.5939752206
  0
LINE
  5
33F
100
AcDbEntity
  8
ASSI
100
AcDbLine
 62
253
  6
CONTINUOUS
 10
-10.8823733625
 20
-85.1012897981
 11
-12.2965869248
 21
-85.9178389848
  0
LINE
  5
340
100
AcDbEntity
  8
0
100
AcDbLine
 62
253
  6
CONTINUOUS
 10
-6.2154686066
 20
-83.9994731467
 11
-4.8012550443
 21
-83.1829239601
  0
LINE
  5
341
100
AcDbEntity
  8
ASSI
100
AcDbLine
 62
253
  6
CONTINUOUS
 10
-10.8823733625
 20
-87.1424654901
 11
-12.2965869248
 21
-87.9590146768
  0
LINE
  5
342
100
AcDbEntity
  8
0
100
AcDbLine
 62
253
  6
CONTINUOUS
 10
-5.6497831817
 20
-84.6526809321
 11
-4.2355696193
 21
-83.8361317455
  0
LINE
  5
343
100
AcDbEntity
  8
0
100
AcDbLine
 62
253
  6
CONTINUOUS
 10
13.8663639791
 20
-74.9522194805
 11
15.2805775414
 21
-74.1356702939
  0
LWPOLYLINE
  5
344
100
AcDbEntity
  8
0
100
AcDbPolyline
 62
7
  6
CONTINUOUS
 90
17
 70
0
 10
-8.5438718114
 20
-82.742503646
 10
-8.5502616555
 20
-82.7461004884
 10
-8.576967713
 20
-82.7592244932
 10
-8.60498124
 20
-82.7700452013
 10
-8.6340802295
 20
-82.7784768586
 10
-8.6642733064
 20
-82.7845004819
 10
-8.6955518458
 20
-82.7881350545
 10
-8.7276679654
 20
-82.7893517724
 10
-8.7606283206
 20
-82.7881314234
 10
-8.794426256
 20
-82.7844932197
 10
-8.8287939233
 20
-82.778465994
 10
-8.8637358494
 20
-82.7700307633
 10
-8.8992475074
 20
-82.7592065107
 10
-8.9350474675
 20
-82.7460790182
 10
-8.97104192
 20
-82.73067688
 10
-9.0073246746
 20
-82.712971502
 10
-9.0438957314
 20
-82.6929628841
  0
LWPOLYLINE
  5
345
100
AcDbEntity
  8
0
100
AcDbPolyline
 62
7
  6
CONTINUOUS
 90
25
 70
0
 10
-0.8793793719
 20
83.9833885323
 10
-0.7638445967
 20
83.8776189014
 10
-0.7275037959
 20
83.8416990953
 10
-0.6920285654
 20
83.8040643049
 10
-0.6573184826
 20
83.7645923214
 10
-0.6234739701
 20
83.7234053537
 10
-0.5907962956
 20
83.6808700283
 10
-0.5592958766
 20
83.6369743072
 10
-0.5289622955
 20
83.5917302285
 10
-0.5000655673
 20
83.5455405332
 10
-0.4726185202
 20
83.498396779
 10
-0.4466083262
 20
83.4503074082
 10
-0.4222665153
 20
83.4017004895
 10
-0.3996079829
 20
83.3525714021
 10
-0.3786178338
 20
83.3029247667
 10
-0.3594829121
 20
83.2532025139
 10
-0.3422197814
 20
83.2034039685
 10
-0.3268118781
 20
83.1535298056
 10
-0.313396356
 20
83.1040239813
 10
-0.3019910032
 20
83.0548897838
 10
-0.2925780316
 20
83.0061239249
 10
-0.2852412309
 20
82.9581604946
 10
-0.2800085312
 20
82.9111441899
 10
-0.2768520024
 20
82.864930314
 10
-0.2757716447
 20
82.8195188667
  0
LWPOLYLINE
  5
346
100
AcDbEntity
  8
0
100
AcDbPolyline
 62
7
  6
CONTINUOUS
 90
25
 70
0
 10
14.4699717063
 20
79.0132634446
 10
14.3544369311
 20
79.1190330755
 10
14.3180961303
 20
79.1549528816
 10
14.2826208998
 20
79.192587672
 10
14.247910817
 20
79.2320596554
 10
14.2140663045
 20
79.2732466232
 10
14.18138863
 20
79.3157819485
 10
14.149888211
 20
79.3596776697
 10
14.1195546299
 20
79.4049217484
 10
14.0906579017
 20
79.4511114436
 10
14.0632108547
 20
79.4982551979
 10
14.0372006606
 20
79.5463445686
 10
14.0128588497
 20
79.5949514874
 10
13.9902003173
 20
79.6440805748
 10
13.9692101682
 20
79.6937272102
 10
13.9500752465
 20
79.743449463
 10
13.9328121158
 20
79.7932480084
 10
13.9174042125
 20
79.8431221712
 10
13.9039886904
 20
79.8926279956
 10
13.8925833376
 20
79.941762193
 10
13.883170366
 20
79.990528052
 10
13.8758335653
 20
80.0384914822
 10
13.8706008656
 20
80.0855077869
 10
13.8674443368
 20
80.1317216629
 10
13.8663639791
 20
80.1771331101
  0
LWPOLYLINE
  5
347
100
AcDbEntity
  8
0
100
AcDbPolyline
 62
7
  6
CONTINUOUS
 90
7
 70
0
 10
52.7295837297
 20
70.2346575276
 10
52.7349388035
 20
70.212889024
 10
52.7429410326
 20
70.1737849337
 10
52.7491800387
 20
70.1353399171
 10
52.7536288968
 20
70.0976855474
 10
52.756314532
 20
70.0606902514
 10
52.7581593566
 20
69.9880178066
  0
LINE
  5
348
100
AcDbEntity
  8
0
100
AcDbLine
 62
253
  6
CONTINUOUS
 10
81.748614973
 20
65.7363463335
 11
81.748614973
 21
-153.8941581238
  0
LINE
  5
349
100
AcDbEntity
  8
0
100
AcDbLine
 62
7
  6
CONTINUOUS
 10
82.6272946294
 20
66.9611701135
 11
82.6272946294
 21
-152.6693343438
  0
LINE
  5
34A
100
AcDbEntity
  8
RACCORDO
100
AcDbLine
 62
7
  6
CONTINUOUS
 10
82.6537116529
 20
68.7087353016
 11
82.6537116529
 21
-147.4109469654
  0
LWPOLYLINE
  5
34B
100
AcDbEntity
  8
0
100
AcDbPolyline
 62
7
  6
CONTINUOUS
 90
13
 70
0
 10
-10.0191775789
 20
-97.4148492881
 10
-10.0368296562
 20
-97.4267285057
 10
-10.103773
 20
-97.4944664855
 10
-10.1493103794
 20
-97.582594938
 10
-10.1707163439
 20
-97.6937100188
 10
-10.1707163439
 20
-97.8252155722
 10
-10.1493103794
 20
-97.9610497244
 10
-10.103773
 20
-98.101763601
 10
-10.0368296562
 20
-98.2468060763
 10
-9.9566566987
 20
-98.3784618988
 10
-9.8659795779
 20
-98.4908259847
 10
-9.7620728435
 20
-98.5898034178
 10
-9.6449364954
 20
-98.6753941981
  0
LWPOLYLINE
  5
34C
100
AcDbEntity
  8
0
100
AcDbPolyline
 62
7
  6
CONTINUOUS
 90
13
 70
0
 10
-9.2706954119
 20
-98.7112336929
 10
-9.2530433346
 20
-98.6993544753
 10
-9.1860999907
 20
-98.6316164954
 10
-9.1405626114
 20
-98.543488043
 10
-9.1191566469
 20
-98.4323729621
 10
-9.1191566469
 20
-98.3008674087
 10
-9.1405626114
 20
-98.1650332566
 10
-9.1860999907
 20
-98.0243193799
 10
-9.2530433346
 20
-97.8792769046
 10
-9.3332162921
 20
-97.7476210821
 10
-9.4238934129
 20
-97.6352569962
 10
-9.5278001473
 20
-97.5362795631
 10
-9.6449364954
 20
-97.4506887829
  0
LWPOLYLINE
  5
34D
100
AcDbEntity
  8
ASSI
100
AcDbPolyline
 62
7
  6
CONTINUOUS
 90
11
 70
0
 10
-9.7896390257
 20
-96.587720082
 10
-9.8239695092
 20
-96.6096881152
 10
-9.85648586
 20
-96.6348736418
 10
-9.8868893033
 20
-96.6630516783
 10
-9.9151624968
 20
-96.6942467864
 10
-9.9413227827
 20
-96.7284344045
 10
-9.9651560292
 20
-96.7653346938
 10
-9.9866431365
 20
-96.8049699194
 10
-10.0058032045
 20
-96.8473178163
 10
-10.0224794006
 20
-96.8920317509
 10
-10.0236939923
 20
-96.8960683569
  0
LWPOLYLINE
  5
34E
100
AcDbEntity
  8
ASSI
100
AcDbPolyline
 62
7
  6
CONTINUOUS
 90
16
 70
0
 10
-8.4395737933
 20
-98.925951009
 10
-8.4052433098
 20
-98.9039829757
 10
-8.372726959
 20
-98.8787974491
 10
-8.3423235157
 20
-98.8506194127
 10
-8.3140503222
 20
-98.8194243045
 10
-8.2878900363
 20
-98.7852366865
 10
-8.2640567898
 20
-98.7483363971
 10
-8.2425696825
 20
-98.7087011715
 10
-8.2234096145
 20
-98.6663532746
 10
-8.2067334183
 20
-98.62163934
 10
-8.192561481
 20
-98.5745399478
 10
-8.1808734155
 20
-98.5250745178
 10
-8.171764893
 20
-98.4736479433
 10
-8.1652678039
 20
-98.4203951888
 10
-8.1613502579
 20
-98.3651812899
 10
-8.1600122549
 20
-98.3080062465
  0
LWPOLYLINE
  5
34F
100
AcDbEntity
  8
0
100
AcDbPolyline
 62
7
  6
CONTINUOUS
 90
46
 70
0
 10
15.1871309535
 20
-79.9196215213
 10
15.2198369263
 20
-79.8997320776
 10
15.2743551897
 20
-79.8616711308
 10
15.3261643717
 20
-79.8190802367
 10
15.374937035
 20
-79.7722287368
 10
15.4206539455
 20
-79.7210896521
 10
15.4633343373
 20
-79.6656899617
 10
15.5027084758
 20
-79.6063799444
 10
15.5387554204
 20
-79.5431348397
 10
15.5714961118
 20
-79.475979408
 10
15.6007236378
 20
-79.4053382096
 10
15.6264157487
 20
-79.3311891722
 10
15.6485946942
 20
-79.2535543681
 10
15.667120312
 20
-79.1729245734
 10
15.6819694653
 20
-79.0892808235
 10
15.6931652909
 20
-79.002642083
 10
15.700637036
 20
-78.913556023
 10
15.7043611165
 20
-78.8220071456
 10
15.7043611165
 20
-78.7280109486
 10
15.700637036
 20
-78.6321615965
 10
15.6931652909
 20
-78.5344473525
 10
15.6819694653
 20
-78.4348799533
 10
15.667120312
 20
-78.3340887732
 10
15.6485946942
 20
-78.2320660595
 10
15.6264157487
 20
-78.128819565
 10
15.6007236378
 20
-78.025001922
 10
15.5714961118
 20
-77.9206095091
 10
15.5387554204
 20
-77.8156459477
 10
15.5027084758
 20
-77.710774735
 10
15.4633343373
 20
-77.6059964494
 10
15.4206539455
 20
-77.5013105124
 10
15.374937035
 20
-77.3973786855
 10
15.3261643717
 20
-77.2942057365
 10
15.2743551897
 20
-77.1917868976
 10
15.2198369263
 20
-77.0907696268
 10
15.162592419
 20
-76.9911627909
 10
15.1026388302
 20
-76.8929575232
 10
15.0403550846
 20
-76.7967746806
 10
14.9757264174
 20
-76.7026270615
 10
14.9087675934
 20
-76.6105018676
 10
14.8399018313
 20
-76.520981562
 10
14.7691170446
 20
-76.4340826314
 10
14.6964253199
 20
-76.3497885892
 10
14.6222861354
 20
-76.2686324383
 10
14.5468526508
 20
-76.1907918465
 10
14.4699717063
 20
-76.1160891461
  0
LWPOLYLINE
  5
350
100
AcDbEntity
  8
0
100
AcDbPolyline
 62
7
  6
CONTINUOUS
 90
46
 70
0
 10
16.6013445159
 20
-79.1030723346
 10
16.6340504887
 20
-79.083182891
 10
16.6885687521
 20
-79.0451219442
 10
16.7403779341
 20
-79.00253105
 10
16.7891505974
 20
-78.9556795501
 10
16.8348675078
 20
-78.9045404654
 10
16.8775478996
 20
-78.8491407751
 10
16.9169220382
 20
-78.7898307577
 10
16.9529689828
 20
-78.726585653
 10
16.9857096741
 20
-78.6594302214
 10
17.0149372002
 20
-78.5887890229
 10
17.040629311
 20
-78.5146399856
 10
17.0628082566
 20
-78.4370051814
 10
17.0813338744
 20
-78.3563753868
 10
17.0961830277
 20
-78.2727316368
 10
17.1073788533
 20
-78.1860928963
 10
17.1148505984
 20
-78.0970068363
 10
17.1185746788
 20
-78.0054579589
 10
17.1185746788
 20
-77.911461762
 10
17.1148505984
 20
-77.8156124098
 10
17.1073788533
 20
-77.7178981658
 10
17.0961830277
 20
-77.6183307666
 10
17.0813338744
 20
-77.5175395865
 10
17.0628082566
 20
-77.4155168729
 10
17.040629311
 20
-77.3122703784
 10
17.0149372002
 20
-77.2084527354
 10
16.9857096741
 20
-77.1040603225
 10
16.9529689828
 20
-76.9990967611
 10
16.9169220382
 20
-76.8942255483
 10
16.8775478996
 20
-76.7894472627
 10
16.8348675078
 20
-76.6847613257
 10
16.7891505974
 20
-76.5808294988
 10
16.7403779341
 20
-76.4776565498
 10
16.6885687521
 20
-76.375237711
 10
16.6340504887
 20
-76.2742204401
 10
16.5768059814
 20
-76.1746136043
 10
16.5168523926
 20
-76.0764083365
 10
16.454568647
 20
-75.980225494
 10
16.3899399798
 20
-75.8860778748
 10
16.3229811557
 20
-75.7939526809
 10
16.2541153936
 20
-75.7044323753
 10
16.183330607
 20
-75.6175334448
 10
16.1106388822
 20
-75.5332394025
 10
16.0364996978
 20
-75.4520832517
 10
15.9610662131
 20
-75.3742426599
 10
15.8841852687
 20
-75.2995399594
  0
LWPOLYLINE
  5
351
100
AcDbEntity
  8
ASSI
100
AcDbPolyline
 62
7
  6
CONTINUOUS
 90
19
 70
0
 10
-9.5805474784
 20
-90.8261493296
 10
-9.5679067825
 20
-90.8186800175
 10
-9.5183999571
 20
-90.7860572431
 10
-9.4714475609
 20
-90.7495599725
 10
-9.4270654552
 20
-90.7091641474
 10
-9.3852377788
 20
-90.664893826
 10
-9.3462237186
 20
-90.6170233312
 10
-9.3100407453
 20
-90.5655303083
 10
-9.2766713883
 20
-90.5104371121
 10
-9.2463224222
 20
-90.45208513
 10
-9.2190126018
 20
-90.3904541269
 10
-9.1947231722
 20
-90.325564338
 10
-9.1736046441
 20
-90.2578178555
 10
-9.1556767066
 20
-90.1871969412
 10
-9.1409196706
 20
-90.1137193335
 10
-9.1294249786
 20
-90.0378403394
 10
-9.1212231115
 20
-89.9597117282
 10
-9.1162835885
 20
-89.8791817306
 10
-9.1146064095
 20
-89.7962503467
  0
LINE
  5
352
100
AcDbEntity
  8
0
100
AcDbLine
 62
253
  6
CONTINUOUS
 10
14.3916433022
 20
-76.044524337
 11
15.8058568646
 21
-75.2279751503
  0
LINE
  5
353
100
AcDbEntity
  8
0
100
AcDbLine
 62
253
  6
CONTINUOUS
 10
-0.9828784258
 20
-87.3472932481
 11
-0.2758058147
 21
-86.9390383841
  0
LINE
  5
354
100
AcDbEntity
  8
0
100
AcDbLine
 62
253
  6
CONTINUOUS
 10
13.8663639791
 20
-80.4753255904
 11
14.6333180379
 21
-80.0324959291
  0
LINE
  5
355
100
AcDbEntity
  8
ASSI
100
AcDbLine
 62
7
  6
CONTINUOUS
 10
16.6013486199
 20
-79.1030794443
 11
15.1871350575
 21
-79.919628631
  0
LINE
  5
356
100
AcDbEntity
  8
0
100
AcDbLine
 62
7
  6
CONTINUOUS
 10
-10.2449654876
 20
-97.0238277451
 11
-9.405573814
 21
-96.5391735128
  0
LINE
  5
357
100
AcDbEntity
  8
0
100
AcDbLine
 62
7
  6
CONTINUOUS
 10
-9.0449075032
 20
-99.1022552358
 11
-8.2055188267
 21
-98.617602734
  0
LWPOLYLINE
  5
358
100
AcDbEntity
  8
0
100
AcDbPolyline
 62
7
  6
CONTINUOUS
 90
11
 70
0
 10
14.0734502333
 20
-80.017595019
 10
14.0906579017
 20
-80.0083129237
 10
14.1195546299
 20
-79.9954924458
 10
14.149888211
 20
-79.9852768262
 10
14.18138863
 20
-79.9777569994
 10
14.2140663045
 20
-79.9729570335
 10
14.247910817
 20
-79.9708528604
 10
14.2826208998
 20
-79.9714632104
 10
14.3180961303
 20
-79.9747943271
 10
14.3544369311
 20
-79.9808399669
 10
14.3916433022
 20
-79.9896001298
  0
LWPOLYLINE
  5
359
100
AcDbEntity
  8
0
100
AcDbPolyline
 62
7
  6
CONTINUOUS
 90
16
 70
0
 10
-0.4828542657
 20
-87.3968344257
 10
-0.5097117639
 20
-87.4107461125
 10
-0.537913064
 20
-87.422274471
 10
-0.5672514881
 20
-87.4313390855
 10
-0.5977363692
 20
-87.4379197342
 10
-0.6293583742
 20
-87.4420366389
 10
-0.6618586649
 20
-87.4436561014
 10
-0.6952444502
 20
-87.442757623
 10
-0.7295085212
 20
-87.4393617023
 10
-0.7643704136
 20
-87.4334961361
 10
-0.7998350342
 20
-87.4251406542
 10
-0.8358974762
 20
-87.4143155268
 10
-0.8722625548
 20
-87.4011093617
 10
-0.9088318752
 20
-87.3855516949
 10
-0.9457038322
 20
-87.3676129903
 10
-0.9828784258
 20
-87.3472932481
  0
LWPOLYLINE
  5
35A
100
AcDbEntity
  8
0
100
AcDbPolyline
 62
7
  6
CONTINUOUS
 90
6
 70
0
 10
-10.2439323667
 20
-97.0256170588
 10
-10.1884416662
 20
-96.9985644292
 10
-10.0692005641
 20
-96.9695759331
 10
-9.9404104539
 20
-96.9749215401
 10
-9.7989890977
 20
-97.0128219485
 10
-9.6449364954
 20
-97.0832771583
  0
LWPOLYLINE
  5
35B
100
AcDbEntity
  8
0
100
AcDbPolyline
 62
7
  6
CONTINUOUS
 90
13
 70
0
 10
14.3916433022
 20
75.1397524609
 10
14.4699717063
 20
75.1208655922
 10
14.5468526508
 20
75.1067881052
 10
14.6222861354
 20
75.0975199997
 10
14.6964253199
 20
75.0930620787
 10
14.7691170446
 20
75.0934135394
 10
14.8399018313
 20
75.0985719726
 10
14.9087675934
 20
75.1085678222
 10
14.9757264174
 20
75.1233706445
 10
15.0403550846
 20
75.1428866987
 10
15.1026388302
 20
75.167145833
 10
15.162592419
 20
75.1961181993
 10
15.1871309535
 20
75.2097310694
  0
LINE
  5
35C
100
AcDbEntity
  8
ASSI
100
AcDbLine
 62
253
  6
CONTINUOUS
 10
-82.6537116529
 20
142.2878325824
 11
-81.2394980905
 21
141.4712833958
  0
LINE
  5
35D
100
AcDbEntity
  8
ASSI
100
AcDbLine
 62
253
  6
CONTINUOUS
 10
65.8387123963
 20
56.5501679836
 11
64.4244988339
 21
57.3667171703
  0
LWPOLYLINE
  5
35E
100
AcDbEntity
  8
0
100
AcDbPolyline
 62
7
  6
CONTINUOUS
 90
15
 70
0
 10
-61.4051528782
 20
133.3275230536
 10
-61.5592054805
 20
133.4349639274
 10
-61.7006268368
 20
133.5603733563
 10
-61.829416947
 20
133.7037513404
 10
-61.948658049
 20
133.8704364723
 10
-62.055267905
 20
134.0550901592
 10
-62.1399998011
 20
134.2416966231
 10
-62.2008996766
 20
134.4304302789
 10
-62.2399215922
 20
134.6211167115
 10
-62.2536810157
 20
134.7972168977
 10
-62.2399215922
 20
134.9574280467
 10
-62.2008996766
 20
135.1030529493
 10
-62.1399998011
 20
135.2214609553
 10
-62.055267905
 20
135.3102211495
 10
-62.0041487496
 20
135.3447118174
  0
LWPOLYLINE
  5
35F
100
AcDbEntity
  8
0
100
AcDbPolyline
 62
7
  6
CONTINUOUS
 90
4
 70
0
 10
19.8514802349
 20
-98.9839675609
 10
19.7833512941
 20
-99.0439834913
 10
19.7593341778
 20
-99.0616855048
 10
19.7403994361
 20
-99.0734873791
  0
LWPOLYLINE
  5
360
100
AcDbEntity
  8
0
100
AcDbPolyline
 62
7
  6
CONTINUOUS
 90
3
 70
0
 10
19.9373839509
 20
-98.9249597854
 10
19.8995144676
 20
-98.9485635341
 10
19.8514802349
 20
-98.9839675609
  0
LINE
  5
361
100
AcDbEntity
  8
0
100
AcDbLine
 62
253
  6
CONTINUOUS
 10
13.8663639791
 20
-95.1045894312
 11
15.2805775414
 21
-94.2880402445
  0
LINE
  5
362
100
AcDbEntity
  8
0
100
AcDbLine
 62
253
  6
CONTINUOUS
 10
14.5734707603
 20
-96.3293343013
 11
15.9876843226
 21
-95.5127851146
  0
LINE
  5
363
100
AcDbEntity
  8
0
100
AcDbLine
 62
253
  6
CONTINUOUS
 10
19.2403755161
 20
-99.0239466172
 11
20.6545890785
 21
-98.2073974306
  0
LINE
  5
364
100
AcDbEntity
  8
ASSI
100
AcDbLine
 62
7
  6
CONTINUOUS
 10
21.351597033
 20
-98.1084097671
 11
19.9373834707
 21
-98.9249589537
  0
LWPOLYLINE
  5
365
100
AcDbEntity
  8
0
100
AcDbPolyline
 62
7
  6
CONTINUOUS
 90
17
 70
0
 10
19.7403994361
 20
-99.0734873791
 10
19.734009592
 20
-99.0770842215
 10
19.7073035344
 20
-99.0902082263
 10
19.6792900074
 20
-99.1010289344
 10
19.650191018
 20
-99.1094605917
 10
19.6199979411
 20
-99.115484215
 10
19.5887194017
 20
-99.1191187876
 10
19.5566032821
 20
-99.1203355055
 10
19.5236429269
 20
-99.1191151565
 10
19.4898449915
 20
-99.1154769528
 10
19.4554773242
 20
-99.1094497272
 10
19.4205353981
 20
-99.1010144965
 10
19.3850237401
 20
-99.0901902438
 10
19.3492237799
 20
-99.0770627514
 10
19.3132293275
 20
-99.0616606131
 10
19.2769465729
 20
-99.0439552351
 10
19.2403755161
 20
-99.0239466172
  0
LWPOLYLINE
  5
366
100
AcDbEntity
  8
0
100
AcDbPolyline
 62
7
  6
CONTINUOUS
 90
6
 70
0
 10
-9.0459406241
 20
-99.1004659221
 10
-9.1014313246
 20
-99.1275185517
 10
-9.2206724267
 20
-99.1565070478
 10
-9.3494625368
 20
-99.1511614409
 10
-9.4908838931
 20
-99.1132610325
 10
-9.6449364954
 20
-99.0428058226
  0
LWPOLYLINE
  5
367
100
AcDbEntity
  8
0
100
AcDbPolyline
 62
7
  6
CONTINUOUS
 90
13
 70
0
 10
-0.8010509678
 20
87.856899516
 10
-0.8793793719
 20
87.8757863846
 10
-0.9562603163
 20
87.8898638717
 10
-1.031693801
 20
87.8991319772
 10
-1.1058329855
 20
87.9035898981
 10
-1.1785247102
 20
87.9032384375
 10
-1.2493094969
 20
87.8980800043
 10
-1.318175259
 20
87.8880841547
 10
-1.385134083
 20
87.8732813324
 10
-1.4497627502
 20
87.8537652781
 10
-1.5120464958
 20
87.8295061439
 10
-1.5720000846
 20
87.8005337776
 10
-1.5965386191
 20
87.7869209075
  0
LWPOLYLINE
  5
368
100
AcDbEntity
  8
ASSI
100
AcDbPolyline
 62
7
  6
CONTINUOUS
 90
55
 70
0
 10
54.2775165239
 20
69.4711908539
 10
54.5223704925
 20
69.3523639077
 10
54.7702851366
 20
69.2273392043
 10
55.0210750652
 20
69.0961637597
 10
55.2746955405
 20
68.9588471997
 10
55.5308104699
 20
68.8154915501
 10
55.7887962908
 20
68.6663223959
 10
56.0484640703
 20
68.5114864672
 10
56.309617075
 20
68.3510585879
 10
56.5716259174
 20
68.1852141684
 10
56.8340714346
 20
68.0142789847
 10
57.0969973728
 20
67.8382370184
 10
57.360462202
 20
67.6567438093
 10
57.624469241
 20
67.4698056607
 10
57.8886090254
 20
67.2776764791
 10
58.1523094646
 20
67.080363242
 10
58.4154171069
 20
66.8780223791
 10
58.6776807769
 20
66.6708193569
 10
58.9383873211
 20
66.4587967374
 10
59.1973756065
 20
66.2421456808
 10
59.4544126358
 20
66.0210550752
 10
59.7086895706
 20
65.7955894186
 10
59.9600598337
 20
65.5659546627
 10
60.2082974257
 20
65.3323786788
 10
60.4524947347
 20
65.0949852258
 10
60.6926009725
 20
64.8539100418
 10
60.9283288903
 20
64.6094980082
 10
61.158463358
 20
64.3622232017
 10
61.382856136
 20
64.1123728272
 10
61.6014128494
 20
63.8601979426
 10
61.8130692054
 20
63.606153059
 10
62.0174996293
 20
63.3508130945
 10
62.2148986861
 20
63.0941606225
 10
62.4049974968
 20
62.83576231
 10
62.5878115581
 20
62.5757161482
 10
62.7631638515
 20
62.3144423832
 10
62.9304836423
 20
62.0519809787
 10
63.0897393755
 20
61.7884812542
 10
63.2408472239
 20
61.524299468
 10
63.3831924772
 20
61.2597820456
 10
63.5166689828
 20
60.9952660666
 10
63.6413578341
 20
60.7308947631
 10
63.756955875
 20
60.4667158937
 10
63.8633794753
 20
60.203108856
 10
63.9607256991
 20
59.9401394204
 10
64.0489360491
 20
59.6773842113
 10
64.128054389
 20
59.4147461535
 10
64.197993063
 20
59.1527608582
 10
64.2584976573
 20
58.891947171
 10
64.3095472668
 20
58.632450579
 10
64.3512199506
 20
58.3745141999
 10
64.3834786279
 20
58.1187709205
 10
64.4063769384
 20
57.8655309451
 10
64.4200224434
 20
57.6147976303
 10
64.4244988339
 20
57.3667171703
  0
LWPOLYLINE
  5
369
100
AcDbEntity
  8
ASSI
100
AcDbPolyline
 62
7
  6
CONTINUOUS
 90
28
 70
0
 10
54.2775165239
 20
69.4711908539
 10
49.0898072131
 20
72.0298569579
 10
43.9293100519
 20
74.6063641469
 10
38.7960250403
 20
77.2007124211
 10
33.6897671861
 20
79.8129975765
 10
28.6107214816
 20
82.4431238169
 10
23.5594429027
 20
85.0908037543
 10
18.5359344838
 20
87.7560393069
 10
13.5401931906
 20
90.4388285564
 10
8.5727648968
 20
93.1388783605
 10
3.6336526963
 20
95.8561906051
 10
-1.2771465049
 20
98.5907634043
 10
-6.1590961143
 20
101.3422979572
 10
-11.0121929797
 20
104.1107961173
 10
-15.8364402534
 20
106.8962560311
 10
-20.6313108006
 20
109.6983733376
 10
-25.3968014111
 20
112.5171498569
 10
-30.1329152951
 20
115.3525837689
 10
-34.8391349477
 20
118.2043652519
 10
-39.5154571025
 20
121.0724960922
 10
-44.1618850259
 20
123.9569745035
 10
-48.777911013
 20
126.8574853053
 10
-53.3635317417
 20
129.7740302493
 10
-57.9187505341
 20
132.7066075837
 10
-62.4430696514
 20
135.6548968723
 10
-66.9363231808
 20
138.6187913028
 10
-71.3986770352
 20
141.5983976875
 10
-75.8301312144
 20
144.5937160262
  0
LWPOLYLINE
  5
36A
100
AcDbEntity
  8
ASSI
100
AcDbPolyline
 62
7
  6
CONTINUOUS
 90
28
 70
0
 10
54.2775165239
 20
71.1041314075
 10
49.0898072131
 20
73.6627975115
 10
43.9293100519
 20
76.2393047005
 10
38.7960250403
 20
78.8336529747
 10
33.6897671861
 20
81.44593813
 10
28.6107214816
 20
84.0760643705
 10
23.5594429027
 20
86.7237443079
 10
18.5359344838
 20
89.3889798605
 10
13.5401931906
 20
92.07176911
 10
8.5727648968
 20
94.7718189141
 10
3.6336526963
 20
97.4891311587
 10
-1.2771465049
 20
100.2237039579
 10
-6.1590961143
 20
102.9752385108
 10
-11.0121929797
 20
105.7437366709
 10
-15.8364402534
 20
108.5291965847
 10
-20.6313108006
 20
111.3313138912
 10
-25.3968014111
 20
114.1500904105
 10
-30.1329152951
 20
116.9855243225
 10
-34.8391349477
 20
119.8373058054
 10
-39.5154571025
 20
122.7054366458
 10
-44.1618850259
 20
125.5899150571
 10
-48.777911013
 20
128.4904258589
 10
-53.3635317417
 20
131.4069708029
 10
-57.9187505341
 20
134.3395481373
 10
-62.4430696514
 20
137.2878374258
 10
-66.9363231808
 20
140.2517318564
 10
-71.3986770352
 20
143.2313382411
 10
-75.8301312144
 20
146.2266565798
  0
LWPOLYLINE
  5
36B
100
AcDbEntity
  8
ASSI
100
AcDbPolyline
 62
7
  6
CONTINUOUS
 90
55
 70
0
 10
54.2775165239
 20
71.1041314075
 10
54.5627622483
 20
70.9613165987
 10
54.8511621889
 20
70.8109098687
 10
55.1424972474
 20
70.6529667819
 10
55.4367065229
 20
70.4874940784
 10
55.7334008439
 20
70.31461697
 10
56.0318673593
 20
70.1346159644
 10
56.3318771295
 20
69.9476612046
 10
56.6332033066
 20
69.7538443841
 10
56.9351431224
 20
69.5533965097
 10
57.2372049948
 20
69.3467047792
 10
57.5394368315
 20
69.133748072
 10
57.841937409
 20
68.9141364329
 10
58.144700818
 20
68.6878716349
 10
58.4472529774
 20
68.4552594259
 10
58.7489769502
 20
68.2163422158
 10
59.049685623
 20
67.9713015498
 10
59.3490879135
 20
67.7203363055
 10
59.6464174571
 20
67.4635409268
 10
59.9414788501
 20
67.2011384583
 10
60.2340017059
 20
66.9333550034
 10
60.5231214983
 20
66.6603195447
 10
60.8086605101
 20
66.3822728879
 10
61.0903561405
 20
66.0994869273
 10
61.3672406004
 20
65.8121684584
 10
61.6392466931
 20
65.520473757
 10
61.9060421168
 20
65.2248145521
 10
62.1663171734
 20
64.9258240777
 10
62.4198985448
 20
64.6238428399
 10
62.6666728227
 20
64.3191664613
 10
62.9055029484
 20
64.0124018061
 10
63.136019361
 20
63.7042371046
 10
63.3584367916
 20
63.3946429802
 10
63.5725125879
 20
63.0831506818
 10
63.7782610417
 20
62.7698736945
 10
63.9754769719
 20
62.4553109954
 10
64.1635730549
 20
62.1395601517
 10
64.3425135873
 20
61.8227985492
 10
64.5121979118
 20
61.5054463031
 10
64.6719819664
 20
61.1879604102
 10
64.8217495641
 20
60.8707445871
 10
64.9615872767
 20
60.5539627583
 10
65.091191444
 20
60.2377028999
 10
65.2104707464
 20
59.9224177307
 10
65.3195323801
 20
59.6081806395
 10
65.4183392796
 20
59.2945097889
 10
65.5069423887
 20
58.9812899371
 10
65.5852390095
 20
58.6691545956
 10
65.6529632238
 20
58.3587370117
 10
65.7100994072
 20
58.0502143681
 10
65.7567307296
 20
57.7438687422
 10
65.7928208773
 20
57.4404524266
 10
65.8184357456
 20
57.1403334717
 10
65.8336999494
 20
56.843514399
 10
65.8387123963
 20
56.5501679836
  0
LINE
  5
36C
100
AcDbEntity
  8
0
100
AcDbLine
 62
7
  6
CONTINUOUS
 10
53.2875670302
 20
69.1057953764
 11
60.7441590273
 21
64.8004526103
  0
LWPOLYLINE
  5
36D
100
AcDbEntity
  8
0
100
AcDbPolyline
 62
7
  6
CONTINUOUS
 90
13
 70
0
 10
21.8006275745
 20
-115.7872059878
 10
21.7829754972
 20
-115.7990852054
 10
21.7160321534
 20
-115.8668231853
 10
21.670494774
 20
-115.9549516377
 10
21.6490888095
 20
-116.0660667186
 10
21.6490888095
 20
-116.197572272
 10
21.670494774
 20
-116.3334064241
 10
21.7160321534
 20
-116.4741203007
 10
21.7829754972
 20
-116.6191627761
 10
21.8631484547
 20
-116.7508185986
 10
21.9538255755
 20
-116.8631826845
 10
22.0577323099
 20
-116.9621601175
 10
22.174868658
 20
-117.0477508978
  0
LWPOLYLINE
  5
36E
100
AcDbEntity
  8
ASSI
100
AcDbPolyline
 62
7
  6
CONTINUOUS
 90
11
 70
0
 10
22.0301661277
 20
-114.9600767817
 10
21.9958356442
 20
-114.982044815
 10
21.9633192934
 20
-115.0072303416
 10
21.9329158501
 20
-115.035408378
 10
21.9046426566
 20
-115.0666034862
 10
21.8784823707
 20
-115.1007911042
 10
21.8546491242
 20
-115.1376913936
 10
21.8331620169
 20
-115.1773266192
 10
21.8140019489
 20
-115.2196745161
 10
21.7973257527
 20
-115.2643884507
 10
21.7961111611
 20
-115.2684250566
  0
LWPOLYLINE
  5
36F
100
AcDbEntity
  8
ASSI
100
AcDbPolyline
 62
7
  6
CONTINUOUS
 90
19
 70
0
 10
23.1711398128
 20
-105.0975323716
 10
23.158499117
 20
-105.1050016838
 10
23.1089922915
 20
-105.1376244581
 10
23.0620398953
 20
-105.1741217287
 10
23.0176577897
 20
-105.2145175539
 10
22.9758301132
 20
-105.2587878753
 10
22.936816053
 20
-105.30665837
 10
22.9006330797
 20
-105.3581513929
 10
22.8672637227
 20
-105.4132445891
 10
22.8369147567
 20
-105.4715965713
 10
22.8096049362
 20
-105.5332275743
 10
22.7853155066
 20
-105.5981173633
 10
22.7641969785
 20
-105.6658638458
 10
22.746269041
 20
-105.73648476
 10
22.731512005
 20
-105.8099623678
 10
22.720017313
 20
-105.8858413618
 10
22.7118154459
 20
-105.9639699731
 10
22.7068759229
 20
-106.0444999707
 10
22.7051987439
 20
-106.1274313545
  0
LWPOLYLINE
  5
370
100
AcDbEntity
  8
ASSI
100
AcDbPolyline
 62
7
  6
CONTINUOUS
 90
19
 70
0
 10
25.4212381903
 20
-111.0357416994
 10
25.4338788862
 20
-111.0282723872
 10
25.4833857116
 20
-110.9956496129
 10
25.5303381078
 20
-110.9591523422
 10
25.5747202135
 20
-110.9187565171
 10
25.6165478899
 20
-110.8744861957
 10
25.6555619502
 20
-110.8266157009
 10
25.6917449234
 20
-110.7751226781
 10
25.7251142804
 20
-110.7200294818
 10
25.7554632465
 20
-110.6616774997
 10
25.782773067
 20
-110.6000464967
 10
25.8070624965
 20
-110.5351567077
 10
25.8281810247
 20
-110.4674102252
 10
25.8461089621
 20
-110.396789311
 10
25.8608659981
 20
-110.3233117032
 10
25.8723606901
 20
-110.2474327092
 10
25.8805625572
 20
-110.1693040979
 10
25.8855020802
 20
-110.0887741003
 10
25.8871792592
 20
-110.0058427165
  0
LINE
  5
371
100
AcDbEntity
  8
0
100
AcDbLine
 62
253
  6
CONTINUOUS
 10
22.0688026408
 20
-100.3304568798
 11
23.4830162032
 21
-99.5139076932
  0
LINE
  5
372
100
AcDbEntity
  8
0
100
AcDbLine
 62
253
  6
CONTINUOUS
 10
22.6344880658
 20
-100.9836646652
 11
24.0487016282
 21
-100.1671154786
  0
LINE
  5
373
100
AcDbEntity
  8
ASSI
100
AcDbLine
 62
253
  6
CONTINUOUS
 10
24.1194123063
 20
-105.3108821679
 11
22.7051987439
 21
-106.1274313545
  0
LINE
  5
374
100
AcDbEntity
  8
ASSI
100
AcDbLine
 62
253
  6
CONTINUOUS
 10
24.1194123063
 20
-107.3520578598
 11
22.7051987439
 21
-108.1686070465
  0
LWPOLYLINE
  5
375
100
AcDbEntity
  8
0
100
AcDbPolyline
 62
7
  6
CONTINUOUS
 90
13
 70
0
 10
-56.3190348164
 20
115.9672117936
 10
-56.2407064123
 20
115.948324925
 10
-56.1638254679
 20
115.934247438
 10
-56.0883919832
 20
115.9249793325
 10
-56.0142527988
 20
115.9205214115
 10
-55.9415610741
 20
115.9208728721
 10
-55.8707762874
 20
115.9260313053
 10
-55.8019105253
 20
115.936027155
 10
-55.7349517012
 20
115.9508299772
 10
-55.670323034
 20
115.9703460315
 10
-55.6080392884
 20
115.9946051658
 10
-55.5480856997
 20
116.0235775321
 10
-55.5235471651
 20
116.0371904021
  0
LWPOLYLINE
  5
376
100
AcDbEntity
  8
0
100
AcDbPolyline
 62
7
  6
CONTINUOUS
 90
5
 70
0
 10
-61.4051528782
 20
133.6949346781
 10
-61.2880165302
 20
133.6452593398
 10
-61.1841097957
 20
133.6242478804
 10
-61.0934326749
 20
133.6319003001
 10
-61.0309117948
 20
133.6590951833
  0
LWPOLYLINE
  5
377
100
AcDbEntity
  8
0
100
AcDbPolyline
 62
7
  6
CONTINUOUS
 90
5
 70
0
 10
-61.4051528782
 20
134.9196400933
 10
-61.5222892263
 20
134.9693154317
 10
-61.6261959608
 20
134.990326891
 10
-61.7168730816
 20
134.9826744714
 10
-61.7793939617
 20
134.9554795881
  0
LINE
  5
378
100
AcDbEntity
  8
0
100
AcDbLine
 62
253
  6
CONTINUOUS
 10
-57.5514209208
 20
156.7805548173
 11
72.5562268176
 21
81.658029645
  0
LINE
  5
379
100
AcDbEntity
  8
0
100
AcDbLine
 62
7
  6
CONTINUOUS
 10
-56.0513484404
 20
156.9291783504
 11
74.056299298
 21
81.8066531781
  0
LINE
  5
37A
100
AcDbEntity
  8
RACCORDO
100
AcDbLine
 62
7
  6
CONTINUOUS
 10
-51.8379981288
 20
154.5272657205
 11
75.582643841
 21
80.9561840028
  0
LWPOLYLINE
  5
37B
100
AcDbEntity
  8
0
100
AcDbPolyline
 62
253
  6
CONTINUOUS
 90
55
 70
0
 10
72.5562268176
 20
81.658029645
 10
72.8235848416
 20
81.4991701728
 10
73.0907166541
 20
81.3314645118
 10
73.3573962349
 20
81.1550545578
 10
73.6233979463
 20
80.9700895711
 10
73.8884967244
 20
80.7767260506
 10
74.1524682691
 20
80.5751276012
 10
74.4150892343
 20
80.3654647952
 10
74.6761374162
 20
80.1479150284
 10
74.9353919422
 20
79.9226623695
 10
75.1926334569
 20
79.6898974048
 10
75.4476443084
 20
79.4498170768
 10
75.700208732
 20
79.2026245172
 10
75.950113033
 20
78.9485288758
 10
76.1971457675
 20
78.6877451427
 10
76.441097921
 20
78.4204939671
 10
76.6817630858
 20
78.1470014701
 10
76.918937635
 20
77.8674990537
 10
77.1524208953
 20
77.5822232049
 10
77.3820153165
 20
77.2914152954
 10
77.6075266389
 20
76.9953213779
 10
77.8287640573
 20
76.6941919773
 10
78.0455403828
 20
76.3882818791
 10
78.2576722011
 20
76.0778499139
 10
78.4649800273
 20
75.7631587381
 10
78.6672884584
 20
75.4444746118
 10
78.8644263213
 20
75.1220671737
 10
79.0562268176
 20
74.7962092125
 10
79.2425276649
 20
74.4671764367
 10
79.4231712342
 20
74.1352472409
 10
79.598004683
 20
73.8007024702
 10
79.7668800847
 20
73.463825183
 10
79.9296545538
 20
73.1249004111
 10
80.086190367
 20
72.7842149187
 10
80.2363550792
 20
72.4420569596
 10
80.3800216361
 20
72.0987160338
 10
80.5170684816
 20
71.7544826419
 10
80.6473796602
 20
71.4096480396
 10
80.7708449158
 20
71.0645039917
 10
80.8873597843
 20
70.7193425242
 10
80.9968256826
 20
70.3744556784
 10
81.0991499915
 20
70.0301352628
 10
81.1942461346
 20
69.686672607
 10
81.282033651
 20
69.3443583147
 10
81.3624382636
 20
69.0034820179
 10
81.4353919422
 20
68.664332132
 10
81.5008329606
 20
68.3271956116
 10
81.5587059492
 20
67.992357708
 10
81.6089619417
 20
67.6601017274
 10
81.6515584165
 20
67.3307087915
 10
81.6864593328
 20
67.0044575996
 10
81.7136351608
 20
66.6816241929
 10
81.7330629071
 20
66.3624817206
 10
81.7447261339
 20
66.0473002091
 10
81.748614973
 20
65.7363463335
  0
LWPOLYLINE
  5
37C
100
AcDbEntity
  8
0
100
AcDbPolyline
 62
7
  6
CONTINUOUS
 90
49
 70
0
 10
74.056299298
 20
81.8066531781
 10
74.3572541471
 20
81.6272524173
 10
74.655741723
 20
81.438093336
 10
74.9516172712
 20
81.2393819046
 10
75.2449367754
 20
81.0311738769
 10
75.5353644283
 20
80.8137906799
 10
75.8221690904
 20
80.5878981914
 10
76.1050994924
 20
80.3538448348
 10
76.3841406326
 20
80.1117840051
 10
76.6589104058
 20
79.862186855
 10
76.9292569184
 20
79.6053386389
 10
77.1950677494
 20
79.3414849748
 10
77.4560121225
 20
79.0710964898
 10
77.7118676418
 20
78.79455768
 10
77.9626076351
 20
78.5120440604
 10
78.2081816772
 20
78.2237400165
 10
78.4484362381
 20
77.9299427304
 10
78.6832659182
 20
77.6308913279
 10
78.9126681951
 20
77.3266808167
 10
79.1365417685
 20
77.017517411
 10
79.354712246
 20
76.7037069804
 10
79.5670518607
 20
76.3854937914
 10
79.7734023518
 20
76.0631698961
 10
79.9736525659
 20
75.7369566609
 10
80.167736507
 20
75.4069923354
 10
80.3555128741
 20
75.0735325681
 10
80.5368458386
 20
74.7368252793
 10
80.7116650046
 20
74.3969894425
 10
80.8798528845
 20
74.0542182847
 10
81.0412379475
 20
73.7088143104
 10
81.1956663741
 20
73.3610526249
 10
81.3429671788
 20
73.0112578533
 10
81.4830357628
 20
72.6596023956
 10
81.6158117154
 20
72.3061195884
 10
81.7411605668
 20
71.9510036032
 10
81.858911273
 20
71.5945485548
 10
81.9689357102
 20
71.236917651
 10
82.0711238873
 20
70.8781783904
 10
82.1652606252
 20
70.5187494973
 10
82.2510895036
 20
70.1592960887
 10
82.3284440761
 20
69.8002276211
 10
82.3972342321
 20
69.4416097532
 10
82.457343663
 20
69.0835590707
 10
82.5086398085
 20
68.7262085783
 10
82.5509554313
 20
68.3698927878
 10
82.5841259879
 20
68.0149922306
 10
82.6080044924
 20
67.6617728336
 10
82.6224457321
 20
67.31041812
 10
82.6272946294
 20
66.9611701135
  0
LWPOLYLINE
  5
37D
100
AcDbEntity
  8
RACCORDO
100
AcDbPolyline
 62
7
  6
CONTINUOUS
 90
49
 70
0
 10
75.582643841
 20
80.9561840028
 10
75.8144141003
 20
80.8179523262
 10
76.0454427156
 20
80.6714542074
 10
76.275729687
 20
80.5166896463
 10
76.5055198483
 20
80.3534753443
 10
76.7345683656
 20
80.1819946001
 10
76.9621407374
 20
80.0027973097
 10
77.1882322251
 20
79.8158587016
 10
77.4128475673
 20
79.6212035473
 10
77.6352664786
 20
79.4194560573
 10
77.8554819081
 20
79.2105934639
 10
78.0735009067
 20
78.994638535
 10
78.2886243418
 20
78.772283784
 10
78.5008429181
 20
78.5435086665
 10
78.7101659309
 20
78.3083337269
 10
78.9159221334
 20
78.0675131128
 10
79.1181000756
 20
77.8210287005
 10
79.3167112076
 20
77.5688986136
 10
79.511118633
 20
77.3119313704
 10
79.701308857
 20
77.0501114429
 10
79.8872953744
 20
76.7834543592
 10
80.0684817727
 20
76.5128152221
 10
80.2448526428
 20
76.2381812485
 10
80.4164233938
 20
75.9595652215
 10
80.582643841
 20
75.6778605932
 10
80.7434968092
 20
75.3930574488
 10
80.8989994736
 20
75.1051657031
 10
81.048653176
 20
74.8151085532
 10
81.1924391403
 20
74.5228790479
 10
81.3303761425
 20
74.2284841385
 10
81.4620218531
 20
73.932867876
 10
81.587356076
 20
73.6360263397
 10
81.7063990073
 20
73.3379634503
 10
81.818768906
 20
73.0396350214
 10
81.9244443504
 20
72.7410402004
 10
82.0234467622
 20
72.4421798397
 10
82.1154586654
 20
72.1440123102
 10
82.2004576191
 20
71.8465398358
 10
82.2784660642
 20
71.5497601925
 10
82.3492338469
 20
71.2546250787
 10
82.4127377235
 20
70.9611397735
 10
82.4690009378
 20
70.6692989978
 10
82.5178430676
 20
70.3800386121
 10
82.5592402901
 20
70.0933669
 10
82.5932164281
 20
69.809275578
 10
82.6196625287
 20
69.5286756562
 10
82.6385422742
 20
69.2518708045
 10
82.6498919822
 20
68.978557353
 10
82.6537116529
 20
68.7087353016
  0
LWPOLYLINE
  5
37E
100
AcDbEntity
  8
0
100
AcDbPolyline
 62
7
  6
CONTINUOUS
 90
13
 70
0
 10
22.5491097415
 20
-117.0835903926
 10
22.5667618188
 20
-117.071711175
 10
22.6337051627
 20
-117.0039731952
 10
22.679242542
 20
-116.9158447427
 10
22.7006485065
 20
-116.8047296619
 10
22.7006485065
 20
-116.6732241084
 10
22.679242542
 20
-116.5373899563
 10
22.6337051627
 20
-116.3966760797
 10
22.5667618188
 20
-116.2516336044
 10
22.4865888613
 20
-116.1199777819
 10
22.3959117405
 20
-116.007613696
 10
22.2920050061
 20
-115.9086362629
 10
22.174868658
 20
-115.8230454826
  0
LWPOLYLINE
  5
37F
100
AcDbEntity
  8
ASSI
100
AcDbPolyline
 62
7
  6
CONTINUOUS
 90
16
 70
0
 10
23.3802313601
 20
-117.2983077087
 10
23.4145618436
 20
-117.2763396755
 10
23.4470781944
 20
-117.2511541489
 10
23.4774816377
 20
-117.2229761124
 10
23.5057548312
 20
-117.1917810043
 10
23.5319151171
 20
-117.1575933862
 10
23.5557483636
 20
-117.1206930969
 10
23.5772354709
 20
-117.0810578713
 10
23.5963955389
 20
-117.0387099744
 10
23.6130717351
 20
-116.9939960397
 10
23.6272436724
 20
-116.9468966475
 10
23.6389317379
 20
-116.8974312175
 10
23.6480402604
 20
-116.8460046431
 10
23.6545373495
 20
-116.7927518886
 10
23.6584548955
 20
-116.7375379896
 10
23.6597928985
 20
-116.6803629462
  0
LWPOLYLINE
  5
380
100
AcDbEntity
  8
ASSI
100
AcDbPolyline
 62
7
  6
CONTINUOUS
 90
19
 70
0
 10
40.7755687862
 20
-115.1775687405
 10
40.7170114765
 20
-115.2144080447
 10
40.6610017967
 20
-115.2558134093
 10
40.6079250278
 20
-115.301510772
 10
40.5577978977
 20
-115.3515246117
 10
40.5106036785
 20
-115.4058304493
 10
40.4666110284
 20
-115.4641191434
 10
40.4258382071
 20
-115.5264134097
 10
40.3882669549
 20
-115.5926905325
 10
40.3541111498
 20
-115.6625732222
 10
40.3233902718
 20
-115.736082043
 10
40.2960848409
 20
-115.8131964309
 10
40.2723502963
 20
-115.8934774041
 10
40.2522070042
 20
-115.9769430231
 10
40.2356345983
 20
-116.0635752275
 10
40.2227274187
 20
-116.1528808546
 10
40.2135169122
 20
-116.2446955166
 10
40.2079716321
 20
-116.3391836013
 10
40.2060915783
 20
-116.4363451086
  0
LINE
  5
381
100
AcDbEntity
  8
0
100
AcDbLine
 62
7
  6
CONTINUOUS
 10
21.5748396658
 20
-115.3961844449
 11
22.4142313394
 21
-114.9115302126
  0
LINE
  5
382
100
AcDbEntity
  8
0
100
AcDbLine
 62
7
  6
CONTINUOUS
 10
22.7748976502
 20
-117.4746119356
 11
23.6142863267
 21
-116.9899594338
  0
LWPOLYLINE
  5
383
100
AcDbEntity
  8
0
100
AcDbPolyline
 62
7
  6
CONTINUOUS
 90
6
 70
0
 10
21.5758727867
 20
-115.3979737586
 10
21.6313634872
 20
-115.370921129
 10
21.7506045893
 20
-115.3419326329
 10
21.8793946995
 20
-115.3472782398
 10
22.0208160557
 20
-115.3851786482
 10
22.174868658
 20
-115.4556338581
  0
LWPOLYLINE
  5
384
100
AcDbEntity
  8
0
100
AcDbPolyline
 62
7
  6
CONTINUOUS
 90
6
 70
0
 10
22.7738645293
 20
-117.4728226219
 10
22.7183738288
 20
-117.4998752515
 10
22.5991327267
 20
-117.5288637476
 10
22.4703426166
 20
-117.5235181406
 10
22.3289212603
 20
-117.4856177322
 10
22.174868658
 20
-117.4151625224
  0
LWPOLYLINE
  5
385
100
AcDbEntity
  8
ASSI
100
AcDbPolyline
 62
7
  6
CONTINUOUS
 90
11
 70
0
 10
-60.5838553879
 20
133.3958312981
 10
-60.5798369758
 20
133.3948845582
 10
-60.5327734211
 20
133.3869660439
 10
-60.4865169252
 20
133.3823815509
 10
-60.4414461151
 20
133.3811686051
 10
-60.3975707226
 20
133.3833548794
 10
-60.3548810159
 20
133.3889127008
 10
-60.3137264264
 20
133.3977965766
 10
-60.2741195539
 20
133.4100338062
 10
-60.2360477987
 20
133.42559709
 10
-60.1997901762
 20
133.4443778672
  0
LWPOLYLINE
  5
386
100
AcDbEntity
  8
RACCORDO
100
AcDbPolyline
 62
7
  6
CONTINUOUS
 90
4
 70
0
 10
-52.4413741161
 20
154.8448244191
 10
-52.3007970034
 20
154.776964465
 10
-52.0697683881
 20
154.6566765298
 10
-51.8379981288
 20
154.5272657205
  0
LWPOLYLINE
  5
387
100
AcDbEntity
  8
ASSI
100
AcDbPolyline
 62
7
  6
CONTINUOUS
 90
19
 70
0
 10
43.5257016669
 20
-121.981807432
 10
43.5842589765
 20
-121.9449681278
 10
43.6402686564
 20
-121.9035627631
 10
43.6933454252
 20
-121.8578654004
 10
43.7434725554
 20
-121.8078515607
 10
43.7906667745
 20
-121.7535457231
 10
43.8346594247
 20
-121.695257029
 10
43.8754322459
 20
-121.6329627627
 10
43.9130034982
 20
-121.56668564
 10
43.9471593032
 20
-121.4968029502
 10
43.9778801813
 20
-121.4232941294
 10
44.0051856121
 20
-121.3461797415
 10
44.0289201567
 20
-121.2658987683
 10
44.0490634489
 20
-121.1824331493
 10
44.0656358548
 20
-121.0958009449
 10
44.0785430343
 20
-121.0064953179
 10
44.0877535408
 20
-120.9146806558
 10
44.093298821
 20
-120.8201925711
 10
44.0951788748
 20
-120.7230310639
  0
LWPOLYLINE
  5
388
100
AcDbEntity
  8
0
100
AcDbPolyline
 62
7
  6
CONTINUOUS
 90
46
 70
0
 10
69.1141394996
 20
-108.1698910159
 10
69.0814335268
 20
-108.1897804595
 10
69.0269152633
 20
-108.2278414063
 10
68.9751060814
 20
-108.2704323005
 10
68.926333418
 20
-108.3172838004
 10
68.8806165076
 20
-108.3684228851
 10
68.8379361158
 20
-108.4238225754
 10
68.7985619772
 20
-108.4831325928
 10
68.7625150327
 20
-108.5463776975
 10
68.7297743413
 20
-108.6135331291
 10
68.7005468152
 20
-108.6841743276
 10
68.6748547044
 20
-108.758323365
 10
68.6526757588
 20
-108.8359581691
 10
68.6341501411
 20
-108.9165879637
 10
68.6193009877
 20
-109.0002317137
 10
68.6081051622
 20
-109.0868704542
 10
68.6006334171
 20
-109.1759565142
 10
68.5969093366
 20
-109.2675053916
 10
68.5969093366
 20
-109.3615015886
 10
68.6006334171
 20
-109.4573509407
 10
68.6081051622
 20
-109.5550651847
 10
68.6193009877
 20
-109.6546325839
 10
68.6341501411
 20
-109.755423764
 10
68.6526757588
 20
-109.8574464776
 10
68.6748547044
 20
-109.9606929722
 10
68.7005468152
 20
-110.0645106151
 10
68.7297743413
 20
-110.1689030281
 10
68.7625150327
 20
-110.2738665894
 10
68.7985619772
 20
-110.3787378022
 10
68.8379361158
 20
-110.4835160878
 10
68.8806165076
 20
-110.5882020248
 10
68.926333418
 20
-110.6921338517
 10
68.9751060814
 20
-110.7953068007
 10
69.0269152633
 20
-110.8977256396
 10
69.0814335268
 20
-110.9987429104
 10
69.1386780341
 20
-111.0983497462
 10
69.1986316228
 20
-111.196555014
 10
69.2609153684
 20
-111.2927378565
 10
69.3255440356
 20
-111.3868854757
 10
69.3925028597
 20
-111.4790106696
 10
69.4613686218
 20
-111.5685309752
 10
69.5321534085
 20
-111.6554299057
 10
69.6048451332
 20
-111.739723948
 10
69.6789843176
 20
-111.8208800988
 10
69.7544178023
 20
-111.8987206907
 10
69.8312987467
 20
-111.9734233911
  0
LINE
  5
389
100
AcDbEntity
  8
ASSI
100
AcDbLine
 62
253
  6
CONTINUOUS
 10
41.6203051406
 20
-115.6197959219
 11
40.2060915783
 21
-116.4363451086
  0
LINE
  5
38A
100
AcDbEntity
  8
ASSI
100
AcDbLine
 62
253
  6
CONTINUOUS
 10
41.6203051406
 20
-117.6609716139
 11
40.2060915783
 21
-118.4775208006
  0
LINE
  5
38B
100
AcDbEntity
  8
ASSI
100
AcDbLine
 62
7
  6
CONTINUOUS
 10
70.0106424053
 20
-107.6522519946
 11
69.1141353955
 21
-108.1698839062
  0
LINE
  5
38C
100
AcDbEntity
  8
0
100
AcDbLine
 62
253
  6
CONTINUOUS
 10
69.9096271508
 20
-108.0999124074
 11
70.0106424053
 21
-108.0415874655
  0
LWPOLYLINE
  5
38D
100
AcDbEntity
  8
0
100
AcDbPolyline
 62
7
  6
CONTINUOUS
 90
4
 70
0
 10
62.2778871061
 20
-123.4804431606
 10
62.2097581653
 20
-123.540459091
 10
62.185741049
 20
-123.5581611044
 10
62.1668063073
 20
-123.5699629787
  0
LWPOLYLINE
  5
38E
100
AcDbEntity
  8
0
100
AcDbPolyline
 62
7
  6
CONTINUOUS
 90
3
 70
0
 10
62.3637908221
 20
-123.4214353851
 10
62.3259213388
 20
-123.4450391337
 10
62.2778871061
 20
-123.4804431606
  0
LWPOLYLINE
  5
38F
100
AcDbEntity
  8
ASSI
100
AcDbPolyline
 62
7
  6
CONTINUOUS
 90
19
 70
0
 10
58.8800322627
 20
-125.7153993347
 10
58.8673915669
 20
-125.7228686468
 10
58.8178847414
 20
-125.7554914212
 10
58.7709323452
 20
-125.7919886918
 10
58.7265502396
 20
-125.8323845169
 10
58.6847225631
 20
-125.8766548383
 10
58.6457085029
 20
-125.9245253331
 10
58.6095255297
 20
-125.976018356
 10
58.5761561727
 20
-126.0311115522
 10
58.5458072066
 20
-126.0894635343
 10
58.5184973861
 20
-126.1510945374
 10
58.4942079565
 20
-126.2159843263
 10
58.4730894284
 20
-126.2837308088
 10
58.4551614909
 20
-126.3543517231
 10
58.4404044549
 20
-126.4278293308
 10
58.4289097629
 20
-126.5037083249
 10
58.4207078959
 20
-126.5818369361
 10
58.4157683728
 20
-126.6623669337
 10
58.4140911938
 20
-126.7452983176
  0
LWPOLYLINE
  5
390
100
AcDbEntity
  8
ASSI
100
AcDbPolyline
 62
7
  6
CONTINUOUS
 90
19
 70
0
 10
61.1301306402
 20
-131.6536086624
 10
61.1427713361
 20
-131.6461393502
 10
61.1922781615
 20
-131.6135165759
 10
61.2392305578
 20
-131.5770193053
 10
61.2836126634
 20
-131.5366234802
 10
61.3254403399
 20
-131.4923531587
 10
61.3644544001
 20
-131.444482664
 10
61.4006373733
 20
-131.3929896411
 10
61.4340067303
 20
-131.3378964449
 10
61.4643556964
 20
-131.2795444628
 10
61.4916655169
 20
-131.2179134597
 10
61.5159549465
 20
-131.1530236707
 10
61.5370734746
 20
-131.0852771883
 10
61.555001412
 20
-131.014656274
 10
61.5697584481
 20
-130.9411786663
 10
61.58125314
 20
-130.8652996722
 10
61.5894550071
 20
-130.7871710609
 10
61.5943945302
 20
-130.7066410634
 10
61.5960717092
 20
-130.6237096795
  0
LINE
  5
391
100
AcDbEntity
  8
0
100
AcDbLine
 62
253
  6
CONTINUOUS
 10
61.6667823873
 20
-123.5204222169
 11
63.0809959497
 21
-122.7038730303
  0
LINE
  5
392
100
AcDbEntity
  8
ASSI
100
AcDbLine
 62
7
  6
CONTINUOUS
 10
63.7780039042
 20
-122.6048853667
 11
62.3637903418
 21
-123.4214345534
  0
LINE
  5
393
100
AcDbEntity
  8
ASSI
100
AcDbLine
 62
253
  6
CONTINUOUS
 10
59.8283047562
 20
-125.9287491309
 11
58.4140911938
 21
-126.7452983176
  0
LINE
  5
394
100
AcDbEntity
  8
0
100
AcDbLine
 62
253
  6
CONTINUOUS
 10
64.495209512
 20
-124.8269324795
 11
65.9094230744
 21
-124.0103832929
  0
LINE
  5
395
100
AcDbEntity
  8
ASSI
100
AcDbLine
 62
253
  6
CONTINUOUS
 10
59.8283047562
 20
-127.9699248229
 11
58.4140911938
 21
-128.7864740095
  0
LINE
  5
396
100
AcDbEntity
  8
0
100
AcDbLine
 62
253
  6
CONTINUOUS
 10
65.060894937
 20
-125.4801402649
 11
66.4751084993
 21
-124.6635910782
  0
LWPOLYLINE
  5
397
100
AcDbEntity
  8
0
100
AcDbPolyline
 62
7
  6
CONTINUOUS
 90
17
 70
0
 10
62.1668063073
 20
-123.5699629787
 10
62.1604164632
 20
-123.5735598212
 10
62.1337104056
 20
-123.5866838259
 10
62.1056968786
 20
-123.597504534
 10
62.0765978892
 20
-123.6059361914
 10
62.0464048122
 20
-123.6119598147
 10
62.0151262729
 20
-123.6155943873
 10
61.9830101533
 20
-123.6168111052
 10
61.9500497981
 20
-123.6155907561
 10
61.9162518627
 20
-123.6119525525
 10
61.8818841954
 20
-123.6059253268
 10
61.8469422693
 20
-123.5974900961
 10
61.8114306113
 20
-123.5866658435
 10
61.7756306511
 20
-123.573538351
 10
61.7396361987
 20
-123.5581362128
 10
61.7033534441
 20
-123.5404308348
 10
61.6667823873
 20
-123.5204222169
  0
LWPOLYLINE
  5
398
100
AcDbEntity
  8
0
100
AcDbPolyline
 62
7
  6
CONTINUOUS
 90
13
 70
0
 10
60.6915005398
 20
-138.2423086209
 10
60.6738484625
 20
-138.2541878384
 10
60.6069051186
 20
-138.3219258183
 10
60.5613677393
 20
-138.4100542707
 10
60.5399617748
 20
-138.5211693516
 10
60.5399617748
 20
-138.652674905
 10
60.5613677393
 20
-138.7885090571
 10
60.6069051186
 20
-138.9292229338
 10
60.6738484625
 20
-139.0742654091
 10
60.7540214199
 20
-139.2059212316
 10
60.8446985407
 20
-139.3182853175
 10
60.9486052752
 20
-139.4172627506
 10
61.0657416233
 20
-139.5028535308
  0
LWPOLYLINE
  5
399
100
AcDbEntity
  8
0
100
AcDbPolyline
 62
7
  6
CONTINUOUS
 90
13
 70
0
 10
61.4399827067
 20
-139.5386930256
 10
61.4576347841
 20
-139.526813808
 10
61.5245781279
 20
-139.4590758282
 10
61.5701155072
 20
-139.3709473758
 10
61.5915214718
 20
-139.2598322949
 10
61.5915214718
 20
-139.1283267415
 10
61.5701155072
 20
-138.9924925894
 10
61.5245781279
 20
-138.8517787127
 10
61.4576347841
 20
-138.7067362374
 10
61.3774618266
 20
-138.5750804149
 10
61.2867847058
 20
-138.462716329
 10
61.1828779713
 20
-138.3637388959
 10
61.0657416233
 20
-138.2781481156
  0
LWPOLYLINE
  5
39A
100
AcDbEntity
  8
ASSI
100
AcDbPolyline
 62
7
  6
CONTINUOUS
 90
11
 70
0
 10
60.921039093
 20
-137.4151794147
 10
60.8867086094
 20
-137.437147448
 10
60.8541922586
 20
-137.4623329746
 10
60.8237888154
 20
-137.490511011
 10
60.7955156219
 20
-137.5217061192
 10
60.769355336
 20
-137.5558937373
 10
60.7455220895
 20
-137.5927940266
 10
60.7240349821
 20
-137.6324292522
 10
60.7048749142
 20
-137.6747771491
 10
60.688198718
 20
-137.7194910837
 10
60.6869841264
 20
-137.7235276897
  0
LWPOLYLINE
  5
39B
100
AcDbEntity
  8
ASSI
100
AcDbPolyline
 62
7
  6
CONTINUOUS
 90
16
 70
0
 10
62.2711043253
 20
-139.7534103418
 10
62.3054348089
 20
-139.7314423085
 10
62.3379511597
 20
-139.7062567819
 10
62.368354603
 20
-139.6780787455
 10
62.3966277964
 20
-139.6468836373
 10
62.4227880823
 20
-139.6126960192
 10
62.4466213289
 20
-139.5757957299
 10
62.4681084362
 20
-139.5361605043
 10
62.4872685041
 20
-139.4938126074
 10
62.5039447003
 20
-139.4490986728
 10
62.5181166376
 20
-139.4019992805
 10
62.5298047032
 20
-139.3525338505
 10
62.5389132257
 20
-139.3011072761
 10
62.5454103147
 20
-139.2478545216
 10
62.5493278608
 20
-139.1926406227
 10
62.5506658638
 20
-139.1354655792
  0
LINE
  5
39C
100
AcDbEntity
  8
0
100
AcDbLine
 62
253
  6
CONTINUOUS
 10
69.7277996928
 20
-128.1747525808
 11
70.0106424053
 21
-128.0114427435
  0
LINE
  5
39D
100
AcDbEntity
  8
0
100
AcDbLine
 62
7
  6
CONTINUOUS
 10
60.4657126311
 20
-137.8512870779
 11
61.3051043047
 21
-137.3666328456
  0
LINE
  5
39E
100
AcDbEntity
  8
0
100
AcDbLine
 62
7
  6
CONTINUOUS
 10
61.6657706154
 20
-139.9297145686
 11
62.5051592919
 21
-139.4450620668
  0
LWPOLYLINE
  5
39F
100
AcDbEntity
  8
0
100
AcDbPolyline
 62
7
  6
CONTINUOUS
 90
6
 70
0
 10
60.466745752
 20
-137.8530763916
 10
60.5222364525
 20
-137.826023762
 10
60.6414775546
 20
-137.7970352659
 10
60.7702676647
 20
-137.8023808728
 10
60.911689021
 20
-137.8402812812
 10
61.0657416233
 20
-137.9107364911
  0
LWPOLYLINE
  5
3A0
100
AcDbEntity
  8
0
100
AcDbPolyline
 62
7
  6
CONTINUOUS
 90
6
 70
0
 10
61.6647374946
 20
-139.9279252549
 10
61.609246794
 20
-139.9549778845
 10
61.490005692
 20
-139.9839663806
 10
61.3612155818
 20
-139.9786207737
 10
61.2197942256
 20
-139.9407203652
 10
61.0657416233
 20
-139.8702651554
  0
LWPOLYLINE
  5
3A1
100
AcDbEntity
  8
0
100
AcDbPolyline
 62
7
  6
CONTINUOUS
 90
18
 70
0
 10
81.748614973
 20
-153.8941581238
 10
81.8474816697
 20
-153.8342469031
 10
81.9409161295
 20
-153.7719877237
 10
82.0289183522
 20
-153.7073805856
 10
82.1116628159
 20
-153.6402687322
 10
82.1889750425
 20
-153.5708089201
 10
82.2603315981
 20
-153.4994714194
 10
82.3256920692
 20
-153.4262434888
 10
82.3850968692
 20
-153.3511378696
 10
82.4381438044
 20
-153.2746630563
 10
82.4847897322
 20
-153.1968097579
 10
82.5250777952
 20
-153.1175872654
 10
82.5587352273
 20
-153.0375319462
 10
82.5857170352
 20
-152.9566381487
 10
82.6060682123
 20
-152.8749115245
 10
82.6196509732
 20
-152.7929053947
 10
82.6264193895
 20
-152.7106178626
 10
82.6272654415
 20
-152.6693343438
  0
LINE
  5
3A2
100
AcDbEntity
  8
0
100
AcDbLine
 62
7
  6
CONTINUOUS
 10
82.6272946294
 20
-147.4261998237
 11
82.6537116529
 21
-147.4109469654
  0
LINE
  5
3A3
100
AcDbEntity
  8
0
100
AcDbLine
 62
7
  6
CONTINUOUS
 10
81.748614973
 20
-153.8941581238
 11
74.9603898736
 21
-157.8135942197
  0
ENDSEC
  0
SECTION
  2
OBJECTS
  0
DICTIONARY
  5
C
100
AcDbDictionary
280
0
281
1
  3
ACAD_GROUP
350
D
  3
ACAD_MLINESTYLE
350
17
  3
ACAD_LAYOUT
350
1A
  3
ACAD_PLOTSETTINGS
350
19
  3
ACAD_PLOTSTYLENAME
350
E
  0
DICTIONARY
  5
D
102
{ACAD_REACTORS
330
C
102
}
100
AcDbDictionary
280
0
281
1
  0
ACDBDICTIONARYWDFLT
  5
E
102
{ACAD_REACTORS
330
C
102
}
100
AcDbDictionary
281
1
  3
Normal
350
F
100
AcDbDictionaryWithDefault
340
F
  0
DICTIONARY
  5
17
102
{ACAD_REACTORS
330
C
102
}
100
AcDbDictionary
280
0
281
1
  3
Standard
350
18
  0
DICTIONARY
  5
19
102
{ACAD_REACTORS
330
C
102
}
100
AcDbDictionary
281
1
  0
DICTIONARY
  5
1A
102
{ACAD_REACTORS
330
C
102
}
100
AcDbDictionary
281
1
  3
Model
350
3A4
  3
Layout1
350
3A5
  0
ACDBPLACEHOLDER
  5
F
102
{ACAD_REACTORS
330
E
102
}
  0
MLINESTYLE
  5
18
102
{ACAD_REACTORS
330
17
102
}
100
AcDbMlineStyle
  2
STANDARD
 70
0
  3

 62
256
 51
90.0
 52
90.0
 71
2
 49
0.5
 62
256
  6
BYLAYER
 49
-0.5
 62
256
  6
BYLAYER
  0
LAYOUT
  5
3A4
102
{ACAD_REACTORS
330
1A
102
}
100
AcDbPlotSettings
  1

  2
none_device
  4
ISO_A4_(297.00_x_210.00_MM)
  6

 40
0.0
 41
0.0
 42
0.0
 43
0.0
 44
297.0
 45
210.0
 46
0.0
 47
0.0
 48
0.0
 49
0.0
140
0.0
141
0.0
142
1.0
143
1.0
 70
1024
 72
1
 73
0
 74
0
  7

 75
0
147
1.0
148
0.0
149
0.0
100
AcDbLayout
  1
Model
 70
0
 71
0
 10
0.0
 20
0.0
 11
297.0
 21
210.0
 12
0.0
 22
0.0
 32
0.0
 14
0.0
 24
0.0
 34
0.0
 15
0.0
 25
0.0
 35
0.0
146
0.0
 13
0.0
 23
0.0
 33
0.0
 16
1.0
 26
0.0
 36
0.0
 17
0.0
 27
1.0
 37
0.0
 76
0
330
20F
345
0
346
0
  0
LAYOUT
  5
3A5
102
{ACAD_REACTORS
330
1A
102
}
100
AcDbPlotSettings
  1

  2
none_device
  4
ISO_A4_(297.00_x_210.00_MM)
  6

 40
0.0
 41
0.0
 42
0.0
 43
0.0
 44
297.0
 45
210.0
 46
0.0
 47
0.0
 48
0.0
 49
0.0
140
0.0
141
0.0
142
1.0
143
1.0
 70
0
 72
1
 73
0
 74
0
  7

 75
0
147
1.0
148
0.0
149
0.0
100
AcDbLayout
  1
Layout1
 70
0
 71
1
 10
0.0
 20
0.0
 11
297.0
 21
210.0
 12
0.0
 22
0.0
 32
0.0
 14
0.0
 24
0.0
 34
0.0
 15
0.0
 25
0.0
 35
0.0
146
0.0
 13
0.0
 23
0.0
 33
0.0
 16
1.0
 26
0.0
 36
0.0
 17
0.0
 27
1.0
 37
0.0
 76
0
330
210
345
0
346
0
  0
ENDSEC
  0
EOF
