  0
SECTION
  2
HEADER
  9
$ACADVER
  1
AC1021
  9
$DWGCODEPAGE
  3
ANSI_1252
  9
$EXTMAX
 10
297.0
 20
210.0
 30
0.0
  9
$EXTMIN
 10
0.0
 20
0.0
 30
0.0
  9
$LIMMIN
 10
0.0
 20
0.0
  9
$LIMMAX
 10
297.0
 20
210.0
  9
$VIEWCTR
 10
148.5
 20
105.0
  9
$VIEWSIZE
 40
210.0
  9
$CLAYER
  8
0
  9
$LTSCALE
 40
16.335
  9
$CELTYPE
  6
BYLAYER
  9
$DIMSCALE
 40
1.0
  9
$DIMASZ
 40
3.0
  9
$DIMEXO
 40
0.5
  9
$DIMDLI
 40
11.286
  9
$DIMEXE
 40
1.5
  9
$DIMCEN
 40
2.673
  9
$DIMLFAC
 40
1.0
  9
$DIMBLK
  1
_FILLED
  9
$DIMALT
 70
0
  9
$DIMALTF
 40
0.0393700787
  9
$DIMTXT
 40
3.0
  9
$DIMTOL
 70
1
  9
$DIMLIM
 70
0
  9
$DIMTFAC
 40
1.0
  9
$DIMTP
 40
0.01
  9
$DIMTM
 40
0.01
  9
$DIMGAP
 40
0.625
  9
$DIMDSEP
 70
44
  9
$AUNITS
 70
0
  9
$PDMODE
 70
3
  9
$PDSIZE
 40
3.0
  9
$HANDSEED
  5
3DD
  9
$TILEMODE
 70
1
  9
$MEASUREMENT
 70
1
  9
$INSUNITS
 70
4
  0
ENDSEC
  0
SECTION
  2
CLASSES
  0
CLASS
  1
ACDBDICTIONARYWDFLT
  2
AcDbDictionaryWithDefault
  3
AutoCAD 2000
 90
0
 91
1
280
0
281
0
  0
CLASS
  1
ACDBPLACEHOLDER
  2
AcDbPlaceHolder
  3
AutoCAD 2000
 90
0
 91
1
280
0
281
0
  0
CLASS
  1
LAYOUT
  2
AcDbLayout
  3
AutoCAD 2000
 90
0
 91
0
280
0
281
0
  0
ENDSEC
  0
SECTION
  2
TABLES
  0
TABLE
  2
VPORT
  5
8
100
AcDbSymbolTable
 70
2
  0
VPORT
  5
1F4
100
AcDbSymbolTableRecord
100
AcDbViewportTableRecord
  2
*ACTIVE
 70
0
 10
0.0
 20
0.0
 11
1.0
 21
1.0
 12
148.5
 22
105.0
 13
0.0
 23
0.0
 14
1.0
 24
1.0
 15
0.0
 25
0.0
 16
0.0
 26
0.0
 36
1.0
 17
0.0
 27
0.0
 37
0.0
 40
210.0
 41
1.4142857143
 42
50.0
 43
0.0
 44
0.0
 50
0.0
 51
0.0
 71
0
 72
100
 73
1
 74
1
 75
0
 76
0
 77
0
 78
0
  0
ENDTAB
  0
TABLE
  2
LTYPE
  5
5
100
AcDbSymbolTable
 70
6
  0
LTYPE
  5
14
100
AcDbSymbolTableRecord
100
AcDbLinetypeTableRecord
  2
BYBLOCK
 70
0
  3

 72
65
 73
0
 40
0.0
  0
LTYPE
  5
15
100
AcDbSymbolTableRecord
100
AcDbLinetypeTableRecord
  2
BYLAYER
 70
0
  3

 72
65
 73
0
 40
0.0
  0
LTYPE
  5
16
100
AcDbSymbolTableRecord
100
AcDbLinetypeTableRecord
  2
CONTINUOUS
 70
64
  3
Solid line
 72
65
 73
0
 40
0.0
  0
LTYPE
  5
1F5
100
AcDbSymbolTableRecord
100
AcDbLinetypeTableRecord
  2
CENTER
 70
64
  3
____ _ ____ _ ____ _ ____ _ ____ _ ____ _ ____
 72
65
 73
4
 40
0.6
 49
0.375
 74
0
 49
-0.075
 74
0
 49
0.075
 74
0
 49
-0.075
 74
0
  0
LTYPE
  5
1F6
100
AcDbSymbolTableRecord
100
AcDbLinetypeTableRecord
  2
HIDDEN
 70
64
  3
- - - - - - - - - - - - - - - - - - - -
 72
65
 73
2
 40
0.2
 49
0.1
 74
0
 49
-0.1
 74
0
  0
LTYPE
  5
1F7
100
AcDbSymbolTableRecord
100
AcDbLinetypeTableRecord
  2
PHANTOM
 70
64
  3
_____ _ _ _____ _ _ _____ _ _ _____
 72
65
 73
6
 40
0.8
 49
0.45
 74
0
 49
-0.05
 74
0
 49
0.1
 74
0
 49
-0.05
 74
0
 49
0.1
 74
0
 49
-0.05
 74
0
  0
LTYPE
  5
1F8
100
AcDbSymbolTableRecord
100
AcDbLinetypeTableRecord
  2
DOT
 70
64
  3
. . . . . . . . . . . . . . . . . . . .
 72
65
 73
2
 40
0.2
 49
0.1
 74
0
 49
-0.1
 74
0
  0
LTYPE
  5
1F9
100
AcDbSymbolTableRecord
100
AcDbLinetypeTableRecord
  2
DASHED
 70
64
  3
- - - - - - - - - - - - - - - - - - - -
 72
65
 73
2
 40
0.2
 49
0.1
 74
0
 49
-0.1
 74
0
  0
ENDTAB
  0
TABLE
  2
LAYER
  5
2
100
AcDbSymbolTable
 70
36
  0
LAYER
  5
10
100
AcDbSymbolTableRecord
100
AcDbLayerTableRecord
  2
0
 70
0
 62
7
  6
CONTINUOUS
370
-3
390
F
  0
LAYER
  5
1FA
100
AcDbSymbolTableRecord
100
AcDbLayerTableRecord
  2
DEFAULT_1
 70
0
 62
7
  6
CENTER
370
-3
390
F
  0
LAYER
  5
1FB
100
AcDbSymbolTableRecord
100
AcDbLayerTableRecord
  2
DEFAULT_2
 70
0
 62
7
  6
HIDDEN
370
-3
390
F
  0
LAYER
  5
1FC
100
AcDbSymbolTableRecord
100
AcDbLayerTableRecord
  2
DEFAULT_3
 70
0
 62
7
  6
PHANTOM
370
-3
390
F
  0
LAYER
  5
1FD
100
AcDbSymbolTableRecord
100
AcDbLayerTableRecord
  2
ASSI
 70
0
 62
7
  6
CONTINUOUS
370
-3
390
F
  0
LAYER
  5
1FE
100
AcDbSymbolTableRecord
100
AcDbLayerTableRecord
  2
COORDINATE
 70
0
 62
7
  6
CONTINUOUS
370
-3
390
F
  0
LAYER
  5
1FF
100
AcDbSymbolTableRecord
100
AcDbLayerTableRecord
  2
COPY_PUBLISH
 70
0
 62
7
  6
CONTINUOUS
370
-3
390
F
  0
LAYER
  5
200
100
AcDbSymbolTableRecord
100
AcDbLayerTableRecord
  2
COSMETICI
 70
0
 62
7
  6
CONTINUOUS
370
-3
390
F
  0
LAYER
  5
201
100
AcDbSymbolTableRecord
100
AcDbLayerTableRecord
  2
CURVE
 70
0
 62
7
  6
CONTINUOUS
370
-3
390
F
  0
LAYER
  5
202
100
AcDbSymbolTableRecord
100
AcDbLayerTableRecord
  2
DRAFT
 70
0
 62
7
  6
CONTINUOUS
370
-3
390
F
  0
LAYER
  5
203
100
AcDbSymbolTableRecord
100
AcDbLayerTableRecord
  2
IMPORT_IGES
 70
0
 62
7
  6
CONTINUOUS
370
-3
390
F
  0
LAYER
  5
204
100
AcDbSymbolTableRecord
100
AcDbLayerTableRecord
  2
NOTE
 70
0
 62
7
  6
CONTINUOUS
370
-3
390
F
  0
LAYER
  5
205
100
AcDbSymbolTableRecord
100
AcDbLayerTableRecord
  2
PIANI
 70
0
 62
7
  6
CONTINUOUS
370
-3
390
F
  0
LAYER
  5
206
100
AcDbSymbolTableRecord
100
AcDbLayerTableRecord
  2
PUNTI
 70
0
 62
7
  6
CONTINUOUS
370
-3
390
F
  0
LAYER
  5
207
100
AcDbSymbolTableRecord
100
AcDbLayerTableRecord
  2
RACCORDO
 70
0
 62
7
  6
CONTINUOUS
370
-3
390
F
  0
LAYER
  5
208
100
AcDbSymbolTableRecord
100
AcDbLayerTableRecord
  2
SIMBOLI
 70
0
 62
7
  6
CONTINUOUS
370
-3
390
F
  0
LAYER
  5
209
100
AcDbSymbolTableRecord
100
AcDbLayerTableRecord
  2
SMUSSO
 70
0
 62
7
  6
CONTINUOUS
370
-3
390
F
  0
LAYER
  5
20A
100
AcDbSymbolTableRecord
100
AcDbLayerTableRecord
  2
SNAPLINE
 70
0
 62
7
  6
CONTINUOUS
370
-3
390
F
  0
LAYER
  5
20B
100
AcDbSymbolTableRecord
100
AcDbLayerTableRecord
  2
SUPERFICI
 70
0
 62
7
  6
CONTINUOUS
370
-3
390
F
  0
LAYER
  5
20C
100
AcDbSymbolTableRecord
100
AcDbLayerTableRecord
  2
TRASH
 70
0
 62
7
  6
CONTINUOUS
370
-3
390
F
  0
ENDTAB
  0
TABLE
  2
STYLE
  5
3
100
AcDbSymbolTable
 70
1
  0
STYLE
  5
11
100
AcDbSymbolTableRecord
100
AcDbTextStyleTableRecord
  2
STANDARD
 70
0
 40
0.0
 41
0.8
 50
0.0
 71
0
 42
0.2
  3
txt
  4

  0
STYLE
  5
20D
100
AcDbSymbolTableRecord
100
AcDbTextStyleTableRecord
  2
TEXTSTYLE_1
 70
0
 40
0.0
 41
0.8
 50
0.0
 71
0
 42
0.2
  3
gdt
  4

  0
ENDTAB
  0
TABLE
  2
VIEW
  5
6
100
AcDbSymbolTable
 70
0
  0
ENDTAB
  0
TABLE
  2
UCS
  5
7
100
AcDbSymbolTable
 70
0
  0
ENDTAB
  0
TABLE
  2
APPID
  5
9
100
AcDbSymbolTable
 70
1
  0
APPID
  5
20E
100
AcDbSymbolTableRecord
100
AcDbRegAppTableRecord
  2
ACAD
 70
0
  0
ENDTAB
  0
TABLE
  2
BLOCK_RECORD
  5
1
100
AcDbSymbolTable
 70
0
  0
BLOCK_RECORD
  5
20F
100
AcDbSymbolTableRecord
100
AcDbBlockTableRecord
  2
*Model_Space
  0
BLOCK_RECORD
  5
210
100
AcDbSymbolTableRecord
100
AcDbBlockTableRecord
  2
*Paper_Space
  0
ENDTAB
  0
TABLE
  2
DIMSTYLE
  5
A
100
AcDbSymbolTable
 70
1
100
AcDbDimStyleTable
 71
0
  0
DIMSTYLE
105
211
100
AcDbSymbolTableRecord
100
AcDbDimStyleTableRecord
  2
STANDARD
 70
0
  3

  4

 40
1.0
 41
3.0
 42
0.5
 43
0.38
 44
1.5
 45
0.0
 46
0.0
 47
0.01
 48
0.01
140
3.0
141
0.09
142
0.0
143
25.4
144
1.0
145
0.0
146
1.0
147
0.625
 71
1.0
 72
0.0
 73
0
 74
0
 75
0
 76
0
 77
1
 78
8
170
0
171
2
172
0
173
0
174
0
175
0
176
0
177
0
178
0
270
2
271
2
272
2
273
2
274
2
275
0
280
0
281
0
282
0
283
1
284
8
285
0
286
0
287
3
288
0
340
11
278
44
  0
ENDTAB
  0
ENDSEC
  0
SECTION
  2
BLOCKS
  0
BLOCK
  5
20
100
AcDbEntity
  8
0
100
AcDbBlockBegin
  2
*Model_Space
 70
0
 10
0.0
 20
0.0
 30
0.0
  3
*Model_Space
  1

  0
ENDBLK
  5
21
100
AcDbEntity
  8
0
100
AcDbBlockEnd
  0
BLOCK
  5
1C
100
AcDbEntity
  8
0
100
AcDbBlockBegin
  2
*Paper_Space
 70
0
 10
0.0
 20
0.0
 30
0.0
  3
*Paper_Space
  1

  0
ENDBLK
  5
1D
100
AcDbEntity
  8
0
100
AcDbBlockEnd
  0
ENDSEC
  0
SECTION
  2
ENTITIES
  0
LINE
  5
212
100
AcDbEntity
  8
0
100
AcDbLine
 62
7
  6
CONTINUOUS
 10
-81.009532351
 20
194.5783737402
 11
-64.0517350026
 21
204.369593398
  0
LINE
  5
213
100
AcDbEntity
  8
ASSI
100
AcDbLine
 62
253
  6
CONTINUOUS
 10
-75.8301312144
 20
193.1716598507
 11
-57.5514209208
 21
203.7255580882
  0
LWPOLYLINE
  5
214
100
AcDbEntity
  8
ASSI
100
AcDbPolyline
 62
7
  6
CONTINUOUS
 90
30
 70
0
 10
-81.009569655
 20
194.5783522013
 10
-80.9818288398
 20
194.5940664269
 10
-80.8548106241
 20
194.6586592444
 10
-80.7228018913
 20
194.7140484232
 10
-80.5859373722
 20
194.7601532514
 10
-80.4441397944
 20
194.7971082653
 10
-80.297630917
 20
194.82488431
 10
-80.1465514689
 20
194.8434702065
 10
-79.9907364301
 20
194.8530985217
 10
-79.8303698636
 20
194.8537893937
 10
-79.6656522918
 20
194.8455515778
 10
-79.4964557689
 20
194.8286353996
 10
-79.322939969
 20
194.8030918705
 10
-79.1453422567
 20
194.7689593356
 10
-78.9636617518
 20
194.7265068918
 10
-78.7781468388
 20
194.6758470955
 10
-78.5889605439
 20
194.6170427538
 10
-78.3959758562
 20
194.5503051113
 10
-78.1994495838
 20
194.4757606171
 10
-77.9995252313
 20
194.3934754326
 10
-77.7958928132
 20
194.3035292195
 10
-77.5885473315
 20
194.2059145462
 10
-77.3778714301
 20
194.1007689439
 10
-77.164133017
 20
193.9883874094
 10
-76.9474879376
 20
193.8688976746
 10
-76.7281683146
 20
193.7424085382
 10
-76.5065622828
 20
193.6092530362
 10
-76.2829276998
 20
193.4696646984
 10
-76.0573886497
 20
193.3237437539
 10
-75.8301312144
 20
193.1716598507
  0
LWPOLYLINE
  5
215
100
AcDbEntity
  8
ASSI
100
AcDbPolyline
 62
7
  6
CONTINUOUS
 90
30
 70
0
 10
-80.0095215246
 20
192.8463291827
 10
-79.9881537817
 20
192.8584102876
 10
-79.8900800543
 20
192.9076364446
 10
-79.7878046575
 20
192.9490627385
 10
-79.6814430901
 20
192.9826200108
 10
-79.5708434226
 20
193.00847207
 10
-79.4561879198
 20
193.0265973516
 10
-79.3376010375
 20
193.0369832914
 10
-79.2148727306
 20
193.0398673324
 10
-79.0881555693
 20
193.0352683478
 10
-78.9576224017
 20
193.0231919126
 10
-78.8231040793
 20
193.003884996
 10
-78.684733336
 20
192.9773921329
 10
-78.5427133936
 20
192.9437443977
 10
-78.3969897452
 20
192.9032005296
 10
-78.2477665985
 20
192.8558592118
 10
-78.0951878624
 20
192.8017701455
 10
-77.9391101946
 20
192.7411327881
 10
-77.7797462453
 20
192.674056819
 10
-77.6172220904
 20
192.6005955369
 10
-77.4512535088
 20
192.5208290072
 10
-77.2818387001
 20
192.4347495396
 10
-77.1092990114
 20
192.3424749087
 10
-76.9338319221
 20
192.2442715938
 10
-76.7555649547
 20
192.1402501857
 10
-76.5746988675
 20
192.0305002348
 10
-76.3915459109
 20
191.9153128779
 10
-76.2063188819
 20
191.7948888294
 10
-76.0191281651
 20
191.6693097864
 10
-75.8301312144
 20
191.5387192971
  0
LINE
  5
216
100
AcDbEntity
  8
0
100
AcDbLine
 62
253
  6
CONTINUOUS
 10
-64.0517350026
 20
204.369593398
 11
-63.961243776
 21
204.4204068926
  0
LWPOLYLINE
  5
217
100
AcDbEntity
  8
0
100
AcDbPolyline
 62
7
  6
CONTINUOUS
 90
31
 70
0
 10
-64.0517350026
 20
204.369593398
 10
-63.8412425343
 20
204.4858581738
 10
-63.6257557827
 20
204.5944088438
 10
-63.4054723854
 20
204.6950594222
 10
-63.1807571813
 20
204.7875733838
 10
-62.9516704068
 20
204.8718617178
 10
-62.7179355674
 20
204.9479256442
 10
-62.4797357267
 20
205.015578577
 10
-62.2372918353
 20
205.0746360838
 10
-61.9903383059
 20
205.1250192616
 10
-61.7390290027
 20
205.1665278994
 10
-61.4835962041
 20
205.1989591456
 10
-61.2238476471
 20
205.2221572302
 10
-60.959891902
 20
205.2359097874
 10
-60.6919859816
 20
205.2400035105
 10
-60.4201193129
 20
205.2342344818
 10
-60.1443931375
 20
205.2183878362
 10
-59.8650507992
 20
205.192261226
 10
-59.5822575986
 20
205.1556575264
 10
-59.2959187162
 20
205.1083370316
 10
-59.0064511576
 20
205.0501394542
 10
-58.7147587437
 20
204.9810685701
 10
-58.4209162894
 20
204.900996537
 10
-58.1251536764
 20
204.8098362036
 10
-57.82858509
 20
204.7078321965
 10
-57.5313226318
 20
204.5949686338
 10
-57.2335362856
 20
204.4712490057
 10
-56.9364113044
 20
204.3371553888
 10
-56.6404272742
 20
204.1929611174
 10
-56.3453640704
 20
204.0386074768
 10
-56.0513484404
 20
203.8741816212
  0
LWPOLYLINE
  5
218
100
AcDbEntity
  8
0
100
AcDbPolyline
 62
253
  6
CONTINUOUS
 90
19
 70
0
 10
-57.5514209208
 20
203.7255580882
 10
-57.458890227
 20
203.7766528548
 10
-57.3665356706
 20
203.8229877668
 10
-57.2745330538
 20
203.8644746231
 10
-57.1830575089
 20
203.9010344513
 10
-57.0922831646
 20
203.9325976574
 10
-57.0023828151
 20
203.9591041592
 10
-56.9135275909
 20
203.9805035001
 10
-56.8258866328
 20
203.9967549452
 10
-56.7396267706
 20
204.0078275589
 10
-56.6549122046
 20
204.0137002639
 10
-56.5719041939
 20
204.0143618811
 10
-56.490760749
 20
204.0098111512
 10
-56.411636331
 20
204.0000567367
 10
-56.3346815578
 20
203.9851172057
 10
-56.260042917
 20
203.9650209964
 10
-56.1878624878
 20
203.9398063632
 10
-56.1182776694
 20
203.9095213034
 10
-56.0514209208
 20
203.8742234665
  0
LWPOLYLINE
  5
219
100
AcDbEntity
  8
0
100
AcDbPolyline
 62
253
  6
CONTINUOUS
 90
29
 70
0
 10
-63.961243776
 20
204.4204068926
 10
-63.7772560177
 20
204.5152208117
 10
-63.5885404477
 20
204.6013748633
 10
-63.3952403739
 20
204.6788036232
 10
-63.1975025858
 20
204.747448293
 10
-62.9954772426
 20
204.8072567451
 10
-62.7893177595
 20
204.8581835617
 10
-62.5791806911
 20
204.9001900696
 10
-62.3652256126
 20
204.9332443699
 10
-62.1476149985
 20
204.9573213613
 10
-61.9265140991
 20
204.9724027603
 10
-61.7020908155
 20
204.9784771143
 10
-61.4745155714
 20
204.9755398104
 10
-61.2439611844
 20
204.9635930792
 10
-61.0106027342
 20
204.9426459928
 10
-60.77461743
 20
204.9127144583
 10
-60.5361844756
 20
204.8738212052
 10
-60.2954849336
 20
204.8259957685
 10
-60.0527015881
 20
204.7692744661
 10
-59.8080188051
 20
204.7037003714
 10
-59.5616223934
 20
204.6293232805
 10
-59.3136994629
 20
204.5461996742
 10
-59.0644382829
 20
204.4543926755
 10
-58.8140281388
 20
204.3539720014
 10
-58.5626591884
 20
204.2450139098
 10
-58.310522318
 20
204.127601142
 10
-58.0578089966
 20
204.0018228596
 10
-57.8047111312
 20
203.8677745769
 10
-57.5514209208
 20
203.7255580882
  0
LINE
  5
21A
100
AcDbEntity
  8
ASSI
100
AcDbLine
 62
253
  6
CONTINUOUS
 10
-81.2394980905
 20
188.4162866666
 11
-75.8305070853
 21
191.5393702825
  0
LINE
  5
21B
100
AcDbEntity
  8
RACCORDO
100
AcDbLine
 62
253
  6
CONTINUOUS
 10
-51.8379981288
 20
201.4722689914
 11
-51.8646899398
 21
201.4568574742
  0
LINE
  5
21C
100
AcDbEntity
  8
0
100
AcDbLine
 62
7
  6
CONTINUOUS
 10
-62.0041487496
 20
182.2897150883
 11
-61.9829397796
 21
182.3000548101
  0
LWPOLYLINE
  5
21D
100
AcDbEntity
  8
0
100
AcDbPolyline
 62
7
  6
CONTINUOUS
 90
13
 70
0
 10
-61.7793939617
 20
181.900482859
 10
-61.797046039
 20
181.8886036414
 10
-61.8639893829
 20
181.8208656616
 10
-61.9095267622
 20
181.7327372091
 10
-61.9309327267
 20
181.6216221283
 10
-61.9309327267
 20
181.4901165748
 10
-61.9095267622
 20
181.3542824227
 10
-61.8639893829
 20
181.2135685461
 10
-61.797046039
 20
181.0685260708
 10
-61.7168730816
 20
180.9368702482
 10
-61.6261959608
 20
180.8245061624
 10
-61.5222892263
 20
180.7255287293
 10
-61.4051528782
 20
180.639937949
  0
LWPOLYLINE
  5
21E
100
AcDbEntity
  8
0
100
AcDbPolyline
 62
7
  6
CONTINUOUS
 90
13
 70
0
 10
-61.0309117948
 20
180.6040984542
 10
-61.0132597174
 20
180.6159776718
 10
-60.9463163736
 20
180.6837156517
 10
-60.9007789943
 20
180.7718441041
 10
-60.8793730298
 20
180.8829591849
 10
-60.8793730298
 20
181.0144647384
 10
-60.9007789943
 20
181.1502988905
 10
-60.9463163736
 20
181.2910127671
 10
-61.0132597174
 20
181.4360552425
 10
-61.0934326749
 20
181.567711065
 10
-61.1841097957
 20
181.6800751508
 10
-61.2880165302
 20
181.7790525839
 10
-61.4051528782
 20
181.8646433642
  0
LWPOLYLINE
  5
21F
100
AcDbEntity
  8
ASSI
100
AcDbPolyline
 62
7
  6
CONTINUOUS
 90
17
 70
0
 10
-60.1997946228
 20
180.3893888417
 10
-60.1750557605
 20
180.4047497758
 10
-60.1435934237
 20
180.4277626018
 10
-60.1138679358
 20
180.453639072
 10
-60.0861000881
 20
180.4821869841
 10
-60.0603044574
 20
180.5134262302
 10
-60.0364664669
 20
180.5473369183
 10
-60.0147631776
 20
180.5836671707
 10
-59.9952104847
 20
180.6224350038
 10
-59.9777924929
 20
180.6636224011
 10
-59.9626385776
 20
180.706923436
 10
-59.9497655974
 20
180.7523538467
 10
-59.9391566936
 20
180.7998978948
 10
-59.9308906657
 20
180.8492024385
 10
-59.9249937804
 20
180.9001497637
 10
-59.9214397711
 20
180.9528575844
 10
-59.9213561953
 20
180.9566162414
  0
LINE
  5
220
100
AcDbEntity
  8
0
100
AcDbLine
 62
7
  6
CONTINUOUS
 10
-60.8051238861
 20
180.2130769112
 11
-59.9658868122
 21
180.6976418796
  0
LINE
  5
221
100
AcDbEntity
  8
0
100
AcDbLine
 62
253
  6
CONTINUOUS
 10
-56.7322827635
 20
178.8877817937
 11
-56.8443141396
 21
178.8230962812
  0
LWPOLYLINE
  5
222
100
AcDbEntity
  8
0
100
AcDbPolyline
 62
7
  6
CONTINUOUS
 90
6
 70
0
 10
-60.8061570069
 20
180.2148662249
 10
-60.8616477075
 20
180.1878135953
 10
-60.9808888095
 20
180.1588250992
 10
-61.1096789197
 20
180.1641707062
 10
-61.2511002759
 20
180.2020711146
 10
-61.4051528782
 20
180.2725263245
  0
LWPOLYLINE
  5
223
100
AcDbEntity
  8
0
100
AcDbPolyline
 62
7
  6
CONTINUOUS
 90
52
 70
0
 10
-55.5235461369
 20
162.9821918894
 10
-55.5042467521
 20
162.9936905661
 10
-55.4541092175
 20
163.0270147819
 10
-55.4063361992
 20
163.0639410412
 10
-55.3609399599
 20
163.104488006
 10
-55.3179082369
 20
163.1486370144
 10
-55.2774636828
 20
163.1961593099
 10
-55.2396197111
 20
163.2470723678
 10
-55.2043629082
 20
163.3013587128
 10
-55.171875686
 20
163.3587371625
 10
-55.1421724008
 20
163.4192237349
 10
-55.1152386962
 20
163.482802412
 10
-55.0912139147
 20
163.5491439572
 10
-55.0701131329
 20
163.6182626832
 10
-55.0519212742
 20
163.6901442772
 10
-55.0367324515
 20
163.7644165647
 10
-55.0245622277
 20
163.8410919314
 10
-55.0153950398
 20
163.9201579915
 10
-55.0092783119
 20
164.0012054142
 10
-55.0062278519
 20
164.0842444658
 10
-55.0062278519
 20
164.16926488
 10
-55.0092783119
 20
164.2558265263
 10
-55.0153950398
 20
164.3439373931
 10
-55.0245622277
 20
164.4335894921
 10
-55.0367324515
 20
164.5243187281
 10
-55.0519212742
 20
164.6161306874
 10
-55.0701131329
 20
164.7090197838
 10
-55.0912139147
 20
164.8025051637
 10
-55.1152386962
 20
164.8965899243
 10
-55.1421724008
 20
164.9912709684
 10
-55.171875686
 20
165.08605815
 10
-55.2043629082
 20
165.1809520297
 10
-55.2396197111
 20
165.2759520469
 10
-55.2774636828
 20
165.3705663747
 10
-55.3179082369
 20
165.4647930275
 10
-55.3609399599
 20
165.5586339909
 10
-55.4063361992
 20
165.651603395
 10
-55.4541092175
 20
165.7436967384
 10
-55.5042467521
 20
165.8349185223
 10
-55.5564893626
 20
165.9247963806
 10
-55.6108479704
 20
166.0133233657
 10
-55.6673116541
 20
166.1005064252
 10
-55.7255882094
 20
166.1858940352
 10
-55.7856870467
 20
166.2694769094
 10
-55.8475987556
 20
166.3512643342
 10
-55.9110029009
 20
166.4308326458
 10
-55.9759072356
 20
166.5081703619
 10
-56.0423040066
 20
166.5832889649
 10
-56.1098495196
 20
166.6557992377
 10
-56.1784292099
 20
166.7255714411
 10
-56.2481576421
 20
166.7927353144
 10
-56.3190348164
 20
166.8572908573
  0
LWPOLYLINE
  5
224
100
AcDbEntity
  8
0
100
AcDbPolyline
 62
7
  6
CONTINUOUS
 90
52
 70
0
 10
-54.1093325745
 20
163.798741076
 10
-54.0900331897
 20
163.8102397528
 10
-54.0398956551
 20
163.8435639685
 10
-53.9921226368
 20
163.8804902279
 10
-53.9467263975
 20
163.9210371927
 10
-53.9036946746
 20
163.9651862011
 10
-53.8632501204
 20
164.0127084965
 10
-53.8254061487
 20
164.0636215544
 10
-53.7901493459
 20
164.1179078995
 10
-53.7576621236
 20
164.1752863491
 10
-53.7279588384
 20
164.2357729216
 10
-53.7010251338
 20
164.2993515987
 10
-53.6770003523
 20
164.3656931439
 10
-53.6558995705
 20
164.4348118698
 10
-53.6377077119
 20
164.5066934638
 10
-53.6225188892
 20
164.5809657514
 10
-53.6103486653
 20
164.657641118
 10
-53.6011814774
 20
164.7367071782
 10
-53.5950647495
 20
164.8177546009
 10
-53.5920142895
 20
164.9007936525
 10
-53.5920142895
 20
164.9858140667
 10
-53.5950647495
 20
165.072375713
 10
-53.6011814774
 20
165.1604865798
 10
-53.6103486653
 20
165.2501386787
 10
-53.6225188892
 20
165.3408679148
 10
-53.6377077119
 20
165.4326798741
 10
-53.6558995705
 20
165.5255689705
 10
-53.6770003523
 20
165.6190543503
 10
-53.7010251338
 20
165.713139111
 10
-53.7279588384
 20
165.807820155
 10
-53.7576621236
 20
165.9026073367
 10
-53.7901493459
 20
165.9975012163
 10
-53.8254061487
 20
166.0925012335
 10
-53.8632501204
 20
166.1871155613
 10
-53.9036946746
 20
166.2813422142
 10
-53.9467263975
 20
166.3751831776
 10
-53.9921226368
 20
166.4681525816
 10
-54.0398956551
 20
166.560245925
 10
-54.0900331897
 20
166.651467709
 10
-54.1422758002
 20
166.7413455673
 10
-54.196634408
 20
166.8298725524
 10
-54.2530980917
 20
166.9170556118
 10
-54.311374647
 20
167.0024432219
 10
-54.3714734843
 20
167.086026096
 10
-54.4333851933
 20
167.1678135208
 10
-54.4967893385
 20
167.2473818324
 10
-54.5616936732
 20
167.3247195486
 10
-54.6280904442
 20
167.3998381516
 10
-54.6956359572
 20
167.4723484243
 10
-54.7642156475
 20
167.5421206278
 10
-54.8339440798
 20
167.609284501
 10
-54.904821254
 20
167.673840044
  0
LINE
  5
225
100
AcDbEntity
  8
0
100
AcDbLine
 62
253
  6
CONTINUOUS
 10
-56.8443141396
 20
167.9495957138
 11
-55.4301005772
 21
168.7661449004
  0
LINE
  5
226
100
AcDbEntity
  8
0
100
AcDbLine
 62
253
  6
CONTINUOUS
 10
-56.3190348164
 20
166.8572908573
 11
-54.904821254
 21
167.673840044
  0
LINE
  5
227
100
AcDbEntity
  8
0
100
AcDbLine
 62
253
  6
CONTINUOUS
 10
-56.8443141396
 20
162.4264896038
 11
-56.0770792322
 21
162.8694814236
  0
LINE
  5
228
100
AcDbEntity
  8
ASSI
100
AcDbLine
 62
7
  6
CONTINUOUS
 10
-54.1093294987
 20
163.7987357499
 11
-55.5235430611
 21
162.9821865633
  0
LWPOLYLINE
  5
229
100
AcDbEntity
  8
0
100
AcDbPolyline
 62
7
  6
CONTINUOUS
 90
11
 70
0
 10
-56.6372278854
 20
162.8842201752
 10
-56.620020217
 20
162.8935022706
 10
-56.5911234888
 20
162.9063227485
 10
-56.5607899077
 20
162.9165383681
 10
-56.5292894886
 20
162.9240581949
 10
-56.4966118141
 20
162.9288581608
 10
-56.4627673017
 20
162.9309623339
 10
-56.4280572189
 20
162.9303519838
 10
-56.3925819884
 20
162.9270208672
 10
-56.3562411876
 20
162.9209752274
 10
-56.3190348164
 20
162.9122150645
  0
LWPOLYLINE
  5
22A
100
AcDbEntity
  8
0
100
AcDbPolyline
 62
7
  6
CONTINUOUS
 90
9
 70
0
 10
70.0106424053
 20
-175.2188206528
 10
69.9811695975
 20
-175.2158995954
 10
69.946307705
 20
-175.2100340292
 10
69.9108430844
 20
-175.2016785473
 10
69.8747806425
 20
-175.1908534199
 10
69.8384155638
 20
-175.1776472548
 10
69.8018462435
 20
-175.1620895879
 10
69.7649742865
 20
-175.1441508834
 10
69.7277996928
 20
-175.1238311412
  0
LWPOLYLINE
  5
22B
100
AcDbEntity
  8
ASSI
100
AcDbPolyline
 62
7
  6
CONTINUOUS
 90
12
 70
0
 10
61.8872689293
 20
-186.7509027785
 10
61.9001318615
 20
-186.7537483292
 10
61.9448241155
 20
-186.7607802158
 10
61.988644307
 20
-186.764742947
 10
62.0315988816
 20
-186.7656592071
 10
62.0733687865
 20
-186.7635221906
 10
62.1139452003
 20
-186.7583091623
 10
62.1533369444
 20
-186.7500428573
 10
62.1912514295
 20
-186.738784675
 10
62.2276776556
 20
-186.7245123377
 10
62.2626266227
 20
-186.7072481231
 10
62.2710998787
 20
-186.7024811984
  0
LWPOLYLINE
  5
22C
100
AcDbEntity
  8
ASSI
100
AcDbPolyline
 62
7
  6
CONTINUOUS
 90
12
 70
0
 10
22.996395964
 20
-164.2958001455
 10
23.0092588962
 20
-164.2986456962
 10
23.0539511502
 20
-164.3056775828
 10
23.0977713418
 20
-164.309640314
 10
23.1407259164
 20
-164.3105565741
 10
23.1824958212
 20
-164.3084195576
 10
23.2230722351
 20
-164.3032065293
 10
23.2624639792
 20
-164.2949402242
 10
23.3003784642
 20
-164.283682042
 10
23.3368046904
 20
-164.2694097046
 10
23.3717536575
 20
-164.2521454901
 10
23.3802269135
 20
-164.2473785654
  0
LWPOLYLINE
  5
22D
100
AcDbEntity
  8
0
100
AcDbPolyline
 62
7
  6
CONTINUOUS
 90
5
 70
0
 10
61.0657416233
 20
-186.4519320911
 10
61.1828779713
 20
-186.5016074295
 10
61.2867847058
 20
-186.5226188889
 10
61.3774618266
 20
-186.5149664692
 10
61.4399827067
 20
-186.4877715859
  0
LWPOLYLINE
  5
22E
100
AcDbEntity
  8
0
100
AcDbPolyline
 62
7
  6
CONTINUOUS
 90
5
 70
0
 10
61.0657416233
 20
-185.227226676
 10
60.9486052752
 20
-185.1775513376
 10
60.8446985407
 20
-185.1565398783
 10
60.7540214199
 20
-185.1641922979
 10
60.6915005398
 20
-185.1913871812
  0
LWPOLYLINE
  5
22F
100
AcDbEntity
  8
0
100
AcDbPolyline
 62
7
  6
CONTINUOUS
 90
4
 70
0
 10
70.0106424053
 20
-150.9840246336
 10
69.9831743228
 20
-150.9814453865
 10
69.946833522
 20
-150.9753997467
 10
69.9096271508
 20
-150.9666395837
  0
LWPOLYLINE
  5
230
100
AcDbEntity
  8
ASSI
100
AcDbPolyline
 62
7
  6
CONTINUOUS
 90
12
 70
0
 10
-8.8234091894
 20
-145.9234434458
 10
-8.8105462572
 20
-145.9262889965
 10
-8.7658540032
 20
-145.933320883
 10
-8.7220338116
 20
-145.9372836142
 10
-8.679079237
 20
-145.9381998744
 10
-8.6373093322
 20
-145.9360628578
 10
-8.5967329183
 20
-145.9308498295
 10
-8.5573411742
 20
-145.9225835245
 10
-8.5194266892
 20
-145.9113253422
 10
-8.483000463
 20
-145.8970530049
 10
-8.4480514959
 20
-145.8797887903
 10
-8.4395782399
 20
-145.8750218657
  0
LWPOLYLINE
  5
231
100
AcDbEntity
  8
ASSI
100
AcDbPolyline
 62
7
  6
CONTINUOUS
 90
12
 70
0
 10
-47.7142821547
 20
-123.4683408127
 10
-47.7014192224
 20
-123.4711863634
 10
-47.6567269685
 20
-123.47821825
 10
-47.6129067769
 20
-123.4821809812
 10
-47.5699522023
 20
-123.4830972413
 10
-47.5281822975
 20
-123.4809602248
 10
-47.4876058836
 20
-123.4757471965
 10
-47.4482141395
 20
-123.4674808915
 10
-47.4102996544
 20
-123.4562227092
 10
-47.3738734283
 20
-123.4419503719
 10
-47.3389244612
 20
-123.4246861573
 10
-47.3304512052
 20
-123.4199192326
  0
LWPOLYLINE
  5
232
100
AcDbEntity
  8
0
100
AcDbPolyline
 62
7
  6
CONTINUOUS
 90
5
 70
0
 10
22.174868658
 20
-163.9968294581
 10
22.2920050061
 20
-164.0465047965
 10
22.3959117405
 20
-164.0675162558
 10
22.4865888613
 20
-164.0598638362
 10
22.5491097415
 20
-164.0326689529
  0
LWPOLYLINE
  5
233
100
AcDbEntity
  8
0
100
AcDbPolyline
 62
7
  6
CONTINUOUS
 90
5
 70
0
 10
22.174868658
 20
-162.7721240429
 10
22.0577323099
 20
-162.7224487046
 10
21.9538255755
 20
-162.7014372452
 10
21.8631484547
 20
-162.7090896649
 10
21.8006275745
 20
-162.7362845481
  0
LWPOLYLINE
  5
234
100
AcDbEntity
  8
0
100
AcDbPolyline
 62
7
  6
CONTINUOUS
 90
5
 70
0
 10
-9.6449364954
 20
-145.6244727584
 10
-9.5278001473
 20
-145.6741480967
 10
-9.4238934129
 20
-145.6951595561
 10
-9.3332162921
 20
-145.6875071364
 10
-9.2706954119
 20
-145.6603122532
  0
LWPOLYLINE
  5
235
100
AcDbEntity
  8
0
100
AcDbPolyline
 62
7
  6
CONTINUOUS
 90
5
 70
0
 10
-9.6449364954
 20
-144.3997673432
 10
-9.7620728435
 20
-144.3500920048
 10
-9.8659795779
 20
-144.3290805455
 10
-9.9566566987
 20
-144.3367329652
 10
-10.0191775789
 20
-144.3639278484
  0
LWPOLYLINE
  5
236
100
AcDbEntity
  8
0
100
AcDbPolyline
 62
7
  6
CONTINUOUS
 90
5
 70
0
 10
-48.5358094606
 20
-123.1693701254
 10
-48.4186731126
 20
-123.2190454637
 10
-48.3147663781
 20
-123.2400569231
 10
-48.2240892573
 20
-123.2324045034
 10
-48.1615683772
 20
-123.2052096201
  0
LWPOLYLINE
  5
237
100
AcDbEntity
  8
0
100
AcDbPolyline
 62
7
  6
CONTINUOUS
 90
5
 70
0
 10
-48.5358094606
 20
-121.9446647102
 10
-48.6529458087
 20
-121.8949893718
 10
-48.7568525432
 20
-121.8739779125
 10
-48.847529664
 20
-121.8816303321
 10
-48.9100505441
 20
-121.9088252154
  0
LWPOLYLINE
  5
238
100
AcDbEntity
  8
0
100
AcDbPolyline
 62
7
  6
CONTINUOUS
 90
24
 70
0
 10
72.4602761132
 20
-205.0103664751
 10
72.5044432059
 20
-205.0349857597
 10
72.5946559273
 20
-205.0800448338
 10
72.6877591083
 20
-205.1197283151
 10
72.783742231
 20
-205.1540557641
 10
72.8822551847
 20
-205.1829019669
 10
72.9833072085
 20
-205.2062469058
 10
73.0868890632
 20
-205.2241105986
 10
73.1926229206
 20
-205.2364278851
 10
73.3005166401
 20
-205.2431785095
 10
73.4105623623
 20
-205.2443827277
 10
73.5223586812
 20
-205.2400361471
 10
73.6359119902
 20
-205.2301184959
 10
73.7512158959
 20
-205.2146500458
 10
73.8678498125
 20
-205.1936872202
 10
73.9858185972
 20
-205.1672099531
 10
74.1051173927
 20
-205.1352383104
 10
74.2253110413
 20
-205.0978889127
 10
74.346402811
 20
-205.0551421203
 10
74.4683894337
 20
-205.0070175729
 10
74.5908259476
 20
-204.9536908112
 10
74.7135640318
 20
-204.8952203485
 10
74.8367520072
 20
-204.8315476715
 10
74.9603898736
 20
-204.7626727801
  0
LWPOLYLINE
  5
239
100
AcDbEntity
  8
0
100
AcDbPolyline
 62
7
  6
CONTINUOUS
 90
24
 70
0
 10
-74.6179343736
 20
-120.089251063
 10
-74.5737672809
 20
-120.1138703475
 10
-74.4835545595
 20
-120.1589294217
 10
-74.3904513785
 20
-120.1986129029
 10
-74.2944682558
 20
-120.2329403519
 10
-74.1959553021
 20
-120.2617865548
 10
-74.0949032783
 20
-120.2851314936
 10
-73.9913214236
 20
-120.3029951864
 10
-73.8855875662
 20
-120.3153124729
 10
-73.7776938467
 20
-120.3220630974
 10
-73.6676481245
 20
-120.3232673155
 10
-73.5558518056
 20
-120.318920735
 10
-73.4422984966
 20
-120.3090030837
 10
-73.3269945909
 20
-120.2935346336
 10
-73.2103606743
 20
-120.272571808
 10
-73.0923918897
 20
-120.2460945409
 10
-72.9730930941
 20
-120.2141228982
 10
-72.8528994455
 20
-120.1767735006
 10
-72.7318076758
 20
-120.1340267081
 10
-72.6098210531
 20
-120.0859021608
 10
-72.4873845392
 20
-120.032575399
 10
-72.364646455
 20
-119.9741049364
 10
-72.2414584796
 20
-119.9104322593
 10
-72.1178206132
 20
-119.8415573679
  0
LINE
  5
23A
100
AcDbEntity
  8
0
100
AcDbLine
 62
7
  6
CONTINUOUS
 10
-74.6179414139
 20
-120.0892632563
 11
-76.0321549763
 21
-119.2727140696
  0
LINE
  5
23B
100
AcDbEntity
  8
0
100
AcDbLine
 62
7
  6
CONTINUOUS
 10
71.0460555105
 20
-204.1938294818
 11
72.4602690729
 21
-205.0103786684
  0
LINE
  5
23C
100
AcDbEntity
  8
0
100
AcDbLine
 62
253
  6
CONTINUOUS
 10
-75.6533545191
 20
-117.8005789506
 11
-77.0675680815
 21
-116.9840297639
  0
LINE
  5
23D
100
AcDbEntity
  8
0
100
AcDbLine
 62
253
  6
CONTINUOUS
 10
70.0106424053
 20
-201.9051451761
 11
71.4248559677
 21
-202.7216943627
  0
LINE
  5
23E
100
AcDbEntity
  8
0
100
AcDbLine
 62
7
  6
CONTINUOUS
 10
-65.3295955138
 20
-116.7386704586
 11
70.0106424053
 21
-194.8824276215
  0
LWPOLYLINE
  5
23F
100
AcDbEntity
  8
0
100
AcDbPolyline
 62
7
  6
CONTINUOUS
 90
24
 70
0
 10
-76.032147936
 20
-119.2727018763
 10
-76.0753136229
 20
-119.2469060544
 10
-76.1594479031
 20
-119.1913188112
 10
-76.2403720027
 20
-119.1305405424
 10
-76.318097603
 20
-119.0645901369
 10
-76.3923411897
 20
-118.9937081573
 10
-76.4630900462
 20
-118.9178765932
 10
-76.5303568892
 20
-118.8371134551
 10
-76.5938963541
 20
-118.751713337
 10
-76.6536948282
 20
-118.6616593041
 10
-76.7097659243
 20
-118.5669682913
 10
-76.7619051157
 20
-118.4679856961
 10
-76.8100980429
 20
-118.3646958453
 10
-76.8543590654
 20
-118.2571144123
 10
-76.8945267354
 20
-118.145633814
 10
-76.9305861038
 20
-118.0302398106
 10
-76.9625521197
 20
-117.910946642
 10
-76.990308183
 20
-117.7881894455
 10
-77.0138389186
 20
-117.6619555703
 10
-77.0331597016
 20
-117.5322576671
 10
-77.0482000569
 20
-117.3995688259
 10
-77.0589364928
 20
-117.2640467433
 10
-77.065392501
 20
-117.1255337226
 10
-77.0675680815
 20
-116.9840297639
  0
LWPOLYLINE
  5
240
100
AcDbEntity
  8
0
100
AcDbPolyline
 62
7
  6
CONTINUOUS
 90
24
 70
0
 10
71.0460625508
 20
-204.1938172885
 10
71.0028968639
 20
-204.1680214665
 10
70.9187625837
 20
-204.1124342234
 10
70.8378384841
 20
-204.0516559545
 10
70.7601128838
 20
-203.985705549
 10
70.6858692971
 20
-203.9148235695
 10
70.6151204406
 20
-203.8389920054
 10
70.5478535976
 20
-203.7582288673
 10
70.4843141327
 20
-203.6728287491
 10
70.4245156586
 20
-203.5827747163
 10
70.3684445625
 20
-203.4880837034
 10
70.3163053711
 20
-203.3891011082
 10
70.2681124439
 20
-203.2858112575
 10
70.2238514214
 20
-203.1782298244
 10
70.1836837514
 20
-203.0667492262
 10
70.147624383
 20
-202.9513552228
 10
70.1156583671
 20
-202.8320620542
 10
70.0879023038
 20
-202.7093048577
 10
70.0643715682
 20
-202.5830709824
 10
70.0450507852
 20
-202.4533730793
 10
70.0300104299
 20
-202.3206842381
 10
70.019273994
 20
-202.1851621554
 10
70.0128179858
 20
-202.0466491348
 10
70.0106424053
 20
-201.9051451761
  0
LWPOLYLINE
  5
241
100
AcDbEntity
  8
0
100
AcDbPolyline
 62
7
  6
CONTINUOUS
 90
52
 70
0
 10
-1.5965396473
 20
134.731925962
 10
-1.6158390322
 20
134.7204272853
 10
-1.6659765668
 20
134.6871030695
 10
-1.713749585
 20
134.6501768101
 10
-1.7591458243
 20
134.6096298453
 10
-1.8021775473
 20
134.565480837
 10
-1.8426221015
 20
134.5179585415
 10
-1.8804660732
 20
134.4670454836
 10
-1.915722876
 20
134.4127591386
 10
-1.9482100983
 20
134.3553806889
 10
-1.9779133835
 20
134.2948941164
 10
-2.0048470881
 20
134.2313154393
 10
-2.0288718696
 20
134.1649738941
 10
-2.0499726513
 20
134.0958551682
 10
-2.06816451
 20
134.0239735742
 10
-2.0833533327
 20
133.9497012866
 10
-2.0955235566
 20
133.87302592
 10
-2.1046907444
 20
133.7939598598
 10
-2.1108074724
 20
133.7129124372
 10
-2.1138579323
 20
133.6298733855
 10
-2.1138579323
 20
133.5448529714
 10
-2.1108074724
 20
133.458291325
 10
-2.1046907444
 20
133.3701804583
 10
-2.0955235566
 20
133.2805283593
 10
-2.0833533327
 20
133.1897991233
 10
-2.06816451
 20
133.0979871639
 10
-2.0499726513
 20
133.0050980675
 10
-2.0288718696
 20
132.9116126877
 10
-2.0048470881
 20
132.8175279271
 10
-1.9779133835
 20
132.722846883
 10
-1.9482100983
 20
132.6280597013
 10
-1.915722876
 20
132.5331658217
 10
-1.8804660732
 20
132.4381658045
 10
-1.8426221015
 20
132.3435514767
 10
-1.8021775473
 20
132.2493248239
 10
-1.7591458243
 20
132.1554838604
 10
-1.713749585
 20
132.0625144564
 10
-1.6659765668
 20
131.970421113
 10
-1.6158390322
 20
131.879199329
 10
-1.5635964217
 20
131.7893214707
 10
-1.5092378139
 20
131.7007944856
 10
-1.4527741302
 20
131.6136114262
 10
-1.3944975748
 20
131.5282238161
 10
-1.3343987376
 20
131.444640942
 10
-1.2724870286
 20
131.3628535172
 10
-1.2090828833
 20
131.2832852056
 10
-1.1441785487
 20
131.2059474894
 10
-1.0777817777
 20
131.1308288864
 10
-1.0102362646
 20
131.0583186137
 10
-0.9416565744
 20
130.9885464102
 10
-0.8719281421
 20
130.921382537
 10
-0.8010509678
 20
130.8568269941
  0
LINE
  5
242
100
AcDbEntity
  8
ASSI
100
AcDbLine
 62
7
  6
CONTINUOUS
 10
-0.2757716447
 20
135.4945279556
 11
-1.5965427231
 21
134.7319312881
  0
LINE
  5
243
100
AcDbEntity
  8
0
100
AcDbLine
 62
253
  6
CONTINUOUS
 10
-0.8010509678
 20
134.8019027869
 11
-0.2998106733
 21
135.0913126509
  0
LWPOLYLINE
  5
244
100
AcDbEntity
  8
0
100
AcDbPolyline
 62
7
  6
CONTINUOUS
 90
11
 70
0
 10
-0.4828578989
 20
134.8298976761
 10
-0.5000655673
 20
134.8206155808
 10
-0.5289622955
 20
134.8077951029
 10
-0.5592958766
 20
134.7975794833
 10
-0.5907962956
 20
134.7900596565
 10
-0.6234739701
 20
134.7852596906
 10
-0.6573184826
 20
134.7831555175
 10
-0.6920285654
 20
134.7837658675
 10
-0.7275037959
 20
134.7870969842
 10
-0.7638445967
 20
134.793142624
 10
-0.8010509678
 20
134.8019027869
  0
LWPOLYLINE
  5
245
100
AcDbEntity
  8
0
100
AcDbPolyline
 62
7
  6
CONTINUOUS
 90
14
 70
0
 10
69.9096271508
 20
-150.9666395837
 10
69.8387499765
 20
-150.9493479424
 10
69.7690215443
 20
-150.9359911699
 10
69.700441854
 20
-150.926569266
 10
69.632896341
 20
-150.9210796734
 10
69.56649957
 20
-150.9195249495
 10
69.5015952353
 20
-150.9219127669
 10
69.43819109
 20
-150.9282635608
 10
69.3762793811
 20
-150.938556896
 10
69.3161805438
 20
-150.9527391393
 10
69.2579039885
 20
-150.970830444
 10
69.2014403048
 20
-150.9928106568
 10
69.147081697
 20
-151.0185656842
 10
69.1141384713
 20
-151.0366164086
  0
LWPOLYLINE
  5
246
100
AcDbEntity
  8
0
100
AcDbPolyline
 62
7
  6
CONTINUOUS
 90
5
 70
0
 10
-61.4051528782
 20
-101.0423075445
 10
-61.2880165302
 20
-101.0919828829
 10
-61.1841097957
 20
-101.1129943422
 10
-61.0934326749
 20
-101.1053419225
 10
-61.0309117948
 20
-101.0781470393
  0
LWPOLYLINE
  5
247
100
AcDbEntity
  8
0
100
AcDbPolyline
 62
7
  6
CONTINUOUS
 90
12
 70
0
 10
63.0809959497
 20
-169.6529515906
 10
63.1175670064
 20
-169.6729602084
 10
63.1538497611
 20
-169.6906655865
 10
63.1898442135
 20
-169.7060677247
 10
63.2256441737
 20
-169.7191952171
 10
63.2611558316
 20
-169.7300194698
 10
63.2960977578
 20
-169.7384547005
 10
63.330465425
 20
-169.7444819261
 10
63.3642633605
 20
-169.7481201298
 10
63.3972237157
 20
-169.7493404788
 10
63.4293398353
 20
-169.7481237609
 10
63.444852904
 20
-169.7463211392
  0
LWPOLYLINE
  5
248
100
AcDbEntity
  8
0
100
AcDbPolyline
 62
7
  6
CONTINUOUS
 90
12
 70
0
 10
20.6545890785
 20
-145.1564759909
 10
20.6911601353
 20
-145.1764846088
 10
20.7274428899
 20
-145.1941899868
 10
20.7634373423
 20
-145.209592125
 10
20.7992373025
 20
-145.2227196175
 10
20.8347489604
 20
-145.2335438701
 10
20.8696908866
 20
-145.2419791008
 10
20.9040585538
 20
-145.2480063264
 10
20.9378564893
 20
-145.2516445301
 10
20.9708168445
 20
-145.2528648792
 10
21.0029329641
 20
-145.2516481613
 10
21.0184460328
 20
-145.2498455395
  0
LWPOLYLINE
  5
249
100
AcDbEntity
  8
0
100
AcDbPolyline
 62
7
  6
CONTINUOUS
 90
12
 70
0
 10
-7.629682169
 20
-128.8254922578
 10
-7.5931111122
 20
-128.8455008756
 10
-7.5568283576
 20
-128.8632062537
 10
-7.5208339051
 20
-128.8786083919
 10
-7.485033945
 20
-128.8917358844
 10
-7.449522287
 20
-128.902560137
 10
-7.4145803609
 20
-128.9109953677
 10
-7.3802126936
 20
-128.9170225933
 10
-7.3464147582
 20
-128.920660797
 10
-7.313454403
 20
-128.921881146
 10
-7.2813382834
 20
-128.9206644281
 10
-7.2658252146
 20
-128.9188618064
  0
LINE
  5
24A
100
AcDbEntity
  8
0
100
AcDbLine
 62
7
  6
CONTINUOUS
 10
69.7277996928
 20
-175.1238311412
 11
65.060894937
 21
-172.4292188252
  0
LINE
  5
24B
100
AcDbEntity
  8
0
100
AcDbLine
 62
7
  6
CONTINUOUS
 10
61.6667823873
 20
-170.4695007772
 11
22.6344880658
 21
-147.9327432255
  0
LINE
  5
24C
100
AcDbEntity
  8
0
100
AcDbLine
 62
7
  6
CONTINUOUS
 10
19.2403755161
 20
-145.9730251776
 11
14.5734707603
 21
-143.2784128616
  0
LINE
  5
24D
100
AcDbEntity
  8
0
100
AcDbLine
 62
7
  6
CONTINUOUS
 10
-0.9828784258
 20
-134.2963718084
 11
-5.6497831817
 21
-131.6017594924
  0
LINE
  5
24E
100
AcDbEntity
  8
0
100
AcDbLine
 62
7
  6
CONTINUOUS
 10
-9.0438957314
 20
-129.6420414445
 11
-48.0761900529
 21
-107.1052838928
  0
LINE
  5
24F
100
AcDbEntity
  8
0
100
AcDbLine
 62
7
  6
CONTINUOUS
 10
-51.4703026026
 20
-105.1455658448
 11
-56.1372073584
 21
-102.4509535288
  0
LWPOLYLINE
  5
250
100
AcDbEntity
  8
0
100
AcDbPolyline
 62
7
  6
CONTINUOUS
 90
18
 70
0
 10
-48.0761900529
 20
-107.1052838928
 10
-48.1127611097
 20
-107.0830611709
 10
-48.1490438643
 20
-107.0588681334
 10
-48.1850383167
 20
-107.0327047801
 10
-48.2208382769
 20
-107.004491376
 10
-48.2563499348
 20
-106.9743076561
 10
-48.291291861
 20
-106.9423928264
 10
-48.3256595282
 20
-106.9087331313
 10
-48.3594574637
 20
-106.8733423263
 10
-48.3924178189
 20
-106.8365008833
 10
-48.4245339385
 20
-106.7981972756
 10
-48.4558124778
 20
-106.7584430298
 10
-48.4860055548
 20
-106.717553198
 10
-48.5151045442
 20
-106.6755187571
 10
-48.5431180712
 20
-106.6323487302
 10
-48.5698241288
 20
-106.5883852396
 10
-48.5951487146
 20
-106.5437423259
 10
-48.6191658309
 20
-106.4983059485
  0
LWPOLYLINE
  5
251
100
AcDbEntity
  8
0
100
AcDbPolyline
 62
7
  6
CONTINUOUS
 90
31
 70
0
 10
-56.1372073584
 20
-102.4509535288
 10
-56.1743819521
 20
-102.4283449821
 10
-56.2112539091
 20
-102.4037048749
 10
-56.2478232294
 20
-102.3770332073
 10
-56.2841883081
 20
-102.3482458911
 10
-56.32025075
 20
-102.3174270144
 10
-56.3557153706
 20
-102.2848288414
 10
-56.390577263
 20
-102.2504367681
 10
-56.4248413341
 20
-102.2142653984
 10
-56.4582271194
 20
-102.1766108088
 10
-56.4907274101
 20
-102.1374608253
 10
-56.5223494151
 20
-102.0968276218
 10
-56.5528342962
 20
-102.0550437965
 10
-56.5821727202
 20
-102.0120999054
 10
-56.6103740204
 20
-101.9680053924
 10
-56.6372073584
 20
-101.9231211879
 10
-56.6626615063
 20
-101.8774408102
 10
-56.6867476921
 20
-101.830970741
 10
-56.7092687612
 20
-101.7840913553
 10
-56.7302118675
 20
-101.7367992936
 10
-56.749589857
 20
-101.6890979155
 10
-56.7672441137
 20
-101.6413776747
 10
-56.7831604895
 20
-101.5936384165
 10
-56.7973531325
 20
-101.5458802957
 10
-56.8097058704
 20
-101.4984942305
 10
-56.8202036017
 20
-101.4514832748
 10
-56.828861428
 20
-101.4048443748
 10
-56.8356084817
 20
-101.3589592874
 10
-56.8404211403
 20
-101.3139552651
 10
-56.8433230262
 20
-101.2697050556
 10
-56.8443141396
 20
-101.2262086587
  0
LWPOLYLINE
  5
252
100
AcDbEntity
  8
0
100
AcDbPolyline
 62
7
  6
CONTINUOUS
 90
15
 70
0
 10
-48.5358094606
 20
-123.5367817499
 10
-48.6898620629
 20
-123.4293408761
 10
-48.8312834192
 20
-123.3039314472
 10
-48.9600735294
 20
-123.1605534631
 10
-49.0793146314
 20
-122.9938683312
 10
-49.1859244874
 20
-122.8092146442
 10
-49.2706563835
 20
-122.6226081804
 10
-49.331556259
 20
-122.4338745246
 10
-49.3705781746
 20
-122.243188092
 10
-49.3843375981
 20
-122.0670879058
 10
-49.3705781746
 20
-121.9068767568
 10
-49.331556259
 20
-121.7612518542
 10
-49.2706563835
 20
-121.6428438482
 10
-49.1859244874
 20
-121.554083654
 10
-49.134805332
 20
-121.5195929861
  0
LWPOLYLINE
  5
253
100
AcDbEntity
  8
0
100
AcDbPolyline
 62
7
  6
CONTINUOUS
 90
15
 70
0
 10
-48.5358094606
 20
-121.5772530856
 10
-48.3817568583
 20
-121.6846939594
 10
-48.2403355021
 20
-121.8101033884
 10
-48.1115453919
 20
-121.9534813724
 10
-47.9923042899
 20
-122.1201665043
 10
-47.8856944339
 20
-122.3048201913
 10
-47.8009625378
 20
-122.4914266551
 10
-47.7400626623
 20
-122.6801603109
 10
-47.7010407467
 20
-122.8708467435
 10
-47.6872813232
 20
-123.0469469298
 10
-47.7010407467
 20
-123.2071580787
 10
-47.7400626623
 20
-123.3527829813
 10
-47.8009625378
 20
-123.4711909873
 10
-47.8856944339
 20
-123.5599511815
 10
-47.9368135893
 20
-123.5944418494
  0
LWPOLYLINE
  5
254
100
AcDbEntity
  8
0
100
AcDbPolyline
 62
7
  6
CONTINUOUS
 90
15
 70
0
 10
-9.6449364954
 20
-145.9918843829
 10
-9.7989890977
 20
-145.8844435091
 10
-9.9404104539
 20
-145.7590340802
 10
-10.0692005641
 20
-145.6156560962
 10
-10.1884416662
 20
-145.4489709643
 10
-10.2950515222
 20
-145.2643172773
 10
-10.3797834182
 20
-145.0777108134
 10
-10.4406832938
 20
-144.8889771577
 10
-10.4797052093
 20
-144.6982907251
 10
-10.4934646328
 20
-144.5221905388
 10
-10.4797052093
 20
-144.3619793898
 10
-10.4406832938
 20
-144.2163544872
 10
-10.3797834182
 20
-144.0979464813
 10
-10.2950515222
 20
-144.0091862871
 10
-10.2439323667
 20
-143.9746956191
  0
LWPOLYLINE
  5
255
100
AcDbEntity
  8
0
100
AcDbPolyline
 62
7
  6
CONTINUOUS
 90
15
 70
0
 10
-9.6449364954
 20
-144.0323557186
 10
-9.4908838931
 20
-144.1397965925
 10
-9.3494625368
 20
-144.2652060214
 10
-9.2206724267
 20
-144.4085840054
 10
-9.1014313246
 20
-144.5752691373
 10
-8.9948214686
 20
-144.7599228243
 10
-8.9100895725
 20
-144.9465292882
 10
-8.849189697
 20
-145.1352629439
 10
-8.8101677814
 20
-145.3259493765
 10
-8.796408358
 20
-145.5020495628
 10
-8.8101677814
 20
-145.6622607117
 10
-8.849189697
 20
-145.8078856143
 10
-8.9100895725
 20
-145.9262936203
 10
-8.9948214686
 20
-146.0150538145
 10
-9.0459406241
 20
-146.0495444824
  0
LWPOLYLINE
  5
256
100
AcDbEntity
  8
0
100
AcDbPolyline
 62
7
  6
CONTINUOUS
 90
15
 70
0
 10
22.174868658
 20
-164.3642410827
 10
22.0208160557
 20
-164.2568002089
 10
21.8793946995
 20
-164.1313907799
 10
21.7506045893
 20
-163.9880127959
 10
21.6313634872
 20
-163.821327664
 10
21.5247536312
 20
-163.636673977
 10
21.4400217352
 20
-163.4500675132
 10
21.3791218596
 20
-163.2613338574
 10
21.340099944
 20
-163.0706474248
 10
21.3263405206
 20
-162.8945472385
 10
21.340099944
 20
-162.7343360896
 10
21.3791218596
 20
-162.588711187
 10
21.4400217352
 20
-162.470303181
 10
21.5247536312
 20
-162.3815429868
 10
21.5758727867
 20
-162.3470523189
  0
LWPOLYLINE
  5
257
100
AcDbEntity
  8
0
100
AcDbPolyline
 62
7
  6
CONTINUOUS
 90
15
 70
0
 10
22.174868658
 20
-162.4047124184
 10
22.3289212603
 20
-162.5121532922
 10
22.4703426166
 20
-162.6375627211
 10
22.5991327267
 20
-162.7809407052
 10
22.7183738288
 20
-162.947625837
 10
22.8249836848
 20
-163.132279524
 10
22.9097155808
 20
-163.3188859879
 10
22.9706154564
 20
-163.5076196436
 10
23.009637372
 20
-163.6983060763
 10
23.0233967954
 20
-163.8744062625
 10
23.009637372
 20
-164.0346174115
 10
22.9706154564
 20
-164.1802423141
 10
22.9097155808
 20
-164.2986503201
 10
22.8249836848
 20
-164.3874105142
 10
22.7738645293
 20
-164.4219011822
  0
LWPOLYLINE
  5
258
100
AcDbEntity
  8
0
100
AcDbPolyline
 62
7
  6
CONTINUOUS
 90
15
 70
0
 10
-61.4051528782
 20
-101.4097191691
 10
-61.5592054805
 20
-101.3022782953
 10
-61.7006268368
 20
-101.1768688663
 10
-61.829416947
 20
-101.0334908823
 10
-61.948658049
 20
-100.8668057504
 10
-62.055267905
 20
-100.6821520634
 10
-62.1399998011
 20
-100.4955455995
 10
-62.2008996766
 20
-100.3068119438
 10
-62.2399215922
 20
-100.1161255112
 10
-62.2536810157
 20
-99.9400253249
 10
-62.2399215922
 20
-99.779814176
 10
-62.2008996766
 20
-99.6341892734
 10
-62.1399998011
 20
-99.5157812674
 10
-62.055267905
 20
-99.4270210732
 10
-62.0041487496
 20
-99.3925304053
  0
LWPOLYLINE
  5
259
100
AcDbEntity
  8
0
100
AcDbPolyline
 62
7
  6
CONTINUOUS
 90
15
 70
0
 10
61.0657416233
 20
-186.8193437157
 10
60.911689021
 20
-186.7119028419
 10
60.7702676647
 20
-186.586493413
 10
60.6414775546
 20
-186.4431154289
 10
60.5222364525
 20
-186.276430297
 10
60.4156265965
 20
-186.09177661
 10
60.3308947004
 20
-185.9051701462
 10
60.2699948249
 20
-185.7164364904
 10
60.2309729093
 20
-185.5257500578
 10
60.2172134858
 20
-185.3496498716
 10
60.2309729093
 20
-185.1894387226
 10
60.2699948249
 20
-185.04381382
 10
60.3308947004
 20
-184.925405814
 10
60.4156265965
 20
-184.8366456198
 10
60.466745752
 20
-184.8021549519
  0
LWPOLYLINE
  5
25A
100
AcDbEntity
  8
0
100
AcDbPolyline
 62
7
  6
CONTINUOUS
 90
15
 70
0
 10
-61.4051528782
 20
-99.4501905048
 10
-61.2511002759
 20
-99.5576313786
 10
-61.1096789197
 20
-99.6830408075
 10
-60.9808888095
 20
-99.8264187916
 10
-60.8616477075
 20
-99.9931039234
 10
-60.7550378515
 20
-100.1777576104
 10
-60.6703059554
 20
-100.3643640743
 10
-60.6094060799
 20
-100.55309773
 10
-60.5703841643
 20
-100.7437841626
 10
-60.5566247408
 20
-100.9198843489
 10
-60.5703841643
 20
-101.0800954979
 10
-60.6094060799
 20
-101.2257204005
 10
-60.6703059554
 20
-101.3441284064
 10
-60.7550378515
 20
-101.4328886006
 10
-60.8061570069
 20
-101.4673792686
  0
LWPOLYLINE
  5
25B
100
AcDbEntity
  8
0
100
AcDbPolyline
 62
7
  6
CONTINUOUS
 90
15
 70
0
 10
61.0657416233
 20
-184.8598150514
 10
61.2197942256
 20
-184.9672559252
 10
61.3612155818
 20
-185.0926653542
 10
61.490005692
 20
-185.2360433382
 10
61.609246794
 20
-185.4027284701
 10
61.7158566501
 20
-185.5873821571
 10
61.8005885461
 20
-185.7739886209
 10
61.8614884216
 20
-185.9627222767
 10
61.9005103372
 20
-186.1534087093
 10
61.9142697607
 20
-186.3295088955
 10
61.9005103372
 20
-186.4897200445
 10
61.8614884216
 20
-186.6353449471
 10
61.8005885461
 20
-186.7537529531
 10
61.7158566501
 20
-186.8425131473
 10
61.6647374946
 20
-186.8770038152
  0
LWPOLYLINE
  5
25C
100
AcDbEntity
  8
0
100
AcDbPolyline
 62
7
  6
CONTINUOUS
 90
13
 70
0
 10
-61.7793939617
 20
88.0064010278
 10
-61.797046039
 20
87.9945218102
 10
-61.8639893829
 20
87.9267838304
 10
-61.9095267622
 20
87.8386553779
 10
-61.9309327267
 20
87.7275402971
 10
-61.9309327267
 20
87.5960347437
 10
-61.9095267622
 20
87.4602005915
 10
-61.8639893829
 20
87.3194867149
 10
-61.797046039
 20
87.1744442396
 10
-61.7168730816
 20
87.0427884171
 10
-61.6261959608
 20
86.9304243312
 10
-61.5222892263
 20
86.8314468981
 10
-61.4051528782
 20
86.7458561178
  0
LWPOLYLINE
  5
25D
100
AcDbEntity
  8
0
100
AcDbPolyline
 62
7
  6
CONTINUOUS
 90
13
 70
0
 10
-61.0309117948
 20
86.710016623
 10
-61.0132597174
 20
86.7218958406
 10
-60.9463163736
 20
86.7896338205
 10
-60.9007789943
 20
86.8777622729
 10
-60.8793730298
 20
86.9888773538
 10
-60.8793730298
 20
87.1203829072
 10
-60.9007789943
 20
87.2562170593
 10
-60.9463163736
 20
87.396930936
 10
-61.0132597174
 20
87.5419734113
 10
-61.0934326749
 20
87.6736292338
 10
-61.1841097957
 20
87.7859933197
 10
-61.2880165302
 20
87.8849707528
 10
-61.4051528782
 20
87.970561533
  0
LWPOLYLINE
  5
25E
100
AcDbEntity
  8
ASSI
100
AcDbPolyline
 62
7
  6
CONTINUOUS
 90
11
 70
0
 10
-61.5498509619
 20
88.8335225303
 10
-61.5745898242
 20
88.8181615962
 10
-61.606052161
 20
88.7951487702
 10
-61.6357776489
 20
88.7692723001
 10
-61.6635454966
 20
88.7407243879
 10
-61.6893411273
 20
88.7094851418
 10
-61.7131791178
 20
88.6755744537
 10
-61.7348824071
 20
88.6392442013
 10
-61.7544351
 20
88.6004763682
 10
-61.7718530918
 20
88.5592889709
 10
-61.7837587725
 20
88.5252694925
  0
LWPOLYLINE
  5
25F
100
AcDbEntity
  8
ASSI
100
AcDbPolyline
 62
7
  6
CONTINUOUS
 90
17
 70
0
 10
-60.1997946228
 20
86.4953070106
 10
-60.1750557605
 20
86.5106679447
 10
-60.1435934237
 20
86.5336807706
 10
-60.1138679358
 20
86.5595572408
 10
-60.0861000881
 20
86.588105153
 10
-60.0603044574
 20
86.619344399
 10
-60.0364664669
 20
86.6532550872
 10
-60.0147631776
 20
86.6895853396
 10
-59.9952104847
 20
86.7283531726
 10
-59.9777924929
 20
86.76954057
 10
-59.9626385776
 20
86.8128416048
 10
-59.9497655974
 20
86.8582720155
 10
-59.9391566936
 20
86.9058160637
 10
-59.9308906657
 20
86.9551206073
 10
-59.9249937804
 20
87.0060679325
 10
-59.9214397711
 20
87.0587757532
 10
-59.9202286377
 20
87.1132440694
  0
LINE
  5
260
100
AcDbEntity
  8
0
100
AcDbLine
 62
7
  6
CONTINUOUS
 10
-62.0051818704
 20
88.3974225708
 11
-61.1660200125
 21
88.8819441104
  0
LINE
  5
261
100
AcDbEntity
  8
0
100
AcDbLine
 62
7
  6
CONTINUOUS
 10
-60.8051238861
 20
86.3189950801
 11
-59.9658868122
 21
86.8035600484
  0
LINE
  5
262
100
AcDbEntity
  8
0
100
AcDbLine
 62
253
  6
CONTINUOUS
 10
13.8663639791
 20
127.122136381
 11
15.2805775414
 21
127.9386855676
  0
LINE
  5
263
100
AcDbEntity
  8
0
100
AcDbLine
 62
253
  6
CONTINUOUS
 10
14.3916433022
 20
126.0298315245
 11
15.8058568646
 21
126.8463807112
  0
LWPOLYLINE
  5
264
100
AcDbEntity
  8
0
100
AcDbPolyline
 62
7
  6
CONTINUOUS
 90
6
 70
0
 10
-62.0041487496
 20
88.3956332571
 10
-61.948658049
 20
88.4226858867
 10
-61.829416947
 20
88.4516743828
 10
-61.7006268368
 20
88.4463287758
 10
-61.5592054805
 20
88.4084283674
 10
-61.4051528782
 20
88.3379731576
  0
LWPOLYLINE
  5
265
100
AcDbEntity
  8
0
100
AcDbPolyline
 62
7
  6
CONTINUOUS
 90
6
 70
0
 10
-60.8061570069
 20
86.3207843938
 10
-60.8616477075
 20
86.2937317642
 10
-60.9808888095
 20
86.2647432681
 10
-61.1096789197
 20
86.270088875
 10
-61.2511002759
 20
86.3079892834
 10
-61.4051528782
 20
86.3784444933
  0
LWPOLYLINE
  5
266
100
AcDbEntity
  8
ASSI
100
AcDbPolyline
 62
7
  6
CONTINUOUS
 90
12
 70
0
 10
-60.5836255722
 20
-101.3412782319
 10
-60.57076264
 20
-101.3441237826
 10
-60.5260703861
 20
-101.3511556692
 10
-60.4822501945
 20
-101.3551184003
 10
-60.4392956199
 20
-101.3560346605
 10
-60.397525715
 20
-101.353897644
 10
-60.3569493012
 20
-101.3486846157
 10
-60.3175575571
 20
-101.3404183106
 10
-60.279643072
 20
-101.3291601284
 10
-60.2432168459
 20
-101.314887791
 10
-60.2082678788
 20
-101.2976235764
 10
-60.1997946228
 20
-101.2928566518
  0
LWPOLYLINE
  5
267
100
AcDbEntity
  8
0
100
AcDbPolyline
 62
7
  6
CONTINUOUS
 90
14
 70
0
 10
14.3916433022
 20
-122.8563273061
 10
14.4625204765
 20
-122.8736189474
 10
14.5322489088
 20
-122.88697572
 10
14.600828599
 20
-122.8963976239
 10
14.6683741121
 20
-122.9018872165
 10
14.7347708831
 20
-122.9034419403
 10
14.7996752177
 20
-122.9010541229
 10
14.863079363
 20
-122.894703329
 10
14.924991072
 20
-122.8844099938
 10
14.9850899093
 20
-122.8702277506
 10
15.0433664646
 20
-122.8521364459
 10
15.0998301483
 20
-122.8301562331
 10
15.1541887561
 20
-122.8044012057
 10
15.1871319817
 20
-122.7863504812
  0
LWPOLYLINE
  5
268
100
AcDbEntity
  8
0
100
AcDbPolyline
 62
7
  6
CONTINUOUS
 90
14
 70
0
 10
-0.8010509678
 20
-110.139180251
 10
-0.8719281421
 20
-110.1218886097
 10
-0.9416565744
 20
-110.1085318371
 10
-1.0102362646
 20
-110.0991099332
 10
-1.0777817777
 20
-110.0936203406
 10
-1.1441785487
 20
-110.0920656168
 10
-1.2090828833
 20
-110.0944534342
 10
-1.2724870286
 20
-110.1008042281
 10
-1.3343987376
 20
-110.1110975633
 10
-1.3944975748
 20
-110.1252798065
 10
-1.4527741302
 20
-110.1433711112
 10
-1.5092378139
 20
-110.165351324
 10
-1.5635964217
 20
-110.1911063514
 10
-1.5965396473
 20
-110.2091570759
  0
LWPOLYLINE
  5
269
100
AcDbEntity
  8
0
100
AcDbPolyline
 62
7
  6
CONTINUOUS
 90
5
 70
0
 10
-61.4051528782
 20
-99.8176021293
 10
-61.5222892263
 20
-99.767926791
 10
-61.6261959608
 20
-99.7469153316
 10
-61.7168730816
 20
-99.7545677513
 10
-61.7793939617
 20
-99.7817626345
  0
LWPOLYLINE
  5
26A
100
AcDbEntity
  8
0
100
AcDbPolyline
 62
7
  6
CONTINUOUS
 90
12
 70
0
 10
-50.0560890402
 20
-104.3290166581
 10
-50.0195179834
 20
-104.349025276
 10
-49.9832352288
 20
-104.366730654
 10
-49.9472407763
 20
-104.3821327922
 10
-49.9114408162
 20
-104.3952602847
 10
-49.8759291582
 20
-104.4060845373
 10
-49.8409872321
 20
-104.414519768
 10
-49.8066195648
 20
-104.4205469937
 10
-49.7728216294
 20
-104.4241851974
 10
-49.7398612742
 20
-104.4254055464
 10
-49.7077451546
 20
-104.4241888285
 10
-49.6922320858
 20
-104.4223862068
  0
LINE
  5
26B
100
AcDbEntity
  8
0
100
AcDbLine
 62
7
  6
CONTINUOUS
 10
70.0106424053
 20
-173.6540426052
 11
66.4751084993
 21
-171.6126696385
  0
LINE
  5
26C
100
AcDbEntity
  8
0
100
AcDbLine
 62
7
  6
CONTINUOUS
 10
63.0809959497
 20
-169.6529515906
 11
24.0487016282
 21
-147.1161940389
  0
LINE
  5
26D
100
AcDbEntity
  8
0
100
AcDbLine
 62
7
  6
CONTINUOUS
 10
20.6545890785
 20
-145.1564759909
 11
15.9876843226
 21
-142.4618636749
  0
LINE
  5
26E
100
AcDbEntity
  8
0
100
AcDbLine
 62
7
  6
CONTINUOUS
 10
-0.2757716447
 20
-133.0715480284
 11
-4.2355696193
 21
-130.7852103058
  0
LINE
  5
26F
100
AcDbEntity
  8
0
100
AcDbLine
 62
7
  6
CONTINUOUS
 10
-7.629682169
 20
-128.8254922578
 11
-46.6619764905
 21
-106.2887347061
  0
LINE
  5
270
100
AcDbEntity
  8
0
100
AcDbLine
 62
7
  6
CONTINUOUS
 10
-50.0560890402
 20
-104.3290166581
 11
-54.722993796
 21
-101.6344043422
  0
LWPOLYLINE
  5
271
100
AcDbEntity
  8
0
100
AcDbPolyline
 62
7
  6
CONTINUOUS
 90
18
 70
0
 10
-5.6497831817
 20
-131.6017594924
 10
-5.6863542385
 20
-131.5795367706
 10
-5.7226369931
 20
-131.555343733
 10
-5.7586314455
 20
-131.5291803798
 10
-5.7944314057
 20
-131.5009669756
 10
-5.8299430637
 20
-131.4707832558
 10
-5.8648849898
 20
-131.438868426
 10
-5.8992526571
 20
-131.405208731
 10
-5.9330505925
 20
-131.369817926
 10
-5.9660109477
 20
-131.332976483
 10
-5.9981270673
 20
-131.2946728752
 10
-6.0294056066
 20
-131.2549186294
 10
-6.0595986836
 20
-131.2140287977
 10
-6.088697673
 20
-131.1719943567
 10
-6.1167112
 20
-131.1288243299
 10
-6.1434172576
 20
-131.0848608392
 10
-6.1687418434
 20
-131.0402179256
 10
-6.1927589597
 20
-130.9947815482
  0
LWPOLYLINE
  5
272
100
AcDbEntity
  8
0
100
AcDbPolyline
 62
7
  6
CONTINUOUS
 90
18
 70
0
 10
22.6344880658
 20
-147.9327432255
 10
22.597917009
 20
-147.9105205037
 10
22.5616342544
 20
-147.8863274661
 10
22.5256398019
 20
-147.8601641129
 10
22.4898398418
 20
-147.8319507088
 10
22.4543281838
 20
-147.8017669889
 10
22.4193862577
 20
-147.7698521591
 10
22.3850185904
 20
-147.7361924641
 10
22.351220655
 20
-147.7008016591
 10
22.3182602998
 20
-147.6639602161
 10
22.2861441802
 20
-147.6256566083
 10
22.2548656408
 20
-147.5859023625
 10
22.2246725639
 20
-147.5450125308
 10
22.1955735745
 20
-147.5029780898
 10
22.1675600474
 20
-147.459808063
 10
22.1408539899
 20
-147.4158445723
 10
22.1155294041
 20
-147.3712016587
 10
22.0915122877
 20
-147.3257652813
  0
LWPOLYLINE
  5
273
100
AcDbEntity
  8
0
100
AcDbPolyline
 62
7
  6
CONTINUOUS
 90
18
 70
0
 10
65.060894937
 20
-172.4292188252
 10
65.0243238802
 20
-172.4069961033
 10
64.9880411256
 20
-172.3828030658
 10
64.9520466731
 20
-172.3566397126
 10
64.916246713
 20
-172.3284263084
 10
64.880735055
 20
-172.2982425886
 10
64.8457931288
 20
-172.2663277588
 10
64.8114254616
 20
-172.2326680637
 10
64.7776275262
 20
-172.1972772588
 10
64.744667171
 20
-172.1604358158
 10
64.7125510514
 20
-172.122132208
 10
64.681272512
 20
-172.0823779622
 10
64.6510794351
 20
-172.0414881305
 10
64.6219804456
 20
-171.9994536895
 10
64.5939669186
 20
-171.9562836626
 10
64.5672608611
 20
-171.912320172
 10
64.5419362753
 20
-171.8676772584
 10
64.5179191589
 20
-171.822240881
  0
LWPOLYLINE
  5
274
100
AcDbEntity
  8
0
100
AcDbPolyline
 62
7
  6
CONTINUOUS
 90
31
 70
0
 10
14.5734707603
 20
-143.2784128616
 10
14.5362961666
 20
-143.2558043149
 10
14.4994242096
 20
-143.2311642077
 10
14.4628548892
 20
-143.20449254
 10
14.4264898106
 20
-143.1757052238
 10
14.3904273686
 20
-143.1448863472
 10
14.354962748
 20
-143.1122881742
 10
14.3201008556
 20
-143.0778961009
 10
14.2858367846
 20
-143.0417247312
 10
14.2524509993
 20
-143.0040701416
 10
14.2199507086
 20
-142.9649201581
 10
14.1883287036
 20
-142.9242869546
 10
14.1578438225
 20
-142.8825031293
 10
14.1285053985
 20
-142.8395592381
 10
14.1003040983
 20
-142.7954647252
 10
14.0734707603
 20
-142.7505805206
 10
14.0480166123
 20
-142.704900143
 10
14.0239304265
 20
-142.6584300737
 10
14.0014093574
 20
-142.6115506881
 10
13.9804662512
 20
-142.5642586264
 10
13.9610882616
 20
-142.5165572482
 10
13.9434340049
 20
-142.4688370075
 10
13.9275176291
 20
-142.4210977493
 10
13.9133249862
 20
-142.3733396285
 10
13.9009722483
 20
-142.3259535633
 10
13.8904745169
 20
-142.2789426076
 10
13.8818166906
 20
-142.2323037075
 10
13.8750696369
 20
-142.1864186202
 10
13.8702569784
 20
-142.1414145979
 10
13.8673550924
 20
-142.0971643883
 10
13.8663639791
 20
-142.0536679915
  0
LWPOLYLINE
  5
275
100
AcDbEntity
  8
0
100
AcDbPolyline
 62
7
  6
CONTINUOUS
 90
52
 70
0
 10
15.1871319817
 20
122.1547325566
 10
15.2064313666
 20
122.1662312333
 10
15.2565689012
 20
122.1995554491
 10
15.3043419194
 20
122.2364817085
 10
15.3497381588
 20
122.2770286733
 10
15.3927698817
 20
122.3211776816
 10
15.4332144359
 20
122.3686999771
 10
15.4710584076
 20
122.419613035
 10
15.5063152104
 20
122.47389938
 10
15.5388024327
 20
122.5312778297
 10
15.5685057179
 20
122.5917644021
 10
15.5954394225
 20
122.6553430793
 10
15.619464204
 20
122.7216846245
 10
15.6405649858
 20
122.7908033504
 10
15.6587568444
 20
122.8626849444
 10
15.6739456671
 20
122.936957232
 10
15.686115891
 20
123.0136325986
 10
15.6952830788
 20
123.0926986588
 10
15.7013998068
 20
123.1737460814
 10
15.7044502667
 20
123.2567851331
 10
15.7044502667
 20
123.3418055472
 10
15.7013998068
 20
123.4283671936
 10
15.6952830788
 20
123.5164780603
 10
15.686115891
 20
123.6061301593
 10
15.6739456671
 20
123.6968593953
 10
15.6587568444
 20
123.7886713547
 10
15.6405649858
 20
123.8815604511
 10
15.619464204
 20
123.9750458309
 10
15.5954394225
 20
124.0691305915
 10
15.5685057179
 20
124.1638116356
 10
15.5388024327
 20
124.2585988173
 10
15.5063152104
 20
124.3534926969
 10
15.4710584076
 20
124.4484927141
 10
15.4332144359
 20
124.5431070419
 10
15.3927698817
 20
124.6373336947
 10
15.3497381588
 20
124.7311746582
 10
15.3043419194
 20
124.8241440622
 10
15.2565689012
 20
124.9162374056
 10
15.2064313666
 20
125.0074591896
 10
15.1541887561
 20
125.0973370479
 10
15.0998301483
 20
125.185864033
 10
15.0433664646
 20
125.2730470924
 10
14.9850899093
 20
125.3584347025
 10
14.924991072
 20
125.4420175766
 10
14.863079363
 20
125.5238050014
 10
14.7996752177
 20
125.603373313
 10
14.7347708831
 20
125.6807110292
 10
14.6683741121
 20
125.7558296322
 10
14.600828599
 20
125.8283399049
 10
14.5322489088
 20
125.8981121084
 10
14.4625204765
 20
125.9652759816
 10
14.3916433022
 20
126.0298315245
  0
LWPOLYLINE
  5
276
100
AcDbEntity
  8
0
100
AcDbPolyline
 62
7
  6
CONTINUOUS
 90
52
 70
0
 10
16.6013455441
 20
122.9712817433
 10
16.620644929
 20
122.98278042
 10
16.6707824636
 20
123.0161046358
 10
16.7185554818
 20
123.0530308951
 10
16.7639517211
 20
123.0935778599
 10
16.8069834441
 20
123.1377268683
 10
16.8474279982
 20
123.1852491638
 10
16.8852719699
 20
123.2361622217
 10
16.9205287728
 20
123.2904485667
 10
16.953015995
 20
123.3478270164
 10
16.9827192802
 20
123.4083135888
 10
17.0096529849
 20
123.4718922659
 10
17.0336777663
 20
123.5382338111
 10
17.0547785481
 20
123.607352537
 10
17.0729704068
 20
123.6792341311
 10
17.0881592295
 20
123.7535064186
 10
17.1003294533
 20
123.8301817852
 10
17.1094966412
 20
123.9092478454
 10
17.1156133691
 20
123.9902952681
 10
17.1186638291
 20
124.0733343197
 10
17.1186638291
 20
124.1583547339
 10
17.1156133691
 20
124.2449163802
 10
17.1094966412
 20
124.333027247
 10
17.1003294533
 20
124.422679346
 10
17.0881592295
 20
124.513408582
 10
17.0729704068
 20
124.6052205413
 10
17.0547785481
 20
124.6981096377
 10
17.0336777663
 20
124.7915950175
 10
17.0096529849
 20
124.8856797782
 10
16.9827192802
 20
124.9803608223
 10
16.953015995
 20
125.0751480039
 10
16.9205287728
 20
125.1700418835
 10
16.8852719699
 20
125.2650419007
 10
16.8474279982
 20
125.3596562286
 10
16.8069834441
 20
125.4538828814
 10
16.7639517211
 20
125.5477238448
 10
16.7185554818
 20
125.6406932489
 10
16.6707824636
 20
125.7327865922
 10
16.620644929
 20
125.8240083762
 10
16.5684023184
 20
125.9138862345
 10
16.5140437107
 20
126.0024132196
 10
16.457580027
 20
126.089596279
 10
16.3993034716
 20
126.1749838891
 10
16.3392046343
 20
126.2585667632
 10
16.2772929254
 20
126.340354188
 10
16.2138887801
 20
126.4199224996
 10
16.1489844455
 20
126.4972602158
 10
16.0825876744
 20
126.5723788188
 10
16.0150421614
 20
126.6448890916
 10
15.9464624712
 20
126.714661295
 10
15.8767340389
 20
126.7818251682
 10
15.8058568646
 20
126.8463807112
  0
LINE
  5
277
100
AcDbEntity
  8
0
100
AcDbLine
 62
253
  6
CONTINUOUS
 10
13.8663639791
 20
121.5990302711
 11
14.6335988864
 21
122.0420220909
  0
LINE
  5
278
100
AcDbEntity
  8
0
100
AcDbLine
 62
7
  6
CONTINUOUS
 10
16.6013486199
 20
122.9712764172
 11
15.1871350575
 21
122.1547272305
  0
LWPOLYLINE
  5
279
100
AcDbEntity
  8
0
100
AcDbPolyline
 62
7
  6
CONTINUOUS
 90
11
 70
0
 10
14.0734502333
 20
122.0567608425
 10
14.0906579017
 20
122.0660429378
 10
14.1195546299
 20
122.0788634157
 10
14.149888211
 20
122.0890790353
 10
14.18138863
 20
122.0965988621
 10
14.2140663045
 20
122.101398828
 10
14.247910817
 20
122.1035030011
 10
14.2826208998
 20
122.1028926511
 10
14.3180961303
 20
122.0995615344
 10
14.3544369311
 20
122.0935158946
 10
14.3916433022
 20
122.0847557317
  0
LWPOLYLINE
  5
27A
100
AcDbEntity
  8
0
100
AcDbPolyline
 62
7
  6
CONTINUOUS
 90
14
 70
0
 10
-56.3190348164
 20
-82.0288679734
 10
-56.2481576421
 20
-82.0461596147
 10
-56.1784292099
 20
-82.0595163872
 10
-56.1098495196
 20
-82.0689382911
 10
-56.0423040066
 20
-82.0744278837
 10
-55.9759072356
 20
-82.0759826076
 10
-55.9110029009
 20
-82.0735947902
 10
-55.8475987556
 20
-82.0672439963
 10
-55.7856870467
 20
-82.0569506611
 10
-55.7255882094
 20
-82.0427684178
 10
-55.6673116541
 20
-82.0246771131
 10
-55.6108479704
 20
-82.0026969003
 10
-55.5564893626
 20
-81.9769418729
 10
-55.5235461369
 20
-81.9588911485
  0
LWPOLYLINE
  5
27B
100
AcDbEntity
  8
0
100
AcDbPolyline
 62
7
  6
CONTINUOUS
 90
25
 70
0
 10
-56.3190348164
 20
-78.0837921805
 10
-56.3562411876
 20
-78.0495873587
 10
-56.3925819884
 20
-78.0136675526
 10
-56.4280572189
 20
-77.9760327623
 10
-56.4627673017
 20
-77.9365607788
 10
-56.4966118141
 20
-77.895373811
 10
-56.5292894886
 20
-77.8528384857
 10
-56.5607899077
 20
-77.8089427646
 10
-56.5911234888
 20
-77.7636986858
 10
-56.620020217
 20
-77.7175089906
 10
-56.647467264
 20
-77.6703652363
 10
-56.6734774581
 20
-77.6222758656
 10
-56.697819269
 20
-77.5736689468
 10
-56.7204778013
 20
-77.5245398594
 10
-56.7414679504
 20
-77.474893224
 10
-56.7606028721
 20
-77.4251709712
 10
-56.7778660029
 20
-77.3753724258
 10
-56.7932739061
 20
-77.325498263
 10
-56.8066894282
 20
-77.2759924386
 10
-56.818094781
 20
-77.2268582412
 10
-56.8275077527
 20
-77.1780923822
 10
-56.8348445533
 20
-77.130128952
 10
-56.840077253
 20
-77.0831126473
 10
-56.8432337818
 20
-77.0368987713
 10
-56.8443141396
 20
-76.9914873241
  0
LWPOLYLINE
  5
27C
100
AcDbEntity
  8
0
100
AcDbPolyline
 62
7
  6
CONTINUOUS
 90
18
 70
0
 10
-47.2049522685
 20
-105.6817567619
 10
-47.1809351522
 20
-105.7271931393
 10
-47.1556105664
 20
-105.7718360529
 10
-47.1289045088
 20
-105.8157995435
 10
-47.1008909818
 20
-105.8589695704
 10
-47.0717919924
 20
-105.9010040114
 10
-47.0415989155
 20
-105.9418938431
 10
-47.0103203761
 20
-105.9816480889
 10
-46.9782042565
 20
-106.0199516967
 10
-46.9452439013
 20
-106.0567931397
 10
-46.9114459659
 20
-106.0921839447
 10
-46.8770782986
 20
-106.1258436397
 10
-46.8421363725
 20
-106.1577584695
 10
-46.8066247145
 20
-106.1879421893
 10
-46.7708247544
 20
-106.2161555935
 10
-46.7348303019
 20
-106.2423189467
 10
-46.6985475473
 20
-106.2665119843
 10
-46.6619764905
 20
-106.2887347061
  0
LWPOLYLINE
  5
27D
100
AcDbEntity
  8
0
100
AcDbPolyline
 62
7
  6
CONTINUOUS
 90
37
 70
0
 10
-48.6191658309
 20
-106.4983059485
 10
-48.6836647459
 20
-106.3667452169
 10
-48.7277097929
 20
-106.2827205483
 10
-48.7740106188
 20
-106.2000021015
 10
-48.8226819343
 20
-106.1184090385
 10
-48.8736090287
 20
-106.0381221974
 10
-48.9264477705
 20
-105.9596840918
 10
-48.9812111055
 20
-105.8831072424
 10
-49.037886088
 20
-105.8083791286
 10
-49.0960897485
 20
-105.7360047015
 10
-49.1558324394
 20
-105.6659999014
 10
-49.2171038083
 20
-105.5983487882
 10
-49.279489829
 20
-105.5335084917
 10
-49.34299805
 20
-105.4714980482
 10
-49.4076209227
 20
-105.4122984215
 10
-49.4729217753
 20
-105.3563096337
 10
-49.5389051992
 20
-105.3035534297
 10
-49.605566603
 20
-105.2540080645
 10
-49.672455541
 20
-105.2080083254
 10
-49.7395735541
 20
-105.1655782244
 10
-49.8069191013
 20
-105.1266937495
 10
-49.8740371144
 20
-105.0916176513
 10
-49.9409260524
 20
-105.0603757215
 10
-50.0075874563
 20
-105.0329421684
 10
-50.0735708801
 20
-105.0095023684
 10
-50.1388717328
 20
-104.9900833685
 10
-50.2034946055
 20
-104.9746581216
 10
-50.2670028264
 20
-104.9633308635
 10
-50.3293888471
 20
-104.956129347
 10
-50.3906602161
 20
-104.9530258192
 10
-50.450402907
 20
-104.9540412573
 10
-50.5086065675
 20
-104.9592035562
 10
-50.5652815499
 20
-104.9684848209
 10
-50.620044885
 20
-104.9818223436
 10
-50.6728836268
 20
-104.9992435947
 10
-50.7238107212
 20
-105.0207211037
 10
-50.7732946463
 20
-105.0465781843
  0
LWPOLYLINE
  5
27E
100
AcDbEntity
  8
0
100
AcDbPolyline
 62
7
  6
CONTINUOUS
 90
37
 70
0
 10
-47.2049522685
 20
-105.6817567619
 10
-47.2694511835
 20
-105.5501960303
 10
-47.3134962305
 20
-105.4661713616
 10
-47.3597970565
 20
-105.3834529148
 10
-47.4084683719
 20
-105.3018598519
 10
-47.4593954663
 20
-105.2215730108
 10
-47.5122342081
 20
-105.1431349051
 10
-47.5669975431
 20
-105.0665580558
 10
-47.6236725256
 20
-104.9918299419
 10
-47.6818761861
 20
-104.9194555148
 10
-47.741618877
 20
-104.8494507148
 10
-47.802890246
 20
-104.7817996015
 10
-47.8652762667
 20
-104.7169593051
 10
-47.9287844876
 20
-104.6549488615
 10
-47.9934073603
 20
-104.5957492348
 10
-48.0587082129
 20
-104.539760447
 10
-48.1246916368
 20
-104.487004243
 10
-48.1913530406
 20
-104.4374588779
 10
-48.2582419787
 20
-104.3914591387
 10
-48.3253599917
 20
-104.3490290378
 10
-48.392705539
 20
-104.3101445628
 10
-48.459823552
 20
-104.2750684647
 10
-48.5267124901
 20
-104.2438265348
 10
-48.5933738939
 20
-104.2163929817
 10
-48.6593573178
 20
-104.1929531818
 10
-48.7246581704
 20
-104.1735341818
 10
-48.7892810431
 20
-104.158108935
 10
-48.852789264
 20
-104.1467816768
 10
-48.9151752847
 20
-104.1395801603
 10
-48.9764466537
 20
-104.1364766325
 10
-49.0361893446
 20
-104.1374920706
 10
-49.0943930051
 20
-104.1426543695
 10
-49.1510679876
 20
-104.1519356342
 10
-49.2058313226
 20
-104.165273157
 10
-49.2586700644
 20
-104.182694408
 10
-49.3095971588
 20
-104.2041719171
 10
-49.3590810839
 20
-104.2300289976
  0
LWPOLYLINE
  5
27F
100
AcDbEntity
  8
0
100
AcDbPolyline
 62
7
  6
CONTINUOUS
 90
24
 70
0
 10
-75.6533545191
 20
-117.8005789506
 10
-75.6511789386
 20
-117.9420829093
 10
-75.6447229304
 20
-118.0805959299
 10
-75.6339864945
 20
-118.2161180125
 10
-75.6189461392
 20
-118.3488068537
 10
-75.5996253562
 20
-118.4785047569
 10
-75.5760946206
 20
-118.6047386322
 10
-75.5483385573
 20
-118.7274958287
 10
-75.5163725414
 20
-118.8467889973
 10
-75.480313173
 20
-118.9621830007
 10
-75.440145503
 20
-119.0736635989
 10
-75.3958844805
 20
-119.181245032
 10
-75.3476915533
 20
-119.2845348827
 10
-75.2955523619
 20
-119.3835174779
 10
-75.2394812658
 20
-119.4782084908
 10
-75.1796827917
 20
-119.5682625236
 10
-75.1161433268
 20
-119.6536626418
 10
-75.0488764838
 20
-119.7344257799
 10
-74.9781276273
 20
-119.810257344
 10
-74.9038840406
 20
-119.8811393235
 10
-74.8261584404
 20
-119.947089729
 10
-74.7452343407
 20
-120.0078679979
 10
-74.6611000605
 20
-120.063455241
 10
-74.6179343736
 20
-120.089251063
  0
LINE
  5
280
100
AcDbEntity
  8
ASSI
100
AcDbLine
 62
7
  6
CONTINUOUS
 10
-82.6537116529
 20
140.2215170381
 11
-82.6537116529
 21
189.2328358533
  0
LINE
  5
281
100
AcDbEntity
  8
ASSI
100
AcDbLine
 62
7
  6
CONTINUOUS
 10
-81.2394980905
 20
139.4049678514
 11
-81.2394980905
 21
188.4162866666
  0
LINE
  5
282
100
AcDbEntity
  8
0
100
AcDbLine
 62
7
  6
CONTINUOUS
 10
-77.0675680815
 20
-116.9840297639
 11
-77.0675680815
 21
121.7398246635
  0
LINE
  5
283
100
AcDbEntity
  8
ASSI
100
AcDbLine
 62
253
  6
CONTINUOUS
 10
-75.8301312144
 20
193.1716598507
 11
-75.8301312144
 21
191.5387192971
  0
LINE
  5
284
100
AcDbEntity
  8
0
100
AcDbLine
 62
7
  6
CONTINUOUS
 10
-75.6533545191
 20
-117.8005789506
 11
-75.6533545191
 21
120.9232754769
  0
LWPOLYLINE
  5
285
100
AcDbEntity
  8
ASSI
100
AcDbPolyline
 62
7
  6
CONTINUOUS
 90
30
 70
0
 10
-81.2394980905
 20
188.4162866666
 10
-81.238222873
 20
188.6481635429
 10
-81.2344919471
 20
188.8762813007
 10
-81.2282325497
 20
189.1004328597
 10
-81.2193719167
 20
189.3205248662
 10
-81.2078421921
 20
189.536224943
 10
-81.1936099718
 20
189.7469828587
 10
-81.1766871418
 20
189.95257441
 10
-81.1570039891
 20
190.1528322639
 10
-81.1344628518
 20
190.3473307906
 10
-81.1091237012
 20
190.535710773
 10
-81.0809548934
 20
190.7179953773
 10
-81.0497335409
 20
190.8943381632
 10
-81.01546925
 20
191.0645636925
 10
-80.9781569744
 20
191.2284759234
 10
-80.9375251154
 20
191.3861673501
 10
-80.8935659867
 20
191.5375267911
 10
-80.8462871852
 20
191.6822657828
 10
-80.7954514217
 20
191.8202182762
 10
-80.7411219051
 20
191.9511905118
 10
-80.6833093868
 20
192.0750362901
 10
-80.6217377695
 20
192.1917031608
 10
-80.5565437812
 20
192.3009453518
 10
-80.487731381
 20
192.4027370007
 10
-80.4148211444
 20
192.4973440858
 10
-80.3378090622
 20
192.5846623052
 10
-80.2568022945
 20
192.6644518163
 10
-80.1714810558
 20
192.7367603476
 10
-80.0818941542
 20
192.8014679642
 10
-80.0095215246
 20
192.8463291827
  0
LWPOLYLINE
  5
286
100
AcDbEntity
  8
ASSI
100
AcDbPolyline
 62
7
  6
CONTINUOUS
 90
30
 70
0
 10
-82.6537116529
 20
189.2328358533
 10
-82.6519555436
 20
189.5070159508
 10
-82.646772814
 20
189.7770562469
 10
-82.6380774716
 20
190.0427120103
 10
-82.6257820444
 20
190.3038737671
 10
-82.609807817
 20
190.5601478547
 10
-82.5901197453
 20
190.8108814398
 10
-82.5667241875
 20
191.0558139942
 10
-82.5395464444
 20
191.2947433212
 10
-82.5084985976
 20
191.5271505257
 10
-82.4736510463
 20
191.7526113529
 10
-82.4349668689
 20
191.9711529067
 10
-82.3922115806
 20
192.1829399642
 10
-82.345393489
 20
192.3877669473
 10
-82.2945096756
 20
192.5854004124
 10
-82.2392772218
 20
192.7759276942
 10
-82.1796779441
 20
192.9592226505
 10
-82.1157299203
 20
193.1349391156
 10
-82.0472180791
 20
193.3028431113
 10
-81.9742129038
 20
193.4627080843
 10
-81.8967313184
 20
193.6143588181
 10
-81.8145250403
 20
193.7576882817
 10
-81.7277620135
 20
193.8924023468
 10
-81.6364405604
 20
194.0184741193
 10
-81.5400530343
 20
194.1361839022
 10
-81.4385847071
 20
194.2454141979
 10
-81.3321722126
 20
194.3458757879
 10
-81.2205265378
 20
194.43757374
 10
-81.1036991424
 20
194.5203699059
 10
-81.009569655
 20
194.5783522013
  0
LINE
  5
287
100
AcDbEntity
  8
ASSI
100
AcDbLine
 62
253
  6
CONTINUOUS
 10
72.5562268176
 20
128.6030329159
 11
54.2775165239
 21
118.0491346784
  0
LINE
  5
288
100
AcDbEntity
  8
RACCORDO
100
AcDbLine
 62
253
  6
CONTINUOUS
 10
75.582643841
 20
127.9011872737
 11
75.4494370509
 21
127.8242753426
  0
LWPOLYLINE
  5
289
100
AcDbEntity
  8
0
100
AcDbPolyline
 62
253
  6
CONTINUOUS
 90
19
 70
0
 10
72.5562268176
 20
128.6030329159
 10
72.6487575113
 20
128.6541276825
 10
72.7411120677
 20
128.7004625945
 10
72.8331146845
 20
128.7419494508
 10
72.9245902295
 20
128.778509279
 10
73.0153645738
 20
128.8100724851
 10
73.1052649232
 20
128.8365789869
 10
73.1941201475
 20
128.8579783278
 10
73.2817611055
 20
128.8742297729
 10
73.3680209678
 20
128.8853023866
 10
73.4527355337
 20
128.8911750916
 10
73.5357435444
 20
128.8918367088
 10
73.6168869893
 20
128.8872859789
 10
73.6960114073
 20
128.8775315644
 10
73.7729661806
 20
128.8625920334
 10
73.8476048213
 20
128.8424958241
 10
73.9197852506
 20
128.8172811909
 10
73.9893700689
 20
128.7869961311
 10
74.0562268176
 20
128.7516982942
  0
LWPOLYLINE
  5
28A
100
AcDbEntity
  8
0
100
AcDbPolyline
 62
7
  6
CONTINUOUS
 90
25
 70
0
 10
-0.8010509678
 20
-114.0842560438
 10
-0.7638445967
 20
-114.1184608656
 10
-0.7275037959
 20
-114.1543806717
 10
-0.6920285654
 20
-114.1920154621
 10
-0.6573184826
 20
-114.2314874456
 10
-0.6234739701
 20
-114.2726744133
 10
-0.5907962956
 20
-114.3152097386
 10
-0.5592958766
 20
-114.3591054598
 10
-0.5289622955
 20
-114.4043495385
 10
-0.5000655673
 20
-114.4505392337
 10
-0.4726185202
 20
-114.497682988
 10
-0.4466083262
 20
-114.5457723587
 10
-0.4222665153
 20
-114.5943792775
 10
-0.3996079829
 20
-114.6435083649
 10
-0.3786178338
 20
-114.6931550003
 10
-0.3594829121
 20
-114.7428772531
 10
-0.3422197814
 20
-114.7926757985
 10
-0.3268118781
 20
-114.8425499613
 10
-0.313396356
 20
-114.8920557857
 10
-0.3019910032
 20
-114.9411899831
 10
-0.2925780316
 20
-114.9899558421
 10
-0.2852412309
 20
-115.0379192723
 10
-0.2800085312
 20
-115.084935577
 10
-0.2768520024
 20
-115.131149453
 10
-0.2757716447
 20
-115.1765609002
  0
LWPOLYLINE
  5
28B
100
AcDbEntity
  8
0
100
AcDbPolyline
 62
7
  6
CONTINUOUS
 90
25
 70
0
 10
14.3916433022
 20
-118.9112515133
 10
14.3544369311
 20
-118.8770466915
 10
14.3180961303
 20
-118.8411268854
 10
14.2826208998
 20
-118.803492095
 10
14.247910817
 20
-118.7640201115
 10
14.2140663045
 20
-118.7228331438
 10
14.18138863
 20
-118.6802978185
 10
14.149888211
 20
-118.6364020973
 10
14.1195546299
 20
-118.5911580186
 10
14.0906579017
 20
-118.5449683234
 10
14.0632108547
 20
-118.4978245691
 10
14.0372006606
 20
-118.4497351984
 10
14.0128588497
 20
-118.4011282796
 10
13.9902003173
 20
-118.3519991922
 10
13.9692101682
 20
-118.3023525568
 10
13.9500752465
 20
-118.252630304
 10
13.9328121158
 20
-118.2028317586
 10
13.9174042125
 20
-118.1529575958
 10
13.9039886904
 20
-118.1034517714
 10
13.8925833376
 20
-118.054317574
 10
13.883170366
 20
-118.005551715
 10
13.8758335653
 20
-117.9575882848
 10
13.8706008656
 20
-117.91057198
 10
13.8674443368
 20
-117.8643581041
 10
13.8663639791
 20
-117.8189466569
  0
LWPOLYLINE
  5
28C
100
AcDbEntity
  8
0
100
AcDbPolyline
 62
7
  6
CONTINUOUS
 90
25
 70
0
 10
-55.4301005772
 20
-76.1749381374
 10
-55.4290202194
 20
-76.2203495847
 10
-55.4258636907
 20
-76.2665634606
 10
-55.4206309909
 20
-76.3135797653
 10
-55.4132941903
 20
-76.3615431956
 10
-55.4038812187
 20
-76.4103090545
 10
-55.3924758658
 20
-76.4594432519
 10
-55.3790603438
 20
-76.5089490763
 10
-55.3636524405
 20
-76.5588232392
 10
-55.3463893098
 20
-76.6086217846
 10
-55.3272543881
 20
-76.6583440374
 10
-55.3062642389
 20
-76.7079906728
 10
-55.2836057066
 20
-76.7571197602
 10
-55.2592638957
 20
-76.8057266789
 10
-55.2332537016
 20
-76.8538160497
 10
-55.2058066546
 20
-76.9009598039
 10
-55.1769099264
 20
-76.9471494992
 10
-55.1465763453
 20
-76.9923935779
 10
-55.1150759263
 20
-77.036289299
 10
-55.0823982517
 20
-77.0788246244
 10
-55.0485537393
 20
-77.1200115921
 10
-55.0138436565
 20
-77.1594835756
 10
-54.978368426
 20
-77.197118366
 10
-54.9420276252
 20
-77.2330381721
 10
-54.904821254
 20
-77.2672429939
  0
LWPOLYLINE
  5
28D
100
AcDbEntity
  8
0
100
AcDbPolyline
 62
7
  6
CONTINUOUS
 90
31
 70
0
 10
-55.4301005772
 20
-100.409659472
 10
-55.4291094639
 20
-100.4531558689
 10
-55.4262075779
 20
-100.4974060785
 10
-55.4213949194
 20
-100.5424101008
 10
-55.4146478657
 20
-100.5882951881
 10
-55.4059900393
 20
-100.6349340882
 10
-55.395492308
 20
-100.6819450439
 10
-55.3831395701
 20
-100.729331109
 10
-55.3689469272
 20
-100.7770892298
 10
-55.3530305514
 20
-100.824828488
 10
-55.3353762947
 20
-100.8725487288
 10
-55.3159983051
 20
-100.9202501069
 10
-55.2950551988
 20
-100.9675421686
 10
-55.2725341298
 20
-101.0144215543
 10
-55.248447944
 20
-101.0608916235
 10
-55.222993796
 20
-101.1065720012
 10
-55.196160458
 20
-101.1514562057
 10
-55.1679591578
 20
-101.1955507187
 10
-55.1386207338
 20
-101.2384946099
 10
-55.1081358527
 20
-101.2802784352
 10
-55.0765138477
 20
-101.3209116386
 10
-55.044013557
 20
-101.3600616221
 10
-55.0106277717
 20
-101.3977162118
 10
-54.9763637007
 20
-101.4338875814
 10
-54.9415018083
 20
-101.4682796548
 10
-54.9060371877
 20
-101.5008778277
 10
-54.8699747457
 20
-101.5316967044
 10
-54.8336096671
 20
-101.5604840206
 10
-54.7970403467
 20
-101.5871556883
 10
-54.7601683897
 20
-101.6117957955
 10
-54.722993796
 20
-101.6344043422
  0
LWPOLYLINE
  5
28E
100
AcDbEntity
  8
ASSI
100
AcDbPolyline
 62
7
  6
CONTINUOUS
 90
49
 70
0
 10
-59.9202286377
 20
-100.6749195929
 10
-59.9214397711
 20
-100.6190526903
 10
-59.9249937804
 20
-100.5622407887
 10
-59.9308906657
 20
-100.5044838881
 10
-59.9391566936
 20
-100.4456339427
 10
-59.9497655974
 20
-100.3858389983
 10
-59.9626385776
 20
-100.3255431927
 10
-59.9777924929
 20
-100.2647427964
 10
-59.9952104847
 20
-100.2034415388
 10
-60.0147631776
 20
-100.142094746
 10
-60.0364664669
 20
-100.0807020792
 10
-60.0603044574
 20
-100.0192638771
 10
-60.0861000881
 20
-99.9582364833
 10
-60.1138679358
 20
-99.8976229566
 10
-60.1435934237
 20
-99.8374202381
 10
-60.1750557605
 20
-99.7780754943
 10
-60.2082678788
 20
-99.7195951138
 10
-60.2432168459
 20
-99.661972708
 10
-60.279643072
 20
-99.6056362778
 10
-60.3175575571
 20
-99.5505953985
 10
-60.3569493012
 20
-99.4968404948
 10
-60.397525715
 20
-99.4447708409
 10
-60.4392956199
 20
-99.3943989852
 10
-60.4822501945
 20
-99.3457123793
 10
-60.5260703861
 20
-99.2990726517
 10
-60.57076264
 20
-99.2544950436
 10
-60.6163205109
 20
-99.2119643138
 10
-60.6624056095
 20
-99.171796367
 10
-60.7090218615
 20
-99.1340087966
 10
-60.7561653412
 20
-99.0985840091
 10
-60.8034858818
 20
-99.0657851286
 10
-60.8509848019
 20
-99.0356317078
 10
-60.8986607828
 20
-99.0081041939
 10
-60.9461597029
 20
-98.9834070524
 10
-60.9934802435
 20
-98.9615613588
 10
-61.0406237232
 20
-98.9425460376
 10
-61.0872399752
 20
-98.9265023286
 10
-61.1333250737
 20
-98.9134523589
 10
-61.1788829447
 20
-98.9033740013
 10
-61.2235751986
 20
-98.8963421147
 10
-61.2673953902
 20
-98.8923793835
 10
-61.3103499648
 20
-98.8914631233
 10
-61.3521198697
 20
-98.8936001399
 10
-61.3926962835
 20
-98.8988131682
 10
-61.4320880276
 20
-98.9070794732
 10
-61.4700025127
 20
-98.9183376555
 10
-61.5064287388
 20
-98.9326099928
 10
-61.5413777059
 20
-98.9498742074
 10
-61.5498509619
 20
-98.9546411321
  0
LWPOLYLINE
  5
28F
100
AcDbEntity
  8
ASSI
100
AcDbPolyline
 62
7
  6
CONTINUOUS
 90
49
 70
0
 10
-59.9202286377
 20
-6.7808377617
 10
-59.9214397711
 20
-6.7249708591
 10
-59.9249937804
 20
-6.6681589575
 10
-59.9308906657
 20
-6.610402057
 10
-59.9391566936
 20
-6.5515521116
 10
-59.9497655974
 20
-6.4917571672
 10
-59.9626385776
 20
-6.4314613615
 10
-59.9777924929
 20
-6.3706609652
 10
-59.9952104847
 20
-6.3093597076
 10
-60.0147631776
 20
-6.2480129149
 10
-60.0364664669
 20
-6.186620248
 10
-60.0603044574
 20
-6.125182046
 10
-60.0861000881
 20
-6.0641546521
 10
-60.1138679358
 20
-6.0035411254
 10
-60.1435934237
 20
-5.9433384069
 10
-60.1750557605
 20
-5.8839936631
 10
-60.2082678788
 20
-5.8255132826
 10
-60.2432168459
 20
-5.7678908769
 10
-60.279643072
 20
-5.7115544466
 10
-60.3175575571
 20
-5.6565135674
 10
-60.3569493012
 20
-5.6027586637
 10
-60.397525715
 20
-5.5506890097
 10
-60.4392956199
 20
-5.5003171541
 10
-60.4822501945
 20
-5.4516305481
 10
-60.5260703861
 20
-5.4049908205
 10
-60.57076264
 20
-5.3604132124
 10
-60.6163205109
 20
-5.3178824826
 10
-60.6624056095
 20
-5.2777145358
 10
-60.7090218615
 20
-5.2399269654
 10
-60.7561653412
 20
-5.2045021779
 10
-60.8034858818
 20
-5.1717032974
 10
-60.8509848019
 20
-5.1415498766
 10
-60.8986607828
 20
-5.1140223627
 10
-60.9461597029
 20
-5.0893252213
 10
-60.9934802435
 20
-5.0674795276
 10
-61.0406237232
 20
-5.0484642064
 10
-61.0872399752
 20
-5.0324204975
 10
-61.1333250737
 20
-5.0193705277
 10
-61.1788829447
 20
-5.0092921701
 10
-61.2235751986
 20
-5.0022602835
 10
-61.2673953902
 20
-4.9982975523
 10
-61.3103499648
 20
-4.9973812922
 10
-61.3521198697
 20
-4.9995183087
 10
-61.3926962835
 20
-5.004731337
 10
-61.4320880276
 20
-5.012997642
 10
-61.4700025127
 20
-5.0242558243
 10
-61.5064287388
 20
-5.0385281616
 10
-61.5413777059
 20
-5.0557923762
 10
-61.5498509619
 20
-5.0605593009
  0
LWPOLYLINE
  5
290
100
AcDbEntity
  8
ASSI
100
AcDbPolyline
 62
7
  6
CONTINUOUS
 90
49
 70
0
 10
-59.9202286377
 20
87.1132440694
 10
-59.9214397711
 20
87.1691109721
 10
-59.9249937804
 20
87.2259228736
 10
-59.9308906657
 20
87.2836797742
 10
-59.9391566936
 20
87.3425297196
 10
-59.9497655974
 20
87.402324664
 10
-59.9626385776
 20
87.4626204696
 10
-59.9777924929
 20
87.523420866
 10
-59.9952104847
 20
87.5847221236
 10
-60.0147631776
 20
87.6460689163
 10
-60.0364664669
 20
87.7074615832
 10
-60.0603044574
 20
87.7688997852
 10
-60.0861000881
 20
87.829927179
 10
-60.1138679358
 20
87.8905407057
 10
-60.1435934237
 20
87.9507434243
 10
-60.1750557605
 20
88.0100881681
 10
-60.2082678788
 20
88.0685685486
 10
-60.2432168459
 20
88.1261909543
 10
-60.279643072
 20
88.1825273846
 10
-60.3175575571
 20
88.2375682638
 10
-60.3569493012
 20
88.2913231675
 10
-60.397525715
 20
88.3433928215
 10
-60.4392956199
 20
88.3937646771
 10
-60.4822501945
 20
88.442451283
 10
-60.5260703861
 20
88.4890910107
 10
-60.57076264
 20
88.5336686187
 10
-60.6163205109
 20
88.5761993485
 10
-60.6624056095
 20
88.6163672954
 10
-60.7090218615
 20
88.6541548658
 10
-60.7561653412
 20
88.6895796532
 10
-60.8034858818
 20
88.7223785338
 10
-60.8509848019
 20
88.7525319546
 10
-60.8986607828
 20
88.7800594685
 10
-60.9461597029
 20
88.8047566099
 10
-60.9934802435
 20
88.8266023036
 10
-61.0406237232
 20
88.8456176247
 10
-61.0872399752
 20
88.8616613337
 10
-61.1333250738
 20
88.8747113035
 10
-61.1788829447
 20
88.8847896611
 10
-61.2235751986
 20
88.8918215477
 10
-61.2673953902
 20
88.8957842788
 10
-61.3103499648
 20
88.896700539
 10
-61.3521198697
 20
88.8945635225
 10
-61.3926962835
 20
88.8893504941
 10
-61.4320880276
 20
88.8810841891
 10
-61.4700025127
 20
88.8698260069
 10
-61.5064287388
 20
88.8555536695
 10
-61.5413777059
 20
88.8382894549
 10
-61.5498509619
 20
88.8335225303
  0
LINE
  5
291
100
AcDbEntity
  8
0
100
AcDbLine
 62
7
  6
CONTINUOUS
 10
-65.3295955138
 20
184.5039453681
 11
-65.3295955138
 21
-116.7386704586
  0
LWPOLYLINE
  5
292
100
AcDbEntity
  8
0
100
AcDbPolyline
 62
7
  6
CONTINUOUS
 90
5
 70
0
 10
-56.8443141396
 20
178.8230962812
 10
-56.8433230262
 20
178.8654481653
 10
-56.8404211403
 20
178.9063473497
 10
-56.8356084817
 20
178.9457938345
 10
-56.8342559022
 20
178.953430477
  0
LWPOLYLINE
  5
293
100
AcDbEntity
  8
0
100
AcDbPolyline
 62
7
  6
CONTINUOUS
 90
16
 70
0
 10
-56.8443141396
 20
162.4264896038
 10
-56.8432337818
 20
162.470653481
 10
-56.840077253
 20
162.5132222766
 10
-56.8348445533
 20
162.5541959909
 10
-56.8275077527
 20
162.5936870676
 10
-56.818094781
 20
162.6315830629
 10
-56.8066894282
 20
162.6675466447
 10
-56.7932739061
 20
162.7015605605
 10
-56.7778660029
 20
162.7336420628
 10
-56.7606028721
 20
162.7635055776
 10
-56.7414679504
 20
162.7911313025
 10
-56.7204778013
 20
162.8165390398
 10
-56.697819269
 20
162.839502622
 10
-56.6734774581
 20
162.8600002277
 10
-56.647467264
 20
162.8780536783
 10
-56.6372278854
 20
162.8842201752
  0
LWPOLYLINE
  5
294
100
AcDbEntity
  8
0
100
AcDbPolyline
 62
7
  6
CONTINUOUS
 90
16
 70
0
 10
-56.8443141396
 20
39.9559480849
 10
-56.8432337818
 20
40.000111962
 10
-56.840077253
 20
40.0426807577
 10
-56.8348445533
 20
40.0836544719
 10
-56.8275077527
 20
40.1231455487
 10
-56.818094781
 20
40.161041544
 10
-56.8066894282
 20
40.1970051258
 10
-56.7932739061
 20
40.2310190416
 10
-56.7778660029
 20
40.2631005439
 10
-56.7606028721
 20
40.2929640587
 10
-56.7414679504
 20
40.3205897836
 10
-56.7204778013
 20
40.3459975209
 10
-56.697819269
 20
40.3689611031
 10
-56.6734774581
 20
40.3894587088
 10
-56.647467264
 20
40.4075121594
 10
-56.6372278854
 20
40.4136786563
  0
LWPOLYLINE
  5
295
100
AcDbEntity
  8
0
100
AcDbPolyline
 62
7
  6
CONTINUOUS
 90
52
 70
0
 10
-55.5235461369
 20
40.5116503705
 10
-55.5042467521
 20
40.5231490472
 10
-55.4541092175
 20
40.556473263
 10
-55.4063361992
 20
40.5933995223
 10
-55.3609399599
 20
40.6339464871
 10
-55.3179082369
 20
40.6780954955
 10
-55.2774636828
 20
40.725617791
 10
-55.2396197111
 20
40.7765308489
 10
-55.2043629082
 20
40.8308171939
 10
-55.171875686
 20
40.8881956436
 10
-55.1421724008
 20
40.948682216
 10
-55.1152386962
 20
41.0122608931
 10
-55.0912139147
 20
41.0786024383
 10
-55.0701131329
 20
41.1477211642
 10
-55.0519212742
 20
41.2196027583
 10
-55.0367324515
 20
41.2938750458
 10
-55.0245622277
 20
41.3705504124
 10
-55.0153950398
 20
41.4496164726
 10
-55.0092783119
 20
41.5306638953
 10
-55.0062278519
 20
41.6137029469
 10
-55.0062278519
 20
41.6987233611
 10
-55.0092783119
 20
41.7852850074
 10
-55.0153950398
 20
41.8733958742
 10
-55.0245622277
 20
41.9630479731
 10
-55.0367324515
 20
42.0537772092
 10
-55.0519212742
 20
42.1455891685
 10
-55.0701131329
 20
42.2384782649
 10
-55.0912139147
 20
42.3319636447
 10
-55.1152386962
 20
42.4260484054
 10
-55.1421724008
 20
42.5207294495
 10
-55.171875686
 20
42.6155166311
 10
-55.2043629082
 20
42.7104105107
 10
-55.2396197111
 20
42.8054105279
 10
-55.2774636828
 20
42.9000248558
 10
-55.3179082369
 20
42.9942515086
 10
-55.3609399599
 20
43.088092472
 10
-55.4063361992
 20
43.1810618761
 10
-55.4541092175
 20
43.2731552194
 10
-55.5042467521
 20
43.3643770034
 10
-55.5564893626
 20
43.4542548617
 10
-55.6108479704
 20
43.5427818468
 10
-55.6673116541
 20
43.6299649062
 10
-55.7255882094
 20
43.7153525163
 10
-55.7856870467
 20
43.7989353904
 10
-55.8475987556
 20
43.8807228152
 10
-55.9110029009
 20
43.9602911268
 10
-55.9759072356
 20
44.037628843
 10
-56.0423040066
 20
44.112747446
 10
-56.1098495196
 20
44.1852577188
 10
-56.1784292099
 20
44.2550299222
 10
-56.2481576421
 20
44.3221937954
 10
-56.3190348164
 20
44.3867493384
  0
LWPOLYLINE
  5
296
100
AcDbEntity
  8
0
100
AcDbPolyline
 62
7
  6
CONTINUOUS
 90
52
 70
0
 10
-54.1093325745
 20
41.3281995571
 10
-54.0900331897
 20
41.3396982338
 10
-54.0398956551
 20
41.3730224496
 10
-53.9921226368
 20
41.409948709
 10
-53.9467263975
 20
41.4504956738
 10
-53.9036946746
 20
41.4946446821
 10
-53.8632501204
 20
41.5421669776
 10
-53.8254061487
 20
41.5930800355
 10
-53.7901493459
 20
41.6473663805
 10
-53.7576621236
 20
41.7047448302
 10
-53.7279588384
 20
41.7652314027
 10
-53.7010251338
 20
41.8288100798
 10
-53.6770003523
 20
41.895151625
 10
-53.6558995705
 20
41.9642703509
 10
-53.6377077119
 20
42.0361519449
 10
-53.6225188892
 20
42.1104242325
 10
-53.6103486653
 20
42.1870995991
 10
-53.6011814774
 20
42.2661656593
 10
-53.5950647495
 20
42.3472130819
 10
-53.5920142895
 20
42.4302521336
 10
-53.5920142895
 20
42.5152725477
 10
-53.5950647495
 20
42.6018341941
 10
-53.6011814774
 20
42.6899450608
 10
-53.6103486653
 20
42.7795971598
 10
-53.6225188892
 20
42.8703263958
 10
-53.6377077119
 20
42.9621383552
 10
-53.6558995705
 20
43.0550274516
 10
-53.6770003523
 20
43.1485128314
 10
-53.7010251338
 20
43.242597592
 10
-53.7279588384
 20
43.3372786361
 10
-53.7576621236
 20
43.4320658178
 10
-53.7901493459
 20
43.5269596974
 10
-53.8254061487
 20
43.6219597146
 10
-53.8632501204
 20
43.7165740424
 10
-53.9036946746
 20
43.8108006952
 10
-53.9467263975
 20
43.9046416587
 10
-53.9921226368
 20
43.9976110627
 10
-54.0398956551
 20
44.0897044061
 10
-54.0900331897
 20
44.1809261901
 10
-54.1422758002
 20
44.2708040484
 10
-54.196634408
 20
44.3593310335
 10
-54.2530980917
 20
44.4465140929
 10
-54.311374647
 20
44.531901703
 10
-54.3714734843
 20
44.6154845771
 10
-54.4333851933
 20
44.6972720019
 10
-54.4967893385
 20
44.7768403135
 10
-54.5616936732
 20
44.8541780297
 10
-54.6280904442
 20
44.9292966327
 10
-54.6956359572
 20
45.0018069054
 10
-54.7642156475
 20
45.0715791089
 10
-54.8339440798
 20
45.1387429821
 10
-54.904821254
 20
45.203298525
  0
LINE
  5
297
100
AcDbEntity
  8
0
100
AcDbLine
 62
253
  6
CONTINUOUS
 10
-56.8443141396
 20
45.4790541948
 11
-55.4301005772
 21
46.2956033815
  0
LINE
  5
298
100
AcDbEntity
  8
0
100
AcDbLine
 62
253
  6
CONTINUOUS
 10
-56.3190348164
 20
44.3867493384
 11
-54.904821254
 21
45.203298525
  0
LINE
  5
299
100
AcDbEntity
  8
0
100
AcDbLine
 62
253
  6
CONTINUOUS
 10
-56.8443141396
 20
39.9559480849
 11
-56.0770792322
 21
40.3989399047
  0
LINE
  5
29A
100
AcDbEntity
  8
ASSI
100
AcDbLine
 62
7
  6
CONTINUOUS
 10
-54.1093294987
 20
41.328194231
 11
-55.5235430611
 21
40.5116450444
  0
LINE
  5
29B
100
AcDbEntity
  8
RACCORDO
100
AcDbLine
 62
253
  6
CONTINUOUS
 10
82.6537116529
 20
115.6537385725
 11
82.5205879329
 21
115.576874605
  0
LWPOLYLINE
  5
29C
100
AcDbEntity
  8
0
100
AcDbPolyline
 62
7
  6
CONTINUOUS
 90
11
 70
0
 10
-56.6372278854
 20
40.4136786563
 10
-56.620020217
 20
40.4229607517
 10
-56.5911234888
 20
40.4357812296
 10
-56.5607899077
 20
40.4459968491
 10
-56.5292894886
 20
40.4535166759
 10
-56.4966118141
 20
40.4583166419
 10
-56.4627673017
 20
40.460420815
 10
-56.4280572189
 20
40.4598104649
 10
-56.3925819884
 20
40.4564793483
 10
-56.3562411876
 20
40.4504337085
 10
-56.3190348164
 20
40.4416735456
  0
LWPOLYLINE
  5
29D
100
AcDbEntity
  8
0
100
AcDbPolyline
 62
7
  6
CONTINUOUS
 90
4
 70
0
 10
69.9096271508
 20
-154.9117153766
 10
69.946833522
 20
-154.9459201984
 10
69.9831743228
 20
-154.9818400045
 10
70.0106424053
 20
-155.0109802105
  0
LWPOLYLINE
  5
29E
100
AcDbEntity
  8
0
100
AcDbPolyline
 62
7
  6
CONTINUOUS
 90
18
 70
0
 10
-4.7785453973
 20
-130.1782323615
 10
-4.754528281
 20
-130.2236687389
 10
-4.7292036952
 20
-130.2683116526
 10
-4.7024976376
 20
-130.3122751432
 10
-4.6744841106
 20
-130.3554451701
 10
-4.6453851212
 20
-130.3974796111
 10
-4.6151920443
 20
-130.4383694428
 10
-4.5839135049
 20
-130.4781236886
 10
-4.5517973853
 20
-130.5164272964
 10
-4.5188370301
 20
-130.5532687393
 10
-4.4850390947
 20
-130.5886595443
 10
-4.4506714274
 20
-130.6223192394
 10
-4.4157295013
 20
-130.6542340691
 10
-4.3802178433
 20
-130.684417789
 10
-4.3444178832
 20
-130.7126311932
 10
-4.3084234307
 20
-130.7387945464
 10
-4.2721406761
 20
-130.7629875839
 10
-4.2355696193
 20
-130.7852103058
  0
LWPOLYLINE
  5
29F
100
AcDbEntity
  8
0
100
AcDbPolyline
 62
7
  6
CONTINUOUS
 90
37
 70
0
 10
-6.1927589597
 20
-130.9947815482
 10
-6.2572578747
 20
-130.8632208166
 10
-6.3013029217
 20
-130.779196148
 10
-6.3476037477
 20
-130.6964777011
 10
-6.3962750631
 20
-130.6148846382
 10
-6.4472021575
 20
-130.5345977971
 10
-6.5000408993
 20
-130.4561596914
 10
-6.5548042343
 20
-130.3795828421
 10
-6.6114792168
 20
-130.3048547282
 10
-6.6696828773
 20
-130.2324803011
 10
-6.7294255682
 20
-130.1624755011
 10
-6.7906969371
 20
-130.0948243878
 10
-6.8530829578
 20
-130.0299840914
 10
-6.9165911788
 20
-129.9679736479
 10
-6.9812140515
 20
-129.9087740212
 10
-7.0465149041
 20
-129.8527852333
 10
-7.112498328
 20
-129.8000290293
 10
-7.1791597318
 20
-129.7504836642
 10
-7.2460486698
 20
-129.7044839251
 10
-7.3131666829
 20
-129.6620538241
 10
-7.3805122302
 20
-129.6231693492
 10
-7.4476302432
 20
-129.588093251
 10
-7.5145191812
 20
-129.5568513211
 10
-7.5811805851
 20
-129.5294177681
 10
-7.6471640089
 20
-129.5059779681
 10
-7.7124648616
 20
-129.4865589681
 10
-7.7770877343
 20
-129.4711337213
 10
-7.8405959552
 20
-129.4598064632
 10
-7.9029819759
 20
-129.4526049466
 10
-7.9642533449
 20
-129.4495014189
 10
-8.0239960358
 20
-129.4505168569
 10
-8.0821996963
 20
-129.4556791558
 10
-8.1388746787
 20
-129.4649604206
 10
-8.1936380138
 20
-129.4782979433
 10
-8.2464767556
 20
-129.4957191944
 10
-8.29740385
 20
-129.5171967034
 10
-8.3468877751
 20
-129.5430537839
  0
LWPOLYLINE
  5
2A0
100
AcDbEntity
  8
0
100
AcDbPolyline
 62
7
  6
CONTINUOUS
 90
37
 70
0
 10
-4.7785453973
 20
-130.1782323615
 10
-4.8430443123
 20
-130.0466716299
 10
-4.8870893593
 20
-129.9626469613
 10
-4.9333901853
 20
-129.8799285145
 10
-4.9820615007
 20
-129.7983354515
 10
-5.0329885951
 20
-129.7180486104
 10
-5.0858273369
 20
-129.6396105048
 10
-5.140590672
 20
-129.5630336554
 10
-5.1972656544
 20
-129.4883055416
 10
-5.2554693149
 20
-129.4159311145
 10
-5.3152120058
 20
-129.3459263145
 10
-5.3764833748
 20
-129.2782752012
 10
-5.4388693955
 20
-129.2134349047
 10
-5.5023776164
 20
-129.1514244612
 10
-5.5670004891
 20
-129.0922248345
 10
-5.6323013417
 20
-129.0362360467
 10
-5.6982847656
 20
-128.9834798427
 10
-5.7649461694
 20
-128.9339344775
 10
-5.8318351075
 20
-128.8879347384
 10
-5.8989531205
 20
-128.8455046374
 10
-5.9662986678
 20
-128.8066201625
 10
-6.0334166809
 20
-128.7715440643
 10
-6.1003056189
 20
-128.7403021345
 10
-6.1669670227
 20
-128.7128685814
 10
-6.2329504466
 20
-128.6894287814
 10
-6.2982512992
 20
-128.6700097815
 10
-6.3628741719
 20
-128.6545845346
 10
-6.4263823928
 20
-128.6432572765
 10
-6.4887684135
 20
-128.63605576
 10
-6.5500397825
 20
-128.6329522322
 10
-6.6097824734
 20
-128.6339676703
 10
-6.6679861339
 20
-128.6391299692
 10
-6.7246611164
 20
-128.6484112339
 10
-6.7794244514
 20
-128.6617487566
 10
-6.8322631932
 20
-128.6791700077
 10
-6.8831902876
 20
-128.7006475167
 10
-6.9326742127
 20
-128.7265045973
  0
LWPOLYLINE
  5
2A1
100
AcDbEntity
  8
0
100
AcDbPolyline
 62
7
  6
CONTINUOUS
 90
25
 70
0
 10
-55.4301005772
 20
46.2956033815
 10
-55.4290202194
 20
46.2501919343
 10
-55.4258636907
 20
46.2039780583
 10
-55.4206309909
 20
46.1569617536
 10
-55.4132941903
 20
46.1089983234
 10
-55.4038812187
 20
46.0602324644
 10
-55.3924758658
 20
46.011098267
 10
-55.3790603438
 20
45.9615924426
 10
-55.3636524405
 20
45.9117182798
 10
-55.3463893098
 20
45.8619197344
 10
-55.3272543881
 20
45.8121974815
 10
-55.3062642389
 20
45.7625508461
 10
-55.2836057066
 20
45.7134217587
 10
-55.2592638957
 20
45.66481484
 10
-55.2332537016
 20
45.6167254692
 10
-55.2058066546
 20
45.569581715
 10
-55.1769099264
 20
45.5233920198
 10
-55.1465763453
 20
45.478147941
 10
-55.1150759263
 20
45.4342522199
 10
-55.0823982517
 20
45.3917168945
 10
-55.0485537393
 20
45.3505299268
 10
-55.0138436565
 20
45.3110579433
 10
-54.978368426
 20
45.273423153
 10
-54.9420276252
 20
45.2375033469
 10
-54.904821254
 20
45.203298525
  0
LWPOLYLINE
  5
2A2
100
AcDbEntity
  8
0
100
AcDbPolyline
 62
7
  6
CONTINUOUS
 90
25
 70
0
 10
-55.4301005772
 20
168.7661449004
 10
-55.4290202194
 20
168.7207334532
 10
-55.4258636907
 20
168.6745195772
 10
-55.4206309909
 20
168.6275032725
 10
-55.4132941903
 20
168.5795398423
 10
-55.4038812187
 20
168.5307739833
 10
-55.3924758658
 20
168.4816397859
 10
-55.3790603438
 20
168.4321339615
 10
-55.3636524405
 20
168.3822597987
 10
-55.3463893098
 20
168.3324612533
 10
-55.3272543881
 20
168.2827390005
 10
-55.3062642389
 20
168.2330923651
 10
-55.2836057066
 20
168.1839632777
 10
-55.2592638957
 20
168.1353563589
 10
-55.2332537016
 20
168.0872669882
 10
-55.2058066546
 20
168.0401232339
 10
-55.1769099264
 20
167.9939335387
 10
-55.1465763453
 20
167.9486894599
 10
-55.1150759263
 20
167.9047937388
 10
-55.0823982517
 20
167.8622584135
 10
-55.0485537393
 20
167.8210714457
 10
-55.0138436565
 20
167.7815994622
 10
-54.978368426
 20
167.7439646719
 10
-54.9420276252
 20
167.7080448658
 10
-54.904821254
 20
167.673840044
  0
LWPOLYLINE
  5
2A3
100
AcDbEntity
  8
ASSI
100
AcDbPolyline
 62
7
  6
CONTINUOUS
 90
49
 70
0
 10
-47.0508852202
 20
-122.8019821738
 10
-47.0520963535
 20
-122.7461152711
 10
-47.0556503628
 20
-122.6893033695
 10
-47.0615472482
 20
-122.631546469
 10
-47.069813276
 20
-122.5726965236
 10
-47.0804221798
 20
-122.5129015792
 10
-47.0932951601
 20
-122.4526057735
 10
-47.1084490753
 20
-122.3918053772
 10
-47.1258670671
 20
-122.3305041196
 10
-47.14541976
 20
-122.2691573269
 10
-47.1671230493
 20
-122.20776466
 10
-47.1909610398
 20
-122.146326458
 10
-47.2167566705
 20
-122.0852990642
 10
-47.2445245182
 20
-122.0246855374
 10
-47.2742500062
 20
-121.9644828189
 10
-47.3057123429
 20
-121.9051380751
 10
-47.3389244612
 20
-121.8466576946
 10
-47.3738734283
 20
-121.7890352889
 10
-47.4102996544
 20
-121.7326988586
 10
-47.4482141395
 20
-121.6776579794
 10
-47.4876058836
 20
-121.6239030757
 10
-47.5281822975
 20
-121.5718334217
 10
-47.5699522023
 20
-121.5214615661
 10
-47.6129067769
 20
-121.4727749602
 10
-47.6567269685
 20
-121.4261352325
 10
-47.7014192224
 20
-121.3815576245
 10
-47.7469770934
 20
-121.3390268947
 10
-47.7930621919
 20
-121.2988589478
 10
-47.8396784439
 20
-121.2610713774
 10
-47.8868219236
 20
-121.22564659
 10
-47.9341424642
 20
-121.1928477094
 10
-47.9816413843
 20
-121.1626942886
 10
-48.0293173652
 20
-121.1351667747
 10
-48.0768162853
 20
-121.1104696333
 10
-48.1241368259
 20
-121.0886239396
 10
-48.1712803056
 20
-121.0696086185
 10
-48.2178965576
 20
-121.0535649095
 10
-48.2639816562
 20
-121.0405149397
 10
-48.3095395271
 20
-121.0304365821
 10
-48.3542317811
 20
-121.0234046955
 10
-48.3980519726
 20
-121.0194419643
 10
-48.4410065472
 20
-121.0185257042
 10
-48.4827764521
 20
-121.0206627207
 10
-48.5233528659
 20
-121.025875749
 10
-48.56274461
 20
-121.034142054
 10
-48.6006590951
 20
-121.0454002363
 10
-48.6370853212
 20
-121.0596725737
 10
-48.6720342883
 20
-121.0769367882
 10
-48.6805075443
 20
-121.0817037129
  0
LWPOLYLINE
  5
2A4
100
AcDbEntity
  8
ASSI
100
AcDbPolyline
 62
7
  6
CONTINUOUS
 90
55
 70
0
 10
-48.0054793748
 20
-113.269638428
 10
-48.0039411489
 20
-113.3509105114
 10
-47.9994041015
 20
-113.4334582129
 10
-47.9918682325
 20
-113.5172815326
 10
-47.9813078129
 20
-113.6025446808
 10
-47.9677485717
 20
-113.6890834472
 10
-47.9512676963
 20
-113.7764052009
 10
-47.9318485235
 20
-113.8645144076
 10
-47.9095077164
 20
-113.9534066016
 10
-47.8843724526
 20
-114.042575755
 10
-47.8564267939
 20
-114.1320234473
 10
-47.8256866784
 20
-114.2217480989
 10
-47.7923270974
 20
-114.311238943
 10
-47.7563331109
 20
-114.400494646
 10
-47.7177196589
 20
-114.4895165415
 10
-47.6767065524
 20
-114.5777978632
 10
-47.6332801051
 20
-114.6653343872
 10
-47.5874540034
 20
-114.7521303373
 10
-47.5394891171
 20
-114.8376916186
 10
-47.4893732477
 20
-114.9220111894
 10
-47.4371185936
 20
-115.0050960913
 10
-47.3830226199
 20
-115.0864733551
 10
-47.3270748247
 20
-115.1661332413
 10
-47.2692857099
 20
-115.2440854894
 10
-47.2099842459
 20
-115.3198863481
 10
-47.1491618073
 20
-115.3935235471
 10
-47.0868270195
 20
-115.4650093567
 10
-47.0233347297
 20
-115.5339368366
 10
-46.9586783364
 20
-115.6002913955
 10
-46.8928644411
 20
-115.6640876246
 10
-46.8262676963
 20
-115.7249623574
 10
-46.7588836371
 20
-115.7828989312
 10
-46.6907167284
 20
-115.8379140087
 10
-46.6221550173
 20
-115.8896944108
 10
-46.5531962521
 20
-115.9382216888
 10
-46.4838426846
 20
-115.9835142914
 10
-46.4144891171
 20
-116.0253143858
 10
-46.3451355496
 20
-116.0636020528
 10
-46.2757819821
 20
-116.0983972115
 10
-46.2068232169
 20
-116.129501787
 10
-46.1382615058
 20
-116.1568947303
 10
-46.0700945971
 20
-116.1805970904
 10
-46.0027105378
 20
-116.2004739391
 10
-45.936113793
 20
-116.2165034579
 10
-45.8702998978
 20
-116.2287074653
 10
-45.8056435044
 20
-116.2370164888
 10
-45.7421512147
 20
-116.2414083136
 10
-45.6798164269
 20
-116.2419051545
 10
-45.6189939883
 20
-116.2385041831
 10
-45.5596925243
 20
-116.2311831685
 10
-45.5019034095
 20
-116.2199643417
 10
-45.4459556143
 20
-116.204911567
 10
-45.3918596406
 20
-116.1860029777
 10
-45.3396049865
 20
-116.1632604404
 10
-45.2894347568
 20
-116.1367820356
  0
LWPOLYLINE
  5
2A5
100
AcDbEntity
  8
ASSI
100
AcDbPolyline
 62
7
  6
CONTINUOUS
 90
40
 70
0
 10
-46.5912658124
 20
-112.4530892414
 10
-46.5897275865
 20
-112.5343613247
 10
-46.5851905391
 20
-112.6169090263
 10
-46.5776546702
 20
-112.700732346
 10
-46.5670942505
 20
-112.7859954941
 10
-46.5535350093
 20
-112.8725342605
 10
-46.537054134
 20
-112.9598560142
 10
-46.5176349611
 20
-113.0479652209
 10
-46.4952941541
 20
-113.136857415
 10
-46.4701588902
 20
-113.2260265683
 10
-46.4422132315
 20
-113.3154742606
 10
-46.4114731161
 20
-113.4051989122
 10
-46.378113535
 20
-113.4946897563
 10
-46.3421195485
 20
-113.5839454593
 10
-46.3035060965
 20
-113.6729673549
 10
-46.26249299
 20
-113.7612486765
 10
-46.2190665428
 20
-113.8487852005
 10
-46.1732404411
 20
-113.9355811506
 10
-46.1252755547
 20
-114.021142432
 10
-46.0751596853
 20
-114.1054620027
 10
-46.0229050312
 20
-114.1885469047
 10
-45.9688090575
 20
-114.2699241685
 10
-45.9128612623
 20
-114.3495840547
 10
-45.8550721475
 20
-114.4275363028
 10
-45.7957706835
 20
-114.5033371614
 10
-45.7349482449
 20
-114.5769743604
 10
-45.6726134571
 20
-114.6484601701
 10
-45.6091211674
 20
-114.7173876499
 10
-45.544464774
 20
-114.7837422088
 10
-45.4786508788
 20
-114.8475384379
 10
-45.412054134
 20
-114.9084131707
 10
-45.3446700747
 20
-114.9663497446
 10
-45.276503166
 20
-115.021364822
 10
-45.2079414549
 20
-115.0731452241
 10
-45.1389826897
 20
-115.1216725021
 10
-45.0696291222
 20
-115.1669651047
 10
-45.0002755547
 20
-115.2087651992
 10
-44.9309219872
 20
-115.2470528661
 10
-44.8615684197
 20
-115.2818480248
 10
-44.8327029755
 20
-115.2948680867
  0
LWPOLYLINE
  5
2A6
100
AcDbEntity
  8
ASSI
100
AcDbPolyline
 62
7
  6
CONTINUOUS
 90
55
 70
0
 10
-44.8234988594
 20
-113.065698406
 10
-44.8250370853
 20
-112.9844263227
 10
-44.8295741327
 20
-112.9018786212
 10
-44.8371100016
 20
-112.8180553015
 10
-44.8476704213
 20
-112.7327921533
 10
-44.8612296625
 20
-112.6462533869
 10
-44.8777105378
 20
-112.5589316332
 10
-44.8971297107
 20
-112.4708224265
 10
-44.9194705177
 20
-112.3819302325
 10
-44.9446057816
 20
-112.2927610791
 10
-44.9725514403
 20
-112.2033133868
 10
-45.0032915557
 20
-112.1135887352
 10
-45.0366511368
 20
-112.0240978911
 10
-45.0726451233
 20
-111.9348421881
 10
-45.1112585753
 20
-111.8458202925
 10
-45.1522716818
 20
-111.7575389709
 10
-45.195698129
 20
-111.6700024469
 10
-45.2415242307
 20
-111.5832064968
 10
-45.2894891171
 20
-111.4976452154
 10
-45.3396049865
 20
-111.4133256447
 10
-45.3918596406
 20
-111.3302407428
 10
-45.4459556143
 20
-111.248863479
 10
-45.5019034095
 20
-111.1692035927
 10
-45.5596925243
 20
-111.0912513447
 10
-45.6189939883
 20
-111.015450486
 10
-45.6798164269
 20
-110.941813287
 10
-45.7421512147
 20
-110.8703274774
 10
-45.8056435044
 20
-110.8013999975
 10
-45.8702998978
 20
-110.7350454386
 10
-45.936113793
 20
-110.6712492095
 10
-46.0027105378
 20
-110.6103744767
 10
-46.0700945971
 20
-110.5524379029
 10
-46.1382615058
 20
-110.4974228254
 10
-46.2068232169
 20
-110.4456424233
 10
-46.2757819821
 20
-110.3971151453
 10
-46.3451355496
 20
-110.3518225427
 10
-46.4144891171
 20
-110.3100224483
 10
-46.4838426846
 20
-110.2717347813
 10
-46.5531962521
 20
-110.2369396226
 10
-46.6221550173
 20
-110.2058350471
 10
-46.6907167284
 20
-110.1784421038
 10
-46.7588836371
 20
-110.1547397437
 10
-46.8262676963
 20
-110.134862895
 10
-46.8928644411
 20
-110.1188333762
 10
-46.9586783364
 20
-110.1066293687
 10
-47.0233347297
 20
-110.0983203452
 10
-47.0868270195
 20
-110.0939285204
 10
-47.1491618073
 20
-110.0934316796
 10
-47.2099842459
 20
-110.096832651
 10
-47.2692857099
 20
-110.1041536655
 10
-47.3270748247
 20
-110.1153724923
 10
-47.3830226199
 20
-110.1304252671
 10
-47.4371185936
 20
-110.1493338564
 10
-47.4893732477
 20
-110.1720763936
 10
-47.5395434774
 20
-110.1985547985
  0
LINE
  5
2A7
100
AcDbEntity
  8
0
100
AcDbLine
 62
7
  6
CONTINUOUS
 10
-56.8443141396
 20
-101.2262086587
 11
-56.8443141396
 21
-82.514593434
  0
LINE
  5
2A8
100
AcDbEntity
  8
0
100
AcDbLine
 62
7
  6
CONTINUOUS
 10
-56.8443141396
 20
-76.9914873241
 11
-56.8443141396
 21
39.9559480849
  0
LINE
  5
2A9
100
AcDbEntity
  8
0
100
AcDbLine
 62
7
  6
CONTINUOUS
 10
-56.8443141396
 20
45.4790541948
 11
-56.8443141396
 21
162.4264896038
  0
LINE
  5
2AA
100
AcDbEntity
  8
0
100
AcDbLine
 62
7
  6
CONTINUOUS
 10
-56.8443141396
 20
167.9495957138
 11
-56.8443141396
 21
178.8230962812
  0
LINE
  5
2AB
100
AcDbEntity
  8
0
100
AcDbLine
 62
7
  6
CONTINUOUS
 10
-55.4301005772
 20
-100.409659472
 11
-55.4301005772
 21
-81.9049439555
  0
LINE
  5
2AC
100
AcDbEntity
  8
0
100
AcDbLine
 62
7
  6
CONTINUOUS
 10
-55.4301005772
 20
-76.1749381374
 11
-55.4301005772
 21
40.5655975635
  0
LINE
  5
2AD
100
AcDbEntity
  8
0
100
AcDbLine
 62
7
  6
CONTINUOUS
 10
-55.4301005772
 20
46.2956033815
 11
-55.4301005772
 21
163.0361390824
  0
LINE
  5
2AE
100
AcDbEntity
  8
0
100
AcDbLine
 62
7
  6
CONTINUOUS
 10
-55.4301005772
 20
168.7661449004
 11
-55.4301005772
 21
178.0494576344
  0
LINE
  5
2AF
100
AcDbEntity
  8
RACCORDO
100
AcDbLine
 62
7
  6
CONTINUOUS
 10
-54.6664252535
 20
177.5578156196
 11
-54.6664252535
 21
167.4409906628
  0
LINE
  5
2B0
100
AcDbEntity
  8
RACCORDO
100
AcDbLine
 62
7
  6
CONTINUOUS
 10
-54.6664252535
 20
163.4770756432
 11
-54.6664252535
 21
44.9704491438
  0
LINE
  5
2B1
100
AcDbEntity
  8
RACCORDO
100
AcDbLine
 62
7
  6
CONTINUOUS
 10
-54.6664252535
 20
41.0065341242
 11
-54.6664252535
 21
-77.5000923751
  0
LINE
  5
2B2
100
AcDbEntity
  8
RACCORDO
100
AcDbLine
 62
7
  6
CONTINUOUS
 10
-54.6664252535
 20
-81.4640073947
 11
-54.6664252535
 21
-101.6670663096
  0
LINE
  5
2B3
100
AcDbEntity
  8
ASSI
100
AcDbLine
 62
7
  6
CONTINUOUS
 10
-48.0054793748
 20
-113.269638428
 11
-48.0054793748
 21
-111.2284627361
  0
LINE
  5
2B4
100
AcDbEntity
  8
ASSI
100
AcDbLine
 62
7
  6
CONTINUOUS
 10
-46.5912658124
 20
-112.4530892414
 11
-46.5912658124
 21
-110.4119135494
  0
LINE
  5
2B5
100
AcDbEntity
  8
ASSI
100
AcDbLine
 62
7
  6
CONTINUOUS
 10
-44.8234988594
 20
-113.065698406
 11
-44.8234988594
 21
-115.106874098
  0
LWPOLYLINE
  5
2B6
100
AcDbEntity
  8
0
100
AcDbPolyline
 62
7
  6
CONTINUOUS
 90
16
 70
0
 10
-56.8443141396
 20
-82.514593434
 10
-56.8432337818
 20
-82.4704295569
 10
-56.840077253
 20
-82.4278607612
 10
-56.8348445533
 20
-82.386887047
 10
-56.8275077527
 20
-82.3473959702
 10
-56.818094781
 20
-82.309499975
 10
-56.8066894282
 20
-82.2735363931
 10
-56.7932739061
 20
-82.2395224773
 10
-56.7778660029
 20
-82.207440975
 10
-56.7606028721
 20
-82.1775774603
 10
-56.7414679504
 20
-82.1499517353
 10
-56.7204778013
 20
-82.124543998
 10
-56.697819269
 20
-82.1015804158
 10
-56.6734774581
 20
-82.0810828101
 10
-56.647467264
 20
-82.0630293596
 10
-56.6372278854
 20
-82.0568628626
  0
LWPOLYLINE
  5
2B7
100
AcDbEntity
  8
0
100
AcDbPolyline
 62
253
  6
CONTINUOUS
 90
19
 70
0
 10
81.748614973
 20
112.6813496043
 10
81.8391266398
 20
112.7359414281
 10
81.9254279588
 20
112.7927608549
 10
82.0073546503
 20
112.8516997257
 10
82.0847507623
 20
112.9126458471
 10
82.1574689669
 20
112.9754832046
 10
82.2253708408
 20
113.0400921837
 10
82.288327129
 20
113.1063497977
 10
82.3462179905
 20
113.1741299213
 10
82.398933227
 20
113.2433035312
 10
82.4463724918
 20
113.3137389516
 10
82.4884454817
 20
113.3853021046
 10
82.5250721083
 20
113.4578567657
 10
82.5561826508
 20
113.5312648229
 10
82.5817178885
 20
113.6053865399
 10
82.6016292135
 20
113.6800808218
 10
82.6158787237
 20
113.7552054837
 10
82.6244392942
 20
113.8306175216
 10
82.6272946294
 20
113.9061733843
  0
LINE
  5
2B8
100
AcDbEntity
  8
ASSI
100
AcDbLine
 62
253
  6
CONTINUOUS
 10
81.748614973
 20
112.6813496043
 11
65.8387123963
 21
103.4951712545
  0
LWPOLYLINE
  5
2B9
100
AcDbEntity
  8
0
100
AcDbPolyline
 62
7
  6
CONTINUOUS
 90
18
 70
0
 10
23.5057258501
 20
-146.5092160946
 10
23.5297429665
 20
-146.554652472
 10
23.5550675523
 20
-146.5992953857
 10
23.5817736098
 20
-146.6432588763
 10
23.6097871368
 20
-146.6864289032
 10
23.6388861263
 20
-146.7284633442
 10
23.6690792032
 20
-146.7693531759
 10
23.7003577426
 20
-146.8091074217
 10
23.7324738621
 20
-146.8474110295
 10
23.7654342173
 20
-146.8842524725
 10
23.7992321528
 20
-146.9196432774
 10
23.83359982
 20
-146.9533029725
 10
23.8685417462
 20
-146.9852178022
 10
23.9040534042
 20
-147.0154015221
 10
23.9398533643
 20
-147.0436149263
 10
23.9758478167
 20
-147.0697782795
 10
24.0121305714
 20
-147.093971317
 10
24.0487016282
 20
-147.1161940389
  0
LWPOLYLINE
  5
2BA
100
AcDbEntity
  8
0
100
AcDbPolyline
 62
7
  6
CONTINUOUS
 90
37
 70
0
 10
22.0915122877
 20
-147.3257652813
 10
22.0270133728
 20
-147.1942045497
 10
21.9829683258
 20
-147.1101798811
 10
21.9366674998
 20
-147.0274614342
 10
21.8879961844
 20
-146.9458683713
 10
21.83706909
 20
-146.8655815302
 10
21.7842303482
 20
-146.7871434246
 10
21.7294670131
 20
-146.7105665752
 10
21.6727920307
 20
-146.6358384614
 10
21.6145883702
 20
-146.5634640342
 10
21.5548456793
 20
-146.4934592342
 10
21.4935743103
 20
-146.4258081209
 10
21.4311882896
 20
-146.3609678245
 10
21.3676800687
 20
-146.298957381
 10
21.303057196
 20
-146.2397577543
 10
21.2377563433
 20
-146.1837689664
 10
21.1717729195
 20
-146.1310127624
 10
21.1051115156
 20
-146.0814673973
 10
21.0382225776
 20
-146.0354676582
 10
20.9711045646
 20
-145.9930375572
 10
20.9037590173
 20
-145.9541530823
 10
20.8366410042
 20
-145.9190769841
 10
20.7697520662
 20
-145.8878350542
 10
20.7030906624
 20
-145.8604015012
 10
20.6371072385
 20
-145.8369617012
 10
20.5718063859
 20
-145.8175427012
 10
20.5071835132
 20
-145.8021174544
 10
20.4436752923
 20
-145.7907901963
 10
20.3812892715
 20
-145.7835886798
 10
20.3200179026
 20
-145.780485152
 10
20.2602752117
 20
-145.78150059
 10
20.2020715512
 20
-145.7866628889
 10
20.1453965687
 20
-145.7959441537
 10
20.0906332337
 20
-145.8092816764
 10
20.0377944919
 20
-145.8267029275
 10
19.9868673975
 20
-145.8481804365
 10
19.9373834724
 20
-145.874037517
  0
LWPOLYLINE
  5
2BB
100
AcDbEntity
  8
0
100
AcDbPolyline
 62
7
  6
CONTINUOUS
 90
37
 70
0
 10
23.5057258501
 20
-146.5092160946
 10
23.4412269352
 20
-146.3776553631
 10
23.3971818881
 20
-146.2936306944
 10
23.3508810622
 20
-146.2109122476
 10
23.3022097467
 20
-146.1293191847
 10
23.2512826523
 20
-146.0490323435
 10
23.1984439106
 20
-145.9705942379
 10
23.1436805755
 20
-145.8940173886
 10
23.0870055931
 20
-145.8192892747
 10
23.0288019326
 20
-145.7469148476
 10
22.9690592417
 20
-145.6769100476
 10
22.9077878727
 20
-145.6092589343
 10
22.845401852
 20
-145.5444186379
 10
22.781893631
 20
-145.4824081943
 10
22.7172707584
 20
-145.4232085676
 10
22.6519699057
 20
-145.3672197798
 10
22.5859864818
 20
-145.3144635758
 10
22.519325078
 20
-145.2649182106
 10
22.45243614
 20
-145.2189184715
 10
22.3853181269
 20
-145.1764883706
 10
22.3179725797
 20
-145.1376038956
 10
22.2508545666
 20
-145.1025277975
 10
22.1839656286
 20
-145.0712858676
 10
22.1173042248
 20
-145.0438523145
 10
22.0513208009
 20
-145.0204125145
 10
21.9860199483
 20
-145.0009935146
 10
21.9213970756
 20
-144.9855682677
 10
21.8578888546
 20
-144.9742410096
 10
21.7955028339
 20
-144.9670394931
 10
21.734231465
 20
-144.9639359653
 10
21.6744887741
 20
-144.9649514034
 10
21.6162851135
 20
-144.9701137023
 10
21.5596101311
 20
-144.979394967
 10
21.504846796
 20
-144.9927324897
 10
21.4520080543
 20
-145.0101537408
 10
21.4010809599
 20
-145.0316312499
 10
21.3515970348
 20
-145.0574883304
  0
LWPOLYLINE
  5
2BC
100
AcDbEntity
  8
ASSI
100
AcDbPolyline
 62
7
  6
CONTINUOUS
 90
58
 70
0
 10
-30.5045865404
 20
-123.5785521821
 10
-30.5028559712
 20
-123.6738477906
 10
-30.4977448687
 20
-123.7706021654
 10
-30.4892532329
 20
-123.8688153064
 10
-30.4773543367
 20
-123.9686644238
 10
-30.4620749073
 20
-124.0699723074
 10
-30.4434951259
 20
-124.1722073269
 10
-30.4215976432
 20
-124.2753743562
 10
-30.3963998086
 20
-124.3794685212
 10
-30.3680338521
 20
-124.4839435703
 10
-30.3364831192
 20
-124.5888015057
 10
-30.3017642644
 20
-124.6940403251
 10
-30.2640594807
 20
-124.7991077698
 10
-30.2233530716
 20
-124.9040029391
 10
-30.1796607337
 20
-125.0087267337
 10
-30.1332117499
 20
-125.1127295977
 10
-30.0839916289
 20
-125.2160077413
 10
-30.0320148621
 20
-125.3185649544
 10
-29.9775542064
 20
-125.4198630504
 10
-29.9205966042
 20
-125.5198954104
 10
-29.8611551132
 20
-125.6186686534
 10
-29.7995416626
 20
-125.7156644499
 10
-29.7357448348
 20
-125.8108734562
 10
-29.6697760474
 20
-125.904305016
 10
-29.6019814829
 20
-125.9954688314
 10
-29.5323515434
 20
-126.084352981
 10
-29.4608958268
 20
-126.1709693862
 10
-29.3879893091
 20
-126.2548635126
 10
-29.3136243637
 20
-126.3360210496
 10
-29.2378086172
 20
-126.4144563077
 10
-29.1609399257
 20
-126.4897576846
 10
-29.083012754
 20
-126.5619087059
 10
-29.0040326373
 20
-126.6309258461
 10
-28.9244140372
 20
-126.6964469258
 10
-28.8441535973
 20
-126.7584535669
 10
-28.7632546739
 20
-126.8169641475
 10
-28.682141798
 20
-126.8716716235
 10
-28.6008138449
 20
-126.9225560025
 10
-28.5192719393
 20
-126.9696372769
 10
-28.4379439862
 20
-127.0126683796
 10
-28.3568311103
 20
-127.0516280195
 10
-28.275932187
 20
-127.0865374877
 10
-28.195671747
 20
-127.1172135909
 10
-28.1160531469
 20
-127.1436340748
 10
-28.0370730302
 20
-127.1658211938
 10
-27.9591458585
 20
-127.183658517
 10
-27.882277167
 20
-127.1971231782
 10
-27.8064614206
 20
-127.2062380437
 10
-27.7320964751
 20
-127.2109552817
 10
-27.6591899575
 20
-127.2112517745
 10
-27.5877342409
 20
-127.2071506397
 10
-27.5181043014
 20
-127.1986733988
 10
-27.4503097369
 20
-127.1857970473
 10
-27.3843409495
 20
-127.1685445895
 10
-27.3205441216
 20
-127.1470065609
 10
-27.258930671
 20
-127.1211604328
 10
-27.19948918
 20
-127.0910287337
 10
-27.184980961
 20
-127.0828310024
  0
LWPOLYLINE
  5
2BD
100
AcDbEntity
  8
ASSI
100
AcDbPolyline
 62
7
  6
CONTINUOUS
 90
45
 70
0
 10
-29.090372978
 20
-122.7620029954
 10
-29.0886424088
 20
-122.857298604
 10
-29.0835313063
 20
-122.9540529787
 10
-29.0750396705
 20
-123.0522661197
 10
-29.0631407744
 20
-123.1521152371
 10
-29.0478613449
 20
-123.2534231208
 10
-29.0292815635
 20
-123.3556581403
 10
-29.0073840808
 20
-123.4588251695
 10
-28.9821862462
 20
-123.5629193346
 10
-28.9538202897
 20
-123.6673943837
 10
-28.9222695568
 20
-123.7722523191
 10
-28.887550702
 20
-123.8774911384
 10
-28.8498459184
 20
-123.9825585832
 10
-28.8091395092
 20
-124.0874537524
 10
-28.7654471713
 20
-124.192177547
 10
-28.7189981875
 20
-124.2961804111
 10
-28.6697780665
 20
-124.3994585547
 10
-28.6178012997
 20
-124.5020157677
 10
-28.563340644
 20
-124.6033138637
 10
-28.5063830419
 20
-124.7033462237
 10
-28.4469415509
 20
-124.8021194667
 10
-28.3853281003
 20
-124.8991152632
 10
-28.3215312724
 20
-124.9943242695
 10
-28.255562485
 20
-125.0877558293
 10
-28.1877679205
 20
-125.1789196447
 10
-28.118137981
 20
-125.2678037944
 10
-28.0466822644
 20
-125.3544201996
 10
-27.9737757467
 20
-125.438314326
 10
-27.8994108013
 20
-125.5194718629
 10
-27.8235950549
 20
-125.597907121
 10
-27.7467263634
 20
-125.6732084979
 10
-27.6687991917
 20
-125.7453595193
 10
-27.589819075
 20
-125.8143766594
 10
-27.5102004748
 20
-125.8798977392
 10
-27.4299400349
 20
-125.9419043802
 10
-27.3490411115
 20
-126.0004149609
 10
-27.2679282357
 20
-126.0551224369
 10
-27.1866002826
 20
-126.1060068159
 10
-27.1050583769
 20
-126.1530880902
 10
-27.0237304238
 20
-126.1961191929
 10
-26.942617548
 20
-126.2350788328
 10
-26.8617186246
 20
-126.269988301
 10
-26.7814581847
 20
-126.3006644042
 10
-26.7018395846
 20
-126.3270848882
 10
-26.6737835809
 20
-126.3349663894
  0
LWPOLYLINE
  5
2BE
100
AcDbEntity
  8
ASSI
100
AcDbPolyline
 62
7
  6
CONTINUOUS
 90
58
 70
0
 10
-26.6154992439
 20
-123.7828867534
 10
-26.6172298131
 20
-123.6875911449
 10
-26.6223409156
 20
-123.5908367701
 10
-26.6308325513
 20
-123.4926236291
 10
-26.6427314475
 20
-123.3927745117
 10
-26.658010877
 20
-123.2914666281
 10
-26.6765906583
 20
-123.1892316086
 10
-26.6984881411
 20
-123.0860645794
 10
-26.7236859757
 20
-122.9819704143
 10
-26.7520519322
 20
-122.8774953652
 10
-26.7836026651
 20
-122.7726374298
 10
-26.8183215199
 20
-122.6673986104
 10
-26.8560263035
 20
-122.5623311657
 10
-26.8967327126
 20
-122.4574359964
 10
-26.9404250506
 20
-122.3527122018
 10
-26.9868740344
 20
-122.2487093378
 10
-27.0360941553
 20
-122.1454311942
 10
-27.0880709222
 20
-122.0428739811
 10
-27.1425315779
 20
-121.9415758851
 10
-27.19948918
 20
-121.8415435251
 10
-27.258930671
 20
-121.7427702822
 10
-27.3205441216
 20
-121.6457744856
 10
-27.3843409495
 20
-121.5505654794
 10
-27.4503097369
 20
-121.4571339195
 10
-27.5181043014
 20
-121.3659701042
 10
-27.5877342409
 20
-121.2770859545
 10
-27.6591899575
 20
-121.1904695493
 10
-27.7320964751
 20
-121.1065754229
 10
-27.8064614206
 20
-121.025417886
 10
-27.882277167
 20
-120.9469826279
 10
-27.9591458585
 20
-120.8716812509
 10
-28.0370730302
 20
-120.7995302296
 10
-28.1160531469
 20
-120.7305130894
 10
-28.195671747
 20
-120.6649920097
 10
-28.275932187
 20
-120.6029853686
 10
-28.3568311103
 20
-120.544474788
 10
-28.4379439862
 20
-120.489767312
 10
-28.5192719393
 20
-120.438882933
 10
-28.6008138449
 20
-120.3918016586
 10
-28.682141798
 20
-120.3487705559
 10
-28.7632546739
 20
-120.3098109161
 10
-28.8441535973
 20
-120.2749014478
 10
-28.9244140372
 20
-120.2442253446
 10
-29.0040326373
 20
-120.2178048607
 10
-29.083012754
 20
-120.1956177418
 10
-29.1609399257
 20
-120.1777804185
 10
-29.2378086172
 20
-120.1643157573
 10
-29.3136243637
 20
-120.1552008918
 10
-29.3879893091
 20
-120.1504836538
 10
-29.4608958268
 20
-120.150187161
 10
-29.5323515434
 20
-120.1542882958
 10
-29.6019814829
 20
-120.1627655367
 10
-29.6697760474
 20
-120.1756418883
 10
-29.7357448348
 20
-120.192894346
 10
-29.7995416626
 20
-120.2144323746
 10
-29.8611551132
 20
-120.2402785028
 10
-29.9205966042
 20
-120.2704102019
 10
-29.9351048233
 20
-120.2786079331
  0
LINE
  5
2BF
100
AcDbEntity
  8
ASSI
100
AcDbLine
 62
7
  6
CONTINUOUS
 10
-30.5045865404
 20
-123.5785521821
 11
-30.5045865404
 21
-121.5373764901
  0
LINE
  5
2C0
100
AcDbEntity
  8
ASSI
100
AcDbLine
 62
7
  6
CONTINUOUS
 10
-29.090372978
 20
-122.7620029954
 11
-29.090372978
 21
-120.7208273035
  0
LWPOLYLINE
  5
2C1
100
AcDbEntity
  8
ASSI
100
AcDbPolyline
 62
7
  6
CONTINUOUS
 90
4
 70
0
 10
-46.5820616963
 20
-110.2239195607
 10
-46.5851905391
 20
-110.2551093378
 10
-46.5897275865
 20
-110.3324177707
 10
-46.5912658124
 20
-110.4119135494
  0
LWPOLYLINE
  5
2C2
100
AcDbEntity
  8
0
100
AcDbPolyline
 62
7
  6
CONTINUOUS
 90
13
 70
0
 10
-61.7793939617
 20
-5.8876808034
 10
-61.797046039
 20
-5.8995600209
 10
-61.8639893829
 20
-5.9672980008
 10
-61.9095267622
 20
-6.0554264532
 10
-61.9309327267
 20
-6.1665415341
 10
-61.9309327267
 20
-6.2980470875
 10
-61.9095267622
 20
-6.4338812396
 10
-61.8639893829
 20
-6.5745951163
 10
-61.797046039
 20
-6.7196375916
 10
-61.7168730816
 20
-6.8512934141
 10
-61.6261959608
 20
-6.9636575
 10
-61.5222892263
 20
-7.0626349331
 10
-61.4051528782
 20
-7.1482257133
  0
LWPOLYLINE
  5
2C3
100
AcDbEntity
  8
0
100
AcDbPolyline
 62
7
  6
CONTINUOUS
 90
13
 70
0
 10
-61.0309117948
 20
-7.1840652081
 10
-61.0132597174
 20
-7.1721859905
 10
-60.9463163736
 20
-7.1044480107
 10
-60.9007789943
 20
-7.0163195583
 10
-60.8793730298
 20
-6.9052044774
 10
-60.8793730298
 20
-6.773698924
 10
-60.9007789943
 20
-6.6378647719
 10
-60.9463163736
 20
-6.4971508952
 10
-61.0132597174
 20
-6.3521084199
 10
-61.0934326749
 20
-6.2204525974
 10
-61.1841097957
 20
-6.1080885115
 10
-61.2880165302
 20
-6.0091110784
 10
-61.4051528782
 20
-5.9235202982
  0
LWPOLYLINE
  5
2C4
100
AcDbEntity
  8
ASSI
100
AcDbPolyline
 62
7
  6
CONTINUOUS
 90
11
 70
0
 10
-61.5498509619
 20
-5.0605593009
 10
-61.5745898242
 20
-5.075920235
 10
-61.606052161
 20
-5.098933061
 10
-61.6357776489
 20
-5.1248095311
 10
-61.6635454966
 20
-5.1533574433
 10
-61.6893411273
 20
-5.1845966894
 10
-61.7131791178
 20
-5.2185073775
 10
-61.7348824071
 20
-5.2548376299
 10
-61.7544351
 20
-5.2936054629
 10
-61.7718530918
 20
-5.3347928603
 10
-61.7837587725
 20
-5.3688123387
  0
LWPOLYLINE
  5
2C5
100
AcDbEntity
  8
0
100
AcDbPolyline
 62
7
  6
CONTINUOUS
 90
5
 70
0
 10
-61.4051528782
 20
-7.1482257133
 10
-61.2880165302
 20
-7.1979010517
 10
-61.1841097957
 20
-7.218912511
 10
-61.0934326749
 20
-7.2112600914
 10
-61.0309117948
 20
-7.1840652081
  0
LWPOLYLINE
  5
2C6
100
AcDbEntity
  8
0
100
AcDbPolyline
 62
7
  6
CONTINUOUS
 90
5
 70
0
 10
-61.4051528782
 20
-5.9235202982
 10
-61.5222892263
 20
-5.8738449598
 10
-61.6261959608
 20
-5.8528335004
 10
-61.7168730816
 20
-5.8604859201
 10
-61.7793939617
 20
-5.8876808034
  0
LWPOLYLINE
  5
2C7
100
AcDbEntity
  8
0
100
AcDbPolyline
 62
7
  6
CONTINUOUS
 90
15
 70
0
 10
-61.4051528782
 20
-7.5156373379
 10
-61.5592054805
 20
-7.4081964641
 10
-61.7006268368
 20
-7.2827870351
 10
-61.829416947
 20
-7.1394090511
 10
-61.948658049
 20
-6.9727239192
 10
-62.055267905
 20
-6.7880702322
 10
-62.1399998011
 20
-6.6014637684
 10
-62.2008996766
 20
-6.4127301126
 10
-62.2399215922
 20
-6.22204368
 10
-62.2536810157
 20
-6.0459434938
 10
-62.2399215922
 20
-5.8857323448
 10
-62.2008996766
 20
-5.7401074422
 10
-62.1399998011
 20
-5.6216994362
 10
-62.055267905
 20
-5.532939242
 10
-62.0041487496
 20
-5.4984485741
  0
LWPOLYLINE
  5
2C8
100
AcDbEntity
  8
0
100
AcDbPolyline
 62
7
  6
CONTINUOUS
 90
15
 70
0
 10
-61.4051528782
 20
-5.5561086736
 10
-61.2511002759
 20
-5.6635495474
 10
-61.1096789197
 20
-5.7889589763
 10
-60.9808888095
 20
-5.9323369604
 10
-60.8616477075
 20
-6.0990220923
 10
-60.7550378515
 20
-6.2836757793
 10
-60.6703059554
 20
-6.4702822431
 10
-60.6094060799
 20
-6.6590158989
 10
-60.5703841643
 20
-6.8497023315
 10
-60.5566247408
 20
-7.0258025177
 10
-60.5703841643
 20
-7.1860136667
 10
-60.6094060799
 20
-7.3316385693
 10
-60.6703059554
 20
-7.4500465753
 10
-60.7550378515
 20
-7.5388067695
 10
-60.8061570069
 20
-7.5732974374
  0
LWPOLYLINE
  5
2C9
100
AcDbEntity
  8
ASSI
100
AcDbPolyline
 62
7
  6
CONTINUOUS
 90
55
 70
0
 10
-12.2965869248
 20
-133.8875053911
 10
-12.295048699
 20
-133.9687774744
 10
-12.2905116516
 20
-134.051325176
 10
-12.2829757826
 20
-134.1351484957
 10
-12.272415363
 20
-134.2204116439
 10
-12.2588561218
 20
-134.3069504102
 10
-12.2423752464
 20
-134.3942721639
 10
-12.2229560736
 20
-134.4823813706
 10
-12.2006152665
 20
-134.5712735647
 10
-12.1754800027
 20
-134.660442718
 10
-12.147534344
 20
-134.7498904103
 10
-12.1167942285
 20
-134.8396150619
 10
-12.0834346475
 20
-134.929105906
 10
-12.047440661
 20
-135.0183616091
 10
-12.008827209
 20
-135.1073835046
 10
-11.9678141025
 20
-135.1956648262
 10
-11.9243876552
 20
-135.2832013502
 10
-11.8785615535
 20
-135.3699973003
 10
-11.8305966672
 20
-135.4555585817
 10
-11.7804807977
 20
-135.5398781524
 10
-11.7282261437
 20
-135.6229630544
 10
-11.67413017
 20
-135.7043403182
 10
-11.6181823748
 20
-135.7840002044
 10
-11.56039326
 20
-135.8619524525
 10
-11.501091796
 20
-135.9377533111
 10
-11.4402693573
 20
-136.0113905101
 10
-11.3779345695
 20
-136.0828763198
 10
-11.3144422798
 20
-136.1518037996
 10
-11.2497858865
 20
-136.2181583585
 10
-11.1839719912
 20
-136.2819545876
 10
-11.1173752464
 20
-136.3428293204
 10
-11.0499911872
 20
-136.4007658943
 10
-10.9818242784
 20
-136.4557809717
 10
-10.9132625674
 20
-136.5075613739
 10
-10.8443038022
 20
-136.5560886518
 10
-10.7749502347
 20
-136.6013812545
 10
-10.7055966672
 20
-136.6431813489
 10
-10.6362430997
 20
-136.6814690158
 10
-10.5668895321
 20
-136.7162641746
 10
-10.497930767
 20
-136.7473687501
 10
-10.4293690559
 20
-136.7747616934
 10
-10.3612021471
 20
-136.7984640534
 10
-10.2938180879
 20
-136.8183409021
 10
-10.2272213431
 20
-136.8343704209
 10
-10.1614074479
 20
-136.8465744284
 10
-10.0967510545
 20
-136.8548834519
 10
-10.0332587648
 20
-136.8592752767
 10
-9.970923977
 20
-136.8597721175
 10
-9.9101015383
 20
-136.8563711461
 10
-9.8508000744
 20
-136.8490501316
 10
-9.7930109595
 20
-136.8378313048
 10
-9.7370631644
 20
-136.82277853
 10
-9.6829671907
 20
-136.8038699407
 10
-9.6307125366
 20
-136.7811274035
 10
-9.5805423069
 20
-136.7546489986
  0
LWPOLYLINE
  5
2CA
100
AcDbEntity
  8
ASSI
100
AcDbPolyline
 62
7
  6
CONTINUOUS
 90
40
 70
0
 10
-10.8823733625
 20
-133.0709562044
 10
-10.8808351366
 20
-133.1522282878
 10
-10.8762980892
 20
-133.2347759893
 10
-10.8687622203
 20
-133.318599309
 10
-10.8582018006
 20
-133.4038624572
 10
-10.8446425594
 20
-133.4904012236
 10
-10.828161684
 20
-133.5777229773
 10
-10.8087425112
 20
-133.665832184
 10
-10.7864017041
 20
-133.754724378
 10
-10.7612664403
 20
-133.8438935314
 10
-10.7333207816
 20
-133.9333412237
 10
-10.7025806661
 20
-134.0230658753
 10
-10.6692210851
 20
-134.1125567193
 10
-10.6332270986
 20
-134.2018124224
 10
-10.5946136466
 20
-134.2908343179
 10
-10.5536005401
 20
-134.3791156396
 10
-10.5101740929
 20
-134.4666521636
 10
-10.4643479912
 20
-134.5534481137
 10
-10.4163831048
 20
-134.639009395
 10
-10.3662672354
 20
-134.7233289658
 10
-10.3140125813
 20
-134.8064138677
 10
-10.2599166076
 20
-134.8877911315
 10
-10.2039688124
 20
-134.9674510177
 10
-10.1461796976
 20
-135.0454032658
 10
-10.0868782336
 20
-135.1212041245
 10
-10.026055795
 20
-135.1948413235
 10
-9.9637210072
 20
-135.2663271331
 10
-9.9002287175
 20
-135.335254613
 10
-9.8355723241
 20
-135.4016091719
 10
-9.7697584288
 20
-135.465405401
 10
-9.703161684
 20
-135.5262801337
 10
-9.6357776248
 20
-135.5842167076
 10
-9.5676107161
 20
-135.6392317851
 10
-9.499049005
 20
-135.6910121872
 10
-9.4300902398
 20
-135.7395394652
 10
-9.3607366723
 20
-135.7848320678
 10
-9.2913831048
 20
-135.8266321622
 10
-9.2220295373
 20
-135.8649198292
 10
-9.1526759698
 20
-135.8997149879
 10
-9.1238105256
 20
-135.9127350498
  0
LINE
  5
2CB
100
AcDbEntity
  8
ASSI
100
AcDbLine
 62
7
  6
CONTINUOUS
 10
-26.6154992439
 20
-123.7828867534
 11
-26.6154992439
 21
-125.8240624454
  0
LWPOLYLINE
  5
2CC
100
AcDbEntity
  8
ASSI
100
AcDbPolyline
 62
7
  6
CONTINUOUS
 90
17
 70
0
 10
-60.1997946228
 20
-7.3987748206
 10
-60.1750557605
 20
-7.3834138865
 10
-60.1435934237
 20
-7.3604010605
 10
-60.1138679358
 20
-7.3345245904
 10
-60.0861000881
 20
-7.3059766782
 10
-60.0603044574
 20
-7.2747374321
 10
-60.0364664669
 20
-7.240826744
 10
-60.0147631776
 20
-7.2044964916
 10
-59.9952104847
 20
-7.1657286586
 10
-59.9777924929
 20
-7.1245412612
 10
-59.9626385776
 20
-7.0812402264
 10
-59.9497655974
 20
-7.0358098157
 10
-59.9391566936
 20
-6.9882657675
 10
-59.9308906657
 20
-6.9389612238
 10
-59.9249937804
 20
-6.8880138986
 10
-59.9214397711
 20
-6.8353060779
 10
-59.9202286377
 20
-6.7808377617
  0
LINE
  5
2CD
100
AcDbEntity
  8
0
100
AcDbLine
 62
7
  6
CONTINUOUS
 10
-62.0051818704
 20
-5.4966592604
 11
-61.1660200125
 21
-5.0121377208
  0
LINE
  5
2CE
100
AcDbEntity
  8
0
100
AcDbLine
 62
7
  6
CONTINUOUS
 10
-60.8051238861
 20
-7.5750867511
 11
-59.9658868122
 21
-7.0905217828
  0
LWPOLYLINE
  5
2CF
100
AcDbEntity
  8
0
100
AcDbPolyline
 62
7
  6
CONTINUOUS
 90
6
 70
0
 10
-62.0041487496
 20
-5.4984485741
 10
-61.948658049
 20
-5.4713959445
 10
-61.829416947
 20
-5.4424074484
 10
-61.7006268368
 20
-5.4477530553
 10
-61.5592054805
 20
-5.4856534637
 10
-61.4051528782
 20
-5.5561086736
  0
LWPOLYLINE
  5
2D0
100
AcDbEntity
  8
0
100
AcDbPolyline
 62
7
  6
CONTINUOUS
 90
6
 70
0
 10
-60.8061570069
 20
-7.5732974374
 10
-60.8616477075
 20
-7.600350067
 10
-60.9808888095
 20
-7.6293385631
 10
-61.1096789197
 20
-7.6239929562
 10
-61.2511002759
 20
-7.5860925478
 10
-61.4051528782
 20
-7.5156373379
  0
LWPOLYLINE
  5
2D1
100
AcDbEntity
  8
0
100
AcDbPolyline
 62
7
  6
CONTINUOUS
 90
4
 70
0
 10
70.0106424053
 20
-28.5134831147
 10
69.9831743228
 20
-28.5109038675
 10
69.946833522
 20
-28.5048582277
 10
69.9096271508
 20
-28.4960980648
  0
LWPOLYLINE
  5
2D2
100
AcDbEntity
  8
ASSI
100
AcDbPolyline
 62
7
  6
CONTINUOUS
 90
12
 70
0
 10
-60.5836255722
 20
-7.4471964007
 10
-60.57076264
 20
-7.4500419514
 10
-60.5260703861
 20
-7.457073838
 10
-60.4822501945
 20
-7.4610365692
 10
-60.4392956199
 20
-7.4619528293
 10
-60.397525715
 20
-7.4598158128
 10
-60.3569493012
 20
-7.4546027845
 10
-60.3175575571
 20
-7.4463364795
 10
-60.279643072
 20
-7.4350782972
 10
-60.2432168459
 20
-7.4208059599
 10
-60.2082678788
 20
-7.4035417453
 10
-60.1997946228
 20
-7.3987748206
  0
LWPOLYLINE
  5
2D3
100
AcDbEntity
  8
0
100
AcDbPolyline
 62
7
  6
CONTINUOUS
 90
18
 70
0
 10
65.9321327213
 20
-171.0056916943
 10
65.9561498377
 20
-171.0511280717
 10
65.9814744235
 20
-171.0957709853
 10
66.008180481
 20
-171.139734476
 10
66.036194008
 20
-171.1829045029
 10
66.0652929975
 20
-171.2249389438
 10
66.0954860744
 20
-171.2658287755
 10
66.1267646137
 20
-171.3055830213
 10
66.1588807333
 20
-171.3438866291
 10
66.1918410885
 20
-171.3807280721
 10
66.225639024
 20
-171.4161188771
 10
66.2600066912
 20
-171.4497785721
 10
66.2949486174
 20
-171.4816934019
 10
66.3304602753
 20
-171.5118771218
 10
66.3662602355
 20
-171.5400905259
 10
66.4022546879
 20
-171.5662538792
 10
66.4385374426
 20
-171.5904469167
 10
66.4751084993
 20
-171.6126696385
  0
LWPOLYLINE
  5
2D4
100
AcDbEntity
  8
0
100
AcDbPolyline
 62
7
  6
CONTINUOUS
 90
37
 70
0
 10
64.5179191589
 20
-171.822240881
 10
64.453420244
 20
-171.6906801494
 10
64.409375197
 20
-171.6066554807
 10
64.363074371
 20
-171.5239370339
 10
64.3144030556
 20
-171.442343971
 10
64.2634759612
 20
-171.3620571299
 10
64.2106372194
 20
-171.2836190242
 10
64.1558738843
 20
-171.2070421749
 10
64.0991989019
 20
-171.132314061
 10
64.0409952414
 20
-171.0599396339
 10
63.9812525505
 20
-170.9899348339
 10
63.9199811815
 20
-170.9222837206
 10
63.8575951608
 20
-170.8574434242
 10
63.7940869399
 20
-170.7954329806
 10
63.7294640672
 20
-170.7362333539
 10
63.6641632145
 20
-170.6802445661
 10
63.5981797907
 20
-170.6274883621
 10
63.5315183868
 20
-170.577942997
 10
63.4646294488
 20
-170.5319432578
 10
63.3975114358
 20
-170.4895131569
 10
63.3301658885
 20
-170.4506286819
 10
63.2630478754
 20
-170.4155525838
 10
63.1961589374
 20
-170.3843106539
 10
63.1294975336
 20
-170.3568771008
 10
63.0635141097
 20
-170.3334373009
 10
62.9982132571
 20
-170.3140183009
 10
62.9335903844
 20
-170.2985930541
 10
62.8700821634
 20
-170.2872657959
 10
62.8076961427
 20
-170.2800642794
 10
62.7464247738
 20
-170.2769607516
 10
62.6866820829
 20
-170.2779761897
 10
62.6284784224
 20
-170.2831384886
 10
62.5718034399
 20
-170.2924197533
 10
62.5170401049
 20
-170.305757276
 10
62.4642013631
 20
-170.3231785271
 10
62.4132742687
 20
-170.3446560362
 10
62.3637903436
 20
-170.3705131167
  0
LWPOLYLINE
  5
2D5
100
AcDbEntity
  8
0
100
AcDbPolyline
 62
7
  6
CONTINUOUS
 90
37
 70
0
 10
65.9321327213
 20
-171.0056916943
 10
65.8676338063
 20
-170.8741309627
 10
65.8235887593
 20
-170.7901062941
 10
65.7772879334
 20
-170.7073878472
 10
65.7286166179
 20
-170.6257947843
 10
65.6776895235
 20
-170.5455079432
 10
65.6248507818
 20
-170.4670698376
 10
65.5700874467
 20
-170.3904929882
 10
65.5134124643
 20
-170.3157648744
 10
65.4552088038
 20
-170.2433904472
 10
65.3954661129
 20
-170.1733856472
 10
65.3341947439
 20
-170.1057345339
 10
65.2718087232
 20
-170.0408942375
 10
65.2083005022
 20
-169.978883794
 10
65.1436776295
 20
-169.9196841673
 10
65.0783767769
 20
-169.8636953794
 10
65.012393353
 20
-169.8109391754
 10
64.9457319492
 20
-169.7613938103
 10
64.8788430112
 20
-169.7153940712
 10
64.8117249981
 20
-169.6729639702
 10
64.7443794509
 20
-169.6340794953
 10
64.6772614378
 20
-169.5990033971
 10
64.6103724998
 20
-169.5677614673
 10
64.543711096
 20
-169.5403279142
 10
64.4777276721
 20
-169.5168881142
 10
64.4124268195
 20
-169.4974691142
 10
64.3478039468
 20
-169.4820438674
 10
64.2842957258
 20
-169.4707166093
 10
64.2219097051
 20
-169.4635150928
 10
64.1606383361
 20
-169.460411565
 10
64.1008956452
 20
-169.461427003
 10
64.0426919847
 20
-169.4665893019
 10
63.9860170023
 20
-169.4758705667
 10
63.9312536672
 20
-169.4892080894
 10
63.8784149255
 20
-169.5066293405
 10
63.8274878311
 20
-169.5281068495
 10
63.778003906
 20
-169.5539639301
  0
LWPOLYLINE
  5
2D6
100
AcDbEntity
  8
ASSI
100
AcDbPolyline
 62
7
  6
CONTINUOUS
 90
49
 70
0
 10
-8.1600122549
 20
-145.2570848068
 10
-8.1612233882
 20
-145.2012179042
 10
-8.1647773976
 20
-145.1444060026
 10
-8.1706742829
 20
-145.086649102
 10
-8.1789403107
 20
-145.0277991566
 10
-8.1895492145
 20
-144.9680042122
 10
-8.2024221948
 20
-144.9077084066
 10
-8.2175761101
 20
-144.8469080102
 10
-8.2349941018
 20
-144.7856067526
 10
-8.2545467947
 20
-144.7242599599
 10
-8.276250084
 20
-144.662867293
 10
-8.3000880745
 20
-144.601429091
 10
-8.3258837052
 20
-144.5404016972
 10
-8.353651553
 20
-144.4797881705
 10
-8.3833770409
 20
-144.419585452
 10
-8.4148393776
 20
-144.3602407082
 10
-8.4480514959
 20
-144.3017603277
 10
-8.483000463
 20
-144.2441379219
 10
-8.5194266892
 20
-144.1878014916
 10
-8.5573411742
 20
-144.1327606124
 10
-8.5967329183
 20
-144.0790057087
 10
-8.6373093322
 20
-144.0269360547
 10
-8.679079237
 20
-143.9765641991
 10
-8.7220338116
 20
-143.9278775932
 10
-8.7658540032
 20
-143.8812378655
 10
-8.8105462572
 20
-143.8366602575
 10
-8.8561041281
 20
-143.7941295277
 10
-8.9021892267
 20
-143.7539615808
 10
-8.9488054787
 20
-143.7161740104
 10
-8.9959489583
 20
-143.680749223
 10
-9.043269499
 20
-143.6479503424
 10
-9.090768419
 20
-143.6177969216
 10
-9.1384444
 20
-143.5902694077
 10
-9.18594332
 20
-143.5655722663
 10
-9.2332638606
 20
-143.5437265727
 10
-9.2804073403
 20
-143.5247112515
 10
-9.3270235923
 20
-143.5086675425
 10
-9.3731086909
 20
-143.4956175727
 10
-9.4186665618
 20
-143.4855392151
 10
-9.4633588158
 20
-143.4785073285
 10
-9.5071790073
 20
-143.4745445974
 10
-9.550133582
 20
-143.4736283372
 10
-9.5919034868
 20
-143.4757653538
 10
-9.6324799007
 20
-143.4809783821
 10
-9.6718716448
 20
-143.4892446871
 10
-9.7097861298
 20
-143.5005028693
 10
-9.746212356
 20
-143.5147752067
 10
-9.7811613231
 20
-143.5320394213
 10
-9.7896345791
 20
-143.5368063459
  0
LWPOLYLINE
  5
2D7
100
AcDbEntity
  8
ASSI
100
AcDbPolyline
 62
7
  6
CONTINUOUS
 90
55
 70
0
 10
-9.1146064095
 20
-133.6835653691
 10
-9.1161446353
 20
-133.6022932857
 10
-9.1206816827
 20
-133.5197455842
 10
-9.1282175517
 20
-133.4359222645
 10
-9.1387779713
 20
-133.3506591163
 10
-9.1523372125
 20
-133.26412035
 10
-9.1688180879
 20
-133.1767985963
 10
-9.1882372608
 20
-133.0886893895
 10
-9.2105780678
 20
-132.9997971955
 10
-9.2357133317
 20
-132.9106280422
 10
-9.2636589903
 20
-132.8211803499
 10
-9.2943991058
 20
-132.7314556983
 10
-9.3277586868
 20
-132.6419648542
 10
-9.3637526733
 20
-132.5527091511
 10
-9.4023661254
 20
-132.4636872556
 10
-9.4433792319
 20
-132.3754059339
 10
-9.4868056791
 20
-132.2878694099
 10
-9.5326317808
 20
-132.2010734598
 10
-9.5805966672
 20
-132.1155121785
 10
-9.6307125366
 20
-132.0311926078
 10
-9.6829671907
 20
-131.9481077058
 10
-9.7370631644
 20
-131.866730442
 10
-9.7930109595
 20
-131.7870705558
 10
-9.8508000744
 20
-131.7091183077
 10
-9.9101015383
 20
-131.633317449
 10
-9.970923977
 20
-131.55968025
 10
-10.0332587648
 20
-131.4881944404
 10
-10.0967510545
 20
-131.4192669605
 10
-10.1614074479
 20
-131.3529124017
 10
-10.2272213431
 20
-131.2891161725
 10
-10.2938180879
 20
-131.2282414398
 10
-10.3612021471
 20
-131.1703048659
 10
-10.4293690559
 20
-131.1152897884
 10
-10.497930767
 20
-131.0635093863
 10
-10.5668895321
 20
-131.0149821083
 10
-10.6362430997
 20
-130.9696895057
 10
-10.7055966672
 20
-130.9278894113
 10
-10.7749502347
 20
-130.8896017444
 10
-10.8443038022
 20
-130.8548065856
 10
-10.9132625674
 20
-130.8237020101
 10
-10.9818242784
 20
-130.7963090668
 10
-11.0499911872
 20
-130.7726067067
 10
-11.1173752464
 20
-130.752729858
 10
-11.1839719912
 20
-130.7367003392
 10
-11.2497858865
 20
-130.7244963318
 10
-11.3144422798
 20
-130.7161873083
 10
-11.3779345695
 20
-130.7117954835
 10
-11.4402693573
 20
-130.7112986426
 10
-11.501091796
 20
-130.714699614
 10
-11.56039326
 20
-130.7220206286
 10
-11.6181823748
 20
-130.7332394554
 10
-11.67413017
 20
-130.7482922301
 10
-11.7282261437
 20
-130.7672008194
 10
-11.7804807977
 20
-130.7899433567
 10
-11.8306510275
 20
-130.8164217616
  0
LINE
  5
2D8
100
AcDbEntity
  8
ASSI
100
AcDbLine
 62
7
  6
CONTINUOUS
 10
-12.2965869248
 20
-133.8875053911
 11
-12.2965869248
 21
-131.8463296991
  0
LINE
  5
2D9
100
AcDbEntity
  8
ASSI
100
AcDbLine
 62
7
  6
CONTINUOUS
 10
-10.8823733625
 20
-133.0709562044
 11
-10.8823733625
 21
-131.0297805125
  0
LINE
  5
2DA
100
AcDbEntity
  8
ASSI
100
AcDbLine
 62
7
  6
CONTINUOUS
 10
-9.1146064095
 20
-133.6835653691
 11
-9.1146064095
 21
-135.7247410611
  0
LINE
  5
2DB
100
AcDbEntity
  8
0
100
AcDbLine
 62
7
  6
CONTINUOUS
 10
-0.2757716447
 20
144.9781522539
 11
-0.2757716447
 21
135.2876282475
  0
LINE
  5
2DC
100
AcDbEntity
  8
0
100
AcDbLine
 62
7
  6
CONTINUOUS
 10
-0.2757716447
 20
129.7645221376
 11
-0.2757716447
 21
12.8170867286
  0
LINE
  5
2DD
100
AcDbEntity
  8
0
100
AcDbLine
 62
7
  6
CONTINUOUS
 10
-0.2757716447
 20
7.2939806187
 11
-0.2757716447
 21
-109.6534547903
  0
LINE
  5
2DE
100
AcDbEntity
  8
0
100
AcDbLine
 62
7
  6
CONTINUOUS
 10
-0.2757716447
 20
-115.1765609002
 11
-0.2757716447
 21
-133.8881761249
  0
LWPOLYLINE
  5
2DF
100
AcDbEntity
  8
0
100
AcDbPolyline
 62
7
  6
CONTINUOUS
 90
16
 70
0
 10
-0.2757716447
 20
135.2876282475
 10
-0.2768520024
 20
135.2434643704
 10
-0.2800085312
 20
135.2008955747
 10
-0.2852412309
 20
135.1599218605
 10
-0.2925780316
 20
135.1204307838
 10
-0.3019910032
 20
135.0825347885
 10
-0.313396356
 20
135.0465712066
 10
-0.3268118781
 20
135.0125572909
 10
-0.3422197814
 20
134.9804757885
 10
-0.3594829121
 20
134.9506122738
 10
-0.3786178338
 20
134.9229865489
 10
-0.3996079829
 20
134.8975788116
 10
-0.4222665153
 20
134.8746152293
 10
-0.4466083262
 20
134.8541176237
 10
-0.4726185202
 20
134.8360641731
 10
-0.4828578989
 20
134.8298976761
  0
LWPOLYLINE
  5
2E0
100
AcDbEntity
  8
0
100
AcDbPolyline
 62
7
  6
CONTINUOUS
 90
16
 70
0
 10
-0.2757716447
 20
12.8170867286
 10
-0.2768520024
 20
12.7729228515
 10
-0.2800085312
 20
12.7303540558
 10
-0.2852412309
 20
12.6893803416
 10
-0.2925780316
 20
12.6498892648
 10
-0.3019910032
 20
12.6119932696
 10
-0.313396356
 20
12.5760296877
 10
-0.3268118781
 20
12.5420157719
 10
-0.3422197814
 20
12.5099342696
 10
-0.3594829121
 20
12.4800707549
 10
-0.3786178338
 20
12.4524450299
 10
-0.3996079829
 20
12.4270372926
 10
-0.4222665153
 20
12.4040737104
 10
-0.4466083262
 20
12.3835761047
 10
-0.4726185202
 20
12.3655226541
 10
-0.4828578989
 20
12.3593561572
  0
LWPOLYLINE
  5
2E1
100
AcDbEntity
  8
ASSI
100
AcDbPolyline
 62
7
  6
CONTINUOUS
 90
7
 70
0
 10
-29.032088641
 20
-120.2099233594
 10
-29.0478613449
 20
-120.2784985465
 10
-29.0631407744
 20
-120.362162128
 10
-29.0750396705
 20
-120.4482706983
 10
-29.0835313063
 20
-120.5366779112
 10
-29.0886424088
 20
-120.6275301129
 10
-29.090372978
 20
-120.7208273035
  0
LWPOLYLINE
  5
2E2
100
AcDbEntity
  8
0
100
AcDbPolyline
 62
7
  6
CONTINUOUS
 90
52
 70
0
 10
-1.5965396473
 20
12.2613844431
 10
-1.6158390322
 20
12.2498857663
 10
-1.6659765668
 20
12.2165615506
 10
-1.713749585
 20
12.1796352912
 10
-1.7591458243
 20
12.1390883264
 10
-1.8021775473
 20
12.094939318
 10
-1.8426221015
 20
12.0474170226
 10
-1.8804660732
 20
11.9965039647
 10
-1.915722876
 20
11.9422176196
 10
-1.9482100983
 20
11.88483917
 10
-1.9779133835
 20
11.8243525975
 10
-2.0048470881
 20
11.7607739204
 10
-2.0288718696
 20
11.6944323752
 10
-2.0499726513
 20
11.6253136493
 10
-2.06816451
 20
11.5534320553
 10
-2.0833533327
 20
11.4791597677
 10
-2.0955235566
 20
11.4024844011
 10
-2.1046907444
 20
11.3234183409
 10
-2.1108074724
 20
11.2423709182
 10
-2.1138579323
 20
11.1593318666
 10
-2.1138579323
 20
11.0743114524
 10
-2.1108074724
 20
10.9877498061
 10
-2.1046907444
 20
10.8996389393
 10
-2.0955235566
 20
10.8099868404
 10
-2.0833533327
 20
10.7192576043
 10
-2.06816451
 20
10.627445645
 10
-2.0499726513
 20
10.5345565486
 10
-2.0288718696
 20
10.4410711688
 10
-2.0048470881
 20
10.3469864081
 10
-1.9779133835
 20
10.2523053641
 10
-1.9482100983
 20
10.1575181824
 10
-1.915722876
 20
10.0626243028
 10
-1.8804660732
 20
9.9676242856
 10
-1.8426221015
 20
9.8730099578
 10
-1.8021775473
 20
9.7787833049
 10
-1.7591458243
 20
9.6849423415
 10
-1.713749585
 20
9.5919729375
 10
-1.6659765668
 20
9.4998795941
 10
-1.6158390322
 20
9.4086578101
 10
-1.5635964217
 20
9.3187799518
 10
-1.5092378139
 20
9.2302529667
 10
-1.4527741302
 20
9.1430699073
 10
-1.3944975748
 20
9.0576822972
 10
-1.3343987376
 20
8.9740994231
 10
-1.2724870286
 20
8.8923119983
 10
-1.2090828833
 20
8.8127436867
 10
-1.1441785487
 20
8.7354059705
 10
-1.0777817777
 20
8.6602873675
 10
-1.0102362646
 20
8.5877770948
 10
-0.9416565744
 20
8.5180048913
 10
-0.8719281421
 20
8.4508410181
 10
-0.8010509678
 20
8.3862854751
  0
LINE
  5
2E3
100
AcDbEntity
  8
ASSI
100
AcDbLine
 62
7
  6
CONTINUOUS
 10
-0.2757716447
 20
13.0239864367
 11
-1.5965427231
 21
12.2613897692
  0
LINE
  5
2E4
100
AcDbEntity
  8
0
100
AcDbLine
 62
253
  6
CONTINUOUS
 10
-0.8010509678
 20
12.331361268
 11
-0.2998106733
 21
12.620771132
  0
LWPOLYLINE
  5
2E5
100
AcDbEntity
  8
0
100
AcDbPolyline
 62
7
  6
CONTINUOUS
 90
11
 70
0
 10
-0.4828578989
 20
12.3593561572
 10
-0.5000655673
 20
12.3500740618
 10
-0.5289622955
 20
12.337253584
 10
-0.5592958766
 20
12.3270379644
 10
-0.5907962956
 20
12.3195181376
 10
-0.6234739701
 20
12.3147181717
 10
-0.6573184826
 20
12.3126139986
 10
-0.6920285654
 20
12.3132243486
 10
-0.7275037959
 20
12.3165554652
 10
-0.7638445967
 20
12.322601105
 10
-0.8010509678
 20
12.331361268
  0
LWPOLYLINE
  5
2E6
100
AcDbEntity
  8
0
100
AcDbPolyline
 62
7
  6
CONTINUOUS
 90
14
 70
0
 10
69.9096271508
 20
-28.4960980648
 10
69.8387499765
 20
-28.4788064235
 10
69.7690215443
 20
-28.4654496509
 10
69.700441854
 20
-28.4560277471
 10
69.632896341
 20
-28.4505381545
 10
69.56649957
 20
-28.4489834306
 10
69.5015952353
 20
-28.451371248
 10
69.43819109
 20
-28.4577220419
 10
69.3762793811
 20
-28.4680153771
 10
69.3161805438
 20
-28.4821976204
 10
69.2579039885
 20
-28.5002889251
 10
69.2014403048
 20
-28.5222691379
 10
69.147081697
 20
-28.5480241653
 10
69.1141384713
 20
-28.5660748897
  0
LWPOLYLINE
  5
2E7
100
AcDbEntity
  8
0
100
AcDbPolyline
 62
7
  6
CONTINUOUS
 90
25
 70
0
 10
-56.3190348164
 20
44.3867493384
 10
-56.3562411876
 20
44.4209541602
 10
-56.3925819884
 20
44.4568739663
 10
-56.4280572189
 20
44.4945087567
 10
-56.4627673017
 20
44.5339807401
 10
-56.4966118141
 20
44.5751677079
 10
-56.5292894886
 20
44.6177030332
 10
-56.5607899077
 20
44.6615987544
 10
-56.5911234888
 20
44.7068428331
 10
-56.620020217
 20
44.7530325283
 10
-56.647467264
 20
44.8001762826
 10
-56.6734774581
 20
44.8482656533
 10
-56.697819269
 20
44.8968725721
 10
-56.7204778013
 20
44.9460016595
 10
-56.7414679504
 20
44.9956482949
 10
-56.7606028721
 20
45.0453705477
 10
-56.7778660029
 20
45.0951690931
 10
-56.7932739061
 20
45.1450432559
 10
-56.8066894282
 20
45.1945490803
 10
-56.818094781
 20
45.2436832777
 10
-56.8275077527
 20
45.2924491367
 10
-56.8348445533
 20
45.3404125669
 10
-56.840077253
 20
45.3874288716
 10
-56.8432337818
 20
45.4336427476
 10
-56.8443141396
 20
45.4790541948
  0
LINE
  5
2E8
100
AcDbEntity
  8
ASSI
100
AcDbLine
 62
7
  6
CONTINUOUS
 10
-78.4988364047
 20
128.0717685029
 11
-80.8646262489
 21
132.3065872389
  0
LINE
  5
2E9
100
AcDbEntity
  8
ASSI
100
AcDbLine
 62
7
  6
CONTINUOUS
 10
-77.0846228423
 20
127.2552193162
 11
-79.4504126866
 21
131.4900380523
  0
LWPOLYLINE
  5
2EA
100
AcDbEntity
  8
ASSI
100
AcDbPolyline
 62
7
  6
CONTINUOUS
 90
22
 70
0
 10
-80.8646262489
 20
132.3065872389
 10
-81.0284746183
 20
132.6107925145
 10
-81.1846877891
 20
132.92301943
 10
-81.3332657614
 20
133.2432679853
 10
-81.4742707602
 20
133.5716951542
 10
-81.6076405605
 20
133.9081439629
 10
-81.7331884869
 20
134.2521434901
 10
-81.8509035863
 20
134.6037043095
 10
-81.9607968118
 20
134.9628158473
 10
-82.0627143479
 20
135.3289754618
 10
-82.156645026
 20
135.7021930226
 10
-82.2426000147
 20
136.0824586601
 10
-82.3204590044
 20
136.4692401233
 10
-82.390210658
 20
136.8625465366
 10
-82.4518663125
 20
137.2623687756
 10
-82.5053396698
 20
137.6681472165
 10
-82.5506192717
 20
138.0798901998
 10
-82.5877165763
 20
138.4975893849
 10
-82.6165796592
 20
138.9206601259
 10
-82.6371912122
 20
139.3489075408
 10
-82.6495685434
 20
139.7825265115
 10
-82.6537116529
 20
140.2215170381
  0
LWPOLYLINE
  5
2EB
100
AcDbEntity
  8
ASSI
100
AcDbPolyline
 62
7
  6
CONTINUOUS
 90
22
 70
0
 10
-79.4504126866
 20
131.4900380523
 10
-79.6142610559
 20
131.7942433279
 10
-79.7704742267
 20
132.1064702434
 10
-79.919052199
 20
132.4267187986
 10
-80.0600571978
 20
132.7551459675
 10
-80.1934269981
 20
133.0915947762
 10
-80.3189749245
 20
133.4355943035
 10
-80.4366900239
 20
133.7871551228
 10
-80.5465832494
 20
134.1462666607
 10
-80.6485007855
 20
134.5124262752
 10
-80.7424314636
 20
134.885643836
 10
-80.8283864524
 20
135.2659094735
 10
-80.9062454421
 20
135.6526909367
 10
-80.9759970956
 20
136.0459973499
 10
-81.0376527502
 20
136.445819589
 10
-81.0911261074
 20
136.8515980298
 10
-81.1364057093
 20
137.2633410131
 10
-81.1735030139
 20
137.6810401983
 10
-81.2023660968
 20
138.1041109393
 10
-81.2229776498
 20
138.5323583542
 10
-81.235354981
 20
138.9659773249
 10
-81.2394980905
 20
139.4049678514
  0
LWPOLYLINE
  5
2EC
100
AcDbEntity
  8
ASSI
100
AcDbPolyline
 62
7
  6
CONTINUOUS
 90
19
 70
0
 10
-78.4988364047
 20
128.0717685029
 10
-78.3464567732
 20
127.7871060617
 10
-78.202426297
 20
127.4937930118
 10
-78.0667449761
 20
127.1918293531
 10
-77.9393372257
 20
126.8810122704
 10
-77.8202786307
 20
126.561544579
 10
-77.7097959453
 20
126.2340347245
 10
-77.6079055133
 20
125.8984673804
 10
-77.5145909909
 20
125.5548578732
 10
-77.4300301014
 20
125.2038606281
 10
-77.3542395271
 20
124.8454615658
 10
-77.2872025856
 20
124.4796747656
 10
-77.229046953
 20
124.1071968908
 10
-77.1797895548
 20
123.7280151896
 10
-77.1394134654
 20
123.3421424137
 10
-77.1079955835
 20
122.9503134814
 10
-77.0855615421
 20
122.5527733653
 10
-77.072085708
 20
122.1492770926
 10
-77.0675680815
 20
121.7398246635
  0
LWPOLYLINE
  5
2ED
100
AcDbEntity
  8
ASSI
100
AcDbPolyline
 62
7
  6
CONTINUOUS
 90
19
 70
0
 10
-77.0846228423
 20
127.2552193162
 10
-76.9322432108
 20
126.970556875
 10
-76.7882127346
 20
126.6772438251
 10
-76.6525314137
 20
126.3752801664
 10
-76.5251236633
 20
126.0644630838
 10
-76.4060650683
 20
125.7449953924
 10
-76.2955823829
 20
125.4174855379
 10
-76.1936919509
 20
125.0819181937
 10
-76.1003774285
 20
124.7383086865
 10
-76.015816539
 20
124.3873114415
 10
-75.9400259647
 20
124.0289123791
 10
-75.8729890233
 20
123.663125579
 10
-75.8148333906
 20
123.2906477041
 10
-75.7655759925
 20
122.9114660029
 10
-75.7251999031
 20
122.5255932271
 10
-75.6937820212
 20
122.1337642947
 10
-75.6713479797
 20
121.7362241786
 10
-75.6578721457
 20
121.332727906
 10
-75.6533545191
 20
120.9232754769
  0
LWPOLYLINE
  5
2EE
100
AcDbEntity
  8
0
100
AcDbPolyline
 62
7
  6
CONTINUOUS
 90
25
 70
0
 10
15.2805775414
 20
-117.0023974702
 10
15.2816578992
 20
-117.0478089174
 10
15.284814428
 20
-117.0940227934
 10
15.2900471277
 20
-117.1410390981
 10
15.2973839284
 20
-117.1890025283
 10
15.3067969
 20
-117.2377683873
 10
15.3182022528
 20
-117.2869025847
 10
15.3316177749
 20
-117.3364084091
 10
15.3470256782
 20
-117.3862825719
 10
15.3642888089
 20
-117.4360811173
 10
15.3834237306
 20
-117.4858033702
 10
15.4044138797
 20
-117.5354500056
 10
15.427072412
 20
-117.584579093
 10
15.4514142229
 20
-117.6331860117
 10
15.477424417
 20
-117.6812753825
 10
15.504871464
 20
-117.7284191367
 10
15.5337681922
 20
-117.7746088319
 10
15.5641017734
 20
-117.8198529107
 10
15.5956021924
 20
-117.8637486318
 10
15.6282798669
 20
-117.9062839572
 10
15.6621243794
 20
-117.9474709249
 10
15.6968344621
 20
-117.9869429084
 10
15.7323096926
 20
-118.0245776987
 10
15.7686504935
 20
-118.0604975048
 10
15.8058568646
 20
-118.0947023267
  0
LWPOLYLINE
  5
2EF
100
AcDbEntity
  8
0
100
AcDbPolyline
 62
7
  6
CONTINUOUS
 90
25
 70
0
 10
15.2805775414
 20
5.4681440487
 10
15.2816578992
 20
5.4227326015
 10
15.284814428
 20
5.3765187255
 10
15.2900471277
 20
5.3295024208
 10
15.2973839284
 20
5.2815389906
 10
15.3067969
 20
5.2327731316
 10
15.3182022528
 20
5.1836389342
 10
15.3316177749
 20
5.1341331098
 10
15.3470256782
 20
5.084258947
 10
15.3642888089
 20
5.0344604016
 10
15.3834237306
 20
4.9847381488
 10
15.4044138797
 20
4.9350915134
 10
15.427072412
 20
4.885962426
 10
15.4514142229
 20
4.8373555072
 10
15.477424417
 20
4.7892661365
 10
15.504871464
 20
4.7421223822
 10
15.5337681922
 20
4.695932687
 10
15.5641017734
 20
4.6506886082
 10
15.5956021924
 20
4.6067928871
 10
15.6282798669
 20
4.5642575618
 10
15.6621243794
 20
4.523070594
 10
15.6968344621
 20
4.4835986105
 10
15.7323096926
 20
4.4459638202
 10
15.7686504935
 20
4.4100440141
 10
15.8058568646
 20
4.3758391923
  0
LWPOLYLINE
  5
2F0
100
AcDbEntity
  8
0
100
AcDbPolyline
 62
7
  6
CONTINUOUS
 90
31
 70
0
 10
15.2805775414
 20
-141.2371188048
 10
15.2815686548
 20
-141.2806152017
 10
15.2844705407
 20
-141.3248654112
 10
15.2892831993
 20
-141.3698694335
 10
15.296030253
 20
-141.4157545209
 10
15.3046880793
 20
-141.4623934209
 10
15.3151858107
 20
-141.5094043767
 10
15.3275385486
 20
-141.5567904418
 10
15.3417311915
 20
-141.6045485626
 10
15.3576475673
 20
-141.6522878208
 10
15.375301824
 20
-141.7000080616
 10
15.3946798135
 20
-141.7477094397
 10
15.4156229198
 20
-141.7950015014
 10
15.4381439889
 20
-141.8418808871
 10
15.4622301747
 20
-141.8883509563
 10
15.4876843226
 20
-141.934031334
 10
15.5145176607
 20
-141.9789155385
 10
15.5427189608
 20
-142.0230100515
 10
15.5720573849
 20
-142.0659539426
 10
15.602542266
 20
-142.1077377679
 10
15.6341642709
 20
-142.1483709714
 10
15.6666645617
 20
-142.1875209549
 10
15.7000503469
 20
-142.2251755445
 10
15.734314418
 20
-142.2613469142
 10
15.7691763104
 20
-142.2957389875
 10
15.804640931
 20
-142.3283371605
 10
15.840703373
 20
-142.3591560372
 10
15.8770684516
 20
-142.3879433534
 10
15.9136377719
 20
-142.414615021
 10
15.950509729
 20
-142.4392551282
 10
15.9876843226
 20
-142.4618636749
  0
LINE
  5
2F1
100
AcDbEntity
  8
0
100
AcDbLine
 62
7
  6
CONTINUOUS
 10
13.8663639791
 20
-142.0536679915
 11
13.8663639791
 21
-123.3420527668
  0
LINE
  5
2F2
100
AcDbEntity
  8
0
100
AcDbLine
 62
7
  6
CONTINUOUS
 10
13.8663639791
 20
-117.8189466569
 11
13.8663639791
 21
-0.8715112479
  0
LINE
  5
2F3
100
AcDbEntity
  8
0
100
AcDbLine
 62
7
  6
CONTINUOUS
 10
13.8663639791
 20
4.6515948621
 11
13.8663639791
 21
121.5990302711
  0
LINE
  5
2F4
100
AcDbEntity
  8
0
100
AcDbLine
 62
7
  6
CONTINUOUS
 10
13.8663639791
 20
127.122136381
 11
13.8663639791
 21
137.2086731404
  0
LINE
  5
2F5
100
AcDbEntity
  8
0
100
AcDbLine
 62
7
  6
CONTINUOUS
 10
15.2805775414
 20
-141.2371188048
 11
15.2805775414
 21
-122.7324032882
  0
LINE
  5
2F6
100
AcDbEntity
  8
0
100
AcDbLine
 62
7
  6
CONTINUOUS
 10
15.2805775414
 20
-117.0023974702
 11
15.2805775414
 21
-0.2618617693
  0
LINE
  5
2F7
100
AcDbEntity
  8
0
100
AcDbLine
 62
7
  6
CONTINUOUS
 10
15.2805775414
 20
5.4681440487
 11
15.2805775414
 21
122.2086797496
  0
LINE
  5
2F8
100
AcDbEntity
  8
0
100
AcDbLine
 62
7
  6
CONTINUOUS
 10
15.2805775414
 20
127.9386855676
 11
15.2805775414
 21
136.4492188935
  0
LWPOLYLINE
  5
2F9
100
AcDbEntity
  8
0
100
AcDbPolyline
 62
7
  6
CONTINUOUS
 90
16
 70
0
 10
-0.2757716447
 20
-133.8881761249
 10
-0.276762758
 20
-133.9305280089
 10
-0.279664644
 20
-133.9714271934
 10
-0.2844773025
 20
-134.0108736782
 10
-0.2912243562
 20
-134.048967437
 10
-0.2998821825
 20
-134.0856084962
 10
-0.3103799139
 20
-134.1204969349
 10
-0.3227326518
 20
-134.153618368
 10
-0.3369252947
 20
-134.1849871805
 10
-0.3528416705
 20
-134.2143466069
 10
-0.3704959272
 20
-134.2416801545
 10
-0.3898739168
 20
-134.2670043161
 10
-0.410817023
 20
-134.2901118036
 10
-0.4333380921
 20
-134.3109844232
 10
-0.4574242779
 20
-134.3296403688
 10
-0.4828542657
 20
-134.345912986
  0
LWPOLYLINE
  5
2FA
100
AcDbEntity
  8
0
100
AcDbPolyline
 62
7
  6
CONTINUOUS
 90
16
 70
0
 10
-0.2757716447
 20
-109.6534547903
 10
-0.2768520024
 20
-109.6976186674
 10
-0.2800085312
 20
-109.7401874631
 10
-0.2852412309
 20
-109.7811611773
 10
-0.2925780316
 20
-109.8206522541
 10
-0.3019910032
 20
-109.8585482494
 10
-0.313396356
 20
-109.8945118312
 10
-0.3268118781
 20
-109.928525747
 10
-0.3422197814
 20
-109.9606072493
 10
-0.3594829121
 20
-109.9904707641
 10
-0.3786178338
 20
-110.018096489
 10
-0.3996079829
 20
-110.0435042263
 10
-0.4222665153
 20
-110.0664678085
 10
-0.4466083262
 20
-110.0869654142
 10
-0.4726185202
 20
-110.1050188648
 10
-0.4828578989
 20
-110.1111853617
  0
LWPOLYLINE
  5
2FB
100
AcDbEntity
  8
0
100
AcDbPolyline
 62
7
  6
CONTINUOUS
 90
16
 70
0
 10
13.8663639791
 20
121.5990302711
 10
13.8674443368
 20
121.6431941482
 10
13.8706008656
 20
121.6857629439
 10
13.8758335653
 20
121.7267366581
 10
13.883170366
 20
121.7662277348
 10
13.8925833376
 20
121.8041237301
 10
13.9039886904
 20
121.840087312
 10
13.9174042125
 20
121.8741012277
 10
13.9328121158
 20
121.9061827301
 10
13.9500752465
 20
121.9360462448
 10
13.9692101682
 20
121.9636719697
 10
13.9902003173
 20
121.989079707
 10
14.0128588497
 20
122.0120432893
 10
14.0372006606
 20
122.0325408949
 10
14.0632108547
 20
122.0505943455
 10
14.0734502333
 20
122.0567608425
  0
LWPOLYLINE
  5
2FC
100
AcDbEntity
  8
0
100
AcDbPolyline
 62
7
  6
CONTINUOUS
 90
16
 70
0
 10
13.8663639791
 20
-0.8715112479
 10
13.8674443368
 20
-0.8273473707
 10
13.8706008656
 20
-0.7847785751
 10
13.8758335653
 20
-0.7438048608
 10
13.883170366
 20
-0.7043137841
 10
13.8925833376
 20
-0.6664177888
 10
13.9039886904
 20
-0.630454207
 10
13.9174042125
 20
-0.5964402912
 10
13.9328121158
 20
-0.5643587889
 10
13.9500752465
 20
-0.5344952741
 10
13.9692101682
 20
-0.5068695492
 10
13.9902003173
 20
-0.4814618119
 10
14.0128588497
 20
-0.4584982297
 10
14.0372006606
 20
-0.438000624
 10
14.0632108547
 20
-0.4199471734
 10
14.0734502333
 20
-0.4137806765
  0
LWPOLYLINE
  5
2FD
100
AcDbEntity
  8
ASSI
100
AcDbPolyline
 62
7
  6
CONTINUOUS
 90
4
 70
0
 10
-10.8731692464
 20
-130.8417865237
 10
-10.8762980892
 20
-130.8729763009
 10
-10.8808351366
 20
-130.9502847338
 10
-10.8823733625
 20
-131.0297805125
  0
LWPOLYLINE
  5
2FE
100
AcDbEntity
  8
0
100
AcDbPolyline
 62
7
  6
CONTINUOUS
 90
52
 70
0
 10
15.1871319817
 20
-0.3158089623
 10
15.2064313666
 20
-0.3043102856
 10
15.2565689012
 20
-0.2709860698
 10
15.3043419194
 20
-0.2340598104
 10
15.3497381588
 20
-0.1935128457
 10
15.3927698817
 20
-0.1493638373
 10
15.4332144359
 20
-0.1018415418
 10
15.4710584076
 20
-0.0509284839
 10
15.5063152104
 20
0.0033578611
 10
15.5388024327
 20
0.0607363108
 10
15.5685057179
 20
0.1212228832
 10
15.5954394225
 20
0.1848015603
 10
15.619464204
 20
0.2511431055
 10
15.6405649858
 20
0.3202618315
 10
15.6587568444
 20
0.3921434255
 10
15.6739456671
 20
0.4664157131
 10
15.686115891
 20
0.5430910797
 10
15.6952830788
 20
0.6221571398
 10
15.7013998068
 20
0.7032045625
 10
15.7044502667
 20
0.7862436142
 10
15.7044502667
 20
0.8712640283
 10
15.7013998068
 20
0.9578256746
 10
15.6952830788
 20
1.0459365414
 10
15.686115891
 20
1.1355886404
 10
15.6739456671
 20
1.2263178764
 10
15.6587568444
 20
1.3181298357
 10
15.6405649858
 20
1.4110189321
 10
15.619464204
 20
1.504504312
 10
15.5954394225
 20
1.5985890726
 10
15.5685057179
 20
1.6932701167
 10
15.5388024327
 20
1.7880572984
 10
15.5063152104
 20
1.882951178
 10
15.4710584076
 20
1.9779511952
 10
15.4332144359
 20
2.072565523
 10
15.3927698817
 20
2.1667921758
 10
15.3497381588
 20
2.2606331392
 10
15.3043419194
 20
2.3536025433
 10
15.2565689012
 20
2.4456958867
 10
15.2064313666
 20
2.5369176706
 10
15.1541887561
 20
2.6267955289
 10
15.0998301483
 20
2.715322514
 10
15.0433664646
 20
2.8025055735
 10
14.9850899093
 20
2.8878931835
 10
14.924991072
 20
2.9714760577
 10
14.863079363
 20
3.0532634825
 10
14.7996752177
 20
3.1328317941
 10
14.7347708831
 20
3.2101695102
 10
14.6683741121
 20
3.2852881132
 10
14.600828599
 20
3.357798386
 10
14.5322489088
 20
3.4275705895
 10
14.4625204765
 20
3.4947344627
 10
14.3916433022
 20
3.5592900056
  0
LWPOLYLINE
  5
2FF
100
AcDbEntity
  8
0
100
AcDbPolyline
 62
7
  6
CONTINUOUS
 90
52
 70
0
 10
16.6013455441
 20
0.5007402243
 10
16.620644929
 20
0.5122389011
 10
16.6707824636
 20
0.5455631168
 10
16.7185554818
 20
0.5824893762
 10
16.7639517211
 20
0.623036341
 10
16.8069834441
 20
0.6671853494
 10
16.8474279982
 20
0.7147076448
 10
16.8852719699
 20
0.7656207028
 10
16.9205287728
 20
0.8199070478
 10
16.953015995
 20
0.8772854975
 10
16.9827192802
 20
0.9377720699
 10
17.0096529849
 20
1.001350747
 10
17.0336777663
 20
1.0676922922
 10
17.0547785481
 20
1.1368110181
 10
17.0729704068
 20
1.2086926121
 10
17.0881592295
 20
1.2829648997
 10
17.1003294533
 20
1.3596402663
 10
17.1094966412
 20
1.4387063265
 10
17.1156133691
 20
1.5197537492
 10
17.1186638291
 20
1.6027928008
 10
17.1186638291
 20
1.687813215
 10
17.1156133691
 20
1.7743748613
 10
17.1094966412
 20
1.8624857281
 10
17.1003294533
 20
1.952137827
 10
17.0881592295
 20
2.0428670631
 10
17.0729704068
 20
2.1346790224
 10
17.0547785481
 20
2.2275681188
 10
17.0336777663
 20
2.3210534986
 10
17.0096529849
 20
2.4151382593
 10
16.9827192802
 20
2.5098193033
 10
16.953015995
 20
2.604606485
 10
16.9205287728
 20
2.6995003646
 10
16.8852719699
 20
2.7945003818
 10
16.8474279982
 20
2.8891147097
 10
16.8069834441
 20
2.9833413625
 10
16.7639517211
 20
3.0771823259
 10
16.7185554818
 20
3.1701517299
 10
16.6707824636
 20
3.2622450733
 10
16.620644929
 20
3.3534668573
 10
16.5684023184
 20
3.4433447156
 10
16.5140437107
 20
3.5318717007
 10
16.457580027
 20
3.6190547601
 10
16.3993034716
 20
3.7044423702
 10
16.3392046343
 20
3.7880252443
 10
16.2772929254
 20
3.8698126691
 10
16.2138887801
 20
3.9493809807
 10
16.1489844455
 20
4.0267186969
 10
16.0825876744
 20
4.1018372999
 10
16.0150421614
 20
4.1743475726
 10
15.9464624712
 20
4.2441197761
 10
15.8767340389
 20
4.3112836493
 10
15.8058568646
 20
4.3758391923
  0
LINE
  5
300
100
AcDbEntity
  8
0
100
AcDbLine
 62
253
  6
CONTINUOUS
 10
13.8663639791
 20
4.6515948621
 11
15.2805775414
 21
5.4681440487
  0
LINE
  5
301
100
AcDbEntity
  8
0
100
AcDbLine
 62
253
  6
CONTINUOUS
 10
14.3916433022
 20
3.5592900056
 11
15.8058568646
 21
4.3758391923
  0
LINE
  5
302
100
AcDbEntity
  8
0
100
AcDbLine
 62
253
  6
CONTINUOUS
 10
13.8663639791
 20
-0.8715112479
 11
14.6335988864
 21
-0.4285194281
  0
LINE
  5
303
100
AcDbEntity
  8
0
100
AcDbLine
 62
7
  6
CONTINUOUS
 10
16.6013486199
 20
0.5007348982
 11
15.1871350575
 21
-0.3158142884
  0
LWPOLYLINE
  5
304
100
AcDbEntity
  8
0
100
AcDbPolyline
 62
7
  6
CONTINUOUS
 90
11
 70
0
 10
14.0734502333
 20
-0.4137806765
 10
14.0906579017
 20
-0.4044985811
 10
14.1195546299
 20
-0.3916781032
 10
14.149888211
 20
-0.3814624836
 10
14.18138863
 20
-0.3739426568
 10
14.2140663045
 20
-0.3691426909
 10
14.247910817
 20
-0.3670385178
 10
14.2826208998
 20
-0.3676488679
 10
14.3180961303
 20
-0.3709799845
 10
14.3544369311
 20
-0.3770256243
 10
14.3916433022
 20
-0.3857857872
  0
LWPOLYLINE
  5
305
100
AcDbEntity
  8
0
100
AcDbPolyline
 62
7
  6
CONTINUOUS
 90
14
 70
0
 10
14.3916433022
 20
-0.3857857872
 10
14.4625204765
 20
-0.4030774285
 10
14.5322489088
 20
-0.4164342011
 10
14.600828599
 20
-0.4258561049
 10
14.6683741121
 20
-0.4313456975
 10
14.7347708831
 20
-0.4329004214
 10
14.7996752177
 20
-0.430512604
 10
14.863079363
 20
-0.4241618101
 10
14.924991072
 20
-0.4138684749
 10
14.9850899093
 20
-0.3996862317
 10
15.0433664646
 20
-0.3815949269
 10
15.0998301483
 20
-0.3596147141
 10
15.1541887561
 20
-0.3338596868
 10
15.1871319817
 20
-0.3158089623
  0
LWPOLYLINE
  5
306
100
AcDbEntity
  8
0
100
AcDbPolyline
 62
7
  6
CONTINUOUS
 90
14
 70
0
 10
-0.8010509678
 20
12.331361268
 10
-0.8719281421
 20
12.3486529093
 10
-0.9416565744
 20
12.3620096818
 10
-1.0102362646
 20
12.3714315857
 10
-1.0777817777
 20
12.3769211783
 10
-1.1441785487
 20
12.3784759022
 10
-1.2090828833
 20
12.3760880848
 10
-1.2724870286
 20
12.3697372909
 10
-1.3343987376
 20
12.3594439557
 10
-1.3944975748
 20
12.3452617124
 10
-1.4527741302
 20
12.3271704077
 10
-1.5092378139
 20
12.3051901949
 10
-1.5635964217
 20
12.2794351675
 10
-1.5965396473
 20
12.2613844431
  0
LWPOLYLINE
  5
307
100
AcDbEntity
  8
0
100
AcDbPolyline
 62
7
  6
CONTINUOUS
 90
25
 70
0
 10
-0.8010509678
 20
8.3862854751
 10
-0.7638445967
 20
8.3520806533
 10
-0.7275037959
 20
8.3161608472
 10
-0.6920285654
 20
8.2785260569
 10
-0.6573184826
 20
8.2390540734
 10
-0.6234739701
 20
8.1978671056
 10
-0.5907962956
 20
8.1553317803
 10
-0.5592958766
 20
8.1114360592
 10
-0.5289622955
 20
8.0661919804
 10
-0.5000655673
 20
8.0200022852
 10
-0.4726185202
 20
7.9728585309
 10
-0.4466083262
 20
7.9247691602
 10
-0.4222665153
 20
7.8761622414
 10
-0.3996079829
 20
7.827033154
 10
-0.3786178338
 20
7.7773865186
 10
-0.3594829121
 20
7.7276642658
 10
-0.3422197814
 20
7.6778657204
 10
-0.3268118781
 20
7.6279915576
 10
-0.313396356
 20
7.5784857332
 10
-0.3019910032
 20
7.5293515358
 10
-0.2925780316
 20
7.4805856768
 10
-0.2852412309
 20
7.4326222466
 10
-0.2800085312
 20
7.3856059419
 10
-0.2768520024
 20
7.3393920659
 10
-0.2757716447
 20
7.2939806187
  0
LWPOLYLINE
  5
308
100
AcDbEntity
  8
0
100
AcDbPolyline
 62
7
  6
CONTINUOUS
 90
25
 70
0
 10
14.3916433022
 20
3.5592900056
 10
14.3544369311
 20
3.5934948274
 10
14.3180961303
 20
3.6294146335
 10
14.2826208998
 20
3.6670494239
 10
14.247910817
 20
3.7065214074
 10
14.2140663045
 20
3.7477083751
 10
14.18138863
 20
3.7902437005
 10
14.149888211
 20
3.8341394216
 10
14.1195546299
 20
3.8793835003
 10
14.0906579017
 20
3.9255731956
 10
14.0632108547
 20
3.9727169498
 10
14.0372006606
 20
4.0208063206
 10
14.0128588497
 20
4.0694132393
 10
13.9902003173
 20
4.1185423267
 10
13.9692101682
 20
4.1681889621
 10
13.9500752465
 20
4.2179112149
 10
13.9328121158
 20
4.2677097603
 10
13.9174042125
 20
4.3175839232
 10
13.9039886904
 20
4.3670897476
 10
13.8925833376
 20
4.416223945
 10
13.883170366
 20
4.4649898039
 10
13.8758335653
 20
4.5129532342
 10
13.8706008656
 20
4.5599695389
 10
13.8674443368
 20
4.6061834148
 10
13.8663639791
 20
4.6515948621
  0
LWPOLYLINE
  5
309
100
AcDbEntity
  8
0
100
AcDbPolyline
 62
7
  6
CONTINUOUS
 90
25
 70
0
 10
15.2805775414
 20
127.9386855676
 10
15.2816578992
 20
127.8932741204
 10
15.284814428
 20
127.8470602445
 10
15.2900471277
 20
127.8000439397
 10
15.2973839284
 20
127.7520805095
 10
15.3067969
 20
127.7033146506
 10
15.3182022528
 20
127.6541804531
 10
15.3316177749
 20
127.6046746287
 10
15.3470256782
 20
127.5548004659
 10
15.3642888089
 20
127.5050019205
 10
15.3834237306
 20
127.4552796677
 10
15.4044138797
 20
127.4056330323
 10
15.427072412
 20
127.3565039449
 10
15.4514142229
 20
127.3078970261
 10
15.477424417
 20
127.2598076554
 10
15.504871464
 20
127.2126639012
 10
15.5337681922
 20
127.1664742059
 10
15.5641017734
 20
127.1212301272
 10
15.5956021924
 20
127.0773344061
 10
15.6282798669
 20
127.0347990807
 10
15.6621243794
 20
126.993612113
 10
15.6968344621
 20
126.9541401295
 10
15.7323096926
 20
126.9165053391
 10
15.7686504935
 20
126.880585533
 10
15.8058568646
 20
126.8463807112
  0
LWPOLYLINE
  5
30A
100
AcDbEntity
  8
ASSI
100
AcDbPolyline
 62
7
  6
CONTINUOUS
 90
49
 70
0
 10
23.6597928985
 20
-163.6294415065
 10
23.6585817652
 20
-163.5735746039
 10
23.6550277558
 20
-163.5167627023
 10
23.6491308705
 20
-163.4590058018
 10
23.6408648427
 20
-163.4001558563
 10
23.6302559389
 20
-163.340360912
 10
23.6173829586
 20
-163.2800651063
 10
23.6022290433
 20
-163.21926471
 10
23.5848110516
 20
-163.1579634524
 10
23.5652583587
 20
-163.0966166597
 10
23.5435550694
 20
-163.0352239928
 10
23.5197170789
 20
-162.9737857907
 10
23.4939214482
 20
-162.9127583969
 10
23.4661536004
 20
-162.8521448702
 10
23.4364281125
 20
-162.7919421517
 10
23.4049657758
 20
-162.7325974079
 10
23.3717536575
 20
-162.6741170274
 10
23.3368046904
 20
-162.6164946216
 10
23.3003784642
 20
-162.5601581914
 10
23.2624639792
 20
-162.5051173122
 10
23.2230722351
 20
-162.4513624085
 10
23.1824958212
 20
-162.3992927545
 10
23.1407259164
 20
-162.3489208988
 10
23.0977713418
 20
-162.3002342929
 10
23.0539511502
 20
-162.2535945653
 10
23.0092588962
 20
-162.2090169572
 10
22.9637010253
 20
-162.1664862274
 10
22.9176159267
 20
-162.1263182806
 10
22.8709996747
 20
-162.0885307102
 10
22.823856195
 20
-162.0531059227
 10
22.7765356544
 20
-162.0203070422
 10
22.7290367344
 20
-161.9901536214
 10
22.6813607534
 20
-161.9626261075
 10
22.6338618334
 20
-161.9379289661
 10
22.5865412928
 20
-161.9160832724
 10
22.5393978131
 20
-161.8970679512
 10
22.4927815611
 20
-161.8810242423
 10
22.4466964625
 20
-161.8679742725
 10
22.4011385916
 20
-161.8578959149
 10
22.3564463376
 20
-161.8508640283
 10
22.312626146
 20
-161.8469012971
 10
22.2696715714
 20
-161.845985037
 10
22.2279016666
 20
-161.8481220535
 10
22.1873252527
 20
-161.8533350818
 10
22.1479335086
 20
-161.8616013868
 10
22.1100190236
 20
-161.8728595691
 10
22.0735927974
 20
-161.8871319064
 10
22.0386438303
 20
-161.904396121
 10
22.0301705743
 20
-161.9091630457
  0
LWPOLYLINE
  5
30B
100
AcDbEntity
  8
ASSI
100
AcDbPolyline
 62
7
  6
CONTINUOUS
 90
55
 70
0
 10
22.7051987439
 20
-154.0970977608
 10
22.7067369697
 20
-154.1783698442
 10
22.7112740171
 20
-154.2609175457
 10
22.7188098861
 20
-154.3447408654
 10
22.7293703057
 20
-154.4300040136
 10
22.7429295469
 20
-154.5165427799
 10
22.7594104223
 20
-154.6038645336
 10
22.7788295952
 20
-154.6919737403
 10
22.8011704022
 20
-154.7808659344
 10
22.8263056661
 20
-154.8700350877
 10
22.8542513247
 20
-154.95948278
 10
22.8849914402
 20
-155.0492074316
 10
22.9183510213
 20
-155.1386982757
 10
22.9543450077
 20
-155.2279539788
 10
22.9929584598
 20
-155.3169758743
 10
23.0339715663
 20
-155.405257196
 10
23.0773980135
 20
-155.4927937199
 10
23.1232241152
 20
-155.5795896701
 10
23.1711890016
 20
-155.6651509514
 10
23.221304871
 20
-155.7494705221
 10
23.2735595251
 20
-155.8325554241
 10
23.3276554988
 20
-155.9139326879
 10
23.383603294
 20
-155.9935925741
 10
23.4413924088
 20
-156.0715448222
 10
23.5006938727
 20
-156.1473456809
 10
23.5615163114
 20
-156.2209828799
 10
23.6238510992
 20
-156.2924686895
 10
23.6873433889
 20
-156.3613961693
 10
23.7519997823
 20
-156.4277507282
 10
23.8178136775
 20
-156.4915469574
 10
23.8844104223
 20
-156.5524216901
 10
23.9517944815
 20
-156.610358264
 10
24.0199613903
 20
-156.6653733415
 10
24.0885231014
 20
-156.7171537436
 10
24.1574818665
 20
-156.7656810216
 10
24.2268354341
 20
-156.8109736242
 10
24.2961890016
 20
-156.8527737186
 10
24.3655425691
 20
-156.8910613855
 10
24.4348961366
 20
-156.9258565443
 10
24.5038549018
 20
-156.9569611198
 10
24.5724166129
 20
-156.9843540631
 10
24.6405835216
 20
-157.0080564232
 10
24.7079675808
 20
-157.0279332719
 10
24.7745643256
 20
-157.0439627907
 10
24.8403782209
 20
-157.0561667981
 10
24.9050346142
 20
-157.0644758216
 10
24.9685269039
 20
-157.0688676464
 10
25.0308616917
 20
-157.0693644873
 10
25.0916841304
 20
-157.0659635159
 10
25.1509855944
 20
-157.0586425013
 10
25.2087747092
 20
-157.0474236745
 10
25.2647225044
 20
-157.0323708998
 10
25.3188184781
 20
-157.0134623105
 10
25.3710731322
 20
-156.9907197732
 10
25.4212433619
 20
-156.9642413683
  0
LWPOLYLINE
  5
30C
100
AcDbEntity
  8
ASSI
100
AcDbPolyline
 62
7
  6
CONTINUOUS
 90
40
 70
0
 10
24.1194123063
 20
-153.2805485742
 10
24.1209505321
 20
-153.3618206575
 10
24.1254875795
 20
-153.444368359
 10
24.1330234485
 20
-153.5281916787
 10
24.1435838681
 20
-153.6134548269
 10
24.1571431093
 20
-153.6999935933
 10
24.1736239847
 20
-153.787315347
 10
24.1930431576
 20
-153.8754245537
 10
24.2153839646
 20
-153.9643167477
 10
24.2405192285
 20
-154.0534859011
 10
24.2684648871
 20
-154.1429335934
 10
24.2992050026
 20
-154.232658245
 10
24.3325645836
 20
-154.3221490891
 10
24.3685585701
 20
-154.4114047921
 10
24.4071720221
 20
-154.5004266876
 10
24.4481851286
 20
-154.5887080093
 10
24.4916115759
 20
-154.6762445333
 10
24.5374376776
 20
-154.7630404834
 10
24.5854025639
 20
-154.8486017648
 10
24.6355184334
 20
-154.9329213355
 10
24.6877730874
 20
-155.0160062374
 10
24.7418690611
 20
-155.0973835012
 10
24.7978168563
 20
-155.1770433875
 10
24.8556059712
 20
-155.2549956355
 10
24.9149074351
 20
-155.3307964942
 10
24.9757298738
 20
-155.4044336932
 10
25.0380646616
 20
-155.4759195028
 10
25.1015569513
 20
-155.5448469827
 10
25.1662133446
 20
-155.6112015416
 10
25.2320272399
 20
-155.6749977707
 10
25.2986239847
 20
-155.7358725035
 10
25.3660080439
 20
-155.7938090773
 10
25.4341749527
 20
-155.8488241548
 10
25.5027366638
 20
-155.9006045569
 10
25.5716954289
 20
-155.9491318349
 10
25.6410489964
 20
-155.9944244375
 10
25.7104025639
 20
-156.0362245319
 10
25.7797561315
 20
-156.0745121989
 10
25.849109699
 20
-156.1093073576
 10
25.8779751432
 20
-156.1223274195
  0
LWPOLYLINE
  5
30D
100
AcDbEntity
  8
ASSI
100
AcDbPolyline
 62
7
  6
CONTINUOUS
 90
55
 70
0
 10
25.8871792592
 20
-153.8931577388
 10
25.8856410334
 20
-153.8118856555
 10
25.881103986
 20
-153.7293379539
 10
25.873568117
 20
-153.6455146342
 10
25.8630076974
 20
-153.560251486
 10
25.8494484562
 20
-153.4737127197
 10
25.8329675808
 20
-153.386390966
 10
25.813548408
 20
-153.2982817593
 10
25.7912076009
 20
-153.2093895652
 10
25.7660723371
 20
-153.1202204119
 10
25.7381266784
 20
-153.0307727196
 10
25.7073865629
 20
-152.941048068
 10
25.6740269819
 20
-152.8515572239
 10
25.6380329954
 20
-152.7623015208
 10
25.5994195434
 20
-152.6732796253
 10
25.5584064369
 20
-152.5849983037
 10
25.5149799896
 20
-152.4974617797
 10
25.4691538879
 20
-152.4106658295
 10
25.4211890016
 20
-152.3251045482
 10
25.3710731322
 20
-152.2407849775
 10
25.3188184781
 20
-152.1577000755
 10
25.2647225044
 20
-152.0763228117
 10
25.2087747092
 20
-151.9966629255
 10
25.1509855944
 20
-151.9187106774
 10
25.0916841304
 20
-151.8429098188
 10
25.0308616917
 20
-151.7692726198
 10
24.9685269039
 20
-151.6977868101
 10
24.9050346142
 20
-151.6288593303
 10
24.8403782209
 20
-151.5625047714
 10
24.7745643256
 20
-151.4987085423
 10
24.7079675808
 20
-151.4378338095
 10
24.6405835216
 20
-151.3798972356
 10
24.5724166129
 20
-151.3248821582
 10
24.5038549018
 20
-151.273101756
 10
24.4348961366
 20
-151.2245744781
 10
24.3655425691
 20
-151.1792818754
 10
24.2961890016
 20
-151.137481781
 10
24.2268354341
 20
-151.0991941141
 10
24.1574818665
 20
-151.0643989553
 10
24.0885231014
 20
-151.0332943798
 10
24.0199613903
 20
-151.0059014365
 10
23.9517944815
 20
-150.9821990765
 10
23.8844104223
 20
-150.9623222278
 10
23.8178136775
 20
-150.946292709
 10
23.7519997823
 20
-150.9340887015
 10
23.6873433889
 20
-150.925779678
 10
23.6238510992
 20
-150.9213878532
 10
23.5615163114
 20
-150.9208910124
 10
23.5006938727
 20
-150.9242919838
 10
23.4413924088
 20
-150.9316129983
 10
23.383603294
 20
-150.9428318251
 10
23.3276554988
 20
-150.9578845999
 10
23.2735595251
 20
-150.9767931892
 10
23.221304871
 20
-150.9995357264
 10
23.1711346413
 20
-151.0260141313
  0
LINE
  5
30E
100
AcDbEntity
  8
ASSI
100
AcDbLine
 62
7
  6
CONTINUOUS
 10
22.7051987439
 20
-154.0970977608
 11
22.7051987439
 21
-152.0559220688
  0
LINE
  5
30F
100
AcDbEntity
  8
ASSI
100
AcDbLine
 62
7
  6
CONTINUOUS
 10
24.1194123063
 20
-153.2805485742
 11
24.1194123063
 21
-151.2393728822
  0
LINE
  5
310
100
AcDbEntity
  8
ASSI
100
AcDbLine
 62
7
  6
CONTINUOUS
 10
25.8871792592
 20
-153.8931577388
 11
25.8871792592
 21
-155.9343334308
  0
LWPOLYLINE
  5
311
100
AcDbEntity
  8
0
100
AcDbPolyline
 62
7
  6
CONTINUOUS
 90
16
 70
0
 10
13.8663639791
 20
-123.3420527668
 10
13.8674443368
 20
-123.2978888897
 10
13.8706008656
 20
-123.255320094
 10
13.8758335653
 20
-123.2143463798
 10
13.883170366
 20
-123.174855303
 10
13.8925833376
 20
-123.1369593077
 10
13.9039886904
 20
-123.1009957259
 10
13.9174042125
 20
-123.0669818101
 10
13.9328121158
 20
-123.0349003078
 10
13.9500752465
 20
-123.005036793
 10
13.9692101682
 20
-122.9774110681
 10
13.9902003173
 20
-122.9520033308
 10
14.0128588497
 20
-122.9290397486
 10
14.0372006606
 20
-122.9085421429
 10
14.0632108547
 20
-122.8904886923
 10
14.0734502333
 20
-122.8843221954
  0
LWPOLYLINE
  5
312
100
AcDbEntity
  8
0
100
AcDbPolyline
 62
7
  6
CONTINUOUS
 90
14
 70
0
 10
-56.3190348164
 20
40.4416735456
 10
-56.2481576421
 20
40.4243819043
 10
-56.1784292099
 20
40.4110251317
 10
-56.1098495196
 20
40.4016032278
 10
-56.0423040066
 20
40.3961136352
 10
-55.9759072356
 20
40.3945589114
 10
-55.9110029009
 20
40.3969467288
 10
-55.8475987556
 20
40.4032975227
 10
-55.7856870467
 20
40.4135908579
 10
-55.7255882094
 20
40.4277731011
 10
-55.6673116541
 20
40.4458644058
 10
-55.6108479704
 20
40.4678446186
 10
-55.5564893626
 20
40.493599646
 10
-55.5235461369
 20
40.5116503705
  0
LWPOLYLINE
  5
313
100
AcDbEntity
  8
0
100
AcDbPolyline
 62
7
  6
CONTINUOUS
 90
4
 70
0
 10
69.9096271508
 20
-32.4411738576
 10
69.946833522
 20
-32.4753786795
 10
69.9831743228
 20
-32.5112984856
 10
70.0106424053
 20
-32.5404386916
  0
LWPOLYLINE
  5
314
100
AcDbEntity
  8
0
100
AcDbPolyline
 62
7
  6
CONTINUOUS
 90
10
 70
0
 10
-60.7520714385
 20
181.4979549026
 10
-60.6703059554
 20
181.3178814192
 10
-60.6094060799
 20
181.1291477635
 10
-60.5703841643
 20
180.9384613309
 10
-60.5566247408
 20
180.7623611446
 10
-60.5703841643
 20
180.6021499957
 10
-60.6094060799
 20
180.4565250931
 10
-60.6703059554
 20
180.3381170871
 10
-60.7550378515
 20
180.2493568929
 10
-60.8061570069
 20
180.2148662249
  0
LWPOLYLINE
  5
315
100
AcDbEntity
  8
ASSI
100
AcDbPolyline
 62
7
  6
CONTINUOUS
 90
58
 70
0
 10
40.2060915783
 20
-164.4060115149
 10
40.2078221475
 20
-164.5013071234
 10
40.21293325
 20
-164.5980614981
 10
40.2214248857
 20
-164.6962746392
 10
40.2333237819
 20
-164.7961237566
 10
40.2486032114
 20
-164.8974316402
 10
40.2671829927
 20
-164.9996666597
 10
40.2890804755
 20
-165.1028336889
 10
40.3142783101
 20
-165.206927854
 10
40.3426442666
 20
-165.3114029031
 10
40.3741949995
 20
-165.4162608385
 10
40.4089138543
 20
-165.5214996579
 10
40.4466186379
 20
-165.6265671026
 10
40.487325047
 20
-165.7314622718
 10
40.531017385
 20
-165.8361860665
 10
40.5774663688
 20
-165.9401889305
 10
40.6266864897
 20
-166.0434670741
 10
40.6786632566
 20
-166.1460242872
 10
40.7331239123
 20
-166.2473223832
 10
40.7900815144
 20
-166.3473547432
 10
40.8495230054
 20
-166.4461279861
 10
40.911136456
 20
-166.5431237827
 10
40.9749332839
 20
-166.6383327889
 10
41.0409020713
 20
-166.7317643488
 10
41.1086966358
 20
-166.8229281641
 10
41.1783265753
 20
-166.9118123138
 10
41.2497822919
 20
-166.998428719
 10
41.3226888096
 20
-167.0823228454
 10
41.397053755
 20
-167.1634803823
 10
41.4728695014
 20
-167.2419156404
 10
41.5497381929
 20
-167.3172170174
 10
41.6276653646
 20
-167.3893680387
 10
41.7066454813
 20
-167.4583851788
 10
41.7862640814
 20
-167.5239062586
 10
41.8665245214
 20
-167.5859128996
 10
41.9474234447
 20
-167.6444234803
 10
42.0285363206
 20
-167.6991309563
 10
42.1098642737
 20
-167.7500153353
 10
42.1914061793
 20
-167.7970966097
 10
42.2727341325
 20
-167.8401277124
 10
42.3538470083
 20
-167.8790873522
 10
42.4347459317
 20
-167.9139968205
 10
42.5150063716
 20
-167.9446729237
 10
42.5946249717
 20
-167.9710934076
 10
42.6736050884
 20
-167.9932805265
 10
42.7515322601
 20
-168.0111178498
 10
42.8284009516
 20
-168.024582511
 10
42.9042166981
 20
-168.0336973765
 10
42.9785816435
 20
-168.0384146145
 10
43.0514881612
 20
-168.0387111073
 10
43.1229438778
 20
-168.0346099725
 10
43.1925738173
 20
-168.0261327316
 10
43.2603683818
 20
-168.01325638
 10
43.3263371692
 20
-167.9960039223
 10
43.390133997
 20
-167.9744658937
 10
43.4517474476
 20
-167.9486197655
 10
43.5111889387
 20
-167.9184880664
 10
43.5256971577
 20
-167.9102903351
  0
LWPOLYLINE
  5
316
100
AcDbEntity
  8
ASSI
100
AcDbPolyline
 62
7
  6
CONTINUOUS
 90
45
 70
0
 10
41.6203051406
 20
-163.5894623282
 10
41.6220357099
 20
-163.6847579367
 10
41.6271468123
 20
-163.7815123115
 10
41.6356384481
 20
-163.8797254525
 10
41.6475373443
 20
-163.9795745699
 10
41.6628167738
 20
-164.0808824535
 10
41.6813965551
 20
-164.1831174731
 10
41.7032940378
 20
-164.2862845023
 10
41.7284918724
 20
-164.3903786674
 10
41.756857829
 20
-164.4948537165
 10
41.7884085618
 20
-164.5997116518
 10
41.8231274166
 20
-164.7049504712
 10
41.8608322003
 20
-164.810017916
 10
41.9015386094
 20
-164.9149130852
 10
41.9452309474
 20
-165.0196368798
 10
41.9916799312
 20
-165.1236397438
 10
42.0409000521
 20
-165.2269178875
 10
42.0928768189
 20
-165.3294751005
 10
42.1473374747
 20
-165.4307731965
 10
42.2042950768
 20
-165.5308055565
 10
42.2637365678
 20
-165.6295787995
 10
42.3253500184
 20
-165.726574596
 10
42.3891468462
 20
-165.8217836023
 10
42.4551156336
 20
-165.9152151621
 10
42.5229101982
 20
-166.0063789775
 10
42.5925401377
 20
-166.0952631272
 10
42.6639958543
 20
-166.1818795324
 10
42.7369023719
 20
-166.2657736587
 10
42.8112673173
 20
-166.3469311957
 10
42.8870830638
 20
-166.4253664538
 10
42.9639517553
 20
-166.5006678307
 10
43.041878927
 20
-166.572818852
 10
43.1208590437
 20
-166.6418359922
 10
43.2004776438
 20
-166.7073570719
 10
43.2807380838
 20
-166.769363713
 10
43.3616370071
 20
-166.8278742936
 10
43.442749883
 20
-166.8825817697
 10
43.5240778361
 20
-166.9334661486
 10
43.6056197417
 20
-166.980547423
 10
43.6869476948
 20
-167.0235785257
 10
43.7680605707
 20
-167.0625381656
 10
43.848959494
 20
-167.0974476338
 10
43.929219934
 20
-167.128123737
 10
44.0088385341
 20
-167.154544221
 10
44.0368945378
 20
-167.1624257222
  0
LWPOLYLINE
  5
317
100
AcDbEntity
  8
ASSI
100
AcDbPolyline
 62
7
  6
CONTINUOUS
 90
58
 70
0
 10
44.0951788748
 20
-164.6103460862
 10
44.0934483056
 20
-164.5150504777
 10
44.0883372031
 20
-164.4182961029
 10
44.0798455673
 20
-164.3200829619
 10
44.0679466711
 20
-164.2202338445
 10
44.0526672417
 20
-164.1189259609
 10
44.0340874603
 20
-164.0166909414
 10
44.0121899776
 20
-163.9135239121
 10
43.986992143
 20
-163.809429747
 10
43.9586261865
 20
-163.7049546979
 10
43.9270754536
 20
-163.6000967626
 10
43.8923565988
 20
-163.4948579432
 10
43.8546518151
 20
-163.3897904985
 10
43.813945406
 20
-163.2848953292
 10
43.7702530681
 20
-163.1801715346
 10
43.7238040843
 20
-163.0761686706
 10
43.6745839633
 20
-162.972890527
 10
43.6226071965
 20
-162.8703333139
 10
43.5681465408
 20
-162.7690352179
 10
43.5111889387
 20
-162.6690028579
 10
43.4517474476
 20
-162.5702296149
 10
43.390133997
 20
-162.4732338184
 10
43.3263371692
 20
-162.3780248121
 10
43.2603683818
 20
-162.2845932523
 10
43.1925738173
 20
-162.1934294369
 10
43.1229438778
 20
-162.1045452873
 10
43.0514881612
 20
-162.0179288821
 10
42.9785816435
 20
-161.9340347557
 10
42.9042166981
 20
-161.8528772187
 10
42.8284009516
 20
-161.7744419606
 10
42.7515322601
 20
-161.6991405837
 10
42.6736050884
 20
-161.6269895624
 10
42.5946249717
 20
-161.5579724222
 10
42.5150063716
 20
-161.4924513425
 10
42.4347459317
 20
-161.4304447014
 10
42.3538470083
 20
-161.3719341208
 10
42.2727341325
 20
-161.3172266447
 10
42.1914061793
 20
-161.2663422658
 10
42.1098642737
 20
-161.2192609914
 10
42.0285363206
 20
-161.1762298887
 10
41.9474234447
 20
-161.1372702488
 10
41.8665245214
 20
-161.1023607806
 10
41.7862640814
 20
-161.0716846774
 10
41.7066454813
 20
-161.0452641935
 10
41.6276653646
 20
-161.0230770745
 10
41.5497381929
 20
-161.0052397513
 10
41.4728695014
 20
-160.9917750901
 10
41.397053755
 20
-160.9826602246
 10
41.3226888096
 20
-160.9779429866
 10
41.2497822919
 20
-160.9776464938
 10
41.1783265753
 20
-160.9817476286
 10
41.1086966358
 20
-160.9902248694
 10
41.0409020713
 20
-161.003101221
 10
40.9749332839
 20
-161.0203536787
 10
40.911136456
 20
-161.0418917074
 10
40.8495230054
 20
-161.0677378355
 10
40.7900815144
 20
-161.0978695346
 10
40.7755732954
 20
-161.1060672659
  0
LINE
  5
318
100
AcDbEntity
  8
ASSI
100
AcDbLine
 62
7
  6
CONTINUOUS
 10
40.2060915783
 20
-164.4060115149
 11
40.2060915783
 21
-162.3648358229
  0
LINE
  5
319
100
AcDbEntity
  8
ASSI
100
AcDbLine
 62
7
  6
CONTINUOUS
 10
41.6203051406
 20
-163.5894623282
 11
41.6203051406
 21
-161.5482866362
  0
LINE
  5
31A
100
AcDbEntity
  8
ASSI
100
AcDbLine
 62
7
  6
CONTINUOUS
 10
44.0951788748
 20
-164.6103460862
 11
44.0951788748
 21
-166.6515217782
  0
LWPOLYLINE
  5
31B
100
AcDbEntity
  8
ASSI
100
AcDbPolyline
 62
7
  6
CONTINUOUS
 90
4
 70
0
 10
24.1286164223
 20
-151.0513788935
 10
24.1254875795
 20
-151.0825686706
 10
24.1209505321
 20
-151.1598771035
 10
24.1194123063
 20
-151.2393728822
  0
LWPOLYLINE
  5
31C
100
AcDbEntity
  8
0
100
AcDbPolyline
 62
7
  6
CONTINUOUS
 90
4
 70
0
 10
-50.8628279096
 20
-105.1085237176
 10
-50.9273268245
 20
-105.1656027189
 10
-50.9513439409
 20
-105.1833047323
 10
-50.9702786826
 20
-105.1951066066
  0
LWPOLYLINE
  5
31D
100
AcDbEntity
  8
0
100
AcDbPolyline
 62
7
  6
CONTINUOUS
 90
52
 70
0
 10
-55.5235461369
 20
-81.9588911485
 10
-55.5042467521
 20
-81.9473924717
 10
-55.4541092175
 20
-81.914068256
 10
-55.4063361992
 20
-81.8771419966
 10
-55.3609399599
 20
-81.8365950318
 10
-55.3179082369
 20
-81.7924460234
 10
-55.2774636828
 20
-81.744923728
 10
-55.2396197111
 20
-81.6940106701
 10
-55.2043629082
 20
-81.639724325
 10
-55.171875686
 20
-81.5823458754
 10
-55.1421724008
 20
-81.5218593029
 10
-55.1152386962
 20
-81.4582806258
 10
-55.0912139147
 20
-81.3919390806
 10
-55.0701131329
 20
-81.3228203547
 10
-55.0519212742
 20
-81.2509387607
 10
-55.0367324515
 20
-81.1766664731
 10
-55.0245622277
 20
-81.0999911065
 10
-55.0153950398
 20
-81.0209250463
 10
-55.0092783119
 20
-80.9398776236
 10
-55.0062278519
 20
-80.856838572
 10
-55.0062278519
 20
-80.7718181578
 10
-55.0092783119
 20
-80.6852565115
 10
-55.0153950398
 20
-80.5971456447
 10
-55.0245622277
 20
-80.5074935458
 10
-55.0367324515
 20
-80.4167643097
 10
-55.0519212742
 20
-80.3249523504
 10
-55.0701131329
 20
-80.232063254
 10
-55.0912139147
 20
-80.1385778742
 10
-55.1152386962
 20
-80.0444931135
 10
-55.1421724008
 20
-79.9498120695
 10
-55.171875686
 20
-79.8550248878
 10
-55.2043629082
 20
-79.7601310082
 10
-55.2396197111
 20
-79.665130991
 10
-55.2774636828
 20
-79.5705166632
 10
-55.3179082369
 20
-79.4762900103
 10
-55.3609399599
 20
-79.3824490469
 10
-55.4063361992
 20
-79.2894796429
 10
-55.4541092175
 20
-79.1973862995
 10
-55.5042467521
 20
-79.1061645155
 10
-55.5564893626
 20
-79.0162866572
 10
-55.6108479704
 20
-78.9277596721
 10
-55.6673116541
 20
-78.8405766127
 10
-55.7255882094
 20
-78.7551890026
 10
-55.7856870467
 20
-78.6716061285
 10
-55.8475987556
 20
-78.5898187037
 10
-55.9110029009
 20
-78.5102503921
 10
-55.9759072356
 20
-78.4329126759
 10
-56.0423040066
 20
-78.3577940729
 10
-56.1098495196
 20
-78.2852838002
 10
-56.1784292099
 20
-78.2155115967
 10
-56.2481576421
 20
-78.1483477235
 10
-56.3190348164
 20
-78.0837921805
  0
LWPOLYLINE
  5
31E
100
AcDbEntity
  8
0
100
AcDbPolyline
 62
7
  6
CONTINUOUS
 90
52
 70
0
 10
-54.1093325745
 20
-81.1423419618
 10
-54.0900331897
 20
-81.1308432851
 10
-54.0398956551
 20
-81.0975190693
 10
-53.9921226368
 20
-81.0605928099
 10
-53.9467263975
 20
-81.0200458452
 10
-53.9036946746
 20
-80.9758968368
 10
-53.8632501204
 20
-80.9283745413
 10
-53.8254061487
 20
-80.8774614834
 10
-53.7901493459
 20
-80.8231751384
 10
-53.7576621236
 20
-80.7657966887
 10
-53.7279588384
 20
-80.7053101163
 10
-53.7010251338
 20
-80.6417314392
 10
-53.6770003523
 20
-80.575389894
 10
-53.6558995705
 20
-80.506271168
 10
-53.6377077119
 20
-80.434389574
 10
-53.6225188892
 20
-80.3601172864
 10
-53.6103486653
 20
-80.2834419198
 10
-53.6011814774
 20
-80.2043758597
 10
-53.5950647495
 20
-80.123328437
 10
-53.5920142895
 20
-80.0402893853
 10
-53.5920142895
 20
-79.9552689712
 10
-53.5950647495
 20
-79.8687073248
 10
-53.6011814774
 20
-79.7805964581
 10
-53.6103486653
 20
-79.6909443591
 10
-53.6225188892
 20
-79.6002151231
 10
-53.6377077119
 20
-79.5084031638
 10
-53.6558995705
 20
-79.4155140674
 10
-53.6770003523
 20
-79.3220286875
 10
-53.7010251338
 20
-79.2279439269
 10
-53.7279588384
 20
-79.1332628828
 10
-53.7576621236
 20
-79.0384757011
 10
-53.7901493459
 20
-78.9435818215
 10
-53.8254061487
 20
-78.8485818043
 10
-53.8632501204
 20
-78.7539674765
 10
-53.9036946746
 20
-78.6597408237
 10
-53.9467263975
 20
-78.5658998602
 10
-53.9921226368
 20
-78.4729304562
 10
-54.0398956551
 20
-78.3808371128
 10
-54.0900331897
 20
-78.2896153289
 10
-54.1422758002
 20
-78.1997374706
 10
-54.196634408
 20
-78.1112104855
 10
-54.2530980917
 20
-78.024027426
 10
-54.311374647
 20
-77.938639816
 10
-54.3714734843
 20
-77.8550569418
 10
-54.4333851933
 20
-77.773269517
 10
-54.4967893385
 20
-77.6937012054
 10
-54.5616936732
 20
-77.6163634892
 10
-54.6280904442
 20
-77.5412448862
 10
-54.6956359572
 20
-77.4687346135
 10
-54.7642156475
 20
-77.39896241
 10
-54.8339440798
 20
-77.3317985368
 10
-54.904821254
 20
-77.2672429939
  0
LINE
  5
31F
100
AcDbEntity
  8
0
100
AcDbLine
 62
253
  6
CONTINUOUS
 10
-56.8443141396
 20
-76.9914873241
 11
-55.4301005772
 21
-76.1749381374
  0
LINE
  5
320
100
AcDbEntity
  8
0
100
AcDbLine
 62
253
  6
CONTINUOUS
 10
-56.3190348164
 20
-78.0837921805
 11
-54.904821254
 21
-77.2672429939
  0
LINE
  5
321
100
AcDbEntity
  8
0
100
AcDbLine
 62
253
  6
CONTINUOUS
 10
-56.8443141396
 20
-82.514593434
 11
-56.0770792322
 21
-82.0716016142
  0
LINE
  5
322
100
AcDbEntity
  8
ASSI
100
AcDbLine
 62
7
  6
CONTINUOUS
 10
-54.1093294987
 20
-81.1423472879
 11
-55.5235430611
 21
-81.9588964746
  0
LWPOLYLINE
  5
323
100
AcDbEntity
  8
0
100
AcDbPolyline
 62
7
  6
CONTINUOUS
 90
11
 70
0
 10
-56.6372278854
 20
-82.0568628626
 10
-56.620020217
 20
-82.0475807672
 10
-56.5911234888
 20
-82.0347602894
 10
-56.5607899077
 20
-82.0245446698
 10
-56.5292894886
 20
-82.017024843
 10
-56.4966118141
 20
-82.0122248771
 10
-56.4627673017
 20
-82.010120704
 10
-56.4280572189
 20
-82.010731054
 10
-56.3925819884
 20
-82.0140621706
 10
-56.3562411876
 20
-82.0201078104
 10
-56.3190348164
 20
-82.0288679734
  0
LWPOLYLINE
  5
324
100
AcDbEntity
  8
0
100
AcDbPolyline
 62
7
  6
CONTINUOUS
 90
15
 70
0
 10
-61.4051528782
 20
86.3784444933
 10
-61.5592054805
 20
86.4858853671
 10
-61.7006268368
 20
86.611294796
 10
-61.829416947
 20
86.7546727801
 10
-61.948658049
 20
86.9213579119
 10
-62.055267905
 20
87.1060115989
 10
-62.1399998011
 20
87.2926180628
 10
-62.2008996766
 20
87.4813517185
 10
-62.2399215922
 20
87.6720381512
 10
-62.2536810157
 20
87.8481383374
 10
-62.2399215922
 20
88.0083494864
 10
-62.2008996766
 20
88.153974389
 10
-62.1399998011
 20
88.272382395
 10
-62.055267905
 20
88.3611425891
 10
-62.0041487496
 20
88.3956332571
  0
LWPOLYLINE
  5
325
100
AcDbEntity
  8
0
100
AcDbPolyline
 62
7
  6
CONTINUOUS
 90
15
 70
0
 10
-61.4051528782
 20
88.3379731576
 10
-61.2511002759
 20
88.2305322838
 10
-61.1096789197
 20
88.1051228548
 10
-60.9808888095
 20
87.9617448708
 10
-60.8616477075
 20
87.7950597389
 10
-60.7550378515
 20
87.6104060519
 10
-60.6703059554
 20
87.4237995881
 10
-60.6094060799
 20
87.2350659323
 10
-60.5703841643
 20
87.0443794997
 10
-60.5566247408
 20
86.8682793134
 10
-60.5703841643
 20
86.7080681645
 10
-60.6094060799
 20
86.5624432619
 10
-60.6703059554
 20
86.4440352559
 10
-60.7550378515
 20
86.3552750617
 10
-60.8061570069
 20
86.3207843938
  0
LWPOLYLINE
  5
326
100
AcDbEntity
  8
ASSI
100
AcDbPolyline
 62
7
  6
CONTINUOUS
 90
49
 70
0
 10
62.5506658638
 20
-186.0845441396
 10
62.5494547304
 20
-186.0286772369
 10
62.5459007211
 20
-185.9718653353
 10
62.5400038358
 20
-185.9141084348
 10
62.5317378079
 20
-185.8552584894
 10
62.5211289041
 20
-185.795463545
 10
62.5082559239
 20
-185.7351677393
 10
62.4931020086
 20
-185.674367343
 10
62.4756840168
 20
-185.6130660854
 10
62.4561313239
 20
-185.5517192927
 10
62.4344280346
 20
-185.4903266258
 10
62.4105900441
 20
-185.4288884238
 10
62.3847944134
 20
-185.36786103
 10
62.3570265657
 20
-185.3072475032
 10
62.3273010778
 20
-185.2470447847
 10
62.295838741
 20
-185.1877000409
 10
62.2626266227
 20
-185.1292196604
 10
62.2276776556
 20
-185.0715972547
 10
62.1912514295
 20
-185.0152608244
 10
62.1533369444
 20
-184.9602199452
 10
62.1139452003
 20
-184.9064650415
 10
62.0733687865
 20
-184.8543953875
 10
62.0315988816
 20
-184.8040235319
 10
61.988644307
 20
-184.755336926
 10
61.9448241155
 20
-184.7086971983
 10
61.9001318615
 20
-184.6641195903
 10
61.8545739906
 20
-184.6215888605
 10
61.808488892
 20
-184.5814209136
 10
61.76187264
 20
-184.5436333432
 10
61.7147291603
 20
-184.5082085558
 10
61.6674086197
 20
-184.4754096752
 10
61.6199096997
 20
-184.4452562544
 10
61.5722337187
 20
-184.4177287405
 10
61.5247347986
 20
-184.3930315991
 10
61.477414258
 20
-184.3711859054
 10
61.4302707783
 20
-184.3521705843
 10
61.3836545263
 20
-184.3361268753
 10
61.3375694278
 20
-184.3230769055
 10
61.2920115568
 20
-184.3129985479
 10
61.2473193029
 20
-184.3059666613
 10
61.2034991113
 20
-184.3020039301
 10
61.1605445367
 20
-184.30108767
 10
61.1187746319
 20
-184.3032246865
 10
61.078198218
 20
-184.3084377148
 10
61.0388064739
 20
-184.3167040198
 10
61.0008919889
 20
-184.3279622021
 10
60.9644657627
 20
-184.3422345395
 10
60.9295167956
 20
-184.359498754
 10
60.9210435396
 20
-184.3642656787
  0
LWPOLYLINE
  5
327
100
AcDbEntity
  8
ASSI
100
AcDbPolyline
 62
7
  6
CONTINUOUS
 90
55
 70
0
 10
58.4140911938
 20
-174.7149647239
 10
58.4156294197
 20
-174.7962368072
 10
58.4201664671
 20
-174.8787845087
 10
58.427702336
 20
-174.9626078284
 10
58.4382627557
 20
-175.0478709766
 10
58.4518219969
 20
-175.134409743
 10
58.4683028722
 20
-175.2217314967
 10
58.4877220451
 20
-175.3098407034
 10
58.5100628521
 20
-175.3987328974
 10
58.535198116
 20
-175.4879020508
 10
58.5631437747
 20
-175.5773497431
 10
58.5938838902
 20
-175.6670743947
 10
58.6272434712
 20
-175.7565652388
 10
58.6632374577
 20
-175.8458209418
 10
58.7018509097
 20
-175.9348428374
 10
58.7428640162
 20
-176.023124159
 10
58.7862904634
 20
-176.110660683
 10
58.8321165651
 20
-176.1974566331
 10
58.8800814515
 20
-176.2830179145
 10
58.9301973209
 20
-176.3673374852
 10
58.982451975
 20
-176.4504223871
 10
59.0365479487
 20
-176.5317996509
 10
59.0924957439
 20
-176.6114595372
 10
59.1502848587
 20
-176.6894117852
 10
59.2095863227
 20
-176.7652126439
 10
59.2704087613
 20
-176.8388498429
 10
59.3327435491
 20
-176.9103356525
 10
59.3962358388
 20
-176.9792631324
 10
59.4608922322
 20
-177.0456176913
 10
59.5267061274
 20
-177.1094139204
 10
59.5933028722
 20
-177.1702886532
 10
59.6606869315
 20
-177.228225227
 10
59.7288538402
 20
-177.2832403045
 10
59.7974155513
 20
-177.3350207066
 10
59.8663743165
 20
-177.3835479846
 10
59.935727884
 20
-177.4288405872
 10
60.0050814515
 20
-177.4706406816
 10
60.074435019
 20
-177.5089283486
 10
60.1437885865
 20
-177.5437235073
 10
60.2127473517
 20
-177.5748280828
 10
60.2813090628
 20
-177.6022210261
 10
60.3494759715
 20
-177.6259233862
 10
60.4168600307
 20
-177.6458002349
 10
60.4834567755
 20
-177.6618297537
 10
60.5492706708
 20
-177.6740337612
 10
60.6139270642
 20
-177.6823427846
 10
60.6774193539
 20
-177.6867346095
 10
60.7397541417
 20
-177.6872314503
 10
60.8005765803
 20
-177.6838304789
 10
60.8598780443
 20
-177.6765094644
 10
60.9176671591
 20
-177.6652906375
 10
60.9736149543
 20
-177.6502378628
 10
61.027710928
 20
-177.6313292735
 10
61.0799655821
 20
-177.6085867363
 10
61.1301358118
 20
-177.5821083314
  0
LWPOLYLINE
  5
328
100
AcDbEntity
  8
ASSI
100
AcDbPolyline
 62
7
  6
CONTINUOUS
 90
40
 70
0
 10
59.8283047562
 20
-173.8984155372
 10
59.829842982
 20
-173.9796876205
 10
59.8343800294
 20
-174.0622353221
 10
59.8419158984
 20
-174.1460586418
 10
59.852476318
 20
-174.23132179
 10
59.8660355592
 20
-174.3178605563
 10
59.8825164346
 20
-174.40518231
 10
59.9019356075
 20
-174.4932915167
 10
59.9242764145
 20
-174.5821837108
 10
59.9494116784
 20
-174.6713528641
 10
59.977357337
 20
-174.7608005564
 10
60.0080974525
 20
-174.850525208
 10
60.0414570335
 20
-174.9400160521
 10
60.07745102
 20
-175.0292717552
 10
60.1160644721
 20
-175.1182936507
 10
60.1570775786
 20
-175.2065749724
 10
60.2005040258
 20
-175.2941114963
 10
60.2463301275
 20
-175.3809074465
 10
60.2942950139
 20
-175.4664687278
 10
60.3444108833
 20
-175.5507882985
 10
60.3966655374
 20
-175.6338732005
 10
60.4507615111
 20
-175.7152504643
 10
60.5067093062
 20
-175.7949103505
 10
60.5644984211
 20
-175.8728625986
 10
60.623799885
 20
-175.9486634573
 10
60.6846223237
 20
-176.0223006563
 10
60.7469571115
 20
-176.0937864659
 10
60.8104494012
 20
-176.1627139457
 10
60.8751057946
 20
-176.2290685046
 10
60.9409196898
 20
-176.2928647338
 10
61.0075164346
 20
-176.3537394665
 10
61.0749004938
 20
-176.4116760404
 10
61.1430674026
 20
-176.4666911179
 10
61.2116291137
 20
-176.51847152
 10
61.2805878788
 20
-176.566998798
 10
61.3499414464
 20
-176.6122914006
 10
61.4192950139
 20
-176.654091495
 10
61.4886485814
 20
-176.6923791619
 10
61.5580021489
 20
-176.7271743207
 10
61.5868675931
 20
-176.7401943825
  0
LWPOLYLINE
  5
329
100
AcDbEntity
  8
ASSI
100
AcDbPolyline
 62
7
  6
CONTINUOUS
 90
55
 70
0
 10
61.5960717092
 20
-174.5110247019
 10
61.5945334833
 20
-174.4297526185
 10
61.5899964359
 20
-174.347204917
 10
61.582460567
 20
-174.2633815973
 10
61.5719001473
 20
-174.1781184491
 10
61.5583409061
 20
-174.0915796827
 10
61.5418600307
 20
-174.004257929
 10
61.5224408579
 20
-173.9161487223
 10
61.5001000508
 20
-173.8272565283
 10
61.474964787
 20
-173.7380873749
 10
61.4470191283
 20
-173.6486396826
 10
61.4162790128
 20
-173.558915031
 10
61.3829194318
 20
-173.4694241869
 10
61.3469254453
 20
-173.3801684839
 10
61.3083119933
 20
-173.2911465884
 10
61.2672988868
 20
-173.2028652667
 10
61.2238724396
 20
-173.1153287427
 10
61.1780463379
 20
-173.0285327926
 10
61.1300814515
 20
-172.9429715113
 10
61.0799655821
 20
-172.8586519405
 10
61.027710928
 20
-172.7755670386
 10
60.9736149543
 20
-172.6941897748
 10
60.9176671591
 20
-172.6145298886
 10
60.8598780443
 20
-172.5365776405
 10
60.8005765803
 20
-172.4607767818
 10
60.7397541417
 20
-172.3871395828
 10
60.6774193539
 20
-172.3156537732
 10
60.6139270642
 20
-172.2467262933
 10
60.5492706708
 20
-172.1803717344
 10
60.4834567755
 20
-172.1165755053
 10
60.4168600307
 20
-172.0557007725
 10
60.3494759715
 20
-171.9977641987
 10
60.2813090628
 20
-171.9427491212
 10
60.2127473517
 20
-171.8909687191
 10
60.1437885865
 20
-171.8424414411
 10
60.074435019
 20
-171.7971488385
 10
60.0050814515
 20
-171.7553487441
 10
59.935727884
 20
-171.7170610771
 10
59.8663743165
 20
-171.6822659184
 10
59.7974155513
 20
-171.6511613429
 10
59.7288538402
 20
-171.6237683996
 10
59.6606869315
 20
-171.6000660395
 10
59.5933028722
 20
-171.5801891908
 10
59.5267061274
 20
-171.564159672
 10
59.4608922322
 20
-171.5519556646
 10
59.3962358388
 20
-171.5436466411
 10
59.3327435491
 20
-171.5392548163
 10
59.2704087613
 20
-171.5387579754
 10
59.2095863227
 20
-171.5421589468
 10
59.1502848587
 20
-171.5494799614
 10
59.0924957439
 20
-171.5606987882
 10
59.0365479487
 20
-171.5757515629
 10
58.982451975
 20
-171.5946601522
 10
58.9301973209
 20
-171.6174026895
 10
58.8800270912
 20
-171.6438810943
  0
LINE
  5
32A
100
AcDbEntity
  8
ASSI
100
AcDbLine
 62
253
  6
CONTINUOUS
 10
54.2775165239
 20
118.0491346784
 11
54.2775165239
 21
116.4161941248
  0
LINE
  5
32B
100
AcDbEntity
  8
ASSI
100
AcDbLine
 62
7
  6
CONTINUOUS
 10
58.4140911938
 20
-174.7149647239
 11
58.4140911938
 21
-172.6737890319
  0
LINE
  5
32C
100
AcDbEntity
  8
ASSI
100
AcDbLine
 62
7
  6
CONTINUOUS
 10
59.8283047562
 20
-173.8984155372
 11
59.8283047562
 21
-171.8572398452
  0
LWPOLYLINE
  5
32D
100
AcDbEntity
  8
0
100
AcDbPolyline
 62
7
  6
CONTINUOUS
 90
13
 70
0
 10
-61.7793939617
 20
-99.7817626345
 10
-61.797046039
 20
-99.7936418521
 10
-61.8639893829
 20
-99.861379832
 10
-61.9095267622
 20
-99.9495082844
 10
-61.9309327267
 20
-100.0606233653
 10
-61.9309327267
 20
-100.1921289187
 10
-61.9095267622
 20
-100.3279630708
 10
-61.8639893829
 20
-100.4686769474
 10
-61.797046039
 20
-100.6137194228
 10
-61.7168730816
 20
-100.7453752453
 10
-61.6261959608
 20
-100.8577393312
 10
-61.5222892263
 20
-100.9567167642
 10
-61.4051528782
 20
-101.0423075445
  0
LWPOLYLINE
  5
32E
100
AcDbEntity
  8
0
100
AcDbPolyline
 62
7
  6
CONTINUOUS
 90
13
 70
0
 10
-61.0309117948
 20
-101.0781470393
 10
-61.0132597174
 20
-101.0662678217
 10
-60.9463163736
 20
-100.9985298419
 10
-60.9007789943
 20
-100.9104013894
 10
-60.8793730298
 20
-100.7992863086
 10
-60.8793730298
 20
-100.6677807552
 10
-60.9007789943
 20
-100.531946603
 10
-60.9463163736
 20
-100.3912327264
 10
-61.0132597174
 20
-100.2461902511
 10
-61.0934326749
 20
-100.1145344286
 10
-61.1841097957
 20
-100.0021703427
 10
-61.2880165302
 20
-99.9031929096
 10
-61.4051528782
 20
-99.8176021293
  0
LWPOLYLINE
  5
32F
100
AcDbEntity
  8
ASSI
100
AcDbPolyline
 62
7
  6
CONTINUOUS
 90
11
 70
0
 10
-61.5498509619
 20
-98.9546411321
 10
-61.5745898242
 20
-98.9700020662
 10
-61.606052161
 20
-98.9930148921
 10
-61.6357776489
 20
-99.0188913623
 10
-61.6635454966
 20
-99.0474392745
 10
-61.6893411273
 20
-99.0786785205
 10
-61.7131791178
 20
-99.1125892087
 10
-61.7348824071
 20
-99.1489194611
 10
-61.7544351
 20
-99.1876872941
 10
-61.7718530918
 20
-99.2288746915
 10
-61.7837587725
 20
-99.2628941699
  0
LWPOLYLINE
  5
330
100
AcDbEntity
  8
ASSI
100
AcDbPolyline
 62
7
  6
CONTINUOUS
 90
17
 70
0
 10
-60.1997946228
 20
-101.2928566518
 10
-60.1750557605
 20
-101.2774957177
 10
-60.1435934237
 20
-101.2544828917
 10
-60.1138679358
 20
-101.2286064216
 10
-60.0861000881
 20
-101.2000585094
 10
-60.0603044574
 20
-101.1688192633
 10
-60.0364664669
 20
-101.1349085752
 10
-60.0147631776
 20
-101.0985783228
 10
-59.9952104847
 20
-101.0598104897
 10
-59.9777924929
 20
-101.0186230924
 10
-59.9626385776
 20
-100.9753220576
 10
-59.9497655974
 20
-100.9298916469
 10
-59.9391566936
 20
-100.8823475987
 10
-59.9308906657
 20
-100.833043055
 10
-59.9249937804
 20
-100.7820957298
 10
-59.9214397711
 20
-100.7293879091
 10
-59.9202286377
 20
-100.6749195929
  0
LWPOLYLINE
  5
331
100
AcDbEntity
  8
0
100
AcDbPolyline
 62
7
  6
CONTINUOUS
 90
52
 70
0
 10
69.1141384713
 20
-28.5660748897
 10
69.0948390865
 20
-28.5775735664
 10
69.0447015519
 20
-28.6108977822
 10
68.9969285336
 20
-28.6478240416
 10
68.9515322943
 20
-28.6883710064
 10
68.9085005713
 20
-28.7325200147
 10
68.8680560172
 20
-28.7800423102
 10
68.8302120455
 20
-28.8309553681
 10
68.7949552426
 20
-28.8852417131
 10
68.7624680204
 20
-28.9426201628
 10
68.7327647352
 20
-29.0031067352
 10
68.7058310306
 20
-29.0666854124
 10
68.6818062491
 20
-29.1330269576
 10
68.6607054673
 20
-29.2021456835
 10
68.6425136087
 20
-29.2740272775
 10
68.6273247859
 20
-29.3482995651
 10
68.6151545621
 20
-29.4249749317
 10
68.6059873742
 20
-29.5040409919
 10
68.5998706463
 20
-29.5850884145
 10
68.5968201863
 20
-29.6681274662
 10
68.5968201863
 20
-29.7531478803
 10
68.5998706463
 20
-29.8397095267
 10
68.6059873742
 20
-29.9278203934
 10
68.6151545621
 20
-30.0174724924
 10
68.6273247859
 20
-30.1082017284
 10
68.6425136087
 20
-30.2000136878
 10
68.6607054673
 20
-30.2929027842
 10
68.6818062491
 20
-30.386388164
 10
68.7058310306
 20
-30.4804729246
 10
68.7327647352
 20
-30.5751539687
 10
68.7624680204
 20
-30.6699411504
 10
68.7949552426
 20
-30.76483503
 10
68.8302120455
 20
-30.8598350472
 10
68.8680560172
 20
-30.954449375
 10
68.9085005713
 20
-31.0486760278
 10
68.9515322943
 20
-31.1425169913
 10
68.9969285336
 20
-31.2354863953
 10
69.0447015519
 20
-31.3275797387
 10
69.0948390865
 20
-31.4188015227
 10
69.147081697
 20
-31.508679381
 10
69.2014403048
 20
-31.5972063661
 10
69.2579039885
 20
-31.6843894255
 10
69.3161805438
 20
-31.7697770356
 10
69.3762793811
 20
-31.8533599097
 10
69.43819109
 20
-31.9351473345
 10
69.5015952353
 20
-32.0147156461
 10
69.56649957
 20
-32.0920533623
 10
69.632896341
 20
-32.1671719653
 10
69.700441854
 20
-32.239682238
 10
69.7690215443
 20
-32.3094544415
 10
69.8387499765
 20
-32.3766183147
 10
69.9096271508
 20
-32.4411738576
  0
LINE
  5
332
100
AcDbEntity
  8
0
100
AcDbLine
 62
7
  6
CONTINUOUS
 10
-62.0051818704
 20
-99.3907410916
 11
-61.1660200125
 21
-98.9062195519
  0
LINE
  5
333
100
AcDbEntity
  8
0
100
AcDbLine
 62
7
  6
CONTINUOUS
 10
-60.8051238861
 20
-101.4691685823
 11
-59.9658868122
 21
-100.984603614
  0
LINE
  5
334
100
AcDbEntity
  8
0
100
AcDbLine
 62
253
  6
CONTINUOUS
 10
-56.8443141396
 20
-101.2262086587
 11
-55.4301005772
 21
-100.409659472
  0
LINE
  5
335
100
AcDbEntity
  8
0
100
AcDbLine
 62
7
  6
CONTINUOUS
 10
70.0106424053
 20
-28.048437652
 11
69.1141353955
 21
-28.5660695636
  0
LINE
  5
336
100
AcDbEntity
  8
0
100
AcDbLine
 62
253
  6
CONTINUOUS
 10
69.9096271508
 20
-28.4960980648
 11
70.0106424053
 21
-28.4377731229
  0
LINE
  5
337
100
AcDbEntity
  8
0
100
AcDbLine
 62
253
  6
CONTINUOUS
 10
-56.1372073584
 20
-102.4509535288
 11
-54.722993796
 21
-101.6344043422
  0
LWPOLYLINE
  5
338
100
AcDbEntity
  8
0
100
AcDbPolyline
 62
7
  6
CONTINUOUS
 90
5
 70
0
 10
-61.4051528782
 20
86.7458561178
 10
-61.2880165302
 20
86.6961807795
 10
-61.1841097957
 20
86.6751693201
 10
-61.0934326749
 20
86.6828217398
 10
-61.0309117948
 20
86.710016623
  0
LWPOLYLINE
  5
339
100
AcDbEntity
  8
0
100
AcDbPolyline
 62
7
  6
CONTINUOUS
 90
5
 70
0
 10
-61.4051528782
 20
87.970561533
 10
-61.5222892263
 20
88.0202368714
 10
-61.6261959608
 20
88.0412483307
 10
-61.7168730816
 20
88.0335959111
 10
-61.7793939617
 20
88.0064010278
  0
LWPOLYLINE
  5
33A
100
AcDbEntity
  8
0
100
AcDbPolyline
 62
7
  6
CONTINUOUS
 90
27
 70
0
 10
52.7581593566
 20
116.9330210774
 10
52.7608449918
 20
116.8960257814
 10
52.76529385
 20
116.8583714117
 10
52.7715328561
 20
116.8199263951
 10
52.7795350851
 20
116.7808223048
 10
52.7892197619
 20
116.741453861
 10
52.8006039265
 20
116.7018183862
 10
52.8136705389
 20
116.6619185578
 10
52.8282877034
 20
116.6221571282
 10
52.8444711245
 20
116.5825354991
 10
52.8622050977
 20
116.5430522687
 10
52.8813106149
 20
116.5041059842
 10
52.9018015673
 20
116.465702084
 10
52.9236640636
 20
116.4278351296
 10
52.946677422
 20
116.3908873534
 10
52.9708532985
 20
116.354868065
 10
52.996180037
 20
116.3197679549
 10
53.0224019873
 20
116.2859413265
 10
53.0495282161
 20
116.2534010779
 10
53.0775496567
 20
116.222134311
 10
53.1061834582
 20
116.1924566354
 10
53.1354358227
 20
116.1643841455
 10
53.1653005481
 20
116.1379007469
 10
53.1954761772
 20
116.1132737651
 10
53.2258622245
 20
116.0905923089
 10
53.2565591755
 20
116.0697672696
 10
53.2875670302
 20
116.0507986472
  0
LWPOLYLINE
  5
33B
100
AcDbEntity
  8
0
100
AcDbPolyline
 62
7
  6
CONTINUOUS
 90
24
 70
0
 10
71.4248559677
 20
-202.7216943627
 10
71.4270315482
 20
-202.8631983214
 10
71.4334875564
 20
-203.0017113421
 10
71.4442239923
 20
-203.1372334247
 10
71.4592643476
 20
-203.2699222659
 10
71.4785851306
 20
-203.3996201691
 10
71.5021158662
 20
-203.5258540444
 10
71.5298719295
 20
-203.6486112408
 10
71.5618379454
 20
-203.7679044094
 10
71.5978973138
 20
-203.8832984129
 10
71.6380649838
 20
-203.9947790111
 10
71.6823260063
 20
-204.1023604442
 10
71.7305189335
 20
-204.2056502949
 10
71.7826581249
 20
-204.3046328901
 10
71.838729221
 20
-204.399323903
 10
71.8985276951
 20
-204.4893779358
 10
71.96206716
 20
-204.5747780539
 10
72.029334003
 20
-204.6555411921
 10
72.1000828595
 20
-204.7313727561
 10
72.1743264462
 20
-204.8022547357
 10
72.2520520464
 20
-204.8682051412
 10
72.3329761461
 20
-204.92898341
 10
72.4171104263
 20
-204.9845706532
 10
72.4602761132
 20
-205.0103664751
  0
LINE
  5
33C
100
AcDbEntity
  8
ASSI
100
AcDbLine
 62
7
  6
CONTINUOUS
 10
61.5960717092
 20
-174.5110247019
 11
61.5960717092
 21
-176.5522003938
  0
LINE
  5
33D
100
AcDbEntity
  8
ASSI
100
AcDbLine
 62
7
  6
CONTINUOUS
 10
64.4244988339
 20
55.3004016259
 11
64.4244988339
 21
104.3117204411
  0
LINE
  5
33E
100
AcDbEntity
  8
ASSI
100
AcDbLine
 62
7
  6
CONTINUOUS
 10
65.8387123963
 20
54.4838524393
 11
65.8387123963
 21
103.4951712545
  0
LINE
  5
33F
100
AcDbEntity
  8
0
100
AcDbLine
 62
7
  6
CONTINUOUS
 10
70.0106424053
 20
-201.9051451761
 11
70.0106424053
 21
36.8187092514
  0
LINE
  5
340
100
AcDbEntity
  8
0
100
AcDbLine
 62
7
  6
CONTINUOUS
 10
71.4248559677
 20
-202.7216943627
 11
71.4248559677
 21
36.0021600647
  0
LWPOLYLINE
  5
341
100
AcDbEntity
  8
0
100
AcDbPolyline
 62
7
  6
CONTINUOUS
 90
13
 70
0
 10
-48.9100505441
 20
-121.9088252154
 10
-48.9277026215
 20
-121.920704433
 10
-48.9946459653
 20
-121.9884424128
 10
-49.0401833446
 20
-122.0765708652
 10
-49.0615893091
 20
-122.1876859461
 10
-49.0615893091
 20
-122.3191914995
 10
-49.0401833446
 20
-122.4550256516
 10
-48.9946459653
 20
-122.5957395283
 10
-48.9277026215
 20
-122.7407820036
 10
-48.847529664
 20
-122.8724378261
 10
-48.7568525432
 20
-122.984801912
 10
-48.6529458087
 20
-123.0837793451
 10
-48.5358094606
 20
-123.1693701254
  0
LWPOLYLINE
  5
342
100
AcDbEntity
  8
0
100
AcDbPolyline
 62
7
  6
CONTINUOUS
 90
13
 70
0
 10
-48.1615683772
 20
-123.2052096201
 10
-48.1439162998
 20
-123.1933304026
 10
-48.076972956
 20
-123.1255924227
 10
-48.0314355767
 20
-123.0374639703
 10
-48.0100296122
 20
-122.9263488894
 10
-48.0100296122
 20
-122.794843336
 10
-48.0314355767
 20
-122.6590091839
 10
-48.076972956
 20
-122.5182953072
 10
-48.1439162998
 20
-122.3732528319
 10
-48.2240892573
 20
-122.2415970094
 10
-48.3147663781
 20
-122.1292329235
 10
-48.4186731126
 20
-122.0302554904
 10
-48.5358094606
 20
-121.9446647102
  0
LWPOLYLINE
  5
343
100
AcDbEntity
  8
0
100
AcDbPolyline
 62
7
  6
CONTINUOUS
 90
3
 70
0
 10
-50.7732946463
 20
-105.0465781843
 10
-50.8187828626
 20
-105.0753611652
 10
-50.8628279096
 20
-105.1085237176
  0
LWPOLYLINE
  5
344
100
AcDbEntity
  8
ASSI
100
AcDbPolyline
 62
7
  6
CONTINUOUS
 90
19
 70
0
 10
-47.5395434774
 20
-110.1985547985
 10
-47.5874540034
 20
-110.2286960474
 10
-47.6332801051
 20
-110.262573164
 10
-47.6767065524
 20
-110.2999619152
 10
-47.7177196589
 20
-110.3408823295
 10
-47.7563331109
 20
-110.3853143785
 10
-47.7923270974
 20
-110.4330051282
 10
-47.8256866784
 20
-110.4839731643
 10
-47.8564267939
 20
-110.5381999011
 10
-47.8843724526
 20
-110.5953766472
 10
-47.9095077164
 20
-110.6555202279
 10
-47.9318485235
 20
-110.718613818
 10
-47.9512676963
 20
-110.7842982506
 10
-47.9677485717
 20
-110.8525883025
 10
-47.9813078129
 20
-110.923469197
 10
-47.9918682325
 20
-110.9965374373
 10
-47.9994041015
 20
-111.0716585245
 10
-48.0039411489
 20
-111.1489669574
 10
-48.0054793748
 20
-111.2284627361
  0
LWPOLYLINE
  5
345
100
AcDbEntity
  8
ASSI
100
AcDbPolyline
 62
7
  6
CONTINUOUS
 90
19
 70
0
 10
-45.2894347568
 20
-116.1367820356
 10
-45.2415242307
 20
-116.1066407867
 10
-45.195698129
 20
-116.0727636701
 10
-45.1522716818
 20
-116.0353749189
 10
-45.1112585753
 20
-115.9944545046
 10
-45.0726451233
 20
-115.9500224556
 10
-45.0366511368
 20
-115.9023317059
 10
-45.0032915557
 20
-115.8513636698
 10
-44.9725514403
 20
-115.797136933
 10
-44.9446057816
 20
-115.7399601869
 10
-44.9194705177
 20
-115.6798166062
 10
-44.8971297107
 20
-115.6167230161
 10
-44.8777105378
 20
-115.5510385835
 10
-44.8612296625
 20
-115.4827485315
 10
-44.8476704213
 20
-115.411867637
 10
-44.8371100016
 20
-115.3387993967
 10
-44.8295741327
 20
-115.2636783096
 10
-44.8250370853
 20
-115.1863698767
 10
-44.8234988594
 20
-115.106874098
  0
LINE
  5
346
100
AcDbEntity
  8
0
100
AcDbLine
 62
253
  6
CONTINUOUS
 10
-51.4703026026
 20
-105.1455658448
 11
-50.0560890402
 21
-104.3290166581
  0
LINE
  5
347
100
AcDbEntity
  8
ASSI
100
AcDbLine
 62
7
  6
CONTINUOUS
 10
-49.3590810856
 20
-104.2300289946
 11
-50.773294648
 21
-105.0465781813
  0
LINE
  5
348
100
AcDbEntity
  8
0
100
AcDbLine
 62
7
  6
CONTINUOUS
 10
-72.1178206132
 20
-119.8415573679
 11
-65.3295955138
 21
-115.9221212719
  0
LINE
  5
349
100
AcDbEntity
  8
0
100
AcDbLine
 62
253
  6
CONTINUOUS
 10
-48.6418754778
 20
-106.4520761074
 11
-47.2276619154
 21
-105.6355269207
  0
LINE
  5
34A
100
AcDbEntity
  8
0
100
AcDbLine
 62
253
  6
CONTINUOUS
 10
-48.0761900529
 20
-107.1052838928
 11
-46.6619764905
 21
-106.2887347061
  0
LINE
  5
34B
100
AcDbEntity
  8
ASSI
100
AcDbLine
 62
253
  6
CONTINUOUS
 10
-46.5912658124
 20
-110.4119135494
 11
-48.0054793748
 21
-111.2284627361
  0
LINE
  5
34C
100
AcDbEntity
  8
ASSI
100
AcDbLine
 62
253
  6
CONTINUOUS
 10
-46.5912658124
 20
-112.4530892414
 11
-48.0054793748
 21
-113.269638428
  0
LWPOLYLINE
  5
34D
100
AcDbEntity
  8
0
100
AcDbPolyline
 62
7
  6
CONTINUOUS
 90
17
 70
0
 10
-50.9702786826
 20
-105.1951066066
 10
-50.9766685267
 20
-105.1987034491
 10
-51.0033745842
 20
-105.2118274538
 10
-51.0313881112
 20
-105.2226481619
 10
-51.0604871007
 20
-105.2310798193
 10
-51.0906801776
 20
-105.2371034426
 10
-51.121958717
 20
-105.2407380151
 10
-51.1540748366
 20
-105.241954733
 10
-51.1870351918
 20
-105.240734384
 10
-51.2208331272
 20
-105.2370961803
 10
-51.2552007944
 20
-105.2310689547
 10
-51.2901427206
 20
-105.222633724
 10
-51.3256543786
 20
-105.2118094714
 10
-51.3614543387
 20
-105.1986819789
 10
-51.3974487912
 20
-105.1832798407
 10
-51.4337315458
 20
-105.1655744626
 10
-51.4703026026
 20
-105.1455658448
  0
LWPOLYLINE
  5
34E
100
AcDbEntity
  8
0
100
AcDbPolyline
 62
7
  6
CONTINUOUS
 90
6
 70
0
 10
-62.0041487496
 20
-99.3925304053
 10
-61.948658049
 20
-99.3654777757
 10
-61.829416947
 20
-99.3364892796
 10
-61.7006268368
 20
-99.3418348865
 10
-61.5592054805
 20
-99.3797352949
 10
-61.4051528782
 20
-99.4501905048
  0
LWPOLYLINE
  5
34F
100
AcDbEntity
  8
0
100
AcDbPolyline
 62
7
  6
CONTINUOUS
 90
6
 70
0
 10
-60.8061570069
 20
-101.4673792686
 10
-60.8616477075
 20
-101.4944318982
 10
-60.9808888095
 20
-101.5234203943
 10
-61.1096789197
 20
-101.5180747873
 10
-61.2511002759
 20
-101.4801743789
 10
-61.4051528782
 20
-101.4097191691
  0
LWPOLYLINE
  5
350
100
AcDbEntity
  8
ASSI
100
AcDbPolyline
 62
7
  6
CONTINUOUS
 90
12
 70
0
 10
-60.5836255722
 20
86.4468854304
 10
-60.57076264
 20
86.4440398798
 10
-60.5260703861
 20
86.4370079932
 10
-60.4822501945
 20
86.433045262
 10
-60.4392956199
 20
86.4321290018
 10
-60.397525715
 20
86.4342660184
 10
-60.3569493012
 20
86.4394790467
 10
-60.3175575571
 20
86.4477453517
 10
-60.279643072
 20
86.459003534
 10
-60.2432168459
 20
86.4732758713
 10
-60.2082678788
 20
86.4905400859
 10
-60.1997946228
 20
86.4953070106
  0
LINE
  5
351
100
AcDbEntity
  8
ASSI
100
AcDbLine
 62
253
  6
CONTINUOUS
 10
-77.0675680815
 20
121.7398246635
 11
-75.6533545191
 21
120.9232754769
  0
LINE
  5
352
100
AcDbEntity
  8
ASSI
100
AcDbLine
 62
253
  6
CONTINUOUS
 10
71.4248559677
 20
36.0021600647
 11
70.0106424053
 21
36.8187092514
  0
LINE
  5
353
100
AcDbEntity
  8
ASSI
100
AcDbLine
 62
253
  6
CONTINUOUS
 10
-78.4988364047
 20
128.0717685029
 11
-77.0846228423
 21
127.2552193162
  0
LINE
  5
354
100
AcDbEntity
  8
ASSI
100
AcDbLine
 62
253
  6
CONTINUOUS
 10
69.9935876445
 20
42.3341039041
 11
68.5793740821
 21
43.1506530907
  0
LINE
  5
355
100
AcDbEntity
  8
ASSI
100
AcDbLine
 62
253
  6
CONTINUOUS
 10
-80.8646262489
 20
132.3065872389
 11
-79.4504126866
 21
131.4900380523
  0
LINE
  5
356
100
AcDbEntity
  8
ASSI
100
AcDbLine
 62
253
  6
CONTINUOUS
 10
67.6277978002
 20
46.5689226401
 11
66.2135842379
 21
47.3854718267
  0
LINE
  5
357
100
AcDbEntity
  8
0
100
AcDbLine
 62
253
  6
CONTINUOUS
 10
81.748614973
 20
112.6813496043
 11
81.748614973
 21
-200.8432366841
  0
LINE
  5
358
100
AcDbEntity
  8
0
100
AcDbLine
 62
7
  6
CONTINUOUS
 10
82.6272946294
 20
113.9061733843
 11
82.6272946294
 21
-199.6184129041
  0
LINE
  5
359
100
AcDbEntity
  8
RACCORDO
100
AcDbLine
 62
7
  6
CONTINUOUS
 10
82.6537116529
 20
115.6537385725
 11
82.6537116529
 21
-194.6049666088
  0
LWPOLYLINE
  5
35A
100
AcDbEntity
  8
ASSI
100
AcDbPolyline
 62
7
  6
CONTINUOUS
 90
4
 70
0
 10
59.8375088723
 20
-171.6692458565
 10
59.8343800294
 20
-171.7004356336
 10
59.829842982
 20
-171.7777440665
 10
59.8283047562
 20
-171.8572398452
  0
LWPOLYLINE
  5
35B
100
AcDbEntity
  8
ASSI
100
AcDbPolyline
 62
7
  6
CONTINUOUS
 90
7
 70
0
 10
41.6785894777
 20
-161.0373826922
 10
41.6628167738
 20
-161.1059578793
 10
41.6475373443
 20
-161.1896214607
 10
41.6356384481
 20
-161.2757300311
 10
41.6271468123
 20
-161.3641372439
 10
41.6220357099
 20
-161.4549894457
 10
41.6203051406
 20
-161.5482866362
  0
LWPOLYLINE
  5
35C
100
AcDbEntity
  8
ASSI
100
AcDbPolyline
 62
7
  6
CONTINUOUS
 90
11
 70
0
 10
-48.6805075443
 20
-121.0817037129
 10
-48.7052464066
 20
-121.097064647
 10
-48.7367087434
 20
-121.120077473
 10
-48.7664342313
 20
-121.1459539431
 10
-48.794202079
 20
-121.1745018553
 10
-48.8199977097
 20
-121.2057411014
 10
-48.8438357002
 20
-121.2396517895
 10
-48.8655389895
 20
-121.2759820419
 10
-48.8850916824
 20
-121.3147498749
 10
-48.9025096742
 20
-121.3559372723
 10
-48.9144153549
 20
-121.3899567507
  0
LWPOLYLINE
  5
35D
100
AcDbEntity
  8
ASSI
100
AcDbPolyline
 62
7
  6
CONTINUOUS
 90
17
 70
0
 10
-47.3304512052
 20
-123.4199192326
 10
-47.3057123429
 20
-123.4045582985
 10
-47.2742500062
 20
-123.3815454725
 10
-47.2445245182
 20
-123.3556690024
 10
-47.2167566705
 20
-123.3271210902
 10
-47.1909610398
 20
-123.2958818441
 10
-47.1671230493
 20
-123.261971156
 10
-47.14541976
 20
-123.2256409036
 10
-47.1258670671
 20
-123.1868730706
 10
-47.1084490753
 20
-123.1456856732
 10
-47.0932951601
 20
-123.1023846384
 10
-47.0804221798
 20
-123.0569542277
 10
-47.069813276
 20
-123.0094101795
 10
-47.0615472482
 20
-122.9601056358
 10
-47.0556503628
 20
-122.9091583107
 10
-47.0520963535
 20
-122.85645049
 10
-47.0508852202
 20
-122.8019821738
  0
LWPOLYLINE
  5
35E
100
AcDbEntity
  8
ASSI
100
AcDbPolyline
 62
7
  6
CONTINUOUS
 90
20
 70
0
 10
-29.9351048233
 20
-120.2786079331
 10
-29.9775542064
 20
-120.3046693506
 10
-30.0320148621
 20
-120.3430776465
 10
-30.0839916289
 20
-120.3856133921
 10
-30.1332117499
 20
-120.4320533737
 10
-30.1796607337
 20
-120.4824181156
 10
-30.2233530716
 20
-120.5366870935
 10
-30.2640594807
 20
-120.5945755218
 10
-30.3017642644
 20
-120.6561024275
 10
-30.3364831192
 20
-120.7212487836
 10
-30.3680338521
 20
-120.7896727235
 10
-30.3963998086
 20
-120.861391477
 10
-30.4215976432
 20
-120.9363878144
 10
-30.4434951259
 20
-121.0142681794
 10
-30.4620749073
 20
-121.0950477331
 10
-30.4773543367
 20
-121.1787113146
 10
-30.4892532329
 20
-121.264819885
 10
-30.4977448687
 20
-121.3532270978
 10
-30.5028559712
 20
-121.4440792996
 10
-30.5045865404
 20
-121.5373764901
  0
LINE
  5
35F
100
AcDbEntity
  8
0
100
AcDbLine
 62
7
  6
CONTINUOUS
 10
-49.1358384528
 20
-121.5178036724
 11
-48.2966765949
 21
-121.0332821328
  0
LINE
  5
360
100
AcDbEntity
  8
0
100
AcDbLine
 62
7
  6
CONTINUOUS
 10
-47.9357804685
 20
-123.5962311631
 11
-47.0965433947
 21
-123.1116661948
  0
LINE
  5
361
100
AcDbEntity
  8
ASSI
100
AcDbLine
 62
253
  6
CONTINUOUS
 10
-29.090372978
 20
-120.7208273035
 11
-30.5045865404
 21
-121.5373764901
  0
LWPOLYLINE
  5
362
100
AcDbEntity
  8
0
100
AcDbPolyline
 62
7
  6
CONTINUOUS
 90
6
 70
0
 10
-49.134805332
 20
-121.5195929861
 10
-49.0793146314
 20
-121.4925403565
 10
-48.9600735294
 20
-121.4635518604
 10
-48.8312834192
 20
-121.4688974673
 10
-48.6898620629
 20
-121.5067978758
 10
-48.5358094606
 20
-121.5772530856
  0
LWPOLYLINE
  5
363
100
AcDbEntity
  8
0
100
AcDbPolyline
 62
7
  6
CONTINUOUS
 90
6
 70
0
 10
-47.9368135893
 20
-123.5944418494
 10
-47.9923042899
 20
-123.621494479
 10
-48.1115453919
 20
-123.6504829751
 10
-48.2403355021
 20
-123.6451373682
 10
-48.3817568583
 20
-123.6072369598
 10
-48.5358094606
 20
-123.5367817499
  0
LINE
  5
364
100
AcDbEntity
  8
ASSI
100
AcDbLine
 62
253
  6
CONTINUOUS
 10
-82.6537116529
 20
140.2215170381
 11
-81.2394980905
 21
139.4049678514
  0
LINE
  5
365
100
AcDbEntity
  8
ASSI
100
AcDbLine
 62
253
  6
CONTINUOUS
 10
65.8387123963
 20
54.4838524393
 11
64.4244988339
 21
55.3004016259
  0
LWPOLYLINE
  5
366
100
AcDbEntity
  8
0
100
AcDbPolyline
 62
7
  6
CONTINUOUS
 90
25
 70
0
 10
-56.3190348164
 20
166.8572908573
 10
-56.3562411876
 20
166.8914956791
 10
-56.3925819884
 20
166.9274154852
 10
-56.4280572189
 20
166.9650502756
 10
-56.4627673017
 20
167.0045222591
 10
-56.4966118141
 20
167.0457092268
 10
-56.5292894886
 20
167.0882445522
 10
-56.5607899077
 20
167.1321402733
 10
-56.5911234888
 20
167.177384352
 10
-56.620020217
 20
167.2235740473
 10
-56.647467264
 20
167.2707178015
 10
-56.6734774581
 20
167.3188071723
 10
-56.697819269
 20
167.367414091
 10
-56.7204778013
 20
167.4165431784
 10
-56.7414679504
 20
167.4661898138
 10
-56.7606028721
 20
167.5159120666
 10
-56.7778660029
 20
167.565710612
 10
-56.7932739061
 20
167.6155847749
 10
-56.8066894282
 20
167.6650905993
 10
-56.818094781
 20
167.7142247967
 10
-56.8275077527
 20
167.7629906556
 10
-56.8348445533
 20
167.8109540859
 10
-56.840077253
 20
167.8579703906
 10
-56.8432337818
 20
167.9041842665
 10
-56.8443141396
 20
167.9495957138
  0
LINE
  5
367
100
AcDbEntity
  8
ASSI
100
AcDbLine
 62
7
  6
CONTINUOUS
 10
68.5793740821
 20
43.1506530907
 11
66.2135842379
 21
47.3854718267
  0
LINE
  5
368
100
AcDbEntity
  8
ASSI
100
AcDbLine
 62
7
  6
CONTINUOUS
 10
69.9935876445
 20
42.3341039041
 11
67.6277978002
 21
46.5689226401
  0
LWPOLYLINE
  5
369
100
AcDbEntity
  8
ASSI
100
AcDbPolyline
 62
7
  6
CONTINUOUS
 90
22
 70
0
 10
66.2135842379
 20
47.3854718267
 10
66.0497358685
 20
47.6896771024
 10
65.8935226977
 20
48.0019040178
 10
65.7449447254
 20
48.3221525731
 10
65.6039397266
 20
48.650579742
 10
65.4705699263
 20
48.9870285507
 10
65.3450219999
 20
49.331028078
 10
65.2273069005
 20
49.6825888973
 10
65.117413675
 20
50.0417004351
 10
65.0154961389
 20
50.4078600497
 10
64.9215654608
 20
50.7810776105
 10
64.8356104721
 20
51.1613432479
 10
64.7577514824
 20
51.5481247111
 10
64.6879998288
 20
51.9414311244
 10
64.6263441743
 20
52.3412533635
 10
64.572870817
 20
52.7470318043
 10
64.5275912151
 20
53.1587747876
 10
64.4904939105
 20
53.5764739728
 10
64.4616308276
 20
53.9995447138
 10
64.4410192746
 20
54.4277921286
 10
64.4286419434
 20
54.8614110994
 10
64.4244988339
 20
55.3004016259
  0
LWPOLYLINE
  5
36A
100
AcDbEntity
  8
ASSI
100
AcDbPolyline
 62
7
  6
CONTINUOUS
 90
22
 70
0
 10
67.6277978002
 20
46.5689226401
 10
67.4639494309
 20
46.8731279157
 10
67.3077362601
 20
47.1853548312
 10
67.1591582878
 20
47.5056033865
 10
67.018153289
 20
47.8340305554
 10
66.8847834887
 20
48.1704793641
 10
66.7592355623
 20
48.5144788913
 10
66.6415204629
 20
48.8660397106
 10
66.5316272374
 20
49.2251512485
 10
66.4297097013
 20
49.591310863
 10
66.3357790232
 20
49.9645284238
 10
66.2498240344
 20
50.3447940613
 10
66.1719650447
 20
50.7315755245
 10
66.1022133912
 20
51.1248819378
 10
66.0405577366
 20
51.5247041768
 10
65.9870843794
 20
51.9304826176
 10
65.9418047775
 20
52.342225601
 10
65.9047074729
 20
52.7599247861
 10
65.87584439
 20
53.1829955271
 10
65.855232837
 20
53.611242942
 10
65.8428555058
 20
54.0448619127
 10
65.8387123963
 20
54.4838524393
  0
LWPOLYLINE
  5
36B
100
AcDbEntity
  8
ASSI
100
AcDbPolyline
 62
7
  6
CONTINUOUS
 90
19
 70
0
 10
68.5793740821
 20
43.1506530907
 10
68.7317537136
 20
42.8659906495
 10
68.8757841898
 20
42.5726775996
 10
69.0114655107
 20
42.2707139409
 10
69.1388732611
 20
41.9598968582
 10
69.2579318561
 20
41.6404291668
 10
69.3684145415
 20
41.3129193123
 10
69.4703049736
 20
40.9773519682
 10
69.5636194959
 20
40.633742461
 10
69.6481803854
 20
40.2827452159
 10
69.7239709597
 20
39.9243461536
 10
69.7910079012
 20
39.5585593534
 10
69.8491635338
 20
39.1860814786
 10
69.898420932
 20
38.8068997774
 10
69.9387970214
 20
38.4210270015
 10
69.9702149033
 20
38.0291980692
 10
69.9926489448
 20
37.6316579531
 10
70.0061247788
 20
37.2281616805
 10
70.0106424053
 20
36.8187092514
  0
LWPOLYLINE
  5
36C
100
AcDbEntity
  8
ASSI
100
AcDbPolyline
 62
7
  6
CONTINUOUS
 90
19
 70
0
 10
69.9935876445
 20
42.3341039041
 10
70.145967276
 20
42.0494414629
 10
70.2899977522
 20
41.7561284129
 10
70.4256790731
 20
41.4541647542
 10
70.5530868235
 20
41.1433476716
 10
70.6721454185
 20
40.8238799802
 10
70.7826281039
 20
40.4963701257
 10
70.8845185359
 20
40.1608027816
 10
70.9778330583
 20
39.8171932744
 10
71.0623939478
 20
39.4661960293
 10
71.1381845221
 20
39.107796967
 10
71.2052214635
 20
38.7420101668
 10
71.2633770962
 20
38.3695322919
 10
71.3126344943
 20
37.9903505907
 10
71.3530105837
 20
37.6044778149
 10
71.3844284656
 20
37.2126488825
 10
71.4068625071
 20
36.8151087664
 10
71.4203383411
 20
36.4116124938
 10
71.4248559677
 20
36.0021600647
  0
LWPOLYLINE
  5
36D
100
AcDbEntity
  8
0
100
AcDbPolyline
 62
7
  6
CONTINUOUS
 90
7
 70
0
 10
52.7295837297
 20
117.1796607985
 10
52.7349388035
 20
117.1578922949
 10
52.7429410326
 20
117.1187882046
 10
52.7491800387
 20
117.0803431879
 10
52.7536288968
 20
117.0426888183
 10
52.756314532
 20
117.0056935222
 10
52.7581593566
 20
116.9330210774
  0
LWPOLYLINE
  5
36E
100
AcDbEntity
  8
0
100
AcDbPolyline
 62
7
  6
CONTINUOUS
 90
4
 70
0
 10
-8.4364210384
 20
-129.6049993172
 10
-8.5009199533
 20
-129.6620783185
 10
-8.5249370697
 20
-129.679780332
 10
-8.5438718114
 20
-129.6915822063
  0
LWPOLYLINE
  5
36F
100
AcDbEntity
  8
0
100
AcDbPolyline
 62
7
  6
CONTINUOUS
 90
3
 70
0
 10
-8.3468877751
 20
-129.5430537839
 10
-8.3923759914
 20
-129.5718367648
 10
-8.4364210384
 20
-129.6049993172
  0
LWPOLYLINE
  5
370
100
AcDbEntity
  8
ASSI
100
AcDbPolyline
 62
7
  6
CONTINUOUS
 90
19
 70
0
 10
-11.8306510275
 20
-130.8164217616
 10
-11.8785615535
 20
-130.8465630105
 10
-11.9243876552
 20
-130.880440127
 10
-11.9678141025
 20
-130.9178288783
 10
-12.008827209
 20
-130.9587492926
 10
-12.047440661
 20
-131.0031813416
 10
-12.0834346475
 20
-131.0508720912
 10
-12.1167942285
 20
-131.1018401273
 10
-12.147534344
 20
-131.1560668641
 10
-12.1754800027
 20
-131.2132436103
 10
-12.2006152665
 20
-131.273387191
 10
-12.2229560736
 20
-131.336480781
 10
-12.2423752464
 20
-131.4021652137
 10
-12.2588561218
 20
-131.4704552656
 10
-12.272415363
 20
-131.5413361601
 10
-12.2829757826
 20
-131.6144044004
 10
-12.2905116516
 20
-131.6895254875
 10
-12.295048699
 20
-131.7668339204
 10
-12.2965869248
 20
-131.8463296991
  0
LWPOLYLINE
  5
371
100
AcDbEntity
  8
ASSI
100
AcDbPolyline
 62
7
  6
CONTINUOUS
 90
20
 70
0
 10
-27.184980961
 20
-127.0828310024
 10
-27.1425315779
 20
-127.0567695849
 10
-27.0880709222
 20
-127.018361289
 10
-27.0360941553
 20
-126.9758255434
 10
-26.9868740344
 20
-126.9293855618
 10
-26.9404250506
 20
-126.8790208199
 10
-26.8967327126
 20
-126.824751842
 10
-26.8560263035
 20
-126.7668634137
 10
-26.8183215199
 20
-126.705336508
 10
-26.7836026651
 20
-126.6401901519
 10
-26.7520519322
 20
-126.571766212
 10
-26.7236859757
 20
-126.5000474585
 10
-26.6984881411
 20
-126.4250511212
 10
-26.6765906583
 20
-126.3471707561
 10
-26.658010877
 20
-126.2663912024
 10
-26.6427314475
 20
-126.1827276209
 10
-26.6308325513
 20
-126.0966190506
 10
-26.6223409156
 20
-126.0082118377
 10
-26.6172298131
 20
-125.917359636
 10
-26.6154992439
 20
-125.8240624454
  0
LWPOLYLINE
  5
372
100
AcDbEntity
  8
0
100
AcDbPolyline
 62
7
  6
CONTINUOUS
 90
52
 70
0
 10
-1.5965396473
 20
-110.2091570759
 10
-1.6158390322
 20
-110.2206557526
 10
-1.6659765668
 20
-110.2539799684
 10
-1.713749585
 20
-110.2909062277
 10
-1.7591458243
 20
-110.3314531925
 10
-1.8021775473
 20
-110.3756022009
 10
-1.8426221015
 20
-110.4231244964
 10
-1.8804660732
 20
-110.4740375543
 10
-1.915722876
 20
-110.5283238993
 10
-1.9482100983
 20
-110.585702349
 10
-1.9779133835
 20
-110.6461889214
 10
-2.0048470881
 20
-110.7097675985
 10
-2.0288718696
 20
-110.7761091437
 10
-2.0499726513
 20
-110.8452278696
 10
-2.06816451
 20
-110.9171094637
 10
-2.0833533327
 20
-110.9913817512
 10
-2.0955235566
 20
-111.0680571178
 10
-2.1046907444
 20
-111.147123178
 10
-2.1108074724
 20
-111.2281706007
 10
-2.1138579323
 20
-111.3112096523
 10
-2.1138579323
 20
-111.3962300665
 10
-2.1108074724
 20
-111.4827917128
 10
-2.1046907444
 20
-111.5709025796
 10
-2.0955235566
 20
-111.6605546786
 10
-2.0833533327
 20
-111.7512839146
 10
-2.06816451
 20
-111.8430958739
 10
-2.0499726513
 20
-111.9359849703
 10
-2.0288718696
 20
-112.0294703501
 10
-2.0048470881
 20
-112.1235551108
 10
-1.9779133835
 20
-112.2182361549
 10
-1.9482100983
 20
-112.3130233365
 10
-1.915722876
 20
-112.4079172161
 10
-1.8804660732
 20
-112.5029172333
 10
-1.8426221015
 20
-112.5975315612
 10
-1.8021775473
 20
-112.691758214
 10
-1.7591458243
 20
-112.7855991774
 10
-1.713749585
 20
-112.8785685815
 10
-1.6659765668
 20
-112.9706619248
 10
-1.6158390322
 20
-113.0618837088
 10
-1.5635964217
 20
-113.1517615671
 10
-1.5092378139
 20
-113.2402885522
 10
-1.4527741302
 20
-113.3274716116
 10
-1.3944975748
 20
-113.4128592217
 10
-1.3343987376
 20
-113.4964420958
 10
-1.2724870286
 20
-113.5782295206
 10
-1.2090828833
 20
-113.6577978322
 10
-1.1441785487
 20
-113.7351355484
 10
-1.0777817777
 20
-113.8102541514
 10
-1.0102362646
 20
-113.8827644242
 10
-0.9416565744
 20
-113.9525366276
 10
-0.8719281421
 20
-114.0197005008
 10
-0.8010509678
 20
-114.0842560438
  0
LINE
  5
373
100
AcDbEntity
  8
ASSI
100
AcDbLine
 62
253
  6
CONTINUOUS
 10
-29.090372978
 20
-122.7620029954
 11
-30.5045865404
 21
-123.5785521821
  0
LINE
  5
374
100
AcDbEntity
  8
ASSI
100
AcDbLine
 62
7
  6
CONTINUOUS
 10
-0.2757716447
 20
-109.4465550822
 11
-1.5965427231
 21
-110.2091517498
  0
LINE
  5
375
100
AcDbEntity
  8
0
100
AcDbLine
 62
253
  6
CONTINUOUS
 10
-0.8010509678
 20
-110.139180251
 11
-0.2998106733
 21
-109.8497703869
  0
LWPOLYLINE
  5
376
100
AcDbEntity
  8
0
100
AcDbPolyline
 62
7
  6
CONTINUOUS
 90
11
 70
0
 10
-0.4828578989
 20
-110.1111853617
 10
-0.5000655673
 20
-110.1204674571
 10
-0.5289622955
 20
-110.133287935
 10
-0.5592958766
 20
-110.1435035546
 10
-0.5907962956
 20
-110.1510233813
 10
-0.6234739701
 20
-110.1558233473
 10
-0.6573184826
 20
-110.1579275204
 10
-0.6920285654
 20
-110.1573171703
 10
-0.7275037959
 20
-110.1539860537
 10
-0.7638445967
 20
-110.1479404139
 10
-0.8010509678
 20
-110.139180251
  0
LWPOLYLINE
  5
377
100
AcDbEntity
  8
0
100
AcDbPolyline
 62
7
  6
CONTINUOUS
 90
25
 70
0
 10
-0.8010509678
 20
130.8568269941
 10
-0.7638445967
 20
130.8226221722
 10
-0.7275037959
 20
130.7867023661
 10
-0.6920285654
 20
130.7490675758
 10
-0.6573184826
 20
130.7095955923
 10
-0.6234739701
 20
130.6684086246
 10
-0.5907962956
 20
130.6258732992
 10
-0.5592958766
 20
130.5819775781
 10
-0.5289622955
 20
130.5367334993
 10
-0.5000655673
 20
130.4905438041
 10
-0.4726185202
 20
130.4434000499
 10
-0.4466083262
 20
130.3953106791
 10
-0.4222665153
 20
130.3467037604
 10
-0.3996079829
 20
130.297574673
 10
-0.3786178338
 20
130.2479280376
 10
-0.3594829121
 20
130.1982057847
 10
-0.3422197814
 20
130.1484072393
 10
-0.3268118781
 20
130.0985330765
 10
-0.313396356
 20
130.0490272521
 10
-0.3019910032
 20
129.9998930547
 10
-0.2925780316
 20
129.9511271957
 10
-0.2852412309
 20
129.9031637655
 10
-0.2800085312
 20
129.8561474608
 10
-0.2768520024
 20
129.8099335848
 10
-0.2757716447
 20
129.7645221376
  0
LWPOLYLINE
  5
378
100
AcDbEntity
  8
0
100
AcDbPolyline
 62
7
  6
CONTINUOUS
 90
25
 70
0
 10
14.3916433022
 20
126.0298315245
 10
14.3544369311
 20
126.0640363464
 10
14.3180961303
 20
126.0999561525
 10
14.2826208998
 20
126.1375909428
 10
14.247910817
 20
126.1770629263
 10
14.2140663045
 20
126.218249894
 10
14.18138863
 20
126.2607852194
 10
14.149888211
 20
126.3046809405
 10
14.1195546299
 20
126.3499250192
 10
14.0906579017
 20
126.3961147145
 10
14.0632108547
 20
126.4432584687
 10
14.0372006606
 20
126.4913478395
 10
14.0128588497
 20
126.5399547582
 10
13.9902003173
 20
126.5890838456
 10
13.9692101682
 20
126.638730481
 10
13.9500752465
 20
126.6884527339
 10
13.9328121158
 20
126.7382512793
 10
13.9174042125
 20
126.7881254421
 10
13.9039886904
 20
126.8376312665
 10
13.8925833376
 20
126.8867654639
 10
13.883170366
 20
126.9355313229
 10
13.8758335653
 20
126.9834947531
 10
13.8706008656
 20
127.0305110578
 10
13.8674443368
 20
127.0767249338
 10
13.8663639791
 20
127.122136381
  0
LWPOLYLINE
  5
379
100
AcDbEntity
  8
0
100
AcDbPolyline
 62
7
  6
CONTINUOUS
 90
13
 70
0
 10
-10.0191775789
 20
-144.3639278484
 10
-10.0368296562
 20
-144.375807066
 10
-10.103773
 20
-144.4435450458
 10
-10.1493103794
 20
-144.5316734983
 10
-10.1707163439
 20
-144.6427885791
 10
-10.1707163439
 20
-144.7742941326
 10
-10.1493103794
 20
-144.9101282847
 10
-10.103773
 20
-145.0508421613
 10
-10.0368296562
 20
-145.1958846366
 10
-9.9566566987
 20
-145.3275404591
 10
-9.8659795779
 20
-145.439904545
 10
-9.7620728435
 20
-145.5388819781
 10
-9.6449364954
 20
-145.6244727584
  0
LWPOLYLINE
  5
37A
100
AcDbEntity
  8
0
100
AcDbPolyline
 62
7
  6
CONTINUOUS
 90
13
 70
0
 10
-9.2706954119
 20
-145.6603122532
 10
-9.2530433346
 20
-145.6484330356
 10
-9.1860999907
 20
-145.5806950557
 10
-9.1405626114
 20
-145.4925666033
 10
-9.1191566469
 20
-145.3814515224
 10
-9.1191566469
 20
-145.249945969
 10
-9.1405626114
 20
-145.1141118169
 10
-9.1860999907
 20
-144.9733979403
 10
-9.2530433346
 20
-144.8283554649
 10
-9.3332162921
 20
-144.6966996424
 10
-9.4238934129
 20
-144.5843355565
 10
-9.5278001473
 20
-144.4853581235
 10
-9.6449364954
 20
-144.3997673432
  0
LWPOLYLINE
  5
37B
100
AcDbEntity
  8
ASSI
100
AcDbPolyline
 62
7
  6
CONTINUOUS
 90
19
 70
0
 10
-9.5805423069
 20
-136.7546489986
 10
-9.5326317808
 20
-136.7245077497
 10
-9.4868056791
 20
-136.6906306332
 10
-9.4433792319
 20
-136.6532418819
 10
-9.4023661254
 20
-136.6123214676
 10
-9.3637526733
 20
-136.5678894186
 10
-9.3277586868
 20
-136.5201986689
 10
-9.2943991058
 20
-136.4692306328
 10
-9.2636589903
 20
-136.4150038961
 10
-9.2357133317
 20
-136.3578271499
 10
-9.2105780678
 20
-136.2976835692
 10
-9.1882372608
 20
-136.2345899792
 10
-9.1688180879
 20
-136.1689055465
 10
-9.1523372125
 20
-136.1006154946
 10
-9.1387779713
 20
-136.0297346001
 10
-9.1282175517
 20
-135.9566663598
 10
-9.1206816827
 20
-135.8815452727
 10
-9.1161446353
 20
-135.8042368398
 10
-9.1146064095
 20
-135.7247410611
  0
LWPOLYLINE
  5
37C
100
AcDbEntity
  8
ASSI
100
AcDbPolyline
 62
7
  6
CONTINUOUS
 90
11
 70
0
 10
-9.7896345791
 20
-143.5368063459
 10
-9.8143734414
 20
-143.55216728
 10
-9.8458357781
 20
-143.575180106
 10
-9.875561266
 20
-143.6010565761
 10
-9.9033291138
 20
-143.6296044883
 10
-9.9291247445
 20
-143.6608437344
 10
-9.952962735
 20
-143.6947544225
 10
-9.9746660243
 20
-143.7310846749
 10
-9.9942187172
 20
-143.769852508
 10
-10.0116367089
 20
-143.8110399053
 10
-10.0235423896
 20
-143.8450593837
  0
LWPOLYLINE
  5
37D
100
AcDbEntity
  8
ASSI
100
AcDbPolyline
 62
7
  6
CONTINUOUS
 90
17
 70
0
 10
-8.4395782399
 20
-145.8750218657
 10
-8.4148393776
 20
-145.8596609315
 10
-8.3833770409
 20
-145.8366481056
 10
-8.353651553
 20
-145.8107716354
 10
-8.3258837052
 20
-145.7822237232
 10
-8.3000880745
 20
-145.7509844772
 10
-8.276250084
 20
-145.7170737891
 10
-8.2545467947
 20
-145.6807435367
 10
-8.2349941018
 20
-145.6419757036
 10
-8.2175761101
 20
-145.6007883063
 10
-8.2024221948
 20
-145.5574872714
 10
-8.1895492145
 20
-145.5120568607
 10
-8.1789403107
 20
-145.4645128126
 10
-8.1706742829
 20
-145.4152082689
 10
-8.1647773976
 20
-145.3642609437
 10
-8.1612233882
 20
-145.311553123
 10
-8.1600122549
 20
-145.2570848068
  0
LWPOLYLINE
  5
37E
100
AcDbEntity
  8
0
100
AcDbPolyline
 62
7
  6
CONTINUOUS
 90
52
 70
0
 10
15.1871319817
 20
-122.7863504812
 10
15.2064313666
 20
-122.7748518045
 10
15.2565689012
 20
-122.7415275887
 10
15.3043419194
 20
-122.7046013294
 10
15.3497381588
 20
-122.6640543646
 10
15.3927698817
 20
-122.6199053562
 10
15.4332144359
 20
-122.5723830607
 10
15.4710584076
 20
-122.5214700028
 10
15.5063152104
 20
-122.4671836578
 10
15.5388024327
 20
-122.4098052081
 10
15.5685057179
 20
-122.3493186357
 10
15.5954394225
 20
-122.2857399586
 10
15.619464204
 20
-122.2193984134
 10
15.6405649858
 20
-122.1502796875
 10
15.6587568444
 20
-122.0783980934
 10
15.6739456671
 20
-122.0041258059
 10
15.686115891
 20
-121.9274504393
 10
15.6952830788
 20
-121.8483843791
 10
15.7013998068
 20
-121.7673369564
 10
15.7044502667
 20
-121.6842979048
 10
15.7044502667
 20
-121.5992774906
 10
15.7013998068
 20
-121.5127158443
 10
15.6952830788
 20
-121.4246049775
 10
15.686115891
 20
-121.3349528785
 10
15.6739456671
 20
-121.2442236425
 10
15.6587568444
 20
-121.1524116832
 10
15.6405649858
 20
-121.0595225868
 10
15.619464204
 20
-120.966037207
 10
15.5954394225
 20
-120.8719524463
 10
15.5685057179
 20
-120.7772714022
 10
15.5388024327
 20
-120.6824842206
 10
15.5063152104
 20
-120.587590341
 10
15.4710584076
 20
-120.4925903238
 10
15.4332144359
 20
-120.3979759959
 10
15.3927698817
 20
-120.3037493431
 10
15.3497381588
 20
-120.2099083797
 10
15.3043419194
 20
-120.1169389756
 10
15.2565689012
 20
-120.0248456323
 10
15.2064313666
 20
-119.9336238483
 10
15.1541887561
 20
-119.84374599
 10
15.0998301483
 20
-119.7552190049
 10
15.0433664646
 20
-119.6680359455
 10
14.9850899093
 20
-119.5826483354
 10
14.924991072
 20
-119.4990654613
 10
14.863079363
 20
-119.4172780365
 10
14.7996752177
 20
-119.3377097249
 10
14.7347708831
 20
-119.2603720087
 10
14.6683741121
 20
-119.1852534057
 10
14.600828599
 20
-119.1127431329
 10
14.5322489088
 20
-119.0429709295
 10
14.4625204765
 20
-118.9758070563
 10
14.3916433022
 20
-118.9112515133
  0
LWPOLYLINE
  5
37F
100
AcDbEntity
  8
0
100
AcDbPolyline
 62
7
  6
CONTINUOUS
 90
52
 70
0
 10
16.6013455441
 20
-121.9698012946
 10
16.620644929
 20
-121.9583026178
 10
16.6707824636
 20
-121.9249784021
 10
16.7185554818
 20
-121.8880521427
 10
16.7639517211
 20
-121.8475051779
 10
16.8069834441
 20
-121.8033561696
 10
16.8474279982
 20
-121.7558338741
 10
16.8852719699
 20
-121.7049208162
 10
16.9205287728
 20
-121.6506344712
 10
16.953015995
 20
-121.5932560215
 10
16.9827192802
 20
-121.532769449
 10
17.0096529849
 20
-121.4691907719
 10
17.0336777663
 20
-121.4028492267
 10
17.0547785481
 20
-121.3337305008
 10
17.0729704068
 20
-121.2618489068
 10
17.0881592295
 20
-121.1875766192
 10
17.1003294533
 20
-121.1109012526
 10
17.1094966412
 20
-121.0318351924
 10
17.1156133691
 20
-120.9507877698
 10
17.1186638291
 20
-120.8677487181
 10
17.1186638291
 20
-120.782728304
 10
17.1156133691
 20
-120.6961666576
 10
17.1094966412
 20
-120.6080557908
 10
17.1003294533
 20
-120.5184036919
 10
17.0881592295
 20
-120.4276744559
 10
17.0729704068
 20
-120.3358624965
 10
17.0547785481
 20
-120.2429734001
 10
17.0336777663
 20
-120.1494880203
 10
17.0096529849
 20
-120.0554032597
 10
16.9827192802
 20
-119.9607222156
 10
16.953015995
 20
-119.8659350339
 10
16.9205287728
 20
-119.7710411543
 10
16.8852719699
 20
-119.6760411371
 10
16.8474279982
 20
-119.5814268093
 10
16.8069834441
 20
-119.4872001565
 10
16.7639517211
 20
-119.393359193
 10
16.7185554818
 20
-119.300389789
 10
16.6707824636
 20
-119.2082964456
 10
16.620644929
 20
-119.1170746616
 10
16.5684023184
 20
-119.0271968033
 10
16.5140437107
 20
-118.9386698182
 10
16.457580027
 20
-118.8514867588
 10
16.3993034716
 20
-118.7660991487
 10
16.3392046343
 20
-118.6825162746
 10
16.2772929254
 20
-118.6007288498
 10
16.2138887801
 20
-118.5211605382
 10
16.1489844455
 20
-118.443822822
 10
16.0825876744
 20
-118.368704219
 10
16.0150421614
 20
-118.2961939463
 10
15.9464624712
 20
-118.2264217428
 10
15.8767340389
 20
-118.1592578696
 10
15.8058568646
 20
-118.0947023267
  0
LINE
  5
380
100
AcDbEntity
  8
0
100
AcDbLine
 62
253
  6
CONTINUOUS
 10
-9.0438957314
 20
-129.6420414445
 11
-7.629682169
 21
-128.8254922578
  0
LINE
  5
381
100
AcDbEntity
  8
ASSI
100
AcDbLine
 62
7
  6
CONTINUOUS
 10
-6.9326742144
 20
-128.7265045943
 11
-8.3468877768
 21
-129.5430537809
  0
LINE
  5
382
100
AcDbEntity
  8
ASSI
100
AcDbLine
 62
253
  6
CONTINUOUS
 10
-10.8823733625
 20
-131.0297805125
 11
-12.2965869248
 21
-131.8463296991
  0
LINE
  5
383
100
AcDbEntity
  8
0
100
AcDbLine
 62
253
  6
CONTINUOUS
 10
13.8663639791
 20
-117.8189466569
 11
15.2805775414
 21
-117.0023974702
  0
LINE
  5
384
100
AcDbEntity
  8
ASSI
100
AcDbLine
 62
253
  6
CONTINUOUS
 10
-10.8823733625
 20
-133.0709562044
 11
-12.2965869248
 21
-133.8875053911
  0
LINE
  5
385
100
AcDbEntity
  8
0
100
AcDbLine
 62
253
  6
CONTINUOUS
 10
14.3916433022
 20
-118.9112515133
 11
15.8058568646
 21
-118.0947023267
  0
LINE
  5
386
100
AcDbEntity
  8
0
100
AcDbLine
 62
253
  6
CONTINUOUS
 10
-6.2154686066
 20
-130.948551707
 11
-4.8012550443
 21
-130.1320025204
  0
LINE
  5
387
100
AcDbEntity
  8
0
100
AcDbLine
 62
253
  6
CONTINUOUS
 10
-5.6497831817
 20
-131.6017594924
 11
-4.2355696193
 21
-130.7852103058
  0
LINE
  5
388
100
AcDbEntity
  8
0
100
AcDbLine
 62
253
  6
CONTINUOUS
 10
13.8663639791
 20
-123.3420527668
 11
14.6335988864
 21
-122.899060947
  0
LINE
  5
389
100
AcDbEntity
  8
0
100
AcDbLine
 62
7
  6
CONTINUOUS
 10
16.6013486199
 20
-121.9698066207
 11
15.1871350575
 21
-122.7863558073
  0
LINE
  5
38A
100
AcDbEntity
  8
0
100
AcDbLine
 62
253
  6
CONTINUOUS
 10
-0.9828784258
 20
-134.2963718084
 11
-0.2758058147
 21
-133.8881169444
  0
LINE
  5
38B
100
AcDbEntity
  8
0
100
AcDbLine
 62
7
  6
CONTINUOUS
 10
-10.2449654876
 20
-143.9729063054
 11
-9.4058036296
 21
-143.4883847658
  0
LWPOLYLINE
  5
38C
100
AcDbEntity
  8
0
100
AcDbPolyline
 62
7
  6
CONTINUOUS
 90
17
 70
0
 10
-8.5438718114
 20
-129.6915822063
 10
-8.5502616555
 20
-129.6951790487
 10
-8.576967713
 20
-129.7083030535
 10
-8.60498124
 20
-129.7191237616
 10
-8.6340802295
 20
-129.7275554189
 10
-8.6642733064
 20
-129.7335790422
 10
-8.6955518458
 20
-129.7372136148
 10
-8.7276679654
 20
-129.7384303327
 10
-8.7606283206
 20
-129.7372099837
 10
-8.794426256
 20
-129.73357178
 10
-8.8287939233
 20
-129.7275445544
 10
-8.8637358494
 20
-129.7191093237
 10
-8.8992475074
 20
-129.708285071
 10
-8.9350474675
 20
-129.6951575786
 10
-8.97104192
 20
-129.6797554403
 10
-9.0073246746
 20
-129.6620500623
 10
-9.0438957314
 20
-129.6420414445
  0
LWPOLYLINE
  5
38D
100
AcDbEntity
  8
0
100
AcDbPolyline
 62
7
  6
CONTINUOUS
 90
11
 70
0
 10
14.0734502333
 20
-122.8843221954
 10
14.0906579017
 20
-122.8750401
 10
14.1195546299
 20
-122.8622196221
 10
14.149888211
 20
-122.8520040025
 10
14.18138863
 20
-122.8444841758
 10
14.2140663045
 20
-122.8396842098
 10
14.247910817
 20
-122.8375800367
 10
14.2826208998
 20
-122.8381903868
 10
14.3180961303
 20
-122.8415215034
 10
14.3544369311
 20
-122.8475671432
 10
14.3916433022
 20
-122.8563273061
  0
LWPOLYLINE
  5
38E
100
AcDbEntity
  8
0
100
AcDbPolyline
 62
7
  6
CONTINUOUS
 90
16
 70
0
 10
-0.4828542657
 20
-134.345912986
 10
-0.5097117639
 20
-134.3598246729
 10
-0.537913064
 20
-134.3713530313
 10
-0.5672514881
 20
-134.3804176458
 10
-0.5977363692
 20
-134.3869982945
 10
-0.6293583742
 20
-134.3911151993
 10
-0.6618586649
 20
-134.3927346617
 10
-0.6952444502
 20
-134.3918361833
 10
-0.7295085212
 20
-134.3884402626
 10
-0.7643704136
 20
-134.3825746964
 10
-0.7998350342
 20
-134.3742192145
 10
-0.8358974762
 20
-134.3633940871
 10
-0.8722625548
 20
-134.350187922
 10
-0.9088318752
 20
-134.3346302552
 10
-0.9457038322
 20
-134.3166915506
 10
-0.9828784258
 20
-134.2963718084
  0
LWPOLYLINE
  5
38F
100
AcDbEntity
  8
0
100
AcDbPolyline
 62
7
  6
CONTINUOUS
 90
15
 70
0
 10
-61.4051528782
 20
180.2725263245
 10
-61.5592054805
 20
180.3799671983
 10
-61.7006268368
 20
180.5053766272
 10
-61.829416947
 20
180.6487546112
 10
-61.948658049
 20
180.8154397431
 10
-62.055267905
 20
181.0000934301
 10
-62.1399998011
 20
181.186699894
 10
-62.2008996766
 20
181.3754335497
 10
-62.2399215922
 20
181.5661199823
 10
-62.2536810157
 20
181.7422201686
 10
-62.2399215922
 20
181.9024313175
 10
-62.2008996766
 20
182.0480562202
 10
-62.1399998011
 20
182.1664642261
 10
-62.055267905
 20
182.2552244203
 10
-62.0041487496
 20
182.2897150883
  0
LWPOLYLINE
  5
390
100
AcDbEntity
  8
0
100
AcDbPolyline
 62
7
  6
CONTINUOUS
 90
4
 70
0
 10
19.8478502091
 20
-145.9359830503
 10
19.7833512941
 20
-145.9930620516
 10
19.7593341778
 20
-146.0107640651
 10
19.7403994361
 20
-146.0225659394
  0
LWPOLYLINE
  5
391
100
AcDbEntity
  8
0
100
AcDbPolyline
 62
7
  6
CONTINUOUS
 90
3
 70
0
 10
19.9373834724
 20
-145.874037517
 10
19.8918952561
 20
-145.9028204979
 10
19.8478502091
 20
-145.9359830503
  0
LINE
  5
392
100
AcDbEntity
  8
0
100
AcDbLine
 62
7
  6
CONTINUOUS
 10
-9.0449075032
 20
-146.0513337961
 11
-8.2056704294
 21
-145.5667688278
  0
LINE
  5
393
100
AcDbEntity
  8
0
100
AcDbLine
 62
253
  6
CONTINUOUS
 10
13.8663639791
 20
-142.0536679915
 11
15.2805775414
 21
-141.2371188048
  0
LINE
  5
394
100
AcDbEntity
  8
0
100
AcDbLine
 62
253
  6
CONTINUOUS
 10
14.5734707603
 20
-143.2784128616
 11
15.9876843226
 21
-142.4618636749
  0
LWPOLYLINE
  5
395
100
AcDbEntity
  8
0
100
AcDbPolyline
 62
7
  6
CONTINUOUS
 90
6
 70
0
 10
-10.2439323667
 20
-143.9746956191
 10
-10.1884416662
 20
-143.9476429895
 10
-10.0692005641
 20
-143.9186544934
 10
-9.9404104539
 20
-143.9240001004
 10
-9.7989890977
 20
-143.9619005088
 10
-9.6449364954
 20
-144.0323557186
  0
LWPOLYLINE
  5
396
100
AcDbEntity
  8
0
100
AcDbPolyline
 62
7
  6
CONTINUOUS
 90
6
 70
0
 10
-9.0459406241
 20
-146.0495444824
 10
-9.1014313246
 20
-146.076597112
 10
-9.2206724267
 20
-146.1055856081
 10
-9.3494625368
 20
-146.1002400012
 10
-9.4908838931
 20
-146.0623395928
 10
-9.6449364954
 20
-145.9918843829
  0
LWPOLYLINE
  5
397
100
AcDbEntity
  8
0
100
AcDbPolyline
 62
7
  6
CONTINUOUS
 90
14
 70
0
 10
14.3916433022
 20
122.0847557317
 10
14.4625204765
 20
122.0674640904
 10
14.5322489088
 20
122.0541073178
 10
14.600828599
 20
122.044685414
 10
14.6683741121
 20
122.0391958214
 10
14.7347708831
 20
122.0376410975
 10
14.7996752177
 20
122.0400289149
 10
14.863079363
 20
122.0463797088
 10
14.924991072
 20
122.056673044
 10
14.9850899093
 20
122.0708552873
 10
15.0433664646
 20
122.088946592
 10
15.0998301483
 20
122.1109268048
 10
15.1541887561
 20
122.1366818322
 10
15.1871319817
 20
122.1547325566
  0
LWPOLYLINE
  5
398
100
AcDbEntity
  8
0
100
AcDbPolyline
 62
7
  6
CONTINUOUS
 90
14
 70
0
 10
-0.8010509678
 20
134.8019027869
 10
-0.8719281421
 20
134.8191944282
 10
-0.9416565744
 20
134.8325512008
 10
-1.0102362646
 20
134.8419731046
 10
-1.0777817777
 20
134.8474626972
 10
-1.1441785487
 20
134.8490174211
 10
-1.2090828833
 20
134.8466296037
 10
-1.2724870286
 20
134.8402788098
 10
-1.3343987376
 20
134.8299854746
 10
-1.3944975748
 20
134.8158032313
 10
-1.4527741302
 20
134.7977119266
 10
-1.5092378139
 20
134.7757317138
 10
-1.5635964217
 20
134.7499766864
 10
-1.5965396473
 20
134.731925962
  0
LWPOLYLINE
  5
399
100
AcDbEntity
  8
ASSI
100
AcDbPolyline
 62
7
  6
CONTINUOUS
 90
58
 70
0
 10
54.2775165239
 20
116.4161941248
 10
54.5093804599
 20
116.3037843937
 10
54.744017871
 20
116.1858050182
 10
54.9812713074
 20
116.0622941941
 10
55.2211007024
 20
115.933257006
 10
55.4632229374
 20
115.7987789914
 10
55.7071148078
 20
115.659051386
 10
55.9526320537
 20
115.5141838645
 10
56.1995906515
 20
115.3642456761
 10
56.4474126849
 20
115.2094180678
 10
56.6957441383
 20
115.0499733088
 10
56.9446195156
 20
114.8858981665
 10
57.1940406193
 20
114.7169472136
 10
57.4439422033
 20
114.5431773422
 10
57.6940506817
 20
114.3647595471
 10
57.9440442366
 20
114.1815972227
 10
58.1938593591
 20
113.9937597264
 10
58.4432111612
 20
113.8014308542
 10
58.691447569
 20
113.6046983745
 10
58.9383917177
 20
113.4037522138
 10
59.1838849137
 20
113.1987154806
 10
59.4273112683
 20
112.9895974562
 10
59.6685424155
 20
112.7765652224
 10
59.9073810193
 20
112.5598027277
 10
60.1431181166
 20
112.3393617688
 10
60.3756981883
 20
112.1153593694
 10
60.6048701983
 20
111.8880670176
 10
60.8296606995
 20
111.6577954898
 10
61.0499732432
 20
111.4247366694
 10
61.2656573206
 20
111.1891371127
 10
61.4757105893
 20
110.9514221217
 10
61.6799524605
 20
110.7119251586
 10
61.8784026176
 20
110.4707830024
 10
62.0704038169
 20
110.2281421583
 10
62.2557392593
 20
109.9844293007
 10
62.4345225294
 20
109.7396809633
 10
62.606584757
 20
109.4934516929
 10
62.771991959
 20
109.2457313985
 10
62.9305373421
 20
108.9969642347
 10
63.0816386464
 20
108.7473795033
 10
63.225238698
 20
108.4971625892
 10
63.3613206454
 20
108.2465534649
 10
63.4894026186
 20
107.9958595272
 10
63.6093768916
 20
107.7454358238
 10
63.7213512444
 20
107.4953268512
 10
63.8251784796
 20
107.2453684113
 10
63.9208301488
 20
106.9957700151
 10
64.0083301269
 20
106.7466989018
 10
64.0875830003
 20
106.4979281707
 10
64.1586151744
 20
106.2494011474
 10
64.2213719472
 20
106.0015432607
 10
64.2756484783
 20
105.7548422814
 10
64.3214299237
 20
105.5094338496
 10
64.3587890174
 20
105.2655070562
 10
64.38771046
 20
105.0236019884
 10
64.4082459126
 20
104.783982119
 10
64.4204844339
 20
104.5466472623
 10
64.4244988339
 20
104.3117204411
  0
LWPOLYLINE
  5
39A
100
AcDbEntity
  8
ASSI
100
AcDbPolyline
 62
7
  6
CONTINUOUS
 90
28
 70
0
 10
54.2775165239
 20
116.4161941248
 10
49.0898072131
 20
118.9748602287
 10
43.9293100519
 20
121.5513674178
 10
38.7960250403
 20
124.145715692
 10
33.6897671861
 20
126.7580008473
 10
28.6107214816
 20
129.3881270878
 10
23.5594429027
 20
132.0358070252
 10
18.5359344838
 20
134.7010425777
 10
13.5401931906
 20
137.3838318273
 10
8.5727648968
 20
140.0838816314
 10
3.6336526963
 20
142.801193876
 10
-1.2771465049
 20
145.5357666752
 10
-6.1590961143
 20
148.2873012281
 10
-11.0121929797
 20
151.0557993881
 10
-15.8364402534
 20
153.841259302
 10
-20.6313108006
 20
156.6433766084
 10
-25.3968014111
 20
159.4621531278
 10
-30.1329152951
 20
162.2975870397
 10
-34.8391349477
 20
165.1493685227
 10
-39.5154571025
 20
168.017499363
 10
-44.1618850259
 20
170.9019777744
 10
-48.777911013
 20
173.8024885761
 10
-53.3635317417
 20
176.7190335202
 10
-57.9187505341
 20
179.6516108546
 10
-62.4430696514
 20
182.5999001431
 10
-66.9363231808
 20
185.5637945737
 10
-71.3986770352
 20
188.5434009583
 10
-75.8301312144
 20
191.5387192971
  0
LWPOLYLINE
  5
39B
100
AcDbEntity
  8
ASSI
100
AcDbPolyline
 62
7
  6
CONTINUOUS
 90
28
 70
0
 10
54.2775165239
 20
118.0491346784
 10
49.0898072131
 20
120.6078007823
 10
43.9293100519
 20
123.1843079714
 10
38.7960250403
 20
125.7786562456
 10
33.6897671861
 20
128.3909414009
 10
28.6107214816
 20
131.0210676413
 10
23.5594429027
 20
133.6687475788
 10
18.5359344838
 20
136.3339831313
 10
13.5401931906
 20
139.0167723809
 10
8.5727648968
 20
141.7168221849
 10
3.6336526963
 20
144.4341344296
 10
-1.2771465049
 20
147.1687072288
 10
-6.1590961143
 20
149.9202417817
 10
-11.0121929797
 20
152.6887399417
 10
-15.8364402534
 20
155.4741998556
 10
-20.6313108006
 20
158.276317162
 10
-25.3968014111
 20
161.0950936813
 10
-30.1329152951
 20
163.9305275933
 10
-34.8391349477
 20
166.7823090763
 10
-39.5154571025
 20
169.6504399166
 10
-44.1618850259
 20
172.534918328
 10
-48.777911013
 20
175.4354291297
 10
-53.3635317417
 20
178.3519740737
 10
-57.9187505341
 20
181.2845514082
 10
-62.4430696514
 20
184.2328406967
 10
-66.9363231808
 20
187.1967351273
 10
-71.3986770352
 20
190.1763415119
 10
-75.8301312144
 20
193.1716598507
  0
LWPOLYLINE
  5
39C
100
AcDbEntity
  8
ASSI
100
AcDbPolyline
 62
7
  6
CONTINUOUS
 90
58
 70
0
 10
54.2775165239
 20
118.0491346784
 10
54.547640222
 20
117.9140365523
 10
54.8206253963
 20
117.7721157718
 10
55.0962859698
 20
117.6234174773
 10
55.3745682174
 20
117.4679439979
 10
55.6551439176
 20
117.3058001034
 10
55.9374138587
 20
117.1372228396
 10
56.2212024104
 20
116.9623388537
 10
56.5062972314
 20
116.781232954
 10
56.7920498727
 20
116.5941392861
 10
57.0780448597
 20
116.4013813015
 10
57.3643200624
 20
116.2029416832
 10
57.6509034327
 20
115.9985452896
 10
57.937712359
 20
115.7882561798
 10
58.224429015
 20
115.5722796157
 10
58.5107154007
 20
115.3505258679
 10
58.7964892883
 20
115.1230727633
 10
59.0814211637
 20
114.8901416563
 10
59.3648042386
 20
114.6518731362
 10
59.6464268748
 20
114.4084901509
 10
59.9261041414
 20
114.160139703
 10
60.203179864
 20
113.9068741563
 10
60.4774984411
 20
113.6488887217
 10
60.7488305535
 20
113.3864030423
 10
61.0164217178
 20
113.1195264762
 10
61.2802000138
 20
112.8483936828
 10
61.5398750692
 20
112.5733291528
 10
61.7943987478
 20
112.2947592353
 10
62.0436553244
 20
112.0129096962
 10
62.2874686652
 20
111.7280729256
 10
62.5247617069
 20
111.4408136353
 10
62.755327248
 20
111.1515295093
 10
62.9791823289
 20
110.8603786032
 10
63.1956390634
 20
110.567585364
 10
63.4044512075
 20
110.2736598017
 10
63.6057430245
 20
109.9786393341
 10
63.7993738791
 20
109.6820315469
 10
63.9854154286
 20
109.3838208407
 10
64.1636296436
 20
109.0845357993
 10
64.3334064257
 20
108.7844924673
 10
64.4946824233
 20
108.4839123713
 10
64.6474335033
 20
108.1830766797
 10
64.7911555568
 20
107.8823864258
 10
64.9257303724
 20
107.5822664664
 10
65.0512762254
 20
107.2827641333
 10
65.1676572249
 20
106.9837073552
 10
65.274842796
 20
106.6853454946
 10
65.3728581087
 20
106.3878744393
 10
65.4616193344
 20
106.0910427395
 10
65.5411581581
 20
105.7947836926
 10
65.6114094535
 20
105.4995998019
 10
65.6721586336
 20
105.2060834003
 10
65.7233958465
 20
104.9143992304
 10
65.7651993596
 20
104.6247663225
 10
65.7975555162
 20
104.3378255162
 10
65.8205268449
 20
104.0538890397
 10
65.8342171222
 20
103.7729558224
 10
65.8387123963
 20
103.4951712545
  0
LINE
  5
39D
100
AcDbEntity
  8
ASSI
100
AcDbLine
 62
253
  6
CONTINUOUS
 10
-82.6537116529
 20
189.2328358533
 11
-81.2394980905
 21
188.4162866666
  0
LINE
  5
39E
100
AcDbEntity
  8
ASSI
100
AcDbLine
 62
253
  6
CONTINUOUS
 10
65.8387123963
 20
103.4951712545
 11
64.4244988339
 21
104.3117204411
  0
LINE
  5
39F
100
AcDbEntity
  8
0
100
AcDbLine
 62
7
  6
CONTINUOUS
 10
53.2875670302
 20
116.0507986472
 11
60.7439935957
 21
111.7455513993
  0
LWPOLYLINE
  5
3A0
100
AcDbEntity
  8
0
100
AcDbPolyline
 62
7
  6
CONTINUOUS
 90
13
 70
0
 10
21.8006275745
 20
-162.7362845481
 10
21.7829754972
 20
-162.7481637657
 10
21.7160321534
 20
-162.8159017456
 10
21.670494774
 20
-162.904030198
 10
21.6490888095
 20
-163.0151452789
 10
21.6490888095
 20
-163.1466508323
 10
21.670494774
 20
-163.2824849844
 10
21.7160321534
 20
-163.4231988611
 10
21.7829754972
 20
-163.5682413364
 10
21.8631484547
 20
-163.6998971589
 10
21.9538255755
 20
-163.8122612448
 10
22.0577323099
 20
-163.9112386779
 10
22.174868658
 20
-163.9968294581
  0
LWPOLYLINE
  5
3A1
100
AcDbEntity
  8
0
100
AcDbPolyline
 62
7
  6
CONTINUOUS
 90
13
 70
0
 10
22.5491097415
 20
-164.0326689529
 10
22.5667618188
 20
-164.0207897353
 10
22.6337051627
 20
-163.9530517555
 10
22.679242542
 20
-163.864923303
 10
22.7006485065
 20
-163.7538082222
 10
22.7006485065
 20
-163.6223026688
 10
22.679242542
 20
-163.4864685166
 10
22.6337051627
 20
-163.34575464
 10
22.5667618188
 20
-163.2007121647
 10
22.4865888613
 20
-163.0690563422
 10
22.3959117405
 20
-162.9566922563
 10
22.2920050061
 20
-162.8577148232
 10
22.174868658
 20
-162.7721240429
  0
LWPOLYLINE
  5
3A2
100
AcDbEntity
  8
ASSI
100
AcDbPolyline
 62
7
  6
CONTINUOUS
 90
19
 70
0
 10
23.1711346413
 20
-151.0260141313
 10
23.1232241152
 20
-151.0561553802
 10
23.0773980135
 20
-151.0900324967
 10
23.0339715663
 20
-151.127421248
 10
22.9929584598
 20
-151.1683416623
 10
22.9543450077
 20
-151.2127737113
 10
22.9183510213
 20
-151.260464461
 10
22.8849914402
 20
-151.3114324971
 10
22.8542513247
 20
-151.3656592338
 10
22.8263056661
 20
-151.42283598
 10
22.8011704022
 20
-151.4829795607
 10
22.7788295952
 20
-151.5460731507
 10
22.7594104223
 20
-151.6117575834
 10
22.7429295469
 20
-151.6800476353
 10
22.7293703057
 20
-151.7509285298
 10
22.7188098861
 20
-151.8239967701
 10
22.7112740171
 20
-151.8991178572
 10
22.7067369697
 20
-151.9764262901
 10
22.7051987439
 20
-152.0559220688
  0
LWPOLYLINE
  5
3A3
100
AcDbEntity
  8
ASSI
100
AcDbPolyline
 62
7
  6
CONTINUOUS
 90
19
 70
0
 10
25.4212433619
 20
-156.9642413683
 10
25.4691538879
 20
-156.9341001194
 10
25.5149799896
 20
-156.9002230029
 10
25.5584064369
 20
-156.8628342516
 10
25.5994195434
 20
-156.8219138373
 10
25.6380329954
 20
-156.7774817883
 10
25.6740269819
 20
-156.7297910387
 10
25.7073865629
 20
-156.6788230026
 10
25.7381266784
 20
-156.6245962658
 10
25.7660723371
 20
-156.5674195196
 10
25.7912076009
 20
-156.5072759389
 10
25.813548408
 20
-156.4441823489
 10
25.8329675808
 20
-156.3784979162
 10
25.8494484562
 20
-156.3102078643
 10
25.8630076974
 20
-156.2393269698
 10
25.873568117
 20
-156.1662587295
 10
25.881103986
 20
-156.0911376424
 10
25.8856410334
 20
-156.0138292095
 10
25.8871792592
 20
-155.9343334308
  0
LWPOLYLINE
  5
3A4
100
AcDbEntity
  8
ASSI
100
AcDbPolyline
 62
7
  6
CONTINUOUS
 90
11
 70
0
 10
22.0301705743
 20
-161.9091630457
 10
22.005431712
 20
-161.9245239798
 10
21.9739693753
 20
-161.9475368058
 10
21.9442438874
 20
-161.9734132759
 10
21.9164760396
 20
-162.0019611881
 10
21.8906804089
 20
-162.0332004341
 10
21.8668424184
 20
-162.0671111223
 10
21.8451391291
 20
-162.1034413747
 10
21.8255864362
 20
-162.1422092077
 10
21.8081684445
 20
-162.1833966051
 10
21.7962627638
 20
-162.2174160835
  0
LINE
  5
3A5
100
AcDbEntity
  8
0
100
AcDbLine
 62
253
  6
CONTINUOUS
 10
19.2403755161
 20
-145.9730251776
 11
20.6545890785
 21
-145.1564759909
  0
LINE
  5
3A6
100
AcDbEntity
  8
0
100
AcDbLine
 62
7
  6
CONTINUOUS
 10
21.351597033
 20
-145.0574883274
 11
19.9373834707
 21
-145.874037514
  0
LINE
  5
3A7
100
AcDbEntity
  8
0
100
AcDbLine
 62
253
  6
CONTINUOUS
 10
22.0688026408
 20
-147.2795354402
 11
23.4830162032
 21
-146.4629862535
  0
LINE
  5
3A8
100
AcDbEntity
  8
0
100
AcDbLine
 62
253
  6
CONTINUOUS
 10
22.6344880658
 20
-147.9327432255
 11
24.0487016282
 21
-147.1161940389
  0
LINE
  5
3A9
100
AcDbEntity
  8
ASSI
100
AcDbLine
 62
253
  6
CONTINUOUS
 10
24.1194123063
 20
-151.2393728822
 11
22.7051987439
 21
-152.0559220688
  0
LINE
  5
3AA
100
AcDbEntity
  8
ASSI
100
AcDbLine
 62
253
  6
CONTINUOUS
 10
24.1194123063
 20
-153.2805485742
 11
22.7051987439
 21
-154.0970977608
  0
LWPOLYLINE
  5
3AB
100
AcDbEntity
  8
0
100
AcDbPolyline
 62
7
  6
CONTINUOUS
 90
17
 70
0
 10
19.7403994361
 20
-146.0225659394
 10
19.734009592
 20
-146.0261627818
 10
19.7073035344
 20
-146.0392867866
 10
19.6792900074
 20
-146.0501074947
 10
19.650191018
 20
-146.058539152
 10
19.6199979411
 20
-146.0645627753
 10
19.5887194017
 20
-146.0681973479
 10
19.5566032821
 20
-146.0694140658
 10
19.5236429269
 20
-146.0681937168
 10
19.4898449915
 20
-146.0645555131
 10
19.4554773242
 20
-146.0585282875
 10
19.4205353981
 20
-146.0500930568
 10
19.3850237401
 20
-146.0392688041
 10
19.3492237799
 20
-146.0261413117
 10
19.3132293275
 20
-146.0107391734
 10
19.2769465729
 20
-145.9930337954
 10
19.2403755161
 20
-145.9730251776
  0
LWPOLYLINE
  5
3AC
100
AcDbEntity
  8
0
100
AcDbPolyline
 62
7
  6
CONTINUOUS
 90
14
 70
0
 10
-56.3190348164
 20
162.9122150645
 10
-56.2481576421
 20
162.8949234232
 10
-56.1784292099
 20
162.8815666506
 10
-56.1098495196
 20
162.8721447468
 10
-56.0423040066
 20
162.8666551542
 10
-55.9759072356
 20
162.8651004303
 10
-55.9110029009
 20
162.8674882477
 10
-55.8475987556
 20
162.8738390416
 10
-55.7856870467
 20
162.8841323768
 10
-55.7255882094
 20
162.89831462
 10
-55.6673116541
 20
162.9164059248
 10
-55.6108479704
 20
162.9383861376
 10
-55.5564893626
 20
162.9641411649
 10
-55.5235461369
 20
162.9821918894
  0
LWPOLYLINE
  5
3AD
100
AcDbEntity
  8
0
100
AcDbPolyline
 62
7
  6
CONTINUOUS
 90
5
 70
0
 10
-61.4051528782
 20
180.639937949
 10
-61.2880165302
 20
180.5902626106
 10
-61.1841097957
 20
180.5692511513
 10
-61.0934326749
 20
180.576903571
 10
-61.0309117948
 20
180.6040984542
  0
LWPOLYLINE
  5
3AE
100
AcDbEntity
  8
0
100
AcDbPolyline
 62
7
  6
CONTINUOUS
 90
5
 70
0
 10
-61.4051528782
 20
181.8646433642
 10
-61.5222892263
 20
181.9143187026
 10
-61.6261959608
 20
181.9353301619
 10
-61.7168730816
 20
181.9276777422
 10
-61.7793939617
 20
181.900482859
  0
LINE
  5
3AF
100
AcDbEntity
  8
0
100
AcDbLine
 62
253
  6
CONTINUOUS
 10
-57.5514209208
 20
203.7255580882
 11
72.5562268176
 21
128.6030329159
  0
LINE
  5
3B0
100
AcDbEntity
  8
0
100
AcDbLine
 62
7
  6
CONTINUOUS
 10
-56.0513484404
 20
203.8741816212
 11
74.056299298
 21
128.7516564489
  0
LINE
  5
3B1
100
AcDbEntity
  8
0
100
AcDbLine
 62
253
  6
CONTINUOUS
 10
74.0562268176
 20
128.7516982942
 11
74.056299298
 21
128.7516564489
  0
LINE
  5
3B2
100
AcDbEntity
  8
RACCORDO
100
AcDbLine
 62
7
  6
CONTINUOUS
 10
-51.8379981288
 20
201.4722689914
 11
75.582643841
 21
127.9011872737
  0
LWPOLYLINE
  5
3B3
100
AcDbEntity
  8
0
100
AcDbPolyline
 62
253
  6
CONTINUOUS
 90
58
 70
0
 10
72.5562268176
 20
128.6030329159
 10
72.809517028
 20
128.4527562185
 10
73.0626148934
 20
128.2945334304
 10
73.3153282148
 20
128.1284847037
 10
73.5674650852
 20
127.9547361335
 10
73.8188340355
 20
127.7734196621
 10
74.0692441797
 20
127.5846729785
 10
74.3185053597
 20
127.3886394145
 10
74.5664282902
 20
127.1854678351
 10
74.8128247019
 20
126.9753125259
 10
75.0575074848
 20
126.758333076
 10
75.3002908304
 20
126.5346942565
 10
75.5409903723
 20
126.3045658956
 10
75.7794233268
 20
126.0681227495
 10
76.015408631
 20
125.8255443698
 10
76.2487670812
 20
125.5770149672
 10
76.4793214682
 20
125.3227232713
 10
76.7068967123
 20
125.0628623878
 10
76.9313199959
 20
124.7976296512
 10
77.1524208953
 20
124.5272264758
 10
77.3700315094
 20
124.2518582017
 10
77.5839865879
 20
123.9717339398
 10
77.7941236563
 20
123.6870664126
 10
78.0002831394
 20
123.3980717925
 10
78.2023084826
 20
123.104969538
 10
78.4000462707
 20
122.8079822269
 10
78.5933463445
 20
122.507335387
 10
78.7820619145
 20
122.2032573256
 10
78.9660496727
 20
121.895978955
 10
79.1451699016
 20
121.5857336183
 10
79.3192865797
 20
121.2727569113
 10
79.4882674852
 20
120.9572865041
 10
79.6519842964
 20
120.6395619607
 10
79.8103126891
 20
120.3198245564
 10
79.9631324309
 20
119.9983170955
 10
80.1103274726
 20
119.6752837261
 10
80.2517860365
 20
119.3509697553
 10
80.3874007007
 20
119.0256214625
 10
80.5170684816
 20
118.6994859127
 10
80.6406909111
 20
118.3728107686
 10
80.7581741123
 20
118.0458441027
 10
80.8694288698
 20
117.718834209
 10
80.9743706985
 20
117.392029414
 10
81.0729199071
 20
117.0656778889
 10
81.1650016586
 20
116.7400274603
 10
81.2505460274
 20
116.4153254227
 10
81.3294880523
 20
116.0918183502
 10
81.4017677859
 20
115.7697519095
 10
81.46733034
 20
115.4493706733
 10
81.5261259273
 20
115.1309179347
 10
81.5781098992
 20
114.8146355222
 10
81.6232427799
 20
114.5007636162
 10
81.6614902961
 20
114.1895405667
 10
81.692823403
 20
113.881202712
 10
81.7172183069
 20
113.5759841995
 10
81.7346564826
 20
113.274116808
 10
81.7451246878
 20
112.9758297713
 10
81.748614973
 20
112.6813496043
  0
LWPOLYLINE
  5
3B4
100
AcDbEntity
  8
0
100
AcDbPolyline
 62
7
  6
CONTINUOUS
 90
52
 70
0
 10
74.056299298
 20
128.7516564489
 10
74.3396977782
 20
128.5830318341
 10
74.6208767234
 20
128.4057736082
 10
74.899716858
 20
128.2200572032
 10
75.1762248927
 20
128.0259641768
 10
75.4501648174
 20
127.8237380958
 10
75.7210509712
 20
127.6138341251
 10
75.9887300446
 20
127.3964825133
 10
76.2531268428
 20
127.1718482601
 10
76.5138657706
 20
126.9403596892
 10
76.7708658538
 20
126.702203966
 10
77.0239822435
 20
126.4576237834
 10
77.2727453871
 20
126.2071982194
 10
77.5168573085
 20
125.9513804675
 10
77.7564218168
 20
125.6902090303
 10
77.9915608458
 20
125.4236655333
 10
78.2222152962
 20
125.1519078074
 10
78.4482205255
 20
124.8752151962
 10
78.6695152098
 20
124.593742796
 10
78.8860082609
 20
124.307675868
 10
79.0975627081
 20
124.017259485
 10
79.3040407061
 20
123.722745421
 10
79.5052840282
 20
123.4244227436
 10
79.7012330469
 20
123.1224379991
 10
79.8918880452
 20
122.8168291078
 10
80.0771661467
 20
122.5077475658
 10
80.256914781
 20
122.1954601272
 10
80.4310203051
 20
121.8801730777
 10
80.5993394983
 20
121.5621507035
 10
80.7617884186
 20
121.2415490897
 10
80.9183349392
 20
120.918406245
 10
81.0688867562
 20
120.592861827
 10
81.2132899221
 20
120.2651869016
 10
81.3514149711
 20
119.9356076767
 10
81.4831361288
 20
119.6043462938
 10
81.6083411875
 20
119.271592301
 10
81.7269244928
 20
118.9375126255
 10
81.8387435374
 20
118.6023781713
 10
81.9437016883
 20
118.2663259362
 10
82.041748792
 20
117.9293053164
 10
82.1328126068
 20
117.5912640952
 10
82.2166770708
 20
117.2526591427
 10
82.2930964968
 20
116.9141817573
 10
82.3619310614
 20
116.5761906419
 10
82.4231088102
 20
116.2387213522
 10
82.4765206064
 20
115.9019519776
 10
82.5220512727
 20
115.5660797895
 10
82.5595844713
 20
115.2312925312
 10
82.5890046138
 20
114.8977252071
 10
82.6101858367
 20
114.565541632
 10
82.6229943927
 20
114.234956564
 10
82.6272946294
 20
113.9061733843
  0
LWPOLYLINE
  5
3B5
100
AcDbEntity
  8
RACCORDO
100
AcDbPolyline
 62
7
  6
CONTINUOUS
 90
52
 70
0
 10
75.582643841
 20
127.9011872737
 10
75.8007409335
 20
127.77135782
 10
76.0182195424
 20
127.6341786694
 10
76.2350796677
 20
127.4896498217
 10
76.4515257117
 20
127.337620335
 10
76.6673532721
 20
127.1782411513
 10
76.8819491419
 20
127.011965097
 10
77.0953098185
 20
126.8387725582
 10
77.3074388045
 20
126.6586831489
 10
77.5177334014
 20
126.4722085371
 10
77.7261883925
 20
126.279330564
 10
77.9328089944
 20
126.0800673884
 10
78.1370081591
 20
125.8749851547
 10
78.3387790002
 20
125.6640673141
 10
78.538128404
 20
125.4473304154
 10
78.7344899811
 20
125.2253902491
 10
78.9278552345
 20
124.9982320177
 10
79.1182326613
 20
124.7658705187
 10
79.3050813631
 20
124.5289659351
 10
79.4883913047
 20
124.2875053468
 10
79.6681725214
 20
124.0415016739
 10
79.8439142206
 20
123.7916538593
 10
80.0156049146
 20
123.5379509707
 10
80.1832560913
 20
123.2804039405
 10
80.3463914218
 20
123.0197445084
 10
80.5049980637
 20
122.7559638231
 10
80.6590888596
 20
122.489070736
 10
80.8082260083
 20
122.2198235408
 10
80.9523954222
 20
121.9482155426
 10
81.0916111889
 20
121.6742534363
 10
81.2254777702
 20
121.3987156001
 10
81.3539799535
 20
121.1215975527
 10
81.4771329512
 20
120.8429037754
 10
81.5945868626
 20
120.5634260899
 10
81.7063254799
 20
120.2831622667
 10
81.8123650108
 20
120.0021145354
 10
81.9124041769
 20
119.7210814056
 10
82.0064259138
 20
119.4400629188
 10
82.0944472859
 20
119.1590590336
 10
82.1762182078
 20
118.8788681351
 10
82.251720904
 20
118.5994925354
 10
82.32097315
 20
118.3209299223
 10
82.3837781871
 20
118.0439717451
 10
82.4401176802
 20
117.7686225665
 10
82.4900099643
 20
117.4948778237
 10
82.5333132861
 20
117.2235152772
 10
82.5700089074
 20
116.9545417019
 10
82.6001155663
 20
116.6879503229
 10
82.6235477242
 20
116.4244985768
 10
82.6402768681
 20
116.1644389425
 10
82.650331511
 20
115.907518941
 10
82.6537116529
 20
115.6537385725
  0
LWPOLYLINE
  5
3B6
100
AcDbEntity
  8
ASSI
100
AcDbPolyline
 62
7
  6
CONTINUOUS
 90
17
 70
0
 10
23.3802269135
 20
-164.2473785654
 10
23.4049657758
 20
-164.2320176313
 10
23.4364281125
 20
-164.2090048053
 10
23.4661536004
 20
-164.1831283352
 10
23.4939214482
 20
-164.154580423
 10
23.5197170789
 20
-164.1233411769
 10
23.5435550694
 20
-164.0894304888
 10
23.5652583587
 20
-164.0531002364
 10
23.5848110516
 20
-164.0143324033
 10
23.6022290433
 20
-163.973145006
 10
23.6173829586
 20
-163.9298439712
 10
23.6302559389
 20
-163.8844135605
 10
23.6408648427
 20
-163.8368695123
 10
23.6491308705
 20
-163.7875649686
 10
23.6550277558
 20
-163.7366176434
 10
23.6585817652
 20
-163.6839098227
 10
23.6597928985
 20
-163.6294415065
  0
LWPOLYLINE
  5
3B7
100
AcDbEntity
  8
ASSI
100
AcDbPolyline
 62
7
  6
CONTINUOUS
 90
20
 70
0
 10
40.7755732954
 20
-161.1060672659
 10
40.7331239123
 20
-161.1321286834
 10
40.6786632566
 20
-161.1705369793
 10
40.6266864897
 20
-161.2130727248
 10
40.5774663688
 20
-161.2595127065
 10
40.531017385
 20
-161.3098774483
 10
40.487325047
 20
-161.3641464263
 10
40.4466186379
 20
-161.4220348546
 10
40.4089138543
 20
-161.4835617603
 10
40.3741949995
 20
-161.5487081164
 10
40.3426442666
 20
-161.6171320563
 10
40.3142783101
 20
-161.6888508098
 10
40.2890804755
 20
-161.7638471471
 10
40.2671829927
 20
-161.8417275122
 10
40.2486032114
 20
-161.9225070659
 10
40.2333237819
 20
-162.0061706474
 10
40.2214248857
 20
-162.0922792177
 10
40.21293325
 20
-162.1806864306
 10
40.2078221475
 20
-162.2715386323
 10
40.2060915783
 20
-162.3648358229
  0
LINE
  5
3B8
100
AcDbEntity
  8
0
100
AcDbLine
 62
7
  6
CONTINUOUS
 10
21.5748396658
 20
-162.3452630052
 11
22.4140015238
 21
-161.8607414655
  0
LINE
  5
3B9
100
AcDbEntity
  8
0
100
AcDbLine
 62
7
  6
CONTINUOUS
 10
22.7748976502
 20
-164.4236904959
 11
23.614134724
 21
-163.9391255276
  0
LINE
  5
3BA
100
AcDbEntity
  8
ASSI
100
AcDbLine
 62
253
  6
CONTINUOUS
 10
41.6203051406
 20
-161.5482866362
 11
40.2060915783
 21
-162.3648358229
  0
LINE
  5
3BB
100
AcDbEntity
  8
ASSI
100
AcDbLine
 62
253
  6
CONTINUOUS
 10
41.6203051406
 20
-163.5894623282
 11
40.2060915783
 21
-164.4060115149
  0
LWPOLYLINE
  5
3BC
100
AcDbEntity
  8
0
100
AcDbPolyline
 62
7
  6
CONTINUOUS
 90
6
 70
0
 10
21.5758727867
 20
-162.3470523189
 10
21.6313634872
 20
-162.3199996893
 10
21.7506045893
 20
-162.2910111932
 10
21.8793946995
 20
-162.2963568001
 10
22.0208160557
 20
-162.3342572085
 10
22.174868658
 20
-162.4047124184
  0
LWPOLYLINE
  5
3BD
100
AcDbEntity
  8
0
100
AcDbPolyline
 62
7
  6
CONTINUOUS
 90
6
 70
0
 10
22.7738645293
 20
-164.4219011822
 10
22.7183738288
 20
-164.4489538118
 10
22.5991327267
 20
-164.4779423079
 10
22.4703426166
 20
-164.4725967009
 10
22.3289212603
 20
-164.4346962925
 10
22.174868658
 20
-164.3642410827
  0
LWPOLYLINE
  5
3BE
100
AcDbEntity
  8
ASSI
100
AcDbPolyline
 62
7
  6
CONTINUOUS
 90
12
 70
0
 10
-60.5836255722
 20
180.3409672616
 10
-60.57076264
 20
180.3381217109
 10
-60.5260703861
 20
180.3310898244
 10
-60.4822501945
 20
180.3271270932
 10
-60.4392956199
 20
180.326210833
 10
-60.397525715
 20
180.3283478496
 10
-60.3569493012
 20
180.3335608779
 10
-60.3175575571
 20
180.3418271829
 10
-60.279643072
 20
180.3530853651
 10
-60.2432168459
 20
180.3673577025
 10
-60.2082678788
 20
180.3846219171
 10
-60.1997946228
 20
180.3893888417
  0
LWPOLYLINE
  5
3BF
100
AcDbEntity
  8
RACCORDO
100
AcDbPolyline
 62
7
  6
CONTINUOUS
 90
4
 70
0
 10
-52.4454582868
 20
201.792185839
 10
-52.2735738302
 20
201.7082522889
 10
-52.0560952213
 20
201.5942925933
 10
-51.8379981288
 20
201.4722689914
  0
LWPOLYLINE
  5
3C0
100
AcDbEntity
  8
0
100
AcDbPolyline
 62
7
  6
CONTINUOUS
 90
4
 70
0
 10
62.2742570803
 20
-170.43245865
 10
62.2097581653
 20
-170.4895376513
 10
62.185741049
 20
-170.5072396647
 10
62.1668063073
 20
-170.5190415391
  0
LWPOLYLINE
  5
3C1
100
AcDbEntity
  8
0
100
AcDbPolyline
 62
7
  6
CONTINUOUS
 90
3
 70
0
 10
62.3637903436
 20
-170.3705131167
 10
62.3183021273
 20
-170.3992960976
 10
62.2742570803
 20
-170.43245865
  0
LWPOLYLINE
  5
3C2
100
AcDbEntity
  8
ASSI
100
AcDbPolyline
 62
7
  6
CONTINUOUS
 90
19
 70
0
 10
58.8800270912
 20
-171.6438810943
 10
58.8321165651
 20
-171.6740223432
 10
58.7862904634
 20
-171.7078994598
 10
58.7428640162
 20
-171.745288211
 10
58.7018509097
 20
-171.7862086253
 10
58.6632374577
 20
-171.8306406743
 10
58.6272434712
 20
-171.878331424
 10
58.5938838902
 20
-171.9292994601
 10
58.5631437747
 20
-171.9835261969
 10
58.535198116
 20
-172.040702943
 10
58.5100628521
 20
-172.1008465237
 10
58.4877220451
 20
-172.1639401138
 10
58.4683028722
 20
-172.2296245464
 10
58.4518219969
 20
-172.2979145983
 10
58.4382627557
 20
-172.3687954929
 10
58.427702336
 20
-172.4418637332
 10
58.4201664671
 20
-172.5169848203
 10
58.4156294197
 20
-172.5942932532
 10
58.4140911938
 20
-172.6737890319
  0
LWPOLYLINE
  5
3C3
100
AcDbEntity
  8
ASSI
100
AcDbPolyline
 62
7
  6
CONTINUOUS
 90
20
 70
0
 10
43.5256971577
 20
-167.9102903351
 10
43.5681465408
 20
-167.8842289177
 10
43.6226071965
 20
-167.8458206218
 10
43.6745839633
 20
-167.8032848762
 10
43.7238040843
 20
-167.7568448945
 10
43.7702530681
 20
-167.7064801527
 10
43.813945406
 20
-167.6522111748
 10
43.8546518151
 20
-167.5943227465
 10
43.8923565988
 20
-167.5327958408
 10
43.9270754536
 20
-167.4676494847
 10
43.9586261865
 20
-167.3992255448
 10
43.986992143
 20
-167.3275067912
 10
44.0121899776
 20
-167.2525104539
 10
44.0340874603
 20
-167.1746300889
 10
44.0526672417
 20
-167.0938505351
 10
44.0679466711
 20
-167.0101869537
 10
44.0798455673
 20
-166.9240783833
 10
44.0883372031
 20
-166.8356711705
 10
44.0934483056
 20
-166.7448189687
 10
44.0951788748
 20
-166.6515217782
  0
LWPOLYLINE
  5
3C4
100
AcDbEntity
  8
0
100
AcDbPolyline
 62
7
  6
CONTINUOUS
 90
52
 70
0
 10
69.1141384713
 20
-151.0366164086
 10
69.0948390865
 20
-151.0481150854
 10
69.0447015519
 20
-151.0814393011
 10
68.9969285336
 20
-151.1183655605
 10
68.9515322943
 20
-151.1589125253
 10
68.9085005713
 20
-151.2030615337
 10
68.8680560172
 20
-151.2505838291
 10
68.8302120455
 20
-151.301496887
 10
68.7949552426
 20
-151.3557832321
 10
68.7624680204
 20
-151.4131616817
 10
68.7327647352
 20
-151.4736482542
 10
68.7058310306
 20
-151.5372269313
 10
68.6818062491
 20
-151.6035684765
 10
68.6607054673
 20
-151.6726872024
 10
68.6425136087
 20
-151.7445687964
 10
68.6273247859
 20
-151.818841084
 10
68.6151545621
 20
-151.8955164506
 10
68.6059873742
 20
-151.9745825108
 10
68.5998706463
 20
-152.0556299335
 10
68.5968201863
 20
-152.1386689851
 10
68.5968201863
 20
-152.2236893993
 10
68.5998706463
 20
-152.3102510456
 10
68.6059873742
 20
-152.3983619124
 10
68.6151545621
 20
-152.4880140113
 10
68.6273247859
 20
-152.5787432474
 10
68.6425136087
 20
-152.6705552067
 10
68.6607054673
 20
-152.7634443031
 10
68.6818062491
 20
-152.8569296829
 10
68.7058310306
 20
-152.9510144436
 10
68.7327647352
 20
-153.0456954876
 10
68.7624680204
 20
-153.1404826693
 10
68.7949552426
 20
-153.2353765489
 10
68.8302120455
 20
-153.3303765661
 10
68.8680560172
 20
-153.4249908939
 10
68.9085005713
 20
-153.5192175468
 10
68.9515322943
 20
-153.6130585102
 10
68.9969285336
 20
-153.7060279142
 10
69.0447015519
 20
-153.7981212576
 10
69.0948390865
 20
-153.8893430416
 10
69.147081697
 20
-153.9792208999
 10
69.2014403048
 20
-154.067747885
 10
69.2579039885
 20
-154.1549309444
 10
69.3161805438
 20
-154.2403185545
 10
69.3762793811
 20
-154.3239014286
 10
69.43819109
 20
-154.4056888534
 10
69.5015952353
 20
-154.485257165
 10
69.56649957
 20
-154.5625948812
 10
69.632896341
 20
-154.6377134842
 10
69.700441854
 20
-154.7102237569
 10
69.7690215443
 20
-154.7799959604
 10
69.8387499765
 20
-154.8471598336
 10
69.9096271508
 20
-154.9117153766
  0
LINE
  5
3C5
100
AcDbEntity
  8
0
100
AcDbLine
 62
7
  6
CONTINUOUS
 10
70.0106424053
 20
-150.518979171
 11
69.1141353955
 21
-151.0366110825
  0
LINE
  5
3C6
100
AcDbEntity
  8
0
100
AcDbLine
 62
253
  6
CONTINUOUS
 10
69.9096271508
 20
-150.9666395837
 11
70.0106424053
 21
-150.9083146418
  0
LINE
  5
3C7
100
AcDbEntity
  8
0
100
AcDbLine
 62
253
  6
CONTINUOUS
 10
61.6667823873
 20
-170.4695007772
 11
63.0809959497
 21
-169.6529515906
  0
LINE
  5
3C8
100
AcDbEntity
  8
0
100
AcDbLine
 62
7
  6
CONTINUOUS
 10
63.7780039042
 20
-169.553963927
 11
62.3637903418
 21
-170.3705131137
  0
LINE
  5
3C9
100
AcDbEntity
  8
ASSI
100
AcDbLine
 62
253
  6
CONTINUOUS
 10
59.8283047562
 20
-171.8572398452
 11
58.4140911938
 21
-172.6737890319
  0
LWPOLYLINE
  5
3CA
100
AcDbEntity
  8
0
100
AcDbPolyline
 62
7
  6
CONTINUOUS
 90
13
 70
0
 10
60.6915005398
 20
-185.1913871812
 10
60.6738484625
 20
-185.2032663988
 10
60.6069051186
 20
-185.2710043786
 10
60.5613677393
 20
-185.359132831
 10
60.5399617748
 20
-185.4702479119
 10
60.5399617748
 20
-185.6017534653
 10
60.5613677393
 20
-185.7375876174
 10
60.6069051186
 20
-185.8783014941
 10
60.6738484625
 20
-186.0233439694
 10
60.7540214199
 20
-186.1549997919
 10
60.8446985407
 20
-186.2673638778
 10
60.9486052752
 20
-186.3663413109
 10
61.0657416233
 20
-186.4519320911
  0
LWPOLYLINE
  5
3CB
100
AcDbEntity
  8
0
100
AcDbPolyline
 62
7
  6
CONTINUOUS
 90
13
 70
0
 10
61.4399827067
 20
-186.4877715859
 10
61.4576347841
 20
-186.4758923684
 10
61.5245781279
 20
-186.4081543885
 10
61.5701155072
 20
-186.3200259361
 10
61.5915214718
 20
-186.2089108552
 10
61.5915214718
 20
-186.0774053018
 10
61.5701155072
 20
-185.9415711497
 10
61.5245781279
 20
-185.800857273
 10
61.4576347841
 20
-185.6558147977
 10
61.3774618266
 20
-185.5241589752
 10
61.2867847058
 20
-185.4117948893
 10
61.1828779713
 20
-185.3128174562
 10
61.0657416233
 20
-185.227226676
  0
LWPOLYLINE
  5
3CC
100
AcDbEntity
  8
ASSI
100
AcDbPolyline
 62
7
  6
CONTINUOUS
 90
19
 70
0
 10
61.1301358118
 20
-177.5821083314
 10
61.1780463379
 20
-177.5519670825
 10
61.2238724396
 20
-177.5180899659
 10
61.2672988868
 20
-177.4807012147
 10
61.3083119933
 20
-177.4397808004
 10
61.3469254453
 20
-177.3953487514
 10
61.3829194318
 20
-177.3476580017
 10
61.4162790128
 20
-177.2966899656
 10
61.4470191283
 20
-177.2424632288
 10
61.474964787
 20
-177.1852864827
 10
61.5001000508
 20
-177.125142902
 10
61.5224408579
 20
-177.0620493119
 10
61.5418600307
 20
-176.9963648793
 10
61.5583409061
 20
-176.9280748274
 10
61.5719001473
 20
-176.8571939329
 10
61.582460567
 20
-176.7841256926
 10
61.5899964359
 20
-176.7090046054
 10
61.5945334833
 20
-176.6316961725
 10
61.5960717092
 20
-176.5522003938
  0
LWPOLYLINE
  5
3CD
100
AcDbEntity
  8
ASSI
100
AcDbPolyline
 62
7
  6
CONTINUOUS
 90
11
 70
0
 10
60.9210435396
 20
-184.3642656787
 10
60.8963046773
 20
-184.3796266128
 10
60.8648423406
 20
-184.4026394388
 10
60.8351168526
 20
-184.4285159089
 10
60.8073490049
 20
-184.4570638211
 10
60.7815533742
 20
-184.4883030672
 10
60.7577153837
 20
-184.5222137553
 10
60.7360120944
 20
-184.5585440077
 10
60.7164594015
 20
-184.5973118407
 10
60.6990414097
 20
-184.6384992381
 10
60.6871357291
 20
-184.6725187165
  0
LWPOLYLINE
  5
3CE
100
AcDbEntity
  8
ASSI
100
AcDbPolyline
 62
7
  6
CONTINUOUS
 90
17
 70
0
 10
62.2710998787
 20
-186.7024811984
 10
62.295838741
 20
-186.6871202643
 10
62.3273010778
 20
-186.6641074383
 10
62.3570265657
 20
-186.6382309682
 10
62.3847944134
 20
-186.609683056
 10
62.4105900441
 20
-186.5784438099
 10
62.4344280346
 20
-186.5445331218
 10
62.4561313239
 20
-186.5082028694
 10
62.4756840168
 20
-186.4694350364
 10
62.4931020086
 20
-186.428247639
 10
62.5082559239
 20
-186.3849466042
 10
62.5211289041
 20
-186.3395161935
 10
62.5317378079
 20
-186.2919721453
 10
62.5400038358
 20
-186.2426676016
 10
62.5459007211
 20
-186.1917202764
 10
62.5494547304
 20
-186.1390124558
 10
62.5506658638
 20
-186.0845441396
  0
LINE
  5
3CF
100
AcDbEntity
  8
ASSI
100
AcDbLine
 62
253
  6
CONTINUOUS
 10
59.8283047562
 20
-173.8984155372
 11
58.4140911938
 21
-174.7149647239
  0
LINE
  5
3D0
100
AcDbEntity
  8
0
100
AcDbLine
 62
253
  6
CONTINUOUS
 10
64.495209512
 20
-171.7760110398
 11
65.9094230744
 21
-170.9594618532
  0
LINE
  5
3D1
100
AcDbEntity
  8
0
100
AcDbLine
 62
253
  6
CONTINUOUS
 10
65.060894937
 20
-172.4292188252
 11
66.4751084993
 21
-171.6126696385
  0
LINE
  5
3D2
100
AcDbEntity
  8
0
100
AcDbLine
 62
253
  6
CONTINUOUS
 10
69.7277996928
 20
-175.1238311412
 11
70.0106424053
 21
-174.9605213038
  0
LINE
  5
3D3
100
AcDbEntity
  8
0
100
AcDbLine
 62
7
  6
CONTINUOUS
 10
60.4657126311
 20
-184.8003656382
 11
61.3048744891
 21
-184.3158440986
  0
LINE
  5
3D4
100
AcDbEntity
  8
0
100
AcDbLine
 62
7
  6
CONTINUOUS
 10
61.6657706154
 20
-186.8787931289
 11
62.5050076893
 21
-186.3942281606
  0
LWPOLYLINE
  5
3D5
100
AcDbEntity
  8
0
100
AcDbPolyline
 62
7
  6
CONTINUOUS
 90
17
 70
0
 10
62.1668063073
 20
-170.5190415391
 10
62.1604164632
 20
-170.5226383815
 10
62.1337104056
 20
-170.5357623863
 10
62.1056968786
 20
-170.5465830943
 10
62.0765978892
 20
-170.5550147517
 10
62.0464048122
 20
-170.561038375
 10
62.0151262729
 20
-170.5646729476
 10
61.9830101533
 20
-170.5658896655
 10
61.9500497981
 20
-170.5646693165
 10
61.9162518627
 20
-170.5610311128
 10
61.8818841954
 20
-170.5550038871
 10
61.8469422693
 20
-170.5465686564
 10
61.8114306113
 20
-170.5357444038
 10
61.7756306511
 20
-170.5226169113
 10
61.7396361987
 20
-170.5072147731
 10
61.7033534441
 20
-170.4895093951
 10
61.6667823873
 20
-170.4695007772
  0
LWPOLYLINE
  5
3D6
100
AcDbEntity
  8
0
100
AcDbPolyline
 62
7
  6
CONTINUOUS
 90
6
 70
0
 10
60.466745752
 20
-184.8021549519
 10
60.5222364525
 20
-184.7751023223
 10
60.6414775546
 20
-184.7461138262
 10
60.7702676647
 20
-184.7514594331
 10
60.911689021
 20
-184.7893598416
 10
61.0657416233
 20
-184.8598150514
  0
LWPOLYLINE
  5
3D7
100
AcDbEntity
  8
0
100
AcDbPolyline
 62
7
  6
CONTINUOUS
 90
19
 70
0
 10
81.748614973
 20
-200.8432366841
 10
81.839386364
 20
-200.7884580144
 10
81.9256329231
 20
-200.7316746406
 10
82.0073546503
 20
-200.6728865627
 10
82.0846897056
 20
-200.6119743939
 10
82.157499929
 20
-200.5490575209
 10
82.2253708408
 20
-200.4844941047
 10
82.28827427
 20
-200.4182747543
 10
82.3462383876
 20
-200.3504088606
 10
82.398933227
 20
-200.2812827572
 10
82.446328735
 20
-200.2108892567
 10
82.4884549648
 20
-200.1392355465
 10
82.5250721083
 20
-200.0667295228
 10
82.5561487449
 20
-199.9933663244
 10
82.5817162953
 20
-199.9191508126
 10
82.6016292135
 20
-199.8445054667
 10
82.6158552489
 20
-199.7694278352
 10
82.624426652
 20
-199.6939203696
 10
82.6272946294
 20
-199.6184129041
  0
LINE
  5
3D8
100
AcDbEntity
  8
0
100
AcDbLine
 62
7
  6
CONTINUOUS
 10
82.6272946294
 20
-194.620219467
 11
82.6537116529
 21
-194.6049666088
  0
LINE
  5
3D9
100
AcDbEntity
  8
0
100
AcDbLine
 62
7
  6
CONTINUOUS
 10
81.748614973
 20
-200.8432366841
 11
74.9603898736
 21
-204.7626727801
  0
LWPOLYLINE
  5
3DA
100
AcDbEntity
  8
0
100
AcDbPolyline
 62
7
  6
CONTINUOUS
 90
6
 70
0
 10
61.6647374946
 20
-186.8770038152
 10
61.609246794
 20
-186.9040564448
 10
61.490005692
 20
-186.9330449409
 10
61.3612155818
 20
-186.927699334
 10
61.2197942256
 20
-186.8897989256
 10
61.0657416233
 20
-186.8193437157
  0
ENDSEC
  0
SECTION
  2
OBJECTS
  0
DICTIONARY
  5
C
100
AcDbDictionary
280
0
281
1
  3
ACAD_GROUP
350
D
  3
ACAD_MLINESTYLE
350
17
  3
ACAD_LAYOUT
350
1A
  3
ACAD_PLOTSETTINGS
350
19
  3
ACAD_PLOTSTYLENAME
350
E
  0
DICTIONARY
  5
D
102
{ACAD_REACTORS
330
C
102
}
100
AcDbDictionary
280
0
281
1
  0
ACDBDICTIONARYWDFLT
  5
E
102
{ACAD_REACTORS
330
C
102
}
100
AcDbDictionary
281
1
  3
Normal
350
F
100
AcDbDictionaryWithDefault
340
F
  0
DICTIONARY
  5
17
102
{ACAD_REACTORS
330
C
102
}
100
AcDbDictionary
280
0
281
1
  3
Standard
350
18
  0
DICTIONARY
  5
19
102
{ACAD_REACTORS
330
C
102
}
100
AcDbDictionary
281
1
  0
DICTIONARY
  5
1A
102
{ACAD_REACTORS
330
C
102
}
100
AcDbDictionary
281
1
  3
Model
350
3DB
  3
Layout1
350
3DC
  0
ACDBPLACEHOLDER
  5
F
102
{ACAD_REACTORS
330
E
102
}
  0
MLINESTYLE
  5
18
102
{ACAD_REACTORS
330
17
102
}
100
AcDbMlineStyle
  2
STANDARD
 70
0
  3

 62
256
 51
90.0
 52
90.0
 71
2
 49
0.5
 62
256
  6
BYLAYER
 49
-0.5
 62
256
  6
BYLAYER
  0
LAYOUT
  5
3DB
102
{ACAD_REACTORS
330
1A
102
}
100
AcDbPlotSettings
  1

  2
none_device
  4
ISO_A4_(297.00_x_210.00_MM)
  6

 40
0.0
 41
0.0
 42
0.0
 43
0.0
 44
297.0
 45
210.0
 46
0.0
 47
0.0
 48
0.0
 49
0.0
140
0.0
141
0.0
142
1.0
143
1.0
 70
1024
 72
1
 73
0
 74
0
  7

 75
0
147
1.0
148
0.0
149
0.0
100
AcDbLayout
  1
Model
 70
0
 71
0
 10
0.0
 20
0.0
 11
297.0
 21
210.0
 12
0.0
 22
0.0
 32
0.0
 14
0.0
 24
0.0
 34
0.0
 15
0.0
 25
0.0
 35
0.0
146
0.0
 13
0.0
 23
0.0
 33
0.0
 16
1.0
 26
0.0
 36
0.0
 17
0.0
 27
1.0
 37
0.0
 76
0
330
20F
345
0
346
0
  0
LAYOUT
  5
3DC
102
{ACAD_REACTORS
330
1A
102
}
100
AcDbPlotSettings
  1

  2
none_device
  4
ISO_A4_(297.00_x_210.00_MM)
  6

 40
0.0
 41
0.0
 42
0.0
 43
0.0
 44
297.0
 45
210.0
 46
0.0
 47
0.0
 48
0.0
 49
0.0
140
0.0
141
0.0
142
1.0
143
1.0
 70
0
 72
1
 73
0
 74
0
  7

 75
0
147
1.0
148
0.0
149
0.0
100
AcDbLayout
  1
Layout1
 70
0
 71
1
 10
0.0
 20
0.0
 11
297.0
 21
210.0
 12
0.0
 22
0.0
 32
0.0
 14
0.0
 24
0.0
 34
0.0
 15
0.0
 25
0.0
 35
0.0
146
0.0
 13
0.0
 23
0.0
 33
0.0
 16
1.0
 26
0.0
 36
0.0
 17
0.0
 27
1.0
 37
0.0
 76
0
330
210
345
0
346
0
  0
ENDSEC
  0
EOF
