  0
SECTION
  2
HEADER
  9
$ACADVER
  1
AC1021
  9
$DWGCODEPAGE
  3
ANSI_1252
  9
$EXTMAX
 10
297.0
 20
210.0
 30
0.0
  9
$EXTMIN
 10
0.0
 20
0.0
 30
0.0
  9
$LIMMIN
 10
0.0
 20
0.0
  9
$LIMMAX
 10
297.0
 20
210.0
  9
$VIEWCTR
 10
148.5
 20
105.0
  9
$VIEWSIZE
 40
210.0
  9
$CLAYER
  8
0
  9
$LTSCALE
 40
16.335
  9
$CELTYPE
  6
BYLAYER
  9
$DIMSCALE
 40
1.0
  9
$DIMASZ
 40
3.0
  9
$DIMEXO
 40
0.5
  9
$DIMDLI
 40
11.286
  9
$DIMEXE
 40
1.5
  9
$DIMCEN
 40
2.673
  9
$DIMLFAC
 40
1.0
  9
$DIMBLK
  1
_FILLED
  9
$DIMALT
 70
0
  9
$DIMALTF
 40
0.0393700787
  9
$DIMTXT
 40
3.0
  9
$DIMTOL
 70
1
  9
$DIMLIM
 70
0
  9
$DIMTFAC
 40
1.0
  9
$DIMTP
 40
0.01
  9
$DIMTM
 40
0.01
  9
$DIMGAP
 40
0.625
  9
$DIMDSEP
 70
44
  9
$AUNITS
 70
0
  9
$PDMODE
 70
3
  9
$PDSIZE
 40
3.0
  9
$HANDSEED
  5
2BA
  9
$TILEMODE
 70
1
  9
$MEASUREMENT
 70
1
  9
$INSUNITS
 70
4
  0
ENDSEC
  0
SECTION
  2
CLASSES
  0
CLASS
  1
ACDBDICTIONARYWDFLT
  2
AcDbDictionaryWithDefault
  3
AutoCAD 2000
 90
0
 91
1
280
0
281
0
  0
CLASS
  1
ACDBPLACEHOLDER
  2
AcDbPlaceHolder
  3
AutoCAD 2000
 90
0
 91
1
280
0
281
0
  0
CLASS
  1
LAYOUT
  2
AcDbLayout
  3
AutoCAD 2000
 90
0
 91
0
280
0
281
0
  0
ENDSEC
  0
SECTION
  2
TABLES
  0
TABLE
  2
VPORT
  5
8
100
AcDbSymbolTable
 70
2
  0
VPORT
  5
1F4
100
AcDbSymbolTableRecord
100
AcDbViewportTableRecord
  2
*ACTIVE
 70
0
 10
0.0
 20
0.0
 11
1.0
 21
1.0
 12
148.5
 22
105.0
 13
0.0
 23
0.0
 14
1.0
 24
1.0
 15
0.0
 25
0.0
 16
0.0
 26
0.0
 36
1.0
 17
0.0
 27
0.0
 37
0.0
 40
210.0
 41
1.4142857143
 42
50.0
 43
0.0
 44
0.0
 50
0.0
 51
0.0
 71
0
 72
100
 73
1
 74
1
 75
0
 76
0
 77
0
 78
0
  0
ENDTAB
  0
TABLE
  2
LTYPE
  5
5
100
AcDbSymbolTable
 70
6
  0
LTYPE
  5
14
100
AcDbSymbolTableRecord
100
AcDbLinetypeTableRecord
  2
BYBLOCK
 70
0
  3

 72
65
 73
0
 40
0.0
  0
LTYPE
  5
15
100
AcDbSymbolTableRecord
100
AcDbLinetypeTableRecord
  2
BYLAYER
 70
0
  3

 72
65
 73
0
 40
0.0
  0
LTYPE
  5
16
100
AcDbSymbolTableRecord
100
AcDbLinetypeTableRecord
  2
CONTINUOUS
 70
64
  3
Solid line
 72
65
 73
0
 40
0.0
  0
LTYPE
  5
1F5
100
AcDbSymbolTableRecord
100
AcDbLinetypeTableRecord
  2
CENTER
 70
64
  3
____ _ ____ _ ____ _ ____ _ ____ _ ____ _ ____
 72
65
 73
4
 40
0.6
 49
0.375
 74
0
 49
-0.075
 74
0
 49
0.075
 74
0
 49
-0.075
 74
0
  0
LTYPE
  5
1F6
100
AcDbSymbolTableRecord
100
AcDbLinetypeTableRecord
  2
HIDDEN
 70
64
  3
- - - - - - - - - - - - - - - - - - - -
 72
65
 73
2
 40
0.2
 49
0.1
 74
0
 49
-0.1
 74
0
  0
LTYPE
  5
1F7
100
AcDbSymbolTableRecord
100
AcDbLinetypeTableRecord
  2
PHANTOM
 70
64
  3
_____ _ _ _____ _ _ _____ _ _ _____
 72
65
 73
6
 40
0.8
 49
0.45
 74
0
 49
-0.05
 74
0
 49
0.1
 74
0
 49
-0.05
 74
0
 49
0.1
 74
0
 49
-0.05
 74
0
  0
LTYPE
  5
1F8
100
AcDbSymbolTableRecord
100
AcDbLinetypeTableRecord
  2
DOT
 70
64
  3
. . . . . . . . . . . . . . . . . . . .
 72
65
 73
2
 40
0.2
 49
0.1
 74
0
 49
-0.1
 74
0
  0
LTYPE
  5
1F9
100
AcDbSymbolTableRecord
100
AcDbLinetypeTableRecord
  2
DASHED
 70
64
  3
- - - - - - - - - - - - - - - - - - - -
 72
65
 73
2
 40
0.2
 49
0.1
 74
0
 49
-0.1
 74
0
  0
ENDTAB
  0
TABLE
  2
LAYER
  5
2
100
AcDbSymbolTable
 70
36
  0
LAYER
  5
10
100
AcDbSymbolTableRecord
100
AcDbLayerTableRecord
  2
0
 70
0
 62
7
  6
CONTINUOUS
370
-3
390
F
  0
LAYER
  5
1FA
100
AcDbSymbolTableRecord
100
AcDbLayerTableRecord
  2
DEFAULT_1
 70
0
 62
7
  6
CENTER
370
-3
390
F
  0
LAYER
  5
1FB
100
AcDbSymbolTableRecord
100
AcDbLayerTableRecord
  2
DEFAULT_2
 70
0
 62
7
  6
HIDDEN
370
-3
390
F
  0
LAYER
  5
1FC
100
AcDbSymbolTableRecord
100
AcDbLayerTableRecord
  2
DEFAULT_3
 70
0
 62
7
  6
PHANTOM
370
-3
390
F
  0
LAYER
  5
1FD
100
AcDbSymbolTableRecord
100
AcDbLayerTableRecord
  2
ASSI
 70
0
 62
7
  6
CONTINUOUS
370
-3
390
F
  0
LAYER
  5
1FE
100
AcDbSymbolTableRecord
100
AcDbLayerTableRecord
  2
COORDINATE
 70
0
 62
7
  6
CONTINUOUS
370
-3
390
F
  0
LAYER
  5
1FF
100
AcDbSymbolTableRecord
100
AcDbLayerTableRecord
  2
COPY_PUBLISH
 70
0
 62
7
  6
CONTINUOUS
370
-3
390
F
  0
LAYER
  5
200
100
AcDbSymbolTableRecord
100
AcDbLayerTableRecord
  2
COSMETICI
 70
0
 62
7
  6
CONTINUOUS
370
-3
390
F
  0
LAYER
  5
201
100
AcDbSymbolTableRecord
100
AcDbLayerTableRecord
  2
CURVE
 70
0
 62
7
  6
CONTINUOUS
370
-3
390
F
  0
LAYER
  5
202
100
AcDbSymbolTableRecord
100
AcDbLayerTableRecord
  2
DRAFT
 70
0
 62
7
  6
CONTINUOUS
370
-3
390
F
  0
LAYER
  5
203
100
AcDbSymbolTableRecord
100
AcDbLayerTableRecord
  2
IMPORT_IGES
 70
0
 62
7
  6
CONTINUOUS
370
-3
390
F
  0
LAYER
  5
204
100
AcDbSymbolTableRecord
100
AcDbLayerTableRecord
  2
NOTE
 70
0
 62
7
  6
CONTINUOUS
370
-3
390
F
  0
LAYER
  5
205
100
AcDbSymbolTableRecord
100
AcDbLayerTableRecord
  2
PIANI
 70
0
 62
7
  6
CONTINUOUS
370
-3
390
F
  0
LAYER
  5
206
100
AcDbSymbolTableRecord
100
AcDbLayerTableRecord
  2
PUNTI
 70
0
 62
7
  6
CONTINUOUS
370
-3
390
F
  0
LAYER
  5
207
100
AcDbSymbolTableRecord
100
AcDbLayerTableRecord
  2
RACCORDO
 70
0
 62
7
  6
CONTINUOUS
370
-3
390
F
  0
LAYER
  5
208
100
AcDbSymbolTableRecord
100
AcDbLayerTableRecord
  2
SIMBOLI
 70
0
 62
7
  6
CONTINUOUS
370
-3
390
F
  0
LAYER
  5
209
100
AcDbSymbolTableRecord
100
AcDbLayerTableRecord
  2
SMUSSO
 70
0
 62
7
  6
CONTINUOUS
370
-3
390
F
  0
LAYER
  5
20A
100
AcDbSymbolTableRecord
100
AcDbLayerTableRecord
  2
SNAPLINE
 70
0
 62
7
  6
CONTINUOUS
370
-3
390
F
  0
LAYER
  5
20B
100
AcDbSymbolTableRecord
100
AcDbLayerTableRecord
  2
SUPERFICI
 70
0
 62
7
  6
CONTINUOUS
370
-3
390
F
  0
LAYER
  5
20C
100
AcDbSymbolTableRecord
100
AcDbLayerTableRecord
  2
TRASH
 70
0
 62
7
  6
CONTINUOUS
370
-3
390
F
  0
ENDTAB
  0
TABLE
  2
STYLE
  5
3
100
AcDbSymbolTable
 70
1
  0
STYLE
  5
11
100
AcDbSymbolTableRecord
100
AcDbTextStyleTableRecord
  2
STANDARD
 70
0
 40
0.0
 41
0.8
 50
0.0
 71
0
 42
0.2
  3
txt
  4

  0
STYLE
  5
20D
100
AcDbSymbolTableRecord
100
AcDbTextStyleTableRecord
  2
TEXTSTYLE_1
 70
0
 40
0.0
 41
0.8
 50
0.0
 71
0
 42
0.2
  3
gdt
  4

  0
ENDTAB
  0
TABLE
  2
VIEW
  5
6
100
AcDbSymbolTable
 70
0
  0
ENDTAB
  0
TABLE
  2
UCS
  5
7
100
AcDbSymbolTable
 70
0
  0
ENDTAB
  0
TABLE
  2
APPID
  5
9
100
AcDbSymbolTable
 70
1
  0
APPID
  5
20E
100
AcDbSymbolTableRecord
100
AcDbRegAppTableRecord
  2
ACAD
 70
0
  0
ENDTAB
  0
TABLE
  2
BLOCK_RECORD
  5
1
100
AcDbSymbolTable
 70
0
  0
BLOCK_RECORD
  5
20F
100
AcDbSymbolTableRecord
100
AcDbBlockTableRecord
  2
*Model_Space
  0
BLOCK_RECORD
  5
210
100
AcDbSymbolTableRecord
100
AcDbBlockTableRecord
  2
*Paper_Space
  0
ENDTAB
  0
TABLE
  2
DIMSTYLE
  5
A
100
AcDbSymbolTable
 70
1
100
AcDbDimStyleTable
 71
0
  0
DIMSTYLE
105
211
100
AcDbSymbolTableRecord
100
AcDbDimStyleTableRecord
  2
STANDARD
 70
0
  3

  4

 40
1.0
 41
3.0
 42
0.5
 43
0.38
 44
1.5
 45
0.0
 46
0.0
 47
0.01
 48
0.01
140
3.0
141
0.09
142
0.0
143
25.4
144
1.0
145
0.0
146
1.0
147
0.625
 71
1.0
 72
0.0
 73
0
 74
0
 75
0
 76
0
 77
1
 78
8
170
0
171
2
172
0
173
0
174
0
175
0
176
0
177
0
178
0
270
2
271
2
272
2
273
2
274
2
275
0
280
0
281
0
282
0
283
1
284
8
285
0
286
0
287
3
288
0
340
11
278
44
  0
ENDTAB
  0
ENDSEC
  0
SECTION
  2
BLOCKS
  0
BLOCK
  5
20
100
AcDbEntity
  8
0
100
AcDbBlockBegin
  2
*Model_Space
 70
0
 10
0.0
 20
0.0
 30
0.0
  3
*Model_Space
  1

  0
ENDBLK
  5
21
100
AcDbEntity
  8
0
100
AcDbBlockEnd
  0
BLOCK
  5
1C
100
AcDbEntity
  8
0
100
AcDbBlockBegin
  2
*Paper_Space
 70
0
 10
0.0
 20
0.0
 30
0.0
  3
*Paper_Space
  1

  0
ENDBLK
  5
1D
100
AcDbEntity
  8
0
100
AcDbBlockEnd
  0
ENDSEC
  0
SECTION
  2
ENTITIES
  0
LINE
  5
212
100
AcDbEntity
  8
0
100
AcDbLine
 62
7
  6
CONTINUOUS
 10
-58.8735801929
 20
72.6284233635
 11
-15.248158589
 21
97.8171950427
  0
LWPOLYLINE
  5
213
100
AcDbEntity
  8
0
100
AcDbPolyline
 62
7
  6
CONTINUOUS
 90
28
 70
0
 10
-15.248158589
 20
97.8171950427
 10
-15.0140611914
 20
97.9458558205
 10
-14.7737692022
 20
98.0650032316
 10
-14.5275513292
 20
98.1743775044
 10
-14.2759147344
 20
98.2736525134
 10
-14.0189349032
 20
98.3627061713
 10
-13.7562055298
 20
98.4415301051
 10
-13.4879589795
 20
98.5098628125
 10
-13.2145098188
 20
98.5674402775
 10
-12.9355042573
 20
98.6141220001
 10
-12.6511159355
 20
98.6496245842
 10
-12.3616900864
 20
98.6736565089
 10
-12.067064955
 20
98.6859671832
 10
-11.7673319957
 20
98.6862574188
 10
-11.4628883307
 20
98.6742343336
 10
-11.1539733612
 20
98.6496260101
 10
-10.8406458258
 20
98.6121457992
 10
-10.5233046619
 20
98.561549129
 10
-10.2026512873
 20
98.4976921788
 10
-9.8786807965
 20
98.4203300927
 10
-9.5518236969
 20
98.3293166242
 10
-9.2233972666
 20
98.224842165
 10
-8.8934146881
 20
98.1067816404
 10
-8.5622586949
 20
97.9751334825
 10
-8.2317732811
 20
97.8305915734
 10
-7.9026874991
 20
97.6735554297
 10
-7.5746290237
 20
97.5039153976
 10
-7.2477720267
 20
97.3217832659
  0
LWPOLYLINE
  5
214
100
AcDbEntity
  8
0
100
AcDbPolyline
 62
253
  6
CONTINUOUS
 90
25
 70
0
 10
-15.248158589
 20
97.8171950427
 10
-15.0316902874
 20
97.9341201119
 10
-14.8088071682
 20
98.0386831377
 10
-14.5794338184
 20
98.1309534805
 10
-14.3438158567
 20
98.2108323352
 10
-14.1022055886
 20
98.2782341654
 10
-13.8548617367
 20
98.3330867954
 10
-13.6020491627
 20
98.3753314879
 10
-13.3440385849
 20
98.404923006
 10
-13.0811062873
 20
98.4218296624
 10
-12.8135338244
 20
98.4260333531
 10
-12.5416077196
 20
98.4175295767
 10
-12.2656191581
 20
98.3963274392
 10
-11.9858636754
 20
98.3624496443
 10
-11.7026408407
 20
98.3159324694
 10
-11.4162539361
 20
98.256825726
 10
-11.1270096318
 20
98.1851927073
 10
-10.8352176579
 20
98.1011101197
 10
-10.5411904725
 20
98.0046680008
 10
-10.2452429274
 20
97.8959696233
 10
-9.9476919305
 20
97.7751313842
 10
-9.648856107
 20
97.6422826801
 10
-9.3490554576
 20
97.4975657687
 10
-9.0486110165
 20
97.3411356165
 10
-8.7478445072
 20
97.1731597329
  0
LWPOLYLINE
  5
215
100
AcDbEntity
  8
ASSI
100
AcDbPolyline
 62
7
  6
CONTINUOUS
 90
24
 70
0
 10
-58.8735528912
 20
72.6284391272
 10
-58.7391152595
 20
72.6998998202
 10
-58.5797291129
 20
72.7696975871
 10
-58.4144053248
 20
72.8266955665
 10
-58.2431776638
 20
72.8707935983
 10
-58.0664623205
 20
72.9017904946
 10
-57.8843054188
 20
72.9198010649
 10
-57.6969725374
 20
72.9247711601
 10
-57.5047503508
 20
72.9166554884
 10
-57.3077675994
 20
72.8957000765
 10
-57.1064734773
 20
72.861976989
 10
-56.9010432469
 20
72.8155184843
 10
-56.691206512
 20
72.7565451134
 10
-56.4772619448
 20
72.6851067834
 10
-56.2595209304
 20
72.601248857
 10
-56.0377142329
 20
72.5051288383
 10
-55.8120612631
 20
72.3967593467
 10
-55.5829518365
 20
72.2762161169
 10
-55.3503671686
 20
72.1437276324
 10
-55.1146018967
 20
71.9993786201
 10
-54.8759938469
 20
71.8432545555
 10
-54.6345930638
 20
71.6755993064
 10
-54.3906328823
 20
71.496576205
 10
-54.1445298775
 20
71.3062704171
  0
LINE
  5
216
100
AcDbEntity
  8
ASSI
100
AcDbLine
 62
253
  6
CONTINUOUS
 10
-53.8966124859
 20
71.1048269489
 11
-8.7478445072
 21
97.1731597329
  0
LINE
  5
217
100
AcDbEntity
  8
ASSI
100
AcDbLine
 62
253
  6
CONTINUOUS
 10
-59.305979362
 20
66.3494537648
 11
-53.8969883567
 21
69.4725373807
  0
LWPOLYLINE
  5
218
100
AcDbEntity
  8
0
100
AcDbPolyline
 62
253
  6
CONTINUOUS
 90
16
 70
0
 10
-8.7478445072
 20
97.1731597329
 10
-8.6368231785
 20
97.2339052242
 10
-8.5261061516
 20
97.2877705515
 10
-8.415996894
 20
97.3346080738
 10
-8.3067972078
 20
97.3742894125
 10
-8.1988064015
 20
97.4067058039
 10
-8.0923204705
 20
97.4317683969
 10
-7.9876312853
 20
97.4494084968
 10
-7.8850257917
 20
97.4595777531
 10
-7.7847852243
 20
97.4622482927
 10
-7.6871843354
 20
97.4574127959
 10
-7.5924906423
 20
97.4450845163
 10
-7.5009636938
 20
97.425297245
 10
-7.412854359
 20
97.3981052174
 10
-7.3284041394
 20
97.3635829651
 10
-7.2478445072
 20
97.3218251111
  0
LWPOLYLINE
  5
219
100
AcDbEntity
  8
ASSI
100
AcDbPolyline
 62
7
  6
CONTINUOUS
 90
25
 70
0
 10
-57.8735043816
 20
70.8964163275
 10
-57.7681256384
 20
70.9520467689
 10
-57.6430438252
 20
71.0054576122
 10
-57.5130752907
 20
71.0479585119
 10
-57.3782591091
 20
71.0794586539
 10
-57.2389369406
 20
71.0997938656
 10
-57.0950694297
 20
71.109106551
 10
-56.9468808687
 20
71.1073511389
 10
-56.7946142563
 20
71.0944890584
 10
-56.6383014272
 20
71.0707730022
 10
-56.4783130162
 20
71.0362694056
 10
-56.3148067748
 20
70.9910001067
 10
-56.1475051637
 20
70.9351798687
 10
-55.9766587288
 20
70.8688521775
 10
-55.8025331266
 20
70.7920541601
 10
-55.6248583308
 20
70.7049434615
 10
-55.4438211412
 20
70.6075300989
 10
-55.2597502572
 20
70.4998788162
 10
-55.0725841392
 20
70.3822093004
 10
-54.8825698612
 20
70.2545945339
 10
-54.6899955104
 20
70.1171055519
 10
-54.4948644925
 20
69.9699711872
 10
-54.2973612645
 20
69.813337139
 10
-54.097851293
 20
69.6472679758
 10
-53.8966124859
 20
69.4718863953
  0
LWPOLYLINE
  5
21A
100
AcDbEntity
  8
0
100
AcDbPolyline
 62
7
  6
CONTINUOUS
 90
19
 70
0
 10
23.6831096828
 20
-98.4615885751
 10
23.7945990822
 20
-98.5204294748
 10
23.9107205357
 20
-98.5709684464
 10
24.0309338106
 20
-98.6129875338
 10
24.1552622443
 20
-98.6464381443
 10
24.2836824995
 20
-98.6713688706
 10
24.4154635305
 20
-98.6876377918
 10
24.5506245053
 20
-98.695195506
 10
24.689146256
 20
-98.6940914152
 10
24.8302402331
 20
-98.6843318045
 10
24.9739211072
 20
-98.6658673079
 10
25.1201742078
 20
-98.6387472914
 10
25.268166974
 20
-98.6031261384
 10
25.4179093278
 20
-98.5589553636
 10
25.5693913473
 20
-98.5062834523
 10
25.7217507052
 20
-98.445410245
 10
25.8746999594
 20
-98.3764356883
 10
26.0285265522
 20
-98.2992598356
 10
26.1832304835
 20
-98.2138826867
  0
LWPOLYLINE
  5
21B
100
AcDbEntity
  8
0
100
AcDbPolyline
 62
7
  6
CONTINUOUS
 90
19
 70
0
 10
-52.6844226854
 20
-54.3679324957
 10
-52.572933286
 20
-54.4267733954
 10
-52.4568118325
 20
-54.477312367
 10
-52.3365985576
 20
-54.5193314544
 10
-52.2122701238
 20
-54.5527820649
 10
-52.0838498687
 20
-54.5777127912
 10
-51.9520688377
 20
-54.5939817124
 10
-51.8169078629
 20
-54.6015394266
 10
-51.6783861122
 20
-54.6004353358
 10
-51.5372921351
 20
-54.5906757251
 10
-51.3936112609
 20
-54.5722112285
 10
-51.2473581603
 20
-54.545091212
 10
-51.0993653942
 20
-54.5094700591
 10
-50.9496230403
 20
-54.4652992842
 10
-50.7981410209
 20
-54.4126273729
 10
-50.6457816629
 20
-54.3517541656
 10
-50.4928324087
 20
-54.2827796089
 10
-50.339005816
 20
-54.2056037562
 10
-50.1843018847
 20
-54.1202266073
  0
LINE
  5
21C
100
AcDbEntity
  8
0
100
AcDbLine
 62
7
  6
CONTINUOUS
 10
-52.6844226854
 20
-54.3679324957
 11
-54.0986362478
 21
-53.5513833091
  0
LINE
  5
21D
100
AcDbEntity
  8
0
100
AcDbLine
 62
7
  6
CONTINUOUS
 10
22.2688961204
 20
-97.6450393885
 11
23.6831096828
 21
-98.4615885751
  0
LINE
  5
21E
100
AcDbEntity
  8
0
100
AcDbLine
 62
253
  6
CONTINUOUS
 10
-53.7198357906
 20
-52.07924819
 11
-55.134049353
 21
-51.2626990034
  0
LINE
  5
21F
100
AcDbEntity
  8
0
100
AcDbLine
 62
253
  6
CONTINUOUS
 10
21.2334830151
 20
-95.3563550828
 11
22.6476965775
 21
-96.1729042694
  0
LWPOLYLINE
  5
220
100
AcDbEntity
  8
0
100
AcDbPolyline
 62
7
  6
CONTINUOUS
 90
19
 70
0
 10
-54.0986362477
 20
-53.551383309
 10
-54.2051040834
 20
-53.4844027559
 10
-54.306939865
 20
-53.4091202747
 10
-54.4034430811
 20
-53.3260341608
 10
-54.4945833177
 20
-53.2350999068
 10
-54.5803909889
 20
-53.1363620201
 10
-54.6603776255
 20
-53.0303825764
 10
-54.7345100278
 20
-52.917120274
 10
-54.8028213956
 20
-52.7966164144
 10
-54.8649228593
 20
-52.6695569786
 10
-54.9207790012
 20
-52.535904577
 10
-54.970425239
 20
-52.3956965991
 10
-55.0135789565
 20
-52.2497311933
 10
-55.050203124
 20
-52.0979755223
 10
-55.0803347711
 20
-51.9404624234
 10
-55.1038023703
 20
-51.7780885561
 10
-55.1205487458
 20
-51.6111528069
 10
-55.1306310733
 20
-51.4393562893
 10
-55.134049353
 20
-51.2626990034
  0
LWPOLYLINE
  5
221
100
AcDbEntity
  8
0
100
AcDbPolyline
 62
7
  6
CONTINUOUS
 90
19
 70
0
 10
22.2688961204
 20
-97.6450393884
 10
22.1624282847
 20
-97.5780588353
 10
22.0605925032
 20
-97.5027763541
 10
21.9640892871
 20
-97.4196902402
 10
21.8729490504
 20
-97.3287559862
 10
21.7871413792
 20
-97.2300180995
 10
21.7071547426
 20
-97.1240386558
 10
21.6330223403
 20
-97.0107763533
 10
21.5647109726
 20
-96.8902724938
 10
21.5026095089
 20
-96.7632130579
 10
21.446753367
 20
-96.6295606564
 10
21.3971071291
 20
-96.4893526785
 10
21.3539534116
 20
-96.3433872726
 10
21.3173292441
 20
-96.1916316017
 10
21.287197597
 20
-96.0341185028
 10
21.2637299978
 20
-95.8717446355
 10
21.2469836224
 20
-95.7048088863
 10
21.2369012948
 20
-95.5330123687
 10
21.2334830151
 20
-95.3563550828
  0
LWPOLYLINE
  5
222
100
AcDbEntity
  8
ASSI
100
AcDbPolyline
 62
7
  6
CONTINUOUS
 90
26
 70
0
 10
-60.7201929244
 20
67.1660029515
 10
-60.7170660572
 20
67.5067699782
 10
-60.7074721372
 20
67.8388564626
 10
-60.6915045018
 20
68.1619608158
 10
-60.66933492
 20
68.4755550707
 10
-60.6410191388
 20
68.7796097241
 10
-60.6064332449
 20
69.0745465753
 10
-60.5656508845
 20
69.360043602
 10
-60.51875575
 20
69.635836619
 10
-60.4655325369
 20
69.9023504548
 10
-60.4060128262
 20
70.1592740849
 10
-60.3402505252
 20
70.4062646413
 10
-60.267959122
 20
70.6435977458
 10
-60.1891196298
 20
70.8710086512
 10
-60.1037807446
 20
71.0880163107
 10
-60.0117025918
 20
71.2945041764
 10
-59.9128335581
 20
71.4902927724
 10
-59.8072858776
 20
71.6747888952
 10
-59.695140734
 20
71.8473350855
 10
-59.5765786802
 20
72.007642435
 10
-59.4517147406
 20
72.1554758585
 10
-59.3206876102
 20
72.2904614803
 10
-59.1839036801
 20
72.4123299997
 10
-59.0414569056
 20
72.5211212355
 10
-58.8930851452
 20
72.6170266903
 10
-58.8735528912
 20
72.6284391272
  0
LWPOLYLINE
  5
223
100
AcDbEntity
  8
0
100
AcDbPolyline
 62
7
  6
CONTINUOUS
 90
8
 70
0
 10
21.2334830151
 20
-68.6697883808
 10
21.2212383527
 20
-68.6691308714
 10
21.1779888693
 20
-68.6629334755
 10
21.1335839491
 20
-68.6528480448
 10
21.0885899923
 20
-68.6390032223
 10
21.043195799
 20
-68.6214418892
 10
20.9972125691
 20
-68.6001211644
 10
20.9506403027
 20
-68.5750410478
  0
LINE
  5
224
100
AcDbEntity
  8
0
100
AcDbLine
 62
7
  6
CONTINUOUS
 10
-44.1031835665
 20
-50.6090651047
 11
21.2334830151
 21
-88.3336375282
  0
LWPOLYLINE
  5
225
100
AcDbEntity
  8
0
100
AcDbPolyline
 62
7
  6
CONTINUOUS
 90
19
 70
0
 10
-53.7198357906
 20
-52.07924819
 10
-53.716417511
 20
-52.255905476
 10
-53.7063351834
 20
-52.4277019936
 10
-53.6895888079
 20
-52.5946377427
 10
-53.6661212087
 20
-52.7570116101
 10
-53.6359895616
 20
-52.914524709
 10
-53.5993653942
 20
-53.0662803799
 10
-53.5562116767
 20
-53.2122457858
 10
-53.5065654388
 20
-53.3524537637
 10
-53.4507092969
 20
-53.4861061652
 10
-53.3886078332
 20
-53.6131656011
 10
-53.3202964654
 20
-53.7336694606
 10
-53.2461640632
 20
-53.8469317631
 10
-53.1661774265
 20
-53.9529112068
 10
-53.0803697554
 20
-54.0516490935
 10
-52.9892295187
 20
-54.1425833475
 10
-52.8927263026
 20
-54.2256694613
 10
-52.790890521
 20
-54.3009519426
 10
-52.6844226854
 20
-54.3679324957
  0
LINE
  5
226
100
AcDbEntity
  8
ASSI
100
AcDbLine
 62
7
  6
CONTINUOUS
 10
-60.7201929244
 20
18.1546841363
 11
-60.7201929244
 21
67.1660029515
  0
LINE
  5
227
100
AcDbEntity
  8
ASSI
100
AcDbLine
 62
7
  6
CONTINUOUS
 10
-59.305979362
 20
17.3381349496
 11
-59.305979362
 21
66.3494537648
  0
LINE
  5
228
100
AcDbEntity
  8
0
100
AcDbLine
 62
7
  6
CONTINUOUS
 10
-55.134049353
 20
-51.2626990034
 11
-55.134049353
 21
-0.3270082383
  0
LINE
  5
229
100
AcDbEntity
  8
ASSI
100
AcDbLine
 62
7
  6
CONTINUOUS
 10
-53.8966124859
 20
71.1048269489
 11
-53.8966124859
 21
69.4718863953
  0
LINE
  5
22A
100
AcDbEntity
  8
0
100
AcDbLine
 62
7
  6
CONTINUOUS
 10
-53.7198357906
 20
-52.07924819
 11
-53.7198357906
 21
-1.1435574249
  0
LWPOLYLINE
  5
22B
100
AcDbEntity
  8
ASSI
100
AcDbPolyline
 62
7
  6
CONTINUOUS
 90
26
 70
0
 10
-59.305979362
 20
66.3494537648
 10
-59.3035978306
 20
66.6376425036
 10
-59.2962310926
 20
66.9182050295
 10
-59.2839581257
 20
67.1908861519
 10
-59.2669309232
 20
67.4552352897
 10
-59.2451900055
 20
67.7112313183
 10
-59.2186105722
 20
67.9592426643
 10
-59.1872540783
 20
68.1989973441
 10
-59.1511922015
 20
68.4302713194
 10
-59.1102253928
 20
68.6534340887
 10
-59.0643803011
 20
68.8682225197
 10
-59.0137026139
 20
69.074346451
 10
-58.9579327507
 20
69.2720490017
 10
-58.897058885
 20
69.461103707
 10
-58.8311179818
 20
69.6411059753
 10
-58.7598772059
 20
69.8119744324
 10
-58.6833056696
 20
69.9735498321
 10
-58.601485555
 20
70.125337615
 10
-58.514417336
 20
70.2668208586
 10
-58.4222597262
 20
70.3977516738
 10
-58.3251041159
 20
70.5179345706
 10
-58.2229818289
 20
70.6271028675
 10
-58.1162293941
 20
70.725032933
 10
-58.0049336526
 20
70.8117542214
 10
-57.8888087793
 20
70.8874657339
 10
-57.8735043816
 20
70.8964163275
  0
LWPOLYLINE
  5
22C
100
AcDbEntity
  8
RACCORDO
100
AcDbPolyline
 62
7
  6
CONTINUOUS
 90
6
 70
0
 10
-38.8524098303
 20
-40.9027230457
 10
-38.8934498724
 20
-40.8810373722
 10
-38.9276387037
 20
-40.86639576
 10
-38.9537540199
 20
-40.8578464582
 10
-38.9708149483
 20
-40.8539994397
 10
-38.9757907752
 20
-40.8532826666
  0
LWPOLYLINE
  5
22D
100
AcDbEntity
  8
RACCORDO
100
AcDbPolyline
 62
253
  6
CONTINUOUS
 90
25
 70
0
 10
-38.9766594029
 20
-42.8325506764
 10
-39.1044635584
 20
-42.7480681343
 10
-39.2261307355
 20
-42.6499002207
 10
-39.3416609344
 20
-42.5380469355
 10
-39.4528126314
 20
-42.4101483339
 10
-39.5578273502
 20
-42.2685643608
 10
-39.6514296609
 20
-42.1203748507
 10
-39.7330306634
 20
-41.965246862
 10
-39.8032192579
 20
-41.8035133363
 10
-39.8584867151
 20
-41.643252932
 10
-39.8980738917
 20
-41.484542218
 10
-39.922739931
 20
-41.3273046253
 10
-39.9312535341
 20
-41.179389106
 10
-39.9227947098
 20
-41.0412688465
 10
-39.8981834493
 20
-40.9124706603
 10
-39.8586484272
 20
-40.7994239396
 10
-39.8034322518
 20
-40.702928379
 10
-39.7332923147
 20
-40.6221842839
 10
-39.6517294653
 20
-40.5612219626
 10
-39.5581630055
 20
-40.521045776
 10
-39.4531736334
 20
-40.5006513631
 10
-39.3420042928
 20
-40.5010559495
 10
-39.2264026314
 20
-40.5225986101
 10
-39.1046210014
 20
-40.56494027
 10
-38.9766594029
 20
-40.628080929
  0
LWPOLYLINE
  5
22E
100
AcDbEntity
  8
RACCORDO
100
AcDbPolyline
 62
253
  6
CONTINUOUS
 90
25
 70
0
 10
-38.9766594029
 20
-40.628080929
 10
-38.8488552474
 20
-40.7125634711
 10
-38.7271880702
 20
-40.8107313847
 10
-38.6116578714
 20
-40.9225846699
 10
-38.5005061743
 20
-41.0504832715
 10
-38.3954914556
 20
-41.1920672446
 10
-38.3018891449
 20
-41.3402567548
 10
-38.2202881424
 20
-41.4953847434
 10
-38.1500995479
 20
-41.6571182691
 10
-38.0948320907
 20
-41.8173786734
 10
-38.0552449141
 20
-41.9760893875
 10
-38.0305788748
 20
-42.1333269801
 10
-38.0220652717
 20
-42.2812424995
 10
-38.030524096
 20
-42.4193627589
 10
-38.0551353564
 20
-42.5481609451
 10
-38.0946703786
 20
-42.6612076658
 10
-38.149886554
 20
-42.7577032264
 10
-38.2200264911
 20
-42.8384473215
 10
-38.3015893404
 20
-42.8994096428
 10
-38.3951558002
 20
-42.9395858295
 10
-38.5001451723
 20
-42.9599802423
 10
-38.611314513
 20
-42.959575656
 10
-38.7269161744
 20
-42.9380329953
 10
-38.8486978043
 20
-42.8956913354
 10
-38.9766594029
 20
-42.8325506764
  0
LWPOLYLINE
  5
22F
100
AcDbEntity
  8
RACCORDO
100
AcDbPolyline
 62
253
  6
CONTINUOUS
 90
15
 70
0
 10
-38.5523953342
 20
-42.0977037543
 10
-38.6314368741
 20
-42.0452266961
 10
-38.7087127711
 20
-41.9802429483
 10
-38.7824968103
 20
-41.9042041332
 10
-38.851140779
 20
-41.8188088239
 10
-38.9131112806
 20
-41.7259646072
 10
-38.9670239892
 20
-41.6277454741
 10
-39.011674582
 20
-41.5263454767
 10
-39.0460656362
 20
-41.4240297231
 10
-39.0694289081
 20
-41.3230837866
 10
-39.0812425005
 20
-41.2257626356
 10
-39.0812425178
 20
-41.134240262
 10
-39.0694289594
 20
-41.0505611253
 10
-39.0460657203
 20
-40.9765944787
 10
-39.0116746968
 20
-40.9139926168
  0
LINE
  5
230
100
AcDbEntity
  8
0
100
AcDbLine
 62
7
  6
CONTINUOUS
 10
20.9506403027
 20
-68.5750410478
 11
-34.2036886299
 21
-36.7296227683
  0
LINE
  5
231
100
AcDbEntity
  8
0
100
AcDbLine
 62
7
  6
CONTINUOUS
 10
21.2334830151
 20
-67.1052525119
 11
-32.7894750675
 21
-35.9130735816
  0
LWPOLYLINE
  5
232
100
AcDbEntity
  8
0
100
AcDbPolyline
 62
7
  6
CONTINUOUS
 90
25
 70
0
 10
-34.2036886299
 20
-36.7296227683
 10
-34.2502608963
 20
-36.7009223989
 10
-34.2962441262
 20
-36.6691428424
 10
-34.3416383195
 20
-36.634284099
 10
-34.3866322763
 20
-36.5961710279
 10
-34.4310371965
 20
-36.5549787699
 10
-34.47428668
 20
-36.5112327464
 10
-34.5163659256
 20
-36.4649002442
 10
-34.5572897345
 20
-36.4160139767
 10
-34.5965361091
 20
-36.365197505
 10
-34.6340835618
 20
-36.3124261038
 10
-34.6699535803
 20
-36.2577244986
 10
-34.7036886299
 20
-36.2017904273
 10
-34.7352613621
 20
-36.1446081024
 10
-34.7646991255
 20
-36.0861933115
 10
-34.7916264311
 20
-36.0272911556
 10
-34.8160111204
 20
-35.9678953917
 10
-34.837885352
 20
-35.9080122627
 10
-34.8569701123
 20
-35.848405599
 10
-34.8732296688
 20
-35.789078942
 10
-34.8866997541
 20
-35.7300287501
 10
-34.8972085525
 20
-35.6720082292
 10
-34.9046987922
 20
-35.6152684479
 10
-34.9092277451
 20
-35.5595583375
 10
-34.9107954111
 20
-35.5048778982
  0
LWPOLYLINE
  5
233
100
AcDbEntity
  8
ASSI
100
AcDbPolyline
 62
7
  6
CONTINUOUS
 90
6
 70
0
 10
-5.7023511394
 20
-60.2130549814
 10
-5.6355389359
 20
-60.2823028913
 10
-5.5672834187
 20
-60.3478053676
 10
-5.4975990595
 20
-60.4095999644
 10
-5.4271892582
 20
-60.4670629218
 10
-5.4045970196
 20
-60.4839215186
  0
LWPOLYLINE
  5
234
100
AcDbEntity
  8
ASSI
100
AcDbPolyline
 62
7
  6
CONTINUOUS
 90
6
 70
0
 10
-5.709383329
 20
-60.2054896269
 10
-5.64626127
 20
-60.2715198209
 10
-5.5816326722
 20
-60.3344541084
 10
-5.5160833933
 20
-60.3937219906
 10
-5.4496050621
 20
-60.4492901308
 10
-5.4045934053
 20
-60.4839521088
  0
LINE
  5
235
100
AcDbEntity
  8
ASSI
100
AcDbLine
 62
7
  6
CONTINUOUS
 10
-56.5653176762
 20
6.0049356011
 11
-58.9311075204
 21
10.2397543371
  0
LINE
  5
236
100
AcDbEntity
  8
ASSI
100
AcDbLine
 62
7
  6
CONTINUOUS
 10
-55.1511041138
 20
5.1883864144
 11
-57.516893958
 21
9.4232051505
  0
LWPOLYLINE
  5
237
100
AcDbEntity
  8
ASSI
100
AcDbPolyline
 62
7
  6
CONTINUOUS
 90
19
 70
0
 10
-58.9311075204
 20
10.2397543371
 10
-59.1215820598
 20
10.5955823886
 10
-59.3016201551
 20
10.962223701
 10
-59.4712218062
 20
11.3396782744
 10
-59.6304814941
 20
11.7281996277
 10
-59.779304738
 20
12.127534242
 10
-59.9174080947
 20
12.5369215601
 10
-60.0447711347
 20
12.9563807402
 10
-60.1614142877
 20
13.3858926242
 10
-60.2671153996
 20
13.8246391806
 10
-60.3618536174
 20
14.2726380085
 10
-60.4456497942
 20
14.7298715087
 10
-60.518344335
 20
15.1954688523
 10
-60.5799160827
 20
15.6694459788
 10
-60.6303861945
 20
16.1517869486
 10
-60.6696585468
 20
16.641573114
 10
-60.6977010987
 20
17.1384982592
 10
-60.7145458912
 20
17.6428685999
 10
-60.7201929244
 20
18.1546841363
  0
LWPOLYLINE
  5
238
100
AcDbEntity
  8
ASSI
100
AcDbPolyline
 62
7
  6
CONTINUOUS
 90
19
 70
0
 10
-57.516893958
 20
9.4232051505
 10
-57.7073684974
 20
9.7790332019
 10
-57.8874065927
 20
10.1456745144
 10
-58.0570082438
 20
10.5231290877
 10
-58.2162679318
 20
10.9116504411
 10
-58.3650911756
 20
11.3109850553
 10
-58.5031945323
 20
11.7203723734
 10
-58.6305575723
 20
12.1398315536
 10
-58.7472007253
 20
12.5693434376
 10
-58.8529018372
 20
13.0080899939
 10
-58.947640055
 20
13.4560888218
 10
-59.0314362318
 20
13.9133223221
 10
-59.1041307727
 20
14.3789196656
 10
-59.1657025204
 20
14.8528967921
 10
-59.2161726321
 20
15.3352377619
 10
-59.2554449845
 20
15.8250239274
 10
-59.2834875363
 20
16.3219490725
 10
-59.3003323289
 20
16.8263194133
 10
-59.305979362
 20
17.3381349496
  0
LWPOLYLINE
  5
239
100
AcDbEntity
  8
ASSI
100
AcDbPolyline
 62
7
  6
CONTINUOUS
 90
16
 70
0
 10
-56.5653176762
 20
6.0049356011
 10
-56.383371826
 20
5.6620739943
 10
-56.2135170929
 20
5.3069277773
 10
-56.0557534766
 20
4.9394969502
 10
-55.9099588067
 20
4.5594229983
 10
-55.7762552536
 20
4.1670644362
 10
-55.6550093294
 20
3.763496808
 10
-55.5462552143
 20
3.3486893589
 10
-55.4499587279
 20
2.9226728435
 10
-55.3663838409
 20
2.4866150701
 10
-55.2955654578
 20
2.0404884879
 10
-55.237468674
 20
1.5843206477
 10
-55.1922527459
 20
1.1193620089
 10
-55.1599707592
 20
0.6460293916
 10
-55.1405696282
 20
0.1639059759
 10
-55.134049353
 20
-0.3270082383
  0
LWPOLYLINE
  5
23A
100
AcDbEntity
  8
ASSI
100
AcDbPolyline
 62
7
  6
CONTINUOUS
 90
16
 70
0
 10
-55.1511041138
 20
5.1883864144
 10
-54.9691582637
 20
4.8455248076
 10
-54.7993035305
 20
4.4903785907
 10
-54.6415399142
 20
4.1229477636
 10
-54.4957452443
 20
3.7428738117
 10
-54.3620416913
 20
3.3505152496
 10
-54.240795767
 20
2.9469476213
 10
-54.1320416519
 20
2.5321401722
 10
-54.0357451655
 20
2.1061236569
 10
-53.9521702785
 20
1.6700658834
 10
-53.8813518954
 20
1.2239393013
 10
-53.8232551116
 20
0.767771461
 10
-53.7780391836
 20
0.3028128223
 10
-53.7457571968
 20
-0.170519795
 10
-53.7263560658
 20
-0.6526432107
 10
-53.7198357906
 20
-1.1435574249
  0
LWPOLYLINE
  5
23B
100
AcDbEntity
  8
RACCORDO
100
AcDbPolyline
 62
253
  6
CONTINUOUS
 90
20
 70
0
 10
-37.1763019039
 20
-41.9033090037
 10
-37.2234688914
 20
-41.6941592072
 10
-37.2886071826
 20
-41.4821858334
 10
-37.3708359327
 20
-41.2702552615
 10
-37.4690434211
 20
-41.0612329345
 10
-37.5819020093
 20
-40.8579450036
 10
-37.7078853241
 20
-40.6631412503
 10
-37.8452889236
 20
-40.4794571767
 10
-37.9922539784
 20
-40.3093773169
 10
-38.146793468
 20
-40.1552008483
 10
-38.3068183933
 20
-40.0190118486
 10
-38.4701653271
 20
-39.9026517995
 10
-38.6346247206
 20
-39.8076949651
 10
-38.7979716945
 20
-39.7354259699
 10
-38.9579967278
 20
-39.6868220895
 10
-39.1125363548
 20
-39.6625401463
 10
-39.2595014856
 20
-39.6629083949
 10
-39.3969050479
 20
-39.6879221754
 10
-39.5228882936
 20
-39.7372434513
 10
-39.5524436545
 20
-39.7533281378
  0
LWPOLYLINE
  5
23C
100
AcDbEntity
  8
0
100
AcDbPolyline
 62
7
  6
CONTINUOUS
 90
19
 70
0
 10
-36.8553390593
 20
-42.138590396
 10
-36.8691212177
 20
-41.9117624016
 10
-36.9050047502
 20
-41.6827439343
 10
-36.9629896568
 20
-41.4515349943
 10
-37.0448045092
 20
-41.2141504233
 10
-37.1487207357
 20
-40.9745753795
 10
-37.2695526217
 20
-40.7447653377
 10
-37.4081585857
 20
-40.5252158424
 10
-37.5636802092
 20
-40.3154313491
 10
-37.7283565216
 20
-40.1258806996
 10
-37.9026520957
 20
-39.9575907003
 10
-38.0861023587
 20
-39.8095345449
 10
-38.2695526217
 20
-39.6891006558
 10
-38.4530028847
 20
-39.5976907795
 10
-38.6364531477
 20
-39.5339031695
 10
-38.8107487218
 20
-39.5009210087
 10
-38.9754250342
 20
-39.5003075804
 10
-39.1309466577
 20
-39.5304996012
 10
-39.2696009418
 20
-39.5900183007
  0
LWPOLYLINE
  5
23D
100
AcDbEntity
  8
RACCORDO
100
AcDbPolyline
 62
253
  6
CONTINUOUS
 90
25
 70
0
 10
-39.9666088965
 20
-41.1587313721
 10
-39.957933031
 20
-41.3138025553
 10
-39.9335486853
 20
-41.4716280857
 10
-39.8934558594
 20
-41.6322079632
 10
-39.8363846258
 20
-41.798794627
 10
-39.763604912
 20
-41.9681356378
 10
-39.6789265008
 20
-42.1304736784
 10
-39.5818390117
 20
-42.284947331
 10
-39.4728528251
 20
-42.4324180133
 10
-39.3573088653
 20
-42.5657126615
 10
-39.2348013668
 20
-42.6842240789
 10
-39.1057360952
 20
-42.7885594622
 10
-38.9766712712
 20
-42.8733673375
 10
-38.8476077759
 20
-42.9376042676
 10
-38.7185447284
 20
-42.9823136897
 10
-38.5960377059
 20
-43.0052744414
 10
-38.4804911775
 20
-43.0054118158
 10
-38.3715006742
 20
-42.9838005199
 10
-38.2744083668
 20
-42.9414435126
 10
-38.1897242779
 20
-42.876887973
 10
-38.1169383849
 20
-42.791586722
 10
-38.0598627911
 20
-42.6909011804
 10
-38.0197681979
 20
-42.5766184886
 10
-37.9953839039
 20
-42.4469515063
 10
-37.9867099092
 20
-42.3019002334
  0
LWPOLYLINE
  5
23E
100
AcDbEntity
  8
RACCORDO
100
AcDbPolyline
 62
253
  6
CONTINUOUS
 90
25
 70
0
 10
-37.9867099092
 20
-42.3019002334
 10
-37.9953857748
 20
-42.1468290501
 10
-38.0197701205
 20
-41.9890035197
 10
-38.0598629464
 20
-41.8284236422
 10
-38.11693418
 20
-41.6618369785
 10
-38.1897138938
 20
-41.4924959676
 10
-38.274392305
 20
-41.330157927
 10
-38.3714797941
 20
-41.1756842745
 10
-38.4804659807
 20
-41.0282135922
 10
-38.5960099405
 20
-40.894918944
 10
-38.7185174389
 20
-40.7764075265
 10
-38.8475827106
 20
-40.6720721432
 10
-38.9766475346
 20
-40.5872642679
 10
-39.1057110298
 20
-40.5230273378
 10
-39.2347740774
 20
-40.4783179157
 10
-39.3572810999
 20
-40.455357164
 10
-39.4728276283
 20
-40.4552197896
 10
-39.5818181316
 20
-40.4768310855
 10
-39.6789104389
 20
-40.5191880929
 10
-39.7635945279
 20
-40.5837436324
 10
-39.8363804209
 20
-40.6690448834
 10
-39.8934560146
 20
-40.769730425
 10
-39.9335506079
 20
-40.8840131168
 10
-39.9579349019
 20
-41.0136800992
 10
-39.9666088965
 20
-41.1587313721
  0
LWPOLYLINE
  5
23F
100
AcDbEntity
  8
RACCORDO
100
AcDbPolyline
 62
253
  6
CONTINUOUS
 90
25
 70
0
 10
-39.9666088965
 20
15.9941880034
 10
-39.957933031
 20
15.8391168202
 10
-39.9335486853
 20
15.6812912898
 10
-39.8934558594
 20
15.5207114123
 10
-39.8363846258
 20
15.3541247485
 10
-39.763604912
 20
15.1847837377
 10
-39.6789265008
 20
15.0224456971
 10
-39.5818390117
 20
14.8679720445
 10
-39.4728528251
 20
14.7205013622
 10
-39.3573088653
 20
14.587206714
 10
-39.2348013668
 20
14.4686952966
 10
-39.1057360952
 20
14.3643599133
 10
-38.9766712712
 20
14.279552038
 10
-38.8476077759
 20
14.2153151079
 10
-38.7185447284
 20
14.1706056858
 10
-38.5960377059
 20
14.1476449341
 10
-38.4804911775
 20
14.1475075596
 10
-38.3715006742
 20
14.1691188556
 10
-38.2744083668
 20
14.2114758629
 10
-38.1897242779
 20
14.2760314025
 10
-38.1169383849
 20
14.3613326535
 10
-38.0598627911
 20
14.4620181951
 10
-38.0197681979
 20
14.5763008869
 10
-37.9953839039
 20
14.7059678692
 10
-37.9867099092
 20
14.8510191421
  0
LWPOLYLINE
  5
240
100
AcDbEntity
  8
RACCORDO
100
AcDbPolyline
 62
7
  6
CONTINUOUS
 90
22
 70
0
 10
-40.1423448278
 20
-40.9137667567
 10
-40.1316455842
 20
-41.1204100947
 10
-40.1006570678
 20
-41.3282484515
 10
-40.0509446001
 20
-41.5353076741
 10
-39.9838343623
 20
-41.7400650423
 10
-39.9005184559
 20
-41.9408899939
 10
-39.8023748265
 20
-42.1355878668
 10
-39.6908012128
 20
-42.322096887
 10
-39.5667754266
 20
-42.4990337992
 10
-39.4310368116
 20
-42.6650713321
 10
-39.2829868758
 20
-42.8198856576
 10
-39.1247694488
 20
-42.9598877007
 10
-38.961304197
 20
-43.0803255358
 10
-38.7936020802
 20
-43.1805923651
 10
-38.6225184491
 20
-43.2599872967
 10
-38.4531764856
 20
-43.3164944144
 10
-38.2884284009
 20
-43.3504722073
 10
-38.1277640309
 20
-43.36321834
 10
-37.9720608854
 20
-43.3553785065
 10
-37.8230110406
 20
-43.3276629946
 10
-37.6825465853
 20
-43.281178273
 10
-37.5523470139
 20
-43.2173739557
  0
LWPOLYLINE
  5
241
100
AcDbEntity
  8
RACCORDO
100
AcDbPolyline
 62
7
  6
CONTINUOUS
 90
22
 70
0
 10
-40.1423448278
 20
16.2391526188
 10
-40.1316455842
 20
16.0325092808
 10
-40.1006570678
 20
15.824670924
 10
-40.0509446001
 20
15.6176117014
 10
-39.9838343623
 20
15.4128543332
 10
-39.9005184559
 20
15.2120293816
 10
-39.8023748265
 20
15.0173315087
 10
-39.6908012128
 20
14.8308224885
 10
-39.5667754266
 20
14.6538855763
 10
-39.4310368116
 20
14.4878480434
 10
-39.2829868758
 20
14.3330337178
 10
-39.1247694488
 20
14.1930316748
 10
-38.961304197
 20
14.0725938397
 10
-38.7936020802
 20
13.9723270104
 10
-38.6225184491
 20
13.8929320788
 10
-38.4531764856
 20
13.8364249611
 10
-38.2884284009
 20
13.8024471682
 10
-38.1277640309
 20
13.7897010355
 10
-37.9720608854
 20
13.797540869
 10
-37.8230110406
 20
13.8252563809
 10
-37.6825465853
 20
13.8717411025
 10
-37.5523470139
 20
13.9355454198
  0
LINE
  5
242
100
AcDbEntity
  8
RACCORDO
100
AcDbLine
 62
253
  6
CONTINUOUS
 10
-37.1381817718
 20
-42.3019002334
 11
-37.1477441332
 21
-42.1068066604
  0
LWPOLYLINE
  5
243
100
AcDbEntity
  8
RACCORDO
100
AcDbPolyline
 62
7
  6
CONTINUOUS
 90
20
 70
0
 10
-38.2179345143
 20
14.9820912132
 10
-38.2182117176
 20
14.9816237318
 10
-38.2146299655
 20
14.9900078739
 10
-38.2078408227
 20
15.0133762888
 10
-38.2013465767
 20
15.0516129857
 10
-38.1979112936
 20
15.1043161711
 10
-38.1997935692
 20
15.1702119024
 10
-38.2087050262
 20
15.2478239139
 10
-38.226112879
 20
15.336270028
 10
-38.2529226637
 20
15.4330917091
 10
-38.2892389728
 20
15.5349707254
 10
-38.3350396723
 20
15.6396965959
 10
-38.3897165406
 20
15.7444716877
 10
-38.4513878915
 20
15.8452420239
 10
-38.5185317389
 20
15.9397476926
 10
-38.5893282706
 20
16.0259040312
 10
-38.6604773353
 20
16.1007153565
 10
-38.7292369959
 20
16.1629003003
 10
-38.7938680618
 20
16.2126351136
 10
-38.8524098303
 20
16.2501963298
  0
LWPOLYLINE
  5
244
100
AcDbEntity
  8
RACCORDO
100
AcDbPolyline
 62
253
  6
CONTINUOUS
 90
6
 70
0
 10
-37.3708362194
 20
14.0880370258
 10
-37.2886073656
 20
14.2050119207
 10
-37.2234689916
 20
14.3417652839
 10
-37.1763019493
 20
14.4964478909
 10
-37.1477441447
 20
14.6669678375
 10
-37.1381817718
 20
14.8510191421
  0
LWPOLYLINE
  5
245
100
AcDbEntity
  8
RACCORDO
100
AcDbPolyline
 62
253
  6
CONTINUOUS
 90
3
 70
0
 10
-39.0116746968
 20
16.2389267587
 10
-38.9670241296
 20
16.2887654118
 10
-38.9571332208
 20
16.2958348834
  0
LWPOLYLINE
  5
246
100
AcDbEntity
  8
RACCORDO
100
AcDbPolyline
 62
253
  6
CONTINUOUS
 90
5
 70
0
 10
-38.2536497137
 20
-42.1637925384
 10
-38.322293689
 20
-42.1699195537
 10
-38.3960777617
 20
-42.1607544362
 10
-38.4733537159
 20
-42.1365019167
 10
-38.5523953342
 20
-42.0977037543
  0
LINE
  5
247
100
AcDbEntity
  8
0
100
AcDbLine
 62
253
  6
CONTINUOUS
 10
-17.2331258814
 20
-34.2782391913
 11
21.2334830151
 21
-56.4883770684
  0
LINE
  5
248
100
AcDbEntity
  8
ASSI
100
AcDbLine
 62
7
  6
CONTINUOUS
 10
-5.7709851513
 20
-60.1363353769
 11
-5.7023511394
 21
-60.2130549814
  0
LWPOLYLINE
  5
249
100
AcDbEntity
  8
ASSI
100
AcDbPolyline
 62
7
  6
CONTINUOUS
 90
3
 70
0
 10
-5.8922135854
 20
-59.9852431458
 10
-5.8310290348
 20
-60.0641719454
 10
-5.7677345008
 20
-60.1400991921
  0
LINE
  5
24A
100
AcDbEntity
  8
ASSI
100
AcDbLine
 62
7
  6
CONTINUOUS
 10
-5.9513093086
 20
-59.9033428887
 11
-5.8891244165
 21
-59.989394104
  0
LINE
  5
24B
100
AcDbEntity
  8
RACCORDO
100
AcDbLine
 62
253
  6
CONTINUOUS
 10
-37.1477441332
 20
-42.1068066604
 11
-37.1763019039
 21
-41.9033090037
  0
LWPOLYLINE
  5
24C
100
AcDbEntity
  8
0
100
AcDbPolyline
 62
7
  6
CONTINUOUS
 90
19
 70
0
 10
-36.8553390593
 20
15.0143289795
 10
-36.8691212177
 20
15.2411569739
 10
-36.9050047502
 20
15.4701754412
 10
-36.9629896568
 20
15.7013843812
 10
-37.0448045092
 20
15.9387689522
 10
-37.1487207357
 20
16.178343996
 10
-37.2695526217
 20
16.4081540378
 10
-37.4081585857
 20
16.6277035331
 10
-37.5636802092
 20
16.8374880264
 10
-37.7283565216
 20
17.0270386759
 10
-37.9026520957
 20
17.1953286752
 10
-38.0861023587
 20
17.3433848306
 10
-38.2695526217
 20
17.4638187197
 10
-38.4530028847
 20
17.555228596
 10
-38.6364531477
 20
17.619016206
 10
-38.8107487218
 20
17.6519983668
 10
-38.9754250342
 20
17.6526117951
 10
-39.1309466577
 20
17.6224197743
 10
-39.2696009418
 20
17.5629010748
  0
LWPOLYLINE
  5
24D
100
AcDbEntity
  8
RACCORDO
100
AcDbPolyline
 62
253
  6
CONTINUOUS
 90
25
 70
0
 10
-37.9867099092
 20
14.8510191421
 10
-37.9953857748
 20
15.0060903254
 10
-38.0197701205
 20
15.1639158558
 10
-38.0598629464
 20
15.3244957333
 10
-38.11693418
 20
15.491082397
 10
-38.1897138938
 20
15.6604234079
 10
-38.274392305
 20
15.8227614485
 10
-38.3714797941
 20
15.977235101
 10
-38.4804659807
 20
16.1247057833
 10
-38.5960099405
 20
16.2580004315
 10
-38.7185174389
 20
16.376511849
 10
-38.8475827106
 20
16.4808472323
 10
-38.9766475346
 20
16.5656551076
 10
-39.1057110298
 20
16.6298920377
 10
-39.2347740774
 20
16.6746014598
 10
-39.3572810999
 20
16.6975622115
 10
-39.4728276283
 20
16.6976995859
 10
-39.5818181316
 20
16.67608829
 10
-39.6789104389
 20
16.6337312826
 10
-39.7635945279
 20
16.5691757431
 10
-39.8363804209
 20
16.4838744921
 10
-39.8934560146
 20
16.3831889505
 10
-39.9335506079
 20
16.2689062587
 10
-39.9579349019
 20
16.1392392763
 10
-39.9666088965
 20
15.9941880034
  0
LINE
  5
24E
100
AcDbEntity
  8
RACCORDO
100
AcDbLine
 62
253
  6
CONTINUOUS
 10
-37.1381817718
 20
14.8510191421
 11
-37.1477441332
 21
15.0461127151
  0
LWPOLYLINE
  5
24F
100
AcDbEntity
  8
0
100
AcDbPolyline
 62
7
  6
CONTINUOUS
 90
25
 70
0
 10
-33.4965818487
 20
-34.6883287115
 10
-33.4950141827
 20
-34.7430091509
 10
-33.4904852299
 20
-34.7987192612
 10
-33.4829949902
 20
-34.8554590425
 10
-33.4724861917
 20
-34.9134795634
 10
-33.4590161065
 20
-34.9725297553
 10
-33.4427565499
 20
-35.0318564124
 10
-33.4236717896
 20
-35.0914630761
 10
-33.401797558
 20
-35.151346205
 10
-33.3774128687
 20
-35.2107419689
 10
-33.3504855631
 20
-35.2696441248
 10
-33.3210477997
 20
-35.3280589157
 10
-33.2894750675
 20
-35.3852412407
 10
-33.2557400179
 20
-35.4411753119
 10
-33.2198699994
 20
-35.4958769172
 10
-33.1823225467
 20
-35.5486483184
 10
-33.1430761721
 20
-35.59946479
 10
-33.1021523632
 20
-35.6483510576
 10
-33.0600731176
 20
-35.6946835597
 10
-33.0168236342
 20
-35.7384295832
 10
-32.9724187139
 20
-35.7796218413
 10
-32.9274247571
 20
-35.8177349123
 10
-32.8820305638
 20
-35.8525936558
 10
-32.836047334
 20
-35.8843732122
 10
-32.7894750675
 20
-35.9130735816
  0
LINE
  5
250
100
AcDbEntity
  8
0
100
AcDbLine
 62
7
  6
CONTINUOUS
 10
-34.9107954111
 20
-35.5048778982
 11
-34.9107954111
 21
55.6863111329
  0
LINE
  5
251
100
AcDbEntity
  8
0
100
AcDbLine
 62
7
  6
CONTINUOUS
 10
-33.4965818487
 20
-34.6883287115
 11
-33.4965818487
 21
54.7940069364
  0
LINE
  5
252
100
AcDbEntity
  8
0
100
AcDbLine
 62
7
  6
CONTINUOUS
 10
-32.7894750675
 20
7.7682440465
 11
-32.7894750675
 21
24.0976495824
  0
LWPOLYLINE
  5
253
100
AcDbEntity
  8
0
100
AcDbPolyline
 62
7
  6
CONTINUOUS
 90
7
 70
0
 10
-37.2695043016
 20
14.0988552574
 10
-37.1487207357
 20
14.1891037689
 10
-37.0448045092
 20
14.3086789591
 10
-36.9629896568
 20
14.4515857894
 10
-36.9050047502
 20
14.6158352126
 10
-36.8691212177
 20
14.803416276
 10
-36.8553390593
 20
15.0143289795
  0
LWPOLYLINE
  5
254
100
AcDbEntity
  8
RACCORDO
100
AcDbPolyline
 62
253
  6
CONTINUOUS
 90
3
 70
0
 10
-37.5523470139
 20
13.9355454198
 10
-37.4690437898
 20
13.992422288
 10
-37.3708362194
 20
14.0880370258
  0
LWPOLYLINE
  5
255
100
AcDbEntity
  8
RACCORDO
100
AcDbPolyline
 62
7
  6
CONTINUOUS
 90
10
 70
0
 10
-39.5524436545
 20
17.3995912377
 10
-39.662088998
 20
17.3269230881
 10
-39.7644434472
 20
17.2390831008
 10
-39.8576651344
 20
17.1363423267
 10
-39.9400136136
 20
17.019236781
 10
-40.0099405901
 20
16.8885065317
 10
-40.0662406925
 20
16.7446582269
 10
-40.1078215606
 20
16.5880351533
 10
-40.1335415064
 20
16.4193070934
 10
-40.1423448278
 20
16.2391526184
  0
LINE
  5
256
100
AcDbEntity
  8
0
100
AcDbLine
 62
7
  6
CONTINUOUS
 10
-33.4965818487
 20
23.689374989
 11
-32.7894750675
 21
24.0976495824
  0
LINE
  5
257
100
AcDbEntity
  8
0
100
AcDbLine
 62
7
  6
CONTINUOUS
 10
-39.269600942
 20
17.5629010751
 11
-39.5524436545
 21
17.3995912377
  0
LINE
  5
258
100
AcDbEntity
  8
0
100
AcDbLine
 62
7
  6
CONTINUOUS
 10
-37.2695043014
 20
14.0988552572
 11
-37.5523470139
 21
13.9355454198
  0
LWPOLYLINE
  5
259
100
AcDbEntity
  8
0
100
AcDbPolyline
 62
253
  6
CONTINUOUS
 90
16
 70
0
 10
50.6491251125
 20
62.8780938933
 10
50.7601464412
 20
62.9388393847
 10
50.8708634681
 20
62.992704712
 10
50.9809727256
 20
63.0395422342
 10
51.0901724119
 20
63.0792235729
 10
51.1981632182
 20
63.1116399644
 10
51.3046491492
 20
63.1367025574
 10
51.4093383344
 20
63.1543426572
 10
51.5119438279
 20
63.1645119136
 10
51.6121843954
 20
63.1671824532
 10
51.7097852843
 20
63.1623469564
 10
51.8044789774
 20
63.1500186768
 10
51.8960059258
 20
63.1302314055
 10
51.9841152607
 20
63.1030393779
 10
52.0685654803
 20
63.0685171256
 10
52.1491251125
 20
63.0267592716
  0
LINE
  5
25A
100
AcDbEntity
  8
0
100
AcDbLine
 62
253
  6
CONTINUOUS
 10
-16.5260191002
 20
-33.0534943212
 11
21.2334830151
 21
-54.8553576049
  0
LWPOLYLINE
  5
25B
100
AcDbEntity
  8
RACCORDO
100
AcDbPolyline
 62
253
  6
CONTINUOUS
 90
20
 70
0
 10
-37.1763019039
 20
15.2496103718
 10
-37.2234688914
 20
15.4587601683
 10
-37.2886071826
 20
15.6707335421
 10
-37.3708359327
 20
15.882664114
 10
-37.4690434211
 20
16.091686441
 10
-37.5819020093
 20
16.2949743719
 10
-37.7078853241
 20
16.4897781252
 10
-37.8452889236
 20
16.6734621988
 10
-37.9922539784
 20
16.8435420586
 10
-38.146793468
 20
16.9977185272
 10
-38.3068183933
 20
17.1339075269
 10
-38.4701653271
 20
17.250267576
 10
-38.6346247206
 20
17.3452244104
 10
-38.7979716945
 20
17.4174934056
 10
-38.9579967278
 20
17.466097286
 10
-39.1125363548
 20
17.4903792292
 10
-39.2595014856
 20
17.4900109806
 10
-39.3969050479
 20
17.4649972001
 10
-39.5228882936
 20
17.4156759242
 10
-39.5524436545
 20
17.3995912377
  0
LINE
  5
25C
100
AcDbEntity
  8
RACCORDO
100
AcDbLine
 62
253
  6
CONTINUOUS
 10
-37.1477441332
 20
15.0461127151
 11
-37.1763019039
 21
15.2496103718
  0
LINE
  5
25D
100
AcDbEntity
  8
ASSI
100
AcDbLine
 62
253
  6
CONTINUOUS
 10
50.6491251125
 20
62.8780938933
 11
5.5003571337
 21
36.8097611094
  0
LINE
  5
25E
100
AcDbEntity
  8
0
100
AcDbLine
 62
7
  6
CONTINUOUS
 10
-33.4965818487
 20
7.3599694532
 11
-32.7894750675
 21
7.7682440465
  0
LINE
  5
25F
100
AcDbEntity
  8
RACCORDO
100
AcDbLine
 62
253
  6
CONTINUOUS
 10
-38.2105896393
 20
15.003914787
 11
-38.2536497137
 21
14.9891268371
  0
LINE
  5
260
100
AcDbEntity
  8
ASSI
100
AcDbLine
 62
253
  6
CONTINUOUS
 10
-55.134049353
 20
-0.3270082383
 11
-53.7198357906
 21
-1.1435574249
  0
LINE
  5
261
100
AcDbEntity
  8
ASSI
100
AcDbLine
 62
253
  6
CONTINUOUS
 10
22.6476965775
 20
-45.2372135043
 11
21.2334830151
 21
-44.4206643177
  0
LINE
  5
262
100
AcDbEntity
  8
ASSI
100
AcDbLine
 62
253
  6
CONTINUOUS
 10
-56.5653176762
 20
6.0049356011
 11
-55.1511041138
 21
5.1883864144
  0
LINE
  5
263
100
AcDbEntity
  8
ASSI
100
AcDbLine
 62
253
  6
CONTINUOUS
 10
21.2164282544
 20
-38.905269665
 11
19.802214692
 21
-38.0887204783
  0
LINE
  5
264
100
AcDbEntity
  8
0
100
AcDbLine
 62
7
  6
CONTINUOUS
 10
-16.5260191002
 20
-11.6211495554
 11
-16.5260191002
 21
-33.0534943212
  0
LINE
  5
265
100
AcDbEntity
  8
0
100
AcDbLine
 62
253
  6
CONTINUOUS
 10
-16.5260191002
 20
-11.6211495554
 11
-16.5260191002
 21
45.1794304666
  0
LINE
  5
266
100
AcDbEntity
  8
0
100
AcDbLine
 62
253
  6
CONTINUOUS
 10
-15.1118055378
 20
44.4640809076
 11
-15.1118055378
 21
-10.8047581885
  0
LINE
  5
267
100
AcDbEntity
  8
0
100
AcDbLine
 62
7
  6
CONTINUOUS
 10
-15.1118055378
 20
-10.8047581885
 11
-15.1118055378
 21
-12.4376987421
  0
LWPOLYLINE
  5
268
100
AcDbEntity
  8
0
100
AcDbPolyline
 62
7
  6
CONTINUOUS
 90
31
 70
0
 10
-16.5260191002
 20
-33.0534943212
 10
-16.5270102136
 20
-33.0969907181
 10
-16.5299120995
 20
-33.1412409276
 10
-16.5347247581
 20
-33.1862449499
 10
-16.5414718118
 20
-33.2321300373
 10
-16.5501296381
 20
-33.2787689373
 10
-16.5606273694
 20
-33.3257798931
 10
-16.5729801073
 20
-33.3731659582
 10
-16.5871727503
 20
-33.420924079
 10
-16.6030891261
 20
-33.4686633372
 10
-16.6207433828
 20
-33.516383578
 10
-16.6401213723
 20
-33.5640849561
 10
-16.6610644786
 20
-33.6113770178
 10
-16.6835855477
 20
-33.6582564035
 10
-16.7076717335
 20
-33.7047264727
 10
-16.7331258814
 20
-33.7504068504
 10
-16.7599592194
 20
-33.7952910549
 10
-16.7881605196
 20
-33.8393855679
 10
-16.8174989436
 20
-33.882329459
 10
-16.8479838247
 20
-33.9241132843
 10
-16.8796058297
 20
-33.9647464878
 10
-16.9121061204
 20
-34.0038964713
 10
-16.9454919057
 20
-34.0415510609
 10
-16.9797559768
 20
-34.0777224306
 10
-17.0146178692
 20
-34.1121145039
 10
-17.0500824898
 20
-34.1447126769
 10
-17.0861449317
 20
-34.1755315536
 10
-17.1225100104
 20
-34.2043188698
 10
-17.1590793307
 20
-34.2309905374
 10
-17.1959512877
 20
-34.2556306446
 10
-17.2331258814
 20
-34.2782391913
  0
LINE
  5
269
100
AcDbEntity
  8
ASSI
100
AcDbLine
 62
253
  6
CONTINUOUS
 10
-58.9311075204
 20
10.2397543371
 11
-57.516893958
 21
9.4232051505
  0
LINE
  5
26A
100
AcDbEntity
  8
ASSI
100
AcDbLine
 62
253
  6
CONTINUOUS
 10
18.8506384101
 20
-34.6704509289
 11
17.4364248477
 21
-33.8539017423
  0
LINE
  5
26B
100
AcDbEntity
  8
0
100
AcDbLine
 62
7
  6
CONTINUOUS
 10
-16.5260191002
 20
-11.6211495554
 11
-15.1118055378
 21
-12.4376987421
  0
LINE
  5
26C
100
AcDbEntity
  8
ASSI
100
AcDbLine
 62
253
  6
CONTINUOUS
 10
-60.7201929244
 20
18.1546841363
 11
-59.305979362
 21
17.3381349496
  0
LINE
  5
26D
100
AcDbEntity
  8
ASSI
100
AcDbLine
 62
253
  6
CONTINUOUS
 10
17.0615530061
 20
-26.7555211298
 11
15.6473394438
 21
-25.9389719431
  0
LWPOLYLINE
  5
26E
100
AcDbEntity
  8
ASSI
100
AcDbPolyline
 62
7
  6
CONTINUOUS
 90
18
 70
0
 10
-11.9500124858
 20
-16.0769875688
 10
-11.9323056897
 20
-16.1489661203
 10
-11.9080194719
 20
-16.2335217999
 10
-11.8801440322
 20
-16.3186414337
 10
-11.8489607478
 20
-16.4034658169
 10
-11.8144361163
 20
-16.487991959
 10
-11.7766036401
 20
-16.5722228504
 10
-11.7358452034
 20
-16.6553082573
 10
-11.6921311717
 20
-16.7372365779
 10
-11.6454911795
 20
-16.8180194139
 10
-11.596396015
 20
-16.8968413364
 10
-11.5448208118
 20
-16.9736824849
 10
-11.4907904363
 20
-17.0485627199
 10
-11.4348502757
 20
-17.1207261938
 10
-11.3769809874
 20
-17.1901453909
 10
-11.3172019141
 20
-17.2568478268
 10
-11.256116471
 20
-17.3201602015
 10
-11.202530778
 20
-17.3715845512
  0
LWPOLYLINE
  5
26F
100
AcDbEntity
  8
0
100
AcDbPolyline
 62
7
  6
CONTINUOUS
 90
17
 70
0
 10
-8.040737726
 20
-59.1840152125
 10
-8.0138042484
 20
-59.516739414
 10
-7.9340297034
 20
-59.8678923587
 10
-7.8044526786
 20
-60.2240987403
 10
-7.6265241636
 20
-60.5778402709
 10
-7.4132449677
 20
-60.9032699061
 10
-7.1699998209
 20
-61.1943157691
 10
-6.9060538551
 20
-61.4398920132
 10
-6.6265241636
 20
-61.6335049528
 10
-6.3518353098
 20
-61.7610077551
 10
-6.0876092691
 20
-61.821455817
 10
-5.8439103294
 20
-61.8125466905
 10
-5.6265241636
 20
-61.732615205
 10
-5.451334657
 20
-61.587501762
 10
-5.3209077536
 20
-61.381942368
 10
-5.2402113736
 20
-61.1237667164
 10
-5.2123106012
 20
-60.8171134431
  0
LWPOLYLINE
  5
270
100
AcDbEntity
  8
0
100
AcDbPolyline
 62
7
  6
CONTINUOUS
 90
17
 70
0
 10
-5.2123106012
 20
-60.8171135859
 10
-5.2392440788
 20
-60.4843893844
 10
-5.3190186238
 20
-60.1332364397
 10
-5.4485956486
 20
-59.7770300581
 10
-5.6265241636
 20
-59.4232885275
 10
-5.8398033595
 20
-59.0978588923
 10
-6.0830485063
 20
-58.8068130293
 10
-6.3469944721
 20
-58.5612367852
 10
-6.6265241636
 20
-58.3676238456
 10
-6.9012130174
 20
-58.2401210433
 10
-7.1654390581
 20
-58.1796729814
 10
-7.4091379978
 20
-58.1885821079
 10
-7.6265241636
 20
-58.2685135934
 10
-7.8017136702
 20
-58.4136270364
 10
-7.9321405736
 20
-58.6191864304
 10
-8.0128369536
 20
-58.877362082
 10
-8.040737726
 20
-59.1840153553
  0
LWPOLYLINE
  5
271
100
AcDbEntity
  8
ASSI
100
AcDbPolyline
 62
7
  6
CONTINUOUS
 90
42
 70
0
 10
-13.414749263
 20
-16.479321304
 10
-13.4127814501
 20
-16.5568385785
 10
-13.407052095
 20
-16.6357618767
 10
-13.3975611976
 20
-16.7160911986
 10
-13.3842513179
 20
-16.7981072342
 10
-13.3671798959
 20
-16.8815292934
 10
-13.3465192521
 20
-16.9655153069
 10
-13.3222330343
 20
-17.0500709865
 10
-13.2943575946
 20
-17.1351906204
 10
-13.2631743102
 20
-17.2200150035
 10
-13.2286496787
 20
-17.3045411456
 10
-13.1908172024
 20
-17.3887720371
 10
-13.1500587658
 20
-17.4718574439
 10
-13.106344734
 20
-17.5537857645
 10
-13.0597047419
 20
-17.6345686006
 10
-13.0106095774
 20
-17.7133905231
 10
-12.9590343742
 20
-17.7902316716
 10
-12.9050039986
 20
-17.8651119066
 10
-12.849063838
 20
-17.9372753805
 10
-12.7911945498
 20
-18.0066945775
 10
-12.7314154765
 20
-18.0733970135
 10
-12.6703300333
 20
-18.1367093882
 10
-12.6079249891
 20
-18.1965973665
 10
-12.544213575
 20
-18.2530952836
 10
-12.4798388994
 20
-18.3056328447
 10
-12.4147942449
 20
-18.3541699384
 10
-12.349086329
 20
-18.3987466761
 10
-12.2833784131
 20
-18.4389130962
 10
-12.2176704972
 20
-18.4746245304
 10
-12.1519625813
 20
-18.505925647
 10
-12.0869179267
 20
-18.5325004898
 10
-12.0225432512
 20
-18.5543011905
 10
-11.9588318371
 20
-18.5713756175
 10
-11.8964267929
 20
-18.5835514199
 10
-11.8353413497
 20
-18.5907789839
 10
-11.7755622764
 20
-18.5931079233
 10
-11.7176929881
 20
-18.5905147298
 10
-11.6617528276
 20
-18.5829495512
 10
-11.607722452
 20
-18.5704622395
 10
-11.5561472488
 20
-18.5531788429
 10
-11.5070520843
 20
-18.5310507857
 10
-11.483357112
 20
-18.5181489224
  0
LWPOLYLINE
  5
272
100
AcDbEntity
  8
ASSI
100
AcDbPolyline
 62
7
  6
CONTINUOUS
 90
42
 70
0
 10
-11.1520075632
 20
-17.7858000027
 10
-11.1539753761
 20
-17.7082827282
 10
-11.1597047312
 20
-17.62935943
 10
-11.1691956286
 20
-17.549030108
 10
-11.1825055083
 20
-17.4670140725
 10
-11.1995769303
 20
-17.3835920133
 10
-11.2202375741
 20
-17.2996059998
 10
-11.2445237919
 20
-17.2150503202
 10
-11.2723992316
 20
-17.1299306863
 10
-11.303582516
 20
-17.0451063032
 10
-11.3381071475
 20
-16.960580161
 10
-11.3759396237
 20
-16.8763492696
 10
-11.4166980604
 20
-16.7932638628
 10
-11.4604120922
 20
-16.7113355422
 10
-11.5070520843
 20
-16.6305527061
 10
-11.5561472488
 20
-16.5517307836
 10
-11.607722452
 20
-16.4748896351
 10
-11.6617528276
 20
-16.4000094001
 10
-11.7176929881
 20
-16.3278459262
 10
-11.7755622764
 20
-16.2584267292
 10
-11.8353413497
 20
-16.1917242932
 10
-11.8964267929
 20
-16.1284119185
 10
-11.9588318371
 20
-16.0685239402
 10
-12.0225432512
 20
-16.012026023
 10
-12.0869179267
 20
-15.959488462
 10
-12.1519625813
 20
-15.9109513683
 10
-12.2176704972
 20
-15.8663746306
 10
-12.2833784131
 20
-15.8262082105
 10
-12.349086329
 20
-15.7904967763
 10
-12.4147942449
 20
-15.7591956597
 10
-12.4798388994
 20
-15.7326208168
 10
-12.544213575
 20
-15.7108201162
 10
-12.6079249891
 20
-15.6937456892
 10
-12.6703300333
 20
-15.6815698868
 10
-12.7314154765
 20
-15.6743423228
 10
-12.7911945498
 20
-15.6720133833
 10
-12.849063838
 20
-15.6746065769
 10
-12.9050039986
 20
-15.6821717555
 10
-12.9590343742
 20
-15.6946590672
 10
-13.0106095774
 20
-15.7119424638
 10
-13.0597047419
 20
-15.734070521
 10
-13.0833997142
 20
-15.7469723843
  0
LWPOLYLINE
  5
273
100
AcDbEntity
  8
ASSI
100
AcDbPolyline
 62
7
  6
CONTINUOUS
 90
42
 70
0
 10
-7.8639610307
 20
-59.2860838609
 10
-7.8618087353
 20
-59.3708683798
 10
-7.8555422532
 20
-59.4571907372
 10
-7.8451615842
 20
-59.5450509331
 10
-7.8306039032
 20
-59.634755972
 10
-7.8119320354
 20
-59.7259988493
 10
-7.7893344563
 20
-59.8178585515
 10
-7.7627714055
 20
-59.9103413261
 10
-7.7322826434
 20
-60.0034409256
 10
-7.6981759261
 20
-60.0962175947
 10
-7.6604146103
 20
-60.1886680626
 10
-7.6190353395
 20
-60.2807956002
 10
-7.5744557993
 20
-60.3716702639
 10
-7.5266435771
 20
-60.4612793646
 10
-7.4756310857
 20
-60.5496355915
 10
-7.4219332495
 20
-60.6358470692
 10
-7.365522871
 20
-60.7198920754
 10
-7.3064271478
 20
-60.8017923324
 10
-7.2452425971
 20
-60.880721132
 10
-7.1819480631
 20
-60.9566483788
 10
-7.1165647017
 20
-61.0296041681
 10
-7.0497524982
 20
-61.0988520779
 10
-6.9814969811
 20
-61.1643545542
 10
-6.9118126219
 20
-61.2261491511
 10
-6.8414028205
 20
-61.2836121084
 10
-6.7702602297
 20
-61.3366995548
 10
-6.6983921966
 20
-61.3854553616
 10
-6.6265241636
 20
-61.4293873836
 10
-6.5546561306
 20
-61.4684467647
 10
-6.4827880975
 20
-61.502682361
 10
-6.4116455067
 20
-61.5317485954
 10
-6.3412357053
 20
-61.5555931117
 10
-6.2715513461
 20
-61.5742682662
 10
-6.203295829
 20
-61.5875855502
 10
-6.1364836255
 20
-61.5954906982
 10
-6.0711002641
 20
-61.5980379758
 10
-6.0078057301
 20
-61.5952016703
 10
-5.9466211794
 20
-61.5869272562
 10
-5.8875254562
 20
-61.5732692591
 10
-5.8311150777
 20
-61.554365544
 10
-5.7774172415
 20
-61.5301629815
 10
-5.7515008656
 20
-61.5160515685
  0
LWPOLYLINE
  5
274
100
AcDbEntity
  8
ASSI
100
AcDbPolyline
 62
7
  6
CONTINUOUS
 90
42
 70
0
 10
-5.3890872965
 20
-60.7150449375
 10
-5.3912395919
 20
-60.6302604186
 10
-5.3975060741
 20
-60.5439380611
 10
-5.407886743
 20
-60.4560778653
 10
-5.422444424
 20
-60.3663728264
 10
-5.4411162918
 20
-60.2751299491
 10
-5.4637138709
 20
-60.1832702468
 10
-5.4902769217
 20
-60.0907874723
 10
-5.5207656838
 20
-59.9976878728
 10
-5.5548724011
 20
-59.9049112037
 10
-5.5926337169
 20
-59.8124607358
 10
-5.6340129877
 20
-59.7203331982
 10
-5.6785925279
 20
-59.6294585345
 10
-5.7264047501
 20
-59.5398494338
 10
-5.7774172415
 20
-59.4514932069
 10
-5.8311150777
 20
-59.3652817292
 10
-5.8875254562
 20
-59.281236723
 10
-5.9466211794
 20
-59.199336466
 10
-6.0078057301
 20
-59.1204076664
 10
-6.0711002641
 20
-59.0444804196
 10
-6.1364836255
 20
-58.9715246303
 10
-6.203295829
 20
-58.9022767205
 10
-6.2715513461
 20
-58.8367742441
 10
-6.3412357053
 20
-58.7749796473
 10
-6.4116455067
 20
-58.7175166899
 10
-6.4827880975
 20
-58.6644292436
 10
-6.5546561306
 20
-58.6156734368
 10
-6.6265241636
 20
-58.5717414148
 10
-6.6983921966
 20
-58.5326820337
 10
-6.7702602297
 20
-58.4984464374
 10
-6.8414028205
 20
-58.469380203
 10
-6.9118126219
 20
-58.4455356867
 10
-6.9814969811
 20
-58.4268605322
 10
-7.0497524982
 20
-58.4135432482
 10
-7.1165647017
 20
-58.4056381002
 10
-7.1819480631
 20
-58.4030908226
 10
-7.2452425971
 20
-58.405927128
 10
-7.3064271478
 20
-58.4142015422
 10
-7.365522871
 20
-58.4278595393
 10
-7.4219332495
 20
-58.4467632544
 10
-7.4756310857
 20
-58.4709658169
 10
-7.5015474616
 20
-58.4850772299
  0
LWPOLYLINE
  5
275
100
AcDbEntity
  8
RACCORDO
100
AcDbPolyline
 62
7
  6
CONTINUOUS
 90
20
 70
0
 10
-38.2179345143
 20
-42.1708281623
 10
-38.2182117176
 20
-42.1712956437
 10
-38.2146299655
 20
-42.1629115016
 10
-38.2078408227
 20
-42.1395430867
 10
-38.2013465767
 20
-42.1013063898
 10
-38.1979112936
 20
-42.0486032044
 10
-38.1997935692
 20
-41.9827074731
 10
-38.2087050262
 20
-41.9050954616
 10
-38.226112879
 20
-41.8166493475
 10
-38.2529226637
 20
-41.7198276664
 10
-38.2892389728
 20
-41.6179486501
 10
-38.3350396723
 20
-41.5132227796
 10
-38.3897165406
 20
-41.4084476878
 10
-38.4513878915
 20
-41.3076773516
 10
-38.5185317389
 20
-41.2131716829
 10
-38.5893282706
 20
-41.1270153443
 10
-38.6604773353
 20
-41.0522040189
 10
-38.7292369959
 20
-40.9900190752
 10
-38.7938680618
 20
-40.9402842619
 10
-38.8524098303
 20
-40.9027230457
  0
LWPOLYLINE
  5
276
100
AcDbEntity
  8
0
100
AcDbPolyline
 62
253
  6
CONTINUOUS
 90
16
 70
0
 10
59.8415132679
 20
46.9564105818
 10
59.9496274008
 20
47.0221914839
 10
60.0516308087
 20
47.0911492421
 10
60.1472439075
 20
47.1630948478
 10
60.2362046282
 20
47.2378311031
 10
60.3182691357
 20
47.3151531612
 10
60.3932124969
 20
47.3948490876
 10
60.4608292973
 20
47.4767004414
 10
60.5209342039
 20
47.5604828738
 10
60.5733624733
 20
47.6459667428
 10
60.6179704032
 20
47.7329177431
 10
60.6546357266
 20
47.8210975481
 10
60.6832579462
 20
47.9102644632
 10
60.7037586105
 20
48.0001740878
 10
60.7160815286
 20
48.0905799861
 10
60.7201929244
 20
48.1812343617
  0
LINE
  5
277
100
AcDbEntity
  8
ASSI
100
AcDbLine
 62
253
  6
CONTINUOUS
 10
59.8415132679
 20
46.9564105818
 11
17.0615530061
 21
22.2557976854
  0
LWPOLYLINE
  5
278
100
AcDbEntity
  8
RACCORDO
100
AcDbPolyline
 62
253
  6
CONTINUOUS
 90
25
 70
0
 10
-38.9766594029
 20
14.3203686991
 10
-39.1044635584
 20
14.4048512412
 10
-39.2261307355
 20
14.5030191548
 10
-39.3416609344
 20
14.61487244
 10
-39.4528126314
 20
14.7427710415
 10
-39.5578273502
 20
14.8843550146
 10
-39.6514296609
 20
15.0325445248
 10
-39.7330306634
 20
15.1876725135
 10
-39.8032192579
 20
15.3494060392
 10
-39.8584867151
 20
15.5096664435
 10
-39.8980738917
 20
15.6683771575
 10
-39.922739931
 20
15.8256147502
 10
-39.9312535341
 20
15.9735302695
 10
-39.9227947098
 20
16.111650529
 10
-39.8981834493
 20
16.2404487152
 10
-39.8586484272
 20
16.3534954359
 10
-39.8034322518
 20
16.4499909965
 10
-39.7332923147
 20
16.5307350916
 10
-39.6517294653
 20
16.5916974129
 10
-39.5581630055
 20
16.6318735995
 10
-39.4531736334
 20
16.6522680124
 10
-39.3420042928
 20
16.651863426
 10
-39.2264026314
 20
16.6303207654
 10
-39.1046210014
 20
16.5879791055
 10
-38.9766594029
 20
16.5248384465
  0
LWPOLYLINE
  5
279
100
AcDbEntity
  8
RACCORDO
100
AcDbPolyline
 62
253
  6
CONTINUOUS
 90
25
 70
0
 10
-38.9766594029
 20
16.5248384465
 10
-38.8488552474
 20
16.4403559044
 10
-38.7271880702
 20
16.3421879908
 10
-38.6116578714
 20
16.2303347056
 10
-38.5005061743
 20
16.102436104
 10
-38.3954914556
 20
15.9608521309
 10
-38.3018891449
 20
15.8126626207
 10
-38.2202881424
 20
15.6575346321
 10
-38.1500995479
 20
15.4958011064
 10
-38.0948320907
 20
15.3355407021
 10
-38.0552449141
 20
15.176829988
 10
-38.0305788748
 20
15.0195923954
 10
-38.0220652717
 20
14.871676876
 10
-38.030524096
 20
14.7335566166
 10
-38.0551353564
 20
14.6047584304
 10
-38.0946703786
 20
14.4917117097
 10
-38.149886554
 20
14.3952161491
 10
-38.2200264911
 20
14.314472054
 10
-38.3015893404
 20
14.2535097327
 10
-38.3951558002
 20
14.213333546
 10
-38.5001451723
 20
14.1929391332
 10
-38.611314513
 20
14.1933437195
 10
-38.7269161744
 20
14.2148863802
 10
-38.8486978043
 20
14.2572280401
 10
-38.9766594029
 20
14.3203686991
  0
LWPOLYLINE
  5
27A
100
AcDbEntity
  8
RACCORDO
100
AcDbPolyline
 62
253
  6
CONTINUOUS
 90
15
 70
0
 10
-38.5523953342
 20
15.0552156212
 10
-38.6314368741
 20
15.1076926794
 10
-38.7087127711
 20
15.1726764272
 10
-38.7824968103
 20
15.2487152423
 10
-38.851140779
 20
15.3341105516
 10
-38.9131112806
 20
15.4269547683
 10
-38.9670239892
 20
15.5251739014
 10
-39.011674582
 20
15.6265738988
 10
-39.0460656362
 20
15.7288896524
 10
-39.0694289081
 20
15.8298355889
 10
-39.0812425005
 20
15.9271567399
 10
-39.0812425178
 20
16.0186791135
 10
-39.0694289594
 20
16.1023582502
 10
-39.0460657203
 20
16.1763248968
 10
-39.0116746968
 20
16.2389267587
  0
LWPOLYLINE
  5
27B
100
AcDbEntity
  8
ASSI
100
AcDbPolyline
 62
7
  6
CONTINUOUS
 90
15
 70
0
 10
-6.4342377453
 20
-58.7006580932
 10
-6.4309480218
 20
-58.7285017465
 10
-6.4163903408
 20
-58.8182067853
 10
-6.3977184731
 20
-58.9094496626
 10
-6.3751208939
 20
-59.0013093649
 10
-6.3485578431
 20
-59.0937921394
 10
-6.318069081
 20
-59.186891739
 10
-6.2839623637
 20
-59.279668408
 10
-6.246201048
 20
-59.372118876
 10
-6.2048217771
 20
-59.4642464135
 10
-6.160242237
 20
-59.5551210772
 10
-6.1124300148
 20
-59.6447301779
 10
-6.0614175233
 20
-59.7330864048
 10
-6.0077196872
 20
-59.8192978825
 10
-5.9450984449
 20
-59.9122398338
  0
LWPOLYLINE
  5
27C
100
AcDbEntity
  8
ASSI
100
AcDbPolyline
 62
7
  6
CONTINUOUS
 90
15
 70
0
 10
-6.434436026
 20
-58.7005101337
 10
-6.4328704423
 20
-58.7144557912
 10
-6.4197954829
 20
-58.7992028424
 10
-6.4030212245
 20
-58.8853730444
 10
-6.3826997256
 20
-58.9721852652
 10
-6.3587987331
 20
-59.0596453422
 10
-6.3313505001
 20
-59.147747438
 10
-6.3006038446
 20
-59.2356929079
 10
-6.2665287758
 20
-59.3234803278
 10
-6.2291552844
 20
-59.4111111219
 10
-6.1888221609
 20
-59.4977909178
 10
-6.1455024948
 20
-59.5835110686
 10
-6.0992231965
 20
-59.6682802213
 10
-6.0504037874
 20
-59.7513299444
 10
-5.9990211715
 20
-59.8326446039
  0
LWPOLYLINE
  5
27D
100
AcDbEntity
  8
ASSI
100
AcDbPolyline
 62
7
  6
CONTINUOUS
 90
62
 70
0
 10
0.0909902577
 20
-19.582661945
 10
0.0955669039
 20
-19.8550765599
 10
0.1091136459
 20
-20.1314597846
 10
0.131630484
 20
-20.411811619
 10
0.1631782081
 20
-20.6965652426
 10
0.2036960281
 20
-20.985287476
 10
0.2530015735
 20
-21.2766787807
 10
0.311134457
 20
-21.5707511885
 10
0.3780550659
 20
-21.8674926677
 10
0.4534621905
 20
-22.1655675854
 10
0.5373940859
 20
-22.4649819525
 10
0.6298124971
 20
-22.7657297581
 10
0.7303014489
 20
-23.0664573369
 10
0.8388973214
 20
-23.3671645976
 10
0.9555637345
 20
-23.6678516315
 10
1.0797755728
 20
-23.9671650467
 10
1.2115668494
 20
-24.2650986513
 10
1.3509035513
 20
-24.5616586371
 10
1.4971585242
 20
-24.8555101883
 10
1.650362954
 20
-25.1466410957
 10
1.8104856548
 20
-25.4350635685
 10
1.9768059146
 20
-25.7194794175
 10
2.1493516705
 20
-25.9998705817
 10
2.3280949853
 20
-26.2762551222
 10
2.5122313358
 20
-26.5473890326
 10
2.7017850325
 20
-26.8132486442
 10
2.8967317647
 20
-27.0738576256
 10
3.0961940777
 20
-27.3280429763
 10
3.3001923265
 20
-27.5757757401
 10
3.5087061561
 20
-27.8170848731
 10
3.7207970459
 20
-28.0508842434
 10
3.9364811205
 20
-28.2771399986
 10
4.1557422554
 20
-28.4958859911
 10
4.3775935567
 20
-28.7061376455
 10
4.6020467
 20
-28.9078566714
 10
4.8290900097
 20
-29.1010813591
 10
5.057701564
 20
-29.2849420047
 10
5.2878884324
 20
-29.4593963973
 10
5.5196435454
 20
-29.6244867477
 10
5.7519237738
 20
-29.7794699847
 10
5.9847314847
 20
-29.9243005477
 10
6.2180643108
 20
-30.0590239972
 10
6.4508720217
 20
-30.1830339431
 10
6.6831522501
 20
-30.2962820916
 10
6.9149073631
 20
-30.3988167366
 10
7.1450942315
 20
-30.4901763697
 10
7.3737057858
 20
-30.5703106167
 10
7.6007490955
 20
-30.6392698519
 10
7.8252022388
 20
-30.6967436899
 10
8.0470535401
 20
-30.7426803573
 10
8.266314675
 20
-30.7771316274
 10
8.4819987496
 20
-30.7999424352
 10
8.6940896395
 20
-30.8110603083
 10
8.902603469
 20
-30.810537719
 10
9.1066017178
 20
-30.7983770196
 10
9.3060640308
 20
-30.7745257482
 10
9.501010763
 20
-30.7390363667
 10
9.6905644597
 20
-30.6920686126
 10
9.8747008102
 20
-30.6335707443
 10
10.0534441251
 20
-30.5635945035
 10
10.2259898809
 20
-30.4824548531
 10
10.3515929676
 20
-30.4140755299
  0
LWPOLYLINE
  5
27E
100
AcDbEntity
  8
RACCORDO
100
AcDbPolyline
 62
253
  6
CONTINUOUS
 90
6
 70
0
 10
-37.3708362194
 20
-43.0648823497
 10
-37.2886073656
 20
-42.9479074548
 10
-37.2234689916
 20
-42.8111540916
 10
-37.1763019493
 20
-42.6564714846
 10
-37.1477441447
 20
-42.485951538
 10
-37.1381817718
 20
-42.3019002334
  0
LWPOLYLINE
  5
27F
100
AcDbEntity
  8
RACCORDO
100
AcDbPolyline
 62
253
  6
CONTINUOUS
 90
3
 70
0
 10
-39.0116746968
 20
-40.9139926168
 10
-38.9670241296
 20
-40.8641539637
 10
-38.9571332208
 20
-40.8570844921
  0
LWPOLYLINE
  5
280
100
AcDbEntity
  8
RACCORDO
100
AcDbPolyline
 62
7
  6
CONTINUOUS
 90
6
 70
0
 10
-38.8524098303
 20
16.2501963298
 10
-38.8934498724
 20
16.2718820033
 10
-38.9276387037
 20
16.2865236155
 10
-38.9537540199
 20
16.2950729173
 10
-38.9708149483
 20
16.2989199358
 10
-38.9757907752
 20
16.2996367089
  0
LINE
  5
281
100
AcDbEntity
  8
ASSI
100
AcDbLine
 62
7
  6
CONTINUOUS
 10
19.802214692
 20
-38.0887204783
 11
17.4364248477
 21
-33.8539017423
  0
LINE
  5
282
100
AcDbEntity
  8
ASSI
100
AcDbLine
 62
7
  6
CONTINUOUS
 10
21.2164282544
 20
-38.905269665
 11
18.8506384101
 21
-34.6704509289
  0
LWPOLYLINE
  5
283
100
AcDbEntity
  8
ASSI
100
AcDbPolyline
 62
7
  6
CONTINUOUS
 90
19
 70
0
 10
17.4364248477
 20
-33.8539017423
 10
17.2459503083
 20
-33.4980736908
 10
17.0659122131
 20
-33.1314323784
 10
16.8963105619
 20
-32.753977805
 10
16.737050874
 20
-32.3654564517
 10
16.5882276302
 20
-31.9661218374
 10
16.4501242735
 20
-31.5567345193
 10
16.3227612334
 20
-31.1372753392
 10
16.2061180805
 20
-30.7077634552
 10
16.1004169686
 20
-30.2690168988
 10
16.0056787507
 20
-29.8210180709
 10
15.9218825739
 20
-29.3637845707
 10
15.8491880331
 20
-28.8981872271
 10
15.7876162854
 20
-28.4242101006
 10
15.7371461737
 20
-27.9418691308
 10
15.6978738213
 20
-27.4520829654
 10
15.6698312694
 20
-26.9551578202
 10
15.6529864769
 20
-26.4507874795
 10
15.6473394438
 20
-25.9389719431
  0
LWPOLYLINE
  5
284
100
AcDbEntity
  8
ASSI
100
AcDbPolyline
 62
7
  6
CONTINUOUS
 90
19
 70
0
 10
18.8506384101
 20
-34.6704509289
 10
18.6601638707
 20
-34.3146228775
 10
18.4801257754
 20
-33.947981565
 10
18.3105241243
 20
-33.5705269917
 10
18.1512644364
 20
-33.1820056383
 10
18.0024411926
 20
-32.7826710241
 10
17.8643378358
 20
-32.373283706
 10
17.7369747958
 20
-31.9538245258
 10
17.6203316429
 20
-31.5243126418
 10
17.5146305309
 20
-31.0855660855
 10
17.4198923131
 20
-30.6375672576
 10
17.3360961363
 20
-30.1803337573
 10
17.2634015955
 20
-29.7147364138
 10
17.2018298478
 20
-29.2407592873
 10
17.151359736
 20
-28.7584183175
 10
17.1120873837
 20
-28.268632152
 10
17.0840448318
 20
-27.7717070069
 10
17.0672000393
 20
-27.2673366661
 10
17.0615530061
 20
-26.7555211298
  0
LWPOLYLINE
  5
285
100
AcDbEntity
  8
ASSI
100
AcDbPolyline
 62
7
  6
CONTINUOUS
 90
16
 70
0
 10
19.802214692
 20
-38.0887204783
 10
19.9841605421
 20
-38.4315820851
 10
20.1540152753
 20
-38.7867283021
 10
20.3117788916
 20
-39.1541591292
 10
20.4575735615
 20
-39.5342330811
 10
20.5912771145
 20
-39.9265916431
 10
20.7125230388
 20
-40.3301592714
 10
20.8212771539
 20
-40.7449667205
 10
20.9175736402
 20
-41.1709832359
 10
21.0011485273
 20
-41.6070410093
 10
21.0719669104
 20
-42.0531675915
 10
21.1300636942
 20
-42.5093354317
 10
21.1752796222
 20
-42.9742940705
 10
21.207561609
 20
-43.4476266877
 10
21.2269627399
 20
-43.9297501035
 10
21.2334830151
 20
-44.4206643177
  0
LWPOLYLINE
  5
286
100
AcDbEntity
  8
ASSI
100
AcDbPolyline
 62
7
  6
CONTINUOUS
 90
16
 70
0
 10
21.2164282544
 20
-38.905269665
 10
21.3983741045
 20
-39.2481312718
 10
21.5682288377
 20
-39.6032774887
 10
21.7259924539
 20
-39.9707083158
 10
21.8717871239
 20
-40.3507822677
 10
22.0054906769
 20
-40.7431408298
 10
22.1267366011
 20
-41.1467084581
 10
22.2354907162
 20
-41.5615159072
 10
22.3317872026
 20
-41.9875324225
 10
22.4153620897
 20
-42.423590196
 10
22.4861804728
 20
-42.8697167781
 10
22.5442772566
 20
-43.3258846184
 10
22.5894931846
 20
-43.7908432571
 10
22.6217751713
 20
-44.2641758744
 10
22.6411763023
 20
-44.7462992901
 10
22.6476965775
 20
-45.2372135043
  0
LWPOLYLINE
  5
287
100
AcDbEntity
  8
ASSI
100
AcDbPolyline
 62
7
  6
CONTINUOUS
 90
58
 70
0
 10
1.50520382
 20
-18.7661127584
 10
1.5097804662
 20
-19.0385273733
 10
1.5233272083
 20
-19.314910598
 10
1.5458440463
 20
-19.5952624324
 10
1.5773917705
 20
-19.880016056
 10
1.6179095905
 20
-20.1687382893
 10
1.6672151358
 20
-20.4601295941
 10
1.7253480194
 20
-20.7542020018
 10
1.7922686283
 20
-21.050943481
 10
1.8676757528
 20
-21.3490183988
 10
1.9516076483
 20
-21.6484327659
 10
2.0440260595
 20
-21.9491805715
 10
2.1445150113
 20
-22.2499081502
 10
2.2531108838
 20
-22.550615411
 10
2.3697772969
 20
-22.8513024449
 10
2.4939891352
 20
-23.1506158601
 10
2.6257804118
 20
-23.4485494646
 10
2.7651171137
 20
-23.7451094505
 10
2.9113720866
 20
-24.0389610016
 10
3.0645765164
 20
-24.3300919091
 10
3.2246992172
 20
-24.6185143818
 10
3.3910194769
 20
-24.9029302308
 10
3.5635652328
 20
-25.1833213951
 10
3.7423085477
 20
-25.4597059356
 10
3.9264448982
 20
-25.7308398459
 10
4.1159985949
 20
-25.9966994575
 10
4.3109453271
 20
-26.257308439
 10
4.5104076401
 20
-26.5114937897
 10
4.7144058889
 20
-26.7592265534
 10
4.9229197184
 20
-27.0005356864
 10
5.1350106082
 20
-27.2343350567
 10
5.3506946829
 20
-27.460590812
 10
5.5699558178
 20
-27.6793368045
 10
5.791807119
 20
-27.8895884589
 10
6.0162602624
 20
-28.0913074847
 10
6.243303572
 20
-28.2845321724
 10
6.4719151264
 20
-28.468392818
 10
6.7021019947
 20
-28.6428472106
 10
6.9338571078
 20
-28.8079375611
 10
7.1661373362
 20
-28.9629207981
 10
7.398945047
 20
-29.1077513611
 10
7.6322778732
 20
-29.2424748105
 10
7.865085584
 20
-29.3664847565
 10
8.0973658124
 20
-29.479732905
 10
8.3291209255
 20
-29.5822675499
 10
8.5593077939
 20
-29.673627183
 10
8.7879193482
 20
-29.7537614301
 10
9.0149626579
 20
-29.8227206653
 10
9.2394158012
 20
-29.8801945033
 10
9.4612671024
 20
-29.9261311706
 10
9.6805282374
 20
-29.9605824408
 10
9.896212312
 20
-29.9833932486
 10
10.1083032018
 20
-29.9945111216
 10
10.3168170313
 20
-29.9939885324
 10
10.5208152802
 20
-29.981827833
 10
10.7202775931
 20
-29.9579765616
 10
10.9152243254
 20
-29.92248718
 10
11.0006664904
 20
-29.9013162577
  0
LINE
  5
288
100
AcDbEntity
  8
ASSI
100
AcDbLine
 62
7
  6
CONTINUOUS
 10
5.5003571337
 20
36.8097611094
 11
5.5003571337
 21
35.1768205558
  0
LWPOLYLINE
  5
289
100
AcDbEntity
  8
ASSI
100
AcDbPolyline
 62
7
  6
CONTINUOUS
 90
15
 70
0
 10
-13.0833997142
 20
-15.7469723843
 10
-13.106344734
 20
-15.7609946631
 10
-13.1500587658
 20
-15.7924431156
 10
-13.1908172024
 20
-15.8284617014
 10
-13.2286496787
 20
-15.8690045976
 10
-13.2631743102
 20
-15.9136625606
 10
-13.2943575946
 20
-15.9624772686
 10
-13.3222330343
 20
-16.0154070435
 10
-13.3465192521
 20
-16.0719176074
 10
-13.3671798959
 20
-16.1320452274
 10
-13.3842513179
 20
-16.1957536364
 10
-13.3975611976
 20
-16.2623997565
 10
-13.407052095
 20
-16.331769228
 10
-13.4127814501
 20
-16.4040764106
 10
-13.414749263
 20
-16.479321304
  0
LINE
  5
28A
100
AcDbEntity
  8
0
100
AcDbLine
 62
7
  6
CONTINUOUS
 10
-16.5260191002
 20
-10.8047581885
 11
-33.4965818487
 21
-20.6033484283
  0
LINE
  5
28B
100
AcDbEntity
  8
0
100
AcDbLine
 62
7
  6
CONTINUOUS
 10
-16.5260191002
 20
-11.6211495554
 11
-15.1118055378
 21
-10.8046003687
  0
LINE
  5
28C
100
AcDbEntity
  8
ASSI
100
AcDbLine
 62
253
  6
CONTINUOUS
 10
-12.2834910535
 20
-15.8261469918
 11
-13.414749263
 21
-16.479321304
  0
LWPOLYLINE
  5
28D
100
AcDbEntity
  8
0
100
AcDbPolyline
 62
7
  6
CONTINUOUS
 90
25
 70
0
 10
-16.5260191002
 20
-10.8047581885
 10
-16.4778840087
 20
-10.778775938
 10
-16.4273787169
 20
-10.7548434166
 10
-16.3745032246
 20
-10.732960624
 10
-16.3190138096
 20
-10.7130520913
 10
-16.2611541943
 20
-10.6951932875
 10
-16.2016555452
 20
-10.6796106203
 10
-16.1404924558
 20
-10.6663321883
 10
-16.0776903327
 20
-10.6553298929
 10
-16.0140565623
 20
-10.6467458467
 10
-15.9495844954
 20
-10.6406115911
 10
-15.8842807813
 20
-10.6368955846
 10
-15.8189727531
 20
-10.6356453158
 10
-15.7536557119
 20
-10.6368925644
 10
-15.6883343567
 20
-10.6406055507
 10
-15.6238501181
 20
-10.6467364236
 10
-15.5602189385
 20
-10.6553155945
 10
-15.4974248755
 20
-10.6663126521
 10
-15.4362615334
 20
-10.6795885112
 10
-15.3767456058
 20
-10.6951731857
 10
-15.3188603992
 20
-10.7130366616
 10
-15.2633494367
 20
-10.7329498126
 10
-15.2104605595
 20
-10.7548362629
 10
-15.1599459266
 20
-10.7787723882
 10
-15.1118055378
 20
-10.8047581885
  0
LINE
  5
28E
100
AcDbEntity
  8
0
100
AcDbLine
 62
7
  6
CONTINUOUS
 10
-32.7894750675
 20
24.0976495824
 11
-33.4965818487
 21
24.5059241757
  0
LWPOLYLINE
  5
28F
100
AcDbEntity
  8
ASSI
100
AcDbPolyline
 62
7
  6
CONTINUOUS
 90
62
 70
0
 10
12.1118055378
 20
-26.5233300316
 10
12.1072288917
 20
-26.2509154167
 10
12.0936821496
 20
-25.974532192
 10
12.0711653116
 20
-25.6941803576
 10
12.0396175874
 20
-25.409426734
 10
11.9990997674
 20
-25.1207045006
 10
11.949794222
 20
-24.8293131959
 10
11.8916613385
 20
-24.5352407881
 10
11.8247407296
 20
-24.2384993089
 10
11.7493336051
 20
-23.9404243912
 10
11.6654017096
 20
-23.6410100241
 10
11.5729832984
 20
-23.3402622185
 10
11.4724943466
 20
-23.0395346397
 10
11.3638984741
 20
-22.738827379
 10
11.247232061
 20
-22.4381403451
 10
11.1230202227
 20
-22.1388269299
 10
10.9912289461
 20
-21.8408933253
 10
10.8518922442
 20
-21.5443333395
 10
10.7056372713
 20
-21.2504817883
 10
10.5524328415
 20
-20.9593508809
 10
10.3923101407
 20
-20.6709284081
 10
10.2259898809
 20
-20.3865125592
 10
10.0534441251
 20
-20.1061213949
 10
9.8747008102
 20
-19.8297368544
 10
9.6905644597
 20
-19.558602944
 10
9.501010763
 20
-19.2927433324
 10
9.3060640308
 20
-19.032134351
 10
9.1066017178
 20
-18.7779490003
 10
8.902603469
 20
-18.5302162365
 10
8.6940896395
 20
-18.2889071035
 10
8.4819987496
 20
-18.0551077333
 10
8.266314675
 20
-17.828851978
 10
8.0470535401
 20
-17.6101059855
 10
7.8252022388
 20
-17.3998543311
 10
7.6007490955
 20
-17.1981353053
 10
7.3737057858
 20
-17.0049106175
 10
7.1450942315
 20
-16.821049972
 10
6.9149073631
 20
-16.6465955793
 10
6.6831522501
 20
-16.4815052289
 10
6.4508720217
 20
-16.3265219919
 10
6.2180643108
 20
-16.1816914289
 10
5.9847314847
 20
-16.0469679794
 10
5.7519237738
 20
-15.9229580335
 10
5.5196435454
 20
-15.809709885
 10
5.2878884324
 20
-15.7071752401
 10
5.057701564
 20
-15.6158156069
 10
4.8290900097
 20
-15.5356813599
 10
4.6020467
 20
-15.4667221247
 10
4.3775935567
 20
-15.4092482867
 10
4.1557422554
 20
-15.3633116193
 10
3.9364811205
 20
-15.3288603492
 10
3.7207970459
 20
-15.3060495414
 10
3.5087061561
 20
-15.2949316683
 10
3.3001923265
 20
-15.2954542576
 10
3.0961940777
 20
-15.307614957
 10
2.8967317647
 20
-15.3314662284
 10
2.7017850325
 20
-15.3669556099
 10
2.5122313358
 20
-15.413923364
 10
2.3280949853
 20
-15.4724212323
 10
2.1493516705
 20
-15.5423974731
 10
1.9768059146
 20
-15.6235371235
 10
1.8512028279
 20
-15.6919164467
  0
LINE
  5
290
100
AcDbEntity
  8
ASSI
100
AcDbLine
 62
7
  6
CONTINUOUS
 10
15.6473394438
 20
-25.9389719431
 11
15.6473394438
 21
23.0723468721
  0
LWPOLYLINE
  5
291
100
AcDbEntity
  8
ASSI
100
AcDbPolyline
 62
7
  6
CONTINUOUS
 90
17
 70
0
 10
2.6163428675
 20
-15.3881265323
 10
2.4939891352
 20
-15.5234341538
 10
2.3697772969
 20
-15.6793108516
 10
2.2531108838
 20
-15.845274436
 10
2.1445150113
 20
-16.0205779052
 10
2.0440260595
 20
-16.2052633613
 10
1.9516076483
 20
-16.3992887022
 10
1.8676757528
 20
-16.6017806202
 10
1.7922686283
 20
-16.8127772807
 10
1.7253480194
 20
-17.0322405182
 10
1.6672151358
 20
-17.2591825292
 10
1.6179095905
 20
-17.4936370261
 10
1.5773917705
 20
-17.7355702965
 10
1.5458440463
 20
-17.983893399
 10
1.5233272083
 20
-18.2382433533
 10
1.5097804662
 20
-18.4989831397
 10
1.50520382
 20
-18.7661127584
  0
LWPOLYLINE
  5
292
100
AcDbEntity
  8
0
100
AcDbPolyline
 62
7
  6
CONTINUOUS
 90
7
 70
0
 10
-37.2695043016
 20
-43.0540641181
 10
-37.1487207357
 20
-42.9638156066
 10
-37.0448045092
 20
-42.8442404164
 10
-36.9629896568
 20
-42.7013335861
 10
-36.9050047502
 20
-42.5370841629
 10
-36.8691212177
 20
-42.3495030995
 10
-36.8553390593
 20
-42.138590396
  0
LWPOLYLINE
  5
293
100
AcDbEntity
  8
RACCORDO
100
AcDbPolyline
 62
253
  6
CONTINUOUS
 90
3
 70
0
 10
-37.5523470139
 20
-43.2173739557
 10
-37.4690437898
 20
-43.1604970875
 10
-37.3708362194
 20
-43.0648823497
  0
LWPOLYLINE
  5
294
100
AcDbEntity
  8
RACCORDO
100
AcDbPolyline
 62
7
  6
CONTINUOUS
 90
10
 70
0
 10
-39.5524436545
 20
-39.7533281378
 10
-39.662088998
 20
-39.8259962874
 10
-39.7644434472
 20
-39.9138362747
 10
-39.8576651344
 20
-40.0165770488
 10
-39.9400136136
 20
-40.1336825945
 10
-40.0099405901
 20
-40.2644128438
 10
-40.0662406925
 20
-40.4082611485
 10
-40.1078215606
 20
-40.5648842222
 10
-40.1335415064
 20
-40.7336122821
 10
-40.1423448278
 20
-40.9137667571
  0
LWPOLYLINE
  5
295
100
AcDbEntity
  8
ASSI
100
AcDbPolyline
 62
7
  6
CONTINUOUS
 90
15
 70
0
 10
-11.483357112
 20
-18.5181489224
 10
-11.4604120922
 20
-18.5041266436
 10
-11.4166980604
 20
-18.4726781911
 10
-11.3759396237
 20
-18.4366596053
 10
-11.3381071475
 20
-18.3961167091
 10
-11.303582516
 20
-18.351458746
 10
-11.2723992316
 20
-18.3026440381
 10
-11.2445237919
 20
-18.2497142632
 10
-11.2202375741
 20
-18.1932036993
 10
-11.1995769303
 20
-18.1330760793
 10
-11.1825055083
 20
-18.0693676702
 10
-11.1691956286
 20
-18.0027215502
 10
-11.1597047312
 20
-17.9333520787
 10
-11.1539753761
 20
-17.8610448961
 10
-11.1520075632
 20
-17.7858000027
  0
LWPOLYLINE
  5
296
100
AcDbEntity
  8
ASSI
100
AcDbPolyline
 62
7
  6
CONTINUOUS
 90
22
 70
0
 10
1.8512028279
 20
-15.6919164467
 10
1.8104856548
 20
-15.7158905055
 10
1.650362954
 20
-15.8194072969
 10
1.4971585242
 20
-15.9336215691
 10
1.3509035513
 20
-16.0585815436
 10
1.2115668494
 20
-16.1942389987
 10
1.0797755728
 20
-16.3399833405
 10
0.9555637345
 20
-16.4958600382
 10
0.8388973214
 20
-16.6618236226
 10
0.7303014489
 20
-16.8371270919
 10
0.6298124971
 20
-17.021812548
 10
0.5373940859
 20
-17.2158378889
 10
0.4534621905
 20
-17.4183298069
 10
0.3780550659
 20
-17.6293264673
 10
0.311134457
 20
-17.8487897049
 10
0.2530015735
 20
-18.0757317158
 10
0.2036960281
 20
-18.3101862128
 10
0.1631782081
 20
-18.5521194831
 10
0.131630484
 20
-18.8004425856
 10
0.1091136459
 20
-19.0547925399
 10
0.0955669039
 20
-19.3155323264
 10
0.0909902577
 20
-19.582661945
  0
LINE
  5
297
100
AcDbEntity
  8
0
100
AcDbLine
 62
253
  6
CONTINUOUS
 10
-33.4965818487
 20
-34.6883287115
 11
-34.9107954111
 21
-35.5048778982
  0
LINE
  5
298
100
AcDbEntity
  8
0
100
AcDbLine
 62
7
  6
CONTINUOUS
 10
-39.269600942
 20
-39.5900183004
 11
-39.5524436545
 21
-39.7533281378
  0
LINE
  5
299
100
AcDbEntity
  8
0
100
AcDbLine
 62
253
  6
CONTINUOUS
 10
-32.7894750675
 20
-35.9130735816
 11
-34.2036886299
 21
-36.7296227683
  0
LWPOLYLINE
  5
29A
100
AcDbEntity
  8
0
100
AcDbPolyline
 62
7
  6
CONTINUOUS
 90
19
 70
0
 10
22.6476965775
 20
-96.1729042694
 10
22.6511148572
 20
-96.3495615554
 10
22.6611971847
 20
-96.521358073
 10
22.6779435602
 20
-96.6882938221
 10
22.7014111594
 20
-96.8506676895
 10
22.7315428065
 20
-97.0081807884
 10
22.768166974
 20
-97.1599364593
 10
22.8113206915
 20
-97.3059018652
 10
22.8609669293
 20
-97.4461098431
 10
22.9168230713
 20
-97.5797622446
 10
22.978924535
 20
-97.7068216805
 10
23.0472359027
 20
-97.82732554
 10
23.121368305
 20
-97.9405878425
 10
23.2013549416
 20
-98.0465672862
 10
23.2871626128
 20
-98.1453051729
 10
23.3783028495
 20
-98.2362394268
 10
23.4748060655
 20
-98.3193255407
 10
23.5766418471
 20
-98.394608022
 10
23.6831096828
 20
-98.4615885751
  0
LINE
  5
29B
100
AcDbEntity
  8
ASSI
100
AcDbLine
 62
7
  6
CONTINUOUS
 10
17.0615530061
 20
-26.7555211298
 11
17.0615530061
 21
22.2557976854
  0
LINE
  5
29C
100
AcDbEntity
  8
0
100
AcDbLine
 62
7
  6
CONTINUOUS
 10
21.2334830151
 20
-95.3563550828
 11
21.2334830151
 21
-44.4206643177
  0
LINE
  5
29D
100
AcDbEntity
  8
0
100
AcDbLine
 62
7
  6
CONTINUOUS
 10
22.6476965775
 20
-96.1729042694
 11
22.6476965775
 21
-45.2372135043
  0
LINE
  5
29E
100
AcDbEntity
  8
ASSI
100
AcDbLine
 62
253
  6
CONTINUOUS
 10
1.50520382
 20
-18.7661127584
 11
0.0909902577
 21
-19.582661945
  0
LINE
  5
29F
100
AcDbEntity
  8
0
100
AcDbLine
 62
7
  6
CONTINUOUS
 10
-37.2695043014
 20
-43.0540641183
 11
-37.5523470139
 21
-43.2173739557
  0
LINE
  5
2A0
100
AcDbEntity
  8
0
100
AcDbLine
 62
7
  6
CONTINUOUS
 10
-17.2331258814
 20
-34.2782391913
 11
-26.4270173748
 21
-39.5866769131
  0
LINE
  5
2A1
100
AcDbEntity
  8
0
100
AcDbLine
 62
7
  6
CONTINUOUS
 10
-50.1843018847
 20
-54.1202266073
 11
-44.1031835665
 21
-50.6090651047
  0
LWPOLYLINE
  5
2A2
100
AcDbEntity
  8
RACCORDO
100
AcDbPolyline
 62
253
  6
CONTINUOUS
 90
5
 70
0
 10
-38.2536497137
 20
14.9891268371
 10
-38.322293689
 20
14.9829998218
 10
-38.3960777617
 20
14.9921649393
 10
-38.4733537159
 20
15.0164174588
 10
-38.5523953342
 20
15.0552156212
  0
LWPOLYLINE
  5
2A3
100
AcDbEntity
  8
ASSI
100
AcDbPolyline
 62
7
  6
CONTINUOUS
 90
22
 70
0
 10
10.3515929676
 20
-30.4140755299
 10
10.3923101407
 20
-30.3901014712
 10
10.5524328415
 20
-30.2865846797
 10
10.7056372713
 20
-30.1723704075
 10
10.8518922442
 20
-30.047410433
 10
10.9912289461
 20
-29.9117529779
 10
11.1230202227
 20
-29.7660086361
 10
11.247232061
 20
-29.6101319384
 10
11.3638984741
 20
-29.444168354
 10
11.4724943466
 20
-29.2688648847
 10
11.5729832984
 20
-29.0841794286
 10
11.6654017096
 20
-28.8901540877
 10
11.7493336051
 20
-28.6876621697
 10
11.8247407296
 20
-28.4766655093
 10
11.8916613385
 20
-28.2572022717
 10
11.949794222
 20
-28.0302602608
 10
11.9990997674
 20
-27.7958057639
 10
12.0396175874
 20
-27.5538724935
 10
12.0711653116
 20
-27.305549391
 10
12.0936821496
 20
-27.0511994367
 10
12.1072288917
 20
-26.7904596502
 10
12.1118055378
 20
-26.5233300316
  0
LINE
  5
2A4
100
AcDbEntity
  8
RACCORDO
100
AcDbLine
 62
253
  6
CONTINUOUS
 10
-38.2105896393
 20
-42.1490045885
 11
-38.2536497137
 21
-42.1637925384
  0
LINE
  5
2A5
100
AcDbEntity
  8
ASSI
100
AcDbLine
 62
253
  6
CONTINUOUS
 10
-60.7201929244
 20
67.1660029515
 11
-59.305979362
 21
66.3494537648
  0
LINE
  5
2A6
100
AcDbEntity
  8
ASSI
100
AcDbLine
 62
253
  6
CONTINUOUS
 10
17.0615530061
 20
22.2557976854
 11
15.6473394438
 21
23.0723468721
  0
LWPOLYLINE
  5
2A7
100
AcDbEntity
  8
ASSI
100
AcDbPolyline
 62
7
  6
CONTINUOUS
 90
49
 70
0
 10
5.5003571337
 20
35.1768205558
 10
5.8125627571
 20
35.0557421996
 10
6.125556948
 20
34.9258955506
 10
6.4390618462
 20
34.787478718
 10
6.7528810075
 20
34.6407514862
 10
7.0666610302
 20
34.4858786011
 10
7.3798916066
 20
34.3229277927
 10
7.6923139227
 20
34.1521437916
 10
8.0036517081
 20
33.97375574
 10
8.3133719282
 20
33.7878162638
 10
8.6211306183
 20
33.5946491201
 10
8.9267563937
 20
33.3944511855
 10
9.2299707589
 20
33.1870698401
 10
9.5305361508
 20
32.9727586049
 10
9.8281741061
 20
32.7517794848
 10
10.1225295981
 20
32.523962427
 10
10.4135674637
 20
32.2893970451
 10
10.700794609
 20
32.0485155071
 10
10.9831789388
 20
31.801678882
 10
11.2604831472
 20
31.5492028377
 10
11.5324771474
 20
31.2913951141
 10
11.7981826163
 20
31.0286546921
 10
12.0571214268
 20
30.7616187347
 10
12.3093906256
 20
30.4903443289
 10
12.5548693081
 20
30.2143584437
 10
12.7934723728
 20
29.9338415062
 10
13.024853894
 20
29.6492702635
 10
13.2484663856
 20
29.3605967497
 10
13.4643183554
 20
29.0678364093
 10
13.6719773887
 20
28.7716567761
 10
13.8702921466
 20
28.4730079024
 10
14.0590939185
 20
28.1722352666
 10
14.2383009517
 20
27.8697256819
 10
14.4070244332
 20
27.5665106807
 10
14.5650157797
 20
27.2632759311
 10
14.7124722368
 20
26.9600489812
 10
14.8492377023
 20
26.6568680517
 10
14.9752198925
 20
26.3542129584
 10
15.0904861759
 20
26.0522640919
 10
15.1950735601
 20
25.7506068471
 10
15.2889373525
 20
25.4495837991
 10
15.372050048
 20
25.1494892737
 10
15.444385732
 20
24.8498527733
 10
15.5058839458
 20
24.5509747274
 10
15.5564720045
 20
24.2532045625
 10
15.5960154137
 20
23.9561785098
 10
15.6243871281
 20
23.6600141519
 10
15.6415214917
 20
23.3652881091
 10
15.6473394438
 20
23.0723468721
  0
LWPOLYLINE
  5
2A8
100
AcDbEntity
  8
ASSI
100
AcDbPolyline
 62
7
  6
CONTINUOUS
 90
28
 70
0
 10
5.5003571337
 20
35.1768205558
 10
2.9430999196
 20
36.217395317
 10
0.4107074673
 20
37.2769782042
 10
-2.0968202233
 20
38.3555692174
 10
-4.5799108586
 20
39.4533626688
 10
-7.0381367321
 20
40.5701642463
 10
-9.4702147246
 20
41.7053910132
 10
-11.8761311854
 20
42.8590525888
 10
-14.2558997651
 20
44.0311393538
 10
-16.608278297
 20
45.2210395148
 10
-18.9332524818
 20
46.4287623712
 10
-21.2308366187
 20
47.6542986235
 10
-23.4998314385
 20
48.8970085789
 10
-25.740222016
 20
50.1569012032
 10
-27.9520232766
 20
51.4339675306
 10
-30.134080727
 20
52.7275409714
 10
-32.2863788393
 20
54.0376301432
 10
-34.4089331416
 20
55.3642264283
 10
-36.500635725
 20
56.7066373838
 10
-38.5614704829
 20
58.0648712659
 10
-40.5914535219
 20
59.4389198184
 10
-42.5895252526
 20
60.8280658296
 10
-44.5556690152
 20
62.2323171814
 10
-46.4899014694
 20
63.6516659919
 10
-48.3912130046
 20
65.0853714043
 10
-50.259267084
 20
66.5331864662
 10
-52.0944002445
 20
67.9953581298
 10
-53.8966124859
 20
69.4718863953
  0
LWPOLYLINE
  5
2A9
100
AcDbEntity
  8
ASSI
100
AcDbPolyline
 62
7
  6
CONTINUOUS
 90
28
 70
0
 10
5.5003571337
 20
36.8097611094
 10
2.9430999196
 20
37.8503358705
 10
0.4107074673
 20
38.9099187578
 10
-2.0968202233
 20
39.988509771
 10
-4.5799108586
 20
41.0863032224
 10
-7.0381367321
 20
42.2031047998
 10
-9.4702147246
 20
43.3383315668
 10
-11.8761311854
 20
44.4919931423
 10
-14.2558997651
 20
45.6640799074
 10
-16.608278297
 20
46.8539800683
 10
-18.9332524818
 20
48.0617029248
 10
-21.2308366187
 20
49.2872391771
 10
-23.4998314385
 20
50.5299491325
 10
-25.740222016
 20
51.7898417568
 10
-27.9520232766
 20
53.0669080842
 10
-30.134080727
 20
54.360481525
 10
-32.2863788393
 20
55.6705706968
 10
-34.4089331416
 20
56.9971669819
 10
-36.500635725
 20
58.3395779374
 10
-38.5614704829
 20
59.6978118195
 10
-40.5914535219
 20
61.071860372
 10
-42.5895252526
 20
62.4610063832
 10
-44.5556690152
 20
63.865257735
 10
-46.4899014694
 20
65.2846065455
 10
-48.3912130046
 20
66.7183119579
 10
-50.259267084
 20
68.1661270197
 10
-52.0944002445
 20
69.6282986834
 10
-54.1445298775
 20
71.3062704171
  0
LWPOLYLINE
  5
2AA
100
AcDbEntity
  8
ASSI
100
AcDbPolyline
 62
7
  6
CONTINUOUS
 90
49
 70
0
 10
5.5003571337
 20
36.8097611094
 10
5.8592383639
 20
36.6608432144
 10
6.2188227497
 20
36.5014306924
 10
6.5787819108
 20
36.3317576724
 10
6.9388683406
 20
36.1521223119
 10
7.2986797279
 20
35.9627281713
 10
7.657659018
 20
35.7636818754
 10
8.0154976905
 20
35.5552711218
 10
8.3718718933
 20
35.3377682446
 10
8.7262056601
 20
35.1112666076
 10
9.0780938576
 20
34.8761496239
 10
9.4273325698
 20
34.6326491749
 10
9.7736425384
 20
34.3806136872
 10
10.1167404477
 20
34.120341299
 10
10.4562997641
 20
33.85214313
 10
10.7919584617
 20
33.5758514383
 10
11.1236638282
 20
33.2915656893
 10
11.4508442722
 20
32.9998030686
 10
11.7723710638
 20
32.7010428471
 10
12.0879632337
 20
32.3956577885
 10
12.3973493782
 20
32.084011884
 10
12.6994658667
 20
31.7666301048
 10
12.9937600347
 20
31.4442726183
 10
13.2803341791
 20
31.1169997345
 10
13.5591007985
 20
30.7842843961
 10
13.8299525405
 20
30.4463359214
 10
14.092487362
 20
30.1037216523
 10
14.3461339541
 20
29.7564286218
 10
14.5908936877
 20
29.4044700688
 10
14.826264211
 20
29.0486399105
 10
15.0509866228
 20
28.6901196981
 10
15.2648685579
 20
28.3293217773
 10
15.4678063792
 20
27.9666992378
 10
15.6588303829
 20
27.603517765
 10
15.8376619149
 20
27.2405964277
 10
16.0045189577
 20
26.8779590491
 10
16.1592523598
 20
26.5156712001
 10
16.3017580883
 20
26.1543028398
 10
16.4321107312
 20
25.7940642528
 10
16.5503742695
 20
25.4344771408
 10
16.6564957965
 20
25.0759463142
 10
16.7504428945
 20
24.7188196634
 10
16.8322054467
 20
24.362552988
 10
16.9017109779
 20
24.0075007499
 10
16.9588746119
 20
23.6540764986
 10
17.0035609817
 20
23.3018639412
 10
17.0356278036
 20
22.9510065775
 10
17.0549896235
 20
22.6021813293
 10
17.0615530061
 20
22.2557976854
  0
LINE
  5
2AB
100
AcDbEntity
  8
0
100
AcDbLine
 62
7
  6
CONTINUOUS
 10
-0.2578163671
 20
37.5645378601
 11
12.6346062546
 21
30.1206146183
  0
LWPOLYLINE
  5
2AC
100
AcDbEntity
  8
ASSI
100
AcDbPolyline
 62
7
  6
CONTINUOUS
 90
15
 70
0
 10
-7.5015474616
 20
-58.4850772299
 10
-7.5266435771
 20
-58.5004140974
 10
-7.5744557993
 20
-58.5348108423
 10
-7.6190353395
 20
-58.5742061705
 10
-7.6604146103
 20
-58.6185499632
 10
-7.6981759261
 20
-58.6673946103
 10
-7.7322826434
 20
-58.7207856972
 10
-7.7627714055
 20
-58.7786776384
 10
-7.7893344563
 20
-58.8404860677
 10
-7.8119320354
 20
-58.906250652
 10
-7.8306039032
 20
-58.9759317245
 10
-7.8451615842
 20
-59.0488259182
 10
-7.8555422532
 20
-59.1246987778
 10
-7.8618087353
 20
-59.2037847586
 10
-7.8639610307
 20
-59.2860838609
  0
LWPOLYLINE
  5
2AD
100
AcDbEntity
  8
ASSI
100
AcDbPolyline
 62
7
  6
CONTINUOUS
 90
15
 70
0
 10
-5.7515008656
 20
-61.5160515685
 10
-5.7264047501
 20
-61.500714701
 10
-5.6785925279
 20
-61.4663179561
 10
-5.6340129877
 20
-61.4269226279
 10
-5.5926337169
 20
-61.3825788352
 10
-5.5548724011
 20
-61.3337341881
 10
-5.5207656838
 20
-61.2803431012
 10
-5.4902769217
 20
-61.22245116
 10
-5.4637138709
 20
-61.1606427307
 10
-5.4411162918
 20
-61.0948781464
 10
-5.422444424
 20
-61.0251970739
 10
-5.407886743
 20
-60.9523028802
 10
-5.3975060741
 20
-60.8764300206
 10
-5.3912395919
 20
-60.7973440397
 10
-5.3890872965
 20
-60.7150449375
  0
LINE
  5
2AE
100
AcDbEntity
  8
0
100
AcDbLine
 62
253
  6
CONTINUOUS
 10
59.8415132679
 20
46.9564105818
 11
59.8415132679
 21
-78.7800120443
  0
LINE
  5
2AF
100
AcDbEntity
  8
0
100
AcDbLine
 62
7
  6
CONTINUOUS
 10
60.7201929244
 20
48.1812343617
 11
60.7201929244
 21
-77.5551882643
  0
LINE
  5
2B0
100
AcDbEntity
  8
0
100
AcDbLine
 62
253
  6
CONTINUOUS
 10
21.2334830151
 20
-68.4117312105
 11
20.9506403027
 21
-68.5750410478
  0
LINE
  5
2B1
100
AcDbEntity
  8
0
100
AcDbLine
 62
253
  6
CONTINUOUS
 10
-8.7478445072
 20
97.1731597329
 11
50.6491251125
 21
62.8780938933
  0
LINE
  5
2B2
100
AcDbEntity
  8
0
100
AcDbLine
 62
253
  6
CONTINUOUS
 10
52.1491251125
 20
63.0267592716
 11
52.1491975929
 21
63.0267174264
  0
LINE
  5
2B3
100
AcDbEntity
  8
0
100
AcDbLine
 62
7
  6
CONTINUOUS
 10
-7.2477720267
 20
97.3217832659
 11
52.1491975929
 21
63.0267174264
  0
LWPOLYLINE
  5
2B4
100
AcDbEntity
  8
0
100
AcDbPolyline
 62
253
  6
CONTINUOUS
 90
49
 70
0
 10
50.6491251125
 20
62.8780938933
 10
50.9498916219
 20
62.698752151
 10
51.250336063
 20
62.5082365935
 10
51.5501367123
 20
62.3067512298
 10
51.8489725358
 20
62.0945118155
 10
52.1465235327
 20
61.8717456218
 10
52.4424710778
 20
61.6386911923
 10
52.7364982632
 20
61.3955980876
 10
53.0282902371
 20
61.1427266178
 10
53.3175345414
 20
60.8803475641
 10
53.603921446
 20
60.6087418885
 10
53.8871442808
 20
60.3282004331
 10
54.1668997635
 20
60.0390236089
 10
54.4428883249
 20
59.7415210735
 10
54.7148144298
 20
59.4360114002
 10
54.9823868926
 20
59.1228217363
 10
55.2453191902
 20
58.8022874532
 10
55.5033297681
 20
58.474751787
 10
55.756142342
 20
58.1405654712
 10
56.003486194
 20
57.8000863607
 10
56.245096462
 20
57.4536790493
 10
56.4807144237
 20
57.1017144784
 10
56.7100877736
 20
56.7445695405
 10
56.9329708928
 20
56.3826266755
 10
57.1491251125
 20
56.0162734608
 10
57.3583189694
 20
55.6459021966
 10
57.5603284536
 20
55.2719094857
 10
57.754937248
 20
54.8946958088
 10
57.9419369609
 20
54.5146650959
 10
58.1211273481
 20
54.1322242934
 10
58.2923165282
 20
53.7477829284
 10
58.4553211875
 20
53.3617526703
 10
58.6099667766
 20
52.9745468901
 10
58.7560876969
 20
52.5865802174
 10
58.8935274787
 20
52.1982680966
 10
59.0221389479
 20
51.8100263421
 10
59.1417843842
 20
51.4222706929
 10
59.2523356682
 20
51.0354163674
 10
59.3536744189
 20
50.6498776188
 10
59.4456921201
 20
50.2660672919
 10
59.5282902371
 20
49.8843963803
 10
59.6013803217
 20
49.5052735867
 10
59.6648841071
 20
49.1291048854
 10
59.718733592
 20
48.7562930871
 10
59.762871113
 20
48.3872374082
 10
59.7972494064
 20
48.0223330427
 10
59.8218316593
 20
47.6619707393
 10
59.8365915482
 20
47.306536383
 10
59.8415132679
 20
46.9564105818
  0
LWPOLYLINE
  5
2B5
100
AcDbEntity
  8
0
100
AcDbPolyline
 62
7
  6
CONTINUOUS
 90
43
 70
0
 10
52.1491975929
 20
63.0267174264
 10
52.4927786509
 20
62.820991552
 10
52.8331578673
 20
62.602541692
 10
53.1701153916
 20
62.3716707077
 10
53.5037706041
 20
62.1284205739
 10
53.8335772972
 20
61.873295865
 10
54.1583249311
 20
61.6074113249
 10
54.4776190745
 20
61.331333137
 10
54.7914651045
 20
61.0452840131
 10
55.0992553953
 20
60.7500452102
 10
55.4005956772
 20
60.4462528832
 10
55.6955150784
 20
60.1341220707
 10
55.984011565
 20
59.8138562724
 10
56.2659187491
 20
59.4858119198
 10
56.5410041696
 20
59.1504192459
 10
56.80912653
 20
58.8079962403
 10
57.070088771
 20
58.458923166
 10
57.3236834619
 20
58.1035946359
 10
57.5697341062
 20
57.7423617108
 10
57.8080044305
 20
57.3756646727
 10
58.0383324652
 20
57.003834333
 10
58.2606348019
 20
56.6270565837
 10
58.4747053918
 20
56.2457036954
 10
58.6803360027
 20
55.8601547805
 10
58.8774173879
 20
55.4705921908
 10
59.065757888
 20
55.0773344226
 10
59.2451168195
 20
54.6808024274
 10
59.4153019852
 20
54.281315787
 10
59.576102221
 20
53.8792320585
 10
59.7272979946
 20
53.4749305514
 10
59.8686880571
 20
53.0687403713
 10
60.0000515403
 20
52.6610409583
 10
60.1211767033
 20
52.2521824322
 10
60.2318750976
 20
51.8424141699
 10
60.3319484073
 20
51.4319688789
 10
60.4211300955
 20
51.0213339285
 10
60.499147312
 20
50.6110906114
 10
60.5657935509
 20
50.2015123373
 10
60.6208295561
 20
49.793029924
 10
60.6639902858
 20
49.386390867
 10
60.6950695432
 20
48.9820465149
 10
60.7138754467
 20
48.5802083146
 10
60.7201929244
 20
48.1812343617
  0
LWPOLYLINE
  5
2B6
100
AcDbEntity
  8
0
100
AcDbPolyline
 62
7
  6
CONTINUOUS
 90
16
 70
0
 10
59.8415132679
 20
-78.7800120443
 10
59.9500637089
 20
-78.7139028416
 10
60.0519739221
 20
-78.6450080863
 10
60.1472439075
 20
-78.5733277783
 10
60.2360979823
 20
-78.4986505637
 10
60.3183118292
 20
-78.4211877964
 10
60.3932124969
 20
-78.3415735385
 10
60.4607399605
 20
-78.2597901311
 10
60.5209542449
 20
-78.175855233
 10
60.5733624733
 20
-78.0904558833
 10
60.6179005754
 20
-78.003580062
 10
60.6546326216
 20
-77.9152397891
 10
60.6832579462
 20
-77.8261581629
 10
60.703710011
 20
-77.7363290988
 10
60.7160553541
 20
-77.6457586816
 10
60.7201929244
 20
-77.5551882643
  0
LINE
  5
2B7
100
AcDbEntity
  8
0
100
AcDbLine
 62
7
  6
CONTINUOUS
 10
59.8415132679
 20
-78.7800120443
 11
26.1832304835
 21
-98.2138826867
  0
ENDSEC
  0
SECTION
  2
OBJECTS
  0
DICTIONARY
  5
C
100
AcDbDictionary
280
0
281
1
  3
ACAD_GROUP
350
D
  3
ACAD_MLINESTYLE
350
17
  3
ACAD_LAYOUT
350
1A
  3
ACAD_PLOTSETTINGS
350
19
  3
ACAD_PLOTSTYLENAME
350
E
  0
DICTIONARY
  5
D
102
{ACAD_REACTORS
330
C
102
}
100
AcDbDictionary
280
0
281
1
  0
ACDBDICTIONARYWDFLT
  5
E
102
{ACAD_REACTORS
330
C
102
}
100
AcDbDictionary
281
1
  3
Normal
350
F
100
AcDbDictionaryWithDefault
340
F
  0
DICTIONARY
  5
17
102
{ACAD_REACTORS
330
C
102
}
100
AcDbDictionary
280
0
281
1
  3
Standard
350
18
  0
DICTIONARY
  5
19
102
{ACAD_REACTORS
330
C
102
}
100
AcDbDictionary
281
1
  0
DICTIONARY
  5
1A
102
{ACAD_REACTORS
330
C
102
}
100
AcDbDictionary
281
1
  3
Model
350
2B8
  3
Layout1
350
2B9
  0
ACDBPLACEHOLDER
  5
F
102
{ACAD_REACTORS
330
E
102
}
  0
MLINESTYLE
  5
18
102
{ACAD_REACTORS
330
17
102
}
100
AcDbMlineStyle
  2
STANDARD
 70
0
  3

 62
256
 51
90.0
 52
90.0
 71
2
 49
0.5
 62
256
  6
BYLAYER
 49
-0.5
 62
256
  6
BYLAYER
  0
LAYOUT
  5
2B8
102
{ACAD_REACTORS
330
1A
102
}
100
AcDbPlotSettings
  1

  2
none_device
  4
ISO_A4_(297.00_x_210.00_MM)
  6

 40
0.0
 41
0.0
 42
0.0
 43
0.0
 44
297.0
 45
210.0
 46
0.0
 47
0.0
 48
0.0
 49
0.0
140
0.0
141
0.0
142
1.0
143
1.0
 70
1024
 72
1
 73
0
 74
0
  7

 75
0
147
1.0
148
0.0
149
0.0
100
AcDbLayout
  1
Model
 70
0
 71
0
 10
0.0
 20
0.0
 11
297.0
 21
210.0
 12
0.0
 22
0.0
 32
0.0
 14
0.0
 24
0.0
 34
0.0
 15
0.0
 25
0.0
 35
0.0
146
0.0
 13
0.0
 23
0.0
 33
0.0
 16
1.0
 26
0.0
 36
0.0
 17
0.0
 27
1.0
 37
0.0
 76
0
330
20F
345
0
346
0
  0
LAYOUT
  5
2B9
102
{ACAD_REACTORS
330
1A
102
}
100
AcDbPlotSettings
  1

  2
none_device
  4
ISO_A4_(297.00_x_210.00_MM)
  6

 40
0.0
 41
0.0
 42
0.0
 43
0.0
 44
297.0
 45
210.0
 46
0.0
 47
0.0
 48
0.0
 49
0.0
140
0.0
141
0.0
142
1.0
143
1.0
 70
0
 72
1
 73
0
 74
0
  7

 75
0
147
1.0
148
0.0
149
0.0
100
AcDbLayout
  1
Layout1
 70
0
 71
1
 10
0.0
 20
0.0
 11
297.0
 21
210.0
 12
0.0
 22
0.0
 32
0.0
 14
0.0
 24
0.0
 34
0.0
 15
0.0
 25
0.0
 35
0.0
146
0.0
 13
0.0
 23
0.0
 33
0.0
 16
1.0
 26
0.0
 36
0.0
 17
0.0
 27
1.0
 37
0.0
 76
0
330
210
345
0
346
0
  0
ENDSEC
  0
EOF
