  0
SECTION
  2
HEADER
  9
$ACADVER
  1
AC1021
  9
$DWGCODEPAGE
  3
ANSI_1252
  9
$EXTMAX
 10
297.0
 20
210.0
 30
0.0
  9
$EXTMIN
 10
0.0
 20
0.0
 30
0.0
  9
$LIMMIN
 10
0.0
 20
0.0
  9
$LIMMAX
 10
297.0
 20
210.0
  9
$VIEWCTR
 10
148.5
 20
105.0
  9
$VIEWSIZE
 40
210.0
  9
$CLAYER
  8
0
  9
$LTSCALE
 40
16.335
  9
$CELTYPE
  6
BYLAYER
  9
$DIMSCALE
 40
1.0
  9
$DIMASZ
 40
3.0
  9
$DIMEXO
 40
0.5
  9
$DIMDLI
 40
11.286
  9
$DIMEXE
 40
1.5
  9
$DIMCEN
 40
2.673
  9
$DIMLFAC
 40
1.0
  9
$DIMBLK
  1
_FILLED
  9
$DIMALT
 70
0
  9
$DIMALTF
 40
0.0393700787
  9
$DIMTXT
 40
3.0
  9
$DIMTOL
 70
1
  9
$DIMLIM
 70
0
  9
$DIMTFAC
 40
1.0
  9
$DIMTP
 40
0.01
  9
$DIMTM
 40
0.01
  9
$DIMGAP
 40
0.625
  9
$DIMDSEP
 70
44
  9
$AUNITS
 70
0
  9
$PDMODE
 70
3
  9
$PDSIZE
 40
3.0
  9
$HANDSEED
  5
2CB
  9
$TILEMODE
 70
1
  9
$MEASUREMENT
 70
1
  9
$INSUNITS
 70
4
  0
ENDSEC
  0
SECTION
  2
CLASSES
  0
CLASS
  1
ACDBDICTIONARYWDFLT
  2
AcDbDictionaryWithDefault
  3
AutoCAD 2000
 90
0
 91
1
280
0
281
0
  0
CLASS
  1
ACDBPLACEHOLDER
  2
AcDbPlaceHolder
  3
AutoCAD 2000
 90
0
 91
1
280
0
281
0
  0
CLASS
  1
LAYOUT
  2
AcDbLayout
  3
AutoCAD 2000
 90
0
 91
0
280
0
281
0
  0
ENDSEC
  0
SECTION
  2
TABLES
  0
TABLE
  2
VPORT
  5
8
100
AcDbSymbolTable
 70
2
  0
VPORT
  5
1F4
100
AcDbSymbolTableRecord
100
AcDbViewportTableRecord
  2
*ACTIVE
 70
0
 10
0.0
 20
0.0
 11
1.0
 21
1.0
 12
148.5
 22
105.0
 13
0.0
 23
0.0
 14
1.0
 24
1.0
 15
0.0
 25
0.0
 16
0.0
 26
0.0
 36
1.0
 17
0.0
 27
0.0
 37
0.0
 40
210.0
 41
1.4142857143
 42
50.0
 43
0.0
 44
0.0
 50
0.0
 51
0.0
 71
0
 72
100
 73
1
 74
1
 75
0
 76
0
 77
0
 78
0
  0
ENDTAB
  0
TABLE
  2
LTYPE
  5
5
100
AcDbSymbolTable
 70
6
  0
LTYPE
  5
14
100
AcDbSymbolTableRecord
100
AcDbLinetypeTableRecord
  2
BYBLOCK
 70
0
  3

 72
65
 73
0
 40
0.0
  0
LTYPE
  5
15
100
AcDbSymbolTableRecord
100
AcDbLinetypeTableRecord
  2
BYLAYER
 70
0
  3

 72
65
 73
0
 40
0.0
  0
LTYPE
  5
16
100
AcDbSymbolTableRecord
100
AcDbLinetypeTableRecord
  2
CONTINUOUS
 70
64
  3
Solid line
 72
65
 73
0
 40
0.0
  0
LTYPE
  5
1F5
100
AcDbSymbolTableRecord
100
AcDbLinetypeTableRecord
  2
CENTER
 70
64
  3
____ _ ____ _ ____ _ ____ _ ____ _ ____ _ ____
 72
65
 73
4
 40
0.6
 49
0.375
 74
0
 49
-0.075
 74
0
 49
0.075
 74
0
 49
-0.075
 74
0
  0
LTYPE
  5
1F6
100
AcDbSymbolTableRecord
100
AcDbLinetypeTableRecord
  2
HIDDEN
 70
64
  3
- - - - - - - - - - - - - - - - - - - -
 72
65
 73
2
 40
0.2
 49
0.1
 74
0
 49
-0.1
 74
0
  0
LTYPE
  5
1F7
100
AcDbSymbolTableRecord
100
AcDbLinetypeTableRecord
  2
PHANTOM
 70
64
  3
_____ _ _ _____ _ _ _____ _ _ _____
 72
65
 73
6
 40
0.8
 49
0.45
 74
0
 49
-0.05
 74
0
 49
0.1
 74
0
 49
-0.05
 74
0
 49
0.1
 74
0
 49
-0.05
 74
0
  0
LTYPE
  5
1F8
100
AcDbSymbolTableRecord
100
AcDbLinetypeTableRecord
  2
DOT
 70
64
  3
. . . . . . . . . . . . . . . . . . . .
 72
65
 73
2
 40
0.2
 49
0.1
 74
0
 49
-0.1
 74
0
  0
LTYPE
  5
1F9
100
AcDbSymbolTableRecord
100
AcDbLinetypeTableRecord
  2
DASHED
 70
64
  3
- - - - - - - - - - - - - - - - - - - -
 72
65
 73
2
 40
0.2
 49
0.1
 74
0
 49
-0.1
 74
0
  0
ENDTAB
  0
TABLE
  2
LAYER
  5
2
100
AcDbSymbolTable
 70
36
  0
LAYER
  5
10
100
AcDbSymbolTableRecord
100
AcDbLayerTableRecord
  2
0
 70
0
 62
7
  6
CONTINUOUS
370
-3
390
F
  0
LAYER
  5
1FA
100
AcDbSymbolTableRecord
100
AcDbLayerTableRecord
  2
DEFAULT_1
 70
0
 62
7
  6
CENTER
370
-3
390
F
  0
LAYER
  5
1FB
100
AcDbSymbolTableRecord
100
AcDbLayerTableRecord
  2
DEFAULT_2
 70
0
 62
7
  6
HIDDEN
370
-3
390
F
  0
LAYER
  5
1FC
100
AcDbSymbolTableRecord
100
AcDbLayerTableRecord
  2
DEFAULT_3
 70
0
 62
7
  6
PHANTOM
370
-3
390
F
  0
LAYER
  5
1FD
100
AcDbSymbolTableRecord
100
AcDbLayerTableRecord
  2
ASSI
 70
0
 62
7
  6
CONTINUOUS
370
-3
390
F
  0
LAYER
  5
1FE
100
AcDbSymbolTableRecord
100
AcDbLayerTableRecord
  2
COORDINATE
 70
0
 62
7
  6
CONTINUOUS
370
-3
390
F
  0
LAYER
  5
1FF
100
AcDbSymbolTableRecord
100
AcDbLayerTableRecord
  2
COPY_PUBLISH
 70
0
 62
7
  6
CONTINUOUS
370
-3
390
F
  0
LAYER
  5
200
100
AcDbSymbolTableRecord
100
AcDbLayerTableRecord
  2
COSMETICI
 70
0
 62
7
  6
CONTINUOUS
370
-3
390
F
  0
LAYER
  5
201
100
AcDbSymbolTableRecord
100
AcDbLayerTableRecord
  2
CURVE
 70
0
 62
7
  6
CONTINUOUS
370
-3
390
F
  0
LAYER
  5
202
100
AcDbSymbolTableRecord
100
AcDbLayerTableRecord
  2
DRAFT
 70
0
 62
7
  6
CONTINUOUS
370
-3
390
F
  0
LAYER
  5
203
100
AcDbSymbolTableRecord
100
AcDbLayerTableRecord
  2
IMPORT_IGES
 70
0
 62
7
  6
CONTINUOUS
370
-3
390
F
  0
LAYER
  5
204
100
AcDbSymbolTableRecord
100
AcDbLayerTableRecord
  2
NOTE
 70
0
 62
7
  6
CONTINUOUS
370
-3
390
F
  0
LAYER
  5
205
100
AcDbSymbolTableRecord
100
AcDbLayerTableRecord
  2
PIANI
 70
0
 62
7
  6
CONTINUOUS
370
-3
390
F
  0
LAYER
  5
206
100
AcDbSymbolTableRecord
100
AcDbLayerTableRecord
  2
PUNTI
 70
0
 62
7
  6
CONTINUOUS
370
-3
390
F
  0
LAYER
  5
207
100
AcDbSymbolTableRecord
100
AcDbLayerTableRecord
  2
RACCORDO
 70
0
 62
7
  6
CONTINUOUS
370
-3
390
F
  0
LAYER
  5
208
100
AcDbSymbolTableRecord
100
AcDbLayerTableRecord
  2
SIMBOLI
 70
0
 62
7
  6
CONTINUOUS
370
-3
390
F
  0
LAYER
  5
209
100
AcDbSymbolTableRecord
100
AcDbLayerTableRecord
  2
SMUSSO
 70
0
 62
7
  6
CONTINUOUS
370
-3
390
F
  0
LAYER
  5
20A
100
AcDbSymbolTableRecord
100
AcDbLayerTableRecord
  2
SNAPLINE
 70
0
 62
7
  6
CONTINUOUS
370
-3
390
F
  0
LAYER
  5
20B
100
AcDbSymbolTableRecord
100
AcDbLayerTableRecord
  2
SUPERFICI
 70
0
 62
7
  6
CONTINUOUS
370
-3
390
F
  0
LAYER
  5
20C
100
AcDbSymbolTableRecord
100
AcDbLayerTableRecord
  2
TRASH
 70
0
 62
7
  6
CONTINUOUS
370
-3
390
F
  0
ENDTAB
  0
TABLE
  2
STYLE
  5
3
100
AcDbSymbolTable
 70
1
  0
STYLE
  5
11
100
AcDbSymbolTableRecord
100
AcDbTextStyleTableRecord
  2
STANDARD
 70
0
 40
0.0
 41
0.8
 50
0.0
 71
0
 42
0.2
  3
txt
  4

  0
STYLE
  5
20D
100
AcDbSymbolTableRecord
100
AcDbTextStyleTableRecord
  2
TEXTSTYLE_1
 70
0
 40
0.0
 41
0.8
 50
0.0
 71
0
 42
0.2
  3
gdt
  4

  0
ENDTAB
  0
TABLE
  2
VIEW
  5
6
100
AcDbSymbolTable
 70
0
  0
ENDTAB
  0
TABLE
  2
UCS
  5
7
100
AcDbSymbolTable
 70
0
  0
ENDTAB
  0
TABLE
  2
APPID
  5
9
100
AcDbSymbolTable
 70
1
  0
APPID
  5
20E
100
AcDbSymbolTableRecord
100
AcDbRegAppTableRecord
  2
ACAD
 70
0
  0
ENDTAB
  0
TABLE
  2
BLOCK_RECORD
  5
1
100
AcDbSymbolTable
 70
0
  0
BLOCK_RECORD
  5
20F
100
AcDbSymbolTableRecord
100
AcDbBlockTableRecord
  2
*Model_Space
  0
BLOCK_RECORD
  5
210
100
AcDbSymbolTableRecord
100
AcDbBlockTableRecord
  2
*Paper_Space
  0
ENDTAB
  0
TABLE
  2
DIMSTYLE
  5
A
100
AcDbSymbolTable
 70
1
100
AcDbDimStyleTable
 71
0
  0
DIMSTYLE
105
211
100
AcDbSymbolTableRecord
100
AcDbDimStyleTableRecord
  2
STANDARD
 70
0
  3

  4

 40
1.0
 41
3.0
 42
0.5
 43
0.38
 44
1.5
 45
0.0
 46
0.0
 47
0.01
 48
0.01
140
3.0
141
0.09
142
0.0
143
25.4
144
1.0
145
0.0
146
1.0
147
0.625
 71
1.0
 72
0.0
 73
0
 74
0
 75
0
 76
0
 77
1
 78
8
170
0
171
2
172
0
173
0
174
0
175
0
176
0
177
0
178
0
270
2
271
2
272
2
273
2
274
2
275
0
280
0
281
0
282
0
283
1
284
8
285
0
286
0
287
3
288
0
340
11
278
44
  0
ENDTAB
  0
ENDSEC
  0
SECTION
  2
BLOCKS
  0
BLOCK
  5
20
100
AcDbEntity
  8
0
100
AcDbBlockBegin
  2
*Model_Space
 70
0
 10
0.0
 20
0.0
 30
0.0
  3
*Model_Space
  1

  0
ENDBLK
  5
21
100
AcDbEntity
  8
0
100
AcDbBlockEnd
  0
BLOCK
  5
1C
100
AcDbEntity
  8
0
100
AcDbBlockBegin
  2
*Paper_Space
 70
0
 10
0.0
 20
0.0
 30
0.0
  3
*Paper_Space
  1

  0
ENDBLK
  5
1D
100
AcDbEntity
  8
0
100
AcDbBlockEnd
  0
ENDSEC
  0
SECTION
  2
ENTITIES
  0
LWPOLYLINE
  5
212
100
AcDbEntity
  8
0
100
AcDbPolyline
 62
253
  6
CONTINUOUS
 90
26
 70
0
 10
-15.1431561185
 20
144.7022364373
 10
-14.9368945341
 20
144.8070694761
 10
-14.7247586356
 20
144.9010703219
 10
-14.5069496467
 20
144.9841498093
 10
-14.2836741726
 20
145.0562291323
 10
-14.0551440034
 20
145.1172399194
 10
-13.821575914
 20
145.1671242981
 10
-13.5831914577
 20
145.20583495
 10
-13.3402167568
 20
145.2333351558
 10
-13.0928822873
 20
145.2495988298
 10
-12.8414226611
 20
145.254610545
 10
-12.5860764029
 20
145.2483655474
 10
-12.3270857239
 20
145.2308697609
 10
-12.0646962926
 20
145.2021397811
 10
-11.7991570012
 20
145.1622028604
 10
-11.5307197299
 20
145.1110968811
 10
-11.2596391076
 20
145.0488703205
 10
-10.9861722707
 20
144.9755822042
 10
-10.7105786192
 20
144.8913020505
 10
-10.4331195702
 20
144.7961098041
 10
-10.1540583105
 20
144.6900957607
 10
-9.8736595466
 20
144.573360481
 10
-9.5921892537
 20
144.4460146955
 10
-9.3099144235
 20
144.3081791993
 10
-9.0271028106
 20
144.1599847379
 10
-8.7440226791
 20
144.0015718827
  0
LINE
  5
213
100
AcDbEntity
  8
0
100
AcDbLine
 62
7
  6
CONTINUOUS
 10
-58.869755667
 20
119.4568370711
 11
-15.2443367609
 21
144.6456071925
  0
LINE
  5
214
100
AcDbEntity
  8
ASSI
100
AcDbLine
 62
253
  6
CONTINUOUS
 10
-53.8927906578
 20
117.9332390987
 11
-8.7440226791
 21
144.0015718827
  0
LINE
  5
215
100
AcDbEntity
  8
ASSI
100
AcDbLine
 62
253
  6
CONTINUOUS
 10
-59.3021575339
 20
113.1778659146
 11
-53.8931665286
 21
116.3009495305
  0
LWPOLYLINE
  5
216
100
AcDbEntity
  8
ASSI
100
AcDbPolyline
 62
7
  6
CONTINUOUS
 90
26
 70
0
 10
-58.8697935
 20
119.4568152267
 10
-58.8505771406
 20
119.467780908
 10
-58.7035586652
 20
119.5434468643
 10
-58.5510370763
 20
119.6076625727
 10
-58.3932643878
 20
119.660220375
 10
-58.2302337534
 20
119.7011384073
 10
-58.0621471982
 20
119.7303091467
 10
-57.8892194373
 20
119.7476361597
 10
-57.7115083542
 20
119.7532448826
 10
-57.5293295911
 20
119.7471085949
 10
-57.3428569948
 20
119.7292064092
 10
-57.1519578242
 20
119.6997232564
 10
-56.9568509052
 20
119.6586528095
 10
-56.7578223329
 20
119.605998399
 10
-56.5548461373
 20
119.5419776664
 10
-56.3481360515
 20
119.4666181656
 10
-56.1380079483
 20
119.3799698144
 10
-55.9246019069
 20
119.2823330521
 10
-55.7082529521
 20
119.1738485836
 10
-55.4891823743
 20
119.0545824309
 10
-55.2673657079
 20
118.9247558061
 10
-55.0430144995
 20
118.7844622075
 10
-54.8164715893
 20
118.6338479006
 10
-54.5879100034
 20
118.4732333532
 10
-54.3575735924
 20
118.3028417487
 10
-54.1257750643
 20
118.1227838643
  0
LWPOLYLINE
  5
217
100
AcDbEntity
  8
ASSI
100
AcDbPolyline
 62
7
  6
CONTINUOUS
 90
27
 70
0
 10
-57.8697454405
 20
117.7247921672
 10
-57.8546926564
 20
117.7333737913
 10
-57.7394213858
 20
117.7921278739
 10
-57.6196670985
 20
117.8410931293
 10
-57.4956369052
 20
117.8800973871
 10
-57.3672597161
 20
117.9091936948
 10
-57.2347071073
 20
117.9282907067
 10
-57.0981601289
 20
117.9373071901
 10
-56.9576005661
 20
117.93638808
 10
-56.8132905354
 20
117.9255136335
 10
-56.6653821031
 20
117.9046633098
 10
-56.5137106533
 20
117.8740237844
 10
-56.3584611616
 20
117.8335898103
 10
-56.1998758933
 20
117.7833640989
 10
-56.0378811309
 20
117.7235606841
 10
-55.8726575858
 20
117.6542029614
 10
-55.7044726746
 20
117.5753330882
 10
-55.5333936038
 20
117.4872349153
 10
-55.3596984924
 20
117.3900305974
 10
-55.1835799494
 20
117.2837729025
 10
-55.0049820404
 20
117.1686693531
 10
-54.8240833866
 20
117.0447992824
 10
-54.6411744634
 20
116.9122862344
 10
-54.4563675834
 20
116.7714210593
 10
-54.2698577173
 20
116.6223991665
 10
-54.0819208286
 20
116.4653077289
 10
-53.8927906578
 20
116.3002985451
  0
LINE
  5
218
100
AcDbEntity
  8
0
100
AcDbLine
 62
253
  6
CONTINUOUS
 10
-15.2443367609
 20
144.6456071925
 11
-15.1431561185
 21
144.7022364373
  0
LWPOLYLINE
  5
219
100
AcDbEntity
  8
0
100
AcDbPolyline
 62
7
  6
CONTINUOUS
 90
31
 70
0
 10
-15.2443367609
 20
144.6456071925
 10
-15.0338442926
 20
144.7618719682
 10
-14.818357541
 20
144.8704226382
 10
-14.5980741437
 20
144.9710732167
 10
-14.3733589396
 20
145.0635871782
 10
-14.1442721652
 20
145.1478755122
 10
-13.9105373257
 20
145.2239394387
 10
-13.672337485
 20
145.2915923715
 10
-13.4298935937
 20
145.3506498783
 10
-13.1829400642
 20
145.401033056
 10
-12.931630761
 20
145.4425416938
 10
-12.6761979624
 20
145.47497294
 10
-12.4164494054
 20
145.4981710246
 10
-12.1524936603
 20
145.5119235819
 10
-11.8845877399
 20
145.5160173049
 10
-11.6127210712
 20
145.5102482763
 10
-11.3369948958
 20
145.4944016307
 10
-11.0576525575
 20
145.4682750205
 10
-10.7748593569
 20
145.4316713208
 10
-10.4885204745
 20
145.3843508261
 10
-10.1990529159
 20
145.3261532486
 10
-9.907360502
 20
145.2570823646
 10
-9.6135180477
 20
145.1770103315
 10
-9.3177554347
 20
145.085849998
 10
-9.0211868483
 20
144.9838459909
 10
-8.7239243901
 20
144.8709824283
 10
-8.4261380439
 20
144.7472628002
 10
-8.1290130627
 20
144.6131691832
 10
-7.8330290325
 20
144.4689749119
 10
-7.5379658287
 20
144.3146212712
 10
-7.2439501987
 20
144.1501954157
  0
LWPOLYLINE
  5
21A
100
AcDbEntity
  8
0
100
AcDbPolyline
 62
253
  6
CONTINUOUS
 90
18
 70
0
 10
-8.7440226791
 20
144.0015718827
 10
-8.6430861931
 20
144.057076993
 10
-8.5423783606
 20
144.106907663
 10
-8.4421273175
 20
144.1509510103
 10
-8.3425601644
 20
144.1891072625
 10
-8.243902453
 20
144.2212899834
 10
-8.1463776748
 20
144.2474262687
 10
-8.0502067548
 20
144.2674569115
 10
-7.9556075509
 20
144.2813365358
 10
-7.862794361
 20
144.2890336999
 10
-7.7719774366
 20
144.2905309671
 10
-7.6833625073
 20
144.2858249457
 10
-7.5971503145
 20
144.2749262964
 10
-7.5135361564
 20
144.257859708
 10
-7.4327094461
 20
144.2346638419
 10
-7.354853282
 20
144.2053912443
 10
-7.2801440334
 20
144.1701082269
 10
-7.2439501987
 20
144.1501954157
  0
LWPOLYLINE
  5
21B
100
AcDbEntity
  8
0
100
AcDbPolyline
 62
7
  6
CONTINUOUS
 90
9
 70
0
 10
21.2373048432
 20
-115.490795673
 10
21.2344852954
 20
-115.490685826
 10
21.1963068934
 20
-115.4861685985
 10
21.1573037408
 20
-115.4785587219
 10
21.1174841069
 20
-115.4678872051
 10
21.0772499347
 20
-115.4542617672
 10
21.0367352051
 20
-115.4377183146
 10
20.9958059371
 20
-115.4182209409
 10
20.9544621308
 20
-115.3957696462
  0
LWPOLYLINE
  5
21C
100
AcDbEntity
  8
0
100
AcDbPolyline
 62
7
  6
CONTINUOUS
 90
22
 70
0
 10
23.6869315109
 20
-145.2823171734
 10
23.7822403436
 20
-145.3332862726
 10
23.8809215924
 20
-145.3781352008
 10
23.9826829771
 20
-145.4167459621
 10
24.0875374092
 20
-145.4490924069
 10
24.1954719773
 20
-145.4752006847
 10
24.306034866
 20
-145.494961506
 10
24.4192370929
 20
-145.5083482632
 10
24.5350676404
 20
-145.515387564
 10
24.6530416407
 20
-145.5160499416
 10
24.7731680786
 20
-145.510308665
 10
24.8954379693
 20
-145.4981904653
 10
25.0193394896
 20
-145.4797460694
 10
25.144879479
 20
-145.4549489588
 10
25.272051098
 20
-145.4238256521
 10
25.4003220048
 20
-145.3865064317
 10
25.5296968074
 20
-145.3429653253
 10
25.6601708978
 20
-145.2932283052
 10
25.79119811
 20
-145.2375035712
 10
25.9225963887
 20
-145.1758605231
 10
26.0545477892
 20
-145.108229761
 10
26.1870523115
 20
-145.0346112851
  0
LWPOLYLINE
  5
21D
100
AcDbEntity
  8
0
100
AcDbPolyline
 62
7
  6
CONTINUOUS
 90
22
 70
0
 10
-52.6806008573
 20
-101.188661094
 10
-52.5852920246
 20
-101.2396301932
 10
-52.4866107758
 20
-101.2844791214
 10
-52.3848493911
 20
-101.3230898827
 10
-52.2799949589
 20
-101.3554363275
 10
-52.1720603909
 20
-101.3815446053
 10
-52.0614975022
 20
-101.4013054266
 10
-51.9482952753
 20
-101.4146921838
 10
-51.8324647277
 20
-101.4217314846
 10
-51.7144907275
 20
-101.4223938622
 10
-51.5943642895
 20
-101.4166525856
 10
-51.4720943988
 20
-101.4045343859
 10
-51.3481928786
 20
-101.38608999
 10
-51.2226528892
 20
-101.3612928795
 10
-51.0954812702
 20
-101.3301695727
 10
-50.9672103634
 20
-101.2928503524
 10
-50.8378355608
 20
-101.2493092459
 10
-50.7073614704
 20
-101.1995722258
 10
-50.5763342581
 20
-101.1438474918
 10
-50.4449359794
 20
-101.0822044437
 10
-50.3129845789
 20
-101.0145736816
 10
-50.1804800566
 20
-100.9409552057
  0
LINE
  5
21E
100
AcDbEntity
  8
0
100
AcDbLine
 62
7
  6
CONTINUOUS
 10
-52.6806008573
 20
-101.1886610941
 11
-54.0948144197
 21
-100.3721119074
  0
LINE
  5
21F
100
AcDbEntity
  8
0
100
AcDbLine
 62
7
  6
CONTINUOUS
 10
22.2727179485
 20
-144.4657679868
 11
23.6869315108
 21
-145.2823171735
  0
LINE
  5
220
100
AcDbEntity
  8
0
100
AcDbLine
 62
253
  6
CONTINUOUS
 10
-53.7160139625
 20
-98.8999767883
 11
-55.1302275249
 21
-98.0834276017
  0
LINE
  5
221
100
AcDbEntity
  8
0
100
AcDbLine
 62
253
  6
CONTINUOUS
 10
21.2373048432
 20
-142.1770836811
 11
22.6515184056
 21
-142.9936328677
  0
LINE
  5
222
100
AcDbEntity
  8
0
100
AcDbLine
 62
7
  6
CONTINUOUS
 10
-44.0993617384
 20
-97.429793703
 11
21.2373048432
 21
-135.1543661265
  0
LWPOLYLINE
  5
223
100
AcDbEntity
  8
0
100
AcDbPolyline
 62
7
  6
CONTINUOUS
 90
22
 70
0
 10
-54.0948144197
 20
-100.3721119074
 10
-54.1863737912
 20
-100.315206501
 10
-54.2745607467
 20
-100.2521809237
 10
-54.358885334
 20
-100.1833687433
 10
-54.4393313624
 20
-100.1087457032
 10
-54.5159150225
 20
-100.02833606
 10
-54.5883157343
 20
-99.9424764094
 10
-54.6565159635
 20
-99.8511439057
 10
-54.7205332442
 20
-99.7543613946
 10
-54.7800995996
 20
-99.6525340086
 10
-54.835196372
 20
-99.5456406005
 10
-54.885842219
 20
-99.4337023176
 10
-54.9318251365
 20
-99.3171877349
 10
-54.9731255783
 20
-99.196077669
 10
-55.0097630905
 20
-99.0703913032
 10
-55.0415843083
 20
-98.9406547621
 10
-55.0685690424
 20
-98.8068510678
 10
-55.090737482
 20
-98.6689971981
 10
-55.1079968298
 20
-98.5276702109
 10
-55.1203161533
 20
-98.3830624587
 10
-55.127726385
 20
-98.234981589
 10
-55.1302275249
 20
-98.0834276017
  0
LWPOLYLINE
  5
224
100
AcDbEntity
  8
0
100
AcDbPolyline
 62
7
  6
CONTINUOUS
 90
22
 70
0
 10
22.2727179485
 20
-144.4657679868
 10
22.1811585769
 20
-144.4088625804
 10
22.0929716214
 20
-144.3458370031
 10
22.0086470342
 20
-144.2770248227
 10
21.9282010057
 20
-144.2024017826
 10
21.8516173456
 20
-144.1219921394
 10
21.7792166338
 20
-144.0361324888
 10
21.7110164047
 20
-143.9447999851
 10
21.6469991239
 20
-143.848017474
 10
21.5874327685
 20
-143.746190088
 10
21.5323359961
 20
-143.6392966799
 10
21.4816901491
 20
-143.527358397
 10
21.4357072316
 20
-143.4108438143
 10
21.3944067899
 20
-143.2897337484
 10
21.3577692776
 20
-143.1640473826
 10
21.3259480598
 20
-143.0343108415
 10
21.2989633257
 20
-142.9005071472
 10
21.2767948861
 20
-142.7626532775
 10
21.2595355383
 20
-142.6213262903
 10
21.2472162148
 20
-142.4767185381
 10
21.2398059831
 20
-142.3286376684
 10
21.2373048432
 20
-142.1770836811
  0
LINE
  5
225
100
AcDbEntity
  8
0
100
AcDbLine
 62
7
  6
CONTINUOUS
 10
-33.4927600206
 20
96.5641358869
 11
-29.2326841258
 21
99.0238503173
  0
LINE
  5
226
100
AcDbEntity
  8
0
100
AcDbLine
 62
7
  6
CONTINUOUS
 10
-33.4927600206
 20
94.9310375136
 11
-27.8356396556
 21
98.197387912
  0
LWPOLYLINE
  5
227
100
AcDbEntity
  8
RACCORDO
100
AcDbPolyline
 62
7
  6
CONTINUOUS
 90
6
 70
0
 10
-38.8485880022
 20
-87.7234516441
 10
-38.8896280443
 20
-87.7017659705
 10
-38.9238168756
 20
-87.6871243584
 10
-38.9499321919
 20
-87.6785750565
 10
-38.9669931203
 20
-87.674728038
 10
-38.9719689471
 20
-87.6740112649
  0
LWPOLYLINE
  5
228
100
AcDbEntity
  8
RACCORDO
100
AcDbPolyline
 62
253
  6
CONTINUOUS
 90
25
 70
0
 10
-38.9728375748
 20
-89.6532792747
 10
-39.1006417303
 20
-89.5687967326
 10
-39.2223089075
 20
-89.470628819
 10
-39.3378391063
 20
-89.3587755338
 10
-39.4489908034
 20
-89.2308769323
 10
-39.5540055221
 20
-89.0892929592
 10
-39.6476078328
 20
-88.941103449
 10
-39.7292088353
 20
-88.7859754604
 10
-39.7993974298
 20
-88.6242419346
 10
-39.854664887
 20
-88.4639815303
 10
-39.8942520636
 20
-88.3052708163
 10
-39.9189181029
 20
-88.1480332236
 10
-39.927431706
 20
-88.0001177043
 10
-39.9189728817
 20
-87.8619974448
 10
-39.8943616212
 20
-87.7331992586
 10
-39.8548265991
 20
-87.6201525379
 10
-39.7996104237
 20
-87.5236569774
 10
-39.7294704866
 20
-87.4429128822
 10
-39.6479076373
 20
-87.3819505609
 10
-39.5543411775
 20
-87.3417743743
 10
-39.4493518054
 20
-87.3213799615
 10
-39.3381824647
 20
-87.3217845478
 10
-39.2225808033
 20
-87.3433272085
 10
-39.1007991733
 20
-87.3856688683
 10
-38.9728375748
 20
-87.4488095274
  0
LWPOLYLINE
  5
229
100
AcDbEntity
  8
RACCORDO
100
AcDbPolyline
 62
253
  6
CONTINUOUS
 90
25
 70
0
 10
-38.9728375748
 20
-87.4488095274
 10
-38.8450334193
 20
-87.5332920694
 10
-38.7233662421
 20
-87.6314599831
 10
-38.6078360433
 20
-87.7433132683
 10
-38.4966843463
 20
-87.8712118698
 10
-38.3916696275
 20
-88.0127958429
 10
-38.2980673168
 20
-88.1609853531
 10
-38.2164663143
 20
-88.3161133417
 10
-38.1462777198
 20
-88.4778468674
 10
-38.0910102626
 20
-88.6381072718
 10
-38.051423086
 20
-88.7968179858
 10
-38.0267570467
 20
-88.9540555784
 10
-38.0182434436
 20
-89.1019710978
 10
-38.0267022679
 20
-89.2400913573
 10
-38.0513135284
 20
-89.3688895434
 10
-38.0908485505
 20
-89.4819362641
 10
-38.1460647259
 20
-89.5784318247
 10
-38.216204663
 20
-89.6591759198
 10
-38.2977675123
 20
-89.7201382412
 10
-38.3913339721
 20
-89.7603144278
 10
-38.4963233442
 20
-89.7807088406
 10
-38.6074926849
 20
-89.7803042543
 10
-38.7230943463
 20
-89.7587615936
 10
-38.8448759763
 20
-89.7164199338
 10
-38.9728375748
 20
-89.6532792747
  0
LWPOLYLINE
  5
22A
100
AcDbEntity
  8
RACCORDO
100
AcDbPolyline
 62
253
  6
CONTINUOUS
 90
15
 70
0
 10
-38.5485735061
 20
-88.9184323526
 10
-38.627615046
 20
-88.8659552944
 10
-38.7048909431
 20
-88.8009715466
 10
-38.7786749822
 20
-88.7249327316
 10
-38.8473189509
 20
-88.6395374222
 10
-38.9092894525
 20
-88.5466932056
 10
-38.9632021611
 20
-88.4484740725
 10
-39.007852754
 20
-88.347074075
 10
-39.0422438081
 20
-88.2447583214
 10
-39.06560708
 20
-88.1438123849
 10
-39.0774206724
 20
-88.0464912339
 10
-39.0774206897
 20
-87.9549688604
 10
-39.0656071313
 20
-87.8712897236
 10
-39.0422438922
 20
-87.797323077
 10
-39.0078528687
 20
-87.7347212151
  0
LWPOLYLINE
  5
22B
100
AcDbEntity
  8
RACCORDO
100
AcDbPolyline
 62
253
  6
CONTINUOUS
 90
5
 70
0
 10
-38.2498278857
 20
-88.9845211367
 10
-38.3184718609
 20
-88.9906481521
 10
-38.3922559336
 20
-88.9814830345
 10
-38.4695318878
 20
-88.957230515
 10
-38.5485735061
 20
-88.9184323526
  0
LINE
  5
22C
100
AcDbEntity
  8
0
100
AcDbLine
 62
7
  6
CONTINUOUS
 10
20.9544621308
 20
-115.3957696462
 11
-34.1998668018
 21
-83.5503513666
  0
LINE
  5
22D
100
AcDbEntity
  8
0
100
AcDbLine
 62
7
  6
CONTINUOUS
 10
21.2373048432
 20
-113.9259811102
 11
-32.7856532394
 21
-82.73380218
  0
LWPOLYLINE
  5
22E
100
AcDbEntity
  8
0
100
AcDbPolyline
 62
7
  6
CONTINUOUS
 90
28
 70
0
 10
-34.1998668018
 20
-83.5503513666
 10
-34.2412106081
 20
-83.5250598701
 10
-34.2821398761
 20
-83.497293151
 10
-34.3226546058
 20
-83.4670512094
 10
-34.362888778
 20
-83.4342152338
 10
-34.4027084118
 20
-83.3989040356
 10
-34.4417115644
 20
-83.3614740491
 10
-34.4798899664
 20
-83.3219038149
 10
-34.5172518872
 20
-83.2802147924
 10
-34.5534201924
 20
-83.2368277943
 10
-34.5883827927
 20
-83.1917256231
 10
-34.6221517775
 20
-83.1449254762
 10
-34.6543862795
 20
-83.0968997584
 10
-34.6850707573
 20
-83.0476360568
 10
-34.7142207524
 20
-82.9971467843
 10
-34.7415420222
 20
-82.9459415839
 10
-34.7670160451
 20
-82.8940132046
 10
-34.7906613428
 20
-82.8413688975
 10
-34.8122392375
 20
-82.7885400587
 10
-34.8317287902
 20
-82.7355248192
 10
-34.84915094
 20
-82.682325048
 10
-34.8643298262
 20
-82.6294777483
 10
-34.8772427286
 20
-82.5769864899
 10
-34.8879123673
 20
-82.5248477028
 10
-34.8962310421
 20
-82.4735876806
 10
-34.902162853
 20
-82.4233818544
 10
-34.9057436999
 20
-82.374054793
 10
-34.906973583
 20
-82.3256064965
  0
LWPOLYLINE
  5
22F
100
AcDbEntity
  8
ASSI
100
AcDbPolyline
 62
7
  6
CONTINUOUS
 90
6
 70
0
 10
-5.400281358
 20
-106.4073906479
 10
-5.4020665475
 20
-106.4060889281
 10
-5.4657054351
 20
-106.3557111247
 10
-5.5288147085
 20
-106.3017780905
 10
-5.5908777945
 20
-106.2447312878
 10
-5.6518861063
 20
-106.1845451595
  0
LWPOLYLINE
  5
230
100
AcDbEntity
  8
ASSI
100
AcDbPolyline
 62
7
  6
CONTINUOUS
 90
6
 70
0
 10
-5.4003259925
 20
-106.4069732635
 10
-5.4234159057
 20
-106.3896229263
 10
-5.4838443805
 20
-106.3406390388
 10
-5.5435843231
 20
-106.288569478
 10
-5.6026408224
 20
-106.2334370505
 10
-5.6605752258
 20
-106.1756512623
  0
LINE
  5
231
100
AcDbEntity
  8
0
100
AcDbLine
 62
253
  6
CONTINUOUS
 10
-17.2293040533
 20
-81.0989677897
 11
21.2373048432
 21
-103.3091056667
  0
LINE
  5
232
100
AcDbEntity
  8
0
100
AcDbLine
 62
253
  6
CONTINUOUS
 10
-16.5221972721
 20
-79.8742229195
 11
21.2373048432
 21
-101.6760862032
  0
LINE
  5
233
100
AcDbEntity
  8
ASSI
100
AcDbLine
 62
7
  6
CONTINUOUS
 10
-5.6518861063
 20
-106.1845451595
 11
-5.7173791778
 21
-106.1151923561
  0
LWPOLYLINE
  5
234
100
AcDbEntity
  8
ASSI
100
AcDbPolyline
 62
7
  6
CONTINUOUS
 90
3
 70
0
 10
-5.7118482306
 20
-106.1212452626
 10
-5.7730610337
 20
-106.0520800891
 10
-5.8272072067
 20
-105.9867832392
  0
LINE
  5
235
100
AcDbEntity
  8
ASSI
100
AcDbLine
 62
7
  6
CONTINUOUS
 10
-5.7702733548
 20
-106.0553497307
 11
-5.8271488636
 21
-105.9868372596
  0
LWPOLYLINE
  5
236
100
AcDbEntity
  8
ASSI
100
AcDbPolyline
 62
7
  6
CONTINUOUS
 90
27
 70
0
 10
-60.7163710963
 20
113.9944151013
 10
-60.7136847185
 20
114.3074484888
 10
-60.7055769751
 20
114.6141867952
 10
-60.6920362097
 20
114.9143409338
 10
-60.6730780715
 20
115.2076150359
 10
-60.6486855458
 20
115.4937365467
 10
-60.6188094613
 20
115.7724568466
 10
-60.5834959077
 20
116.0433940804
 10
-60.5427490036
 20
116.3063907718
 10
-60.4964416255
 20
116.5615192716
 10
-60.4445750298
 20
116.8086033971
 10
-60.3871773824
 20
117.0472470094
 10
-60.3241550635
 20
117.2771829328
 10
-60.2556030943
 20
117.4980353138
 10
-60.1815346166
 20
117.7096626392
 10
-60.1017277567
 20
117.9121370797
 10
-60.0161851377
 20
118.1052940067
 10
-59.9249946808
 20
118.2887360015
 10
-59.8280693688
 20
118.4621886324
 10
-59.7255693646
 20
118.6253238301
 10
-59.6175322281
 20
118.7780078731
 10
-59.5037040814
 20
118.9202711275
 10
-59.3841203457
 20
119.0519494807
 10
-59.2589497665
 20
119.1727242493
 10
-59.1281631229
 20
119.2824237323
 10
-58.9920162183
 20
119.3808045355
 10
-58.8697935
 20
119.4568152267
  0
LINE
  5
237
100
AcDbEntity
  8
ASSI
100
AcDbLine
 62
253
  6
CONTINUOUS
 10
50.6529469406
 20
109.7065060431
 11
5.5041789618
 21
83.6381732592
  0
LWPOLYLINE
  5
238
100
AcDbEntity
  8
0
100
AcDbPolyline
 62
253
  6
CONTINUOUS
 90
18
 70
0
 10
50.6529469406
 20
109.7065060431
 10
50.7538834266
 20
109.7620111535
 10
50.854591259
 20
109.8118418235
 10
50.9548423022
 20
109.8558851708
 10
51.0544094553
 20
109.894041423
 10
51.1530671667
 20
109.9262241439
 10
51.2505919449
 20
109.9523604292
 10
51.3467628649
 20
109.972391072
 10
51.4413620687
 20
109.9862706963
 10
51.5341752587
 20
109.9939678603
 10
51.6249921831
 20
109.9954651276
 10
51.7136071124
 20
109.9907591062
 10
51.7998193052
 20
109.9798604568
 10
51.8834334633
 20
109.9627938685
 10
51.9642601736
 20
109.9395980024
 10
52.0421163377
 20
109.9103254048
 10
52.1168255863
 20
109.8750423873
 10
52.153019421
 20
109.8551295762
  0
LINE
  5
239
100
AcDbEntity
  8
ASSI
100
AcDbLine
 62
7
  6
CONTINUOUS
 10
-5.8272072067
 20
-105.9867832392
 11
-5.8824873723
 21
-105.9157291535
  0
LINE
  5
23A
100
AcDbEntity
  8
ASSI
100
AcDbLine
 62
7
  6
CONTINUOUS
 10
-5.8798062617
 20
-105.9192855396
 11
-5.9358359143
 21
-105.8426074592
  0
LWPOLYLINE
  5
23B
100
AcDbEntity
  8
ASSI
100
AcDbPolyline
 62
7
  6
CONTINUOUS
 90
17
 70
0
 10
-5.9308696337
 20
-105.8496032571
 10
-5.9871781563
 20
-105.7674556497
 10
-6.0365304316
 20
-105.690290252
 10
-6.0834887731
 20
-105.6117428941
 10
-6.128033532
 20
-105.5318022332
 10
-6.1701843572
 20
-105.450479612
 10
-6.2095962281
 20
-105.3684406871
 10
-6.246246664
 20
-105.2856795791
 10
-6.2801581458
 20
-105.2022021674
 10
-6.311053095
 20
-105.1186917461
 10
-6.3389067526
 20
-105.0351480442
 10
-6.3637438778
 20
-104.9515713328
 10
-6.3853611691
 20
-104.8686457188
 10
-6.4037321989
 20
-104.7863765463
 10
-6.418883395
 20
-104.7047584712
 10
-6.430690739
 20
-104.6244595683
 10
-6.4309097506
 20
-104.6224115516
  0
LWPOLYLINE
  5
23C
100
AcDbEntity
  8
ASSI
100
AcDbPolyline
 62
7
  6
CONTINUOUS
 90
16
 70
0
 10
-5.9800180402
 20
-105.7782539692
 10
-6.0272372223
 20
-105.7052252633
 10
-6.0725414389
 20
-105.6305295521
 10
-6.1155941848
 20
-105.5547216515
 10
-6.1563786954
 20
-105.4777932799
 10
-6.1949117353
 20
-105.3997527188
 10
-6.2309070935
 20
-105.3211796287
 10
-6.264345874
 20
-105.2420700441
 10
-6.2952469728
 20
-105.1624279304
 10
-6.3233808664
 20
-105.0828448436
 10
-6.3487269498
 20
-105.0033212235
 10
-6.3713058279
 20
-104.9238566303
 10
-6.3909497922
 20
-104.8450413017
 10
-6.4076369888
 20
-104.7668800722
 10
-6.4213892716
 20
-104.6893681072
 10
-6.4307807352
 20
-104.6225056267
  0
LWPOLYLINE
  5
23D
100
AcDbEntity
  8
0
100
AcDbPolyline
 62
7
  6
CONTINUOUS
 90
22
 70
0
 10
-53.7160139625
 20
-98.8999767883
 10
-53.7135128227
 20
-99.0515307756
 10
-53.7061025909
 20
-99.1996116454
 10
-53.6937832674
 20
-99.3442193976
 10
-53.6765239196
 20
-99.4855463848
 10
-53.65435548
 20
-99.6234002545
 10
-53.627370746
 20
-99.7572039487
 10
-53.5955495282
 20
-99.8869404899
 10
-53.5589120159
 20
-100.0126268556
 10
-53.5176115742
 20
-100.1337369215
 10
-53.4716286566
 20
-100.2502515043
 10
-53.4209828096
 20
-100.3621897872
 10
-53.3658860373
 20
-100.4690831953
 10
-53.3063196819
 20
-100.5709105812
 10
-53.2423024011
 20
-100.6676930924
 10
-53.174102172
 20
-100.7590255961
 10
-53.1017014602
 20
-100.8448852467
 10
-53.0251178
 20
-100.9252948899
 10
-52.9446717716
 20
-100.99991793
 10
-52.8603471844
 20
-101.0687301104
 10
-52.7721602289
 20
-101.1317556877
 10
-52.6806008573
 20
-101.188661094
  0
LINE
  5
23E
100
AcDbEntity
  8
ASSI
100
AcDbLine
 62
7
  6
CONTINUOUS
 10
-60.7163710963
 20
64.9830962861
 11
-60.7163710963
 21
113.9944151013
  0
LINE
  5
23F
100
AcDbEntity
  8
ASSI
100
AcDbLine
 62
7
  6
CONTINUOUS
 10
-59.3021575339
 20
64.1665470994
 11
-59.3021575339
 21
113.1778659146
  0
LINE
  5
240
100
AcDbEntity
  8
0
100
AcDbLine
 62
7
  6
CONTINUOUS
 10
-55.1302275249
 20
-98.0834276017
 11
-55.1302275249
 21
46.5014039116
  0
LINE
  5
241
100
AcDbEntity
  8
ASSI
100
AcDbLine
 62
7
  6
CONTINUOUS
 10
-53.8927906578
 20
117.9332390987
 11
-53.8927906578
 21
116.3002985451
  0
LINE
  5
242
100
AcDbEntity
  8
0
100
AcDbLine
 62
7
  6
CONTINUOUS
 10
-53.7160139625
 20
-98.8999767883
 11
-53.7160139625
 21
45.6848547249
  0
LWPOLYLINE
  5
243
100
AcDbEntity
  8
ASSI
100
AcDbPolyline
 62
7
  6
CONTINUOUS
 90
27
 70
0
 10
-59.3021575339
 20
113.1778659146
 10
-59.3000988094
 20
113.4426165482
 10
-59.2938757816
 20
113.7017963361
 10
-59.2834785875
 20
113.9551606669
 10
-59.2689235703
 20
114.2024573988
 10
-59.2501932314
 20
114.4434576998
 10
-59.2272366589
 20
114.677956572
 10
-59.200093835
 20
114.9056303395
 10
-59.1687672614
 20
115.1263463209
 10
-59.133137118
 20
115.3401728116
 10
-59.0932084006
 20
115.5469584629
 10
-59.0490010091
 20
115.7463703514
 10
-59.0004116744
 20
115.9381962927
 10
-58.947520593
 20
116.122118376
 10
-58.8903390908
 20
116.2980167404
 10
-58.8286559947
 20
116.4659659837
 10
-58.7624796917
 20
116.625823244
 10
-58.6918784091
 20
116.7772558048
 10
-58.6167365804
 20
116.9200556685
 10
-58.5371884962
 20
117.0539459491
 10
-58.4532671698
 20
117.1788127865
 10
-58.3647195397
 20
117.2947039553
 10
-58.2715826801
 20
117.4014764902
 10
-58.1739922732
 20
117.4988648368
 10
-58.0718640455
 20
117.586758092
 10
-57.9654102305
 20
117.6649527411
 10
-57.8697454405
 20
117.7247921672
  0
LINE
  5
244
100
AcDbEntity
  8
ASSI
100
AcDbLine
 62
253
  6
CONTINUOUS
 10
59.845335096
 20
93.7848227316
 11
17.0653748342
 21
69.0842098352
  0
LWPOLYLINE
  5
245
100
AcDbEntity
  8
RACCORDO
100
AcDbPolyline
 62
253
  6
CONTINUOUS
 90
20
 70
0
 10
-37.1724800759
 20
-88.7240376021
 10
-37.2196470633
 20
-88.5148878055
 10
-37.2847853545
 20
-88.3029144317
 10
-37.3670141046
 20
-88.0909838598
 10
-37.465221593
 20
-87.8819615329
 10
-37.5780801812
 20
-87.678673602
 10
-37.704063496
 20
-87.4838698486
 10
-37.8414670955
 20
-87.300185775
 10
-37.9884321504
 20
-87.1301059152
 10
-38.1429716399
 20
-86.9759294466
 10
-38.3029965652
 20
-86.8397404469
 10
-38.466343499
 20
-86.7233803978
 10
-38.6308028925
 20
-86.6284235634
 10
-38.7941498664
 20
-86.5561545682
 10
-38.9541748997
 20
-86.5075506878
 10
-39.1087145268
 20
-86.4832687446
 10
-39.2556796575
 20
-86.4836369932
 10
-39.3930832198
 20
-86.5086507738
 10
-39.5190664655
 20
-86.5579720496
 10
-39.5486218264
 20
-86.5740567361
  0
LWPOLYLINE
  5
246
100
AcDbEntity
  8
0
100
AcDbPolyline
 62
7
  6
CONTINUOUS
 90
19
 70
0
 10
-36.8515172312
 20
-88.9593189944
 10
-36.8652993896
 20
-88.7324909999
 10
-36.9011829221
 20
-88.5034725327
 10
-36.9591678287
 20
-88.2722635927
 10
-37.0409826811
 20
-88.0348790216
 10
-37.1448989076
 20
-87.7953039778
 10
-37.2657307936
 20
-87.5654939361
 10
-37.4043367576
 20
-87.3459444407
 10
-37.5598583811
 20
-87.1361599474
 10
-37.7245346935
 20
-86.9466092979
 10
-37.8988302676
 20
-86.7783192987
 10
-38.0822805306
 20
-86.6302631432
 10
-38.2657307936
 20
-86.5098292541
 10
-38.4491810566
 20
-86.4184193778
 10
-38.6326313197
 20
-86.3546317679
 10
-38.8069268938
 20
-86.321649607
 10
-38.9716032061
 20
-86.3210361787
 10
-39.1271248296
 20
-86.3512281995
 10
-39.2657791138
 20
-86.410746899
  0
LWPOLYLINE
  5
247
100
AcDbEntity
  8
RACCORDO
100
AcDbPolyline
 62
253
  6
CONTINUOUS
 90
25
 70
0
 10
-39.9627870685
 20
-87.9794599704
 10
-39.9541112029
 20
-88.1345311536
 10
-39.9297268572
 20
-88.292356684
 10
-39.8896340313
 20
-88.4529365615
 10
-39.8325627977
 20
-88.6195232253
 10
-39.7597830839
 20
-88.7888642361
 10
-39.6751046727
 20
-88.9512022768
 10
-39.5780171836
 20
-89.1056759293
 10
-39.469030997
 20
-89.2531466116
 10
-39.3534870372
 20
-89.3864412598
 10
-39.2309795387
 20
-89.5049526772
 10
-39.1019142671
 20
-89.6092880606
 10
-38.9728494431
 20
-89.6940959359
 10
-38.8437859478
 20
-89.758332866
 10
-38.7147229003
 20
-89.803042288
 10
-38.5922158778
 20
-89.8260030398
 10
-38.4766693494
 20
-89.8261404142
 10
-38.3676788461
 20
-89.8045291183
 10
-38.2705865388
 20
-89.7621721109
 10
-38.1859024498
 20
-89.6976165713
 10
-38.1131165568
 20
-89.6123153203
 10
-38.0560409631
 20
-89.5116297787
 10
-38.0159463698
 20
-89.3973470869
 10
-37.9915620758
 20
-89.2676801046
 10
-37.9828880811
 20
-89.1226288317
  0
LWPOLYLINE
  5
248
100
AcDbEntity
  8
RACCORDO
100
AcDbPolyline
 62
253
  6
CONTINUOUS
 90
25
 70
0
 10
-37.9828880811
 20
-89.1226288317
 10
-37.9915639467
 20
-88.9675576484
 10
-38.0159482924
 20
-88.809732118
 10
-38.0560411183
 20
-88.6491522405
 10
-38.1131123519
 20
-88.4825655768
 10
-38.1858920657
 20
-88.3132245659
 10
-38.2705704769
 20
-88.1508865253
 10
-38.367657966
 20
-87.9964128728
 10
-38.4766441526
 20
-87.8489421905
 10
-38.5921881124
 20
-87.7156475423
 10
-38.7146956109
 20
-87.5971361249
 10
-38.8437608825
 20
-87.4928007415
 10
-38.9728257065
 20
-87.4079928662
 10
-39.1018892018
 20
-87.3437559361
 10
-39.2309522493
 20
-87.2990465141
 10
-39.3534592718
 20
-87.2760857623
 10
-39.4690058002
 20
-87.2759483879
 10
-39.5779963035
 20
-87.2975596838
 10
-39.6750886108
 20
-87.3399166912
 10
-39.7597726998
 20
-87.4044722307
 10
-39.8325585928
 20
-87.4897734818
 10
-39.8896341865
 20
-87.5904590233
 10
-39.9297287798
 20
-87.7047417151
 10
-39.9541130738
 20
-87.8344086975
 10
-39.9627870685
 20
-87.9794599704
  0
LWPOLYLINE
  5
249
100
AcDbEntity
  8
RACCORDO
100
AcDbPolyline
 62
7
  6
CONTINUOUS
 90
22
 70
0
 10
-40.1385229998
 20
-87.734495355
 10
-40.1278237561
 20
-87.941138693
 10
-40.0968352397
 20
-88.1489770498
 10
-40.047122772
 20
-88.3560362724
 10
-39.9800125342
 20
-88.5607936406
 10
-39.8966966278
 20
-88.7616185922
 10
-39.7985529984
 20
-88.9563164652
 10
-39.6869793847
 20
-89.1428254853
 10
-39.5629535986
 20
-89.3197623976
 10
-39.4272149835
 20
-89.4857999304
 10
-39.2791650477
 20
-89.640614256
 10
-39.1209476207
 20
-89.780616299
 10
-38.9574823689
 20
-89.9010541342
 10
-38.7897802521
 20
-90.0013209634
 10
-38.618696621
 20
-90.0807158951
 10
-38.4493546575
 20
-90.1372230127
 10
-38.2846065728
 20
-90.1712008056
 10
-38.1239422028
 20
-90.1839469383
 10
-37.9682390573
 20
-90.1761071049
 10
-37.8191892125
 20
-90.1483915929
 10
-37.6787247572
 20
-90.1019068714
 10
-37.5485251858
 20
-90.038102554
  0
LINE
  5
24A
100
AcDbEntity
  8
RACCORDO
100
AcDbLine
 62
253
  6
CONTINUOUS
 10
-37.1343599437
 20
-89.1226288317
 11
-37.1439223051
 21
-88.9275352587
  0
LWPOLYLINE
  5
24B
100
AcDbEntity
  8
0
100
AcDbPolyline
 62
253
  6
CONTINUOUS
 90
18
 70
0
 10
59.845335096
 20
93.7848227316
 10
59.9438688456
 20
93.8444895035
 10
60.0373739117
 20
93.9067957308
 10
60.1256384752
 20
93.9716002698
 10
60.2084625886
 20
94.0387563174
 10
60.2856586285
 20
94.1081117436
 10
60.3570517212
 20
94.179509436
 10
60.4224801382
 20
94.2527876558
 10
60.4817956632
 20
94.3277804044
 10
60.5348639275
 20
94.4043177991
 10
60.5815647143
 20
94.482226458
 10
60.6217922313
 20
94.5613298929
 10
60.6554553504
 20
94.6414489092
 10
60.6824778136
 20
94.7224020115
 10
60.7027984065
 20
94.8040058149
 10
60.7163710963
 20
94.8860754607
 10
60.7231651365
 20
94.9684250346
 10
60.7240147525
 20
95.0096465116
  0
LINE
  5
24C
100
AcDbEntity
  8
0
100
AcDbLine
 62
7
  6
CONTINUOUS
 10
-16.5221972721
 20
-43.0514134362
 11
-15.1079837098
 21
-43.8679626228
  0
LINE
  5
24D
100
AcDbEntity
  8
RACCORDO
100
AcDbLine
 62
253
  6
CONTINUOUS
 10
-37.1439223051
 20
-88.9275352587
 11
-37.1724800759
 21
-88.7240376021
  0
LWPOLYLINE
  5
24E
100
AcDbEntity
  8
0
100
AcDbPolyline
 62
7
  6
CONTINUOUS
 90
19
 70
0
 10
-36.8515172312
 20
15.058994269
 10
-36.8652993896
 20
15.2858222635
 10
-36.9011829221
 20
15.5148407307
 10
-36.9591678287
 20
15.7460496707
 10
-37.0409826811
 20
15.9834342418
 10
-37.1448989076
 20
16.2230092856
 10
-37.2657307936
 20
16.4528193274
 10
-37.4043367576
 20
16.6723688227
 10
-37.5598583811
 20
16.882153316
 10
-37.7245346935
 20
17.0717039655
 10
-37.8988302676
 20
17.2399939647
 10
-38.0822805306
 20
17.3880501202
 10
-38.2657307936
 20
17.5084840093
 10
-38.4491810566
 20
17.5998938856
 10
-38.6326313197
 20
17.6636814955
 10
-38.8069268938
 20
17.6966636564
 10
-38.9716032061
 20
17.6972770847
 10
-39.1271248296
 20
17.6670850639
 10
-39.2657791138
 20
17.6075663644
  0
LWPOLYLINE
  5
24F
100
AcDbEntity
  8
RACCORDO
100
AcDbPolyline
 62
253
  6
CONTINUOUS
 90
25
 70
0
 10
-39.9627870685
 20
16.038853293
 10
-39.9541112029
 20
15.8837821098
 10
-39.9297268572
 20
15.7259565794
 10
-39.8896340313
 20
15.5653767019
 10
-39.8325627977
 20
15.3987900381
 10
-39.7597830839
 20
15.2294490273
 10
-39.6751046727
 20
15.0671109867
 10
-39.5780171836
 20
14.9126373341
 10
-39.469030997
 20
14.7651666518
 10
-39.3534870372
 20
14.6318720036
 10
-39.2309795387
 20
14.5133605862
 10
-39.1019142671
 20
14.4090252028
 10
-38.9728494431
 20
14.3242173275
 10
-38.8437859478
 20
14.2599803974
 10
-38.7147229003
 20
14.2152709754
 10
-38.5922158778
 20
14.1923102236
 10
-38.4766693494
 20
14.1921728492
 10
-38.3676788461
 20
14.2137841451
 10
-38.2705865388
 20
14.2561411525
 10
-38.1859024498
 20
14.3206966921
 10
-38.1131165568
 20
14.4059979431
 10
-38.0560409631
 20
14.5066834847
 10
-38.0159463698
 20
14.6209661765
 10
-37.9915620758
 20
14.7506331588
 10
-37.9828880811
 20
14.8956844317
  0
LWPOLYLINE
  5
250
100
AcDbEntity
  8
RACCORDO
100
AcDbPolyline
 62
253
  6
CONTINUOUS
 90
25
 70
0
 10
-37.9828880811
 20
14.8956844317
 10
-37.9915639467
 20
15.050755615
 10
-38.0159482924
 20
15.2085811454
 10
-38.0560411183
 20
15.3691610229
 10
-38.1131123519
 20
15.5357476866
 10
-38.1858920657
 20
15.7050886975
 10
-38.2705704769
 20
15.8674267381
 10
-38.367657966
 20
16.0219003906
 10
-38.4766441526
 20
16.1693710729
 10
-38.5921881124
 20
16.3026657211
 10
-38.7146956109
 20
16.4211771385
 10
-38.8437608825
 20
16.5255125219
 10
-38.9728257065
 20
16.6103203972
 10
-39.1018892018
 20
16.6745573273
 10
-39.2309522493
 20
16.7192667493
 10
-39.3534592718
 20
16.7422275011
 10
-39.4690058002
 20
16.7423648755
 10
-39.5779963035
 20
16.7207535796
 10
-39.6750886108
 20
16.6783965722
 10
-39.7597726998
 20
16.6138410327
 10
-39.8325585928
 20
16.5285397816
 10
-39.8896341865
 20
16.4278542401
 10
-39.9297287798
 20
16.3135715483
 10
-39.9541130738
 20
16.1839045659
 10
-39.9627870685
 20
16.038853293
  0
LWPOLYLINE
  5
251
100
AcDbEntity
  8
RACCORDO
100
AcDbPolyline
 62
7
  6
CONTINUOUS
 90
22
 70
0
 10
-40.1385229998
 20
16.2838179084
 10
-40.1278237561
 20
16.0771745704
 10
-40.0968352397
 20
15.8693362136
 10
-40.047122772
 20
15.662276991
 10
-39.9800125342
 20
15.4575196228
 10
-39.8966966278
 20
15.2566946712
 10
-39.7985529984
 20
15.0619967983
 10
-39.6869793847
 20
14.8754877781
 10
-39.5629535986
 20
14.6985508659
 10
-39.4272149835
 20
14.532513333
 10
-39.2791650477
 20
14.3776990074
 10
-39.1209476207
 20
14.2376969644
 10
-38.9574823689
 20
14.1172591292
 10
-38.7897802521
 20
14.0169923
 10
-38.618696621
 20
13.9375973684
 10
-38.4493546575
 20
13.8810902507
 10
-38.2846065728
 20
13.8471124578
 10
-38.1239422028
 20
13.8343663251
 10
-37.9682390573
 20
13.8422061585
 10
-37.8191892125
 20
13.8699216705
 10
-37.6787247572
 20
13.916406392
 10
-37.5485251858
 20
13.9802107094
  0
LINE
  5
252
100
AcDbEntity
  8
RACCORDO
100
AcDbLine
 62
253
  6
CONTINUOUS
 10
-37.1343599437
 20
14.8956844317
 11
-37.1439223051
 21
15.0907780047
  0
LWPOLYLINE
  5
253
100
AcDbEntity
  8
0
100
AcDbPolyline
 62
7
  6
CONTINUOUS
 90
28
 70
0
 10
-33.4927600206
 20
-81.5090573098
 10
-33.4915301375
 20
-81.5575056064
 10
-33.4879492906
 20
-81.6068326678
 10
-33.4820174797
 20
-81.657038494
 10
-33.4736988049
 20
-81.7082985162
 10
-33.4630291662
 20
-81.7604373032
 10
-33.4501162638
 20
-81.8129285616
 10
-33.4349373777
 20
-81.8657758614
 10
-33.4175152279
 20
-81.9189756325
 10
-33.3980256751
 20
-81.971990872
 10
-33.3764477804
 20
-82.0248197108
 10
-33.3528024828
 20
-82.077464018
 10
-33.3273284598
 20
-82.1293923973
 10
-33.30000719
 20
-82.1805975977
 10
-33.2708571949
 20
-82.2310868702
 10
-33.2401727171
 20
-82.2803505717
 10
-33.2079382151
 20
-82.3283762896
 10
-33.1741692304
 20
-82.3751764364
 10
-33.13920663
 20
-82.4202786076
 10
-33.1030383249
 20
-82.4636656058
 10
-33.0656764041
 20
-82.5053546282
 10
-33.0274980021
 20
-82.5449248624
 10
-32.9884948494
 20
-82.5823548489
 10
-32.9486752156
 20
-82.6176660471
 10
-32.9084410434
 20
-82.6505020227
 10
-32.8679263138
 20
-82.6807439644
 10
-32.8269970458
 20
-82.7085106834
 10
-32.7856532394
 20
-82.73380218
  0
LINE
  5
254
100
AcDbEntity
  8
0
100
AcDbLine
 62
7
  6
CONTINUOUS
 10
-34.906973583
 20
-82.3256064965
 11
-34.906973583
 21
102.5147232828
  0
LINE
  5
255
100
AcDbEntity
  8
0
100
AcDbLine
 62
7
  6
CONTINUOUS
 10
-33.4927600206
 20
-81.5090573098
 11
-33.4927600206
 21
101.6224190862
  0
LINE
  5
256
100
AcDbEntity
  8
0
100
AcDbLine
 62
7
  6
CONTINUOUS
 10
-32.7856532394
 20
7.8129093361
 11
-32.7856532394
 21
24.142314872
  0
LWPOLYLINE
  5
257
100
AcDbEntity
  8
RACCORDO
100
AcDbPolyline
 62
7
  6
CONTINUOUS
 90
20
 70
0
 10
-38.2141126862
 20
15.0267565028
 10
-38.2143898895
 20
15.0262890214
 10
-38.2108081374
 20
15.0346731635
 10
-38.2040189946
 20
15.0580415783
 10
-38.1975247486
 20
15.0962782753
 10
-38.1940894655
 20
15.1489814606
 10
-38.1959717411
 20
15.214877192
 10
-38.2048831981
 20
15.2924892035
 10
-38.2222910509
 20
15.3809353176
 10
-38.2491008356
 20
15.4777569987
 10
-38.2854171447
 20
15.579636015
 10
-38.3312178443
 20
15.6843618855
 10
-38.3858947126
 20
15.7891369773
 10
-38.4475660634
 20
15.8899073134
 10
-38.5147099108
 20
15.9844129822
 10
-38.5855064425
 20
16.0705693208
 10
-38.6566555073
 20
16.1453806461
 10
-38.7254151678
 20
16.2075655899
 10
-38.7900462337
 20
16.2573004032
 10
-38.8485880022
 20
16.2948616194
  0
LWPOLYLINE
  5
258
100
AcDbEntity
  8
RACCORDO
100
AcDbPolyline
 62
253
  6
CONTINUOUS
 90
6
 70
0
 10
-37.3670143913
 20
14.1327023154
 10
-37.2847855376
 20
14.2496772103
 10
-37.2196471635
 20
14.3864305735
 10
-37.1724801212
 20
14.5411131805
 10
-37.1439223166
 20
14.7116331271
 10
-37.1343599437
 20
14.8956844317
  0
LWPOLYLINE
  5
259
100
AcDbEntity
  8
RACCORDO
100
AcDbPolyline
 62
253
  6
CONTINUOUS
 90
3
 70
0
 10
-39.0078528687
 20
16.2835920483
 10
-38.9632023015
 20
16.3334307013
 10
-38.9533113927
 20
16.3405001729
  0
LWPOLYLINE
  5
25A
100
AcDbEntity
  8
0
100
AcDbPolyline
 62
7
  6
CONTINUOUS
 90
7
 70
0
 10
-37.2656824735
 20
14.143520547
 10
-37.1448989076
 20
14.2337690585
 10
-37.0409826811
 20
14.3533442487
 10
-36.9591678287
 20
14.496251079
 10
-36.9011829221
 20
14.6605005022
 10
-36.8652993896
 20
14.8480815656
 10
-36.8515172312
 20
15.058994269
  0
LWPOLYLINE
  5
25B
100
AcDbEntity
  8
RACCORDO
100
AcDbPolyline
 62
253
  6
CONTINUOUS
 90
3
 70
0
 10
-37.5485251858
 20
13.9802107094
 10
-37.4652219617
 20
14.0370875776
 10
-37.3670143913
 20
14.1327023154
  0
LWPOLYLINE
  5
25C
100
AcDbEntity
  8
RACCORDO
100
AcDbPolyline
 62
7
  6
CONTINUOUS
 90
10
 70
0
 10
-39.5486218264
 20
17.4442565273
 10
-39.6582671699
 20
17.3715883777
 10
-39.7606216191
 20
17.2837483903
 10
-39.8538433063
 20
17.1810076162
 10
-39.9361917855
 20
17.0639020706
 10
-40.006118762
 20
16.9331718213
 10
-40.0624188644
 20
16.7893235165
 10
-40.1039997325
 20
16.6327004428
 10
-40.1297196783
 20
16.463972383
 10
-40.1385229998
 20
16.2838179079
  0
LWPOLYLINE
  5
25D
100
AcDbEntity
  8
ASSI
100
AcDbPolyline
 62
7
  6
CONTINUOUS
 90
16
 70
0
 10
-13.0795952412
 20
29.693470353
 10
-13.1202832217
 20
29.6674341655
 10
-13.158821119
 20
29.6375846525
 10
-13.1948548295
 20
29.6041884611
 10
-13.2283637995
 20
29.5672164811
 10
-13.2593685828
 20
29.5266978226
 10
-13.2876153935
 20
29.4829641464
 10
-13.3130815948
 20
29.4359890642
 10
-13.3357898235
 20
29.3857989642
 10
-13.3555542042
 20
29.3328046713
 10
-13.3723505743
 20
29.2769831694
 10
-13.3862030964
 20
29.2183574746
 10
-13.3969983823
 20
29.1574074604
 10
-13.404698636
 20
29.0942930847
 10
-13.4093416536
 20
29.0288543897
 10
-13.4109274349
 20
28.9610913752
  0
LINE
  5
25E
100
AcDbEntity
  8
0
100
AcDbLine
 62
7
  6
CONTINUOUS
 10
-33.4927600206
 20
23.7340402786
 11
-32.7856532394
 21
24.142314872
  0
LINE
  5
25F
100
AcDbEntity
  8
0
100
AcDbLine
 62
7
  6
CONTINUOUS
 10
-39.2657791139
 20
17.6075663646
 11
-39.5486218264
 21
17.4442565273
  0
LINE
  5
260
100
AcDbEntity
  8
ASSI
100
AcDbLine
 62
253
  6
CONTINUOUS
 10
-12.2796688804
 20
29.6142658866
 11
-13.4109274349
 21
28.9610913752
  0
LINE
  5
261
100
AcDbEntity
  8
0
100
AcDbLine
 62
7
  6
CONTINUOUS
 10
-37.2656824733
 20
14.1435205468
 11
-37.5485251858
 21
13.9802107094
  0
LWPOLYLINE
  5
262
100
AcDbEntity
  8
RACCORDO
100
AcDbPolyline
 62
253
  6
CONTINUOUS
 90
20
 70
0
 10
-37.1724800759
 20
15.2942756613
 10
-37.2196470633
 20
15.5034254579
 10
-37.2847853545
 20
15.7153988317
 10
-37.3670141046
 20
15.9273294036
 10
-37.465221593
 20
16.1363517305
 10
-37.5780801812
 20
16.3396396614
 10
-37.704063496
 20
16.5344434148
 10
-37.8414670955
 20
16.7181274884
 10
-37.9884321504
 20
16.8882073482
 10
-38.1429716399
 20
17.0423838168
 10
-38.3029965652
 20
17.1785728165
 10
-38.466343499
 20
17.2949328656
 10
-38.6308028925
 20
17.3898897
 10
-38.7941498664
 20
17.4621586952
 10
-38.9541748997
 20
17.5107625756
 10
-39.1087145268
 20
17.5350445188
 10
-39.2556796575
 20
17.5346762702
 10
-39.3930832198
 20
17.5096624897
 10
-39.5190664655
 20
17.4603412138
 10
-39.5486218264
 20
17.4442565273
  0
LINE
  5
263
100
AcDbEntity
  8
RACCORDO
100
AcDbLine
 62
253
  6
CONTINUOUS
 10
-37.1439223051
 20
15.0907780047
 11
-37.1724800759
 21
15.2942756613
  0
LWPOLYLINE
  5
264
100
AcDbEntity
  8
ASSI
100
AcDbPolyline
 62
7
  6
CONTINUOUS
 90
16
 70
0
 10
-11.4795179288
 20
26.9222336988
 10
-11.4388299483
 20
26.9482698864
 10
-11.400292051
 20
26.9781193994
 10
-11.3642583405
 20
27.0115155907
 10
-11.3307493705
 20
27.0484875708
 10
-11.2997445872
 20
27.0890062292
 10
-11.2714977765
 20
27.1327399054
 10
-11.2460315752
 20
27.1797149876
 10
-11.2233233465
 20
27.2299050877
 10
-11.2035589659
 20
27.2828993806
 10
-11.1867625957
 20
27.3387208825
 10
-11.1729100736
 20
27.3973465773
 10
-11.1621147877
 20
27.4582965914
 10
-11.154414534
 20
27.5214109671
 10
-11.1497715165
 20
27.5868496622
 10
-11.1481857351
 20
27.6546126766
  0
LINE
  5
265
100
AcDbEntity
  8
0
100
AcDbLine
 62
7
  6
CONTINUOUS
 10
-33.4927600206
 20
7.4046347428
 11
-32.7856532394
 21
7.8129093361
  0
LINE
  5
266
100
AcDbEntity
  8
RACCORDO
100
AcDbLine
 62
253
  6
CONTINUOUS
 10
-38.2067678112
 20
15.0485800766
 11
-38.2498278857
 21
15.0337921267
  0
LINE
  5
267
100
AcDbEntity
  8
ASSI
100
AcDbLine
 62
7
  6
CONTINUOUS
 10
-56.5614958481
 20
52.8333477509
 11
-58.9272856923
 21
57.0681664869
  0
LINE
  5
268
100
AcDbEntity
  8
ASSI
100
AcDbLine
 62
7
  6
CONTINUOUS
 10
-55.1472822857
 20
52.0167985642
 11
-57.51307213
 21
56.2516173003
  0
LWPOLYLINE
  5
269
100
AcDbEntity
  8
ASSI
100
AcDbPolyline
 62
7
  6
CONTINUOUS
 90
19
 70
0
 10
-58.9272856923
 20
57.0681664869
 10
-59.1177602317
 20
57.4239945384
 10
-59.297798327
 20
57.7906358508
 10
-59.4673999781
 20
58.1680904242
 10
-59.6266596661
 20
58.5566117775
 10
-59.7754829099
 20
58.9559463918
 10
-59.9135862666
 20
59.3653337099
 10
-60.0409493066
 20
59.78479289
 10
-60.1575924596
 20
60.214304774
 10
-60.2632935715
 20
60.6530513304
 10
-60.3580317893
 20
61.1010501583
 10
-60.4418279661
 20
61.5582836585
 10
-60.514522507
 20
62.0238810021
 10
-60.5760942547
 20
62.4978581286
 10
-60.6265643664
 20
62.9801990984
 10
-60.6658367188
 20
63.4699852638
 10
-60.6938792706
 20
63.966910409
 10
-60.7107240631
 20
64.4712807497
 10
-60.7163710963
 20
64.9830962861
  0
LWPOLYLINE
  5
26A
100
AcDbEntity
  8
ASSI
100
AcDbPolyline
 62
7
  6
CONTINUOUS
 90
19
 70
0
 10
-56.5614958481
 20
52.8333477509
 10
-56.4091162166
 20
52.5486853097
 10
-56.2650857403
 20
52.2553722598
 10
-56.1294044195
 20
51.9534086011
 10
-56.0019966691
 20
51.6425915184
 10
-55.8829380741
 20
51.323123827
 10
-55.7724553887
 20
50.9956139725
 10
-55.6705649566
 20
50.6600466284
 10
-55.5772504343
 20
50.3164371212
 10
-55.4926895447
 20
49.9654398761
 10
-55.4168989705
 20
49.6070408138
 10
-55.349862029
 20
49.2412540136
 10
-55.2917063964
 20
48.8687761388
 10
-55.2424489982
 20
48.4895944376
 10
-55.2020729088
 20
48.1037216617
 10
-55.1706550269
 20
47.7118927294
 10
-55.1482209854
 20
47.3143526133
 10
-55.1347451514
 20
46.9108563407
 10
-55.1302275249
 20
46.5014039116
  0
LWPOLYLINE
  5
26B
100
AcDbEntity
  8
ASSI
100
AcDbPolyline
 62
7
  6
CONTINUOUS
 90
19
 70
0
 10
-57.51307213
 20
56.2516173003
 10
-57.7035466694
 20
56.6074453518
 10
-57.8835847646
 20
56.9740866642
 10
-58.0531864157
 20
57.3515412375
 10
-58.2124461037
 20
57.7400625909
 10
-58.3612693475
 20
58.1393972051
 10
-58.4993727042
 20
58.5487845232
 10
-58.6267357443
 20
58.9682437034
 10
-58.7433788972
 20
59.3977555874
 10
-58.8490800091
 20
59.8365021437
 10
-58.943818227
 20
60.2845009716
 10
-59.0276144038
 20
60.7417344719
 10
-59.1003089446
 20
61.2073318154
 10
-59.1618806923
 20
61.6813089419
 10
-59.212350804
 20
62.1636499117
 10
-59.2516231564
 20
62.6534360772
 10
-59.2796657083
 20
63.1503612223
 10
-59.2965105008
 20
63.6547315631
 10
-59.3021575339
 20
64.1665470994
  0
LWPOLYLINE
  5
26C
100
AcDbEntity
  8
ASSI
100
AcDbPolyline
 62
7
  6
CONTINUOUS
 90
19
 70
0
 10
-55.1472822857
 20
52.0167985642
 10
-54.9949026542
 20
51.732136123
 10
-54.850872178
 20
51.4388230731
 10
-54.7151908571
 20
51.1368594144
 10
-54.5877831067
 20
50.8260423318
 10
-54.4687245117
 20
50.5065746404
 10
-54.3582418263
 20
50.1790647859
 10
-54.2563513943
 20
49.8434974418
 10
-54.1630368719
 20
49.4998879345
 10
-54.0784759824
 20
49.1488906895
 10
-54.0026854081
 20
48.7904916272
 10
-53.9356484667
 20
48.424704827
 10
-53.877492834
 20
48.0522269521
 10
-53.8282354358
 20
47.6730452509
 10
-53.7878593465
 20
47.2871724751
 10
-53.7564414646
 20
46.8953435427
 10
-53.7340074231
 20
46.4978034266
 10
-53.7205315891
 20
46.094307154
 10
-53.7160139625
 20
45.6848547249
  0
LWPOLYLINE
  5
26D
100
AcDbEntity
  8
ASSI
100
AcDbPolyline
 62
7
  6
CONTINUOUS
 90
21
 70
0
 10
-11.9460882988
 20
-60.4484858358
 10
-11.9413406418
 20
-60.4697468002
 10
-11.9215762611
 20
-60.5455645045
 10
-11.8988680325
 20
-60.6219774978
 10
-11.8734018312
 20
-60.6983603109
 10
-11.8451550205
 20
-60.7747126961
 10
-11.8141502372
 20
-60.8510349011
 10
-11.7806412671
 20
-60.9267021999
 10
-11.7446075566
 20
-61.0017092169
 10
-11.7060696593
 20
-61.0760613277
 10
-11.6653430226
 20
-61.149149932
 10
-11.6224096818
 20
-61.2209646592
 10
-11.5772876015
 20
-61.29151588
 10
-11.5303461231
 20
-61.3602261058
 10
-11.4815703133
 20
-61.4270802263
 10
-11.4309751053
 20
-61.4920933518
 10
-11.3789746402
 20
-61.5547333255
 10
-11.3255573837
 20
-61.6149806689
 10
-11.2707348701
 20
-61.6728548603
 10
-11.2149558422
 20
-61.7278821777
 10
-11.1988113089
 20
-61.7427218201
  0
LWPOLYLINE
  5
26E
100
AcDbEntity
  8
ASSI
100
AcDbPolyline
 62
7
  6
CONTINUOUS
 90
46
 70
0
 10
-13.4109274349
 20
-60.850639072
 10
-13.4093416536
 20
-60.9202333069
 10
-13.404698636
 20
-60.9910336422
 10
-13.3969983823
 20
-61.0630400779
 10
-13.3862030964
 20
-61.1364562176
 10
-13.3723505743
 20
-61.2110784577
 10
-13.3555542042
 20
-61.2862959869
 10
-13.3357898235
 20
-61.3621136911
 10
-13.3130815948
 20
-61.4385266844
 10
-13.2876153935
 20
-61.5149094976
 10
-13.2593685828
 20
-61.5912618828
 10
-13.2283637995
 20
-61.6675840878
 10
-13.1948548295
 20
-61.7432513865
 10
-13.158821119
 20
-61.8182584036
 10
-13.1202832217
 20
-61.8926105143
 10
-13.079556585
 20
-61.9656991186
 10
-13.0366232442
 20
-62.0375138459
 10
-12.9915011639
 20
-62.1080650666
 10
-12.9445596855
 20
-62.1767752925
 10
-12.8957838757
 20
-62.2436294129
 10
-12.8451886677
 20
-62.3086425385
 10
-12.7931882025
 20
-62.3712825121
 10
-12.7397709461
 20
-62.4315298555
 10
-12.6849484324
 20
-62.489404047
 10
-12.6291694046
 20
-62.5444313643
 10
-12.5724260116
 20
-62.5965884411
 10
-12.5147261045
 20
-62.6458986438
 10
-12.4565419787
 20
-62.6919583497
 10
-12.3978696599
 20
-62.7347408795
 10
-12.3387131224
 20
-62.7742729125
 10
-12.279556585
 20
-62.8102308642
 10
-12.2204000476
 20
-62.8425853991
 10
-12.1612435101
 20
-62.8713658527
 10
-12.1025711913
 20
-62.896336646
 10
-12.0443870655
 20
-62.9174665101
 10
-11.9866871584
 20
-62.9347867139
 10
-11.9299437655
 20
-62.948155485
 10
-11.8741647376
 20
-62.9575403909
 10
-11.8193422239
 20
-62.962973864
 10
-11.7659249675
 20
-62.9644114294
 10
-11.7139245023
 20
-62.9618202895
 10
-11.6633292944
 20
-62.9552332419
 10
-11.6145534846
 20
-62.944704204
 10
-11.5676120061
 20
-62.9302008208
 10
-11.5224899258
 20
-62.9117554473
 10
-11.4795179288
 20
-62.8894967484
  0
LWPOLYLINE
  5
26F
100
AcDbEntity
  8
ASSI
100
AcDbPolyline
 62
7
  6
CONTINUOUS
 90
46
 70
0
 10
-13.4109274349
 20
28.9610913752
 10
-13.4093416536
 20
28.8914971403
 10
-13.404698636
 20
28.820696805
 10
-13.3969983823
 20
28.7486903693
 10
-13.3862030964
 20
28.6752742296
 10
-13.3723505743
 20
28.6006519895
 10
-13.3555542042
 20
28.5254344603
 10
-13.3357898235
 20
28.4496167561
 10
-13.3130815948
 20
28.3732037628
 10
-13.2876153935
 20
28.2968209497
 10
-13.2593685828
 20
28.2204685644
 10
-13.2283637995
 20
28.1441463594
 10
-13.1948548295
 20
28.0684790607
 10
-13.158821119
 20
27.9934720436
 10
-13.1202832217
 20
27.9191199329
 10
-13.079556585
 20
27.8460313286
 10
-13.0366232442
 20
27.7742166014
 10
-12.9915011639
 20
27.7036653806
 10
-12.9445596855
 20
27.6349551547
 10
-12.8957838757
 20
27.5681010343
 10
-12.8451886677
 20
27.5030879087
 10
-12.7931882025
 20
27.4404479351
 10
-12.7397709461
 20
27.3802005917
 10
-12.6849484324
 20
27.3223264002
 10
-12.6291694046
 20
27.2672990829
 10
-12.5724260116
 20
27.2151420061
 10
-12.5147261045
 20
27.1658318035
 10
-12.4565419787
 20
27.1197720975
 10
-12.3978696599
 20
27.0769895677
 10
-12.3387131224
 20
27.0374575347
 10
-12.279556585
 20
27.0014995831
 10
-12.2204000476
 20
26.9691450481
 10
-12.1612435101
 20
26.9403645945
 10
-12.1025711913
 20
26.9153938012
 10
-12.0443870655
 20
26.8942639371
 10
-11.9866871584
 20
26.8769437333
 10
-11.9299437655
 20
26.8635749622
 10
-11.8741647376
 20
26.8541900563
 10
-11.8193422239
 20
26.8487565832
 10
-11.7659249675
 20
26.8473190178
 10
-11.7139245023
 20
26.8499101577
 10
-11.6633292944
 20
26.8564972053
 10
-11.6145534846
 20
26.8670262432
 10
-11.5676120061
 20
26.8815296264
 10
-11.5224899258
 20
26.8999749999
 10
-11.4795179288
 20
26.9222336988
  0
LWPOLYLINE
  5
270
100
AcDbEntity
  8
ASSI
100
AcDbPolyline
 62
7
  6
CONTINUOUS
 90
46
 70
0
 10
-11.1481857351
 20
-62.1571177706
 10
-11.1497715165
 20
-62.0875235356
 10
-11.154414534
 20
-62.0167232003
 10
-11.1621147877
 20
-61.9447167647
 10
-11.1729100736
 20
-61.8713006249
 10
-11.1867625957
 20
-61.7966783848
 10
-11.2035589659
 20
-61.7214608557
 10
-11.2233233465
 20
-61.6456431514
 10
-11.2460315752
 20
-61.5692301581
 10
-11.2714977765
 20
-61.492847345
 10
-11.2997445872
 20
-61.4164949598
 10
-11.3307493705
 20
-61.3401727548
 10
-11.3642583405
 20
-61.2645054561
 10
-11.400292051
 20
-61.189498439
 10
-11.4388299483
 20
-61.1151463282
 10
-11.479556585
 20
-61.042057724
 10
-11.5224899258
 20
-60.9702429967
 10
-11.5676120061
 20
-60.899691776
 10
-11.6145534846
 20
-60.8309815501
 10
-11.6633292944
 20
-60.7641274296
 10
-11.7139245023
 20
-60.6991143041
 10
-11.7659249675
 20
-60.6364743305
 10
-11.8193422239
 20
-60.5762269871
 10
-11.8741647376
 20
-60.5183527956
 10
-11.9299437655
 20
-60.4633254783
 10
-11.9866871584
 20
-60.4111684015
 10
-12.0443870655
 20
-60.3618581988
 10
-12.1025711913
 20
-60.3157984929
 10
-12.1612435101
 20
-60.2730159631
 10
-12.2204000476
 20
-60.2334839301
 10
-12.279556585
 20
-60.1975259784
 10
-12.3387131224
 20
-60.1651714434
 10
-12.3978696599
 20
-60.1363909899
 10
-12.4565419787
 20
-60.1114201966
 10
-12.5147261045
 20
-60.0902903325
 10
-12.5724260116
 20
-60.0729701287
 10
-12.6291694046
 20
-60.0596013576
 10
-12.6849484324
 20
-60.0502164517
 10
-12.7397709461
 20
-60.0447829785
 10
-12.7931882025
 20
-60.0433454132
 10
-12.8451886677
 20
-60.045936553
 10
-12.8957838757
 20
-60.0525236007
 10
-12.9445596855
 20
-60.0630526386
 10
-12.9915011639
 20
-60.0775560218
 10
-13.0366232442
 20
-60.0960013953
 10
-13.0795952412
 20
-60.1182600942
  0
LWPOLYLINE
  5
271
100
AcDbEntity
  8
ASSI
100
AcDbPolyline
 62
7
  6
CONTINUOUS
 90
46
 70
0
 10
-11.1481857351
 20
27.6546126766
 10
-11.1497715165
 20
27.7242069116
 10
-11.154414534
 20
27.7950072469
 10
-11.1621147877
 20
27.8670136825
 10
-11.1729100736
 20
27.9404298223
 10
-11.1867625957
 20
28.0150520624
 10
-11.2035589659
 20
28.0902695915
 10
-11.2233233465
 20
28.1660872958
 10
-11.2460315752
 20
28.2425002891
 10
-11.2714977765
 20
28.3188831022
 10
-11.2997445872
 20
28.3952354874
 10
-11.3307493705
 20
28.4715576924
 10
-11.3642583405
 20
28.5472249911
 10
-11.400292051
 20
28.6222320082
 10
-11.4388299483
 20
28.696584119
 10
-11.479556585
 20
28.7696727232
 10
-11.5224899258
 20
28.8414874505
 10
-11.5676120061
 20
28.9120386712
 10
-11.6145534846
 20
28.9807488971
 10
-11.6633292944
 20
29.0476030176
 10
-11.7139245023
 20
29.1126161431
 10
-11.7659249675
 20
29.1752561168
 10
-11.8193422239
 20
29.2355034601
 10
-11.8741647376
 20
29.2933776516
 10
-11.9299437655
 20
29.348404969
 10
-11.9866871584
 20
29.4005620457
 10
-12.0443870655
 20
29.4498722484
 10
-12.1025711913
 20
29.4959319543
 10
-12.1612435101
 20
29.5387144841
 10
-12.2204000476
 20
29.5782465171
 10
-12.279556585
 20
29.6142044688
 10
-12.3387131224
 20
29.6465590038
 10
-12.3978696599
 20
29.6753394573
 10
-12.4565419787
 20
29.7003102506
 10
-12.5147261045
 20
29.7214401147
 10
-12.5724260116
 20
29.7387603185
 10
-12.6291694046
 20
29.7521290896
 10
-12.6849484324
 20
29.7615139955
 10
-12.7397709461
 20
29.7669474687
 10
-12.7931882025
 20
29.7683850341
 10
-12.8451886677
 20
29.7657938942
 10
-12.8957838757
 20
29.7592068465
 10
-12.9445596855
 20
29.7486778086
 10
-12.9915011639
 20
29.7341744254
 10
-13.0366232442
 20
29.7157290519
 10
-13.0795952412
 20
29.693470353
  0
LINE
  5
272
100
AcDbEntity
  8
0
100
AcDbLine
 62
253
  6
CONTINUOUS
 10
-16.5221972721
 20
-43.0514134362
 11
-16.5221972721
 21
92.0078426164
  0
LINE
  5
273
100
AcDbEntity
  8
0
100
AcDbLine
 62
7
  6
CONTINUOUS
 10
-16.5221972721
 20
-43.0514134362
 11
-16.5221972721
 21
-79.8742229195
  0
LINE
  5
274
100
AcDbEntity
  8
0
100
AcDbLine
 62
253
  6
CONTINUOUS
 10
-15.1079837098
 20
91.2924930574
 11
-15.1079837098
 21
-42.2350220693
  0
LINE
  5
275
100
AcDbEntity
  8
0
100
AcDbLine
 62
7
  6
CONTINUOUS
 10
-15.1079837098
 20
-42.2350220693
 11
-15.1079837098
 21
-43.8679626228
  0
LWPOLYLINE
  5
276
100
AcDbEntity
  8
0
100
AcDbPolyline
 62
7
  6
CONTINUOUS
 90
34
 70
0
 10
-16.5221972721
 20
-79.8742229195
 10
-16.5230132548
 20
-79.9136888264
 10
-16.525412364
 20
-79.9538059871
 10
-16.5293945996
 20
-79.9945744016
 10
-16.5349761308
 20
-80.0360892302
 10
-16.5421407885
 20
-80.0782553126
 10
-16.5508400652
 20
-80.1207871679
 10
-16.5610843742
 20
-80.1636872782
 10
-16.5728633021
 20
-80.2069531614
 10
-16.586097101
 20
-80.2502918905
 10
-16.6007956432
 20
-80.2937039599
 10
-16.6169490564
 20
-80.3371888753
 10
-16.6344479756
 20
-80.3804522267
 10
-16.653301531
 20
-80.4234925108
 10
-16.6735005925
 20
-80.4663112308
 10
-16.6949084044
 20
-80.5086184874
 10
-16.7175331691
 20
-80.55041081
 10
-16.7413666842
 20
-80.5916916691
 10
-16.7662475876
 20
-80.6321815772
 10
-16.7921829865
 20
-80.6718751671
 10
-16.8191657737
 20
-80.710777806
 10
-16.8470132651
 20
-80.7486261078
 10
-16.8757313284
 20
-80.785412918
 10
-16.9053140958
 20
-80.8211453912
 10
-16.9355612806
 20
-80.8555816044
 10
-16.9664773912
 20
-80.8887127616
 10
-16.9980579192
 20
-80.9205476589
 10
-17.0300890519
 20
-80.9508707615
 10
-17.062573847
 20
-80.9796718109
 10
-17.095509247
 20
-81.0069610656
 10
-17.1286722661
 20
-81.0325537668
 10
-17.161988576
 20
-81.056388328
 10
-17.195532505
 20
-81.0785263356
 10
-17.2293040533
 20
-81.0989677897
  0
LWPOLYLINE
  5
277
100
AcDbEntity
  8
ASSI
100
AcDbPolyline
 62
7
  6
CONTINUOUS
 90
20
 70
0
 10
15.6511612719
 20
62.1858716932
 10
15.6181865853
 20
62.1172542012
 10
15.5866607337
 20
62.0400139636
 10
15.5589508391
 20
61.9590044957
 10
15.5350333529
 20
61.8742490576
 10
15.515056481
 20
61.7862728402
 10
15.4990446921
 20
61.6950558444
 10
15.4869735175
 20
61.6006180693
 10
15.4789177566
 20
61.5035447026
 10
15.4749023428
 20
61.4038193789
 10
15.4749023428
 20
61.3014584637
 10
15.4789177566
 20
61.1970962408
 10
15.4869735175
 20
61.0907202834
 10
15.4990446921
 20
60.9823430184
 10
15.515056481
 20
60.8726360101
 10
15.5350333529
 20
60.7615910018
 10
15.5589508391
 20
60.6492162502
 10
15.5866607337
 20
60.5362080906
 10
15.6181865853
 20
60.4225625897
 10
15.6511612719
 20
60.3158667563
  0
LWPOLYLINE
  5
278
100
AcDbEntity
  8
RACCORDO
100
AcDbPolyline
 62
253
  6
CONTINUOUS
 90
25
 70
0
 10
-38.9728375748
 20
14.3650339887
 10
-39.1006417303
 20
14.4495165308
 10
-39.2223089075
 20
14.5476844444
 10
-39.3378391063
 20
14.6595377296
 10
-39.4489908034
 20
14.7874363311
 10
-39.5540055221
 20
14.9290203042
 10
-39.6476078328
 20
15.0772098144
 10
-39.7292088353
 20
15.232337803
 10
-39.7993974298
 20
15.3940713288
 10
-39.854664887
 20
15.5543317331
 10
-39.8942520636
 20
15.7130424471
 10
-39.9189181029
 20
15.8702800398
 10
-39.927431706
 20
16.0181955591
 10
-39.9189728817
 20
16.1563158186
 10
-39.8943616212
 20
16.2851140048
 10
-39.8548265991
 20
16.3981607255
 10
-39.7996104237
 20
16.494656286
 10
-39.7294704866
 20
16.5754003812
 10
-39.6479076373
 20
16.6363627025
 10
-39.5543411775
 20
16.6765388891
 10
-39.4493518054
 20
16.696933302
 10
-39.3381824647
 20
16.6965287156
 10
-39.2225808033
 20
16.6749860549
 10
-39.1007991733
 20
16.6326443951
 10
-38.9728375748
 20
16.569503736
  0
LWPOLYLINE
  5
279
100
AcDbEntity
  8
ASSI
100
AcDbPolyline
 62
7
  6
CONTINUOUS
 90
69
 70
0
 10
0.0948120858
 20
-48.155279857
 10
0.0985105727
 20
-48.4001075068
 10
0.1094857866
 20
-48.6482535439
 10
0.1277377277
 20
-48.8997179684
 10
0.1533063317
 20
-49.1548149814
 10
0.1861516627
 20
-49.4132303818
 10
0.2261539133
 20
-49.674021566
 10
0.2733392208
 20
-49.9371972105
 10
0.3276814479
 20
-50.2027486388
 10
0.3889823741
 20
-50.4697072176
 10
0.4572674132
 20
-50.7380780861
 10
0.5325111515
 20
-51.0078561053
 10
0.6144391277
 20
-51.2780572248
 10
0.7030757531
 20
-51.5486829899
 10
0.7983966164
 20
-51.8197318554
 10
0.9000540224
 20
-52.0902151356
 10
1.0080711127
 20
-52.3601307648
 10
1.1224247458
 20
-52.6294808087
 10
1.2426978019
 20
-52.897282778
 10
1.3689118992
 20
-53.1635310192
 10
1.5010454197
 20
-53.428231186
 10
1.6386163891
 20
-53.6904177501
 10
1.7816446654
 20
-53.9500815319
 10
1.9301103908
 20
-54.2072317111
 10
2.0834720172
 20
-54.4609302992
 10
2.2417474248
 20
-54.7111646907
 10
2.4049187335
 20
-54.9579474912
 10
2.5723907547
 20
-55.2003785284
 10
2.7441791951
 20
-55.4384419094
 10
2.9202683481
 20
-55.6721535272
 10
3.1000159058
 20
-55.9006608883
 10
3.2834352289
 20
-56.1239449866
 10
3.4705129566
 20
-56.3420248282
 10
3.6605666988
 20
-56.5541049388
 10
3.8536073241
 20
-56.760163407
 10
4.0496239638
 20
-56.9602221442
 10
4.2479016219
 20
-57.1535514102
 10
4.4484485559
 20
-57.3401266286
 10
4.6512565083
 20
-57.5199723758
 10
4.8555857109
 20
-57.6924326414
 10
5.0614417194
 20
-57.8574804528
 10
5.2688189781
 20
-58.0151427826
 10
5.4769610516
 20
-58.1648445368
 10
5.6858707331
 20
-58.3065566431
 10
5.8955452295
 20
-58.4403081738
 10
6.1052197258
 20
-58.5656112531
 10
6.3148942222
 20
-58.6824350265
 10
6.5245687185
 20
-58.7908103485
 10
6.7334784001
 20
-58.890341906
 10
6.9416204736
 20
-58.980997401
 10
7.1489977323
 20
-59.0628091315
 10
7.3548537408
 20
-59.1354786786
 10
7.5591829434
 20
-59.1989726546
 10
7.7619908958
 20
-59.2533244472
 10
7.9625378297
 20
-59.2983358012
 10
8.1608154879
 20
-59.3339726048
 10
8.3568321276
 20
-59.3602689699
 10
8.5498727529
 20
-59.3771289771
 10
8.7399264951
 20
-59.3845181641
 10
8.9270042228
 20
-59.3824709931
 10
9.1104235459
 20
-59.3709949316
 10
9.2901711035
 20
-59.3500555445
 10
9.4662602566
 20
-59.3196872668
 10
9.6380486969
 20
-59.2800008708
 10
9.8055207182
 20
-59.2309623259
 10
9.9686920269
 20
-59.1726056626
 10
10.1269674345
 20
-59.1051437445
 10
10.2803290609
 20
-59.0285433184
 10
10.3554131186
 20
-58.9866905347
  0
LWPOLYLINE
  5
27A
100
AcDbEntity
  8
ASSI
100
AcDbPolyline
 62
7
  6
CONTINUOUS
 90
64
 70
0
 10
1.5090256481
 20
-47.3387306704
 10
1.512724135
 20
-47.5835583201
 10
1.523699349
 20
-47.8317043572
 10
1.5419512901
 20
-48.0831687817
 10
1.567519894
 20
-48.3382657948
 10
1.6003652251
 20
-48.5966811952
 10
1.6403674756
 20
-48.8574723794
 10
1.6875527832
 20
-49.1206480238
 10
1.7418950103
 20
-49.3861994521
 10
1.8031959365
 20
-49.653158031
 10
1.8714809756
 20
-49.9215288995
 10
1.9467247139
 20
-50.1913069186
 10
2.02865269
 20
-50.4615080381
 10
2.1172893154
 20
-50.7321338032
 10
2.2126101787
 20
-51.0031826688
 10
2.3142675848
 20
-51.2736659489
 10
2.4222846751
 20
-51.5435815781
 10
2.5366383081
 20
-51.812931622
 10
2.6569113643
 20
-52.0807335914
 10
2.7831254616
 20
-52.3469818326
 10
2.9152589821
 20
-52.6116819993
 10
3.0528299515
 20
-52.8738685635
 10
3.1958582278
 20
-53.1335323452
 10
3.3443239532
 20
-53.3906825244
 10
3.4976855795
 20
-53.6443811125
 10
3.6559609872
 20
-53.8946155041
 10
3.8191322958
 20
-54.1413983046
 10
3.9866043171
 20
-54.3838293418
 10
4.1583927575
 20
-54.6218927228
 10
4.3344819105
 20
-54.8556043405
 10
4.5142294682
 20
-55.0841117017
 10
4.6976487912
 20
-55.3073957999
 10
4.884726519
 20
-55.5254756416
 10
5.0747802612
 20
-55.7375557522
 10
5.2678208864
 20
-55.9436142204
 10
5.4638375262
 20
-56.1436729575
 10
5.6621151843
 20
-56.3370022235
 10
5.8626621183
 20
-56.5235774419
 10
6.0654700707
 20
-56.7034231892
 10
6.2697992733
 20
-56.8758834547
 10
6.4756552818
 20
-57.0409312662
 10
6.6830325405
 20
-57.1985935959
 10
6.891174614
 20
-57.3482953502
 10
7.1000842955
 20
-57.4900074564
 10
7.3097587919
 20
-57.6237589871
 10
7.5194332882
 20
-57.7490620664
 10
7.7291077846
 20
-57.8658858398
 10
7.9387822809
 20
-57.9742611618
 10
8.1476919624
 20
-58.0737927193
 10
8.355834036
 20
-58.1644482143
 10
8.5632112947
 20
-58.2462599448
 10
8.7690673032
 20
-58.318929492
 10
8.9733965058
 20
-58.3824234679
 10
9.1762044582
 20
-58.4367752605
 10
9.3767513921
 20
-58.4817866146
 10
9.5750290503
 20
-58.5174234182
 10
9.77104569
 20
-58.5437197833
 10
9.9640863153
 20
-58.5605797904
 10
10.1541400575
 20
-58.5679689774
 10
10.3412177852
 20
-58.5659218065
 10
10.5246371083
 20
-58.554445745
 10
10.7043846659
 20
-58.5335063579
 10
10.8804738189
 20
-58.5031380802
 10
11.0027355506
 20
-58.4748932955
  0
LWPOLYLINE
  5
27B
100
AcDbEntity
  8
ASSI
100
AcDbPolyline
 62
7
  6
CONTINUOUS
 90
16
 70
0
 10
-7.8601392026
 20
-105.2086951547
 10
-7.8584047543
 20
-105.1345793577
 10
-7.8533264538
 20
-105.063005785
 10
-7.8449043014
 20
-104.9939744366
 10
-7.8330969574
 20
-104.9273103586
 10
-7.8179457613
 20
-104.8631885049
 10
-7.7995747315
 20
-104.8021337372
 10
-7.7779574401
 20
-104.7441712293
 10
-7.753120315
 20
-104.6892758074
 10
-7.7252666574
 20
-104.6378968113
 10
-7.6943717082
 20
-104.5900631029
 10
-7.6604602264
 20
-104.5457458202
 10
-7.6238097904
 20
-104.505307717
 10
-7.5843979195
 20
-104.4687806327
 10
-7.5422470944
 20
-104.4361327279
 10
-7.4977446157
 20
-104.4076556478
  0
LWPOLYLINE
  5
27C
100
AcDbEntity
  8
ASSI
100
AcDbPolyline
 62
7
  6
CONTINUOUS
 90
16
 70
0
 10
-5.3852654684
 20
-106.6376562314
 10
-5.3869999168
 20
-106.7117720284
 10
-5.3920782172
 20
-106.7833456011
 10
-5.4005003697
 20
-106.8523769495
 10
-5.4123077137
 20
-106.9190410275
 10
-5.4274589097
 20
-106.9831628812
 10
-5.4458299396
 20
-107.0442176489
 10
-5.4674472309
 20
-107.1021801568
 10
-5.492284356
 20
-107.1570755787
 10
-5.5201380137
 20
-107.2084545748
 10
-5.5510329629
 20
-107.2562882832
 10
-5.5849444446
 20
-107.3006055659
 10
-5.6215948806
 20
-107.3410436691
 10
-5.6610067515
 20
-107.3775707534
 10
-5.7031575766
 20
-107.4102186582
 10
-5.7476600553
 20
-107.4386957383
  0
LWPOLYLINE
  5
27D
100
AcDbEntity
  8
0
100
AcDbPolyline
 62
7
  6
CONTINUOUS
 90
17
 70
0
 10
-8.0369158979
 20
-105.1066265064
 10
-8.0099824203
 20
-104.8050044098
 10
-7.9302078753
 20
-104.54597311
 10
-7.8006308505
 20
-104.3393990286
 10
-7.6227023355
 20
-104.1911248873
 10
-7.4094231396
 20
-104.1119847214
 10
-7.1661779928
 20
-104.1018322569
 10
-6.902232027
 20
-104.161054198
 10
-6.6227023355
 20
-104.2902351395
 10
-6.3480134817
 20
-104.4799361401
 10
-6.0837874411
 20
-104.724609687
 10
-5.8400885013
 20
-105.0149362406
 10
-5.6227023355
 20
-105.3458998214
 10
-5.4475128289
 20
-105.6933177152
 10
-5.3170859256
 20
-106.049490828
 10
-5.2363895456
 20
-106.4008526366
 10
-5.2084887731
 20
-106.7397250225
  0
LWPOLYLINE
  5
27E
100
AcDbEntity
  8
RACCORDO
100
AcDbPolyline
 62
7
  6
CONTINUOUS
 90
6
 70
0
 10
-38.8485880022
 20
16.2948616194
 10
-38.8896280443
 20
16.3165472929
 10
-38.9238168756
 20
16.331188905
 10
-38.9499321919
 20
16.3397382069
 10
-38.9669931203
 20
16.3435852254
 10
-38.9719689471
 20
16.3443019985
  0
LWPOLYLINE
  5
27F
100
AcDbEntity
  8
RACCORDO
100
AcDbPolyline
 62
253
  6
CONTINUOUS
 90
25
 70
0
 10
-38.9728375748
 20
16.569503736
 10
-38.8450334193
 20
16.485021194
 10
-38.7233662421
 20
16.3868532803
 10
-38.6078360433
 20
16.2749999952
 10
-38.4966843463
 20
16.1471013936
 10
-38.3916696275
 20
16.0055174205
 10
-38.2980673168
 20
15.8573279103
 10
-38.2164663143
 20
15.7021999217
 10
-38.1462777198
 20
15.540466396
 10
-38.0910102626
 20
15.3802059917
 10
-38.051423086
 20
15.2214952776
 10
-38.0267570467
 20
15.064257685
 10
-38.0182434436
 20
14.9163421656
 10
-38.0267022679
 20
14.7782219061
 10
-38.0513135284
 20
14.64942372
 10
-38.0908485505
 20
14.5363769993
 10
-38.1460647259
 20
14.4398814387
 10
-38.216204663
 20
14.3591373436
 10
-38.2977675123
 20
14.2981750222
 10
-38.3913339721
 20
14.2579988356
 10
-38.4963233442
 20
14.2376044228
 10
-38.6074926849
 20
14.2380090091
 10
-38.7230943463
 20
14.2595516698
 10
-38.8448759763
 20
14.3018933297
 10
-38.9728375748
 20
14.3650339887
  0
LWPOLYLINE
  5
280
100
AcDbEntity
  8
RACCORDO
100
AcDbPolyline
 62
253
  6
CONTINUOUS
 90
15
 70
0
 10
-38.5485735061
 20
15.0998809108
 10
-38.627615046
 20
15.152357969
 10
-38.7048909431
 20
15.2173417168
 10
-38.7786749822
 20
15.2933805319
 10
-38.8473189509
 20
15.3787758412
 10
-38.9092894525
 20
15.4716200578
 10
-38.9632021611
 20
15.5698391909
 10
-39.007852754
 20
15.6712391884
 10
-39.0422438081
 20
15.773554942
 10
-39.06560708
 20
15.8745008785
 10
-39.0774206724
 20
15.9718220295
 10
-39.0774206897
 20
16.0633444031
 10
-39.0656071313
 20
16.1470235398
 10
-39.0422438922
 20
16.2209901864
 10
-39.0078528687
 20
16.2835920483
  0
LWPOLYLINE
  5
281
100
AcDbEntity
  8
ASSI
100
AcDbPolyline
 62
7
  6
CONTINUOUS
 90
31
 70
0
 10
21.2373048432
 20
-38.0188837309
 10
21.2195678524
 20
-37.9961882969
 10
21.1419718965
 20
-37.9023265315
 10
21.0625127747
 20
-37.8115408745
 10
20.9812019847
 20
-37.7238123433
 10
20.8985433724
 20
-37.6396845514
 10
20.8145285686
 20
-37.5591798572
 10
20.7291659426
 20
-37.4822759023
 10
20.6429844475
 20
-37.4094492256
 10
20.5559789986
 20
-37.3407251442
 10
20.4681546807
 20
-37.2760783409
 10
20.380055701
 20
-37.2159094025
 10
20.291680354
 20
-37.1602461336
 10
20.2030303451
 20
-37.1090607295
 10
20.1146549981
 20
-37.0626703629
 10
20.0265560184
 20
-37.0211048078
 10
19.9387317005
 20
-36.9843342902
 10
19.8517262517
 20
-36.9525866601
 10
19.7655447566
 20
-36.9258931066
 10
19.6801821305
 20
-36.9042224405
 10
19.5961673268
 20
-36.8877089453
 10
19.5135087145
 20
-36.8763846436
 10
19.4321979245
 20
-36.8702175127
 10
19.3527388027
 20
-36.8692457675
 10
19.2751428467
 20
-36.873501668
 10
19.1993985589
 20
-36.8829529542
 10
19.1259752921
 20
-36.8975410607
 10
19.0548874584
 20
-36.917297884
 10
18.9861206456
 20
-36.9421915277
 10
18.9201009703
 20
-36.9720677373
 10
18.87229523
 20
-36.9978282919
  0
LWPOLYLINE
  5
282
100
AcDbEntity
  8
ASSI
100
AcDbPolyline
 62
7
  6
CONTINUOUS
 90
21
 70
0
 10
-11.9460882988
 20
29.3632446114
 10
-11.9413406418
 20
29.341983647
 10
-11.9215762611
 20
29.2661659427
 10
-11.8988680325
 20
29.1897529494
 10
-11.8734018312
 20
29.1133701363
 10
-11.8451550205
 20
29.0370177511
 10
-11.8141502372
 20
28.9606955461
 10
-11.7806412671
 20
28.8850282474
 10
-11.7446075566
 20
28.8100212303
 10
-11.7060696593
 20
28.7356691195
 10
-11.6653430226
 20
28.6625805152
 10
-11.6224096818
 20
28.590765788
 10
-11.5772876015
 20
28.5202145673
 10
-11.5303461231
 20
28.4515043414
 10
-11.4815703133
 20
28.3846502209
 10
-11.4309751053
 20
28.3196370954
 10
-11.3789746402
 20
28.2569971217
 10
-11.3255573837
 20
28.1967497783
 10
-11.2707348701
 20
28.1388755869
 10
-11.2149558422
 20
28.0838482695
 10
-11.1988113089
 20
28.0690086271
  0
LWPOLYLINE
  5
283
100
AcDbEntity
  8
ASSI
100
AcDbPolyline
 62
7
  6
CONTINUOUS
 90
69
 70
0
 10
12.1156273659
 20
-55.0959479436
 10
12.111928879
 20
-54.8511202938
 10
12.100953665
 20
-54.6029742567
 10
12.082701724
 20
-54.3515098322
 10
12.05713312
 20
-54.0964128192
 10
12.024287789
 20
-53.8379974188
 10
11.9842855384
 20
-53.5772062346
 10
11.9371002308
 20
-53.3140305901
 10
11.8827580038
 20
-53.0484791619
 10
11.8214570775
 20
-52.781520583
 10
11.7531720385
 20
-52.5131497145
 10
11.6779283002
 20
-52.2433716954
 10
11.596000324
 20
-51.9731705759
 10
11.5073636986
 20
-51.7025448107
 10
11.4120428353
 20
-51.4314959452
 10
11.3103854293
 20
-51.161012665
 10
11.202368339
 20
-50.8910970358
 10
11.0880147059
 20
-50.621746992
 10
10.9677416498
 20
-50.3539450226
 10
10.8415275524
 20
-50.0876967814
 10
10.709394032
 20
-49.8229966147
 10
10.5718230626
 20
-49.5608100505
 10
10.4287947862
 20
-49.3011462687
 10
10.2803290609
 20
-49.0439960895
 10
10.1269674345
 20
-48.7902975014
 10
9.9686920269
 20
-48.5400631099
 10
9.8055207182
 20
-48.2932803094
 10
9.6380486969
 20
-48.0508492722
 10
9.4662602566
 20
-47.8127858912
 10
9.2901711035
 20
-47.5790742734
 10
9.1104235459
 20
-47.3505669123
 10
8.9270042228
 20
-47.127282814
 10
8.7399264951
 20
-46.9092029724
 10
8.5498727529
 20
-46.6971228618
 10
8.3568321276
 20
-46.4910643936
 10
8.1608154879
 20
-46.2910056565
 10
7.9625378297
 20
-46.0976763905
 10
7.7619908958
 20
-45.9111011721
 10
7.5591829434
 20
-45.7312554248
 10
7.3548537408
 20
-45.5587951593
 10
7.1489977323
 20
-45.3937473478
 10
6.9416204736
 20
-45.2360850181
 10
6.7334784001
 20
-45.0863832638
 10
6.5245687185
 20
-44.9446711576
 10
6.3148942222
 20
-44.8109196268
 10
6.1052197258
 20
-44.6856165476
 10
5.8955452295
 20
-44.5687927741
 10
5.6858707331
 20
-44.4604174521
 10
5.4769610516
 20
-44.3608858946
 10
5.2688189781
 20
-44.2702303997
 10
5.0614417194
 20
-44.1884186692
 10
4.8555857109
 20
-44.115749122
 10
4.6512565083
 20
-44.0522551461
 10
4.4484485559
 20
-43.9979033535
 10
4.2479016219
 20
-43.9528919994
 10
4.0496239638
 20
-43.9172551958
 10
3.8536073241
 20
-43.8909588307
 10
3.6605666988
 20
-43.8740988235
 10
3.4705129566
 20
-43.8667096366
 10
3.2834352289
 20
-43.8687568075
 10
3.1000159058
 20
-43.880232869
 10
2.9202683481
 20
-43.9011722561
 10
2.7441791951
 20
-43.9315405338
 10
2.5723907547
 20
-43.9712269299
 10
2.4049187335
 20
-44.0202654747
 10
2.2417474248
 20
-44.078622138
 10
2.0834720172
 20
-44.1460840561
 10
1.9301103908
 20
-44.2226844822
 10
1.8550263331
 20
-44.2645372659
  0
LINE
  5
284
100
AcDbEntity
  8
ASSI
100
AcDbLine
 62
7
  6
CONTINUOUS
 10
5.5041789618
 20
83.6381732592
 11
5.5041789618
 21
82.0052327056
  0
LWPOLYLINE
  5
285
100
AcDbEntity
  8
0
100
AcDbPolyline
 62
7
  6
CONTINUOUS
 90
17
 70
0
 10
-5.2084887731
 20
-106.7397248797
 10
-5.2354222507
 20
-107.0413469763
 10
-5.3151967957
 20
-107.3003782761
 10
-5.4447738205
 20
-107.5069523575
 10
-5.6227023355
 20
-107.6552264988
 10
-5.8359815314
 20
-107.7343666647
 10
-6.0792266783
 20
-107.7445191292
 10
-6.3431726441
 20
-107.6852971881
 10
-6.6227023355
 20
-107.5561162466
 10
-6.8973911893
 20
-107.366415246
 10
-7.16161723
 20
-107.1217416991
 10
-7.4053161698
 20
-106.8314151455
 10
-7.6227023355
 20
-106.5004515647
 10
-7.7978918421
 20
-106.1530336709
 10
-7.9283187455
 20
-105.7968605581
 10
-8.0090151255
 20
-105.4454987495
 10
-8.0369158979
 20
-105.1066263636
  0
LINE
  5
286
100
AcDbEntity
  8
0
100
AcDbLine
 62
7
  6
CONTINUOUS
 10
-32.7856532394
 20
24.142314872
 11
-33.4927600206
 21
24.5505894653
  0
LWPOLYLINE
  5
287
100
AcDbEntity
  8
ASSI
100
AcDbPolyline
 62
7
  6
CONTINUOUS
 90
48
 70
0
 10
18.3028117013
 20
-38.2565937154
 10
18.3048615868
 20
-38.360321452
 10
18.3108987816
 20
-38.4657186058
 10
18.3209232858
 20
-38.5727851769
 10
18.3349723538
 20
-38.6817496812
 10
18.3530087311
 20
-38.7923836027
 10
18.3749206547
 20
-38.9040013935
 10
18.4007321891
 20
-39.0166091628
 10
18.4304192696
 20
-39.1302008014
 10
18.4637979391
 20
-39.2440724338
 10
18.5008911199
 20
-39.3582257984
 10
18.5416758896
 20
-39.4726591568
 10
18.5858995235
 20
-39.5866634176
 10
18.6335833749
 20
-39.7002359165
 10
18.6847060906
 20
-39.8133793177
 10
18.7389508863
 20
-39.9253925233
 10
18.7963371484
 20
-40.0362685155
 10
18.8568454906
 20
-40.1460143121
 10
18.9201009703
 20
-40.2539498685
 10
18.9861206456
 20
-40.3600639441
 10
19.0548874584
 20
-40.4643677796
 10
19.1259752921
 20
-40.5662150514
 10
19.1993985589
 20
-40.6655905061
 10
19.2751428467
 20
-40.7625093972
 10
19.3527388027
 20
-40.8563711626
 10
19.4321979245
 20
-40.9471568196
 10
19.5135087145
 20
-41.0348853508
 10
19.5961673268
 20
-41.1190131427
 10
19.6801821305
 20
-41.1995178369
 10
19.7655447566
 20
-41.2764217918
 10
19.8517262517
 20
-41.3492484685
 10
19.9387317005
 20
-41.4179725499
 10
20.0265560184
 20
-41.4826193532
 10
20.1146549981
 20
-41.5427882916
 10
20.2030303451
 20
-41.5984515605
 10
20.291680354
 20
-41.6496369646
 10
20.380055701
 20
-41.6960273312
 10
20.4681546807
 20
-41.7375928863
 10
20.5559789986
 20
-41.7743634039
 10
20.6429844475
 20
-41.806111034
 10
20.7291659426
 20
-41.8328045875
 10
20.8145285686
 20
-41.8544752536
 10
20.8985433724
 20
-41.8709887488
 10
20.9812019847
 20
-41.8823130505
 10
21.0625127747
 20
-41.8884801814
 10
21.1419718965
 20
-41.8894519266
 10
21.2195678524
 20
-41.8851960261
 10
21.2373048432
 20
-41.8829828246
  0
LWPOLYLINE
  5
288
100
AcDbEntity
  8
ASSI
100
AcDbPolyline
 62
7
  6
CONTINUOUS
 90
31
 70
0
 10
19.7170252637
 20
-37.4400445287
 10
19.7190751491
 20
-37.5437722653
 10
19.725112344
 20
-37.6491694192
 10
19.7351368482
 20
-37.7562359902
 10
19.7491859161
 20
-37.8652004945
 10
19.7672222935
 20
-37.975834416
 10
19.789134217
 20
-38.0874522068
 10
19.8149457514
 20
-38.2000599761
 10
19.844632832
 20
-38.3136516148
 10
19.8780115015
 20
-38.4275232471
 10
19.9151046823
 20
-38.5416766118
 10
19.9558894519
 20
-38.6561099702
 10
20.0001130859
 20
-38.770114231
 10
20.0477969373
 20
-38.8836867298
 10
20.0989196529
 20
-38.9968301311
 10
20.1531644487
 20
-39.1088433367
 10
20.2105507108
 20
-39.2197193289
 10
20.271059053
 20
-39.3294651255
 10
20.3343145327
 20
-39.4374006818
 10
20.4003342079
 20
-39.5435147575
 10
20.4691010207
 20
-39.6478185929
 10
20.5401888545
 20
-39.7496658648
 10
20.6136121213
 20
-39.8490413194
 10
20.6893564091
 20
-39.9459602105
 10
20.766952365
 20
-40.039821976
 10
20.8464114869
 20
-40.1306076329
 10
20.9277222769
 20
-40.2183361642
 10
21.0103808892
 20
-40.302463956
 10
21.0943956929
 20
-40.3829686503
 10
21.179758319
 20
-40.4598726051
 10
21.2373048432
 20
-40.5085016306
  0
LWPOLYLINE
  5
289
100
AcDbEntity
  8
0
100
AcDbPolyline
 62
7
  6
CONTINUOUS
 90
22
 70
0
 10
22.6515184056
 20
-142.9936328677
 10
22.6540195455
 20
-143.145186855
 10
22.6614297772
 20
-143.2932677248
 10
22.6737491007
 20
-143.437875477
 10
22.6910084485
 20
-143.5792024642
 10
22.7131768881
 20
-143.7170563339
 10
22.7401616222
 20
-143.8508600281
 10
22.77198284
 20
-143.9805965693
 10
22.8086203523
 20
-144.106282935
 10
22.849920794
 20
-144.2273930009
 10
22.8959037115
 20
-144.3439075837
 10
22.9465495585
 20
-144.4558458666
 10
23.0016463309
 20
-144.5627392747
 10
23.0612126863
 20
-144.6645666606
 10
23.1252299671
 20
-144.7613491718
 10
23.1934301962
 20
-144.8526816755
 10
23.265830908
 20
-144.9385413261
 10
23.3424145681
 20
-145.0189509693
 10
23.4228605965
 20
-145.0935740094
 10
23.5071851838
 20
-145.1623861898
 10
23.5953721393
 20
-145.2254117671
 10
23.6869315109
 20
-145.2823171734
  0
LINE
  5
28A
100
AcDbEntity
  8
ASSI
100
AcDbLine
 62
7
  6
CONTINUOUS
 10
15.6511612719
 20
20.8894402067
 11
15.6511612719
 21
69.9007590219
  0
LINE
  5
28B
100
AcDbEntity
  8
ASSI
100
AcDbLine
 62
7
  6
CONTINUOUS
 10
17.0653748342
 20
20.0728910201
 11
17.0653748342
 21
69.0842098352
  0
LINE
  5
28C
100
AcDbEntity
  8
0
100
AcDbLine
 62
7
  6
CONTINUOUS
 10
21.2373048432
 20
-142.1770836811
 11
21.2373048432
 21
2.4077478322
  0
LWPOLYLINE
  5
28D
100
AcDbEntity
  8
RACCORDO
100
AcDbPolyline
 62
7
  6
CONTINUOUS
 90
20
 70
0
 10
-38.2141126862
 20
-88.9915567606
 10
-38.2143898895
 20
-88.992024242
 10
-38.2108081374
 20
-88.9836400999
 10
-38.2040189946
 20
-88.9602716851
 10
-38.1975247486
 20
-88.9220349881
 10
-38.1940894655
 20
-88.8693318028
 10
-38.1959717411
 20
-88.8034360714
 10
-38.2048831981
 20
-88.7258240599
 10
-38.2222910509
 20
-88.6373779458
 10
-38.2491008356
 20
-88.5405562647
 10
-38.2854171447
 20
-88.4386772484
 10
-38.3312178443
 20
-88.3339513779
 10
-38.3858947126
 20
-88.2291762861
 10
-38.4475660634
 20
-88.12840595
 10
-38.5147099108
 20
-88.0339002812
 10
-38.5855064425
 20
-87.9477439426
 10
-38.6566555073
 20
-87.8729326173
 10
-38.7254151678
 20
-87.8107476735
 10
-38.7900462337
 20
-87.7610128603
 10
-38.8485880022
 20
-87.7234516441
  0
LWPOLYLINE
  5
28E
100
AcDbEntity
  8
RACCORDO
100
AcDbPolyline
 62
253
  6
CONTINUOUS
 90
6
 70
0
 10
-37.3670143913
 20
-89.885610948
 10
-37.2847855376
 20
-89.7686360531
 10
-37.2196471635
 20
-89.6318826899
 10
-37.1724801212
 20
-89.477200083
 10
-37.1439223166
 20
-89.3066801363
 10
-37.1343599437
 20
-89.1226288317
  0
LWPOLYLINE
  5
28F
100
AcDbEntity
  8
RACCORDO
100
AcDbPolyline
 62
253
  6
CONTINUOUS
 90
5
 70
0
 10
-38.2498278857
 20
15.0337921267
 10
-38.3184718609
 20
15.0276651113
 10
-38.3922559336
 20
15.0368302289
 10
-38.4695318878
 20
15.0610827484
 10
-38.5485735061
 20
15.0998809108
  0
LINE
  5
290
100
AcDbEntity
  8
ASSI
100
AcDbLine
 62
253
  6
CONTINUOUS
 10
-55.1302275249
 20
46.5014039116
 11
-53.7160139625
 21
45.6848547249
  0
LINE
  5
291
100
AcDbEntity
  8
ASSI
100
AcDbLine
 62
253
  6
CONTINUOUS
 10
22.6515184056
 20
1.5911986455
 11
21.2373048432
 21
2.4077478322
  0
LINE
  5
292
100
AcDbEntity
  8
ASSI
100
AcDbLine
 62
253
  6
CONTINUOUS
 10
-56.5614958481
 20
52.8333477509
 11
-55.1472822857
 21
52.0167985642
  0
LINE
  5
293
100
AcDbEntity
  8
ASSI
100
AcDbLine
 62
253
  6
CONTINUOUS
 10
21.2202500824
 20
7.9231424848
 11
19.8060365201
 21
8.7396916715
  0
LINE
  5
294
100
AcDbEntity
  8
ASSI
100
AcDbLine
 62
253
  6
CONTINUOUS
 10
-58.9272856923
 20
57.0681664869
 11
-57.51307213
 21
56.2516173003
  0
LINE
  5
295
100
AcDbEntity
  8
ASSI
100
AcDbLine
 62
253
  6
CONTINUOUS
 10
18.8544602382
 20
12.1579612209
 11
17.4402466758
 21
12.9745104075
  0
LINE
  5
296
100
AcDbEntity
  8
ASSI
100
AcDbLine
 62
7
  6
CONTINUOUS
 10
19.8060365201
 20
8.7396916715
 11
17.4402466758
 21
12.9745104075
  0
LINE
  5
297
100
AcDbEntity
  8
ASSI
100
AcDbLine
 62
7
  6
CONTINUOUS
 10
21.2202500824
 20
7.9231424848
 11
18.8544602382
 21
12.1579612209
  0
LWPOLYLINE
  5
298
100
AcDbEntity
  8
ASSI
100
AcDbPolyline
 62
7
  6
CONTINUOUS
 90
19
 70
0
 10
17.4402466758
 20
12.9745104075
 10
17.2497721364
 20
13.330338459
 10
17.0697340411
 20
13.6969797714
 10
16.90013239
 20
14.0744343448
 10
16.7408727021
 20
14.4629556981
 10
16.5920494583
 20
14.8622903124
 10
16.4539461015
 20
15.2716776305
 10
16.3265830615
 20
15.6911368106
 10
16.2099399086
 20
16.1206486946
 10
16.1042387967
 20
16.559395251
 10
16.0095005788
 20
17.0073940789
 10
15.925704402
 20
17.4646275791
 10
15.8530098612
 20
17.9302249227
 10
15.7914381135
 20
18.4042020492
 10
15.7409680018
 20
18.886543019
 10
15.7016956494
 20
19.3763291844
 10
15.6736530975
 20
19.8732543296
 10
15.656808305
 20
20.3776246703
 10
15.6511612719
 20
20.8894402067
  0
LWPOLYLINE
  5
299
100
AcDbEntity
  8
ASSI
100
AcDbPolyline
 62
7
  6
CONTINUOUS
 90
19
 70
0
 10
19.8060365201
 20
8.7396916715
 10
19.9584161516
 20
8.4550292303
 10
20.1024466278
 20
8.1617161804
 10
20.2381279487
 20
7.8597525217
 10
20.3655356991
 20
7.548935439
 10
20.4845942941
 20
7.2294677476
 10
20.5950769795
 20
6.9019578931
 10
20.6969674115
 20
6.566390549
 10
20.7902819339
 20
6.2227810418
 10
20.8748428234
 20
5.8717837967
 10
20.9506333977
 20
5.5133847344
 10
21.0176703391
 20
5.1475979342
 10
21.0758259718
 20
4.7751200594
 10
21.1250833699
 20
4.3959383582
 10
21.1654594593
 20
4.0100655823
 10
21.1968773412
 20
3.61823665
 10
21.2193113827
 20
3.2206965339
 10
21.2327872167
 20
2.8172002613
 10
21.2373048432
 20
2.4077478322
  0
LWPOLYLINE
  5
29A
100
AcDbEntity
  8
ASSI
100
AcDbPolyline
 62
7
  6
CONTINUOUS
 90
19
 70
0
 10
18.8544602382
 20
12.1579612209
 10
18.6639856988
 20
12.5137892724
 10
18.4839476035
 20
12.8804305848
 10
18.3143459524
 20
13.2578851581
 10
18.1550862645
 20
13.6464065115
 10
18.0062630207
 20
14.0457411257
 10
17.8681596639
 20
14.4551284438
 10
17.7407966239
 20
14.874587624
 10
17.6241534709
 20
15.304099508
 10
17.518452359
 20
15.7428460643
 10
17.4237141412
 20
16.1908448922
 10
17.3399179644
 20
16.6480783925
 10
17.2672234236
 20
17.113675736
 10
17.2056516759
 20
17.5876528625
 10
17.1551815641
 20
18.0699938323
 10
17.1159092118
 20
18.5597799978
 10
17.0878666599
 20
19.0567051429
 10
17.0710218674
 20
19.5610754837
 10
17.0653748342
 20
20.0728910201
  0
LINE
  5
29B
100
AcDbEntity
  8
0
100
AcDbLine
 62
7
  6
CONTINUOUS
 10
22.6515184056
 20
-142.9936328677
 11
22.6515184056
 21
1.5911986455
  0
LWPOLYLINE
  5
29C
100
AcDbEntity
  8
ASSI
100
AcDbPolyline
 62
7
  6
CONTINUOUS
 90
7
 70
0
 10
19.7756499545
 20
-36.9290230551
 10
19.7672222935
 20
-36.9622209132
 10
19.7491859161
 20
-37.0520268783
 10
19.7351368482
 20
-37.144767871
 10
19.725112344
 20
-37.2402583959
 10
19.7190751491
 20
-37.3386839485
 10
19.7170252637
 20
-37.4400445287
  0
LWPOLYLINE
  5
29D
100
AcDbEntity
  8
RACCORDO
100
AcDbPolyline
 62
253
  6
CONTINUOUS
 90
3
 70
0
 10
-39.0078528687
 20
-87.7347212151
 10
-38.9632023015
 20
-87.6848825621
 10
-38.9533113927
 20
-87.6778130905
  0
LWPOLYLINE
  5
29E
100
AcDbEntity
  8
ASSI
100
AcDbPolyline
 62
7
  6
CONTINUOUS
 90
19
 70
0
 10
2.6219174635
 20
-43.9597853184
 10
2.5366383081
 20
-44.0511910605
 10
2.4222846751
 20
-44.1884883953
 10
2.3142675848
 20
-44.3336685962
 10
2.2126101787
 20
-44.486760452
 10
2.1172893154
 20
-44.6477351738
 10
2.02865269
 20
-44.8160055857
 10
1.9467247139
 20
-44.9915983319
 10
1.8714809756
 20
-45.1744867682
 10
1.8031959365
 20
-45.3640037852
 10
1.7418950103
 20
-45.560173591
 10
1.6875527832
 20
-45.7629719776
 10
1.6403674756
 20
-45.9716592116
 10
1.6003652251
 20
-46.1862567995
 10
1.567519894
 20
-46.4067432349
 10
1.5419512901
 20
-46.632314265
 10
1.523699349
 20
-46.8627018055
 10
1.512724135
 20
-47.0981739406
 10
1.5090256481
 20
-47.3387306704
  0
LINE
  5
29F
100
AcDbEntity
  8
0
100
AcDbLine
 62
7
  6
CONTINUOUS
 10
-16.5221972721
 20
-42.2350220693
 11
-33.4927600206
 21
-52.0336123091
  0
LINE
  5
2A0
100
AcDbEntity
  8
0
100
AcDbLine
 62
7
  6
CONTINUOUS
 10
-16.5221972721
 20
-43.0514134362
 11
-15.1079837098
 21
-42.2348642495
  0
LWPOLYLINE
  5
2A1
100
AcDbEntity
  8
0
100
AcDbPolyline
 62
7
  6
CONTINUOUS
 90
28
 70
0
 10
-16.5221972721
 20
-42.2350220693
 10
-16.4796255037
 20
-42.211861725
 10
-16.4351172328
 20
-42.1902979602
 10
-16.3886724592
 20
-42.1703307751
 10
-16.3401211822
 20
-42.1519034989
 10
-16.2896334026
 20
-42.1350728023
 10
-16.2377191227
 20
-42.1200086971
 10
-16.1843647647
 20
-42.1067291803
 10
-16.1295839064
 20
-42.095216255
 10
-16.0739272824
 20
-42.085585942
 10
-16.0173838722
 20
-42.0778571195
 10
-15.9599646964
 20
-42.0720109093
 10
-15.9022535517
 20
-42.0681066988
 10
-15.8442505982
 20
-42.0661642547
 10
-15.7859556759
 20
-42.0661638101
 10
-15.7279521015
 20
-42.0681054526
 10
-15.6702392098
 20
-42.0720090785
 10
-15.612817666
 20
-42.0778547913
 10
-15.5562727825
 20
-42.0855829896
 10
-15.500617069
 20
-42.0952121995
 10
-15.4458380157
 20
-42.106723895
 10
-15.3924834063
 20
-42.1200028958
 10
-15.3405647588
 20
-42.1350677673
 10
-15.2900705552
 20
-42.1518999441
 10
-15.2415140255
 20
-42.1703285504
 10
-15.1950662464
 20
-42.1902966273
 10
-15.1505561411
 20
-42.2118611336
 10
-15.1079837098
 20
-42.2350220693
  0
LINE
  5
2A2
100
AcDbEntity
  8
ASSI
100
AcDbLine
 62
253
  6
CONTINUOUS
 10
-60.7163710963
 20
64.9830962861
 11
-59.3021575339
 21
64.1665470994
  0
LINE
  5
2A3
100
AcDbEntity
  8
ASSI
100
AcDbLine
 62
253
  6
CONTINUOUS
 10
17.0653748342
 20
20.0728910201
 11
15.6511612719
 21
20.8894402067
  0
LWPOLYLINE
  5
2A4
100
AcDbEntity
  8
ASSI
100
AcDbPolyline
 62
7
  6
CONTINUOUS
 90
19
 70
0
 10
21.2202500824
 20
7.9231424848
 10
21.372629714
 20
7.6384800437
 10
21.5166601902
 20
7.3451669937
 10
21.6523415111
 20
7.043203335
 10
21.7797492614
 20
6.7323862524
 10
21.8988078565
 20
6.412918561
 10
22.0092905419
 20
6.0854087065
 10
22.1111809739
 20
5.7498413624
 10
22.2044954962
 20
5.4062318552
 10
22.2890563858
 20
5.0552346101
 10
22.36484696
 20
4.6968355478
 10
22.4318839015
 20
4.3310487476
 10
22.4900395341
 20
3.9585708727
 10
22.5392969323
 20
3.5793891715
 10
22.5796730217
 20
3.1935163957
 10
22.6110909036
 20
2.8016874633
 10
22.6335249451
 20
2.4041473472
 10
22.6470007791
 20
2.0006510746
 10
22.6515184056
 20
1.5911986455
  0
LWPOLYLINE
  5
2A5
100
AcDbEntity
  8
ASSI
100
AcDbPolyline
 62
7
  6
CONTINUOUS
 90
24
 70
0
 10
1.8550263331
 20
-44.2645372659
 10
1.7816446654
 20
-44.3083901632
 10
1.6386163891
 20
-44.4028884766
 10
1.5010454197
 20
-44.5062115336
 10
1.3689118992
 20
-44.618327223
 10
1.2426978019
 20
-44.7388265882
 10
1.1224247458
 20
-44.8677402472
 10
1.0080711127
 20
-45.0050375819
 10
0.9000540224
 20
-45.1502177828
 10
0.7983966164
 20
-45.3033096386
 10
0.7030757531
 20
-45.4642843605
 10
0.6144391277
 20
-45.6325547724
 10
0.5325111515
 20
-45.8081475186
 10
0.4572674132
 20
-45.9910359548
 10
0.3889823741
 20
-46.1805529718
 10
0.3276814479
 20
-46.3767227776
 10
0.2733392208
 20
-46.5795211642
 10
0.2261539133
 20
-46.7882083982
 10
0.1861516627
 20
-47.0028059862
 10
0.1533063317
 20
-47.2232924216
 10
0.1277377277
 20
-47.4488634517
 10
0.1094857866
 20
-47.6792509921
 10
0.0985105727
 20
-47.9147231272
 10
0.0948120858
 20
-48.155279857
  0
LWPOLYLINE
  5
2A6
100
AcDbEntity
  8
ASSI
100
AcDbPolyline
 62
7
  6
CONTINUOUS
 90
19
 70
0
 10
18.87229523
 20
-36.9978282919
 10
18.8568454906
 20
-37.0069574512
 10
18.7963371484
 20
-37.0468297309
 10
18.7389508863
 20
-37.0914375061
 10
18.6847060906
 20
-37.1408101813
 10
18.6335833749
 20
-37.1949183519
 10
18.5858995235
 20
-37.2534267344
 10
18.5416758896
 20
-37.3163626512
 10
18.5008911199
 20
-37.3836987799
 10
18.4637979391
 20
-37.4550178692
 10
18.4304192696
 20
-37.5303446507
 10
18.4007321891
 20
-37.6096543928
 10
18.3749206547
 20
-37.6924556492
 10
18.3530087311
 20
-37.7787700999
 10
18.3349723538
 20
-37.8685760649
 10
18.3209232858
 20
-37.9613170577
 10
18.3108987816
 20
-38.0568075826
 10
18.3048615868
 20
-38.1552331351
 10
18.3028117013
 20
-38.2565937154
  0
LINE
  5
2A7
100
AcDbEntity
  8
ASSI
100
AcDbLine
 62
253
  6
CONTINUOUS
 10
1.5090256481
 20
-47.3387306704
 11
0.0948120858
 21
-48.155279857
  0
LINE
  5
2A8
100
AcDbEntity
  8
ASSI
100
AcDbLine
 62
253
  6
CONTINUOUS
 10
19.7170252637
 20
-37.4400445287
 11
18.3028117013
 21
-38.2565937154
  0
LWPOLYLINE
  5
2A9
100
AcDbEntity
  8
0
100
AcDbPolyline
 62
7
  6
CONTINUOUS
 90
7
 70
0
 10
-37.2656824735
 20
-89.8747927164
 10
-37.1448989076
 20
-89.7845442049
 10
-37.0409826811
 20
-89.6649690147
 10
-36.9591678287
 20
-89.5220621844
 10
-36.9011829221
 20
-89.3578127612
 10
-36.8652993896
 20
-89.1702316978
 10
-36.8515172312
 20
-88.9593189944
  0
LWPOLYLINE
  5
2AA
100
AcDbEntity
  8
RACCORDO
100
AcDbPolyline
 62
253
  6
CONTINUOUS
 90
3
 70
0
 10
-37.5485251858
 20
-90.038102554
 10
-37.4652219617
 20
-89.9812256858
 10
-37.3670143913
 20
-89.885610948
  0
LWPOLYLINE
  5
2AB
100
AcDbEntity
  8
RACCORDO
100
AcDbPolyline
 62
7
  6
CONTINUOUS
 90
10
 70
0
 10
-39.5486218264
 20
-86.5740567361
 10
-39.6582671699
 20
-86.6467248857
 10
-39.7606216191
 20
-86.7345648731
 10
-39.8538433063
 20
-86.8373056472
 10
-39.9361917855
 20
-86.9544111928
 10
-40.006118762
 20
-87.0851414421
 10
-40.0624188644
 20
-87.2289897469
 10
-40.1039997325
 20
-87.3856128206
 10
-40.1297196783
 20
-87.5543408804
 10
-40.1385229998
 20
-87.7344953555
  0
LWPOLYLINE
  5
2AC
100
AcDbEntity
  8
ASSI
100
AcDbPolyline
 62
7
  6
CONTINUOUS
 90
16
 70
0
 10
-13.0795952412
 20
-60.1182600942
 10
-13.1202832217
 20
-60.1442962817
 10
-13.158821119
 20
-60.1741457947
 10
-13.1948548295
 20
-60.2075419861
 10
-13.2283637995
 20
-60.2445139661
 10
-13.2593685828
 20
-60.2850326246
 10
-13.2876153935
 20
-60.3287663008
 10
-13.3130815948
 20
-60.375741383
 10
-13.3357898235
 20
-60.425931483
 10
-13.3555542042
 20
-60.4789257759
 10
-13.3723505743
 20
-60.5347472779
 10
-13.3862030964
 20
-60.5933729726
 10
-13.3969983823
 20
-60.6543229868
 10
-13.404698636
 20
-60.7174373625
 10
-13.4093416536
 20
-60.7828760575
 10
-13.4109274349
 20
-60.850639072
  0
LWPOLYLINE
  5
2AD
100
AcDbEntity
  8
ASSI
100
AcDbPolyline
 62
7
  6
CONTINUOUS
 90
16
 70
0
 10
-11.4795179288
 20
-62.8894967484
 10
-11.4388299483
 20
-62.8634605608
 10
-11.400292051
 20
-62.8336110479
 10
-11.3642583405
 20
-62.8002148565
 10
-11.3307493705
 20
-62.7632428764
 10
-11.2997445872
 20
-62.722724218
 10
-11.2714977765
 20
-62.6789905418
 10
-11.2460315752
 20
-62.6320154596
 10
-11.2233233465
 20
-62.5818253595
 10
-11.2035589659
 20
-62.5288310667
 10
-11.1867625957
 20
-62.4730095647
 10
-11.1729100736
 20
-62.4143838699
 10
-11.1621147877
 20
-62.3534338558
 10
-11.154414534
 20
-62.2903194801
 10
-11.1497715165
 20
-62.224880785
 10
-11.1481857351
 20
-62.1571177706
  0
LINE
  5
2AE
100
AcDbEntity
  8
ASSI
100
AcDbLine
 62
253
  6
CONTINUOUS
 10
-12.2796688804
 20
-60.1974645606
 11
-13.4109274349
 21
-60.850639072
  0
LINE
  5
2AF
100
AcDbEntity
  8
0
100
AcDbLine
 62
253
  6
CONTINUOUS
 10
-33.4927600206
 20
-81.5090573098
 11
-34.906973583
 21
-82.3256064965
  0
LINE
  5
2B0
100
AcDbEntity
  8
0
100
AcDbLine
 62
253
  6
CONTINUOUS
 10
59.845335096
 20
93.7848227316
 11
59.845335096
 21
-125.6007406427
  0
LINE
  5
2B1
100
AcDbEntity
  8
0
100
AcDbLine
 62
7
  6
CONTINUOUS
 10
60.7240147525
 20
95.0096465116
 11
60.7240147525
 21
-124.3759168627
  0
LWPOLYLINE
  5
2B2
100
AcDbEntity
  8
ASSI
100
AcDbPolyline
 62
7
  6
CONTINUOUS
 90
24
 70
0
 10
10.3554131186
 20
-58.9866905347
 10
10.4287947862
 20
-58.9428376374
 10
10.5718230626
 20
-58.848339324
 10
10.709394032
 20
-58.745016267
 10
10.8415275524
 20
-58.6329005776
 10
10.9677416498
 20
-58.5124012124
 10
11.0880147059
 20
-58.3834875535
 10
11.202368339
 20
-58.2461902187
 10
11.3103854293
 20
-58.1010100178
 10
11.4120428353
 20
-57.947918162
 10
11.5073636986
 20
-57.7869434401
 10
11.596000324
 20
-57.6186730283
 10
11.6779283002
 20
-57.443080282
 10
11.7531720385
 20
-57.2601918458
 10
11.8214570775
 20
-57.0706748288
 10
11.8827580038
 20
-56.874505023
 10
11.9371002308
 20
-56.6717066364
 10
11.9842855384
 20
-56.4630194024
 10
12.024287789
 20
-56.2484218144
 10
12.05713312
 20
-56.027935379
 10
12.082701724
 20
-55.802364349
 10
12.100953665
 20
-55.5719768085
 10
12.111928879
 20
-55.3365046734
 10
12.1156273659
 20
-55.0959479436
  0
LINE
  5
2B3
100
AcDbEntity
  8
0
100
AcDbLine
 62
7
  6
CONTINUOUS
 10
-39.2657791139
 20
-86.4107468988
 11
-39.5486218264
 21
-86.5740567361
  0
LINE
  5
2B4
100
AcDbEntity
  8
0
100
AcDbLine
 62
253
  6
CONTINUOUS
 10
-32.7856532394
 20
-82.73380218
 11
-34.1998668018
 21
-83.5503513666
  0
LINE
  5
2B5
100
AcDbEntity
  8
0
100
AcDbLine
 62
7
  6
CONTINUOUS
 10
-37.2656824733
 20
-89.8747927167
 11
-37.5485251858
 21
-90.038102554
  0
LINE
  5
2B6
100
AcDbEntity
  8
0
100
AcDbLine
 62
7
  6
CONTINUOUS
 10
-17.2293040533
 20
-81.0989677897
 11
-26.4231955467
 21
-86.4074055114
  0
LINE
  5
2B7
100
AcDbEntity
  8
0
100
AcDbLine
 62
7
  6
CONTINUOUS
 10
-50.1804800566
 20
-100.9409552057
 11
-44.0993617384
 21
-97.429793703
  0
LINE
  5
2B8
100
AcDbEntity
  8
RACCORDO
100
AcDbLine
 62
253
  6
CONTINUOUS
 10
-38.2067678112
 20
-88.9697331868
 11
-38.2498278857
 21
-88.9845211367
  0
LINE
  5
2B9
100
AcDbEntity
  8
ASSI
100
AcDbLine
 62
253
  6
CONTINUOUS
 10
-60.7163710963
 20
113.9944151013
 11
-59.3021575339
 21
113.1778659146
  0
LINE
  5
2BA
100
AcDbEntity
  8
ASSI
100
AcDbLine
 62
253
  6
CONTINUOUS
 10
17.0653748342
 20
69.0842098352
 11
15.6511612719
 21
69.9007590219
  0
LINE
  5
2BB
100
AcDbEntity
  8
0
100
AcDbLine
 62
7
  6
CONTINUOUS
 10
1.3360757139
 20
83.7198044572
 11
12.1873984229
 21
77.454386724
  0
LWPOLYLINE
  5
2BC
100
AcDbEntity
  8
ASSI
100
AcDbPolyline
 62
7
  6
CONTINUOUS
 90
52
 70
0
 10
5.5041789618
 20
82.0052327056
 10
5.7974433584
 20
81.8917129286
 10
6.0919837199
 20
81.7702279846
 10
6.3875663034
 20
81.6408958863
 10
6.6840632124
 20
81.5038625651
 10
6.9811313842
 20
81.3592431101
 10
7.2782142669
 20
81.2071327333
 10
7.5750264468
 20
81.0477404073
 10
7.871384217
 20
80.8811959583
 10
8.1668840856
 20
80.7074925416
 10
8.4614020082
 20
80.5267603806
 10
8.7545913606
 20
80.3392381514
 10
9.0457198836
 20
80.1451034678
 10
9.3345229376
 20
79.9446211581
 10
9.6208169534
 20
79.7379781566
 10
9.9040021102
 20
79.5252642753
 10
10.1838410231
 20
79.3067531833
 10
10.4601437469
 20
79.0826670204
 10
10.73238695
 20
78.8530285453
 10
11.0004761695
 20
78.6180036151
 10
11.2640926792
 20
78.377946076
 10
11.5223951286
 20
78.1331817233
 10
11.775199527
 20
77.8839997648
 10
12.0223364501
 20
77.6306899124
 10
12.263024527
 20
77.3736102552
 10
12.4969769714
 20
77.1132177766
 10
12.7242024573
 20
76.8496701211
 10
12.9443774495
 20
76.5828821744
 10
13.1574934287
 20
76.3129707511
 10
13.363285144
 20
76.040414181
 10
13.5610640747
 20
75.7656714342
 10
13.7506024477
 20
75.489217774
 10
13.9319552879
 20
75.2111859502
 10
14.1048789922
 20
74.931522213
 10
14.2693567711
 20
74.6503688678
 10
14.425238006
 20
74.3681675445
 10
14.5720927519
 20
74.0853080568
 10
14.7097725453
 20
73.802248276
 10
14.8383492181
 20
73.5190943931
 10
14.9577291691
 20
73.2357041367
 10
15.0679037164
 20
72.9522090073
 10
15.1687900441
 20
72.6690209701
 10
15.2601787701
 20
72.3864134653
 10
15.3419988686
 20
72.1047719588
 10
15.414296488
 20
71.8242240075
 10
15.4770321882
 20
71.5446547777
 10
15.5301906942
 20
71.2662072018
 10
15.5737447901
 20
70.9892437721
 10
15.6076244197
 20
70.7139804542
 10
15.6318067498
 20
70.4406491328
 10
15.6463157492
 20
70.1694975784
 10
15.6511612719
 20
69.9007590219
  0
LWPOLYLINE
  5
2BD
100
AcDbEntity
  8
ASSI
100
AcDbPolyline
 62
7
  6
CONTINUOUS
 90
28
 70
0
 10
5.5041789618
 20
82.0052327056
 10
2.9469217477
 20
83.0458074668
 10
0.4145292953
 20
84.105390354
 10
-2.0929983953
 20
85.1839813672
 10
-4.5760890305
 20
86.2817748186
 10
-7.034314904
 20
87.3985763961
 10
-9.4663928965
 20
88.533803163
 10
-11.8723093573
 20
89.6874647386
 10
-14.2520779371
 20
90.8595515036
 10
-16.604456469
 20
92.0494516646
 10
-18.9294306537
 20
93.257174521
 10
-21.2270147906
 20
94.4827107733
 10
-23.4960096104
 20
95.7254207287
 10
-25.736400188
 20
96.985313353
 10
-27.9482014485
 20
98.2623796804
 10
-30.1302588989
 20
99.5559531212
 10
-32.2825570113
 20
100.866042293
 10
-34.4051113135
 20
102.1926385781
 10
-36.4968138969
 20
103.5350495337
 10
-38.5576486548
 20
104.8932834157
 10
-40.5876316939
 20
106.2673319682
 10
-42.5857034245
 20
107.6564779794
 10
-44.5518471871
 20
109.0607293312
 10
-46.4860796413
 20
110.4800781418
 10
-48.3873911766
 20
111.9137835541
 10
-50.255445256
 20
113.361598616
 10
-52.0905784164
 20
114.8237702796
 10
-53.8927906578
 20
116.3002985451
  0
LWPOLYLINE
  5
2BE
100
AcDbEntity
  8
ASSI
100
AcDbPolyline
 62
7
  6
CONTINUOUS
 90
28
 70
0
 10
5.5041789618
 20
83.6381732592
 10
2.9469217477
 20
84.6787480204
 10
0.4145292953
 20
85.7383309076
 10
-2.0929983953
 20
86.8169219208
 10
-4.5760890305
 20
87.9147153722
 10
-7.034314904
 20
89.0315169496
 10
-9.4663928965
 20
90.1667437166
 10
-11.8723093573
 20
91.3204052922
 10
-14.2520779371
 20
92.4924920572
 10
-16.604456469
 20
93.6823922182
 10
-18.9294306537
 20
94.8901150746
 10
-21.2270147906
 20
96.1156513269
 10
-23.4960096104
 20
97.3583612823
 10
-25.736400188
 20
98.6182539066
 10
-27.9482014485
 20
99.895320234
 10
-30.1302588989
 20
101.1888936748
 10
-32.2825570113
 20
102.4989828466
 10
-34.4051113135
 20
103.8255791317
 10
-36.4968138969
 20
105.1679900872
 10
-38.5576486548
 20
106.5262239693
 10
-40.5876316939
 20
107.9002725218
 10
-42.5857034245
 20
109.289418533
 10
-44.5518471871
 20
110.6936698848
 10
-46.4860796413
 20
112.1130186953
 10
-48.3873911766
 20
113.5467241077
 10
-50.255445256
 20
114.9945391696
 10
-52.0905784164
 20
116.4567108332
 10
-54.1257750643
 20
118.1227838643
  0
LWPOLYLINE
  5
2BF
100
AcDbEntity
  8
ASSI
100
AcDbPolyline
 62
7
  6
CONTINUOUS
 90
52
 70
0
 10
5.5041789618
 20
83.6381732592
 10
5.8412972954
 20
83.498547475
 10
6.1796991805
 20
83.3493787419
 10
6.5191083754
 20
83.1908065293
 10
6.859360288
 20
83.0229955406
 10
7.2000629225
 20
82.8460895512
 10
7.5405988603
 20
82.6602243675
 10
7.8806303386
 20
82.4656466938
 10
8.2199407052
 20
82.2625102244
 10
8.5580947988
 20
82.0508309432
 10
8.8949397288
 20
81.830759117
 10
9.2300721411
 20
81.602580451
 10
9.562687211
 20
81.3665398263
 10
9.8924719784
 20
81.1229501036
 10
10.2192097023
 20
80.8720323234
 10
10.5422526889
 20
80.613927955
 10
10.8613200714
 20
80.3489602401
 10
11.1761876902
 20
80.0773918929
 10
11.4862992116
 20
79.799285694
 10
11.7915374475
 20
79.5148344521
 10
12.0915312715
 20
79.2244595532
 10
12.385365159
 20
78.9285915258
 10
12.672822155
 20
78.6275724428
 10
12.9537015422
 20
78.3217444092
 10
13.2271572158
 20
78.0115752724
 10
13.4928574896
 20
77.6976092856
 10
13.7508053714
 20
77.3800285741
 10
14.0006741067
 20
77.0587646538
 10
14.2424487252
 20
76.733952748
 10
14.4758206503
 20
76.406160986
 10
14.7000464848
 20
76.0759723822
 10
14.9148654212
 20
75.7439534494
 10
15.12033411
 20
75.4102562362
 10
15.3162098294
 20
75.0748433017
 10
15.5024712681
 20
74.7378819771
 10
15.6789418913
 20
74.3998950369
 10
15.845163163
 20
74.0613717971
 10
16.000966919
 20
73.7228575892
 10
16.1464307588
 20
73.3844737007
 10
16.2814717645
 20
73.0460679876
 10
16.4060794351
 20
72.7077957206
 10
16.5201561381
 20
72.3701439064
 10
16.623482845
 20
72.0334521132
 10
16.7159802644
 20
71.6981785749
 10
16.7976982872
 20
71.3644713573
 10
16.8686047825
 20
71.0322031082
 10
16.9286828585
 20
70.701543418
 10
16.9778991906
 20
70.3729200163
 10
17.0161819825
 20
70.0465944852
 10
17.0435079158
 20
69.7228429871
 10
17.0599016512
 20
69.401956225
 10
17.0653748342
 20
69.0842098352
  0
LWPOLYLINE
  5
2C0
100
AcDbEntity
  8
ASSI
100
AcDbPolyline
 62
7
  6
CONTINUOUS
 90
46
 70
0
 10
-7.4977446157
 20
-104.4076556478
 10
-7.450743994
 20
-104.3833101958
 10
-7.4013917187
 20
-104.3631355686
 10
-7.3500494766
 20
-104.3472724933
 10
-7.2967009347
 20
-104.335756358
 10
-7.241362426
 20
-104.3285517746
 10
-7.1844869172
 20
-104.3257177154
 10
-7.126061793
 20
-104.3272900525
 10
-7.0660996687
 20
-104.3332329138
 10
-7.0050913569
 20
-104.3434976546
 10
-6.9430282709
 20
-104.358119748
 10
-6.8799189974
 20
-104.3770637209
 10
-6.8162801098
 20
-104.4001745098
 10
-6.7521072612
 20
-104.4274863149
 10
-6.6874047983
 20
-104.458964936
 10
-6.6227023355
 20
-104.4943527087
 10
-6.5579998727
 20
-104.5336817183
 10
-6.4932974099
 20
-104.5769198794
 10
-6.4291245612
 20
-104.6237132714
 10
-6.3654856736
 20
-104.6740910747
 10
-6.3023764002
 20
-104.7280241089
 10
-6.2403133141
 20
-104.7850709116
 10
-6.1793050024
 20
-104.84525704
 10
-6.1193428781
 20
-104.9085569369
 10
-6.0609177538
 20
-104.9744524687
 10
-6.0040422451
 20
-105.0429649399
 10
-5.9487037364
 20
-105.1140730459
 10
-5.8953551944
 20
-105.1871947402
 10
-5.8440129524
 20
-105.2623465497
 10
-5.7946606771
 20
-105.3395119474
 10
-5.7477023355
 20
-105.4180593054
 10
-5.7031575766
 20
-105.4979999663
 10
-5.6610067515
 20
-105.5793225874
 10
-5.6215948806
 20
-105.6613615123
 10
-5.5849444446
 20
-105.7441226203
 10
-5.5510329629
 20
-105.8276000321
 10
-5.5201380137
 20
-105.9111104534
 10
-5.492284356
 20
-105.9946541552
 10
-5.4674472309
 20
-106.0782308667
 10
-5.4458299396
 20
-106.1611564807
 10
-5.4274589097
 20
-106.2434256532
 10
-5.4123077137
 20
-106.3250437283
 10
-5.4005003697
 20
-106.4053426311
 10
-5.3920782172
 20
-106.4840996701
 10
-5.3869999168
 20
-106.5615375369
 10
-5.3852654684
 20
-106.6376562314
  0
LWPOLYLINE
  5
2C1
100
AcDbEntity
  8
ASSI
100
AcDbPolyline
 62
7
  6
CONTINUOUS
 90
46
 70
0
 10
-5.7476600553
 20
-107.4386957383
 10
-5.7946606771
 20
-107.4630411903
 10
-5.8440129524
 20
-107.4832158175
 10
-5.8953551944
 20
-107.4990788929
 10
-5.9487037364
 20
-107.5105950281
 10
-6.0040422451
 20
-107.5177996115
 10
-6.0609177538
 20
-107.5206336707
 10
-6.1193428781
 20
-107.5190613336
 10
-6.1793050024
 20
-107.5131184723
 10
-6.2403133141
 20
-107.5028537315
 10
-6.3023764002
 20
-107.4882316381
 10
-6.3654856736
 20
-107.4692876652
 10
-6.4291245612
 20
-107.4461768763
 10
-6.4932974099
 20
-107.4188650712
 10
-6.5579998727
 20
-107.3873864501
 10
-6.6227023355
 20
-107.3519986774
 10
-6.6874047983
 20
-107.3126696678
 10
-6.7521072612
 20
-107.2694315067
 10
-6.8162801098
 20
-107.2226381147
 10
-6.8799189974
 20
-107.1722603114
 10
-6.9430282709
 20
-107.1183272772
 10
-7.0050913569
 20
-107.0612804745
 10
-7.0660996687
 20
-107.0010943461
 10
-7.126061793
 20
-106.9377944492
 10
-7.1844869172
 20
-106.8718989174
 10
-7.241362426
 20
-106.8033864463
 10
-7.2967009347
 20
-106.7322783402
 10
-7.3500494766
 20
-106.6591566459
 10
-7.4013917187
 20
-106.5840048364
 10
-7.450743994
 20
-106.5068394387
 10
-7.4977023355
 20
-106.4282920808
 10
-7.5422470944
 20
-106.3483514198
 10
-7.5843979195
 20
-106.2670287987
 10
-7.6238097904
 20
-106.1849898738
 10
-7.6604602264
 20
-106.1022287658
 10
-7.6943717082
 20
-106.018751354
 10
-7.7252666574
 20
-105.9352409327
 10
-7.753120315
 20
-105.8516972309
 10
-7.7779574401
 20
-105.7681205194
 10
-7.7995747315
 20
-105.6851949054
 10
-7.8179457613
 20
-105.6029257329
 10
-7.8330969574
 20
-105.5213076578
 10
-7.8449043014
 20
-105.441008755
 10
-7.8533264538
 20
-105.362251716
 10
-7.8584047543
 20
-105.2848138492
 10
-7.8601392026
 20
-105.2086951547
  0
LINE
  5
2C2
100
AcDbEntity
  8
0
100
AcDbLine
 62
253
  6
CONTINUOUS
 10
21.2373048432
 20
-115.2324598088
 11
20.9544621308
 21
-115.3957696462
  0
LINE
  5
2C3
100
AcDbEntity
  8
0
100
AcDbLine
 62
253
  6
CONTINUOUS
 10
-8.7440226791
 20
144.0015718827
 11
50.6529469406
 21
109.7065060431
  0
LINE
  5
2C4
100
AcDbEntity
  8
0
100
AcDbLine
 62
7
  6
CONTINUOUS
 10
-7.2439501987
 20
144.1501954157
 11
52.153019421
 21
109.8551295762
  0
LWPOLYLINE
  5
2C5
100
AcDbEntity
  8
0
100
AcDbPolyline
 62
253
  6
CONTINUOUS
 90
52
 70
0
 10
50.6529469406
 20
109.7065060431
 10
50.9360270721
 20
109.5380250582
 10
51.218838685
 20
109.359635758
 10
51.5011135152
 20
109.1715073556
 10
51.7825838081
 20
108.9738183021
 10
52.062982572
 20
108.7667561177
 10
52.3420438317
 20
108.5505172134
 10
52.6195028807
 20
108.3253067048
 10
52.8950965323
 20
108.0913382177
 10
53.1685633691
 20
107.8488336855
 10
53.4396439914
 20
107.5980231383
 10
53.7080812627
 20
107.3391444853
 10
53.9736205541
 20
107.0724432884
 10
54.2360099854
 20
106.7981725299
 10
54.4950006644
 20
106.5165923722
 10
54.7503469227
 20
106.2279699112
 10
55.0018065489
 20
105.9325789227
 10
55.2491410183
 20
105.630699603
 10
55.4921157193
 20
105.3226183029
 10
55.7305001755
 20
105.0086272562
 10
55.9640682649
 20
104.6890243025
 10
56.1925984341
 20
104.3641126044
 10
56.4158739082
 20
104.0342003604
 10
56.6336828971
 20
103.6996005123
 10
56.8458187956
 20
103.3606304482
 10
57.0520803801
 20
103.0176117019
 10
57.2522719988
 20
102.6708696473
 10
57.446203758
 20
102.3207331903
 10
57.6336917016
 20
101.9675344566
 10
57.814557986
 20
101.6116084765
 10
57.9886310485
 20
101.2532928675
 10
58.1557457702
 20
100.8929275135
 10
58.3157436328
 20
100.5308542429
 10
58.4684728686
 20
100.1674165041
 10
58.6137886046
 20
99.8029590399
 10
58.7515530001
 20
99.4378275603
 10
58.8816353772
 20
99.0723684145
 10
59.0039123449
 20
98.7069282628
 10
59.118267916
 20
98.3418537472
 10
59.2245936174
 20
97.9774911629
 10
59.3227885928
 20
97.6141861301
 10
59.4127596981
 20
97.2522832655
 10
59.4944215905
 20
96.892125856
 10
59.5676968086
 20
96.5340555325
 10
59.6325158464
 20
96.1784119466
 10
59.6888172192
 20
95.8255324477
 10
59.7365475218
 20
95.4757517634
 10
59.7756614789
 20
95.1294016819
 10
59.8061219887
 20
94.7868107371
 10
59.8279001576
 20
94.4483038974
 10
59.8409753275
 20
94.114202257
 10
59.845335096
 20
93.7848227316
  0
LWPOLYLINE
  5
2C6
100
AcDbEntity
  8
0
100
AcDbPolyline
 62
7
  6
CONTINUOUS
 90
46
 70
0
 10
52.153019421
 20
109.8551295762
 10
52.4738682179
 20
109.6634711067
 10
52.7919308085
 20
109.4607112476
 10
53.1070298076
 20
109.2470968864
 10
53.4192521278
 20
109.0226746981
 10
53.7281669787
 20
108.7878466644
 10
54.0328244541
 20
108.5434786552
 10
54.3329364323
 20
108.2899900572
 10
54.6284702064
 20
108.0275845587
 10
54.9188603392
 20
107.7569467715
 10
55.2037584834
 20
107.4786127595
 10
55.483214057
 20
107.1927350099
 10
55.7572358496
 20
106.899470007
 10
56.02574066
 20
106.5990449342
 10
56.2884813706
 20
106.2918649724
 10
56.5451963776
 20
105.9783691899
 10
56.7956527348
 20
105.6589803794
 10
57.0397718045
 20
105.3339286904
 10
57.2775088308
 20
105.0033789567
 10
57.5086960547
 20
104.6676513904
 10
57.7331755933
 20
104.3270534688
 10
57.9508935853
 20
103.9817245382
 10
58.1617067147
 20
103.6319255183
 10
58.3654180243
 20
103.2780064599
 10
58.561880531
 20
102.9202355435
 10
58.7509059145
 20
102.5589568697
 10
58.9323488165
 20
102.1944367752
 10
59.1061180633
 20
101.8268180149
 10
59.2720387289
 20
101.4564016433
 10
59.4299374501
 20
101.0834872341
 10
59.5797099007
 20
100.7081976283
 10
59.7212127224
 20
100.3307174447
 10
59.8542157359
 20
99.9514558452
 10
59.9784899619
 20
99.5708519271
 10
60.0938475301
 20
99.189248728
 10
60.2001292252
 20
98.8068954753
 10
60.2971652093
 20
98.4240618658
 10
60.3847896018
 20
98.0409806018
 10
60.4628059789
 20
97.6580014232
 10
60.5310119107
 20
97.2755295541
 10
60.5892395452
 20
96.8937849521
 10
60.637295551
 20
96.5131172907
 10
60.6749720481
 20
96.1340733361
 10
60.7020967068
 20
95.7570017123
 10
60.7185044977
 20
95.3820954103
 10
60.7240147525
 20
95.0096465116
  0
LWPOLYLINE
  5
2C7
100
AcDbEntity
  8
0
100
AcDbPolyline
 62
7
  6
CONTINUOUS
 90
18
 70
0
 10
59.845335096
 20
-125.6007406427
 10
59.9442017928
 20
-125.5408294219
 10
60.0376362525
 20
-125.4785702425
 10
60.1256384752
 20
-125.4139631045
 10
60.2083829389
 20
-125.346851251
 10
60.2856951656
 20
-125.2773914389
 10
60.3570517212
 20
-125.2060539383
 10
60.4224121922
 20
-125.1328260076
 10
60.4818169923
 20
-125.0577203884
 10
60.5348639275
 20
-124.9812455751
 10
60.5815098552
 20
-124.9033922768
 10
60.6217979182
 20
-124.8241697843
 10
60.6554553504
 20
-124.744114465
 10
60.6824371583
 20
-124.6632206676
 10
60.7027883354
 20
-124.5814940434
 10
60.7163710963
 20
-124.4994879135
 10
60.7231395125
 20
-124.4172003815
 10
60.7239855645
 20
-124.3759168627
  0
LINE
  5
2C8
100
AcDbEntity
  8
0
100
AcDbLine
 62
7
  6
CONTINUOUS
 10
59.845335096
 20
-125.6007406427
 11
26.1870523115
 21
-145.0346112851
  0
ENDSEC
  0
SECTION
  2
OBJECTS
  0
DICTIONARY
  5
C
100
AcDbDictionary
280
0
281
1
  3
ACAD_GROUP
350
D
  3
ACAD_MLINESTYLE
350
17
  3
ACAD_LAYOUT
350
1A
  3
ACAD_PLOTSETTINGS
350
19
  3
ACAD_PLOTSTYLENAME
350
E
  0
DICTIONARY
  5
D
102
{ACAD_REACTORS
330
C
102
}
100
AcDbDictionary
280
0
281
1
  0
ACDBDICTIONARYWDFLT
  5
E
102
{ACAD_REACTORS
330
C
102
}
100
AcDbDictionary
281
1
  3
Normal
350
F
100
AcDbDictionaryWithDefault
340
F
  0
DICTIONARY
  5
17
102
{ACAD_REACTORS
330
C
102
}
100
AcDbDictionary
280
0
281
1
  3
Standard
350
18
  0
DICTIONARY
  5
19
102
{ACAD_REACTORS
330
C
102
}
100
AcDbDictionary
281
1
  0
DICTIONARY
  5
1A
102
{ACAD_REACTORS
330
C
102
}
100
AcDbDictionary
281
1
  3
Model
350
2C9
  3
Layout1
350
2CA
  0
ACDBPLACEHOLDER
  5
F
102
{ACAD_REACTORS
330
E
102
}
  0
MLINESTYLE
  5
18
102
{ACAD_REACTORS
330
17
102
}
100
AcDbMlineStyle
  2
STANDARD
 70
0
  3

 62
256
 51
90.0
 52
90.0
 71
2
 49
0.5
 62
256
  6
BYLAYER
 49
-0.5
 62
256
  6
BYLAYER
  0
LAYOUT
  5
2C9
102
{ACAD_REACTORS
330
1A
102
}
100
AcDbPlotSettings
  1

  2
none_device
  4
ISO_A4_(297.00_x_210.00_MM)
  6

 40
0.0
 41
0.0
 42
0.0
 43
0.0
 44
297.0
 45
210.0
 46
0.0
 47
0.0
 48
0.0
 49
0.0
140
0.0
141
0.0
142
1.0
143
1.0
 70
1024
 72
1
 73
0
 74
0
  7

 75
0
147
1.0
148
0.0
149
0.0
100
AcDbLayout
  1
Model
 70
0
 71
0
 10
0.0
 20
0.0
 11
297.0
 21
210.0
 12
0.0
 22
0.0
 32
0.0
 14
0.0
 24
0.0
 34
0.0
 15
0.0
 25
0.0
 35
0.0
146
0.0
 13
0.0
 23
0.0
 33
0.0
 16
1.0
 26
0.0
 36
0.0
 17
0.0
 27
1.0
 37
0.0
 76
0
330
20F
345
0
346
0
  0
LAYOUT
  5
2CA
102
{ACAD_REACTORS
330
1A
102
}
100
AcDbPlotSettings
  1

  2
none_device
  4
ISO_A4_(297.00_x_210.00_MM)
  6

 40
0.0
 41
0.0
 42
0.0
 43
0.0
 44
297.0
 45
210.0
 46
0.0
 47
0.0
 48
0.0
 49
0.0
140
0.0
141
0.0
142
1.0
143
1.0
 70
0
 72
1
 73
0
 74
0
  7

 75
0
147
1.0
148
0.0
149
0.0
100
AcDbLayout
  1
Layout1
 70
0
 71
1
 10
0.0
 20
0.0
 11
297.0
 21
210.0
 12
0.0
 22
0.0
 32
0.0
 14
0.0
 24
0.0
 34
0.0
 15
0.0
 25
0.0
 35
0.0
146
0.0
 13
0.0
 23
0.0
 33
0.0
 16
1.0
 26
0.0
 36
0.0
 17
0.0
 27
1.0
 37
0.0
 76
0
330
210
345
0
346
0
  0
ENDSEC
  0
EOF
