  0
SECTION
  2
HEADER
  9
$ACADVER
  1
AC1021
  9
$DWGCODEPAGE
  3
ANSI_1252
  9
$EXTMAX
 10
297.0
 20
210.0
 30
0.0
  9
$EXTMIN
 10
0.0
 20
0.0
 30
0.0
  9
$LIMMIN
 10
0.0
 20
0.0
  9
$LIMMAX
 10
297.0
 20
210.0
  9
$VIEWCTR
 10
148.5
 20
105.0
  9
$VIEWSIZE
 40
210.0
  9
$CLAYER
  8
0
  9
$LTSCALE
 40
16.335
  9
$CELTYPE
  6
BYLAYER
  9
$DIMSCALE
 40
1.0
  9
$DIMASZ
 40
3.0
  9
$DIMEXO
 40
0.5
  9
$DIMDLI
 40
11.286
  9
$DIMEXE
 40
1.5
  9
$DIMCEN
 40
2.673
  9
$DIMLFAC
 40
1.0
  9
$DIMBLK
  1
_FILLED
  9
$DIMALT
 70
0
  9
$DIMALTF
 40
0.0393700787
  9
$DIMTXT
 40
3.0
  9
$DIMTOL
 70
1
  9
$DIMLIM
 70
0
  9
$DIMTFAC
 40
1.0
  9
$DIMTP
 40
0.01
  9
$DIMTM
 40
0.01
  9
$DIMGAP
 40
0.625
  9
$DIMDSEP
 70
44
  9
$AUNITS
 70
0
  9
$PDMODE
 70
3
  9
$PDSIZE
 40
3.0
  9
$HANDSEED
  5
2E3
  9
$TILEMODE
 70
1
  9
$MEASUREMENT
 70
1
  9
$INSUNITS
 70
4
  0
ENDSEC
  0
SECTION
  2
CLASSES
  0
CLASS
  1
ACDBDICTIONARYWDFLT
  2
AcDbDictionaryWithDefault
  3
AutoCAD 2000
 90
0
 91
1
280
0
281
0
  0
CLASS
  1
ACDBPLACEHOLDER
  2
AcDbPlaceHolder
  3
AutoCAD 2000
 90
0
 91
1
280
0
281
0
  0
CLASS
  1
LAYOUT
  2
AcDbLayout
  3
AutoCAD 2000
 90
0
 91
0
280
0
281
0
  0
ENDSEC
  0
SECTION
  2
TABLES
  0
TABLE
  2
VPORT
  5
8
100
AcDbSymbolTable
 70
2
  0
VPORT
  5
1F4
100
AcDbSymbolTableRecord
100
AcDbViewportTableRecord
  2
*ACTIVE
 70
0
 10
0.0
 20
0.0
 11
1.0
 21
1.0
 12
148.5
 22
105.0
 13
0.0
 23
0.0
 14
1.0
 24
1.0
 15
0.0
 25
0.0
 16
0.0
 26
0.0
 36
1.0
 17
0.0
 27
0.0
 37
0.0
 40
210.0
 41
1.4142857143
 42
50.0
 43
0.0
 44
0.0
 50
0.0
 51
0.0
 71
0
 72
100
 73
1
 74
1
 75
0
 76
0
 77
0
 78
0
  0
ENDTAB
  0
TABLE
  2
LTYPE
  5
5
100
AcDbSymbolTable
 70
6
  0
LTYPE
  5
14
100
AcDbSymbolTableRecord
100
AcDbLinetypeTableRecord
  2
BYBLOCK
 70
0
  3

 72
65
 73
0
 40
0.0
  0
LTYPE
  5
15
100
AcDbSymbolTableRecord
100
AcDbLinetypeTableRecord
  2
BYLAYER
 70
0
  3

 72
65
 73
0
 40
0.0
  0
LTYPE
  5
16
100
AcDbSymbolTableRecord
100
AcDbLinetypeTableRecord
  2
CONTINUOUS
 70
64
  3
Solid line
 72
65
 73
0
 40
0.0
  0
LTYPE
  5
1F5
100
AcDbSymbolTableRecord
100
AcDbLinetypeTableRecord
  2
CENTER
 70
64
  3
____ _ ____ _ ____ _ ____ _ ____ _ ____ _ ____
 72
65
 73
4
 40
0.6
 49
0.375
 74
0
 49
-0.075
 74
0
 49
0.075
 74
0
 49
-0.075
 74
0
  0
LTYPE
  5
1F6
100
AcDbSymbolTableRecord
100
AcDbLinetypeTableRecord
  2
HIDDEN
 70
64
  3
- - - - - - - - - - - - - - - - - - - -
 72
65
 73
2
 40
0.2
 49
0.1
 74
0
 49
-0.1
 74
0
  0
LTYPE
  5
1F7
100
AcDbSymbolTableRecord
100
AcDbLinetypeTableRecord
  2
PHANTOM
 70
64
  3
_____ _ _ _____ _ _ _____ _ _ _____
 72
65
 73
6
 40
0.8
 49
0.45
 74
0
 49
-0.05
 74
0
 49
0.1
 74
0
 49
-0.05
 74
0
 49
0.1
 74
0
 49
-0.05
 74
0
  0
LTYPE
  5
1F8
100
AcDbSymbolTableRecord
100
AcDbLinetypeTableRecord
  2
DOT
 70
64
  3
. . . . . . . . . . . . . . . . . . . .
 72
65
 73
2
 40
0.2
 49
0.1
 74
0
 49
-0.1
 74
0
  0
LTYPE
  5
1F9
100
AcDbSymbolTableRecord
100
AcDbLinetypeTableRecord
  2
DASHED
 70
64
  3
- - - - - - - - - - - - - - - - - - - -
 72
65
 73
2
 40
0.2
 49
0.1
 74
0
 49
-0.1
 74
0
  0
ENDTAB
  0
TABLE
  2
LAYER
  5
2
100
AcDbSymbolTable
 70
36
  0
LAYER
  5
10
100
AcDbSymbolTableRecord
100
AcDbLayerTableRecord
  2
0
 70
0
 62
7
  6
CONTINUOUS
370
-3
390
F
  0
LAYER
  5
1FA
100
AcDbSymbolTableRecord
100
AcDbLayerTableRecord
  2
DEFAULT_1
 70
0
 62
7
  6
CENTER
370
-3
390
F
  0
LAYER
  5
1FB
100
AcDbSymbolTableRecord
100
AcDbLayerTableRecord
  2
DEFAULT_2
 70
0
 62
7
  6
HIDDEN
370
-3
390
F
  0
LAYER
  5
1FC
100
AcDbSymbolTableRecord
100
AcDbLayerTableRecord
  2
DEFAULT_3
 70
0
 62
7
  6
PHANTOM
370
-3
390
F
  0
LAYER
  5
1FD
100
AcDbSymbolTableRecord
100
AcDbLayerTableRecord
  2
ASSI
 70
0
 62
7
  6
CONTINUOUS
370
-3
390
F
  0
LAYER
  5
1FE
100
AcDbSymbolTableRecord
100
AcDbLayerTableRecord
  2
COORDINATE
 70
0
 62
7
  6
CONTINUOUS
370
-3
390
F
  0
LAYER
  5
1FF
100
AcDbSymbolTableRecord
100
AcDbLayerTableRecord
  2
COPY_PUBLISH
 70
0
 62
7
  6
CONTINUOUS
370
-3
390
F
  0
LAYER
  5
200
100
AcDbSymbolTableRecord
100
AcDbLayerTableRecord
  2
COSMETICI
 70
0
 62
7
  6
CONTINUOUS
370
-3
390
F
  0
LAYER
  5
201
100
AcDbSymbolTableRecord
100
AcDbLayerTableRecord
  2
CURVE
 70
0
 62
7
  6
CONTINUOUS
370
-3
390
F
  0
LAYER
  5
202
100
AcDbSymbolTableRecord
100
AcDbLayerTableRecord
  2
DRAFT
 70
0
 62
7
  6
CONTINUOUS
370
-3
390
F
  0
LAYER
  5
203
100
AcDbSymbolTableRecord
100
AcDbLayerTableRecord
  2
IMPORT_IGES
 70
0
 62
7
  6
CONTINUOUS
370
-3
390
F
  0
LAYER
  5
204
100
AcDbSymbolTableRecord
100
AcDbLayerTableRecord
  2
NOTE
 70
0
 62
7
  6
CONTINUOUS
370
-3
390
F
  0
LAYER
  5
205
100
AcDbSymbolTableRecord
100
AcDbLayerTableRecord
  2
PIANI
 70
0
 62
7
  6
CONTINUOUS
370
-3
390
F
  0
LAYER
  5
206
100
AcDbSymbolTableRecord
100
AcDbLayerTableRecord
  2
PUNTI
 70
0
 62
7
  6
CONTINUOUS
370
-3
390
F
  0
LAYER
  5
207
100
AcDbSymbolTableRecord
100
AcDbLayerTableRecord
  2
RACCORDO
 70
0
 62
7
  6
CONTINUOUS
370
-3
390
F
  0
LAYER
  5
208
100
AcDbSymbolTableRecord
100
AcDbLayerTableRecord
  2
SIMBOLI
 70
0
 62
7
  6
CONTINUOUS
370
-3
390
F
  0
LAYER
  5
209
100
AcDbSymbolTableRecord
100
AcDbLayerTableRecord
  2
SMUSSO
 70
0
 62
7
  6
CONTINUOUS
370
-3
390
F
  0
LAYER
  5
20A
100
AcDbSymbolTableRecord
100
AcDbLayerTableRecord
  2
SNAPLINE
 70
0
 62
7
  6
CONTINUOUS
370
-3
390
F
  0
LAYER
  5
20B
100
AcDbSymbolTableRecord
100
AcDbLayerTableRecord
  2
SUPERFICI
 70
0
 62
7
  6
CONTINUOUS
370
-3
390
F
  0
LAYER
  5
20C
100
AcDbSymbolTableRecord
100
AcDbLayerTableRecord
  2
TRASH
 70
0
 62
7
  6
CONTINUOUS
370
-3
390
F
  0
ENDTAB
  0
TABLE
  2
STYLE
  5
3
100
AcDbSymbolTable
 70
1
  0
STYLE
  5
11
100
AcDbSymbolTableRecord
100
AcDbTextStyleTableRecord
  2
STANDARD
 70
0
 40
0.0
 41
0.8
 50
0.0
 71
0
 42
0.2
  3
txt
  4

  0
STYLE
  5
20D
100
AcDbSymbolTableRecord
100
AcDbTextStyleTableRecord
  2
TEXTSTYLE_1
 70
0
 40
0.0
 41
0.8
 50
0.0
 71
0
 42
0.2
  3
gdt
  4

  0
ENDTAB
  0
TABLE
  2
VIEW
  5
6
100
AcDbSymbolTable
 70
0
  0
ENDTAB
  0
TABLE
  2
UCS
  5
7
100
AcDbSymbolTable
 70
0
  0
ENDTAB
  0
TABLE
  2
APPID
  5
9
100
AcDbSymbolTable
 70
1
  0
APPID
  5
20E
100
AcDbSymbolTableRecord
100
AcDbRegAppTableRecord
  2
ACAD
 70
0
  0
ENDTAB
  0
TABLE
  2
BLOCK_RECORD
  5
1
100
AcDbSymbolTable
 70
0
  0
BLOCK_RECORD
  5
20F
100
AcDbSymbolTableRecord
100
AcDbBlockTableRecord
  2
*Model_Space
  0
BLOCK_RECORD
  5
210
100
AcDbSymbolTableRecord
100
AcDbBlockTableRecord
  2
*Paper_Space
  0
ENDTAB
  0
TABLE
  2
DIMSTYLE
  5
A
100
AcDbSymbolTable
 70
1
100
AcDbDimStyleTable
 71
0
  0
DIMSTYLE
105
211
100
AcDbSymbolTableRecord
100
AcDbDimStyleTableRecord
  2
STANDARD
 70
0
  3

  4

 40
1.0
 41
3.0
 42
0.5
 43
0.38
 44
1.5
 45
0.0
 46
0.0
 47
0.01
 48
0.01
140
3.0
141
0.09
142
0.0
143
25.4
144
1.0
145
0.0
146
1.0
147
0.625
 71
1.0
 72
0.0
 73
0
 74
0
 75
0
 76
0
 77
1
 78
8
170
0
171
2
172
0
173
0
174
0
175
0
176
0
177
0
178
0
270
2
271
2
272
2
273
2
274
2
275
0
280
0
281
0
282
0
283
1
284
8
285
0
286
0
287
3
288
0
340
11
278
44
  0
ENDTAB
  0
ENDSEC
  0
SECTION
  2
BLOCKS
  0
BLOCK
  5
20
100
AcDbEntity
  8
0
100
AcDbBlockBegin
  2
*Model_Space
 70
0
 10
0.0
 20
0.0
 30
0.0
  3
*Model_Space
  1

  0
ENDBLK
  5
21
100
AcDbEntity
  8
0
100
AcDbBlockEnd
  0
BLOCK
  5
1C
100
AcDbEntity
  8
0
100
AcDbBlockBegin
  2
*Paper_Space
 70
0
 10
0.0
 20
0.0
 30
0.0
  3
*Paper_Space
  1

  0
ENDBLK
  5
1D
100
AcDbEntity
  8
0
100
AcDbBlockEnd
  0
ENDSEC
  0
SECTION
  2
ENTITIES
  0
LINE
  5
212
100
AcDbEntity
  8
0
100
AcDbLine
 62
7
  6
CONTINUOUS
 10
-58.8735807165
 20
166.5243090234
 11
-15.248158589
 21
191.7130810049
  0
LWPOLYLINE
  5
213
100
AcDbEntity
  8
ASSI
100
AcDbPolyline
 62
7
  6
CONTINUOUS
 90
29
 70
0
 10
-58.873610295
 20
166.5242919452
 10
-58.8582935746
 20
166.5330532265
 10
-58.7269318023
 20
166.6016687477
 10
-58.5913392334
 20
166.6610232214
 10
-58.4516293076
 20
166.7110300878
 10
-58.3078286684
 20
166.7517118382
 10
-58.160166444
 20
166.7829988847
 10
-58.0087326731
 20
166.804864012
 10
-57.8533595585
 20
166.8174197216
 10
-57.6941810499
 20
166.820620501
 10
-57.5313866735
 20
166.814422297
 10
-57.3648918647
 20
166.798938737
 10
-57.1948167308
 20
166.7741391775
 10
-57.0213843879
 20
166.7400058767
 10
-56.8446774348
 20
166.6967056525
 10
-56.6649087631
 20
166.6442722324
 10
-56.4822424522
 20
166.5827211216
 10
-56.2967006542
 20
166.5122329918
 10
-56.1085615559
 20
166.4329008017
 10
-55.9179378763
 20
166.3447442737
 10
-55.7246000375
 20
166.2478201568
 10
-55.5285734182
 20
166.1420831324
 10
-55.3302131428
 20
166.0276463153
 10
-55.1297853385
 20
165.9048154471
 10
-54.9274624031
 20
165.7736807448
 10
-54.7234726737
 20
165.6343401158
 10
-54.5181755392
 20
165.4871905025
 10
-54.3118265295
 20
165.3324805028
 10
-54.104572938
 20
165.1702688901
  0
LWPOLYLINE
  5
214
100
AcDbEntity
  8
0
100
AcDbPolyline
 62
7
  6
CONTINUOUS
 90
31
 70
0
 10
-15.248158589
 20
191.7130810049
 10
-15.0376661206
 20
191.8293457806
 10
-14.8221793691
 20
191.9378964506
 10
-14.6018959717
 20
192.038547029
 10
-14.3771807677
 20
192.1310609906
 10
-14.1480939932
 20
192.2153493246
 10
-13.9143591538
 20
192.291413251
 10
-13.6761593131
 20
192.3590661839
 10
-13.4337154217
 20
192.4181236907
 10
-13.1867618923
 20
192.4685068684
 10
-12.9354525891
 20
192.5100155062
 10
-12.6800197905
 20
192.5424467524
 10
-12.4202712335
 20
192.565644837
 10
-12.1563154884
 20
192.5793973943
 10
-11.888409568
 20
192.5834911173
 10
-11.6165428992
 20
192.5777220887
 10
-11.3408167239
 20
192.561875443
 10
-11.0614743856
 20
192.5357488329
 10
-10.778681185
 20
192.4991451332
 10
-10.4923423026
 20
192.4518246385
 10
-10.2028747439
 20
192.393627061
 10
-9.9111823301
 20
192.324556177
 10
-9.6173398758
 20
192.2444841439
 10
-9.3215772628
 20
192.1533238104
 10
-9.0250086764
 20
192.0513198033
 10
-8.7277462182
 20
191.9384562407
 10
-8.429959872
 20
191.8147366125
 10
-8.1328348908
 20
191.6806429956
 10
-7.8368508606
 20
191.5364487242
 10
-7.5417876567
 20
191.3820950836
 10
-7.2477720267
 20
191.2176692281
  0
LWPOLYLINE
  5
215
100
AcDbEntity
  8
0
100
AcDbPolyline
 62
253
  6
CONTINUOUS
 90
28
 70
0
 10
-15.248158589
 20
191.7130810049
 10
-15.0560440109
 20
191.8176338899
 10
-14.858906148
 20
191.9123914655
 10
-14.6565977169
 20
191.9974548866
 10
-14.4492898907
 20
192.072752181
 10
-14.2371580724
 20
192.1382196398
 10
-14.0203817469
 20
192.1938018709
 10
-13.7991443285
 20
192.2394518463
 10
-13.5736330061
 20
192.2751309414
 10
-13.3440385849
 20
192.3008089682
 10
-13.1105553246
 20
192.3164642005
 10
-12.8733807754
 20
192.3220833925
 10
-12.6327156107
 20
192.3176617897
 10
-12.3887634571
 20
192.3032031332
 10
-12.1417307226
 20
192.2787196566
 10
-11.8918264216
 20
192.2442320753
 10
-11.639261998
 20
192.1997695692
 10
-11.3842511465
 20
192.145369758
 10
-11.1270096318
 20
192.0810786695
 10
-10.8677551058
 20
192.0069507003
 10
-10.6067069239
 20
191.92304857
 10
-10.3440859588
 20
191.8294432683
 10
-10.080114414
 20
191.7262139945
 10
-9.8150156359
 20
191.6134480909
 10
-9.5490139245
 20
191.4912409689
 10
-9.2823343437
 20
191.3596960277
 10
-9.0152025312
 20
191.2189245675
 10
-8.7478445072
 20
191.069045695
  0
LINE
  5
216
100
AcDbEntity
  8
ASSI
100
AcDbLine
 62
253
  6
CONTINUOUS
 10
-53.8966124859
 20
165.0007129111
 11
-8.7478445072
 21
191.069045695
  0
LINE
  5
217
100
AcDbEntity
  8
ASSI
100
AcDbLine
 62
253
  6
CONTINUOUS
 10
-59.305979362
 20
160.245339727
 11
-53.8969883567
 21
163.3684233429
  0
LWPOLYLINE
  5
218
100
AcDbEntity
  8
ASSI
100
AcDbPolyline
 62
7
  6
CONTINUOUS
 90
30
 70
0
 10
-57.8735621787
 20
164.7922689184
 10
-57.8615639624
 20
164.7991268141
 10
-57.7585807575
 20
164.8524693862
 10
-57.6521475986
 20
164.8979006553
 10
-57.5423603881
 20
164.9353474277
 10
-57.4291927127
 20
164.964857002
 10
-57.3128342954
 20
164.9863728951
 10
-57.1933654775
 20
164.9998696797
 10
-57.0706077828
 20
165.0054636207
 10
-56.9446753939
 20
165.0031157221
 10
-56.8157278386
 20
164.9927891935
 10
-56.6836545469
 20
164.974602708
 10
-56.5485588291
 20
164.9485293659
 10
-56.4106277946
 20
164.9145551256
 10
-56.2698872762
 20
164.8728465796
 10
-56.1265147436
 20
164.8234338077
 10
-55.9806517027
 20
164.7663283884
 10
-55.8322808469
 20
164.701704013
 10
-55.6816323612
 20
164.6296423435
 10
-55.5288068271
 20
164.5501570632
 10
-55.3735895482
 20
164.4633079916
 10
-55.2160072761
 20
164.369053735
 10
-55.0563552232
 20
164.2674930528
 10
-54.8948223041
 20
164.1589055917
 10
-54.7315527689
 20
164.0433686269
 10
-54.5667414509
 20
163.9209640653
 10
-54.4006610525
 20
163.7920459087
 10
-54.233517326
 20
163.6568305516
 10
-54.0654453697
 20
163.5153616829
 10
-53.8966124859
 20
163.3677723575
  0
LWPOLYLINE
  5
219
100
AcDbEntity
  8
0
100
AcDbPolyline
 62
253
  6
CONTINUOUS
 90
19
 70
0
 10
-8.7478445072
 20
191.069045695
 10
-8.6553138134
 20
191.1201404616
 10
-8.562959257
 20
191.1664753736
 10
-8.4709566402
 20
191.20796223
 10
-8.3794810953
 20
191.2445220581
 10
-8.288706751
 20
191.2760852642
 10
-8.1988064015
 20
191.3025917661
 10
-8.1099511772
 20
191.323991107
 10
-8.0223102192
 20
191.340242552
 10
-7.9360503569
 20
191.3513151657
 10
-7.851335791
 20
191.3571878707
 10
-7.7683277803
 20
191.357849488
 10
-7.6871843354
 20
191.3532987581
 10
-7.6080599174
 20
191.3435443436
 10
-7.5311051441
 20
191.3286048126
 10
-7.4564665034
 20
191.3085086033
 10
-7.3842860741
 20
191.28329397
 10
-7.3147012558
 20
191.2530089103
 10
-7.2478445072
 20
191.2177110733
  0
LWPOLYLINE
  5
21A
100
AcDbEntity
  8
0
100
AcDbPolyline
 62
7
  6
CONTINUOUS
 90
9
 70
0
 10
21.2334830151
 20
-162.5623082596
 10
21.2040102073
 20
-162.5593872022
 10
21.1691483149
 20
-162.553521636
 10
21.1336836943
 20
-162.5451661541
 10
21.0976212523
 20
-162.5343410267
 10
21.0612561737
 20
-162.5211348616
 10
21.0246868534
 20
-162.5055771948
 10
20.9878148963
 20
-162.4876384902
 10
20.9506403027
 20
-162.467318748
  0
LWPOLYLINE
  5
21B
100
AcDbEntity
  8
0
100
AcDbPolyline
 62
7
  6
CONTINUOUS
 90
24
 70
0
 10
23.683116723
 20
-192.353854082
 10
23.7272838158
 20
-192.3784733665
 10
23.8174965372
 20
-192.4235324407
 10
23.9105997181
 20
-192.4632159219
 10
24.0065828409
 20
-192.4975433709
 10
24.1050957946
 20
-192.5263895738
 10
24.2061478183
 20
-192.5497345126
 10
24.309729673
 20
-192.5675982054
 10
24.4154635305
 20
-192.5799154919
 10
24.5233572499
 20
-192.5866661164
 10
24.6334029721
 20
-192.5878703346
 10
24.7451992911
 20
-192.583523754
 10
24.8587526001
 20
-192.5736061027
 10
24.9740565058
 20
-192.5581376527
 10
25.0906904223
 20
-192.537174827
 10
25.208659207
 20
-192.5106975599
 10
25.3279580025
 20
-192.4787259172
 10
25.4481516511
 20
-192.4413765196
 10
25.5692434208
 20
-192.3986297271
 10
25.6912300436
 20
-192.3505051798
 10
25.8136665574
 20
-192.297178418
 10
25.9364046417
 20
-192.2387079554
 10
26.059592617
 20
-192.1750352783
 10
26.1832304835
 20
-192.1061603869
  0
LWPOLYLINE
  5
21C
100
AcDbEntity
  8
0
100
AcDbPolyline
 62
7
  6
CONTINUOUS
 90
24
 70
0
 10
-52.6844156451
 20
-148.2601980026
 10
-52.6402485524
 20
-148.2848172871
 10
-52.550035831
 20
-148.3298763613
 10
-52.45693265
 20
-148.3695598425
 10
-52.3609495273
 20
-148.4038872915
 10
-52.2624365736
 20
-148.4327334944
 10
-52.1613845498
 20
-148.4560784333
 10
-52.0578026951
 20
-148.473942126
 10
-51.9520688377
 20
-148.4862594125
 10
-51.8441751182
 20
-148.493010037
 10
-51.734129396
 20
-148.4942142552
 10
-51.6223330771
 20
-148.4898676746
 10
-51.5087797681
 20
-148.4799500233
 10
-51.3934758624
 20
-148.4644815733
 10
-51.2768419458
 20
-148.4435187476
 10
-51.1588731611
 20
-148.4170414805
 10
-51.0395743656
 20
-148.3850698378
 10
-50.919380717
 20
-148.3477204402
 10
-50.7982889473
 20
-148.3049736477
 10
-50.6763023246
 20
-148.2568491004
 10
-50.5538658107
 20
-148.2035223386
 10
-50.4311277265
 20
-148.145051876
 10
-50.3079397511
 20
-148.0813791989
 10
-50.1843018847
 20
-148.0125043075
  0
LINE
  5
21D
100
AcDbEntity
  8
0
100
AcDbLine
 62
7
  6
CONTINUOUS
 10
-52.6844226854
 20
-148.2602101959
 11
-54.0986362478
 21
-147.4436610092
  0
LINE
  5
21E
100
AcDbEntity
  8
0
100
AcDbLine
 62
7
  6
CONTINUOUS
 10
22.2688961204
 20
-191.5373170886
 11
23.6831096828
 21
-192.3538662753
  0
LINE
  5
21F
100
AcDbEntity
  8
0
100
AcDbLine
 62
253
  6
CONTINUOUS
 10
-53.7198357906
 20
-145.9715258902
 11
-55.134049353
 21
-145.1549767035
  0
LINE
  5
220
100
AcDbEntity
  8
0
100
AcDbLine
 62
253
  6
CONTINUOUS
 10
21.2334830151
 20
-189.2486327829
 11
22.6476965775
 21
-190.0651819696
  0
LINE
  5
221
100
AcDbEntity
  8
0
100
AcDbLine
 62
7
  6
CONTINUOUS
 10
-44.1031835665
 20
-144.5013428049
 11
21.2334830151
 21
-182.2259152284
  0
LWPOLYLINE
  5
222
100
AcDbEntity
  8
0
100
AcDbPolyline
 62
7
  6
CONTINUOUS
 90
24
 70
0
 10
-54.0986292075
 20
-147.4436488159
 10
-54.1417948944
 20
-147.417852994
 10
-54.2259291746
 20
-147.3622657508
 10
-54.3068532742
 20
-147.301487482
 10
-54.3845788745
 20
-147.2355370765
 10
-54.4588224612
 20
-147.1646550969
 10
-54.5295713177
 20
-147.0888235329
 10
-54.5968381607
 20
-147.0080603947
 10
-54.6603776255
 20
-146.9226602766
 10
-54.7201760997
 20
-146.8326062438
 10
-54.7762471958
 20
-146.7379152309
 10
-54.8283863872
 20
-146.6389326357
 10
-54.8765793143
 20
-146.5356427849
 10
-54.9208403368
 20
-146.4280613519
 10
-54.9610080069
 20
-146.3165807536
 10
-54.9970673753
 20
-146.2011867502
 10
-55.0290333912
 20
-146.0818935816
 10
-55.0567894545
 20
-145.9591363851
 10
-55.0803201901
 20
-145.8329025099
 10
-55.099640973
 20
-145.7032046067
 10
-55.1146813283
 20
-145.5705157655
 10
-55.1254177642
 20
-145.4349936829
 10
-55.1318737725
 20
-145.2964806622
 10
-55.134049353
 20
-145.1549767035
  0
LWPOLYLINE
  5
223
100
AcDbEntity
  8
0
100
AcDbPolyline
 62
7
  6
CONTINUOUS
 90
24
 70
0
 10
22.2689031606
 20
-191.5373048953
 10
22.2257374738
 20
-191.5115090734
 10
22.1416031936
 20
-191.4559218302
 10
22.0606790939
 20
-191.3951435614
 10
21.9829534937
 20
-191.3291931559
 10
21.908709907
 20
-191.2583111763
 10
21.8379610504
 20
-191.1824796122
 10
21.7706942075
 20
-191.1017164741
 10
21.7071547426
 20
-191.016316356
 10
21.6473562685
 20
-190.9262623232
 10
21.5912851724
 20
-190.8315713103
 10
21.539145981
 20
-190.7325887151
 10
21.4909530538
 20
-190.6292988643
 10
21.4466920313
 20
-190.5217174313
 10
21.4065243613
 20
-190.410236833
 10
21.3704649929
 20
-190.2948428296
 10
21.338498977
 20
-190.175549661
 10
21.3107429137
 20
-190.0527924645
 10
21.2872121781
 20
-189.9265585893
 10
21.2678913951
 20
-189.7968606861
 10
21.2528510398
 20
-189.6641718449
 10
21.2421146039
 20
-189.5286497623
 10
21.2356585957
 20
-189.3901367416
 10
21.2334830151
 20
-189.2486327829
  0
LINE
  5
224
100
AcDbEntity
  8
0
100
AcDbLine
 62
7
  6
CONTINUOUS
 10
-33.4965818487
 20
137.3856120818
 11
-23.8198302684
 21
142.9728471661
  0
LINE
  5
225
100
AcDbEntity
  8
0
100
AcDbLine
 62
7
  6
CONTINUOUS
 10
-33.4965818487
 20
135.7525137085
 11
-22.3724598633
 21
142.1754423249
  0
LWPOLYLINE
  5
226
100
AcDbEntity
  8
RACCORDO
100
AcDbPolyline
 62
7
  6
CONTINUOUS
 90
6
 70
0
 10
-38.8524098303
 20
-134.7950007459
 10
-38.8934498724
 20
-134.7733150724
 10
-38.9276387037
 20
-134.7586734602
 10
-38.9537540199
 20
-134.7501241583
 10
-38.9708149483
 20
-134.7462771398
 10
-38.9757907752
 20
-134.7455603668
  0
LWPOLYLINE
  5
227
100
AcDbEntity
  8
RACCORDO
100
AcDbPolyline
 62
253
  6
CONTINUOUS
 90
25
 70
0
 10
-38.9766594029
 20
-136.7248283765
 10
-39.1044635584
 20
-136.6403458345
 10
-39.2261307355
 20
-136.5421779208
 10
-39.3416609344
 20
-136.4303246357
 10
-39.4528126314
 20
-136.3024260341
 10
-39.5578273502
 20
-136.160842061
 10
-39.6514296609
 20
-136.0126525508
 10
-39.7330306634
 20
-135.8575245622
 10
-39.8032192579
 20
-135.6957910365
 10
-39.8584867151
 20
-135.5355306322
 10
-39.8980738917
 20
-135.3768199181
 10
-39.922739931
 20
-135.2195823255
 10
-39.9312535341
 20
-135.0716668061
 10
-39.9227947098
 20
-134.9335465466
 10
-39.8981834493
 20
-134.8047483605
 10
-39.8586484272
 20
-134.6917016398
 10
-39.8034322518
 20
-134.5952060792
 10
-39.7332923147
 20
-134.5144619841
 10
-39.6517294653
 20
-134.4534996627
 10
-39.5581630055
 20
-134.4133234761
 10
-39.4531736334
 20
-134.3929290633
 10
-39.3420042928
 20
-134.3933336496
 10
-39.2264026314
 20
-134.4148763103
 10
-39.1046210014
 20
-134.4572179702
 10
-38.9766594029
 20
-134.5203586292
  0
LWPOLYLINE
  5
228
100
AcDbEntity
  8
RACCORDO
100
AcDbPolyline
 62
253
  6
CONTINUOUS
 90
25
 70
0
 10
-38.9766594029
 20
-134.5203586292
 10
-38.8488552474
 20
-134.6048411713
 10
-38.7271880702
 20
-134.7030090849
 10
-38.6116578714
 20
-134.8148623701
 10
-38.5005061743
 20
-134.9427609716
 10
-38.3954914556
 20
-135.0843449447
 10
-38.3018891449
 20
-135.2325344549
 10
-38.2202881424
 20
-135.3876624436
 10
-38.1500995479
 20
-135.5493959693
 10
-38.0948320907
 20
-135.7096563736
 10
-38.0552449141
 20
-135.8683670876
 10
-38.0305788748
 20
-136.0256046803
 10
-38.0220652717
 20
-136.1735201996
 10
-38.030524096
 20
-136.3116404591
 10
-38.0551353564
 20
-136.4404386453
 10
-38.0946703786
 20
-136.553485366
 10
-38.149886554
 20
-136.6499809266
 10
-38.2200264911
 20
-136.7307250217
 10
-38.3015893404
 20
-136.791687343
 10
-38.3951558002
 20
-136.8318635296
 10
-38.5001451723
 20
-136.8522579425
 10
-38.611314513
 20
-136.8518533561
 10
-38.7269161744
 20
-136.8303106954
 10
-38.8486978043
 20
-136.7879690356
 10
-38.9766594029
 20
-136.7248283765
  0
LWPOLYLINE
  5
229
100
AcDbEntity
  8
RACCORDO
100
AcDbPolyline
 62
253
  6
CONTINUOUS
 90
15
 70
0
 10
-38.5523953342
 20
-135.9899814545
 10
-38.6314368741
 20
-135.9375043962
 10
-38.7087127711
 20
-135.8725206484
 10
-38.7824968103
 20
-135.7964818334
 10
-38.851140779
 20
-135.711086524
 10
-38.9131112806
 20
-135.6182423074
 10
-38.9670239892
 20
-135.5200231743
 10
-39.011674582
 20
-135.4186231769
 10
-39.0460656362
 20
-135.3163074233
 10
-39.0694289081
 20
-135.2153614867
 10
-39.0812425005
 20
-135.1180403358
 10
-39.0812425178
 20
-135.0265179622
 10
-39.0694289594
 20
-134.9428388254
 10
-39.0460657203
 20
-134.8688721789
 10
-39.0116746968
 20
-134.8062703169
  0
LWPOLYLINE
  5
22A
100
AcDbEntity
  8
RACCORDO
100
AcDbPolyline
 62
253
  6
CONTINUOUS
 90
5
 70
0
 10
-38.2536497137
 20
-136.0560702386
 10
-38.322293689
 20
-136.0621972539
 10
-38.3960777617
 20
-136.0530321364
 10
-38.4733537159
 20
-136.0287796169
 10
-38.5523953342
 20
-135.9899814545
  0
LINE
  5
22B
100
AcDbEntity
  8
0
100
AcDbLine
 62
7
  6
CONTINUOUS
 10
20.9506403027
 20
-162.467318748
 11
-34.2036886299
 21
-130.6219004684
  0
LINE
  5
22C
100
AcDbEntity
  8
0
100
AcDbLine
 62
7
  6
CONTINUOUS
 10
21.2334830151
 20
-160.997530212
 11
-32.7894750675
 21
-129.8053512818
  0
LINE
  5
22D
100
AcDbEntity
  8
0
100
AcDbLine
 62
7
  6
CONTINUOUS
 10
-33.4019137015
 20
-129.043343932
 11
21.2334830151
 21
-160.5891372539
  0
LINE
  5
22E
100
AcDbEntity
  8
0
100
AcDbLine
 62
253
  6
CONTINUOUS
 10
-17.2331258814
 20
-128.1705168915
 11
21.2334830151
 21
-150.3806547685
  0
LWPOLYLINE
  5
22F
100
AcDbEntity
  8
0
100
AcDbPolyline
 62
7
  6
CONTINUOUS
 90
31
 70
0
 10
-34.2036886299
 20
-130.6219004684
 10
-34.2408632235
 20
-130.5992919217
 10
-34.2777351806
 20
-130.5746518145
 10
-34.3143045009
 20
-130.5479801469
 10
-34.3506695795
 20
-130.5191928307
 10
-34.3867320215
 20
-130.488373954
 10
-34.4221966421
 20
-130.455775781
 10
-34.4570585345
 20
-130.4213837077
 10
-34.4913226056
 20
-130.385212338
 10
-34.5247083908
 20
-130.3475577484
 10
-34.5572086816
 20
-130.3084077649
 10
-34.5888306865
 20
-130.2677745614
 10
-34.6193155677
 20
-130.2259907361
 10
-34.6486539917
 20
-130.183046845
 10
-34.6768552919
 20
-130.138952332
 10
-34.7036886299
 20
-130.0940681275
 10
-34.7291427778
 20
-130.0483877498
 10
-34.7532289636
 20
-130.0019176806
 10
-34.7757500327
 20
-129.9550382949
 10
-34.796693139
 20
-129.9077462332
 10
-34.8160711285
 20
-129.8600448551
 10
-34.8337253852
 20
-129.8123246143
 10
-34.849641761
 20
-129.7645853561
 10
-34.8638344039
 20
-129.7168272353
 10
-34.8761871418
 20
-129.6694411702
 10
-34.8866848732
 20
-129.6224302144
 10
-34.8953426995
 20
-129.5757913144
 10
-34.9020897532
 20
-129.529906227
 10
-34.9069024118
 20
-129.4849022047
 10
-34.9098042977
 20
-129.4406519952
 10
-34.9107954111
 20
-129.3971555983
  0
LWPOLYLINE
  5
230
100
AcDbEntity
  8
ASSI
100
AcDbPolyline
 62
7
  6
CONTINUOUS
 90
28
 70
0
 10
-5.4043909491
 20
-152.3353875884
 10
-5.4464515123
 20
-152.3029284381
 10
-5.5040884622
 20
-152.2551722423
 10
-5.5609368537
 20
-152.2047704059
 10
-5.616991336
 20
-152.1517049763
 10
-5.6722572599
 20
-152.095993906
 10
-5.7263604535
 20
-152.0380143809
 10
-5.7792930268
 20
-151.9777510078
 10
-5.8310628699
 20
-151.9152191798
 10
-5.8813194806
 20
-151.8508422618
 10
-5.9300525905
 20
-151.7846077337
 10
-5.9772724681
 20
-151.7165281156
 10
-6.0226594162
 20
-151.6470643333
 10
-6.0662009972
 20
-151.5762069941
 10
-6.1079096487
 20
-151.5039654907
 10
-6.1475029868
 20
-151.4308289262
 10
-6.1849666577
 20
-151.3567912271
 10
-6.2203150153
 20
-151.281858467
 10
-6.2533087373
 20
-151.20653797
 10
-6.2839318459
 20
-151.130827105
 10
-6.3122003189
 20
-151.0547285031
 10
-6.3379227678
 20
-150.9787573816
 10
-6.3610819158
 20
-150.9029146056
 10
-6.3816950397
 20
-150.82719931
 10
-6.3996225805
 20
-150.7521241171
 10
-6.4148463146
 20
-150.6776933703
 10
-6.4273844656
 20
-150.6039027261
 10
-6.4344438157
 20
-150.5513960397
  0
LINE
  5
231
100
AcDbEntity
  8
ASSI
100
AcDbLine
 62
253
  6
CONTINUOUS
 10
50.6491251125
 20
156.7739798555
 11
5.5003571337
 21
130.7056470715
  0
LWPOLYLINE
  5
232
100
AcDbEntity
  8
0
100
AcDbPolyline
 62
253
  6
CONTINUOUS
 90
19
 70
0
 10
50.6491251125
 20
156.7739798555
 10
50.7416558063
 20
156.8250746221
 10
50.8340103627
 20
156.8714095341
 10
50.9260129794
 20
156.9128963905
 10
51.0174885244
 20
156.9494562186
 10
51.1082628687
 20
156.9810194247
 10
51.1981632182
 20
157.0075259266
 10
51.2870184424
 20
157.0289252674
 10
51.3746594005
 20
157.0451767125
 10
51.4609192627
 20
157.0562493262
 10
51.5456338287
 20
157.0621220312
 10
51.6286418394
 20
157.0627836485
 10
51.7097852843
 20
157.0582329185
 10
51.7889097023
 20
157.048478504
 10
51.8658644755
 20
157.033538973
 10
51.9405031162
 20
157.0134427638
 10
52.0126835455
 20
156.9882281305
 10
52.0822683638
 20
156.9579430707
 10
52.1491251125
 20
156.9226452338
  0
LINE
  5
233
100
AcDbEntity
  8
0
100
AcDbLine
 62
253
  6
CONTINUOUS
 10
-16.5260191002
 20
-126.9457720214
 11
21.2334830151
 21
-148.7476353051
  0
LWPOLYLINE
  5
234
100
AcDbEntity
  8
0
100
AcDbPolyline
 62
253
  6
CONTINUOUS
 90
19
 70
0
 10
59.8415132679
 20
140.852296544
 10
59.9320249348
 20
140.9068883677
 10
60.0183262537
 20
140.9637077945
 10
60.1002529452
 20
141.0226466653
 10
60.1776490572
 20
141.0835927867
 10
60.2503672618
 20
141.1464301442
 10
60.3182691357
 20
141.2110391234
 10
60.3812254239
 20
141.2772967373
 10
60.4391162855
 20
141.3450768609
 10
60.4918315219
 20
141.4142504708
 10
60.5392707867
 20
141.4846858912
 10
60.5813437766
 20
141.5562490442
 10
60.6179704032
 20
141.6288037053
 10
60.6490809457
 20
141.7022117625
 10
60.6746161834
 20
141.7763334795
 10
60.6945275085
 20
141.8510277614
 10
60.7087770186
 20
141.9261524233
 10
60.7173375891
 20
142.0015644612
 10
60.7201929244
 20
142.0771203239
  0
LINE
  5
235
100
AcDbEntity
  8
ASSI
100
AcDbLine
 62
253
  6
CONTINUOUS
 10
59.8415132679
 20
140.852296544
 11
17.0615530061
 21
116.1516836476
  0
LINE
  5
236
100
AcDbEntity
  8
0
100
AcDbLine
 62
7
  6
CONTINUOUS
 10
-33.4965818487
 20
74.3123362812
 11
-32.7894750675
 21
74.7206108745
  0
LINE
  5
237
100
AcDbEntity
  8
0
100
AcDbLine
 62
7
  6
CONTINUOUS
 10
-16.5260191002
 20
-83.8769649206
 11
-15.1118055378
 21
-84.6935141072
  0
LWPOLYLINE
  5
238
100
AcDbEntity
  8
RACCORDO
100
AcDbPolyline
 62
7
  6
CONTINUOUS
 90
20
 70
0
 10
-38.2179345143
 20
65.6050525054
 10
-38.2182117176
 20
65.604585024
 10
-38.2146299655
 20
65.6129691661
 10
-38.2078408227
 20
65.6363375809
 10
-38.2013465767
 20
65.6745742779
 10
-38.1979112936
 20
65.7272774632
 10
-38.1997935692
 20
65.7931731946
 10
-38.2087050262
 20
65.8707852061
 10
-38.226112879
 20
65.9592313201
 10
-38.2529226637
 20
66.0560530013
 10
-38.2892389728
 20
66.1579320176
 10
-38.3350396723
 20
66.2626578881
 10
-38.3897165406
 20
66.3674329798
 10
-38.4513878915
 20
66.468203316
 10
-38.5185317389
 20
66.5627089848
 10
-38.5893282706
 20
66.6488653234
 10
-38.6604773353
 20
66.7236766487
 10
-38.7292369959
 20
66.7858615925
 10
-38.7938680618
 20
66.8355964057
 10
-38.8524098303
 20
66.8731576219
  0
LWPOLYLINE
  5
239
100
AcDbEntity
  8
RACCORDO
100
AcDbPolyline
 62
253
  6
CONTINUOUS
 90
6
 70
0
 10
-37.3708362194
 20
64.710998318
 10
-37.2886073656
 20
64.8279732129
 10
-37.2234689916
 20
64.9647265761
 10
-37.1763019493
 20
65.119409183
 10
-37.1477441447
 20
65.2899291297
 10
-37.1381817718
 20
65.4739804343
  0
LWPOLYLINE
  5
23A
100
AcDbEntity
  8
RACCORDO
100
AcDbPolyline
 62
253
  6
CONTINUOUS
 90
3
 70
0
 10
-39.0116746968
 20
66.8618880509
 10
-38.9670241296
 20
66.9117267039
 10
-38.9571332208
 20
66.9187961755
  0
LWPOLYLINE
  5
23B
100
AcDbEntity
  8
0
100
AcDbPolyline
 62
7
  6
CONTINUOUS
 90
7
 70
0
 10
-37.2695043016
 20
64.7218165496
 10
-37.1487207357
 20
64.8120650611
 10
-37.0448045092
 20
64.9316402513
 10
-36.9629896568
 20
65.0745470816
 10
-36.9050047502
 20
65.2387965048
 10
-36.8691212177
 20
65.4263775682
 10
-36.8553390593
 20
65.6372902716
  0
LWPOLYLINE
  5
23C
100
AcDbEntity
  8
RACCORDO
100
AcDbPolyline
 62
253
  6
CONTINUOUS
 90
3
 70
0
 10
-37.5523470139
 20
64.558506712
 10
-37.4690437898
 20
64.6153835802
 10
-37.3708362194
 20
64.710998318
  0
LWPOLYLINE
  5
23D
100
AcDbEntity
  8
RACCORDO
100
AcDbPolyline
 62
7
  6
CONTINUOUS
 90
10
 70
0
 10
-39.5524436545
 20
68.0225525299
 10
-39.662088998
 20
67.9498843803
 10
-39.7644434472
 20
67.8620443929
 10
-39.8576651344
 20
67.7593036188
 10
-39.9400136136
 20
67.6421980732
 10
-40.0099405901
 20
67.5114678239
 10
-40.0662406925
 20
67.3676195191
 10
-40.1078215606
 20
67.2109964454
 10
-40.1335415064
 20
67.0422683855
 10
-40.1423448278
 20
66.8621139105
  0
LWPOLYLINE
  5
23E
100
AcDbEntity
  8
ASSI
100
AcDbPolyline
 62
7
  6
CONTINUOUS
 90
18
 70
0
 10
-13.0834092855
 20
72.4336382174
 10
-13.1022118279
 20
72.4222629493
 10
-13.1384114513
 20
72.397197651
 10
-13.1726639505
 20
72.3690599678
 10
-13.2049824488
 20
72.3378706075
 10
-13.2351481375
 20
72.3038407343
 10
-13.2631464082
 20
72.2669510732
 10
-13.2889918693
 20
72.2272208992
 10
-13.3125095368
 20
72.1849192011
 10
-13.333683615
 20
72.1400285293
 10
-13.3525298997
 20
72.0925663333
 10
-13.3689207941
 20
72.0428539509
 10
-13.3828396367
 20
71.990876113
 10
-13.394303089
 20
71.9366480885
 10
-13.403233539
 20
71.8805370226
 10
-13.409605116
 20
71.8226652968
 10
-13.4134436907
 20
71.7629105295
 10
-13.414749263
 20
71.7012727206
  0
LWPOLYLINE
  5
23F
100
AcDbEntity
  8
ASSI
100
AcDbPolyline
 62
7
  6
CONTINUOUS
 90
18
 70
0
 10
-11.4833475407
 20
69.6624285252
 10
-11.4645449983
 20
69.6738037933
 10
-11.4283453748
 20
69.6988690916
 10
-11.3940928757
 20
69.7270067748
 10
-11.3617743774
 20
69.7581961351
 10
-11.3316086887
 20
69.7922260083
 10
-11.303610418
 20
69.8291156694
 10
-11.2777649569
 20
69.8688458434
 10
-11.2542472894
 20
69.9111475415
 10
-11.2330732112
 20
69.9560382133
 10
-11.2142269265
 20
70.0035004093
 10
-11.1978360321
 20
70.0532127917
 10
-11.1839171895
 20
70.1051906296
 10
-11.1724537371
 20
70.1594186541
 10
-11.1635232871
 20
70.21552972
 10
-11.1571517102
 20
70.2734014458
 10
-11.1533131355
 20
70.3331562131
 10
-11.1520075632
 20
70.394794022
  0
LINE
  5
240
100
AcDbEntity
  8
0
100
AcDbLine
 62
7
  6
CONTINUOUS
 10
-39.269600942
 20
68.1858623672
 11
-39.5524436545
 21
68.0225525299
  0
LINE
  5
241
100
AcDbEntity
  8
0
100
AcDbLine
 62
7
  6
CONTINUOUS
 10
-37.2695043014
 20
64.7218165493
 11
-37.5523470139
 21
64.558506712
  0
LINE
  5
242
100
AcDbEntity
  8
ASSI
100
AcDbLine
 62
253
  6
CONTINUOUS
 10
-12.2834904291
 20
72.3544473933
 11
-13.414749263
 21
71.7012727206
  0
LINE
  5
243
100
AcDbEntity
  8
0
100
AcDbLine
 62
7
  6
CONTINUOUS
 10
-33.4965818487
 20
57.9829307454
 11
-32.7894750675
 21
58.3912053387
  0
LINE
  5
244
100
AcDbEntity
  8
RACCORDO
100
AcDbLine
 62
253
  6
CONTINUOUS
 10
-38.2105896393
 20
65.6268760792
 11
-38.2536497137
 21
65.6120881292
  0
LWPOLYLINE
  5
245
100
AcDbEntity
  8
RACCORDO
100
AcDbPolyline
 62
253
  6
CONTINUOUS
 90
20
 70
0
 10
-37.1763019039
 20
-135.7955867039
 10
-37.2234688914
 20
-135.5864369073
 10
-37.2886071826
 20
-135.3744635335
 10
-37.3708359327
 20
-135.1625329616
 10
-37.4690434211
 20
-134.9535106347
 10
-37.5819020093
 20
-134.7502227038
 10
-37.7078853241
 20
-134.5554189504
 10
-37.8452889236
 20
-134.3717348769
 10
-37.9922539784
 20
-134.201655017
 10
-38.146793468
 20
-134.0474785485
 10
-38.3068183933
 20
-133.9112895487
 10
-38.4701653271
 20
-133.7949294996
 10
-38.6346247206
 20
-133.6999726653
 10
-38.7979716945
 20
-133.62770367
 10
-38.9579967278
 20
-133.5790997897
 10
-39.1125363548
 20
-133.5548178464
 10
-39.2595014856
 20
-133.5551860951
 10
-39.3969050479
 20
-133.5801998756
 10
-39.5228882936
 20
-133.6295211514
 10
-39.5524436545
 20
-133.6456058379
  0
LWPOLYLINE
  5
246
100
AcDbEntity
  8
0
100
AcDbPolyline
 62
7
  6
CONTINUOUS
 90
24
 70
0
 10
-53.7198357906
 20
-145.9715258902
 10
-53.7176602101
 20
-146.1130298489
 10
-53.7112042019
 20
-146.2515428695
 10
-53.700467766
 20
-146.3870649522
 10
-53.6854274107
 20
-146.5197537934
 10
-53.6661066277
 20
-146.6494516965
 10
-53.6425758921
 20
-146.7756855718
 10
-53.6148198288
 20
-146.8984427683
 10
-53.5828538129
 20
-147.0177359369
 10
-53.5467944445
 20
-147.1331299403
 10
-53.5066267745
 20
-147.2446105385
 10
-53.462365752
 20
-147.3521919716
 10
-53.4141728248
 20
-147.4554818223
 10
-53.3620336334
 20
-147.5544644175
 10
-53.3059625373
 20
-147.6491554304
 10
-53.2461640632
 20
-147.7392094632
 10
-53.1826245983
 20
-147.8246095814
 10
-53.1153577553
 20
-147.9053727195
 10
-53.0446088988
 20
-147.9812042836
 10
-52.9703653121
 20
-148.0520862631
 10
-52.8926397118
 20
-148.1180366686
 10
-52.8117156122
 20
-148.1788149375
 10
-52.727581332
 20
-148.2344021806
 10
-52.6844156451
 20
-148.2601980026
  0
LINE
  5
247
100
AcDbEntity
  8
ASSI
100
AcDbLine
 62
7
  6
CONTINUOUS
 10
-60.7201929244
 20
112.0505700985
 11
-60.7201929244
 21
161.0618889137
  0
LINE
  5
248
100
AcDbEntity
  8
ASSI
100
AcDbLine
 62
7
  6
CONTINUOUS
 10
-59.305979362
 20
111.2340209118
 11
-59.305979362
 21
160.245339727
  0
LINE
  5
249
100
AcDbEntity
  8
0
100
AcDbLine
 62
7
  6
CONTINUOUS
 10
-55.134049353
 20
-145.1549767035
 11
-55.134049353
 21
93.5688777239
  0
LINE
  5
24A
100
AcDbEntity
  8
ASSI
100
AcDbLine
 62
7
  6
CONTINUOUS
 10
-53.8966124859
 20
165.0007129111
 11
-53.8966124859
 21
163.3677723575
  0
LINE
  5
24B
100
AcDbEntity
  8
0
100
AcDbLine
 62
7
  6
CONTINUOUS
 10
-53.7198357906
 20
-145.9715258902
 11
-53.7198357906
 21
92.7523285373
  0
LWPOLYLINE
  5
24C
100
AcDbEntity
  8
ASSI
100
AcDbPolyline
 62
7
  6
CONTINUOUS
 90
30
 70
0
 10
-59.305979362
 20
160.245339727
 10
-59.3043194242
 20
160.4818084949
 10
-59.2993604757
 20
160.714240923
 10
-59.2910666785
 20
160.9424446276
 10
-59.2794064976
 20
161.1663156757
 10
-59.2643471173
 20
161.3855699251
 10
-59.2458776037
 20
161.5997597316
 10
-59.2240223694
 20
161.808689147
 10
-59.1987639848
 20
162.0122049754
 10
-59.1700745658
 20
162.2099566378
 10
-59.1380284248
 20
162.4016148313
 10
-59.1026298553
 20
162.5872144862
 10
-59.0637453495
 20
162.7669484692
 10
-59.0213845002
 20
162.9406916682
 10
-58.9755779482
 20
163.1082345943
 10
-58.9261921022
 20
163.2696108771
 10
-58.8732240121
 20
163.4247337868
 10
-58.8167148042
 20
163.5733381011
 10
-58.7566075474
 20
163.7151982731
 10
-58.6929722077
 20
163.8501498876
 10
-58.6258443862
 20
163.9780666422
 10
-58.5551515275
 20
164.0988199753
 10
-58.4810469513
 20
164.2121839476
 10
-58.4035426762
 20
164.3181621168
 10
-58.3223449846
 20
164.4169541898
 10
-58.2374568348
 20
164.5084735477
 10
-58.1489952537
 20
164.5925095349
 10
-58.0568183525
 20
164.6690446186
 10
-57.9609709732
 20
164.7379690599
 10
-57.8735621787
 20
164.7922689184
  0
LWPOLYLINE
  5
24D
100
AcDbEntity
  8
ASSI
100
AcDbPolyline
 62
7
  6
CONTINUOUS
 90
30
 70
0
 10
-60.7201929244
 20
161.0618889137
 10
-60.7180334839
 20
161.3414661501
 10
-60.7115713311
 20
161.6165063629
 10
-60.7007641121
 20
161.8867821893
 10
-60.6855728177
 20
162.1521718046
 10
-60.6659604063
 20
162.4123383993
 10
-60.6419191774
 20
162.6667499245
 10
-60.6134740158
 20
162.9151770954
 10
-60.5806082892
 20
163.1574365719
 10
-60.5433061642
 20
163.3931041486
 10
-60.5016569127
 20
163.6217898129
 10
-60.4556641605
 20
163.8435356823
 10
-60.405182901
 20
164.0585623142
 10
-60.3502229461
 20
164.2667227289
 10
-60.2908220325
 20
164.4677684684
 10
-60.2268396294
 20
164.6617292593
 10
-60.1582665674
 20
164.8485058839
 10
-60.0851571332
 20
165.0277816165
 10
-60.0074784417
 20
165.199270041
 10
-59.9253107209
 20
165.3627782686
 10
-59.8386985041
 20
165.5181556129
 10
-59.7475978186
 20
165.6652260171
 10
-59.6521961976
 20
165.8037188032
 10
-59.5525015079
 20
165.9336418346
 10
-59.4481893932
 20
166.0552179847
 10
-59.3392571238
 20
166.1683484802
 10
-59.2258492303
 20
166.27278077
 10
-59.1078394673
 20
166.3684702054
 10
-58.9852754578
 20
166.455290197
 10
-58.873610295
 20
166.5242919452
  0
LINE
  5
24E
100
AcDbEntity
  8
RACCORDO
100
AcDbLine
 62
253
  6
CONTINUOUS
 10
-37.1477441332
 20
-135.9990843605
 11
-37.1763019039
 21
-135.7955867039
  0
LWPOLYLINE
  5
24F
100
AcDbEntity
  8
0
100
AcDbPolyline
 62
7
  6
CONTINUOUS
 90
19
 70
0
 10
-36.8553390593
 20
-136.0308680962
 10
-36.8691212177
 20
-135.8040401017
 10
-36.9050047502
 20
-135.5750216345
 10
-36.9629896568
 20
-135.3438126945
 10
-37.0448045092
 20
-135.1064281234
 10
-37.1487207357
 20
-134.8668530796
 10
-37.2695526217
 20
-134.6370430379
 10
-37.4081585857
 20
-134.4174935425
 10
-37.5636802092
 20
-134.2077090492
 10
-37.7283565216
 20
-134.0181583997
 10
-37.9026520957
 20
-133.8498684005
 10
-38.0861023587
 20
-133.7018122451
 10
-38.2695526217
 20
-133.581378356
 10
-38.4530028847
 20
-133.4899684797
 10
-38.6364531477
 20
-133.4261808697
 10
-38.8107487218
 20
-133.3931987088
 10
-38.9754250342
 20
-133.3925852805
 10
-39.1309466577
 20
-133.4227773014
 10
-39.2696009418
 20
-133.4822960008
  0
LWPOLYLINE
  5
250
100
AcDbEntity
  8
0
100
AcDbPolyline
 62
7
  6
CONTINUOUS
 90
19
 70
0
 10
-36.8553390593
 20
-35.1967889123
 10
-36.8691212177
 20
-34.9699609178
 10
-36.9050047502
 20
-34.7409424506
 10
-36.9629896568
 20
-34.5097335106
 10
-37.0448045092
 20
-34.2723489395
 10
-37.1487207357
 20
-34.0327738957
 10
-37.2695526217
 20
-33.802963854
 10
-37.4081585857
 20
-33.5834143586
 10
-37.5636802092
 20
-33.3736298653
 10
-37.7283565216
 20
-33.1840792158
 10
-37.9026520957
 20
-33.0157892166
 10
-38.0861023587
 20
-32.8677330612
 10
-38.2695526217
 20
-32.747299172
 10
-38.4530028847
 20
-32.6558892958
 10
-38.6364531477
 20
-32.5921016858
 10
-38.8107487218
 20
-32.5591195249
 10
-38.9754250342
 20
-32.5585060966
 10
-39.1309466577
 20
-32.5886981175
 10
-39.2696009418
 20
-32.6482168169
  0
LWPOLYLINE
  5
251
100
AcDbEntity
  8
RACCORDO
100
AcDbPolyline
 62
253
  6
CONTINUOUS
 90
25
 70
0
 10
-39.9666088965
 20
-135.0510090722
 10
-39.957933031
 20
-135.2060802555
 10
-39.9335486853
 20
-135.3639057859
 10
-39.8934558594
 20
-135.5244856634
 10
-39.8363846258
 20
-135.6910723271
 10
-39.763604912
 20
-135.860413338
 10
-39.6789265008
 20
-136.0227513786
 10
-39.5818390117
 20
-136.1772250311
 10
-39.4728528251
 20
-136.3246957134
 10
-39.3573088653
 20
-136.4579903616
 10
-39.2348013668
 20
-136.5765017791
 10
-39.1057360952
 20
-136.6808371624
 10
-38.9766712712
 20
-136.7656450377
 10
-38.8476077759
 20
-136.8298819678
 10
-38.7185447284
 20
-136.8745913899
 10
-38.5960377059
 20
-136.8975521416
 10
-38.4804911775
 20
-136.897689516
 10
-38.3715006742
 20
-136.8760782201
 10
-38.2744083668
 20
-136.8337212127
 10
-38.1897242779
 20
-136.7691656732
 10
-38.1169383849
 20
-136.6838644221
 10
-38.0598627911
 20
-136.5831788806
 10
-38.0197681979
 20
-136.4688961888
 10
-37.9953839039
 20
-136.3392292064
 10
-37.9867099092
 20
-136.1941779335
  0
LWPOLYLINE
  5
252
100
AcDbEntity
  8
RACCORDO
100
AcDbPolyline
 62
253
  6
CONTINUOUS
 90
25
 70
0
 10
-37.9867099092
 20
-136.1941779335
 10
-37.9953857748
 20
-136.0391067503
 10
-38.0197701205
 20
-135.8812812199
 10
-38.0598629464
 20
-135.7207013424
 10
-38.11693418
 20
-135.5541146786
 10
-38.1897138938
 20
-135.3847736678
 10
-38.274392305
 20
-135.2224356272
 10
-38.3714797941
 20
-135.0679619746
 10
-38.4804659807
 20
-134.9204912923
 10
-38.5960099405
 20
-134.7871966441
 10
-38.7185174389
 20
-134.6686852267
 10
-38.8475827106
 20
-134.5643498434
 10
-38.9766475346
 20
-134.479541968
 10
-39.1057110298
 20
-134.415305038
 10
-39.2347740774
 20
-134.3705956159
 10
-39.3572810999
 20
-134.3476348641
 10
-39.4728276283
 20
-134.3474974897
 10
-39.5818181316
 20
-134.3691087856
 10
-39.6789104389
 20
-134.411465793
 10
-39.7635945279
 20
-134.4760213326
 10
-39.8363804209
 20
-134.5613225836
 10
-39.8934560146
 20
-134.6620081252
 10
-39.9335506079
 20
-134.776290817
 10
-39.9579349019
 20
-134.9059577993
 10
-39.9666088965
 20
-135.0510090722
  0
LWPOLYLINE
  5
253
100
AcDbEntity
  8
RACCORDO
100
AcDbPolyline
 62
253
  6
CONTINUOUS
 90
25
 70
0
 10
-39.9666088965
 20
-34.2169298883
 10
-39.957933031
 20
-34.3720010716
 10
-39.9335486853
 20
-34.5298266019
 10
-39.8934558594
 20
-34.6904064795
 10
-39.8363846258
 20
-34.8569931432
 10
-39.763604912
 20
-35.0263341541
 10
-39.6789265008
 20
-35.1886721947
 10
-39.5818390117
 20
-35.3431458472
 10
-39.4728528251
 20
-35.4906165295
 10
-39.3573088653
 20
-35.6239111777
 10
-39.2348013668
 20
-35.7424225951
 10
-39.1057360952
 20
-35.8467579785
 10
-38.9766712712
 20
-35.9315658538
 10
-38.8476077759
 20
-35.9958027839
 10
-38.7185447284
 20
-36.0405122059
 10
-38.5960377059
 20
-36.0634729577
 10
-38.4804911775
 20
-36.0636103321
 10
-38.3715006742
 20
-36.0419990362
 10
-38.2744083668
 20
-35.9996420288
 10
-38.1897242779
 20
-35.9350864893
 10
-38.1169383849
 20
-35.8497852382
 10
-38.0598627911
 20
-35.7490996967
 10
-38.0197681979
 20
-35.6348170049
 10
-37.9953839039
 20
-35.5051500225
 10
-37.9867099092
 20
-35.3600987496
  0
LWPOLYLINE
  5
254
100
AcDbEntity
  8
RACCORDO
100
AcDbPolyline
 62
253
  6
CONTINUOUS
 90
25
 70
0
 10
-37.9867099092
 20
-35.3600987496
 10
-37.9953857748
 20
-35.2050275663
 10
-38.0197701205
 20
-35.047202036
 10
-38.0598629464
 20
-34.8866221585
 10
-38.11693418
 20
-34.7200354947
 10
-38.1897138938
 20
-34.5506944839
 10
-38.274392305
 20
-34.3883564432
 10
-38.3714797941
 20
-34.2338827907
 10
-38.4804659807
 20
-34.0864121084
 10
-38.5960099405
 20
-33.9531174602
 10
-38.7185174389
 20
-33.8346060428
 10
-38.8475827106
 20
-33.7302706594
 10
-38.9766475346
 20
-33.6454627841
 10
-39.1057110298
 20
-33.581225854
 10
-39.2347740774
 20
-33.536516432
 10
-39.3572810999
 20
-33.5135556802
 10
-39.4728276283
 20
-33.5134183058
 10
-39.5818181316
 20
-33.5350296017
 10
-39.6789104389
 20
-33.5773866091
 10
-39.7635945279
 20
-33.6419421487
 10
-39.8363804209
 20
-33.7272433997
 10
-39.8934560146
 20
-33.8279289413
 10
-39.9335506079
 20
-33.9422116331
 10
-39.9579349019
 20
-34.0718786154
 10
-39.9666088965
 20
-34.2169298883
  0
LWPOLYLINE
  5
255
100
AcDbEntity
  8
RACCORDO
100
AcDbPolyline
 62
7
  6
CONTINUOUS
 90
22
 70
0
 10
-40.1423448278
 20
-134.8060444568
 10
-40.1316455842
 20
-135.0126877948
 10
-40.1006570678
 20
-135.2205261516
 10
-40.0509446001
 20
-135.4275853743
 10
-39.9838343623
 20
-135.6323427424
 10
-39.9005184559
 20
-135.8331676941
 10
-39.8023748265
 20
-136.027865567
 10
-39.6908012128
 20
-136.2143745871
 10
-39.5667754266
 20
-136.3913114994
 10
-39.4310368116
 20
-136.5573490322
 10
-39.2829868758
 20
-136.7121633578
 10
-39.1247694488
 20
-136.8521654009
 10
-38.961304197
 20
-136.972603236
 10
-38.7936020802
 20
-137.0728700653
 10
-38.6225184491
 20
-137.1522649969
 10
-38.4531764856
 20
-137.2087721146
 10
-38.2884284009
 20
-137.2427499074
 10
-38.1277640309
 20
-137.2554960401
 10
-37.9720608854
 20
-137.2476562067
 10
-37.8230110406
 20
-137.2199406947
 10
-37.6825465853
 20
-137.1734559732
 10
-37.5523470139
 20
-137.1096516558
  0
LWPOLYLINE
  5
256
100
AcDbEntity
  8
RACCORDO
100
AcDbPolyline
 62
7
  6
CONTINUOUS
 90
22
 70
0
 10
-40.1423448278
 20
-33.9719652729
 10
-40.1316455842
 20
-34.1786086109
 10
-40.1006570678
 20
-34.3864469677
 10
-40.0509446001
 20
-34.5935061904
 10
-39.9838343623
 20
-34.7982635585
 10
-39.9005184559
 20
-34.9990885102
 10
-39.8023748265
 20
-35.1937863831
 10
-39.6908012128
 20
-35.3802954032
 10
-39.5667754266
 20
-35.5572323155
 10
-39.4310368116
 20
-35.7232698483
 10
-39.2829868758
 20
-35.8780841739
 10
-39.1247694488
 20
-36.018086217
 10
-38.961304197
 20
-36.1385240521
 10
-38.7936020802
 20
-36.2387908813
 10
-38.6225184491
 20
-36.318185813
 10
-38.4531764856
 20
-36.3746929306
 10
-38.2884284009
 20
-36.4086707235
 10
-38.1277640309
 20
-36.4214168562
 10
-37.9720608854
 20
-36.4135770228
 10
-37.8230110406
 20
-36.3858615108
 10
-37.6825465853
 20
-36.3393767893
 10
-37.5523470139
 20
-36.2755724719
  0
LINE
  5
257
100
AcDbEntity
  8
RACCORDO
100
AcDbLine
 62
253
  6
CONTINUOUS
 10
-37.1381817718
 20
-136.1941779335
 11
-37.1477441332
 21
-135.9990843605
  0
LINE
  5
258
100
AcDbEntity
  8
RACCORDO
100
AcDbLine
 62
253
  6
CONTINUOUS
 10
-37.1381817718
 20
-35.3600987496
 11
-37.1477441332
 21
-35.1650051766
  0
LWPOLYLINE
  5
259
100
AcDbEntity
  8
RACCORDO
100
AcDbPolyline
 62
7
  6
CONTINUOUS
 90
6
 70
0
 10
-38.8524098303
 20
-33.960921562
 10
-38.8934498724
 20
-33.9392358884
 10
-38.9276387037
 20
-33.9245942763
 10
-38.9537540199
 20
-33.9160449744
 10
-38.9708149483
 20
-33.9121979559
 10
-38.9757907752
 20
-33.9114811828
  0
LINE
  5
25A
100
AcDbEntity
  8
0
100
AcDbLine
 62
7
  6
CONTINUOUS
 10
-32.7894750675
 20
-26.1134683094
 11
-33.4965818487
 21
-25.705193716
  0
LWPOLYLINE
  5
25B
100
AcDbEntity
  8
RACCORDO
100
AcDbPolyline
 62
253
  6
CONTINUOUS
 90
25
 70
0
 10
-38.9766594029
 20
-35.8907491926
 10
-39.1044635584
 20
-35.8062666506
 10
-39.2261307355
 20
-35.7080987369
 10
-39.3416609344
 20
-35.5962454517
 10
-39.4528126314
 20
-35.4683468502
 10
-39.5578273502
 20
-35.3267628771
 10
-39.6514296609
 20
-35.1785733669
 10
-39.7330306634
 20
-35.0234453783
 10
-39.8032192579
 20
-34.8617118526
 10
-39.8584867151
 20
-34.7014514482
 10
-39.8980738917
 20
-34.5427407342
 10
-39.922739931
 20
-34.3855031416
 10
-39.9312535341
 20
-34.2375876222
 10
-39.9227947098
 20
-34.0994673627
 10
-39.8981834493
 20
-33.9706691766
 10
-39.8586484272
 20
-33.8576224559
 10
-39.8034322518
 20
-33.7611268953
 10
-39.7332923147
 20
-33.6803828002
 10
-39.6517294653
 20
-33.6194204788
 10
-39.5581630055
 20
-33.5792442922
 10
-39.4531736334
 20
-33.5588498794
 10
-39.3420042928
 20
-33.5592544657
 10
-39.2264026314
 20
-33.5807971264
 10
-39.1046210014
 20
-33.6231387862
 10
-38.9766594029
 20
-33.6862794453
  0
LWPOLYLINE
  5
25C
100
AcDbEntity
  8
RACCORDO
100
AcDbPolyline
 62
253
  6
CONTINUOUS
 90
25
 70
0
 10
-38.9766594029
 20
-33.6862794453
 10
-38.8488552474
 20
-33.7707619874
 10
-38.7271880702
 20
-33.868929901
 10
-38.6116578714
 20
-33.9807831862
 10
-38.5005061743
 20
-34.1086817877
 10
-38.3954914556
 20
-34.2502657608
 10
-38.3018891449
 20
-34.398455271
 10
-38.2202881424
 20
-34.5535832596
 10
-38.1500995479
 20
-34.7153167854
 10
-38.0948320907
 20
-34.8755771897
 10
-38.0552449141
 20
-35.0342879037
 10
-38.0305788748
 20
-35.1915254964
 10
-38.0220652717
 20
-35.3394410157
 10
-38.030524096
 20
-35.4775612752
 10
-38.0551353564
 20
-35.6063594614
 10
-38.0946703786
 20
-35.719406182
 10
-38.149886554
 20
-35.8159017426
 10
-38.2200264911
 20
-35.8966458377
 10
-38.3015893404
 20
-35.9576081591
 10
-38.3951558002
 20
-35.9977843457
 10
-38.5001451723
 20
-36.0181787585
 10
-38.611314513
 20
-36.0177741722
 10
-38.7269161744
 20
-35.9962315115
 10
-38.8486978043
 20
-35.9538898517
 10
-38.9766594029
 20
-35.8907491926
  0
LWPOLYLINE
  5
25D
100
AcDbEntity
  8
RACCORDO
100
AcDbPolyline
 62
253
  6
CONTINUOUS
 90
15
 70
0
 10
-38.5523953342
 20
-35.1559022706
 10
-38.6314368741
 20
-35.1034252123
 10
-38.7087127711
 20
-35.0384414645
 10
-38.7824968103
 20
-34.9624026495
 10
-38.851140779
 20
-34.8770073401
 10
-38.9131112806
 20
-34.7841631235
 10
-38.9670239892
 20
-34.6859439904
 10
-39.011674582
 20
-34.5845439929
 10
-39.0460656362
 20
-34.4822282394
 10
-39.0694289081
 20
-34.3812823028
 10
-39.0812425005
 20
-34.2839611518
 10
-39.0812425178
 20
-34.1924387783
 10
-39.0694289594
 20
-34.1087596415
 10
-39.0460657203
 20
-34.034792995
 10
-39.0116746968
 20
-33.972191133
  0
LWPOLYLINE
  5
25E
100
AcDbEntity
  8
RACCORDO
100
AcDbPolyline
 62
253
  6
CONTINUOUS
 90
20
 70
0
 10
-37.1763019039
 20
-34.96150752
 10
-37.2234688914
 20
-34.7523577234
 10
-37.2886071826
 20
-34.5403843496
 10
-37.3708359327
 20
-34.3284537777
 10
-37.4690434211
 20
-34.1194314508
 10
-37.5819020093
 20
-33.9161435199
 10
-37.7078853241
 20
-33.7213397665
 10
-37.8452889236
 20
-33.537655693
 10
-37.9922539784
 20
-33.3675758331
 10
-38.146793468
 20
-33.2133993646
 10
-38.3068183933
 20
-33.0772103648
 10
-38.4701653271
 20
-32.9608503157
 10
-38.6346247206
 20
-32.8658934814
 10
-38.7979716945
 20
-32.7936244861
 10
-38.9579967278
 20
-32.7450206058
 10
-39.1125363548
 20
-32.7207386625
 10
-39.2595014856
 20
-32.7211069111
 10
-39.3969050479
 20
-32.7461206917
 10
-39.5228882936
 20
-32.7954419675
 10
-39.5524436545
 20
-32.811526654
  0
LINE
  5
25F
100
AcDbEntity
  8
RACCORDO
100
AcDbLine
 62
253
  6
CONTINUOUS
 10
-37.1477441332
 20
-35.1650051766
 11
-37.1763019039
 21
-34.96150752
  0
LWPOLYLINE
  5
260
100
AcDbEntity
  8
0
100
AcDbPolyline
 62
7
  6
CONTINUOUS
 90
19
 70
0
 10
-36.8553390593
 20
65.6372902716
 10
-36.8691212177
 20
65.8641182661
 10
-36.9050047502
 20
66.0931367333
 10
-36.9629896568
 20
66.3243456733
 10
-37.0448045092
 20
66.5617302444
 10
-37.1487207357
 20
66.8013052882
 10
-37.2695526217
 20
67.0311153299
 10
-37.4081585857
 20
67.2506648253
 10
-37.5636802092
 20
67.4604493186
 10
-37.7283565216
 20
67.6499999681
 10
-37.9026520957
 20
67.8182899673
 10
-38.0861023587
 20
67.9663461228
 10
-38.2695526217
 20
68.0867800119
 10
-38.4530028847
 20
68.1781898881
 10
-38.6364531477
 20
68.2419774981
 10
-38.8107487218
 20
68.274959659
 10
-38.9754250342
 20
68.2755730873
 10
-39.1309466577
 20
68.2453810665
 10
-39.2696009418
 20
68.185862367
  0
LWPOLYLINE
  5
261
100
AcDbEntity
  8
RACCORDO
100
AcDbPolyline
 62
253
  6
CONTINUOUS
 90
25
 70
0
 10
-39.9666088965
 20
66.6171492956
 10
-39.957933031
 20
66.4620781123
 10
-39.9335486853
 20
66.304252582
 10
-39.8934558594
 20
66.1436727045
 10
-39.8363846258
 20
65.9770860407
 10
-39.763604912
 20
65.8077450299
 10
-39.6789265008
 20
65.6454069892
 10
-39.5818390117
 20
65.4909333367
 10
-39.4728528251
 20
65.3434626544
 10
-39.3573088653
 20
65.2101680062
 10
-39.2348013668
 20
65.0916565888
 10
-39.1057360952
 20
64.9873212054
 10
-38.9766712712
 20
64.9025133301
 10
-38.8476077759
 20
64.8382764
 10
-38.7185447284
 20
64.793566978
 10
-38.5960377059
 20
64.7706062262
 10
-38.4804911775
 20
64.7704688518
 10
-38.3715006742
 20
64.7920801477
 10
-38.2744083668
 20
64.8344371551
 10
-38.1897242779
 20
64.8989926947
 10
-38.1169383849
 20
64.9842939457
 10
-38.0598627911
 20
65.0849794873
 10
-38.0197681979
 20
65.1992621791
 10
-37.9953839039
 20
65.3289291614
 10
-37.9867099092
 20
65.4739804343
  0
LWPOLYLINE
  5
262
100
AcDbEntity
  8
RACCORDO
100
AcDbPolyline
 62
253
  6
CONTINUOUS
 90
25
 70
0
 10
-37.9867099092
 20
65.4739804343
 10
-37.9953857748
 20
65.6290516176
 10
-38.0197701205
 20
65.7868771479
 10
-38.0598629464
 20
65.9474570255
 10
-38.11693418
 20
66.1140436892
 10
-38.1897138938
 20
66.2833847001
 10
-38.274392305
 20
66.4457227407
 10
-38.3714797941
 20
66.6001963932
 10
-38.4804659807
 20
66.7476670755
 10
-38.5960099405
 20
66.8809617237
 10
-38.7185174389
 20
66.9994731411
 10
-38.8475827106
 20
67.1038085245
 10
-38.9766475346
 20
67.1886163998
 10
-39.1057110298
 20
67.2528533299
 10
-39.2347740774
 20
67.2975627519
 10
-39.3572810999
 20
67.3205235037
 10
-39.4728276283
 20
67.3206608781
 10
-39.5818181316
 20
67.2990495822
 10
-39.6789104389
 20
67.2566925748
 10
-39.7635945279
 20
67.1921370353
 10
-39.8363804209
 20
67.1068357842
 10
-39.8934560146
 20
67.0061502427
 10
-39.9335506079
 20
66.8918675509
 10
-39.9579349019
 20
66.7622005685
 10
-39.9666088965
 20
66.6171492956
  0
LWPOLYLINE
  5
263
100
AcDbEntity
  8
RACCORDO
100
AcDbPolyline
 62
7
  6
CONTINUOUS
 90
22
 70
0
 10
-40.1423448278
 20
66.862113911
 10
-40.1316455842
 20
66.655470573
 10
-40.1006570678
 20
66.4476322162
 10
-40.0509446001
 20
66.2405729936
 10
-39.9838343623
 20
66.0358156254
 10
-39.9005184559
 20
65.8349906737
 10
-39.8023748265
 20
65.6402928008
 10
-39.6908012128
 20
65.4537837807
 10
-39.5667754266
 20
65.2768468684
 10
-39.4310368116
 20
65.1108093356
 10
-39.2829868758
 20
64.95599501
 10
-39.1247694488
 20
64.815992967
 10
-38.961304197
 20
64.6955551318
 10
-38.7936020802
 20
64.5952883026
 10
-38.6225184491
 20
64.5158933709
 10
-38.4531764856
 20
64.4593862533
 10
-38.2884284009
 20
64.4254084604
 10
-38.1277640309
 20
64.4126623277
 10
-37.9720608854
 20
64.4205021611
 10
-37.8230110406
 20
64.4482176731
 10
-37.6825465853
 20
64.4947023946
 10
-37.5523470139
 20
64.558506712
  0
LINE
  5
264
100
AcDbEntity
  8
RACCORDO
100
AcDbLine
 62
253
  6
CONTINUOUS
 10
-37.1381817718
 20
65.4739804343
 11
-37.1477441332
 21
65.6690740073
  0
LWPOLYLINE
  5
265
100
AcDbEntity
  8
0
100
AcDbPolyline
 62
7
  6
CONTINUOUS
 90
31
 70
0
 10
-33.4965818487
 20
-128.5806064117
 10
-33.4955907354
 20
-128.6241028085
 10
-33.4926888494
 20
-128.6683530181
 10
-33.4878761908
 20
-128.7133570404
 10
-33.4811291371
 20
-128.7592421277
 10
-33.4724713108
 20
-128.8058810278
 10
-33.4619735795
 20
-128.8528919835
 10
-33.4496208416
 20
-128.9002780486
 10
-33.4354281986
 20
-128.9480361695
 10
-33.4195118228
 20
-128.9957754277
 10
-33.4018575662
 20
-129.0434956684
 10
-33.3824795766
 20
-129.0911970466
 10
-33.3615364703
 20
-129.1384891083
 10
-33.3390154012
 20
-129.1853684939
 10
-33.3149292154
 20
-129.2318385631
 10
-33.2894750675
 20
-129.2775189408
 10
-33.2626417295
 20
-129.3224031453
 10
-33.2344404293
 20
-129.3664976583
 10
-33.2051020053
 20
-129.4094415495
 10
-33.1746171242
 20
-129.4512253748
 10
-33.1429951192
 20
-129.4918585782
 10
-33.1104948285
 20
-129.5310085618
 10
-33.0771090432
 20
-129.5686631514
 10
-33.0428449722
 20
-129.604834521
 10
-33.0079830797
 20
-129.6392265944
 10
-32.9725184591
 20
-129.6718247674
 10
-32.9364560172
 20
-129.702643644
 10
-32.9000909385
 20
-129.7314309602
 10
-32.8635216182
 20
-129.7581026279
 10
-32.8266496612
 20
-129.7827427351
 10
-32.7894750675
 20
-129.8053512818
  0
LINE
  5
266
100
AcDbEntity
  8
0
100
AcDbLine
 62
7
  6
CONTINUOUS
 10
-34.9107954111
 20
-129.3971555983
 11
-34.9107954111
 21
149.5821970951
  0
LINE
  5
267
100
AcDbEntity
  8
0
100
AcDbLine
 62
7
  6
CONTINUOUS
 10
-33.4965818487
 20
-128.5806064117
 11
-33.4965818487
 21
148.6898928986
  0
LINE
  5
268
100
AcDbEntity
  8
0
100
AcDbLine
 62
7
  6
CONTINUOUS
 10
-32.7894750675
 20
-42.4428738452
 11
-32.7894750675
 21
-26.1134683094
  0
LINE
  5
269
100
AcDbEntity
  8
0
100
AcDbLine
 62
7
  6
CONTINUOUS
 10
-32.7894750675
 20
58.3912053387
 11
-32.7894750675
 21
74.7206108745
  0
LWPOLYLINE
  5
26A
100
AcDbEntity
  8
ASSI
100
AcDbPolyline
 62
7
  6
CONTINUOUS
 90
22
 70
0
 10
15.6473394438
 20
106.6809526977
 10
15.6225300124
 20
106.6309192179
 10
15.5925124348
 20
106.560709328
 10
15.5657354888
 20
106.4874125411
 10
15.54221621
 20
106.4110126297
 10
15.5219375627
 20
106.3315258213
 10
15.5050059626
 20
106.2493692363
 10
15.4914390047
 20
106.1645288402
 10
15.4812190939
 20
106.0770186676
 10
15.4743998612
 20
105.9872979431
 10
15.4709991832
 20
105.8953550461
 10
15.4709991832
 20
105.8012015971
 10
15.4743998612
 20
105.7053316824
 10
15.4812190939
 20
105.6077362788
 10
15.4914390047
 20
105.5084244095
 10
15.5050059626
 20
105.4079172305
 10
15.5219375627
 20
105.3062084582
 10
15.54221621
 20
105.2033043761
 10
15.5657354888
 20
105.099744991
 10
15.5925124348
 20
104.995526858
 10
15.6225300124
 20
104.890653422
 10
15.6473394438
 20
104.8119706327
  0
LWPOLYLINE
  5
26B
100
AcDbEntity
  8
RACCORDO
100
AcDbPolyline
 62
253
  6
CONTINUOUS
 90
5
 70
0
 10
-38.2536497137
 20
-35.2219910547
 10
-38.322293689
 20
-35.22811807
 10
-38.3960777617
 20
-35.2189529525
 10
-38.4733537159
 20
-35.1947004329
 10
-38.5523953342
 20
-35.1559022706
  0
LWPOLYLINE
  5
26C
100
AcDbEntity
  8
ASSI
100
AcDbPolyline
 62
7
  6
CONTINUOUS
 90
34
 70
0
 10
21.2334830151
 20
-86.6008412171
 10
21.2158421727
 20
-86.5783222937
 10
21.1443864561
 20
-86.4917058885
 10
21.0714799385
 20
-86.4078117621
 10
20.9971149931
 20
-86.3266542251
 10
20.9212992466
 20
-86.248218967
 10
20.8444305551
 20
-86.1729175901
 10
20.7665033834
 20
-86.1007665688
 10
20.6875232667
 20
-86.0317494286
 10
20.6079046666
 20
-85.9662283489
 10
20.5276442266
 20
-85.9042217078
 10
20.4467453033
 20
-85.8457111272
 10
20.3656324274
 20
-85.7910036511
 10
20.2843044743
 20
-85.7401192722
 10
20.2027625687
 20
-85.6930379978
 10
20.1214346156
 20
-85.6500068951
 10
20.0403217397
 20
-85.6110472552
 10
19.9594228163
 20
-85.576137787
 10
19.8791623764
 20
-85.5454616838
 10
19.7995437763
 20
-85.5190411999
 10
19.7205636596
 20
-85.4968540809
 10
19.6426364879
 20
-85.4790167577
 10
19.5657677964
 20
-85.4655520965
 10
19.4899520499
 20
-85.456437231
 10
19.4155871045
 20
-85.451719993
 10
19.3426805868
 20
-85.4514235002
 10
19.2712248702
 20
-85.455524635
 10
19.2015949307
 20
-85.4640018758
 10
19.1338003662
 20
-85.4768782274
 10
19.0678315788
 20
-85.4941306852
 10
19.004034751
 20
-85.5156687138
 10
18.9424213004
 20
-85.5415148419
 10
18.8829798094
 20
-85.571646541
 10
18.8684715903
 20
-85.5798442723
  0
LWPOLYLINE
  5
26D
100
AcDbEntity
  8
ASSI
100
AcDbPolyline
 62
7
  6
CONTINUOUS
 90
22
 70
0
 10
-11.9499907119
 20
-107.5198931626
 10
-11.9383163373
 20
-107.568781961
 10
-11.9194700526
 20
-107.6380073741
 10
-11.8982959744
 20
-107.7073493407
 10
-11.8747783069
 20
-107.7768086518
 10
-11.8489328458
 20
-107.8463845164
 10
-11.8209345751
 20
-107.9156058787
 10
-11.7907688864
 20
-107.9844703331
 10
-11.7584503881
 20
-108.0529802852
 10
-11.724197889
 20
-108.1206718958
 10
-11.6879982655
 20
-108.1875396119
 10
-11.6498646413
 20
-108.2535889864
 10
-11.6100551959
 20
-108.3183728394
 10
-11.5685585576
 20
-108.3818825832
 10
-11.5253860981
 20
-108.4441268055
 10
-11.4808301119
 20
-108.5046840883
 10
-11.4348812107
 20
-108.5635429848
 10
-11.3875487827
 20
-108.6207149418
 10
-11.339153287
 20
-108.6758128829
 10
-11.28968751
 20
-108.7288227345
 10
-11.2391586653
 20
-108.7797585701
 10
-11.2025525519
 20
-108.814412697
  0
LINE
  5
26E
100
AcDbEntity
  8
RACCORDO
100
AcDbLine
 62
253
  6
CONTINUOUS
 10
-37.1477441332
 20
65.6690740073
 11
-37.1763019039
 21
65.8725716639
  0
LWPOLYLINE
  5
26F
100
AcDbEntity
  8
ASSI
100
AcDbPolyline
 62
7
  6
CONTINUOUS
 90
51
 70
0
 10
-13.414749263
 20
-107.9221881738
 10
-13.4134436907
 20
-107.9853336248
 10
-13.409605116
 20
-108.0495210819
 10
-13.403233539
 20
-108.1147505451
 10
-13.394303089
 20
-108.1811742709
 10
-13.3828396367
 20
-108.2486400027
 10
-13.3689207941
 20
-108.3166909712
 10
-13.3525298997
 20
-108.3853311477
 10
-13.333683615
 20
-108.4545565608
 10
-13.3125095368
 20
-108.5238985274
 10
-13.2889918693
 20
-108.5933578385
 10
-13.2631464082
 20
-108.662933703
 10
-13.2351481375
 20
-108.7321550653
 10
-13.2049824488
 20
-108.8010195197
 10
-13.1726639505
 20
-108.8695294718
 10
-13.1384114513
 20
-108.9372210824
 10
-13.1022118279
 20
-109.0040887985
 10
-13.0640782037
 20
-109.0701381731
 10
-13.0242687582
 20
-109.134922026
 10
-12.98277212
 20
-109.1984317699
 10
-12.9395996605
 20
-109.2606759921
 10
-12.8950436742
 20
-109.321233275
 10
-12.849094773
 20
-109.3800921714
 10
-12.8017623451
 20
-109.4372641284
 10
-12.7533668494
 20
-109.4923620696
 10
-12.7039010724
 20
-109.5453719211
 10
-12.6533722277
 20
-109.5963077568
 10
-12.6021224154
 20
-109.644824721
 10
-12.5501467431
 20
-109.6909064
 10
-12.4974501033
 20
-109.7345692076
 10
-12.4443892726
 20
-109.7755175294
 10
-12.39096178
 20
-109.8137329457
 10
-12.3371700965
 20
-109.8492338763
 10
-12.2833784131
 20
-109.881779966
 10
-12.2295867297
 20
-109.911351164
 10
-12.1757950462
 20
-109.9379675211
 10
-12.1223675536
 20
-109.9614488341
 10
-12.0693067229
 20
-109.9817738295
 10
-12.0166100831
 20
-109.9989637808
 10
-11.9646344108
 20
-110.0129023052
 10
-11.9133845985
 20
-110.0235673397
 10
-11.8628557538
 20
-110.0309809473
 10
-11.8133899768
 20
-110.0350929352
 10
-11.7649944811
 20
-110.0358808993
 10
-11.7176620532
 20
-110.0333672437
 10
-11.671713152
 20
-110.0275689866
 10
-11.6271571657
 20
-110.0184638398
 10
-11.5839847062
 20
-110.0060740917
 10
-11.542488068
 20
-109.9904836255
 10
-11.5026786225
 20
-109.9716707223
 10
-11.4833475407
 20
-109.9610323692
  0
LWPOLYLINE
  5
270
100
AcDbEntity
  8
ASSI
100
AcDbPolyline
 62
7
  6
CONTINUOUS
 90
51
 70
0
 10
-13.414749263
 20
-18.1104577266
 10
-13.4134436907
 20
-18.1736031776
 10
-13.409605116
 20
-18.2377906347
 10
-13.403233539
 20
-18.3030200979
 10
-13.394303089
 20
-18.3694438237
 10
-13.3828396367
 20
-18.4369095555
 10
-13.3689207941
 20
-18.504960524
 10
-13.3525298997
 20
-18.5736007004
 10
-13.333683615
 20
-18.6428261135
 10
-13.3125095368
 20
-18.7121680802
 10
-13.2889918693
 20
-18.7816273912
 10
-13.2631464082
 20
-18.8512032558
 10
-13.2351481375
 20
-18.9204246181
 10
-13.2049824488
 20
-18.9892890725
 10
-13.1726639505
 20
-19.0577990246
 10
-13.1384114513
 20
-19.1254906352
 10
-13.1022118279
 20
-19.1923583513
 10
-13.0640782037
 20
-19.2584077259
 10
-13.0242687582
 20
-19.3231915788
 10
-12.98277212
 20
-19.3867013227
 10
-12.9395996605
 20
-19.4489455449
 10
-12.8950436742
 20
-19.5095028278
 10
-12.849094773
 20
-19.5683617242
 10
-12.8017623451
 20
-19.6255336812
 10
-12.7533668494
 20
-19.6806316224
 10
-12.7039010724
 20
-19.7336414739
 10
-12.6533722277
 20
-19.7845773096
 10
-12.6021224154
 20
-19.8330942738
 10
-12.5501467431
 20
-19.8791759528
 10
-12.4974501033
 20
-19.9228387604
 10
-12.4443892726
 20
-19.9637870822
 10
-12.39096178
 20
-20.0020024985
 10
-12.3371700965
 20
-20.0375034291
 10
-12.2833784131
 20
-20.0700495188
 10
-12.2295867297
 20
-20.0996207168
 10
-12.1757950462
 20
-20.1262370739
 10
-12.1223675536
 20
-20.1497183869
 10
-12.0693067229
 20
-20.1700433823
 10
-12.0166100831
 20
-20.1872333335
 10
-11.9646344108
 20
-20.201171858
 10
-11.9133845985
 20
-20.2118368925
 10
-11.8628557538
 20
-20.2192505001
 10
-11.8133899768
 20
-20.2233624879
 10
-11.7649944811
 20
-20.2241504521
 10
-11.7176620532
 20
-20.2216367965
 10
-11.671713152
 20
-20.2158385394
 10
-11.6271571657
 20
-20.2067333926
 10
-11.5839847062
 20
-20.1943436444
 10
-11.542488068
 20
-20.1787531783
 10
-11.5026786225
 20
-20.1599402751
 10
-11.4833475407
 20
-20.149301922
  0
LWPOLYLINE
  5
271
100
AcDbEntity
  8
ASSI
100
AcDbPolyline
 62
7
  6
CONTINUOUS
 90
51
 70
0
 10
-11.1520075632
 20
-109.2286668724
 10
-11.1533131355
 20
-109.1655214214
 10
-11.1571517102
 20
-109.1013339643
 10
-11.1635232871
 20
-109.0361045011
 10
-11.1724537371
 20
-108.9696807754
 10
-11.1839171895
 20
-108.9022150435
 10
-11.1978360321
 20
-108.834164075
 10
-11.2142269265
 20
-108.7655238986
 10
-11.2330732112
 20
-108.6962984855
 10
-11.2542472894
 20
-108.6269565189
 10
-11.2777649569
 20
-108.5574972078
 10
-11.303610418
 20
-108.4879213432
 10
-11.3316086887
 20
-108.4186999809
 10
-11.3617743774
 20
-108.3498355265
 10
-11.3940928757
 20
-108.2813255744
 10
-11.4283453748
 20
-108.2136339638
 10
-11.4645449983
 20
-108.1467662477
 10
-11.5026786225
 20
-108.0807168732
 10
-11.542488068
 20
-108.0159330202
 10
-11.5839847062
 20
-107.9524232763
 10
-11.6271571657
 20
-107.8901790541
 10
-11.671713152
 20
-107.8296217712
 10
-11.7176620532
 20
-107.7707628748
 10
-11.7649944811
 20
-107.7135909178
 10
-11.8133899768
 20
-107.6584929767
 10
-11.8628557538
 20
-107.6054831251
 10
-11.9133845985
 20
-107.5545472894
 10
-11.9646344108
 20
-107.5060303252
 10
-12.0166100831
 20
-107.4599486462
 10
-12.0693067229
 20
-107.4162858387
 10
-12.1223675536
 20
-107.3753375169
 10
-12.1757950462
 20
-107.3371221005
 10
-12.2295867297
 20
-107.3016211699
 10
-12.2833784131
 20
-107.2690750803
 10
-12.3371700965
 20
-107.2395038822
 10
-12.39096178
 20
-107.2128875251
 10
-12.4443892726
 20
-107.1894062122
 10
-12.4974501033
 20
-107.1690812168
 10
-12.5501467431
 20
-107.1518912655
 10
-12.6021224154
 20
-107.137952741
 10
-12.6533722277
 20
-107.1272877066
 10
-12.7039010724
 20
-107.1198740989
 10
-12.7533668494
 20
-107.1157621111
 10
-12.8017623451
 20
-107.1149741469
 10
-12.849094773
 20
-107.1174878026
 10
-12.8950436742
 20
-107.1232860596
 10
-12.9395996605
 20
-107.1323912064
 10
-12.98277212
 20
-107.1447809546
 10
-13.0242687582
 20
-107.1603714207
 10
-13.0640782037
 20
-107.1791843239
 10
-13.0834092855
 20
-107.1898226771
  0
LWPOLYLINE
  5
272
100
AcDbEntity
  8
ASSI
100
AcDbPolyline
 62
7
  6
CONTINUOUS
 90
51
 70
0
 10
-13.414749263
 20
71.7012727206
 10
-13.4134436907
 20
71.6381272696
 10
-13.409605116
 20
71.5739398125
 10
-13.403233539
 20
71.5087103493
 10
-13.394303089
 20
71.4422866236
 10
-13.3828396367
 20
71.3748208917
 10
-13.3689207941
 20
71.3067699232
 10
-13.3525298997
 20
71.2381297468
 10
-13.333683615
 20
71.1689043337
 10
-13.3125095368
 20
71.099562367
 10
-13.2889918693
 20
71.030103056
 10
-13.2631464082
 20
70.9605271914
 10
-13.2351481375
 20
70.8913058291
 10
-13.2049824488
 20
70.8224413747
 10
-13.1726639505
 20
70.7539314226
 10
-13.1384114513
 20
70.686239812
 10
-13.1022118279
 20
70.6193720959
 10
-13.0640782037
 20
70.5533227213
 10
-13.0242687582
 20
70.4885388684
 10
-12.98277212
 20
70.4250291245
 10
-12.9395996605
 20
70.3627849023
 10
-12.8950436742
 20
70.3022276194
 10
-12.849094773
 20
70.243368723
 10
-12.8017623451
 20
70.186196766
 10
-12.7533668494
 20
70.1310988248
 10
-12.7039010724
 20
70.0780889733
 10
-12.6533722277
 20
70.0271531376
 10
-12.6021224154
 20
69.9786361734
 10
-12.5501467431
 20
69.9325544944
 10
-12.4974501033
 20
69.8888916869
 10
-12.4443892726
 20
69.847943365
 10
-12.39096178
 20
69.8097279487
 10
-12.3371700965
 20
69.7742270181
 10
-12.2833784131
 20
69.7416809284
 10
-12.2295867297
 20
69.7121097304
 10
-12.1757950462
 20
69.6854933733
 10
-12.1223675536
 20
69.6620120603
 10
-12.0693067229
 20
69.641687065
 10
-12.0166100831
 20
69.6244971137
 10
-11.9646344108
 20
69.6105585892
 10
-11.9133845985
 20
69.5998935547
 10
-11.8628557538
 20
69.5924799471
 10
-11.8133899768
 20
69.5883679593
 10
-11.7649944811
 20
69.5875799951
 10
-11.7176620532
 20
69.5900936507
 10
-11.671713152
 20
69.5958919078
 10
-11.6271571657
 20
69.6049970546
 10
-11.5839847062
 20
69.6173868028
 10
-11.542488068
 20
69.6329772689
 10
-11.5026786225
 20
69.6517901721
 10
-11.4833475407
 20
69.6624285252
  0
LINE
  5
273
100
AcDbEntity
  8
0
100
AcDbLine
 62
253
  6
CONTINUOUS
 10
-16.5260191002
 20
-83.8769649206
 11
-16.5260191002
 21
139.0753164288
  0
LINE
  5
274
100
AcDbEntity
  8
0
100
AcDbLine
 62
7
  6
CONTINUOUS
 10
-16.5260191002
 20
-83.8769649206
 11
-16.5260191002
 21
-126.9457720214
  0
LINE
  5
275
100
AcDbEntity
  8
0
100
AcDbLine
 62
253
  6
CONTINUOUS
 10
-15.1118055378
 20
138.3599668698
 11
-15.1118055378
 21
-83.0605735536
  0
LINE
  5
276
100
AcDbEntity
  8
0
100
AcDbLine
 62
7
  6
CONTINUOUS
 10
-15.1118055378
 20
-83.0605735536
 11
-15.1118055378
 21
-84.6935141072
  0
LWPOLYLINE
  5
277
100
AcDbEntity
  8
0
100
AcDbPolyline
 62
7
  6
CONTINUOUS
 90
37
 70
0
 10
-16.5260191002
 20
-126.9457720214
 10
-16.5267027561
 20
-126.9818929473
 10
-16.5287192217
 20
-127.0185808146
 10
-16.5320684968
 20
-127.0558356234
 10
-16.5367620166
 20
-127.0937303559
 10
-16.542788346
 20
-127.1321920299
 10
-16.5501131795
 20
-127.1710016982
 10
-16.558743923
 20
-127.2101613456
 10
-16.5686731706
 20
-127.2496689874
 10
-16.579844399
 20
-127.2892997222
 10
-16.5922646917
 20
-127.3290542521
 10
-16.6059269652
 20
-127.3689318751
 10
-16.6207534457
 20
-127.4087055836
 10
-16.636750773
 20
-127.4483747849
 10
-16.6539123073
 20
-127.4879400718
 10
-16.6721403546
 20
-127.5271762148
 10
-16.6914409978
 20
-127.5660813365
 10
-16.7118081541
 20
-127.6046573144
 10
-16.7331258814
 20
-127.6426845505
 10
-16.7553996011
 20
-127.6801599153
 10
-16.7786238918
 20
-127.7170865384
 10
-16.8026665468
 20
-127.7532542112
 10
-16.8275322336
 20
-127.7886586051
 10
-16.8532162846
 20
-127.8233040486
 10
-16.8795724908
 20
-127.8569933192
 10
-16.9066046858
 20
-127.8897209632
 10
-16.9343090359
 20
-127.9214924341
 10
-16.9625278313
 20
-127.9521268696
 10
-16.9912640062
 20
-127.9816177847
 10
-17.0205146263
 20
-128.0099716643
 10
-17.0501131795
 20
-128.0370271011
 10
-17.0800616503
 20
-128.0627766894
 10
-17.1103580542
 20
-128.087227835
 10
-17.1408299258
 20
-128.110241347
 10
-17.1714197766
 20
-128.1317708287
 10
-17.2021850951
 20
-128.1518626768
 10
-17.2331258814
 20
-128.1705168915
  0
LWPOLYLINE
  5
278
100
AcDbEntity
  8
RACCORDO
100
AcDbPolyline
 62
7
  6
CONTINUOUS
 90
20
 70
0
 10
-38.2179345143
 20
-35.2290266785
 10
-38.2182117176
 20
-35.2294941599
 10
-38.2146299655
 20
-35.2211100178
 10
-38.2078408227
 20
-35.197741603
 10
-38.2013465767
 20
-35.1595049061
 10
-38.1979112936
 20
-35.1068017207
 10
-38.1997935692
 20
-35.0409059893
 10
-38.2087050262
 20
-34.9632939779
 10
-38.226112879
 20
-34.8748478638
 10
-38.2529226637
 20
-34.7780261826
 10
-38.2892389728
 20
-34.6761471663
 10
-38.3350396723
 20
-34.5714212958
 10
-38.3897165406
 20
-34.4666462041
 10
-38.4513878915
 20
-34.3658758679
 10
-38.5185317389
 20
-34.2713701991
 10
-38.5893282706
 20
-34.1852138605
 10
-38.6604773353
 20
-34.1104025352
 10
-38.7292369959
 20
-34.0482175914
 10
-38.7938680618
 20
-33.9984827782
 10
-38.8524098303
 20
-33.960921562
  0
LWPOLYLINE
  5
279
100
AcDbEntity
  8
ASSI
100
AcDbPolyline
 62
7
  6
CONTINUOUS
 90
22
 70
0
 10
-11.9499907119
 20
-17.7081627154
 10
-11.9383163373
 20
-17.7570515138
 10
-11.9194700526
 20
-17.8262769269
 10
-11.8982959744
 20
-17.8956188935
 10
-11.8747783069
 20
-17.9650782046
 10
-11.8489328458
 20
-18.0346540692
 10
-11.8209345751
 20
-18.1038754315
 10
-11.7907688864
 20
-18.1727398859
 10
-11.7584503881
 20
-18.241249838
 10
-11.724197889
 20
-18.3089414486
 10
-11.6879982655
 20
-18.3758091647
 10
-11.6498646413
 20
-18.4418585392
 10
-11.6100551959
 20
-18.5066423922
 10
-11.5685585576
 20
-18.570152136
 10
-11.5253860981
 20
-18.6323963583
 10
-11.4808301119
 20
-18.6929536411
 10
-11.4348812107
 20
-18.7518125375
 10
-11.3875487827
 20
-18.8089844946
 10
-11.339153287
 20
-18.8640824357
 10
-11.28968751
 20
-18.9170922873
 10
-11.2391586653
 20
-18.9680281229
 10
-11.2025525519
 20
-19.0026822497
  0
LWPOLYLINE
  5
27A
100
AcDbEntity
  8
RACCORDO
100
AcDbPolyline
 62
253
  6
CONTINUOUS
 90
20
 70
0
 10
-37.1763019039
 20
65.8725716639
 10
-37.2234688914
 20
66.0817214605
 10
-37.2886071826
 20
66.2936948343
 10
-37.3708359327
 20
66.5056254062
 10
-37.4690434211
 20
66.7146477331
 10
-37.5819020093
 20
66.917935664
 10
-37.7078853241
 20
67.1127394174
 10
-37.8452889236
 20
67.296423491
 10
-37.9922539784
 20
67.4665033508
 10
-38.146793468
 20
67.6206798193
 10
-38.3068183933
 20
67.7568688191
 10
-38.4701653271
 20
67.8732288682
 10
-38.6346247206
 20
67.9681857026
 10
-38.7979716945
 20
68.0404546978
 10
-38.9579967278
 20
68.0890585782
 10
-39.1125363548
 20
68.1133405214
 10
-39.2595014856
 20
68.1129722728
 10
-39.3969050479
 20
68.0879584922
 10
-39.5228882936
 20
68.0386372164
 10
-39.5524436545
 20
68.0225525299
  0
LWPOLYLINE
  5
27B
100
AcDbEntity
  8
ASSI
100
AcDbPolyline
 62
7
  6
CONTINUOUS
 90
51
 70
0
 10
-11.1520075632
 20
-19.4169364252
 10
-11.1533131355
 20
-19.3537909742
 10
-11.1571517102
 20
-19.2896035171
 10
-11.1635232871
 20
-19.2243740539
 10
-11.1724537371
 20
-19.1579503282
 10
-11.1839171895
 20
-19.0904845963
 10
-11.1978360321
 20
-19.0224336278
 10
-11.2142269265
 20
-18.9537934514
 10
-11.2330732112
 20
-18.8845680383
 10
-11.2542472894
 20
-18.8152260716
 10
-11.2777649569
 20
-18.7457667606
 10
-11.303610418
 20
-18.676190896
 10
-11.3316086887
 20
-18.6069695337
 10
-11.3617743774
 20
-18.5381050793
 10
-11.3940928757
 20
-18.4695951272
 10
-11.4283453748
 20
-18.4019035166
 10
-11.4645449983
 20
-18.3350358005
 10
-11.5026786225
 20
-18.2689864259
 10
-11.542488068
 20
-18.204202573
 10
-11.5839847062
 20
-18.1406928291
 10
-11.6271571657
 20
-18.0784486069
 10
-11.671713152
 20
-18.017891324
 10
-11.7176620532
 20
-17.9590324276
 10
-11.7649944811
 20
-17.9018604706
 10
-11.8133899768
 20
-17.8467625295
 10
-11.8628557538
 20
-17.7937526779
 10
-11.9133845985
 20
-17.7428168422
 10
-11.9646344108
 20
-17.694299878
 10
-12.0166100831
 20
-17.648218199
 10
-12.0693067229
 20
-17.6045553915
 10
-12.1223675536
 20
-17.5636070697
 10
-12.1757950462
 20
-17.5253916533
 10
-12.2295867297
 20
-17.4898907227
 10
-12.2833784131
 20
-17.457344633
 10
-12.3371700965
 20
-17.427773435
 10
-12.39096178
 20
-17.4011570779
 10
-12.4443892726
 20
-17.377675765
 10
-12.4974501033
 20
-17.3573507696
 10
-12.5501467431
 20
-17.3401608183
 10
-12.6021224154
 20
-17.3262222938
 10
-12.6533722277
 20
-17.3155572593
 10
-12.7039010724
 20
-17.3081436517
 10
-12.7533668494
 20
-17.3040316639
 10
-12.8017623451
 20
-17.3032436997
 10
-12.849094773
 20
-17.3057573554
 10
-12.8950436742
 20
-17.3115556124
 10
-12.9395996605
 20
-17.3206607592
 10
-12.98277212
 20
-17.3330505074
 10
-13.0242687582
 20
-17.3486409735
 10
-13.0640782037
 20
-17.3674538767
 10
-13.0834092855
 20
-17.3780922299
  0
LWPOLYLINE
  5
27C
100
AcDbEntity
  8
ASSI
100
AcDbPolyline
 62
7
  6
CONTINUOUS
 90
51
 70
0
 10
-11.1520075632
 20
70.394794022
 10
-11.1533131355
 20
70.457939473
 10
-11.1571517102
 20
70.5221269301
 10
-11.1635232871
 20
70.5873563933
 10
-11.1724537371
 20
70.653780119
 10
-11.1839171895
 20
70.7212458509
 10
-11.1978360321
 20
70.7892968194
 10
-11.2142269265
 20
70.8579369958
 10
-11.2330732112
 20
70.9271624089
 10
-11.2542472894
 20
70.9965043756
 10
-11.2777649569
 20
71.0659636866
 10
-11.303610418
 20
71.1355395512
 10
-11.3316086887
 20
71.2047609135
 10
-11.3617743774
 20
71.2736253679
 10
-11.3940928757
 20
71.34213532
 10
-11.4283453748
 20
71.4098269306
 10
-11.4645449983
 20
71.4766946467
 10
-11.5026786225
 20
71.5427440213
 10
-11.542488068
 20
71.6075278742
 10
-11.5839847062
 20
71.6710376181
 10
-11.6271571657
 20
71.7332818403
 10
-11.671713152
 20
71.7938391232
 10
-11.7176620532
 20
71.8526980196
 10
-11.7649944811
 20
71.9098699766
 10
-11.8133899768
 20
71.9649679177
 10
-11.8628557538
 20
72.0179777693
 10
-11.9133845985
 20
72.068913605
 10
-11.9646344108
 20
72.1174305692
 10
-12.0166100831
 20
72.1635122482
 10
-12.0693067229
 20
72.2071750557
 10
-12.1223675536
 20
72.2481233776
 10
-12.1757950462
 20
72.2863387939
 10
-12.2295867297
 20
72.3218397245
 10
-12.2833784131
 20
72.3543858142
 10
-12.3371700965
 20
72.3839570122
 10
-12.39096178
 20
72.4105733693
 10
-12.4443892726
 20
72.4340546823
 10
-12.4974501033
 20
72.4543796776
 10
-12.5501467431
 20
72.4715696289
 10
-12.6021224154
 20
72.4855081534
 10
-12.6533722277
 20
72.4961731879
 10
-12.7039010724
 20
72.5035867955
 10
-12.7533668494
 20
72.5076987833
 10
-12.8017623451
 20
72.5084867475
 10
-12.849094773
 20
72.5059730919
 10
-12.8950436742
 20
72.5001748348
 10
-12.9395996605
 20
72.491069688
 10
-12.98277212
 20
72.4786799398
 10
-13.0242687582
 20
72.4630894737
 10
-13.0640782037
 20
72.4442765705
 10
-13.0834092855
 20
72.4336382174
  0
LWPOLYLINE
  5
27D
100
AcDbEntity
  8
ASSI
100
AcDbPolyline
 62
7
  6
CONTINUOUS
 90
76
 70
0
 10
0.0909902577
 20
-96.3290638325
 10
0.0940415976
 20
-96.5513856724
 10
0.1031134614
 20
-96.7765198824
 10
0.1182058488
 20
-97.0044664627
 10
0.1393460628
 20
-97.2354604418
 10
0.1665068005
 20
-97.469266791
 10
0.1996061537
 20
-97.7051804245
 10
0.2386620495
 20
-97.9432077034
 10
0.2836565609
 20
-98.1833422665
 10
0.3344539985
 20
-98.4248599438
 10
0.3910718799
 20
-98.6677649107
 10
0.4534926877
 20
-98.9120529918
 10
0.5215281803
 20
-99.1569874916
 10
0.5951953071
 20
-99.4025703613
 10
0.6744771187
 20
-99.6487996498
 10
0.7591345264
 20
-99.8949328072
 10
0.8491837575
 20
-100.1409695434
 10
0.9446085847
 20
-100.3869101486
 10
1.0451212368
 20
-100.6320129437
 10
1.1507370725
 20
-100.8762753996
 10
1.2614407332
 20
-101.1197000453
 10
1.3768983716
 20
-101.3615527892
 10
1.4971243386
 20
-101.6018288861
 10
1.6221042833
 20
-101.8405330812
 10
1.7514613057
 20
-102.076945518
 10
1.885208619
 20
-102.3110592783
 10
2.02333301
 20
-102.5428812805
 10
2.1654179393
 20
-102.7717124225
 10
2.3114753625
 20
-102.9975436759
 10
2.4614933239
 20
-103.2203840693
 10
2.6150194168
 20
-103.4395615863
 10
2.7720642312
 20
-103.6550651699
 10
2.9326171772
 20
-103.8669058773
 10
3.0961940777
 20
-104.0744448638
 10
3.2628040613
 20
-104.2776691439
 10
3.4324379994
 20
-104.476591703
 10
3.6045843298
 20
-104.6706126538
 10
3.7792506367
 20
-104.8597171997
 10
3.9564293358
 20
-105.0439201372
 10
4.1355861122
 20
-105.2226659685
 10
4.3167269372
 20
-105.3959382201
 10
4.4998458396
 20
-105.5637533656
 10
4.6843905906
 20
-105.7256053274
 10
4.8703654944
 20
-105.8814761045
 10
5.0577662468
 20
-106.031383698
 10
5.2460277065
 20
-106.174876034
 10
5.4351524716
 20
-106.3119337467
 10
5.6251379439
 20
-106.4425762018
 10
5.8154111874
 20
-106.5664094232
 10
6.0059730706
 20
-106.6834128555
 10
6.1968227249
 20
-106.793607054
 10
6.3873846082
 20
-106.8966597078
 10
6.5776578516
 20
-106.9925492586
 10
6.7676433239
 20
-107.0812972648
 10
6.956768089
 20
-107.1626360903
 10
7.1450295487
 20
-107.236543369
 10
7.3324303011
 20
-107.303041467
 10
7.518405205
 20
-107.3619298472
 10
7.7029499559
 20
-107.413185538
 10
7.8860688583
 20
-107.456831511
 10
8.0672096833
 20
-107.4927361436
 10
8.2463664597
 20
-107.520876067
 10
8.4235451589
 20
-107.5412746501
 10
8.5982114657
 20
-107.5538703773
 10
8.7703577961
 20
-107.5586396938
 10
8.9399917342
 20
-107.5556061543
 10
9.1066017178
 20
-107.5447789071
 10
9.2701786183
 20
-107.5261344251
 10
9.4307315643
 20
-107.4996962353
 10
9.5877763787
 20
-107.465544067
 10
9.7413024716
 20
-107.4236546337
 10
9.8913204331
 20
-107.3740512219
 10
10.0373778563
 20
-107.3168834198
 10
10.1794627855
 20
-107.2521283925
 10
10.3175871765
 20
-107.1798089749
 10
10.3515986701
 20
-107.1604872906
  0
LWPOLYLINE
  5
27E
100
AcDbEntity
  8
ASSI
100
AcDbPolyline
 62
7
  6
CONTINUOUS
 90
70
 70
0
 10
1.50520382
 20
-95.5125146459
 10
1.50825516
 20
-95.7348364857
 10
1.5173270237
 20
-95.9599706958
 10
1.5324194112
 20
-96.187917276
 10
1.5535596251
 20
-96.4189112551
 10
1.5807203628
 20
-96.6527176044
 10
1.6138197161
 20
-96.8886312378
 10
1.6528756119
 20
-97.1266585168
 10
1.6978701232
 20
-97.3667930798
 10
1.7486675609
 20
-97.6083107572
 10
1.8052854423
 20
-97.851215724
 10
1.8677062501
 20
-98.0955038051
 10
1.9357417427
 20
-98.3404383049
 10
2.0094088694
 20
-98.5860211747
 10
2.0886906811
 20
-98.8322504631
 10
2.1733480888
 20
-99.0783836206
 10
2.2633973199
 20
-99.3244203568
 10
2.358822147
 20
-99.570360962
 10
2.4593347992
 20
-99.8154637571
 10
2.5649506349
 20
-100.0597262129
 10
2.6756542956
 20
-100.3031508587
 10
2.791111934
 20
-100.5450036026
 10
2.911337901
 20
-100.7852796995
 10
3.0363178457
 20
-101.0239838945
 10
3.1656748681
 20
-101.2603963313
 10
3.2994221814
 20
-101.4945100917
 10
3.4375465724
 20
-101.7263320938
 10
3.5796315016
 20
-101.9551632359
 10
3.7256889248
 20
-102.1809944893
 10
3.8757068862
 20
-102.4038348826
 10
4.0292329792
 20
-102.6230123997
 10
4.1862777936
 20
-102.8385159833
 10
4.3468307396
 20
-103.0503566907
 10
4.5104076401
 20
-103.2578956772
 10
4.6770176236
 20
-103.4611199572
 10
4.8466515618
 20
-103.6600425164
 10
5.0187978922
 20
-103.8540634672
 10
5.193464199
 20
-104.043168013
 10
5.3706428981
 20
-104.2273709505
 10
5.5497996746
 20
-104.4061167818
 10
5.7309404996
 20
-104.5793890335
 10
5.914059402
 20
-104.7472041789
 10
6.0986041529
 20
-104.9090561408
 10
6.2845790568
 20
-105.0649269179
 10
6.4719798092
 20
-105.2148345114
 10
6.6602412689
 20
-105.3583268474
 10
6.849366034
 20
-105.49538456
 10
7.0393515063
 20
-105.6260270152
 10
7.2296247497
 20
-105.7498602365
 10
7.420186633
 20
-105.8668636688
 10
7.6110362873
 20
-105.9770578673
 10
7.8015981705
 20
-106.0801105212
 10
7.991871414
 20
-106.176000072
 10
8.1818568863
 20
-106.2647480781
 10
8.3709816514
 20
-106.3460869036
 10
8.559243111
 20
-106.4199941823
 10
8.7466438635
 20
-106.4864922804
 10
8.9326187673
 20
-106.5453806606
 10
9.1171635183
 20
-106.5966363514
 10
9.3002824207
 20
-106.6402823243
 10
9.4814232457
 20
-106.6761869569
 10
9.6605800221
 20
-106.7043268804
 10
9.8377587212
 20
-106.7247254635
 10
10.0124250281
 20
-106.7373211906
 10
10.1845713585
 20
-106.7420905071
 10
10.3542052966
 20
-106.7390569677
 10
10.5208152802
 20
-106.7282297205
 10
10.6843921807
 20
-106.7095852385
 10
10.8449451266
 20
-106.6831470487
 10
10.9977037829
 20
-106.6499269811
  0
LWPOLYLINE
  5
27F
100
AcDbEntity
  8
ASSI
100
AcDbPolyline
 62
7
  6
CONTINUOUS
 90
18
 70
0
 10
-7.8639610307
 20
-151.137185869
 10
-7.862533061
 20
-151.0697695156
 10
-7.8583346199
 20
-151.0044127389
 10
-7.8513657076
 20
-150.9411155388
 10
-7.8415980279
 20
-150.8797440604
 10
-7.8290598769
 20
-150.8204321587
 10
-7.8138361429
 20
-150.7635813984
 10
-7.7959086021
 20
-150.7092084801
 10
-7.7752954782
 20
-150.6572967033
 10
-7.7521363301
 20
-150.608197531
 10
-7.7264138813
 20
-150.5619300487
 10
-7.6981454083
 20
-150.5184751709
 10
-7.6675222997
 20
-150.4781271041
 10
-7.6345285777
 20
-150.4409069302
 10
-7.5991802201
 20
-150.4067935674
 10
-7.5617165492
 20
-150.3760179764
 10
-7.522123211
 20
-150.3486028064
 10
-7.5015579303
 20
-150.336161107
  0
LWPOLYLINE
  5
280
100
AcDbEntity
  8
ASSI
100
AcDbPolyline
 62
7
  6
CONTINUOUS
 90
18
 70
0
 10
-5.3890872965
 20
-152.5661469457
 10
-5.3905152663
 20
-152.6335632991
 10
-5.3947137073
 20
-152.6989200759
 10
-5.4016826196
 20
-152.762217276
 10
-5.4114502993
 20
-152.8235887543
 10
-5.4239884503
 20
-152.8829006561
 10
-5.4392121844
 20
-152.9397514163
 10
-5.4571397251
 20
-152.9941243346
 10
-5.477752849
 20
-153.0460361114
 10
-5.5009119971
 20
-153.0951352837
 10
-5.5266344459
 20
-153.141402766
 10
-5.5549029189
 20
-153.1848576439
 10
-5.5855260275
 20
-153.2252057107
 10
-5.6185197495
 20
-153.2624258845
 10
-5.6538681071
 20
-153.2965392473
 10
-5.691331778
 20
-153.3273148383
 10
-5.7309251162
 20
-153.3547300083
 10
-5.7514903969
 20
-153.3671717077
  0
LWPOLYLINE
  5
281
100
AcDbEntity
  8
RACCORDO
100
AcDbPolyline
 62
253
  6
CONTINUOUS
 90
6
 70
0
 10
-37.3708362194
 20
-36.1230808659
 10
-37.2886073656
 20
-36.006105971
 10
-37.2234689916
 20
-35.8693526079
 10
-37.1763019493
 20
-35.7146700009
 10
-37.1477441447
 20
-35.5441500542
 10
-37.1381817718
 20
-35.3600987496
  0
LWPOLYLINE
  5
282
100
AcDbEntity
  8
RACCORDO
100
AcDbPolyline
 62
253
  6
CONTINUOUS
 90
3
 70
0
 10
-39.0116746968
 20
-33.972191133
 10
-38.9670241296
 20
-33.92235248
 10
-38.9571332208
 20
-33.9152830084
  0
LINE
  5
283
100
AcDbEntity
  8
ASSI
100
AcDbLine
 62
7
  6
CONTINUOUS
 10
-56.5653176762
 20
99.9008215633
 11
-58.9311075204
 21
104.1356402993
  0
LINE
  5
284
100
AcDbEntity
  8
ASSI
100
AcDbLine
 62
7
  6
CONTINUOUS
 10
-55.1511041138
 20
99.0842723766
 11
-57.516893958
 21
103.3190911126
  0
LWPOLYLINE
  5
285
100
AcDbEntity
  8
ASSI
100
AcDbPolyline
 62
7
  6
CONTINUOUS
 90
22
 70
0
 10
-58.9311075204
 20
104.1356402993
 10
-59.0949558898
 20
104.4398455749
 10
-59.2511690606
 20
104.7520724904
 10
-59.3997470329
 20
105.0723210457
 10
-59.5407520317
 20
105.4007482146
 10
-59.674121832
 20
105.7371970233
 10
-59.7996697584
 20
106.0811965505
 10
-59.9173848577
 20
106.4327573698
 10
-60.0272780833
 20
106.7918689077
 10
-60.1291956194
 20
107.1580285222
 10
-60.2231262975
 20
107.531246083
 10
-60.3090812862
 20
107.9115117205
 10
-60.3869402759
 20
108.2982931837
 10
-60.4566919295
 20
108.691599597
 10
-60.518347584
 20
109.091421836
 10
-60.5718209412
 20
109.4972002769
 10
-60.6171005432
 20
109.9089432602
 10
-60.6541978478
 20
110.3266424453
 10
-60.6830609307
 20
110.7497131863
 10
-60.7036724836
 20
111.1779606012
 10
-60.7160498149
 20
111.6115795719
 10
-60.7201929244
 20
112.0505700985
  0
LWPOLYLINE
  5
286
100
AcDbEntity
  8
ASSI
100
AcDbPolyline
 62
7
  6
CONTINUOUS
 90
22
 70
0
 10
-57.516893958
 20
103.3190911126
 10
-57.6807423274
 20
103.6232963883
 10
-57.8369554982
 20
103.9355233037
 10
-57.9855334705
 20
104.255771859
 10
-58.1265384693
 20
104.5841990279
 10
-58.2599082696
 20
104.9206478366
 10
-58.385456196
 20
105.2646473639
 10
-58.5031712954
 20
105.6162081832
 10
-58.6130645209
 20
105.975319721
 10
-58.714982057
 20
106.3414793356
 10
-58.8089127351
 20
106.7146968964
 10
-58.8948677238
 20
107.0949625338
 10
-58.9727267135
 20
107.481743997
 10
-59.0424783671
 20
107.8750504103
 10
-59.1041340216
 20
108.2748726494
 10
-59.1576073789
 20
108.6806510902
 10
-59.2028869808
 20
109.0923940735
 10
-59.2399842854
 20
109.5100932587
 10
-59.2688473683
 20
109.9331639997
 10
-59.2894589213
 20
110.3614114145
 10
-59.3018362525
 20
110.7950303853
 10
-59.305979362
 20
111.2340209118
  0
LWPOLYLINE
  5
287
100
AcDbEntity
  8
ASSI
100
AcDbPolyline
 62
7
  6
CONTINUOUS
 90
19
 70
0
 10
-56.5653176762
 20
99.9008215633
 10
-56.4129380446
 20
99.6161591221
 10
-56.2689075684
 20
99.3228460721
 10
-56.1332262475
 20
99.0208824135
 10
-56.0058184972
 20
98.7100653308
 10
-55.8867599021
 20
98.3905976394
 10
-55.7762772167
 20
98.0630877849
 10
-55.6743867847
 20
97.7275204408
 10
-55.5810722624
 20
97.3839109336
 10
-55.4965113728
 20
97.0329136885
 10
-55.4207207986
 20
96.6745146262
 10
-55.3536838571
 20
96.308727826
 10
-55.2955282245
 20
95.9362499511
 10
-55.2462708263
 20
95.55706825
 10
-55.2058947369
 20
95.1711954741
 10
-55.174476855
 20
94.7793665418
 10
-55.1520428135
 20
94.3818264256
 10
-55.1385669795
 20
93.978330153
 10
-55.134049353
 20
93.5688777239
  0
LWPOLYLINE
  5
288
100
AcDbEntity
  8
ASSI
100
AcDbPolyline
 62
7
  6
CONTINUOUS
 90
19
 70
0
 10
-55.1511041138
 20
99.0842723766
 10
-54.9987244823
 20
98.7996099354
 10
-54.8546940061
 20
98.5062968855
 10
-54.7190126852
 20
98.2043332268
 10
-54.5916049348
 20
97.8935161441
 10
-54.4725463398
 20
97.5740484527
 10
-54.3620636544
 20
97.2465385982
 10
-54.2601732224
 20
96.9109712541
 10
-54.1668587
 20
96.5673617469
 10
-54.0822978105
 20
96.2163645018
 10
-54.0065072362
 20
95.8579654395
 10
-53.9394702948
 20
95.4921786393
 10
-53.8813146621
 20
95.1197007645
 10
-53.8320572639
 20
94.7405190633
 10
-53.7916811745
 20
94.3546462874
 10
-53.7602632927
 20
93.9628173551
 10
-53.7378292512
 20
93.565277239
 10
-53.7243534171
 20
93.1617809664
 10
-53.7198357906
 20
92.7523285373
  0
LWPOLYLINE
  5
289
100
AcDbEntity
  8
ASSI
100
AcDbPolyline
 62
7
  6
CONTINUOUS
 90
76
 70
0
 10
12.1118055378
 20
-103.2697319191
 10
12.1087541979
 20
-103.0474100792
 10
12.0996823341
 20
-102.8222758692
 10
12.0845899467
 20
-102.594329289
 10
12.0634497327
 20
-102.3633353099
 10
12.036288995
 20
-102.1295289606
 10
12.0031896418
 20
-101.8936153271
 10
11.964133746
 20
-101.6555880482
 10
11.9191392347
 20
-101.4154534851
 10
11.868341797
 20
-101.1739358078
 10
11.8117239156
 20
-100.9310308409
 10
11.7493031078
 20
-100.6867427598
 10
11.6812676152
 20
-100.4418082601
 10
11.6076004884
 20
-100.1962253903
 10
11.5283186768
 20
-99.9499961018
 10
11.4436612691
 20
-99.7038629444
 10
11.353612038
 20
-99.4578262082
 10
11.2581872108
 20
-99.211885603
 10
11.1576745587
 20
-98.9667828079
 10
11.052058723
 20
-98.722520352
 10
10.9413550623
 20
-98.4790957063
 10
10.8258974239
 20
-98.2372429624
 10
10.7056714569
 20
-97.9969668655
 10
10.5806915122
 20
-97.7582626705
 10
10.4513344898
 20
-97.5218502337
 10
10.3175871765
 20
-97.2877364733
 10
10.1794627855
 20
-97.0559144711
 10
10.0373778563
 20
-96.8270833291
 10
9.8913204331
 20
-96.6012520757
 10
9.7413024716
 20
-96.3784116824
 10
9.5877763787
 20
-96.1592341653
 10
9.4307315643
 20
-95.9437305817
 10
9.2701786183
 20
-95.7318898743
 10
9.1066017178
 20
-95.5243508878
 10
8.9399917342
 20
-95.3211266078
 10
8.7703577961
 20
-95.1222040486
 10
8.5982114657
 20
-94.9281830978
 10
8.4235451589
 20
-94.7390785519
 10
8.2463664597
 20
-94.5548756145
 10
8.0672096833
 20
-94.3761297832
 10
7.8860688583
 20
-94.2028575315
 10
7.7029499559
 20
-94.0350423861
 10
7.518405205
 20
-93.8731904242
 10
7.3324303011
 20
-93.7173196471
 10
7.1450295487
 20
-93.5674120536
 10
6.956768089
 20
-93.4239197176
 10
6.7676433239
 20
-93.286862005
 10
6.5776578516
 20
-93.1562195498
 10
6.3873846082
 20
-93.0323863285
 10
6.1968227249
 20
-92.9153828961
 10
6.0059730706
 20
-92.8051886976
 10
5.8154111874
 20
-92.7021360438
 10
5.6251379439
 20
-92.606246493
 10
5.4351524716
 20
-92.5174984869
 10
5.2460277065
 20
-92.4361596614
 10
5.0577662468
 20
-92.3622523827
 10
4.8703654944
 20
-92.2957542846
 10
4.6843905906
 20
-92.2368659044
 10
4.4998458396
 20
-92.1856102136
 10
4.3167269372
 20
-92.1419642407
 10
4.1355861122
 20
-92.106059608
 10
3.9564293358
 20
-92.0779196846
 10
3.7792506367
 20
-92.0575211015
 10
3.6045843298
 20
-92.0449253744
 10
3.4324379994
 20
-92.0401560578
 10
3.2628040613
 20
-92.0431895973
 10
3.0961940777
 20
-92.0540168445
 10
2.9326171772
 20
-92.0726613265
 10
2.7720642312
 20
-92.0990995163
 10
2.6150194168
 20
-92.1332516847
 10
2.4614933239
 20
-92.1751411179
 10
2.3114753625
 20
-92.2247445297
 10
2.1654179393
 20
-92.2819123318
 10
2.02333301
 20
-92.3466673591
 10
1.885208619
 20
-92.4189867767
 10
1.8511971254
 20
-92.438308461
  0
LINE
  5
28A
100
AcDbEntity
  8
ASSI
100
AcDbLine
 62
7
  6
CONTINUOUS
 10
5.5003571337
 20
130.7056470715
 11
5.5003571337
 21
129.072706518
  0
LWPOLYLINE
  5
28B
100
AcDbEntity
  8
0
100
AcDbPolyline
 62
7
  6
CONTINUOUS
 90
17
 70
0
 10
-8.040737726
 20
-151.0351172207
 10
-8.0138042484
 20
-150.7334951241
 10
-7.9340297034
 20
-150.4744638243
 10
-7.8044526786
 20
-150.267889743
 10
-7.6265241636
 20
-150.1196156016
 10
-7.4132449677
 20
-150.0404754357
 10
-7.1699998209
 20
-150.0303229712
 10
-6.9060538551
 20
-150.0895449123
 10
-6.6265241636
 20
-150.2187258538
 10
-6.3518353098
 20
-150.4084268545
 10
-6.0876092691
 20
-150.6531004013
 10
-5.8439103294
 20
-150.9434269549
 10
-5.6265241636
 20
-151.2743905357
 10
-5.451334657
 20
-151.6218084296
 10
-5.3209077536
 20
-151.9779815423
 10
-5.2402113736
 20
-152.3293433509
 10
-5.2123106012
 20
-152.6682157368
  0
LWPOLYLINE
  5
28C
100
AcDbEntity
  8
0
100
AcDbPolyline
 62
7
  6
CONTINUOUS
 90
17
 70
0
 10
-5.2123106012
 20
-152.668215594
 10
-5.2392440788
 20
-152.9698376906
 10
-5.3190186238
 20
-153.2288689905
 10
-5.4485956486
 20
-153.4354430718
 10
-5.6265241636
 20
-153.5837172131
 10
-5.8398033595
 20
-153.662857379
 10
-6.0830485063
 20
-153.6730098435
 10
-6.3469944721
 20
-153.6137879024
 10
-6.6265241636
 20
-153.484606961
 10
-6.9012130174
 20
-153.2949059603
 10
-7.1654390581
 20
-153.0502324134
 10
-7.4091379978
 20
-152.7599058598
 10
-7.6265241636
 20
-152.428942279
 10
-7.8017136702
 20
-152.0815243852
 10
-7.9321405736
 20
-151.7253512724
 10
-8.0128369536
 20
-151.3739894639
 10
-8.040737726
 20
-151.035117078
  0
LWPOLYLINE
  5
28D
100
AcDbEntity
  8
0
100
AcDbPolyline
 62
7
  6
CONTINUOUS
 90
7
 70
0
 10
-37.2695043016
 20
-36.1122626343
 10
-37.1487207357
 20
-36.0220141228
 10
-37.0448045092
 20
-35.9024389326
 10
-36.9629896568
 20
-35.7595321024
 10
-36.9050047502
 20
-35.5952826791
 10
-36.8691212177
 20
-35.4077016158
 10
-36.8553390593
 20
-35.1967889123
  0
LWPOLYLINE
  5
28E
100
AcDbEntity
  8
RACCORDO
100
AcDbPolyline
 62
253
  6
CONTINUOUS
 90
3
 70
0
 10
-37.5523470139
 20
-36.2755724719
 10
-37.4690437898
 20
-36.2186956037
 10
-37.3708362194
 20
-36.1230808659
  0
LWPOLYLINE
  5
28F
100
AcDbEntity
  8
RACCORDO
100
AcDbPolyline
 62
7
  6
CONTINUOUS
 90
10
 70
0
 10
-39.5524436545
 20
-32.811526654
 10
-39.662088998
 20
-32.8841948036
 10
-39.7644434472
 20
-32.972034791
 10
-39.8576651344
 20
-33.0747755651
 10
-39.9400136136
 20
-33.1918811107
 10
-40.0099405901
 20
-33.32261136
 10
-40.0662406925
 20
-33.4664596648
 10
-40.1078215606
 20
-33.6230827385
 10
-40.1335415064
 20
-33.7918107984
 10
-40.1423448278
 20
-33.9719652734
  0
LWPOLYLINE
  5
290
100
AcDbEntity
  8
ASSI
100
AcDbPolyline
 62
7
  6
CONTINUOUS
 90
18
 70
0
 10
-13.0834092855
 20
-17.3780922299
 10
-13.1022118279
 20
-17.3894674979
 10
-13.1384114513
 20
-17.4145327962
 10
-13.1726639505
 20
-17.4426704794
 10
-13.2049824488
 20
-17.4738598397
 10
-13.2351481375
 20
-17.5078897129
 10
-13.2631464082
 20
-17.544779374
 10
-13.2889918693
 20
-17.584509548
 10
-13.3125095368
 20
-17.6268112461
 10
-13.333683615
 20
-17.6717019179
 10
-13.3525298997
 20
-17.7191641139
 10
-13.3689207941
 20
-17.7688764963
 10
-13.3828396367
 20
-17.8208543343
 10
-13.394303089
 20
-17.8750823587
 10
-13.403233539
 20
-17.9311934246
 10
-13.409605116
 20
-17.9890651504
 10
-13.4134436907
 20
-18.0488199178
 10
-13.414749263
 20
-18.1104577266
  0
LWPOLYLINE
  5
291
100
AcDbEntity
  8
ASSI
100
AcDbPolyline
 62
7
  6
CONTINUOUS
 90
18
 70
0
 10
-11.4833475407
 20
-20.149301922
 10
-11.4645449983
 20
-20.1379266539
 10
-11.4283453748
 20
-20.1128613556
 10
-11.3940928757
 20
-20.0847236725
 10
-11.3617743774
 20
-20.0535343122
 10
-11.3316086887
 20
-20.0195044389
 10
-11.303610418
 20
-19.9826147778
 10
-11.2777649569
 20
-19.9428846038
 10
-11.2542472894
 20
-19.9005829057
 10
-11.2330732112
 20
-19.8556922339
 10
-11.2142269265
 20
-19.8082300379
 10
-11.1978360321
 20
-19.7585176555
 10
-11.1839171895
 20
-19.7065398176
 10
-11.1724537371
 20
-19.6523117931
 10
-11.1635232871
 20
-19.5962007272
 10
-11.1571517102
 20
-19.5383290014
 10
-11.1533131355
 20
-19.4785742341
 10
-11.1520075632
 20
-19.4169364252
  0
LINE
  5
292
100
AcDbEntity
  8
0
100
AcDbLine
 62
7
  6
CONTINUOUS
 10
-33.4965818487
 20
-26.5217429027
 11
-32.7894750675
 21
-26.1134683094
  0
LINE
  5
293
100
AcDbEntity
  8
0
100
AcDbLine
 62
7
  6
CONTINUOUS
 10
-39.269600942
 20
-32.6482168167
 11
-39.5524436545
 21
-32.811526654
  0
LINE
  5
294
100
AcDbEntity
  8
ASSI
100
AcDbLine
 62
253
  6
CONTINUOUS
 10
-12.2834904291
 20
-17.4572830539
 11
-13.414749263
 21
-18.1104577266
  0
LINE
  5
295
100
AcDbEntity
  8
0
100
AcDbLine
 62
7
  6
CONTINUOUS
 10
-37.2695043014
 20
-36.1122626346
 11
-37.5523470139
 21
-36.2755724719
  0
LWPOLYLINE
  5
296
100
AcDbEntity
  8
ASSI
100
AcDbPolyline
 62
7
  6
CONTINUOUS
 90
22
 70
0
 10
-11.9499907119
 20
72.1035677318
 10
-11.9383163373
 20
72.0546789334
 10
-11.9194700526
 20
71.9854535203
 10
-11.8982959744
 20
71.9161115537
 10
-11.8747783069
 20
71.8466522426
 10
-11.8489328458
 20
71.777076378
 10
-11.8209345751
 20
71.7078550158
 10
-11.7907688864
 20
71.6389905613
 10
-11.7584503881
 20
71.5704806092
 10
-11.724197889
 20
71.5027889986
 10
-11.6879982655
 20
71.4359212826
 10
-11.6498646413
 20
71.369871908
 10
-11.6100551959
 20
71.305088055
 10
-11.5685585576
 20
71.2415783112
 10
-11.5253860981
 20
71.1793340889
 10
-11.4808301119
 20
71.1187768061
 10
-11.4348812107
 20
71.0599179097
 10
-11.3875487827
 20
71.0027459526
 10
-11.339153287
 20
70.9476480115
 10
-11.28968751
 20
70.8946381599
 10
-11.2391586653
 20
70.8437023243
 10
-11.2025525519
 20
70.8090481975
  0
LWPOLYLINE
  5
297
100
AcDbEntity
  8
ASSI
100
AcDbPolyline
 62
7
  6
CONTINUOUS
 90
52
 70
0
 10
18.2989898732
 20
-86.8386128293
 10
18.3007204424
 20
-86.9339084378
 10
18.3058315449
 20
-87.0306628126
 10
18.3143231807
 20
-87.1288759536
 10
18.3262220769
 20
-87.228725071
 10
18.3415015064
 20
-87.3300329546
 10
18.3600812877
 20
-87.4322679741
 10
18.3819787704
 20
-87.5354350033
 10
18.407176605
 20
-87.6395291684
 10
18.4355425615
 20
-87.7440042175
 10
18.4670932944
 20
-87.8488621529
 10
18.5018121492
 20
-87.9541009723
 10
18.5395169329
 20
-88.059168417
 10
18.580223342
 20
-88.1640635863
 10
18.6239156799
 20
-88.2687873809
 10
18.6703646637
 20
-88.3727902449
 10
18.7195847847
 20
-88.4760683885
 10
18.7715615515
 20
-88.5786256016
 10
18.8260222073
 20
-88.6799236976
 10
18.8829798094
 20
-88.7799560576
 10
18.9424213004
 20
-88.8787293005
 10
19.004034751
 20
-88.9757250971
 10
19.0678315788
 20
-89.0709341034
 10
19.1338003662
 20
-89.1643656632
 10
19.2015949307
 20
-89.2555294786
 10
19.2712248702
 20
-89.3444136282
 10
19.3426805868
 20
-89.4310300334
 10
19.4155871045
 20
-89.5149241598
 10
19.4899520499
 20
-89.5960816967
 10
19.5657677964
 20
-89.6745169549
 10
19.6426364879
 20
-89.7498183318
 10
19.7205636596
 20
-89.8219693531
 10
19.7995437763
 20
-89.8909864933
 10
19.8791623764
 20
-89.956507573
 10
19.9594228163
 20
-90.0185142141
 10
20.0403217397
 20
-90.0770247947
 10
20.1214346156
 20
-90.1317322707
 10
20.2027625687
 20
-90.1826166497
 10
20.2843044743
 20
-90.2296979241
 10
20.3656324274
 20
-90.2727290268
 10
20.4467453033
 20
-90.3116886666
 10
20.5276442266
 20
-90.3465981349
 10
20.6079046666
 20
-90.3772742381
 10
20.6875232667
 20
-90.403694722
 10
20.7665033834
 20
-90.425881841
 10
20.8444305551
 20
-90.4437191642
 10
20.9212992466
 20
-90.4571838254
 10
20.9971149931
 20
-90.4662986909
 10
21.0714799385
 20
-90.4710159289
 10
21.1443864561
 20
-90.4713124217
 10
21.2158421727
 20
-90.4672112869
 10
21.2334830151
 20
-90.4650635661
  0
LWPOLYLINE
  5
298
100
AcDbEntity
  8
ASSI
100
AcDbPolyline
 62
7
  6
CONTINUOUS
 90
34
 70
0
 10
19.7132034356
 20
-86.0220636426
 10
19.7149340048
 20
-86.1173592511
 10
19.7200451073
 20
-86.2141136259
 10
19.7285367431
 20
-86.3123267669
 10
19.7404356393
 20
-86.4121758843
 10
19.7557150687
 20
-86.513483768
 10
19.7742948501
 20
-86.6157187875
 10
19.7961923328
 20
-86.7188858167
 10
19.8213901674
 20
-86.8229799818
 10
19.8497561239
 20
-86.9274550309
 10
19.8813068568
 20
-87.0323129663
 10
19.9160257116
 20
-87.1375517856
 10
19.9537304952
 20
-87.2426192304
 10
19.9944369044
 20
-87.3475143996
 10
20.0381292423
 20
-87.4522381942
 10
20.0845782261
 20
-87.5562410583
 10
20.1337983471
 20
-87.6595192019
 10
20.1857751139
 20
-87.7620764149
 10
20.2402357696
 20
-87.8633745109
 10
20.2971933717
 20
-87.9634068709
 10
20.3566348628
 20
-88.0621801139
 10
20.4182483133
 20
-88.1591759104
 10
20.4820451412
 20
-88.2543849167
 10
20.5480139286
 20
-88.3478164765
 10
20.6158084931
 20
-88.4389802919
 10
20.6854384326
 20
-88.5278644416
 10
20.7568941492
 20
-88.6144808468
 10
20.8298006669
 20
-88.6983749732
 10
20.9041656123
 20
-88.7795325101
 10
20.9799813588
 20
-88.8579677682
 10
21.0568500502
 20
-88.9332691451
 10
21.1347772219
 20
-89.0054201665
 10
21.2137573387
 20
-89.0744373066
 10
21.2334830151
 20
-89.0906702926
  0
LWPOLYLINE
  5
299
100
AcDbEntity
  8
0
100
AcDbPolyline
 62
7
  6
CONTINUOUS
 90
24
 70
0
 10
22.6476965775
 20
-190.0651819696
 10
22.6498721581
 20
-190.2066859283
 10
22.6563281663
 20
-190.3451989489
 10
22.6670646022
 20
-190.4807210315
 10
22.6821049575
 20
-190.6134098728
 10
22.7014257404
 20
-190.7431077759
 10
22.7249564761
 20
-190.8693416512
 10
22.7527125393
 20
-190.9920988477
 10
22.7846785553
 20
-191.1113920163
 10
22.8207379236
 20
-191.2267860197
 10
22.8609055937
 20
-191.3382666179
 10
22.9051666162
 20
-191.445848051
 10
22.9533595433
 20
-191.5491379017
 10
23.0054987348
 20
-191.6481204969
 10
23.0615698308
 20
-191.7428115098
 10
23.121368305
 20
-191.8328655426
 10
23.1849077699
 20
-191.9182656608
 10
23.2521746128
 20
-191.9990287989
 10
23.3229234694
 20
-192.074860363
 10
23.397167056
 20
-192.1457423425
 10
23.4748926563
 20
-192.211692748
 10
23.555816756
 20
-192.2724710169
 10
23.6399510362
 20
-192.32805826
 10
23.683116723
 20
-192.353854082
  0
LINE
  5
29A
100
AcDbEntity
  8
ASSI
100
AcDbLine
 62
7
  6
CONTINUOUS
 10
15.6473394438
 20
67.9569140191
 11
15.6473394438
 21
116.9682328343
  0
LINE
  5
29B
100
AcDbEntity
  8
ASSI
100
AcDbLine
 62
7
  6
CONTINUOUS
 10
17.0615530061
 20
67.1403648324
 11
17.0615530061
 21
116.1516836476
  0
LINE
  5
29C
100
AcDbEntity
  8
0
100
AcDbLine
 62
7
  6
CONTINUOUS
 10
21.2334830151
 20
-189.2486327829
 11
21.2334830151
 21
49.4752216445
  0
LINE
  5
29D
100
AcDbEntity
  8
0
100
AcDbLine
 62
7
  6
CONTINUOUS
 10
22.6476965775
 20
-190.0651819696
 11
22.6476965775
 21
48.6586724579
  0
LINE
  5
29E
100
AcDbEntity
  8
0
100
AcDbLine
 62
7
  6
CONTINUOUS
 10
-33.4965818487
 20
-42.8511484386
 11
-32.7894750675
 21
-42.4428738452
  0
LINE
  5
29F
100
AcDbEntity
  8
RACCORDO
100
AcDbLine
 62
253
  6
CONTINUOUS
 10
-38.2105896393
 20
-35.2072031047
 11
-38.2536497137
 21
-35.2219910547
  0
LWPOLYLINE
  5
2A0
100
AcDbEntity
  8
ASSI
100
AcDbPolyline
 62
7
  6
CONTINUOUS
 90
7
 70
0
 10
19.7714877726
 20
-85.5111596986
 10
19.7557150687
 20
-85.5797348857
 10
19.7404356393
 20
-85.6633984671
 10
19.7285367431
 20
-85.7495070375
 10
19.7200451073
 20
-85.8379142504
 10
19.7149340048
 20
-85.9287664521
 10
19.7132034356
 20
-86.0220636426
  0
LWPOLYLINE
  5
2A1
100
AcDbEntity
  8
RACCORDO
100
AcDbPolyline
 62
7
  6
CONTINUOUS
 90
20
 70
0
 10
-38.2179345143
 20
-136.0631058625
 10
-38.2182117176
 20
-136.0635733438
 10
-38.2146299655
 20
-136.0551892018
 10
-38.2078408227
 20
-136.0318207869
 10
-38.2013465767
 20
-135.99358409
 10
-38.1979112936
 20
-135.9408809046
 10
-38.1997935692
 20
-135.8749851733
 10
-38.2087050262
 20
-135.7973731618
 10
-38.226112879
 20
-135.7089270477
 10
-38.2529226637
 20
-135.6121053665
 10
-38.2892389728
 20
-135.5102263502
 10
-38.3350396723
 20
-135.4055004797
 10
-38.3897165406
 20
-135.300725388
 10
-38.4513878915
 20
-135.1999550518
 10
-38.5185317389
 20
-135.105449383
 10
-38.5893282706
 20
-135.0192930444
 10
-38.6604773353
 20
-134.9444817191
 10
-38.7292369959
 20
-134.8822967753
 10
-38.7938680618
 20
-134.8325619621
 10
-38.8524098303
 20
-134.7950007459
  0
LWPOLYLINE
  5
2A2
100
AcDbEntity
  8
RACCORDO
100
AcDbPolyline
 62
7
  6
CONTINUOUS
 90
6
 70
0
 10
-38.8524098303
 20
66.8731576219
 10
-38.8934498724
 20
66.8948432955
 10
-38.9276387037
 20
66.9094849076
 10
-38.9537540199
 20
66.9180342095
 10
-38.9708149483
 20
66.921881228
 10
-38.9757907752
 20
66.9225980011
  0
LWPOLYLINE
  5
2A3
100
AcDbEntity
  8
RACCORDO
100
AcDbPolyline
 62
253
  6
CONTINUOUS
 90
25
 70
0
 10
-38.9766594029
 20
64.9433299913
 10
-39.1044635584
 20
65.0278125334
 10
-39.2261307355
 20
65.125980447
 10
-39.3416609344
 20
65.2378337322
 10
-39.4528126314
 20
65.3657323337
 10
-39.5578273502
 20
65.5073163068
 10
-39.6514296609
 20
65.655505817
 10
-39.7330306634
 20
65.8106338056
 10
-39.8032192579
 20
65.9723673314
 10
-39.8584867151
 20
66.1326277357
 10
-39.8980738917
 20
66.2913384497
 10
-39.922739931
 20
66.4485760424
 10
-39.9312535341
 20
66.5964915617
 10
-39.9227947098
 20
66.7346118212
 10
-39.8981834493
 20
66.8634100074
 10
-39.8586484272
 20
66.976456728
 10
-39.8034322518
 20
67.0729522886
 10
-39.7332923147
 20
67.1536963837
 10
-39.6517294653
 20
67.2146587051
 10
-39.5581630055
 20
67.2548348917
 10
-39.4531736334
 20
67.2752293045
 10
-39.3420042928
 20
67.2748247182
 10
-39.2264026314
 20
67.2532820575
 10
-39.1046210014
 20
67.2109403977
 10
-38.9766594029
 20
67.1477997386
  0
LWPOLYLINE
  5
2A4
100
AcDbEntity
  8
RACCORDO
100
AcDbPolyline
 62
253
  6
CONTINUOUS
 90
25
 70
0
 10
-38.9766594029
 20
67.1477997386
 10
-38.8488552474
 20
67.0633171966
 10
-38.7271880702
 20
66.9651492829
 10
-38.6116578714
 20
66.8532959977
 10
-38.5005061743
 20
66.7253973962
 10
-38.3954914556
 20
66.5838134231
 10
-38.3018891449
 20
66.4356239129
 10
-38.2202881424
 20
66.2804959243
 10
-38.1500995479
 20
66.1187623986
 10
-38.0948320907
 20
65.9585019942
 10
-38.0552449141
 20
65.7997912802
 10
-38.0305788748
 20
65.6425536876
 10
-38.0220652717
 20
65.4946381682
 10
-38.030524096
 20
65.3565179087
 10
-38.0551353564
 20
65.2277197226
 10
-38.0946703786
 20
65.1146730019
 10
-38.149886554
 20
65.0181774413
 10
-38.2200264911
 20
64.9374333462
 10
-38.3015893404
 20
64.8764710248
 10
-38.3951558002
 20
64.8362948382
 10
-38.5001451723
 20
64.8159004254
 10
-38.611314513
 20
64.8163050117
 10
-38.7269161744
 20
64.8378476724
 10
-38.8486978043
 20
64.8801893322
 10
-38.9766594029
 20
64.9433299913
  0
LWPOLYLINE
  5
2A5
100
AcDbEntity
  8
RACCORDO
100
AcDbPolyline
 62
253
  6
CONTINUOUS
 90
15
 70
0
 10
-38.5523953342
 20
65.6781769134
 10
-38.6314368741
 20
65.7306539716
 10
-38.7087127711
 20
65.7956377194
 10
-38.7824968103
 20
65.8716765344
 10
-38.851140779
 20
65.9570718438
 10
-38.9131112806
 20
66.0499160604
 10
-38.9670239892
 20
66.1481351935
 10
-39.011674582
 20
66.249535191
 10
-39.0460656362
 20
66.3518509445
 10
-39.0694289081
 20
66.4527968811
 10
-39.0812425005
 20
66.5501180321
 10
-39.0812425178
 20
66.6416404056
 10
-39.0694289594
 20
66.7253195424
 10
-39.0460657203
 20
66.799286189
 10
-39.0116746968
 20
66.8618880509
  0
LWPOLYLINE
  5
2A6
100
AcDbEntity
  8
RACCORDO
100
AcDbPolyline
 62
253
  6
CONTINUOUS
 90
6
 70
0
 10
-37.3708362194
 20
-136.9571600498
 10
-37.2886073656
 20
-136.8401851549
 10
-37.2234689916
 20
-136.7034317918
 10
-37.1763019493
 20
-136.5487491848
 10
-37.1477441447
 20
-136.3782292381
 10
-37.1381817718
 20
-136.1941779335
  0
LINE
  5
2A7
100
AcDbEntity
  8
0
100
AcDbLine
 62
7
  6
CONTINUOUS
 10
-32.7894750675
 20
74.7206108745
 11
-33.4965818487
 21
75.1288854679
  0
LINE
  5
2A8
100
AcDbEntity
  8
ASSI
100
AcDbLine
 62
253
  6
CONTINUOUS
 10
-55.134049353
 20
93.5688777239
 11
-53.7198357906
 21
92.7523285373
  0
LINE
  5
2A9
100
AcDbEntity
  8
ASSI
100
AcDbLine
 62
253
  6
CONTINUOUS
 10
22.6476965775
 20
48.6586724579
 11
21.2334830151
 21
49.4752216445
  0
LINE
  5
2AA
100
AcDbEntity
  8
ASSI
100
AcDbLine
 62
7
  6
CONTINUOUS
 10
19.802214692
 20
55.8071654839
 11
17.4364248477
 21
60.0419842199
  0
LINE
  5
2AB
100
AcDbEntity
  8
ASSI
100
AcDbLine
 62
7
  6
CONTINUOUS
 10
21.2164282544
 20
54.9906162972
 11
18.8506384101
 21
59.2254350332
  0
LWPOLYLINE
  5
2AC
100
AcDbEntity
  8
ASSI
100
AcDbPolyline
 62
7
  6
CONTINUOUS
 90
22
 70
0
 10
17.4364248477
 20
60.0419842199
 10
17.2725764784
 20
60.3461894955
 10
17.1163633076
 20
60.658416411
 10
16.9677853353
 20
60.9786649663
 10
16.8267803365
 20
61.3070921352
 10
16.6934105362
 20
61.6435409439
 10
16.5678626098
 20
61.9875404711
 10
16.4501475104
 20
62.3391012904
 10
16.3402542849
 20
62.6982128283
 10
16.2383367488
 20
63.0643724428
 10
16.1444060707
 20
63.4375900036
 10
16.0584510819
 20
63.8178556411
 10
15.9805920922
 20
64.2046371043
 10
15.9108404387
 20
64.5979435176
 10
15.8491847841
 20
64.9977657566
 10
15.7957114269
 20
65.4035441975
 10
15.750431825
 20
65.8152871808
 10
15.7133345204
 20
66.2329863659
 10
15.6844714375
 20
66.6560571069
 10
15.6638598845
 20
67.0843045218
 10
15.6514825533
 20
67.5179234925
 10
15.6473394438
 20
67.9569140191
  0
LWPOLYLINE
  5
2AD
100
AcDbEntity
  8
ASSI
100
AcDbPolyline
 62
7
  6
CONTINUOUS
 90
22
 70
0
 10
18.8506384101
 20
59.2254350332
 10
18.6867900407
 20
59.5296403089
 10
18.5305768699
 20
59.8418672243
 10
18.3819988977
 20
60.1621157796
 10
18.2409938988
 20
60.4905429485
 10
18.1076240986
 20
60.8269917572
 10
17.9820761721
 20
61.1709912845
 10
17.8643610728
 20
61.5225521038
 10
17.7544678473
 20
61.8816636417
 10
17.6525503111
 20
62.2478232562
 10
17.558619633
 20
62.621040817
 10
17.4726646443
 20
63.0013064544
 10
17.3948056546
 20
63.3880879177
 10
17.325054001
 20
63.7813943309
 10
17.2633983465
 20
64.18121657
 10
17.2099249893
 20
64.5869950108
 10
17.1646453873
 20
64.9987379941
 10
17.1275480827
 20
65.4164371793
 10
17.0986849999
 20
65.8395079203
 10
17.0780734469
 20
66.2677553351
 10
17.0656961156
 20
66.7013743059
 10
17.0615530061
 20
67.1403648324
  0
LWPOLYLINE
  5
2AE
100
AcDbEntity
  8
ASSI
100
AcDbPolyline
 62
7
  6
CONTINUOUS
 90
19
 70
0
 10
19.802214692
 20
55.8071654839
 10
19.9545943235
 20
55.5225030427
 10
20.0986247997
 20
55.2291899927
 10
20.2343061206
 20
54.9272263341
 10
20.361713871
 20
54.6164092514
 10
20.480772466
 20
54.29694156
 10
20.5912551514
 20
53.9694317055
 10
20.6931455834
 20
53.6338643614
 10
20.7864601058
 20
53.2902548542
 10
20.8710209953
 20
52.9392576091
 10
20.9468115696
 20
52.5808585468
 10
21.013848511
 20
52.2150717466
 10
21.0720041437
 20
51.8425938717
 10
21.1212615418
 20
51.4634121706
 10
21.1616376312
 20
51.0775393947
 10
21.1930555131
 20
50.6857104624
 10
21.2154895546
 20
50.2881703462
 10
21.2289653886
 20
49.8846740736
 10
21.2334830151
 20
49.4752216445
  0
LWPOLYLINE
  5
2AF
100
AcDbEntity
  8
ASSI
100
AcDbPolyline
 62
7
  6
CONTINUOUS
 90
19
 70
0
 10
21.2164282544
 20
54.9906162972
 10
21.3688078859
 20
54.705953856
 10
21.5128383621
 20
54.4126408061
 10
21.648519683
 20
54.1106771474
 10
21.7759274333
 20
53.7998600647
 10
21.8949860284
 20
53.4803923733
 10
22.0054687138
 20
53.1528825188
 10
22.1073591458
 20
52.8173151747
 10
22.2006736682
 20
52.4737056675
 10
22.2852345577
 20
52.1227084224
 10
22.361025132
 20
51.7643093601
 10
22.4280620734
 20
51.3985225599
 10
22.4862177061
 20
51.0260446851
 10
22.5354751042
 20
50.6468629839
 10
22.5758511936
 20
50.260990208
 10
22.6072690755
 20
49.8691612757
 10
22.629703117
 20
49.4716211596
 10
22.643178951
 20
49.068124887
 10
22.6476965775
 20
48.6586724579
  0
LINE
  5
2B0
100
AcDbEntity
  8
0
100
AcDbLine
 62
253
  6
CONTINUOUS
 10
59.8415132679
 20
140.852296544
 11
59.8415132679
 21
-172.6722897445
  0
LINE
  5
2B1
100
AcDbEntity
  8
0
100
AcDbLine
 62
7
  6
CONTINUOUS
 10
60.7201929244
 20
142.0771203239
 11
60.7201929244
 21
-171.4474659645
  0
LWPOLYLINE
  5
2B2
100
AcDbEntity
  8
RACCORDO
100
AcDbPolyline
 62
253
  6
CONTINUOUS
 90
3
 70
0
 10
-39.0116746968
 20
-134.8062703169
 10
-38.9670241296
 20
-134.7564316639
 10
-38.9571332208
 20
-134.7493621923
  0
LWPOLYLINE
  5
2B3
100
AcDbEntity
  8
ASSI
100
AcDbPolyline
 62
7
  6
CONTINUOUS
 90
21
 70
0
 10
2.619305575
 20
-92.1323195839
 10
2.5649506349
 20
-92.1890721371
 10
2.4593347992
 20
-92.3113720732
 10
2.358822147
 20
-92.4404053771
 10
2.2633973199
 20
-92.5761517838
 10
2.1733480888
 20
-92.7182019251
 10
2.0886906811
 20
-92.8665748301
 10
2.0094088694
 20
-93.0212514697
 10
1.9357417427
 20
-93.1817653881
 10
1.8677062501
 20
-93.3481342063
 10
1.8052854423
 20
-93.5203403033
 10
1.7486675609
 20
-93.6978643599
 10
1.6978701232
 20
-93.8807224295
 10
1.6528756119
 20
-94.0688984587
 10
1.6138197161
 20
-94.2618249681
 10
1.5807203628
 20
-94.4595162981
 10
1.5535596251
 20
-94.6619581083
 10
1.5324194112
 20
-94.8685398982
 10
1.5173270237
 20
-95.0790581677
 10
1.50825516
 20
-95.2937164169
 10
1.50520382
 20
-95.5125146459
  0
LINE
  5
2B4
100
AcDbEntity
  8
0
100
AcDbLine
 62
7
  6
CONTINUOUS
 10
-16.5260191002
 20
-83.0605735536
 11
-33.4965818487
 21
-92.8591637935
  0
LINE
  5
2B5
100
AcDbEntity
  8
0
100
AcDbLine
 62
7
  6
CONTINUOUS
 10
-16.5260191002
 20
-83.8769649206
 11
-15.1118055378
 21
-83.0604157339
  0
LWPOLYLINE
  5
2B6
100
AcDbEntity
  8
0
100
AcDbPolyline
 62
7
  6
CONTINUOUS
 90
31
 70
0
 10
-16.5260191002
 20
-83.0605735536
 10
-16.487854268
 20
-83.0396817875
 10
-16.4480797765
 20
-83.0200676221
 10
-16.4066956257
 20
-83.0017310576
 10
-16.3635787841
 20
-82.9846285727
 10
-16.3188522831
 20
-82.9688036885
 10
-16.2728852177
 20
-82.9543869688
 10
-16.2256687338
 20
-82.9413905082
 10
-16.1772116854
 20
-82.929802212
 10
-16.127909729
 20
-82.91971636
 10
-16.0777559809
 20
-82.9111451365
 10
-16.0267573247
 20
-82.9040763572
 10
-15.9753300684
 20
-82.8985677492
 10
-15.9234695649
 20
-82.8946320818
 10
-15.8711804612
 20
-82.8922565857
 10
-15.8188930067
 20
-82.89146068
 10
-15.7666091859
 20
-82.8922572436
 10
-15.7143270142
 20
-82.8946333975
 10
-15.662470787
 20
-82.898569924
 10
-15.6110414106
 20
-82.9040799021
 10
-15.5600379787
 20
-82.9111502528
 10
-15.5098820682
 20
-82.919722521
 10
-15.4605832668
 20
-82.9298085521
 10
-15.4121319866
 20
-82.9413965007
 10
-15.3649210413
 20
-82.9543923757
 10
-15.318958498
 20
-82.9688082743
 10
-15.2742362895
 20
-82.9846320993
 10
-15.2311230281
 20
-83.001733568
 10
-15.1897415843
 20
-83.0200692528
 10
-15.1499690876
 20
-83.0396825814
 10
-15.1118055378
 20
-83.0605735536
  0
LWPOLYLINE
  5
2B7
100
AcDbEntity
  8
RACCORDO
100
AcDbPolyline
 62
253
  6
CONTINUOUS
 90
5
 70
0
 10
-38.2536497137
 20
65.6120881292
 10
-38.322293689
 20
65.6059611139
 10
-38.3960777617
 20
65.6151262315
 10
-38.4733537159
 20
65.639378751
 10
-38.5523953342
 20
65.6781769134
  0
LINE
  5
2B8
100
AcDbEntity
  8
ASSI
100
AcDbLine
 62
253
  6
CONTINUOUS
 10
-56.5653176762
 20
99.9008215633
 11
-55.1511041138
 21
99.0842723766
  0
LINE
  5
2B9
100
AcDbEntity
  8
ASSI
100
AcDbLine
 62
253
  6
CONTINUOUS
 10
21.2164282544
 20
54.9906162972
 11
19.802214692
 21
55.8071654839
  0
LINE
  5
2BA
100
AcDbEntity
  8
ASSI
100
AcDbLine
 62
253
  6
CONTINUOUS
 10
-58.9311075204
 20
104.1356402993
 11
-57.516893958
 21
103.3190911126
  0
LINE
  5
2BB
100
AcDbEntity
  8
ASSI
100
AcDbLine
 62
253
  6
CONTINUOUS
 10
18.8506384101
 20
59.2254350332
 11
17.4364248477
 21
60.0419842199
  0
LINE
  5
2BC
100
AcDbEntity
  8
ASSI
100
AcDbLine
 62
253
  6
CONTINUOUS
 10
-60.7201929244
 20
112.0505700985
 11
-59.305979362
 21
111.2340209118
  0
LINE
  5
2BD
100
AcDbEntity
  8
ASSI
100
AcDbLine
 62
253
  6
CONTINUOUS
 10
17.0615530061
 20
67.1403648324
 11
15.6473394438
 21
67.9569140191
  0
LWPOLYLINE
  5
2BE
100
AcDbEntity
  8
ASSI
100
AcDbPolyline
 62
7
  6
CONTINUOUS
 90
26
 70
0
 10
1.8511971254
 20
-92.438308461
 10
1.7514613057
 20
-92.4986524922
 10
1.6221042833
 20
-92.585686682
 10
1.4971243386
 20
-92.6800671696
 10
1.3768983716
 20
-92.7815093334
 10
1.2614407332
 20
-92.8900344905
 10
1.1507370725
 20
-93.0056213238
 10
1.0451212368
 20
-93.1279212599
 10
0.9446085847
 20
-93.2569545638
 10
0.8491837575
 20
-93.3927009704
 10
0.7591345264
 20
-93.5347511117
 10
0.6744771187
 20
-93.6831240168
 10
0.5951953071
 20
-93.8378006564
 10
0.5215281803
 20
-93.9983145748
 10
0.4534926877
 20
-94.164683393
 10
0.3910718799
 20
-94.33688949
 10
0.3344539985
 20
-94.5144135465
 10
0.2836565609
 20
-94.6972716161
 10
0.2386620495
 20
-94.8854476453
 10
0.1996061537
 20
-95.0783741548
 10
0.1665068005
 20
-95.2760654848
 10
0.1393460628
 20
-95.478507295
 10
0.1182058488
 20
-95.6850890849
 10
0.1031134614
 20
-95.8956073544
 10
0.0940415976
 20
-96.1102656036
 10
0.0909902577
 20
-96.3290638325
  0
LWPOLYLINE
  5
2BF
100
AcDbEntity
  8
0
100
AcDbPolyline
 62
7
  6
CONTINUOUS
 90
7
 70
0
 10
-37.2695043016
 20
-136.9463418182
 10
-37.1487207357
 20
-136.8560933067
 10
-37.0448045092
 20
-136.7365181166
 10
-36.9629896568
 20
-136.5936112863
 10
-36.9050047502
 20
-136.429361863
 10
-36.8691212177
 20
-136.2417807997
 10
-36.8553390593
 20
-136.0308680962
  0
LWPOLYLINE
  5
2C0
100
AcDbEntity
  8
RACCORDO
100
AcDbPolyline
 62
253
  6
CONTINUOUS
 90
3
 70
0
 10
-37.5523470139
 20
-137.1096516558
 10
-37.4690437898
 20
-137.0527747877
 10
-37.3708362194
 20
-136.9571600498
  0
LWPOLYLINE
  5
2C1
100
AcDbEntity
  8
RACCORDO
100
AcDbPolyline
 62
7
  6
CONTINUOUS
 90
10
 70
0
 10
-39.5524436545
 20
-133.6456058379
 10
-39.662088998
 20
-133.7182739876
 10
-39.7644434472
 20
-133.8061139749
 10
-39.8576651344
 20
-133.908854749
 10
-39.9400136136
 20
-134.0259602946
 10
-40.0099405901
 20
-134.1566905439
 10
-40.0662406925
 20
-134.3005388487
 10
-40.1078215606
 20
-134.4571619224
 10
-40.1335415064
 20
-134.6258899823
 10
-40.1423448278
 20
-134.8060444573
  0
LWPOLYLINE
  5
2C2
100
AcDbEntity
  8
ASSI
100
AcDbPolyline
 62
7
  6
CONTINUOUS
 90
20
 70
0
 10
18.8684715903
 20
-85.5798442723
 10
18.8260222073
 20
-85.6059056898
 10
18.7715615515
 20
-85.6443139857
 10
18.7195847847
 20
-85.6868497312
 10
18.6703646637
 20
-85.7332897129
 10
18.6239156799
 20
-85.7836544547
 10
18.580223342
 20
-85.8379234327
 10
18.5395169329
 20
-85.895811861
 10
18.5018121492
 20
-85.9573387667
 10
18.4670932944
 20
-86.0224851228
 10
18.4355425615
 20
-86.0909090627
 10
18.407176605
 20
-86.1626278162
 10
18.3819787704
 20
-86.2376241535
 10
18.3600812877
 20
-86.3155045186
 10
18.3415015064
 20
-86.3962840723
 10
18.3262220769
 20
-86.4799476538
 10
18.3143231807
 20
-86.5660562241
 10
18.3058315449
 20
-86.654463437
 10
18.3007204424
 20
-86.7453156387
 10
18.2989898732
 20
-86.8386128293
  0
LWPOLYLINE
  5
2C3
100
AcDbEntity
  8
ASSI
100
AcDbPolyline
 62
7
  6
CONTINUOUS
 90
18
 70
0
 10
-13.0834092855
 20
-107.1898226771
 10
-13.1022118279
 20
-107.2011979451
 10
-13.1384114513
 20
-107.2262632434
 10
-13.1726639505
 20
-107.2544009266
 10
-13.2049824488
 20
-107.2855902869
 10
-13.2351481375
 20
-107.3196201601
 10
-13.2631464082
 20
-107.3565098212
 10
-13.2889918693
 20
-107.3962399952
 10
-13.3125095368
 20
-107.4385416933
 10
-13.333683615
 20
-107.4834323651
 10
-13.3525298997
 20
-107.5308945611
 10
-13.3689207941
 20
-107.5806069435
 10
-13.3828396367
 20
-107.6325847815
 10
-13.394303089
 20
-107.6868128059
 10
-13.403233539
 20
-107.7429238718
 10
-13.409605116
 20
-107.8007955977
 10
-13.4134436907
 20
-107.860550365
 10
-13.414749263
 20
-107.9221881738
  0
LWPOLYLINE
  5
2C4
100
AcDbEntity
  8
ASSI
100
AcDbPolyline
 62
7
  6
CONTINUOUS
 90
18
 70
0
 10
-11.4833475407
 20
-109.9610323692
 10
-11.4645449983
 20
-109.9496571011
 10
-11.4283453748
 20
-109.9245918029
 10
-11.3940928757
 20
-109.8964541197
 10
-11.3617743774
 20
-109.8652647594
 10
-11.3316086887
 20
-109.8312348861
 10
-11.303610418
 20
-109.7943452251
 10
-11.2777649569
 20
-109.754615051
 10
-11.2542472894
 20
-109.7123133529
 10
-11.2330732112
 20
-109.6674226811
 10
-11.2142269265
 20
-109.6199604852
 10
-11.1978360321
 20
-109.5702481028
 10
-11.1839171895
 20
-109.5182702648
 10
-11.1724537371
 20
-109.4640422403
 10
-11.1635232871
 20
-109.4079311744
 10
-11.1571517102
 20
-109.3500594486
 10
-11.1533131355
 20
-109.2903046813
 10
-11.1520075632
 20
-109.2286668724
  0
LINE
  5
2C5
100
AcDbEntity
  8
ASSI
100
AcDbLine
 62
253
  6
CONTINUOUS
 10
1.50520382
 20
-95.5125146459
 11
0.0909902577
 21
-96.3290638325
  0
LINE
  5
2C6
100
AcDbEntity
  8
ASSI
100
AcDbLine
 62
253
  6
CONTINUOUS
 10
19.7132034356
 20
-86.0220636426
 11
18.2989898732
 21
-86.8386128293
  0
LINE
  5
2C7
100
AcDbEntity
  8
ASSI
100
AcDbLine
 62
253
  6
CONTINUOUS
 10
-12.2834904291
 20
-107.2690135011
 11
-13.414749263
 21
-107.9221881738
  0
LINE
  5
2C8
100
AcDbEntity
  8
0
100
AcDbLine
 62
253
  6
CONTINUOUS
 10
-33.4965818487
 20
-128.5806064117
 11
-34.9107954111
 21
-129.3971555983
  0
LINE
  5
2C9
100
AcDbEntity
  8
0
100
AcDbLine
 62
7
  6
CONTINUOUS
 10
-39.269600942
 20
-133.4822960006
 11
-39.5524436545
 21
-133.6456058379
  0
LINE
  5
2CA
100
AcDbEntity
  8
0
100
AcDbLine
 62
253
  6
CONTINUOUS
 10
-32.7894750675
 20
-129.8053512818
 11
-34.2036886299
 21
-130.6219004684
  0
LWPOLYLINE
  5
2CB
100
AcDbEntity
  8
ASSI
100
AcDbPolyline
 62
7
  6
CONTINUOUS
 90
26
 70
0
 10
10.3515986701
 20
-107.1604872906
 10
10.4513344898
 20
-107.1001432594
 10
10.5806915122
 20
-107.0131090697
 10
10.7056714569
 20
-106.918728582
 10
10.8258974239
 20
-106.8172864183
 10
10.9413550623
 20
-106.7087612611
 10
11.052058723
 20
-106.5931744279
 10
11.1576745587
 20
-106.4708744918
 10
11.2581872108
 20
-106.3418411879
 10
11.353612038
 20
-106.2060947812
 10
11.4436612691
 20
-106.0640446399
 10
11.5283186768
 20
-105.9156717349
 10
11.6076004884
 20
-105.7609950952
 10
11.6812676152
 20
-105.6004811768
 10
11.7493031078
 20
-105.4341123586
 10
11.8117239156
 20
-105.2619062617
 10
11.868341797
 20
-105.0843822051
 10
11.9191392347
 20
-104.9015241355
 10
11.964133746
 20
-104.7133481063
 10
12.0031896418
 20
-104.5204215969
 10
12.036288995
 20
-104.3227302669
 10
12.0634497327
 20
-104.1202884567
 10
12.0845899467
 20
-103.9137066667
 10
12.0996823341
 20
-103.7031883973
 10
12.1087541979
 20
-103.488530148
 10
12.1118055378
 20
-103.2697319191
  0
LINE
  5
2CC
100
AcDbEntity
  8
0
100
AcDbLine
 62
7
  6
CONTINUOUS
 10
-37.2695043014
 20
-136.9463418185
 11
-37.5523470139
 21
-137.1096516558
  0
LINE
  5
2CD
100
AcDbEntity
  8
0
100
AcDbLine
 62
7
  6
CONTINUOUS
 10
-17.2331258814
 20
-128.1705168915
 11
-26.0733614839
 21
-133.2747581342
  0
LINE
  5
2CE
100
AcDbEntity
  8
0
100
AcDbLine
 62
7
  6
CONTINUOUS
 10
-50.1843018847
 20
-148.0125043075
 11
-44.1031835665
 21
-144.5013428049
  0
LINE
  5
2CF
100
AcDbEntity
  8
ASSI
100
AcDbLine
 62
253
  6
CONTINUOUS
 10
-60.7201929244
 20
161.0618889137
 11
-59.305979362
 21
160.245339727
  0
LINE
  5
2D0
100
AcDbEntity
  8
ASSI
100
AcDbLine
 62
253
  6
CONTINUOUS
 10
17.0615530061
 20
116.1516836476
 11
15.6473394438
 21
116.9682328343
  0
LINE
  5
2D1
100
AcDbEntity
  8
RACCORDO
100
AcDbLine
 62
253
  6
CONTINUOUS
 10
-38.2105896393
 20
-136.0412822887
 11
-38.2536497137
 21
-136.0560702386
  0
LWPOLYLINE
  5
2D2
100
AcDbEntity
  8
ASSI
100
AcDbPolyline
 62
7
  6
CONTINUOUS
 90
58
 70
0
 10
5.5003571337
 20
129.072706518
 10
5.7619344351
 20
128.971783685
 10
6.024865337
 20
128.864397512
 10
6.2889825336
 20
128.7506083038
 10
6.554286775
 20
128.6304500983
 10
6.8204364783
 20
128.5040227046
 10
7.0867514255
 20
128.3715224698
 10
7.3530579427
 20
128.2330803534
 10
7.6191906657
 20
128.0887979667
 10
7.8844897488
 20
127.9388858096
 10
8.1485901015
 20
127.7836264377
 10
8.4115349206
 20
127.6230518672
 10
8.6732776191
 20
127.4570049945
 10
8.9337861778
 20
127.2855483212
 10
9.1927616839
 20
127.1089054597
 10
9.4497540828
 20
126.927152166
 10
9.7046604064
 20
126.7404170118
 10
9.957264246
 20
126.5488974343
 10
10.2069564712
 20
126.3527953979
 10
10.4535226963
 20
126.1523585981
 10
10.6968873907
 20
125.9477165053
 10
10.9366605265
 20
125.7389102378
 10
11.1726742472
 20
125.5261646508
 10
11.4048225408
 20
125.3096465701
 10
11.6328078492
 20
125.0893090429
 10
11.8566034411
 20
124.8652395416
 10
12.075966056
 20
124.6377444476
 10
12.2902854449
 20
124.4071137662
 10
12.4994643969
 20
124.1735323929
 10
12.7033780954
 20
123.9372413403
 10
12.9014105251
 20
123.6986350047
 10
13.0933917265
 20
123.4580316318
 10
13.279336026
 20
123.2155585501
 10
13.4589300805
 20
122.9713318448
 10
13.6319885788
 20
122.725736541
 10
13.7985767964
 20
122.4788234107
 10
13.9587379537
 20
122.2301982196
 10
14.1125297143
 20
121.9798310429
 10
14.2597290422
 20
121.7281651002
 10
14.3999489063
 20
121.4755105347
 10
14.5331266564
 20
121.222050337
 10
14.6592193422
 20
120.9680141345
 10
14.7779054184
 20
120.7137803623
 10
14.8890812138
 20
120.4596978923
 10
14.9928122137
 20
120.2058138885
 10
15.0890411615
 20
119.9520506093
 10
15.1777206696
 20
119.6986624973
 10
15.2588578699
 20
119.4457761759
 10
15.3324456467
 20
119.1931260548
 10
15.3984956226
 20
118.940673036
 10
15.456917595
 20
118.6888413544
 10
15.5075511391
 20
118.4380581957
 10
15.5503700709
 20
118.1884817881
 10
15.5853936221
 20
117.9403110963
 10
15.6125753184
 20
117.6940144364
 10
15.6319288592
 20
117.4498491435
 10
15.6435049469
 20
117.2078716156
 10
15.6473394438
 20
116.9682328343
  0
LWPOLYLINE
  5
2D3
100
AcDbEntity
  8
ASSI
100
AcDbPolyline
 62
7
  6
CONTINUOUS
 90
28
 70
0
 10
5.5003571337
 20
129.072706518
 10
2.9430999196
 20
130.1132812791
 10
0.4107074673
 20
131.1728641664
 10
-2.0968202233
 20
132.2514551796
 10
-4.5799108586
 20
133.349248631
 10
-7.0381367321
 20
134.4660502084
 10
-9.4702147246
 20
135.6012769754
 10
-11.8761311854
 20
136.754938551
 10
-14.2558997651
 20
137.927025316
 10
-16.608278297
 20
139.1169254769
 10
-18.9332524818
 20
140.3246483334
 10
-21.2308366187
 20
141.5501845857
 10
-23.4998314385
 20
142.7928945411
 10
-25.740222016
 20
144.0527871654
 10
-27.9520232766
 20
145.3298534928
 10
-30.134080727
 20
146.6234269336
 10
-32.2863788393
 20
147.9335161054
 10
-34.4089331416
 20
149.2601123905
 10
-36.500635725
 20
150.602523346
 10
-38.5614704829
 20
151.9607572281
 10
-40.5914535219
 20
153.3348057806
 10
-42.5895252526
 20
154.7239517918
 10
-44.5556690152
 20
156.1282031436
 10
-46.4899014694
 20
157.5475519541
 10
-48.3912130046
 20
158.9812573665
 10
-50.259267084
 20
160.4290724283
 10
-52.0944002445
 20
161.891244092
 10
-53.8966124859
 20
163.3677723575
  0
LWPOLYLINE
  5
2D4
100
AcDbEntity
  8
ASSI
100
AcDbPolyline
 62
7
  6
CONTINUOUS
 90
58
 70
0
 10
5.5003571337
 20
130.7056470715
 10
5.8010630327
 20
130.5815067298
 10
6.1031762913
 20
130.4496168348
 10
6.4064991846
 20
130.3100486559
 10
6.7110202355
 20
130.1628352812
 10
7.0163481185
 20
130.0081018052
 10
7.3217160302
 20
129.8461016905
 10
7.6269168008
 20
129.676988599
 10
7.9317569185
 20
129.5008837251
 10
8.2354994131
 20
129.3180605805
 10
8.5377191026
 20
129.1288567258
 10
8.838460749
 20
128.9333063672
 10
9.1376932762
 20
128.7312376833
 10
9.4353726557
 20
128.522720967
 10
9.7311518146
 20
128.3080240601
 10
10.0245414137
 20
128.0872610565
 10
10.3154164428
 20
127.8605819874
 10
10.603524467
 20
127.6282221051
 10
10.8881981102
 20
127.3904504105
 10
11.1691862319
 20
127.147560919
 10
11.4463973443
 20
126.8997053571
 10
11.7194163377
 20
126.6469587818
 10
11.9880457136
 20
126.3895874378
 10
12.2521593078
 20
126.1277879763
 10
12.5114486613
 20
125.8615298512
 10
12.7658772933
 20
125.5909136158
 10
13.0151626034
 20
125.3163041803
 10
13.2586412563
 20
125.0380776906
 10
13.496198479
 20
124.7564527244
 10
13.7276866484
 20
124.4717140501
 10
13.9524352764
 20
124.1843609891
 10
14.1702488752
 20
123.8947727529
 10
14.3811390027
 20
123.6030967179
 10
14.5847767555
 20
123.3094939859
 10
14.7809493431
 20
123.0144231745
 10
14.9697276953
 20
122.7179406992
 10
15.1511856604
 20
122.4195937932
 10
15.3253850496
 20
122.1193434324
 10
15.4920686114
 20
121.8177170803
 10
15.6508207243
 20
121.5151053927
 10
15.8015698058
 20
121.2117260502
 10
15.9442626379
 20
120.9078490116
 10
16.0785536159
 20
120.6039413822
 10
16.2043259034
 20
120.3004187475
 10
16.3216512082
 20
119.9973335643
 10
16.4304792134
 20
119.6946039743
 10
16.5307554391
 20
119.392531562
 10
16.6224867904
 20
119.0912650935
 10
16.7056776377
 20
118.7904980684
 10
16.7803402708
 20
118.490183445
 10
16.8463695328
 20
118.1908234268
 10
16.9035929486
 20
117.8929327533
 10
16.9519835406
 20
117.5967007121
 10
16.9915600702
 20
117.3023601527
 10
17.022272831
 20
117.0104675523
 10
17.0441397527
 20
116.7213280386
 10
17.0572190168
 20
116.4350072594
 10
17.0615530061
 20
116.1516836476
  0
LINE
  5
2D5
100
AcDbEntity
  8
0
100
AcDbLine
 62
7
  6
CONTINUOUS
 10
-0.2578163671
 20
131.4604238223
 11
12.635349595
 21
124.0160713851
  0
LWPOLYLINE
  5
2D6
100
AcDbEntity
  8
ASSI
100
AcDbPolyline
 62
7
  6
CONTINUOUS
 90
51
 70
0
 10
-7.5015579303
 20
-150.336161107
 10
-7.4804145595
 20
-150.3245254083
 10
-7.4368729786
 20
-150.3039487954
 10
-7.3914860305
 20
-150.286896723
 10
-7.3442661529
 20
-150.273345436
 10
-7.295533043
 20
-150.2633866817
 10
-7.2452764323
 20
-150.257044838
 10
-7.1935065892
 20
-150.2542955271
 10
-7.1405740158
 20
-150.255157363
 10
-7.0864708222
 20
-150.2596548496
 10
-7.0312048983
 20
-150.267763483
 10
-6.9751504161
 20
-150.2794283644
 10
-6.9183020246
 20
-150.2946736256
 10
-6.8606650747
 20
-150.3134751348
 10
-6.8026297912
 20
-150.3357055985
 10
-6.7441934711
 20
-150.3613882846
 10
-6.6853588174
 20
-150.3904999251
 10
-6.6265241636
 20
-150.422843423
 10
-6.5676895099
 20
-150.4584407085
 10
-6.5088548561
 20
-150.4972698514
 10
-6.450418536
 20
-150.539067963
 10
-6.3923832525
 20
-150.58385519
 10
-6.3347463026
 20
-150.6316113858
 10
-6.2778979111
 20
-150.6820132222
 10
-6.2218434289
 20
-150.7350786518
 10
-6.166577505
 20
-150.790789722
 10
-6.1124743114
 20
-150.8487692472
 10
-6.059541738
 20
-150.9090326203
 10
-6.0077718949
 20
-150.9715644483
 10
-5.9575152842
 20
-151.0359413663
 10
-5.9087821743
 20
-151.1021758944
 10
-5.8615622967
 20
-151.1702555125
 10
-5.8161753486
 20
-151.2397192948
 10
-5.7726337677
 20
-151.310576634
 10
-5.7309251162
 20
-151.3828181374
 10
-5.691331778
 20
-151.4559547019
 10
-5.6538681071
 20
-151.529992401
 10
-5.6185197495
 20
-151.6049251611
 10
-5.5855260275
 20
-151.6802456581
 10
-5.5549029189
 20
-151.7559565231
 10
-5.5266344459
 20
-151.832055125
 10
-5.5009119971
 20
-151.9080262465
 10
-5.477752849
 20
-151.9838690225
 10
-5.4571397251
 20
-152.059584318
 10
-5.4392121844
 20
-152.134659511
 10
-5.4239884503
 20
-152.2090902578
 10
-5.4114502993
 20
-152.282880902
 10
-5.4016826196
 20
-152.3555318521
 10
-5.3947137073
 20
-152.4268765774
 10
-5.3905152663
 20
-152.4970816086
 10
-5.3890872965
 20
-152.5661469457
  0
LWPOLYLINE
  5
2D7
100
AcDbEntity
  8
ASSI
100
AcDbPolyline
 62
7
  6
CONTINUOUS
 90
51
 70
0
 10
-5.7514903969
 20
-153.3671717077
 10
-5.7726337677
 20
-153.3788074065
 10
-5.8161753486
 20
-153.3993840194
 10
-5.8615622967
 20
-153.4164360917
 10
-5.9087821743
 20
-153.4299873788
 10
-5.9575152842
 20
-153.4399461331
 10
-6.0077718949
 20
-153.4462879767
 10
-6.059541738
 20
-153.4490372876
 10
-6.1124743114
 20
-153.4481754518
 10
-6.166577505
 20
-153.4436779651
 10
-6.2218434289
 20
-153.4355693317
 10
-6.2778979111
 20
-153.4239044503
 10
-6.3347463026
 20
-153.4086591892
 10
-6.3923832525
 20
-153.3898576799
 10
-6.450418536
 20
-153.3676272162
 10
-6.5088548561
 20
-153.3419445302
 10
-6.5676895099
 20
-153.3128328896
 10
-6.6265241636
 20
-153.2804893918
 10
-6.6853588174
 20
-153.2448921062
 10
-6.7441934711
 20
-153.2060629633
 10
-6.8026297912
 20
-153.1642648517
 10
-6.8606650747
 20
-153.1194776247
 10
-6.9183020246
 20
-153.071721429
 10
-6.9751504161
 20
-153.0213195926
 10
-7.0312048983
 20
-152.968254163
 10
-7.0864708222
 20
-152.9125430927
 10
-7.1405740158
 20
-152.8545635676
 10
-7.1935065892
 20
-152.7943001944
 10
-7.2452764323
 20
-152.7317683664
 10
-7.295533043
 20
-152.6673914485
 10
-7.3442661529
 20
-152.6011569204
 10
-7.3914860305
 20
-152.5330773023
 10
-7.4368729786
 20
-152.4636135199
 10
-7.4804145595
 20
-152.3927561808
 10
-7.522123211
 20
-152.3205146773
 10
-7.5617165492
 20
-152.2473781129
 10
-7.5991802201
 20
-152.1733404138
 10
-7.6345285777
 20
-152.0984076537
 10
-7.6675222997
 20
-152.0230871566
 10
-7.6981454083
 20
-151.9473762917
 10
-7.7264138813
 20
-151.8712776898
 10
-7.7521363301
 20
-151.7953065683
 10
-7.7752954782
 20
-151.7194637923
 10
-7.7959086021
 20
-151.6437484967
 10
-7.8138361429
 20
-151.5686733037
 10
-7.8290598769
 20
-151.4942425569
 10
-7.8415980279
 20
-151.4204519127
 10
-7.8513657076
 20
-151.3478009627
 10
-7.8583346199
 20
-151.2764562373
 10
-7.862533061
 20
-151.2062512061
 10
-7.8639610307
 20
-151.137185869
  0
LWPOLYLINE
  5
2D8
100
AcDbEntity
  8
ASSI
100
AcDbPolyline
 62
7
  6
CONTINUOUS
 90
28
 70
0
 10
5.5003571337
 20
130.7056470715
 10
2.9430999196
 20
131.7462218327
 10
0.4107074673
 20
132.8058047199
 10
-2.0968202233
 20
133.8843957332
 10
-4.5799108586
 20
134.9821891846
 10
-7.0381367321
 20
136.098990762
 10
-9.4702147246
 20
137.234217529
 10
-11.8761311854
 20
138.3878791045
 10
-14.2558997651
 20
139.5599658696
 10
-16.608278297
 20
140.7498660305
 10
-18.9332524818
 20
141.957588887
 10
-21.2308366187
 20
143.1831251392
 10
-23.4998314385
 20
144.4258350947
 10
-25.740222016
 20
145.685727719
 10
-27.9520232766
 20
146.9627940464
 10
-30.134080727
 20
148.2563674872
 10
-32.2863788393
 20
149.566456659
 10
-34.4089331416
 20
150.8930529441
 10
-36.500635725
 20
152.2354638996
 10
-38.5614704829
 20
153.5936977817
 10
-40.5914535219
 20
154.9677463342
 10
-42.5895252526
 20
156.3568923454
 10
-44.5556690152
 20
157.7611436972
 10
-46.4899014694
 20
159.1804925077
 10
-48.3912130046
 20
160.6141979201
 10
-50.259267084
 20
162.0620129819
 10
-52.0944002445
 20
163.5241846456
 10
-54.104572938
 20
165.1702688901
  0
LINE
  5
2D9
100
AcDbEntity
  8
0
100
AcDbLine
 62
253
  6
CONTINUOUS
 10
21.2334830151
 20
-162.3040089107
 11
20.9506403027
 21
-162.467318748
  0
LINE
  5
2DA
100
AcDbEntity
  8
0
100
AcDbLine
 62
253
  6
CONTINUOUS
 10
-8.7478445072
 20
191.069045695
 11
50.6491251125
 21
156.7739798555
  0
LINE
  5
2DB
100
AcDbEntity
  8
0
100
AcDbLine
 62
7
  6
CONTINUOUS
 10
-7.2477720267
 20
191.2176692281
 11
52.1491975929
 21
156.9226033886
  0
LINE
  5
2DC
100
AcDbEntity
  8
0
100
AcDbLine
 62
253
  6
CONTINUOUS
 10
52.1491251125
 20
156.9226452338
 11
52.1491975929
 21
156.9226033886
  0
LWPOLYLINE
  5
2DD
100
AcDbEntity
  8
0
100
AcDbPolyline
 62
253
  6
CONTINUOUS
 90
55
 70
0
 10
50.6491251125
 20
156.7739798555
 10
50.9164831366
 20
156.6151203833
 10
51.1836149491
 20
156.4474147223
 10
51.4502945298
 20
156.2710047682
 10
51.7162962412
 20
156.0860397815
 10
51.9813950193
 20
155.8926762611
 10
52.2453665641
 20
155.6910778116
 10
52.5079875292
 20
155.4814150057
 10
52.7690357112
 20
155.2638652388
 10
53.0282902371
 20
155.03861258
 10
53.2855317518
 20
154.8058476153
 10
53.5405426033
 20
154.5657672872
 10
53.7931070269
 20
154.3185747277
 10
54.043011328
 20
154.0644790862
 10
54.2900440624
 20
153.8036953532
 10
54.533996216
 20
153.5364441776
 10
54.7746613807
 20
153.2629516806
 10
55.0118359299
 20
152.9834492642
 10
55.2453191902
 20
152.6981734154
 10
55.4749136115
 20
152.4073655059
 10
55.7004249338
 20
152.1112715884
 10
55.9216623523
 20
151.8101421878
 10
56.1384386778
 20
151.5042320896
 10
56.350570496
 20
151.1938001244
 10
56.5578783222
 20
150.8791089486
 10
56.7601867534
 20
150.5604248223
 10
56.9573246162
 20
150.2380173842
 10
57.1491251125
 20
149.912159423
 10
57.3354259599
 20
149.5831266472
 10
57.5160695292
 20
149.2511974514
 10
57.690902978
 20
148.9166526807
 10
57.8597783796
 20
148.5797753935
 10
58.0225528488
 20
148.2408506216
 10
58.1790886619
 20
147.9001651291
 10
58.3292533741
 20
147.5580071701
 10
58.4729199311
 20
147.2146662443
 10
58.6099667766
 20
146.8704328523
 10
58.7402779552
 20
146.5255982501
 10
58.8637432107
 20
146.1804542021
 10
58.9802580792
 20
145.8352927347
 10
59.0897239775
 20
145.4904058888
 10
59.1920482865
 20
145.1460854733
 10
59.2871444296
 20
144.8026228175
 10
59.3749319459
 20
144.4603085252
 10
59.4553365585
 20
144.1194322284
 10
59.5282902371
 20
143.7802823425
 10
59.5937312555
 20
143.4431458221
 10
59.6516042442
 20
143.1083079185
 10
59.7018602367
 20
142.7760519378
 10
59.7444567115
 20
142.4466590019
 10
59.7793576277
 20
142.1204078101
 10
59.8065334557
 20
141.7975744034
 10
59.8259612021
 20
141.4784319311
 10
59.8376244289
 20
141.1632504196
 10
59.8415132679
 20
140.852296544
  0
LWPOLYLINE
  5
2DE
100
AcDbEntity
  8
0
100
AcDbPolyline
 62
7
  6
CONTINUOUS
 90
52
 70
0
 10
52.1491975929
 20
156.9226033886
 10
52.4325960731
 20
156.7539787737
 10
52.7137750183
 20
156.5767205478
 10
52.992615153
 20
156.3910041428
 10
53.2691231876
 20
156.1969111164
 10
53.5430631123
 20
155.9946850354
 10
53.8139492661
 20
155.7847810647
 10
54.0816283396
 20
155.5674294529
 10
54.3460251377
 20
155.3427951997
 10
54.6067640655
 20
155.1113066288
 10
54.8637641488
 20
154.8731509056
 10
55.1168805384
 20
154.6285707231
 10
55.3656436821
 20
154.378145159
 10
55.6097556034
 20
154.1223274071
 10
55.8493201117
 20
153.86115597
 10
56.0844591408
 20
153.5946124729
 10
56.3151135912
 20
153.322854747
 10
56.5411188204
 20
153.0461621358
 10
56.7624135047
 20
152.7646897357
 10
56.9789065559
 20
152.4786228076
 10
57.190461003
 20
152.1882064247
 10
57.3969390011
 20
151.8936923606
 10
57.5981823231
 20
151.5953696832
 10
57.7941313418
 20
151.2933849387
 10
57.9847863402
 20
150.9877760474
 10
58.1700644417
 20
150.6786945054
 10
58.349813076
 20
150.3664070668
 10
58.5239186001
 20
150.0511200174
 10
58.6922377933
 20
149.7330976431
 10
58.8546867135
 20
149.4124960293
 10
59.0112332342
 20
149.0893531846
 10
59.1617850511
 20
148.7638087666
 10
59.306188217
 20
148.4361338412
 10
59.444313266
 20
148.1065546163
 10
59.5760344237
 20
147.7752932335
 10
59.7012394825
 20
147.4425392407
 10
59.8198227878
 20
147.1084595651
 10
59.9316418324
 20
146.773325111
 10
60.0365999832
 20
146.4372728758
 10
60.134647087
 20
146.100252256
 10
60.2257109018
 20
145.7622110348
 10
60.3095753658
 20
145.4236060823
 10
60.3859947918
 20
145.0851286969
 10
60.4548293564
 20
144.7471375815
 10
60.5160071051
 20
144.4096682918
 10
60.5694189013
 20
144.0728989173
 10
60.6149495676
 20
143.7370267291
 10
60.6524827663
 20
143.4022394708
 10
60.6819029087
 20
143.0686721467
 10
60.7030841317
 20
142.7364885717
 10
60.7158926876
 20
142.4059035036
 10
60.7201929244
 20
142.0771203239
  0
LWPOLYLINE
  5
2DF
100
AcDbEntity
  8
0
100
AcDbPolyline
 62
7
  6
CONTINUOUS
 90
19
 70
0
 10
59.8415132679
 20
-172.6722897445
 10
59.9322846589
 20
-172.6175110748
 10
60.018531218
 20
-172.560727701
 10
60.1002529452
 20
-172.5019396231
 10
60.1775880005
 20
-172.4410274543
 10
60.2503982239
 20
-172.3781105813
 10
60.3182691357
 20
-172.3135471651
 10
60.381172565
 20
-172.2473278147
 10
60.4391366826
 20
-172.179461921
 10
60.4918315219
 20
-172.1103358176
 10
60.53922703
 20
-172.0399423171
 10
60.5813532597
 20
-171.9682886069
 10
60.6179704032
 20
-171.8957825831
 10
60.6490470399
 20
-171.8224193848
 10
60.6746145903
 20
-171.7482038729
 10
60.6945275085
 20
-171.673558527
 10
60.7087535438
 20
-171.5984808956
 10
60.717324947
 20
-171.52297343
 10
60.7201929244
 20
-171.4474659645
  0
LINE
  5
2E0
100
AcDbEntity
  8
0
100
AcDbLine
 62
7
  6
CONTINUOUS
 10
59.8415132679
 20
-172.6722897445
 11
26.1832304835
 21
-192.1061603869
  0
ENDSEC
  0
SECTION
  2
OBJECTS
  0
DICTIONARY
  5
C
100
AcDbDictionary
280
0
281
1
  3
ACAD_GROUP
350
D
  3
ACAD_MLINESTYLE
350
17
  3
ACAD_LAYOUT
350
1A
  3
ACAD_PLOTSETTINGS
350
19
  3
ACAD_PLOTSTYLENAME
350
E
  0
DICTIONARY
  5
D
102
{ACAD_REACTORS
330
C
102
}
100
AcDbDictionary
280
0
281
1
  0
ACDBDICTIONARYWDFLT
  5
E
102
{ACAD_REACTORS
330
C
102
}
100
AcDbDictionary
281
1
  3
Normal
350
F
100
AcDbDictionaryWithDefault
340
F
  0
DICTIONARY
  5
17
102
{ACAD_REACTORS
330
C
102
}
100
AcDbDictionary
280
0
281
1
  3
Standard
350
18
  0
DICTIONARY
  5
19
102
{ACAD_REACTORS
330
C
102
}
100
AcDbDictionary
281
1
  0
DICTIONARY
  5
1A
102
{ACAD_REACTORS
330
C
102
}
100
AcDbDictionary
281
1
  3
Model
350
2E1
  3
Layout1
350
2E2
  0
ACDBPLACEHOLDER
  5
F
102
{ACAD_REACTORS
330
E
102
}
  0
MLINESTYLE
  5
18
102
{ACAD_REACTORS
330
17
102
}
100
AcDbMlineStyle
  2
STANDARD
 70
0
  3

 62
256
 51
90.0
 52
90.0
 71
2
 49
0.5
 62
256
  6
BYLAYER
 49
-0.5
 62
256
  6
BYLAYER
  0
LAYOUT
  5
2E1
102
{ACAD_REACTORS
330
1A
102
}
100
AcDbPlotSettings
  1

  2
none_device
  4
ISO_A4_(297.00_x_210.00_MM)
  6

 40
0.0
 41
0.0
 42
0.0
 43
0.0
 44
297.0
 45
210.0
 46
0.0
 47
0.0
 48
0.0
 49
0.0
140
0.0
141
0.0
142
1.0
143
1.0
 70
1024
 72
1
 73
0
 74
0
  7

 75
0
147
1.0
148
0.0
149
0.0
100
AcDbLayout
  1
Model
 70
0
 71
0
 10
0.0
 20
0.0
 11
297.0
 21
210.0
 12
0.0
 22
0.0
 32
0.0
 14
0.0
 24
0.0
 34
0.0
 15
0.0
 25
0.0
 35
0.0
146
0.0
 13
0.0
 23
0.0
 33
0.0
 16
1.0
 26
0.0
 36
0.0
 17
0.0
 27
1.0
 37
0.0
 76
0
330
20F
345
0
346
0
  0
LAYOUT
  5
2E2
102
{ACAD_REACTORS
330
1A
102
}
100
AcDbPlotSettings
  1

  2
none_device
  4
ISO_A4_(297.00_x_210.00_MM)
  6

 40
0.0
 41
0.0
 42
0.0
 43
0.0
 44
297.0
 45
210.0
 46
0.0
 47
0.0
 48
0.0
 49
0.0
140
0.0
141
0.0
142
1.0
143
1.0
 70
0
 72
1
 73
0
 74
0
  7

 75
0
147
1.0
148
0.0
149
0.0
100
AcDbLayout
  1
Layout1
 70
0
 71
1
 10
0.0
 20
0.0
 11
297.0
 21
210.0
 12
0.0
 22
0.0
 32
0.0
 14
0.0
 24
0.0
 34
0.0
 15
0.0
 25
0.0
 35
0.0
146
0.0
 13
0.0
 23
0.0
 33
0.0
 16
1.0
 26
0.0
 36
0.0
 17
0.0
 27
1.0
 37
0.0
 76
0
330
210
345
0
346
0
  0
ENDSEC
  0
EOF
