  0
SECTION
  2
HEADER
  9
$ACADVER
  1
AC1021
  9
$DWGCODEPAGE
  3
ANSI_1252
  9
$EXTMAX
 10
297.0
 20
210.0
 30
0.0
  9
$EXTMIN
 10
0.0
 20
0.0
 30
0.0
  9
$LIMMIN
 10
0.0
 20
0.0
  9
$LIMMAX
 10
297.0
 20
210.0
  9
$VIEWCTR
 10
148.5
 20
105.0
  9
$VIEWSIZE
 40
210.0
  9
$CLAYER
  8
0
  9
$LTSCALE
 40
16.335
  9
$CELTYPE
  6
BYLAYER
  9
$DIMSCALE
 40
1.0
  9
$DIMASZ
 40
3.0
  9
$DIMEXO
 40
0.5
  9
$DIMDLI
 40
11.286
  9
$DIMEXE
 40
1.5
  9
$DIMCEN
 40
2.673
  9
$DIMLFAC
 40
1.0
  9
$DIMBLK
  1
_FILLED
  9
$DIMALT
 70
0
  9
$DIMALTF
 40
0.0393700787
  9
$DIMTXT
 40
3.0
  9
$DIMTOL
 70
1
  9
$DIMLIM
 70
0
  9
$DIMTFAC
 40
1.0
  9
$DIMTP
 40
0.01
  9
$DIMTM
 40
0.01
  9
$DIMGAP
 40
0.625
  9
$DIMDSEP
 70
44
  9
$AUNITS
 70
0
  9
$PDMODE
 70
3
  9
$PDSIZE
 40
3.0
  9
$HANDSEED
  5
33A
  9
$TILEMODE
 70
1
  9
$MEASUREMENT
 70
1
  9
$INSUNITS
 70
4
  0
ENDSEC
  0
SECTION
  2
CLASSES
  0
CLASS
  1
ACDBDICTIONARYWDFLT
  2
AcDbDictionaryWithDefault
  3
AutoCAD 2000
 90
0
 91
1
280
0
281
0
  0
CLASS
  1
ACDBPLACEHOLDER
  2
AcDbPlaceHolder
  3
AutoCAD 2000
 90
0
 91
1
280
0
281
0
  0
CLASS
  1
LAYOUT
  2
AcDbLayout
  3
AutoCAD 2000
 90
0
 91
0
280
0
281
0
  0
ENDSEC
  0
SECTION
  2
TABLES
  0
TABLE
  2
VPORT
  5
8
100
AcDbSymbolTable
 70
2
  0
VPORT
  5
1F4
100
AcDbSymbolTableRecord
100
AcDbViewportTableRecord
  2
*ACTIVE
 70
0
 10
0.0
 20
0.0
 11
1.0
 21
1.0
 12
148.5
 22
105.0
 13
0.0
 23
0.0
 14
1.0
 24
1.0
 15
0.0
 25
0.0
 16
0.0
 26
0.0
 36
1.0
 17
0.0
 27
0.0
 37
0.0
 40
210.0
 41
1.4142857143
 42
50.0
 43
0.0
 44
0.0
 50
0.0
 51
0.0
 71
0
 72
100
 73
1
 74
1
 75
0
 76
0
 77
0
 78
0
  0
ENDTAB
  0
TABLE
  2
LTYPE
  5
5
100
AcDbSymbolTable
 70
6
  0
LTYPE
  5
14
100
AcDbSymbolTableRecord
100
AcDbLinetypeTableRecord
  2
BYBLOCK
 70
0
  3

 72
65
 73
0
 40
0.0
  0
LTYPE
  5
15
100
AcDbSymbolTableRecord
100
AcDbLinetypeTableRecord
  2
BYLAYER
 70
0
  3

 72
65
 73
0
 40
0.0
  0
LTYPE
  5
16
100
AcDbSymbolTableRecord
100
AcDbLinetypeTableRecord
  2
CONTINUOUS
 70
64
  3
Solid line
 72
65
 73
0
 40
0.0
  0
LTYPE
  5
1F5
100
AcDbSymbolTableRecord
100
AcDbLinetypeTableRecord
  2
CENTER
 70
64
  3
____ _ ____ _ ____ _ ____ _ ____ _ ____ _ ____
 72
65
 73
4
 40
0.6
 49
0.375
 74
0
 49
-0.075
 74
0
 49
0.075
 74
0
 49
-0.075
 74
0
  0
LTYPE
  5
1F6
100
AcDbSymbolTableRecord
100
AcDbLinetypeTableRecord
  2
HIDDEN
 70
64
  3
- - - - - - - - - - - - - - - - - - - -
 72
65
 73
2
 40
0.2
 49
0.1
 74
0
 49
-0.1
 74
0
  0
LTYPE
  5
1F7
100
AcDbSymbolTableRecord
100
AcDbLinetypeTableRecord
  2
PHANTOM
 70
64
  3
_____ _ _ _____ _ _ _____ _ _ _____
 72
65
 73
6
 40
0.8
 49
0.45
 74
0
 49
-0.05
 74
0
 49
0.1
 74
0
 49
-0.05
 74
0
 49
0.1
 74
0
 49
-0.05
 74
0
  0
LTYPE
  5
1F8
100
AcDbSymbolTableRecord
100
AcDbLinetypeTableRecord
  2
DOT
 70
64
  3
. . . . . . . . . . . . . . . . . . . .
 72
65
 73
2
 40
0.2
 49
0.1
 74
0
 49
-0.1
 74
0
  0
LTYPE
  5
1F9
100
AcDbSymbolTableRecord
100
AcDbLinetypeTableRecord
  2
DASHED
 70
64
  3
- - - - - - - - - - - - - - - - - - - -
 72
65
 73
2
 40
0.2
 49
0.1
 74
0
 49
-0.1
 74
0
  0
ENDTAB
  0
TABLE
  2
LAYER
  5
2
100
AcDbSymbolTable
 70
36
  0
LAYER
  5
10
100
AcDbSymbolTableRecord
100
AcDbLayerTableRecord
  2
0
 70
0
 62
7
  6
CONTINUOUS
370
-3
390
F
  0
LAYER
  5
1FA
100
AcDbSymbolTableRecord
100
AcDbLayerTableRecord
  2
DEFAULT_1
 70
0
 62
7
  6
CENTER
370
-3
390
F
  0
LAYER
  5
1FB
100
AcDbSymbolTableRecord
100
AcDbLayerTableRecord
  2
DEFAULT_2
 70
0
 62
7
  6
HIDDEN
370
-3
390
F
  0
LAYER
  5
1FC
100
AcDbSymbolTableRecord
100
AcDbLayerTableRecord
  2
DEFAULT_3
 70
0
 62
7
  6
PHANTOM
370
-3
390
F
  0
LAYER
  5
1FD
100
AcDbSymbolTableRecord
100
AcDbLayerTableRecord
  2
ASSI
 70
0
 62
7
  6
CONTINUOUS
370
-3
390
F
  0
LAYER
  5
1FE
100
AcDbSymbolTableRecord
100
AcDbLayerTableRecord
  2
COORDINATE
 70
0
 62
7
  6
CONTINUOUS
370
-3
390
F
  0
LAYER
  5
1FF
100
AcDbSymbolTableRecord
100
AcDbLayerTableRecord
  2
COPY_PUBLISH
 70
0
 62
7
  6
CONTINUOUS
370
-3
390
F
  0
LAYER
  5
200
100
AcDbSymbolTableRecord
100
AcDbLayerTableRecord
  2
COSMETICI
 70
0
 62
7
  6
CONTINUOUS
370
-3
390
F
  0
LAYER
  5
201
100
AcDbSymbolTableRecord
100
AcDbLayerTableRecord
  2
CURVE
 70
0
 62
7
  6
CONTINUOUS
370
-3
390
F
  0
LAYER
  5
202
100
AcDbSymbolTableRecord
100
AcDbLayerTableRecord
  2
DRAFT
 70
0
 62
7
  6
CONTINUOUS
370
-3
390
F
  0
LAYER
  5
203
100
AcDbSymbolTableRecord
100
AcDbLayerTableRecord
  2
IMPORT_IGES
 70
0
 62
7
  6
CONTINUOUS
370
-3
390
F
  0
LAYER
  5
204
100
AcDbSymbolTableRecord
100
AcDbLayerTableRecord
  2
NOTE
 70
0
 62
7
  6
CONTINUOUS
370
-3
390
F
  0
LAYER
  5
205
100
AcDbSymbolTableRecord
100
AcDbLayerTableRecord
  2
PIANI
 70
0
 62
7
  6
CONTINUOUS
370
-3
390
F
  0
LAYER
  5
206
100
AcDbSymbolTableRecord
100
AcDbLayerTableRecord
  2
PUNTI
 70
0
 62
7
  6
CONTINUOUS
370
-3
390
F
  0
LAYER
  5
207
100
AcDbSymbolTableRecord
100
AcDbLayerTableRecord
  2
RACCORDO
 70
0
 62
7
  6
CONTINUOUS
370
-3
390
F
  0
LAYER
  5
208
100
AcDbSymbolTableRecord
100
AcDbLayerTableRecord
  2
SIMBOLI
 70
0
 62
7
  6
CONTINUOUS
370
-3
390
F
  0
LAYER
  5
209
100
AcDbSymbolTableRecord
100
AcDbLayerTableRecord
  2
SMUSSO
 70
0
 62
7
  6
CONTINUOUS
370
-3
390
F
  0
LAYER
  5
20A
100
AcDbSymbolTableRecord
100
AcDbLayerTableRecord
  2
SNAPLINE
 70
0
 62
7
  6
CONTINUOUS
370
-3
390
F
  0
LAYER
  5
20B
100
AcDbSymbolTableRecord
100
AcDbLayerTableRecord
  2
SUPERFICI
 70
0
 62
7
  6
CONTINUOUS
370
-3
390
F
  0
LAYER
  5
20C
100
AcDbSymbolTableRecord
100
AcDbLayerTableRecord
  2
TRASH
 70
0
 62
7
  6
CONTINUOUS
370
-3
390
F
  0
ENDTAB
  0
TABLE
  2
STYLE
  5
3
100
AcDbSymbolTable
 70
1
  0
STYLE
  5
11
100
AcDbSymbolTableRecord
100
AcDbTextStyleTableRecord
  2
STANDARD
 70
0
 40
0.0
 41
0.8
 50
0.0
 71
0
 42
0.2
  3
txt
  4

  0
STYLE
  5
20D
100
AcDbSymbolTableRecord
100
AcDbTextStyleTableRecord
  2
TEXTSTYLE_1
 70
0
 40
0.0
 41
0.8
 50
0.0
 71
0
 42
0.2
  3
gdt
  4

  0
ENDTAB
  0
TABLE
  2
VIEW
  5
6
100
AcDbSymbolTable
 70
0
  0
ENDTAB
  0
TABLE
  2
UCS
  5
7
100
AcDbSymbolTable
 70
0
  0
ENDTAB
  0
TABLE
  2
APPID
  5
9
100
AcDbSymbolTable
 70
1
  0
APPID
  5
20E
100
AcDbSymbolTableRecord
100
AcDbRegAppTableRecord
  2
ACAD
 70
0
  0
ENDTAB
  0
TABLE
  2
BLOCK_RECORD
  5
1
100
AcDbSymbolTable
 70
0
  0
BLOCK_RECORD
  5
20F
100
AcDbSymbolTableRecord
100
AcDbBlockTableRecord
  2
*Model_Space
  0
BLOCK_RECORD
  5
210
100
AcDbSymbolTableRecord
100
AcDbBlockTableRecord
  2
*Paper_Space
  0
ENDTAB
  0
TABLE
  2
DIMSTYLE
  5
A
100
AcDbSymbolTable
 70
1
100
AcDbDimStyleTable
 71
0
  0
DIMSTYLE
105
211
100
AcDbSymbolTableRecord
100
AcDbDimStyleTableRecord
  2
STANDARD
 70
0
  3

  4

 40
1.0
 41
3.0
 42
0.5
 43
0.38
 44
1.5
 45
0.0
 46
0.0
 47
0.01
 48
0.01
140
3.0
141
0.09
142
0.0
143
25.4
144
1.0
145
0.0
146
1.0
147
0.625
 71
1.0
 72
0.0
 73
0
 74
0
 75
0
 76
0
 77
1
 78
8
170
0
171
2
172
0
173
0
174
0
175
0
176
0
177
0
178
0
270
2
271
2
272
2
273
2
274
2
275
0
280
0
281
0
282
0
283
1
284
8
285
0
286
0
287
3
288
0
340
11
278
44
  0
ENDTAB
  0
ENDSEC
  0
SECTION
  2
BLOCKS
  0
BLOCK
  5
20
100
AcDbEntity
  8
0
100
AcDbBlockBegin
  2
*Model_Space
 70
0
 10
0.0
 20
0.0
 30
0.0
  3
*Model_Space
  1

  0
ENDBLK
  5
21
100
AcDbEntity
  8
0
100
AcDbBlockEnd
  0
BLOCK
  5
1C
100
AcDbEntity
  8
0
100
AcDbBlockBegin
  2
*Paper_Space
 70
0
 10
0.0
 20
0.0
 30
0.0
  3
*Paper_Space
  1

  0
ENDBLK
  5
1D
100
AcDbEntity
  8
0
100
AcDbBlockEnd
  0
ENDSEC
  0
SECTION
  2
ENTITIES
  0
LINE
  5
212
100
AcDbEntity
  8
0
100
AcDbLine
 62
7
  6
CONTINUOUS
 10
-129.8479450326
 20
160.1300077934
 11
-85.9588367076
 21
185.4710288805
  0
LINE
  5
213
100
AcDbEntity
  8
ASSI
100
AcDbLine
 62
253
  6
CONTINUOUS
 10
-124.6072906046
 20
158.7586607867
 11
-79.4585226258
 21
184.8269935707
  0
LINE
  5
214
100
AcDbEntity
  8
ASSI
100
AcDbLine
 62
253
  6
CONTINUOUS
 10
-130.0166574807
 20
154.0032876027
 11
-124.6076664754
 21
157.1263712186
  0
LWPOLYLINE
  5
215
100
AcDbEntity
  8
ASSI
100
AcDbPolyline
 62
7
  6
CONTINUOUS
 90
30
 70
0
 10
-129.8479765891
 20
160.1299895731
 10
-129.8127062252
 20
160.149848291
 10
-129.6866536682
 20
160.2130061078
 10
-129.5553847057
 20
160.2669672883
 10
-129.4190462832
 20
160.3116585804
 10
-129.277548165
 20
160.3472514989
 10
-129.1311170676
 20
160.3737388738
 10
-128.9799105079
 20
160.3911233599
 10
-128.823774063
 20
160.3996766977
 10
-128.6629143008
 20
160.3994482993
 10
-128.4975331122
 20
160.3904699628
 10
-128.3274823013
 20
160.3730268402
 10
-128.1529277774
 20
160.3471965768
 10
-127.9741165767
 20
160.3130377301
 10
-127.7910293991
 20
160.270839181
 10
-127.6039278504
 20
160.2207374609
 10
-127.4129702194
 20
160.1628110995
 10
-127.2179795941
 20
160.0972672179
 10
-127.0192038542
 20
160.0242385363
 10
-126.8167951306
 20
159.9438053958
 10
-126.6104163023
 20
159.8560437025
 10
-126.4000550345
 20
159.7609542532
 10
-126.1860974812
 20
159.6586795552
 10
-125.968798952
 20
159.5494990866
 10
-125.748311785
 20
159.4335459221
 10
-125.5248651076
 20
159.3109289399
 10
-125.2988339957
 20
159.1819503286
 10
-125.0704691738
 20
159.0468303859
 10
-124.8398939738
 20
158.9056780178
 10
-124.6072906046
 20
158.7586607867
  0
LINE
  5
216
100
AcDbEntity
  8
0
100
AcDbLine
 62
253
  6
CONTINUOUS
 10
-85.9588367076
 20
185.4710288805
 11
-85.868345481
 21
185.5218423751
  0
LWPOLYLINE
  5
217
100
AcDbEntity
  8
ASSI
100
AcDbPolyline
 62
7
  6
CONTINUOUS
 90
30
 70
0
 10
-128.8479284098
 20
158.3979665828
 10
-128.8209014286
 20
158.413143513
 10
-128.7240084333
 20
158.4609454796
 10
-128.622683131
 20
158.5009763158
 10
-128.5170522764
 20
158.5331726437
 10
-128.4069417086
 20
158.5577360642
 10
-128.2925367653
 20
158.574664263
 10
-128.1739772296
 20
158.5839557338
 10
-128.0510541266
 20
158.5858856256
 10
-127.9239371986
 20
158.580498662
 10
-127.7928023224
 20
158.5678188358
 10
-127.6574609302
 20
158.5481239037
 10
-127.5180501223
 20
158.5214814619
 10
-127.3747822138
 20
158.4879391626
 10
-127.2275875563
 20
158.4477722286
 10
-127.0766808245
 20
158.4011000455
 10
-126.9222026392
 20
158.3479852023
 10
-126.7639700393
 20
158.2886221628
 10
-126.6021886554
 20
158.2231256041
 10
-126.4369913275
 20
158.1515611318
 10
-126.2680718751
 20
158.0740050554
 10
-126.0954216606
 20
157.9904570102
 10
-125.9193656302
 20
157.9010386184
 10
-125.7400934922
 20
157.8060015598
 10
-125.5577293781
 20
157.7054611902
 10
-125.372471935
 20
157.5995068833
 10
-125.1846265214
 20
157.4884012733
 10
-124.9944012847
 20
157.3723330781
 10
-124.8019045868
 20
157.2513921369
 10
-124.6072906046
 20
157.1257202332
  0
LWPOLYLINE
  5
218
100
AcDbEntity
  8
0
100
AcDbPolyline
 62
7
  6
CONTINUOUS
 90
31
 70
0
 10
-85.9588367076
 20
185.4710288805
 10
-85.7483442393
 20
185.5872936563
 10
-85.5328574877
 20
185.6958443263
 10
-85.3125740904
 20
185.7964949047
 10
-85.0878588864
 20
185.8890088663
 10
-84.8587721119
 20
185.9732972003
 10
-84.6250372724
 20
186.0493611267
 10
-84.3868374317
 20
186.1170140595
 10
-84.1443935404
 20
186.1760715663
 10
-83.8974400109
 20
186.2264547441
 10
-83.6461307078
 20
186.2679633819
 10
-83.3906979091
 20
186.3003946281
 10
-83.1309493522
 20
186.3235927127
 10
-82.866993607
 20
186.3373452699
 10
-82.5990876866
 20
186.341438993
 10
-82.3272210179
 20
186.3356699643
 10
-82.0514948425
 20
186.3198233187
 10
-81.7721525043
 20
186.2936967085
 10
-81.4893593036
 20
186.2570930089
 10
-81.2030204212
 20
186.2097725141
 10
-80.9135528626
 20
186.1515749367
 10
-80.6218604487
 20
186.0825040526
 10
-80.3280179944
 20
186.0024320196
 10
-80.0322553814
 20
185.9112716861
 10
-79.7356867951
 20
185.809267679
 10
-79.4384243368
 20
185.6964041163
 10
-79.1406379906
 20
185.5726844882
 10
-78.8435130095
 20
185.4385908713
 10
-78.5475289793
 20
185.2943965999
 10
-78.2524657754
 20
185.1400429593
 10
-77.9584501454
 20
184.9756171038
  0
LWPOLYLINE
  5
219
100
AcDbEntity
  8
0
100
AcDbPolyline
 62
253
  6
CONTINUOUS
 90
19
 70
0
 10
-79.4585226258
 20
184.8269935707
 10
-79.365991932
 20
184.8780883373
 10
-79.2736373757
 20
184.9244232493
 10
-79.1816347589
 20
184.9659101057
 10
-79.0901592139
 20
185.0024699338
 10
-78.9993848696
 20
185.0340331399
 10
-78.9094845201
 20
185.0605396417
 10
-78.8206292959
 20
185.0819389826
 10
-78.7329883379
 20
185.0981904277
 10
-78.6467284756
 20
185.1092630414
 10
-78.5620139096
 20
185.1151357464
 10
-78.479005899
 20
185.1157973637
 10
-78.397862454
 20
185.1112466337
 10
-78.318738036
 20
185.1014922192
 10
-78.2417832628
 20
185.0865526882
 10
-78.1671446221
 20
185.066456479
 10
-78.0949641928
 20
185.0412418457
 10
-78.0253793745
 20
185.0109567859
 10
-77.9585226258
 20
184.975658949
  0
LWPOLYLINE
  5
21A
100
AcDbEntity
  8
0
100
AcDbPolyline
 62
253
  6
CONTINUOUS
 90
29
 70
0
 10
-85.868345481
 20
185.5218423751
 10
-85.6843577227
 20
185.6166562942
 10
-85.4956421527
 20
185.7028103458
 10
-85.302342079
 20
185.7802391057
 10
-85.1046042909
 20
185.8488837755
 10
-84.9025789476
 20
185.9086922276
 10
-84.6964194645
 20
185.9596190442
 10
-84.4862823962
 20
186.0016255522
 10
-84.2723273177
 20
186.0346798524
 10
-84.0547167035
 20
186.0587568438
 10
-83.8336158042
 20
186.0738382428
 10
-83.6091925205
 20
186.0799125968
 10
-83.3816172765
 20
186.0769752929
 10
-83.1510628895
 20
186.0650285617
 10
-82.9177044393
 20
186.0440814754
 10
-82.681719135
 20
186.0141499408
 10
-82.4432861806
 20
185.9752566877
 10
-82.2025866387
 20
185.927431251
 10
-81.9598032931
 20
185.8707099486
 10
-81.7151205101
 20
185.8051358539
 10
-81.4687240984
 20
185.730758763
 10
-81.220801168
 20
185.6476351567
 10
-80.971539988
 20
185.555828158
 10
-80.7211298438
 20
185.4554074839
 10
-80.4697608935
 20
185.3464493923
 10
-80.217624023
 20
185.2290366245
 10
-79.9649107016
 20
185.1032583421
 10
-79.7118128362
 20
184.9692100594
 10
-79.4585226258
 20
184.8269935707
  0
LINE
  5
21B
100
AcDbEntity
  8
0
100
AcDbLine
 62
253
  6
CONTINUOUS
 10
-105.2761766823
 20
144.8544083725
 11
-105.6214735297
 21
144.6550383003
  0
LINE
  5
21C
100
AcDbEntity
  8
0
100
AcDbLine
 62
7
  6
CONTINUOUS
 10
-104.2072599673
 20
137.3895575749
 11
-98.559140506
 21
140.6507109644
  0
LINE
  5
21D
100
AcDbEntity
  8
0
100
AcDbLine
 62
7
  6
CONTINUOUS
 10
-104.2072599673
 20
135.7564592016
 11
-97.2002713704
 21
139.8022065993
  0
LWPOLYLINE
  5
21E
100
AcDbEntity
  8
0
100
AcDbPolyline
 62
7
  6
CONTINUOUS
 90
9
 70
0
 10
91.9441611338
 20
-156.3202561353
 10
91.914688326
 20
-156.3173350779
 10
91.8798264336
 20
-156.3114695117
 10
91.844361813
 20
-156.3031140298
 10
91.808299371
 20
-156.2922889024
 10
91.7719342924
 20
-156.2790827373
 10
91.735364972
 20
-156.2635250705
 10
91.698493015
 20
-156.2455863659
 10
91.6613184213
 20
-156.2252666237
  0
LWPOLYLINE
  5
21F
100
AcDbEntity
  8
0
100
AcDbPolyline
 62
7
  6
CONTINUOUS
 90
24
 70
0
 10
-124.4305139093
 20
-58.0745551003
 10
-124.4283383287
 20
-58.216059059
 10
-124.4218823205
 20
-58.3545720796
 10
-124.4111458846
 20
-58.4900941623
 10
-124.3961055293
 20
-58.6227830035
 10
-124.3767847464
 20
-58.7524809067
 10
-124.3532540108
 20
-58.8787147819
 10
-124.3254979475
 20
-59.0014719784
 10
-124.2935319315
 20
-59.120765147
 10
-124.2574725632
 20
-59.2361591504
 10
-124.2173048931
 20
-59.3476397487
 10
-124.1730438706
 20
-59.4552211817
 10
-124.1248509435
 20
-59.5585110324
 10
-124.072711752
 20
-59.6574936277
 10
-124.016640656
 20
-59.7521846405
 10
-123.9568421818
 20
-59.8422386733
 10
-123.8933027169
 20
-59.9276387915
 10
-123.826035874
 20
-60.0084019296
 10
-123.7552870174
 20
-60.0842334937
 10
-123.6810434308
 20
-60.1551154733
 10
-123.6033178305
 20
-60.2210658788
 10
-123.5223937308
 20
-60.2818441476
 10
-123.4382594506
 20
-60.3374313908
 10
-123.3950937638
 20
-60.3632272127
  0
LINE
  5
220
100
AcDbEntity
  8
ASSI
100
AcDbLine
 62
7
  6
CONTINUOUS
 10
-131.430871043
 20
105.8085179741
 11
-131.430871043
 21
154.8198367893
  0
LINE
  5
221
100
AcDbEntity
  8
ASSI
100
AcDbLine
 62
7
  6
CONTINUOUS
 10
-130.0166574807
 20
104.9919687875
 11
-130.0166574807
 21
154.0032876027
  0
LINE
  5
222
100
AcDbEntity
  8
0
100
AcDbLine
 62
7
  6
CONTINUOUS
 10
-125.8447274717
 20
-57.2580059136
 11
-125.8447274717
 21
87.3268255996
  0
LINE
  5
223
100
AcDbEntity
  8
ASSI
100
AcDbLine
 62
253
  6
CONTINUOUS
 10
-124.6072906046
 20
158.7586607867
 11
-124.6072906046
 21
157.1257202332
  0
LINE
  5
224
100
AcDbEntity
  8
0
100
AcDbLine
 62
7
  6
CONTINUOUS
 10
-124.4305139093
 20
-58.0745551003
 11
-124.4305139093
 21
86.5102764129
  0
LWPOLYLINE
  5
225
100
AcDbEntity
  8
ASSI
100
AcDbPolyline
 62
7
  6
CONTINUOUS
 90
30
 70
0
 10
-130.0166574807
 20
154.0032876027
 10
-130.0154910202
 20
154.233747415
 10
-130.0121284273
 20
154.460577944
 10
-130.0064826152
 20
154.6835656229
 10
-129.998462313
 20
154.9026237829
 10
-129.9879884074
 20
155.1173970762
 10
-129.9750264738
 20
155.3272847343
 10
-129.9595841099
 20
155.5320508563
 10
-129.9415714931
 20
155.7315223834
 10
-129.9208718763
 20
155.9252352715
 10
-129.8975413951
 20
156.1128169777
 10
-129.8715344036
 20
156.2942877713
 10
-129.8425991235
 20
156.4697821774
 10
-129.8107450537
 20
156.6391078132
 10
-129.7759549403
 20
156.8020712631
 10
-129.7379128256
 20
156.9587771239
 10
-129.6966106048
 20
157.1091047628
 10
-129.6520446233
 20
157.2527586635
 10
-129.6039184217
 20
157.389589323
 10
-129.552294311
 20
157.5193929579
 10
-129.4971755214
 20
157.6420177167
 10
-129.438218928
 20
157.7574360478
 10
-129.3755573581
 20
157.8653963742
 10
-129.3091930556
 20
157.965863956
 10
-129.2385849944
 20
158.0591272781
 10
-129.1637260128
 20
158.1450793694
 10
-129.0847235069
 20
158.22346968
 10
-129.0012066771
 20
158.2943641505
 10
-128.9132272155
 20
158.3576433776
 10
-128.8479284098
 20
158.3979665828
  0
LWPOLYLINE
  5
226
100
AcDbEntity
  8
ASSI
100
AcDbPolyline
 62
7
  6
CONTINUOUS
 90
30
 70
0
 10
-131.430871043
 20
154.8198367893
 10
-131.4292293849
 20
155.0923503044
 10
-131.424430354
 20
155.3608991256
 10
-131.4163710295
 20
155.6252308558
 10
-131.4049425871
 20
155.8852436221
 10
-131.3900524879
 20
156.1405169141
 10
-131.3716629252
 20
156.3903390718
 10
-131.3497737149
 20
156.6344365939
 10
-131.3242878661
 20
156.8725996657
 10
-131.2950977716
 20
157.1042623379
 10
-131.262268464
 20
157.3289850892
 10
-131.2257473075
 20
157.5467911176
 10
-131.1852710423
 20
157.7578196053
 10
-131.1408472424
 20
157.9618452994
 10
-131.0924591687
 20
158.1586375092
 10
-131.0397786685
 20
158.3482937214
 10
-130.9827858641
 20
158.5306773165
 10
-130.9214867358
 20
158.7054331012
 10
-130.8556070708
 20
158.8723404232
 10
-130.7852157271
 20
159.0311612087
 10
-130.7103213047
 20
159.1817132356
 10
-130.630608788
 20
159.3239116918
 10
-130.5462414933
 20
159.4574555992
 10
-130.457215734
 20
159.5823075612
 10
-130.3629635959
 20
159.698767243
 10
-130.2634651783
 20
159.8067148273
 10
-130.1588588407
 20
159.9058476065
 10
-130.0488121559
 20
159.9961824282
 10
-129.9333800923
 20
160.0775817142
 10
-129.8479765891
 20
160.1299895731
  0
LWPOLYLINE
  5
227
100
AcDbEntity
  8
RACCORDO
100
AcDbPolyline
 62
7
  6
CONTINUOUS
 90
20
 70
0
 10
-108.9286126329
 20
55.8521781908
 10
-108.9288898363
 20
55.8517107095
 10
-108.9253080842
 20
55.8600948515
 10
-108.9185189413
 20
55.8834632664
 10
-108.9120246953
 20
55.9216999633
 10
-108.9085894122
 20
55.9744031487
 10
-108.9104716878
 20
56.04029888
 10
-108.9193831448
 20
56.1179108915
 10
-108.9367909977
 20
56.2063570056
 10
-108.9636007823
 20
56.3031786867
 10
-108.9999170915
 20
56.405057703
 10
-109.045717791
 20
56.5097835736
 10
-109.1003946593
 20
56.6145586653
 10
-109.1620660101
 20
56.7153290015
 10
-109.2292098576
 20
56.8098346703
 10
-109.3000063892
 20
56.8959910089
 10
-109.371155454
 20
56.9708023342
 10
-109.4399151145
 20
57.032987278
 10
-109.5045461804
 20
57.0827220912
 10
-109.5630879489
 20
57.1202833074
  0
LWPOLYLINE
  5
228
100
AcDbEntity
  8
RACCORDO
100
AcDbPolyline
 62
253
  6
CONTINUOUS
 90
6
 70
0
 10
-108.081514338
 20
54.9581240035
 10
-107.9992854843
 20
55.0750988983
 10
-107.9341471102
 20
55.2118522615
 10
-107.8869800679
 20
55.3665348685
 10
-107.8584222634
 20
55.5370548152
 10
-107.8488598905
 20
55.7211061198
  0
LWPOLYLINE
  5
229
100
AcDbEntity
  8
RACCORDO
100
AcDbPolyline
 62
253
  6
CONTINUOUS
 90
3
 70
0
 10
-109.7223528155
 20
57.1090137364
 10
-109.6777022483
 20
57.1588523894
 10
-109.6678113394
 20
57.165921861
  0
LWPOLYLINE
  5
22A
100
AcDbEntity
  8
RACCORDO
100
AcDbPolyline
 62
253
  6
CONTINUOUS
 90
5
 70
0
 10
25.0324072024
 20
-125.5271348843
 10
24.9637632272
 20
-125.5332618996
 10
24.8899791545
 20
-125.5240967821
 10
24.8127032003
 20
-125.4998442626
 10
24.733661582
 20
-125.4610461002
  0
LWPOLYLINE
  5
22B
100
AcDbEntity
  8
0
100
AcDbPolyline
 62
7
  6
CONTINUOUS
 90
19
 70
0
 10
-107.566017178
 20
-48.1338973063
 10
-107.5797993363
 20
-47.9070693118
 10
-107.6156828688
 20
-47.6780508446
 10
-107.6736677755
 20
-47.4468419046
 10
-107.7554826279
 20
-47.2094573336
 10
-107.8593988544
 20
-46.9698822898
 10
-107.9802307404
 20
-46.740072248
 10
-108.1188367044
 20
-46.5205227526
 10
-108.2743583278
 20
-46.3107382593
 10
-108.4390346402
 20
-46.1211876098
 10
-108.6133302143
 20
-45.9528976106
 10
-108.7967804773
 20
-45.8048414552
 10
-108.9802307404
 20
-45.6844075661
 10
-109.1636810034
 20
-45.5929976898
 10
-109.3471312664
 20
-45.5292100798
 10
-109.5214268405
 20
-45.496227919
 10
-109.6861031529
 20
-45.4956144907
 10
-109.8416247763
 20
-45.5258065115
 10
-109.9802790605
 20
-45.585325211
  0
LWPOLYLINE
  5
22C
100
AcDbEntity
  8
RACCORDO
100
AcDbPolyline
 62
253
  6
CONTINUOUS
 90
25
 70
0
 10
-110.6772870152
 20
-47.1540382823
 10
-110.6686111496
 20
-47.3091094656
 10
-110.6442268039
 20
-47.466934996
 10
-110.604133978
 20
-47.6275148735
 10
-110.5470627444
 20
-47.7941015372
 10
-110.4742830307
 20
-47.9634425481
 10
-110.3896046195
 20
-48.1257805887
 10
-110.2925171303
 20
-48.2802542412
 10
-110.1835309437
 20
-48.4277249235
 10
-110.067986984
 20
-48.5610195717
 10
-109.9454794855
 20
-48.6795309892
 10
-109.8164142138
 20
-48.7838663725
 10
-109.6873493898
 20
-48.8686742478
 10
-109.5582858946
 20
-48.9329111779
 10
-109.429222847
 20
-48.9776206
 10
-109.3067158246
 20
-49.0005813517
 10
-109.1911692961
 20
-49.0007187261
 10
-109.0821787929
 20
-48.9791074302
 10
-108.9850864855
 20
-48.9367504228
 10
-108.9004023965
 20
-48.8721948833
 10
-108.8276165035
 20
-48.7868936323
 10
-108.7705409098
 20
-48.6862080907
 10
-108.7304463165
 20
-48.5719253989
 10
-108.7060620225
 20
-48.4422584165
 10
-108.6973880279
 20
-48.2972071436
  0
LWPOLYLINE
  5
22D
100
AcDbEntity
  8
RACCORDO
100
AcDbPolyline
 62
253
  6
CONTINUOUS
 90
25
 70
0
 10
-108.6973880279
 20
-48.2972071436
 10
-108.7060638935
 20
-48.1421359604
 10
-108.7304482392
 20
-47.98431043
 10
-108.7705410651
 20
-47.8237305525
 10
-108.8276122987
 20
-47.6571438888
 10
-108.9003920124
 20
-47.4878028779
 10
-108.9850704236
 20
-47.3254648373
 10
-109.0821579128
 20
-47.1709911847
 10
-109.1911440994
 20
-47.0235205024
 10
-109.3066880591
 20
-46.8902258542
 10
-109.4291955576
 20
-46.7717144368
 10
-109.5582608293
 20
-46.6673790535
 10
-109.6873256533
 20
-46.5825711782
 10
-109.8163891485
 20
-46.5183342481
 10
-109.9454521961
 20
-46.473624826
 10
-110.0679592185
 20
-46.4506640743
 10
-110.1835057469
 20
-46.4505266999
 10
-110.2924962502
 20
-46.4721379958
 10
-110.3895885576
 20
-46.5144950031
 10
-110.4742726465
 20
-46.5790505427
 10
-110.5470585396
 20
-46.6643517937
 10
-110.6041341333
 20
-46.7650373353
 10
-110.6442287266
 20
-46.8793200271
 10
-110.6686130205
 20
-47.0089870094
 10
-110.6772870152
 20
-47.1540382823
  0
LWPOLYLINE
  5
22E
100
AcDbEntity
  8
RACCORDO
100
AcDbPolyline
 62
253
  6
CONTINUOUS
 90
25
 70
0
 10
-110.6772870152
 20
56.8642749811
 10
-110.6686111496
 20
56.7092037978
 10
-110.6442268039
 20
56.5513782674
 10
-110.604133978
 20
56.3907983899
 10
-110.5470627444
 20
56.2242117262
 10
-110.4742830307
 20
56.0548707153
 10
-110.3896046195
 20
55.8925326747
 10
-110.2925171303
 20
55.7380590222
 10
-110.1835309437
 20
55.5905883399
 10
-110.067986984
 20
55.4572936917
 10
-109.9454794855
 20
55.3387822742
 10
-109.8164142138
 20
55.2344468909
 10
-109.6873493898
 20
55.1496390156
 10
-109.5582858946
 20
55.0854020855
 10
-109.429222847
 20
55.0406926634
 10
-109.3067158246
 20
55.0177319117
 10
-109.1911692961
 20
55.0175945373
 10
-109.0821787929
 20
55.0392058332
 10
-108.9850864855
 20
55.0815628406
 10
-108.9004023965
 20
55.1461183801
 10
-108.8276165035
 20
55.2314196311
 10
-108.7705409098
 20
55.3321051727
 10
-108.7304463165
 20
55.4463878645
 10
-108.7060620225
 20
55.5760548469
 10
-108.6973880279
 20
55.7211061198
  0
LWPOLYLINE
  5
22F
100
AcDbEntity
  8
RACCORDO
100
AcDbPolyline
 62
253
  6
CONTINUOUS
 90
25
 70
0
 10
-108.6973880279
 20
55.7211061198
 10
-108.7060638935
 20
55.876177303
 10
-108.7304482392
 20
56.0340028334
 10
-108.7705410651
 20
56.1945827109
 10
-108.8276122987
 20
56.3611693747
 10
-108.9003920124
 20
56.5305103855
 10
-108.9850704236
 20
56.6928484261
 10
-109.0821579128
 20
56.8473220787
 10
-109.1911440994
 20
56.994792761
 10
-109.3066880591
 20
57.1280874092
 10
-109.4291955576
 20
57.2465988266
 10
-109.5582608293
 20
57.3509342099
 10
-109.6873256533
 20
57.4357420852
 10
-109.8163891485
 20
57.4999790153
 10
-109.9454521961
 20
57.5446884374
 10
-110.0679592185
 20
57.5676491891
 10
-110.1835057469
 20
57.5677865636
 10
-110.2924962502
 20
57.5461752676
 10
-110.3895885576
 20
57.5038182603
 10
-110.4742726465
 20
57.4392627207
 10
-110.5470585396
 20
57.3539614697
 10
-110.6041341333
 20
57.2532759281
 10
-110.6442287266
 20
57.1389932363
 10
-110.6686130205
 20
57.009326254
 10
-110.6772870152
 20
56.8642749811
  0
LWPOLYLINE
  5
230
100
AcDbEntity
  8
RACCORDO
100
AcDbPolyline
 62
7
  6
CONTINUOUS
 90
22
 70
0
 10
-110.8530229465
 20
-46.9090736669
 10
-110.8423237028
 20
-47.115717005
 10
-110.8113351864
 20
-47.3235553617
 10
-110.7616227188
 20
-47.5306145844
 10
-110.6945124809
 20
-47.7353719526
 10
-110.6111965746
 20
-47.9361969042
 10
-110.5130529451
 20
-48.1308947771
 10
-110.4014793315
 20
-48.3174037972
 10
-110.2774535453
 20
-48.4943407095
 10
-110.1417149302
 20
-48.6603782424
 10
-109.9936649945
 20
-48.8151925679
 10
-109.8354475675
 20
-48.955194611
 10
-109.6719823157
 20
-49.0756324461
 10
-109.5042801988
 20
-49.1758992754
 10
-109.3331965678
 20
-49.255294207
 10
-109.1638546043
 20
-49.3118013247
 10
-108.9991065196
 20
-49.3457791175
 10
-108.8384421496
 20
-49.3585252503
 10
-108.682739004
 20
-49.3506854168
 10
-108.5336891593
 20
-49.3229699049
 10
-108.393224704
 20
-49.2764851833
 10
-108.2630251326
 20
-49.2126808659
  0
LWPOLYLINE
  5
231
100
AcDbEntity
  8
RACCORDO
100
AcDbPolyline
 62
7
  6
CONTINUOUS
 90
22
 70
0
 10
-110.8530229465
 20
57.1092395965
 10
-110.8423237028
 20
56.9025962584
 10
-110.8113351864
 20
56.6947579017
 10
-110.7616227188
 20
56.487698679
 10
-110.6945124809
 20
56.2829413108
 10
-110.6111965746
 20
56.0821163592
 10
-110.5130529451
 20
55.8874184863
 10
-110.4014793315
 20
55.7009094662
 10
-110.2774535453
 20
55.5239725539
 10
-110.1417149302
 20
55.357935021
 10
-109.9936649945
 20
55.2031206955
 10
-109.8354475675
 20
55.0631186524
 10
-109.6719823157
 20
54.9426808173
 10
-109.5042801988
 20
54.842413988
 10
-109.3331965678
 20
54.7630190564
 10
-109.1638546043
 20
54.7065119387
 10
-108.9991065196
 20
54.6725341459
 10
-108.8384421496
 20
54.6597880132
 10
-108.682739004
 20
54.6676278466
 10
-108.5336891593
 20
54.6953433586
 10
-108.393224704
 20
54.7418280801
 10
-108.2630251326
 20
54.8056323975
  0
LINE
  5
232
100
AcDbEntity
  8
RACCORDO
100
AcDbLine
 62
253
  6
CONTINUOUS
 10
-107.8488598905
 20
-48.2972071436
 11
-107.8584222519
 21
-48.1021135707
  0
LINE
  5
233
100
AcDbEntity
  8
RACCORDO
100
AcDbLine
 62
253
  6
CONTINUOUS
 10
-107.8488598905
 20
55.7211061198
 11
-107.8584222519
 21
55.9161996928
  0
LWPOLYLINE
  5
234
100
AcDbEntity
  8
0
100
AcDbPolyline
 62
7
  6
CONTINUOUS
 90
31
 70
0
 10
-104.2072599673
 20
-40.6836356218
 10
-104.206268854
 20
-40.7271320186
 10
-104.2033669681
 20
-40.7713822282
 10
-104.1985543095
 20
-40.8163862505
 10
-104.1918072558
 20
-40.8622713378
 10
-104.1831494295
 20
-40.9089102379
 10
-104.1726516981
 20
-40.9559211936
 10
-104.1602989602
 20
-41.0033072588
 10
-104.1461063173
 20
-41.0510653796
 10
-104.1301899415
 20
-41.0988046378
 10
-104.1125356848
 20
-41.1465248785
 10
-104.0931576952
 20
-41.1942262567
 10
-104.072214589
 20
-41.2415183184
 10
-104.0496935199
 20
-41.288397704
 10
-104.0256073341
 20
-41.3348677733
 10
-104.0001531862
 20
-41.3805481509
 10
-103.9733198481
 20
-41.4254323555
 10
-103.945118548
 20
-41.4695268684
 10
-103.9157801239
 20
-41.5124707596
 10
-103.8852952428
 20
-41.5542545849
 10
-103.8536732379
 20
-41.5948877884
 10
-103.8211729471
 20
-41.6340377719
 10
-103.7877871618
 20
-41.6716923615
 10
-103.7535230908
 20
-41.7078637312
 10
-103.7186611984
 20
-41.7422558045
 10
-103.6831965778
 20
-41.7748539775
 10
-103.6471341358
 20
-41.8056728542
 10
-103.6107690572
 20
-41.8344601703
 10
-103.5741997368
 20
-41.861131838
 10
-103.5373277798
 20
-41.8857719452
 10
-103.5001531862
 20
-41.9083804919
  0
LINE
  5
235
100
AcDbEntity
  8
0
100
AcDbLine
 62
7
  6
CONTINUOUS
 10
-105.6214735297
 20
-41.5001848084
 11
-105.6214735297
 21
144.6550383003
  0
LWPOLYLINE
  5
236
100
AcDbEntity
  8
0
100
AcDbPolyline
 62
7
  6
CONTINUOUS
 90
12
 70
0
 10
-105.6214735297
 20
144.6550383003
 10
-105.6204824164
 20
144.6973901843
 10
-105.6175805304
 20
144.7382893688
 10
-105.6127678719
 20
144.7777358536
 10
-105.6060208182
 20
144.8158296124
 10
-105.5973629918
 20
144.8524706716
 10
-105.5868652605
 20
144.8873591104
 10
-105.5745125226
 20
144.9204805434
 10
-105.5603198797
 20
144.9518493559
 10
-105.5444035039
 20
144.9812087823
 10
-105.5267492472
 20
145.00854233
 10
-105.5249098463
 20
145.0109461544
  0
LWPOLYLINE
  5
237
100
AcDbEntity
  8
0
100
AcDbPolyline
 62
7
  6
CONTINUOUS
 90
7
 70
0
 10
-107.9801824202
 20
54.968942235
 10
-107.8593988544
 20
55.0591907466
 10
-107.7554826279
 20
55.1787659367
 10
-107.6736677755
 20
55.321672767
 10
-107.6156828688
 20
55.4859221903
 10
-107.5797993363
 20
55.6735032536
 10
-107.566017178
 20
55.8844159571
  0
LWPOLYLINE
  5
238
100
AcDbEntity
  8
RACCORDO
100
AcDbPolyline
 62
253
  6
CONTINUOUS
 90
3
 70
0
 10
-108.2630251326
 20
54.8056323975
 10
-108.1797219085
 20
54.8625092656
 10
-108.081514338
 20
54.9581240035
  0
LWPOLYLINE
  5
239
100
AcDbEntity
  8
RACCORDO
100
AcDbPolyline
 62
7
  6
CONTINUOUS
 90
10
 70
0
 10
-110.2631217731
 20
58.2696782154
 10
-110.3727671167
 20
58.1970100657
 10
-110.4751215659
 20
58.1091700784
 10
-110.5683432531
 20
58.0064293043
 10
-110.6506917322
 20
57.8893237586
 10
-110.7206187087
 20
57.7585935094
 10
-110.7769188111
 20
57.6147452046
 10
-110.8184996793
 20
57.4581221309
 10
-110.844219625
 20
57.289394071
 10
-110.8530229465
 20
57.109239596
  0
LWPOLYLINE
  5
23A
100
AcDbEntity
  8
ASSI
100
AcDbPolyline
 62
7
  6
CONTINUOUS
 90
58
 70
0
 10
-54.6706336333
 20
103.4371280867
 10
-54.6848552511
 20
103.4287408192
 10
-54.7406745267
 20
103.3923352588
 10
-54.7938683541
 20
103.3519059155
 10
-54.8444229317
 20
103.3074316368
 10
-54.8923520613
 20
103.2589335752
 10
-54.9374042265
 20
103.2066662325
 10
-54.9795643035
 20
103.1506097942
 10
-55.0188474161
 20
103.0907840748
 10
-55.0550474196
 20
103.02750302
 10
-55.0881481063
 20
102.9607484655
 10
-55.1181656838
 20
102.8905385756
 10
-55.1449426298
 20
102.8172417887
 10
-55.1684619087
 20
102.7408418773
 10
-55.188740556
 20
102.6613550688
 10
-55.2056721561
 20
102.5791984839
 10
-55.219239114
 20
102.4943580878
 10
-55.2294590247
 20
102.4068479152
 10
-55.2362782575
 20
102.3171271907
 10
-55.2396789354
 20
102.2251842936
 10
-55.2396789354
 20
102.1310308446
 10
-55.2362782575
 20
102.03516093
 10
-55.2294590247
 20
101.9375655264
 10
-55.219239114
 20
101.8382536571
 10
-55.2056721561
 20
101.7377464781
 10
-55.188740556
 20
101.6360377057
 10
-55.1684619087
 20
101.5331336237
 10
-55.1449426298
 20
101.4295742386
 10
-55.1181656838
 20
101.3253561056
 10
-55.0881481063
 20
101.2204826696
 10
-55.0550474196
 20
101.1155042718
 10
-55.0188474161
 20
101.0104203604
 10
-54.9795643035
 20
100.9052314872
 10
-54.9374042265
 20
100.8004896487
 10
-54.8923520613
 20
100.6961971949
 10
-54.8444229317
 20
100.5923517759
 10
-54.7938683541
 20
100.4894983381
 10
-54.7406745267
 20
100.3876420963
 10
-54.6848552511
 20
100.2867778357
 10
-54.6267034487
 20
100.1874348587
 10
-54.5662068575
 20
100.0896211626
 10
-54.5033777394
 20
99.9933287501
 10
-54.4385458008
 20
99.8990629321
 10
-54.3717005132
 20
99.8068343621
 10
-54.3028524052
 20
99.7166323866
 10
-54.2323627689
 20
99.6289303558
 10
-54.1602229751
 20
99.5437414116
 10
-54.0864416529
 20
99.4610524121
 10
-54.0114059826
 20
99.3812972819
 10
-53.9351093701
 20
99.304491444
 10
-53.8575584094
 20
99.2306194754
 10
-53.7791600624
 20
99.1600690319
 10
-53.6999098744
 20
99.0928575742
 10
-53.6198123001
 20
99.0289676416
 10
-53.5392876652
 20
98.9687345074
 10
-53.4584760781
 20
98.9122699293
 10
-53.3772374303
 20
98.8594621496
 10
-53.2955717219
 20
98.8103111683
  0
LINE
  5
23B
100
AcDbEntity
  8
ASSI
100
AcDbLine
 62
253
  6
CONTINUOUS
 10
-51.8813581595
 20
99.6268603549
 11
-53.2955717219
 21
98.8103111683
  0
LINE
  5
23C
100
AcDbEntity
  8
0
100
AcDbLine
 62
7
  6
CONTINUOUS
 10
-104.2072599673
 20
64.5594619667
 11
-103.5001531862
 21
64.96773656
  0
LINE
  5
23D
100
AcDbEntity
  8
0
100
AcDbLine
 62
7
  6
CONTINUOUS
 10
-109.9802790606
 20
58.4329880527
 11
-110.2631217731
 21
58.2696782154
  0
LWPOLYLINE
  5
23E
100
AcDbEntity
  8
0
100
AcDbPolyline
 62
7
  6
CONTINUOUS
 90
24
 70
0
 10
94.3937948417
 20
-186.1118019576
 10
94.4379619344
 20
-186.1364212422
 10
94.5281746558
 20
-186.1814803163
 10
94.6212778368
 20
-186.2211637976
 10
94.7172609595
 20
-186.2554912466
 10
94.8157739132
 20
-186.2843374495
 10
94.916825937
 20
-186.3076823883
 10
95.0204077917
 20
-186.3255460811
 10
95.1261416491
 20
-186.3378633676
 10
95.2340353686
 20
-186.344613992
 10
95.3440810908
 20
-186.3458182102
 10
95.4558774097
 20
-186.3414716296
 10
95.5694307187
 20
-186.3315539784
 10
95.6847346244
 20
-186.3160855283
 10
95.801368541
 20
-186.2951227027
 10
95.9193373257
 20
-186.2686454356
 10
96.0386361212
 20
-186.2366737929
 10
96.1588297698
 20
-186.1993243953
 10
96.2799215395
 20
-186.1565776028
 10
96.4019081622
 20
-186.1084530554
 10
96.5243446761
 20
-186.0551262937
 10
96.6470827604
 20
-185.996655831
 10
96.7702707357
 20
-185.932983154
 10
96.8939086021
 20
-185.8641082626
  0
LWPOLYLINE
  5
23F
100
AcDbEntity
  8
0
100
AcDbPolyline
 62
7
  6
CONTINUOUS
 90
24
 70
0
 10
-123.3950937638
 20
-60.3632272127
 10
-123.350926671
 20
-60.3878464972
 10
-123.2607139496
 20
-60.4329055714
 10
-123.1676107687
 20
-60.4725890527
 10
-123.0716276459
 20
-60.5069165016
 10
-122.9731146922
 20
-60.5357627045
 10
-122.8720626685
 20
-60.5591076434
 10
-122.7684808138
 20
-60.5769713361
 10
-122.6627469563
 20
-60.5892886227
 10
-122.5548532369
 20
-60.5960392471
 10
-122.4448075147
 20
-60.5972434653
 10
-122.3330111957
 20
-60.5928968847
 10
-122.2194578867
 20
-60.5829792334
 10
-122.104153981
 20
-60.5675107834
 10
-121.9875200645
 20
-60.5465479577
 10
-121.8695512798
 20
-60.5200706906
 10
-121.7502524843
 20
-60.4880990479
 10
-121.6300588357
 20
-60.4507496503
 10
-121.508967066
 20
-60.4080028579
 10
-121.3869804432
 20
-60.3598783105
 10
-121.2645439294
 20
-60.3065515488
 10
-121.1418058451
 20
-60.2480810861
 10
-121.0186178698
 20
-60.1844084091
 10
-120.8949800033
 20
-60.1155335176
  0
LINE
  5
240
100
AcDbEntity
  8
0
100
AcDbLine
 62
7
  6
CONTINUOUS
 10
-123.395100804
 20
-60.363239406
 11
-124.8093143664
 21
-59.5466902194
  0
LINE
  5
241
100
AcDbEntity
  8
0
100
AcDbLine
 62
7
  6
CONTINUOUS
 10
92.979574239
 20
-185.2952649643
 11
94.3937878014
 21
-186.111814151
  0
LINE
  5
242
100
AcDbEntity
  8
0
100
AcDbLine
 62
253
  6
CONTINUOUS
 10
-124.4305139093
 20
-58.0745551003
 11
-125.8447274717
 21
-57.2580059136
  0
LINE
  5
243
100
AcDbEntity
  8
0
100
AcDbLine
 62
253
  6
CONTINUOUS
 10
91.9441611338
 20
-183.0065806586
 11
93.3583746962
 21
-183.8231298452
  0
LINE
  5
244
100
AcDbEntity
  8
0
100
AcDbLine
 62
7
  6
CONTINUOUS
 10
-114.8138616851
 20
-56.604372015
 11
91.9441611338
 21
-175.983863104
  0
LWPOLYLINE
  5
245
100
AcDbEntity
  8
0
100
AcDbPolyline
 62
7
  6
CONTINUOUS
 90
24
 70
0
 10
-124.8093073262
 20
-59.546678026
 10
-124.852473013
 20
-59.5208822041
 10
-124.9366072932
 20
-59.4652949609
 10
-125.0175313929
 20
-59.4045166921
 10
-125.0952569931
 20
-59.3385662866
 10
-125.1695005798
 20
-59.267684307
 10
-125.2402494364
 20
-59.191852743
 10
-125.3075162793
 20
-59.1110896049
 10
-125.3710557442
 20
-59.0256894867
 10
-125.4308542184
 20
-58.9356354539
 10
-125.4869253144
 20
-58.840944441
 10
-125.5390645058
 20
-58.7419618458
 10
-125.587257433
 20
-58.6386719951
 10
-125.6315184555
 20
-58.531090562
 10
-125.6716861255
 20
-58.4196099638
 10
-125.7077454939
 20
-58.3042159603
 10
-125.7397115098
 20
-58.1849227918
 10
-125.7674675731
 20
-58.0621655953
 10
-125.7909983087
 20
-57.93593172
 10
-125.8103190917
 20
-57.8062338168
 10
-125.825359447
 20
-57.6735449756
 10
-125.8360958829
 20
-57.538022893
 10
-125.8425518911
 20
-57.3995098723
 10
-125.8447274717
 20
-57.2580059136
  0
LWPOLYLINE
  5
246
100
AcDbEntity
  8
0
100
AcDbPolyline
 62
7
  6
CONTINUOUS
 90
24
 70
0
 10
92.9795812793
 20
-185.295252771
 10
92.9364155924
 20
-185.269456949
 10
92.8522813122
 20
-185.2138697059
 10
92.7713572126
 20
-185.1530914371
 10
92.6936316123
 20
-185.0871410315
 10
92.6193880256
 20
-185.016259052
 10
92.5486391691
 20
-184.9404274879
 10
92.4813723261
 20
-184.8596643498
 10
92.4178328613
 20
-184.7742642316
 10
92.3580343871
 20
-184.6842101988
 10
92.301963291
 20
-184.589519186
 10
92.2498240996
 20
-184.4905365907
 10
92.2016311725
 20
-184.38724674
 10
92.15737015
 20
-184.2796653069
 10
92.1172024799
 20
-184.1681847087
 10
92.0811431115
 20
-184.0527907053
 10
92.0491770956
 20
-183.9334975367
 10
92.0214210323
 20
-183.8107403402
 10
91.9978902967
 20
-183.6845064649
 10
91.9785695138
 20
-183.5548085618
 10
91.9635291585
 20
-183.4221197206
 10
91.9527927226
 20
-183.2865976379
 10
91.9463367143
 20
-183.1480846173
 10
91.9441611338
 20
-183.0065806586
  0
LWPOLYLINE
  5
247
100
AcDbEntity
  8
RACCORDO
100
AcDbPolyline
 62
253
  6
CONTINUOUS
 90
20
 70
0
 10
-107.8869800226
 20
-47.898615914
 10
-107.9341470101
 20
-47.6894661175
 10
-107.9992853012
 20
-47.4774927437
 10
-108.0815140514
 20
-47.2655621718
 10
-108.1797215397
 20
-47.0565398448
 10
-108.292580128
 20
-46.8532519139
 10
-108.4185634428
 20
-46.6584481606
 10
-108.5559670423
 20
-46.474764087
 10
-108.7029320971
 20
-46.3046842272
 10
-108.8574715866
 20
-46.1505077586
 10
-109.017496512
 20
-46.0143187588
 10
-109.1808434458
 20
-45.8979587098
 10
-109.3453028392
 20
-45.8030018754
 10
-109.5086498132
 20
-45.7307328801
 10
-109.6686748464
 20
-45.6821289998
 10
-109.8232144735
 20
-45.6578470566
 10
-109.9701796042
 20
-45.6582153052
 10
-110.1075831665
 20
-45.6832290857
 10
-110.2335664122
 20
-45.7325503616
 10
-110.2631217731
 20
-45.7486350481
  0
LINE
  5
248
100
AcDbEntity
  8
RACCORDO
100
AcDbLine
 62
253
  6
CONTINUOUS
 10
-107.8584222519
 20
-48.1021135707
 11
-107.8869800226
 21
-47.898615914
  0
LWPOLYLINE
  5
249
100
AcDbEntity
  8
0
100
AcDbPolyline
 62
7
  6
CONTINUOUS
 90
19
 70
0
 10
-107.566017178
 20
55.8844159571
 10
-107.5797993363
 20
56.1112439516
 10
-107.6156828688
 20
56.3402624188
 10
-107.6736677755
 20
56.5714713588
 10
-107.7554826279
 20
56.8088559298
 10
-107.8593988544
 20
57.0484309736
 10
-107.9802307404
 20
57.2782410154
 10
-108.1188367044
 20
57.4977905108
 10
-108.2743583278
 20
57.7075750041
 10
-108.4390346402
 20
57.8971256536
 10
-108.6133302143
 20
58.0654156528
 10
-108.7967804773
 20
58.2134718082
 10
-108.9802307404
 20
58.3339056973
 10
-109.1636810034
 20
58.4253155736
 10
-109.3471312664
 20
58.4891031836
 10
-109.5214268405
 20
58.5220853445
 10
-109.6861031529
 20
58.5226987727
 10
-109.8416247763
 20
58.4925067519
 10
-109.9802790605
 20
58.4329880524
  0
LINE
  5
24A
100
AcDbEntity
  8
0
100
AcDbLine
 62
7
  6
CONTINUOUS
 10
-104.2072599673
 20
-40.6836356218
 11
-104.2072599673
 21
144.1816961014
  0
LINE
  5
24B
100
AcDbEntity
  8
0
100
AcDbLine
 62
7
  6
CONTINUOUS
 10
-103.5001531862
 20
48.6383310241
 11
-103.5001531862
 21
64.96773656
  0
LWPOLYLINE
  5
24C
100
AcDbEntity
  8
ASSI
100
AcDbPolyline
 62
7
  6
CONTINUOUS
 90
18
 70
0
 10
-83.7940874042
 20
70.51887856
 10
-83.8128899465
 20
70.507503292
 10
-83.84908957
 20
70.4824379937
 10
-83.8833420691
 20
70.4543003105
 10
-83.9156605675
 20
70.4231109502
 10
-83.9458262562
 20
70.389081077
 10
-83.9738245269
 20
70.3521914159
 10
-83.9996699879
 20
70.3124612419
 10
-84.0231876554
 20
70.2701595438
 10
-84.0443617337
 20
70.2252688719
 10
-84.0632080184
 20
70.177806676
 10
-84.0795989128
 20
70.1280942936
 10
-84.0935177554
 20
70.0761164556
 10
-84.1049812077
 20
70.0218884312
 10
-84.1139116577
 20
69.9657773652
 10
-84.1202832347
 20
69.9079056394
 10
-84.1241218093
 20
69.8481508721
 10
-84.1254273816
 20
69.7865130633
  0
LWPOLYLINE
  5
24D
100
AcDbEntity
  8
ASSI
100
AcDbPolyline
 62
7
  6
CONTINUOUS
 90
18
 70
0
 10
-82.1940256593
 20
67.7476688679
 10
-82.175223117
 20
67.759044136
 10
-82.1390234935
 20
67.7841094342
 10
-82.1047709944
 20
67.8122471174
 10
-82.072452496
 20
67.8434364777
 10
-82.0422868073
 20
67.877466351
 10
-82.0142885366
 20
67.914356012
 10
-81.9884430756
 20
67.954086186
 10
-81.9649254081
 20
67.9963878842
 10
-81.9437513298
 20
68.041278556
 10
-81.9249050451
 20
68.0887407519
 10
-81.9085141507
 20
68.1384531343
 10
-81.8945953081
 20
68.1904309723
 10
-81.8831318558
 20
68.2446589967
 10
-81.8742014058
 20
68.3007700627
 10
-81.8678298288
 20
68.3586417885
 10
-81.8639912542
 20
68.4183965558
 10
-81.8626856819
 20
68.4800343646
  0
LINE
  5
24E
100
AcDbEntity
  8
ASSI
100
AcDbLine
 62
253
  6
CONTINUOUS
 10
-82.9941685477
 20
70.439687736
 11
-84.1254273816
 21
69.7865130633
  0
LINE
  5
24F
100
AcDbEntity
  8
0
100
AcDbLine
 62
7
  6
CONTINUOUS
 10
-107.9801824201
 20
54.9689422348
 11
-108.2630251326
 21
54.8056323975
  0
LINE
  5
250
100
AcDbEntity
  8
0
100
AcDbLine
 62
7
  6
CONTINUOUS
 10
-104.2072599673
 20
48.2300564308
 11
-103.5001531862
 21
48.6383310241
  0
LWPOLYLINE
  5
251
100
AcDbEntity
  8
RACCORDO
100
AcDbPolyline
 62
7
  6
CONTINUOUS
 90
6
 70
0
 10
24.4336470859
 20
-124.2660653916
 10
24.3926070438
 20
-124.2443797181
 10
24.3584182125
 20
-124.2297381059
 10
24.3323028962
 20
-124.2211888041
 10
24.3152419679
 20
-124.2173417855
 10
24.310266141
 20
-124.2166250125
  0
LWPOLYLINE
  5
252
100
AcDbEntity
  8
RACCORDO
100
AcDbPolyline
 62
7
  6
CONTINUOUS
 90
6
 70
0
 10
-38.8524098303
 20
-87.7254892888
 10
-38.8934498724
 20
-87.7038036153
 10
-38.9276387037
 20
-87.6891620031
 10
-38.9537540199
 20
-87.6806127012
 10
-38.9708149483
 20
-87.6767656827
 10
-38.9757907752
 20
-87.6760489096
  0
LWPOLYLINE
  5
253
100
AcDbEntity
  8
RACCORDO
100
AcDbPolyline
 62
7
  6
CONTINUOUS
 90
6
 70
0
 10
-109.5630879489
 20
-46.898029956
 10
-109.604127991
 20
-46.8763442825
 10
-109.6383168223
 20
-46.8617026703
 10
-109.6644321386
 20
-46.8531533685
 10
-109.681493067
 20
-46.8493063499
 10
-109.6864688938
 20
-46.8485895769
  0
LINE
  5
254
100
AcDbEntity
  8
0
100
AcDbLine
 62
7
  6
CONTINUOUS
 10
91.6613184213
 20
-156.2252666237
 11
36.5069894888
 21
-124.3798483441
  0
LINE
  5
255
100
AcDbEntity
  8
0
100
AcDbLine
 62
7
  6
CONTINUOUS
 10
20.9506403027
 20
-115.3978072909
 11
-34.2036886299
 21
-83.5523890113
  0
LINE
  5
256
100
AcDbEntity
  8
0
100
AcDbLine
 62
7
  6
CONTINUOUS
 10
-49.760037816
 20
-74.5703479581
 11
-104.9143667485
 21
-42.7249296786
  0
LWPOLYLINE
  5
257
100
AcDbEntity
  8
0
100
AcDbPolyline
 62
7
  6
CONTINUOUS
 90
31
 70
0
 10
-104.9143667485
 20
-42.7249296786
 10
-104.9515413422
 20
-42.7023211318
 10
-104.9884132992
 20
-42.6776810247
 10
-105.0249826196
 20
-42.651009357
 10
-105.0613476982
 20
-42.6222220408
 10
-105.0974101402
 20
-42.5914031641
 10
-105.1328747608
 20
-42.5588049912
 10
-105.1677366532
 20
-42.5244129178
 10
-105.2020007242
 20
-42.4882415482
 10
-105.2353865095
 20
-42.4505869585
 10
-105.2678868002
 20
-42.411436975
 10
-105.2995088052
 20
-42.3708037715
 10
-105.3299936863
 20
-42.3290199462
 10
-105.3593321103
 20
-42.2860760551
 10
-105.3875334105
 20
-42.2419815421
 10
-105.4143667485
 20
-42.1970973376
 10
-105.4398208965
 20
-42.1514169599
 10
-105.4639070823
 20
-42.1049468907
 10
-105.4864281514
 20
-42.058067505
 10
-105.5073712576
 20
-42.0107754433
 10
-105.5267492472
 20
-41.9630740652
 10
-105.5444035039
 20
-41.9153538244
 10
-105.5603198797
 20
-41.8676145662
 10
-105.5745125226
 20
-41.8198564454
 10
-105.5868652605
 20
-41.7724703803
 10
-105.5973629918
 20
-41.7254594245
 10
-105.6060208182
 20
-41.6788205245
 10
-105.6127678719
 20
-41.6329354371
 10
-105.6175805304
 20
-41.5879314149
 10
-105.6204824164
 20
-41.5436812053
 10
-105.6214735297
 20
-41.5001848084
  0
LWPOLYLINE
  5
258
100
AcDbEntity
  8
RACCORDO
100
AcDbPolyline
 62
253
  6
CONTINUOUS
 90
25
 70
0
 10
-109.6873375215
 20
-48.8278575867
 10
-109.815141677
 20
-48.7433750446
 10
-109.9368088542
 20
-48.645207131
 10
-110.052339053
 20
-48.5333538458
 10
-110.1634907501
 20
-48.4054552442
 10
-110.2685054688
 20
-48.2638712711
 10
-110.3621077795
 20
-48.1156817609
 10
-110.443708782
 20
-47.9605537723
 10
-110.5138973765
 20
-47.7988202466
 10
-110.5691648338
 20
-47.6385598423
 10
-110.6087520103
 20
-47.4798491282
 10
-110.6334180496
 20
-47.3226115356
 10
-110.6419316528
 20
-47.1746960162
 10
-110.6334728285
 20
-47.0365757568
 10
-110.608861568
 20
-46.9077775706
 10
-110.5693265458
 20
-46.7947308499
 10
-110.5141103704
 20
-46.6982352893
 10
-110.4439704334
 20
-46.6174911942
 10
-110.362407584
 20
-46.5565288729
 10
-110.2688411242
 20
-46.5163526862
 10
-110.1638517521
 20
-46.4959582734
 10
-110.0526824114
 20
-46.4963628598
 10
-109.93708075
 20
-46.5179055204
 10
-109.8152991201
 20
-46.5602471803
 10
-109.6873375215
 20
-46.6233878393
  0
LWPOLYLINE
  5
259
100
AcDbEntity
  8
RACCORDO
100
AcDbPolyline
 62
253
  6
CONTINUOUS
 90
25
 70
0
 10
-109.6873375215
 20
-46.6233878393
 10
-109.559533366
 20
-46.7078703814
 10
-109.4378661889
 20
-46.806038295
 10
-109.3223359901
 20
-46.9178915802
 10
-109.211184293
 20
-47.0457901818
 10
-109.1061695743
 20
-47.1873741549
 10
-109.0125672636
 20
-47.335563665
 10
-108.930966261
 20
-47.4906916537
 10
-108.8607776666
 20
-47.6524251794
 10
-108.8055102093
 20
-47.8126855837
 10
-108.7659230328
 20
-47.9713962978
 10
-108.7412569934
 20
-48.1286338904
 10
-108.7327433903
 20
-48.2765494097
 10
-108.7412022146
 20
-48.4146696692
 10
-108.7658134751
 20
-48.5434678554
 10
-108.8053484973
 20
-48.6565145761
 10
-108.8605646727
 20
-48.7530101367
 10
-108.9307046097
 20
-48.8337542318
 10
-109.0122674591
 20
-48.8947165531
 10
-109.1058339189
 20
-48.9348927397
 10
-109.210823291
 20
-48.9552871526
 10
-109.3219926317
 20
-48.9548825662
 10
-109.437594293
 20
-48.9333399056
 10
-109.559375923
 20
-48.8909982457
 10
-109.6873375215
 20
-48.8278575867
  0
LWPOLYLINE
  5
25A
100
AcDbEntity
  8
RACCORDO
100
AcDbPolyline
 62
253
  6
CONTINUOUS
 90
25
 70
0
 10
-38.9766594029
 20
-89.6553169194
 10
-39.1044635584
 20
-89.5708343774
 10
-39.2261307355
 20
-89.4726664637
 10
-39.3416609344
 20
-89.3608131786
 10
-39.4528126314
 20
-89.232914577
 10
-39.5578273502
 20
-89.0913306039
 10
-39.6514296609
 20
-88.9431410937
 10
-39.7330306634
 20
-88.7880131051
 10
-39.8032192579
 20
-88.6262795794
 10
-39.8584867151
 20
-88.4660191751
 10
-39.8980738917
 20
-88.307308461
 10
-39.922739931
 20
-88.1500708684
 10
-39.9312535341
 20
-88.002155349
 10
-39.9227947098
 20
-87.8640350895
 10
-39.8981834493
 20
-87.7352369034
 10
-39.8586484272
 20
-87.6221901827
 10
-39.8034322518
 20
-87.5256946221
 10
-39.7332923147
 20
-87.444950527
 10
-39.6517294653
 20
-87.3839882056
 10
-39.5581630055
 20
-87.343812019
 10
-39.4531736334
 20
-87.3234176062
 10
-39.3420042928
 20
-87.3238221925
 10
-39.2264026314
 20
-87.3453648532
 10
-39.1046210014
 20
-87.3877065131
 10
-38.9766594029
 20
-87.4508471721
  0
LWPOLYLINE
  5
25B
100
AcDbEntity
  8
RACCORDO
100
AcDbPolyline
 62
253
  6
CONTINUOUS
 90
25
 70
0
 10
-38.9766594029
 20
-87.4508471721
 10
-38.8488552474
 20
-87.5353297142
 10
-38.7271880702
 20
-87.6334976278
 10
-38.6116578714
 20
-87.745350913
 10
-38.5005061743
 20
-87.8732495145
 10
-38.3954914556
 20
-88.0148334876
 10
-38.3018891449
 20
-88.1630229978
 10
-38.2202881424
 20
-88.3181509864
 10
-38.1500995479
 20
-88.4798845122
 10
-38.0948320907
 20
-88.6401449165
 10
-38.0552449141
 20
-88.7988556305
 10
-38.0305788748
 20
-88.9560932232
 10
-38.0220652717
 20
-89.1040087425
 10
-38.030524096
 20
-89.242129002
 10
-38.0551353564
 20
-89.3709271882
 10
-38.0946703786
 20
-89.4839739089
 10
-38.149886554
 20
-89.5804694694
 10
-38.2200264911
 20
-89.6612135646
 10
-38.3015893404
 20
-89.7221758859
 10
-38.3951558002
 20
-89.7623520725
 10
-38.5001451723
 20
-89.7827464853
 10
-38.611314513
 20
-89.782341899
 10
-38.7269161744
 20
-89.7607992383
 10
-38.8486978043
 20
-89.7184575785
 10
-38.9766594029
 20
-89.6553169194
  0
LWPOLYLINE
  5
25C
100
AcDbEntity
  8
RACCORDO
100
AcDbPolyline
 62
253
  6
CONTINUOUS
 90
25
 70
0
 10
24.3093975133
 20
-126.1958930223
 10
24.1815933578
 20
-126.1114104802
 10
24.0599261807
 20
-126.0132425666
 10
23.9443959818
 20
-125.9013892814
 10
23.8332442848
 20
-125.7734906798
 10
23.728229566
 20
-125.6319067067
 10
23.6346272553
 20
-125.4837171965
 10
23.5530262528
 20
-125.3285892079
 10
23.4828376583
 20
-125.1668556822
 10
23.4275702011
 20
-125.0065952779
 10
23.3879830245
 20
-124.8478845638
 10
23.3633169852
 20
-124.6906469712
 10
23.3548033821
 20
-124.5427314518
 10
23.3632622064
 20
-124.4046111924
 10
23.3878734669
 20
-124.2758130062
 10
23.427408489
 20
-124.1627662855
 10
23.4826246644
 20
-124.0662707249
 10
23.5527646015
 20
-123.9855266298
 10
23.6343274508
 20
-123.9245643085
 10
23.7278939106
 20
-123.8843881219
 10
23.8328832828
 20
-123.863993709
 10
23.9440526234
 20
-123.8643982954
 10
24.0596542848
 20
-123.885940956
 10
24.1814359148
 20
-123.9282826159
 10
24.3093975133
 20
-123.9914232749
  0
LWPOLYLINE
  5
25D
100
AcDbEntity
  8
RACCORDO
100
AcDbPolyline
 62
253
  6
CONTINUOUS
 90
25
 70
0
 10
24.3093975133
 20
-123.9914232749
 10
24.4372016688
 20
-124.075905817
 10
24.558868846
 20
-124.1740737306
 10
24.6743990448
 20
-124.2859270158
 10
24.7855507419
 20
-124.4138256174
 10
24.8905654606
 20
-124.5554095905
 10
24.9841677713
 20
-124.7035991007
 10
25.0657687738
 20
-124.8587270893
 10
25.1359573683
 20
-125.020460615
 10
25.1912248255
 20
-125.1807210193
 10
25.2308120021
 20
-125.3394317334
 10
25.2554780414
 20
-125.496669326
 10
25.2639916445
 20
-125.6445848453
 10
25.2555328202
 20
-125.7827051048
 10
25.2309215597
 20
-125.911503291
 10
25.1913865376
 20
-126.0245500117
 10
25.1361703622
 20
-126.1210455723
 10
25.0660304251
 20
-126.2017896674
 10
24.9844675758
 20
-126.2627519887
 10
24.890901116
 20
-126.3029281753
 10
24.7859117439
 20
-126.3233225882
 10
24.6747424032
 20
-126.3229180018
 10
24.5591407418
 20
-126.3013753412
 10
24.4373591118
 20
-126.2590336813
 10
24.3093975133
 20
-126.1958930223
  0
LWPOLYLINE
  5
25E
100
AcDbEntity
  8
RACCORDO
100
AcDbPolyline
 62
253
  6
CONTINUOUS
 90
15
 70
0
 10
-109.2630734528
 20
-48.0930106646
 10
-109.3421149927
 20
-48.0405336063
 10
-109.4193908898
 20
-47.9755498586
 10
-109.4931749289
 20
-47.8995110435
 10
-109.5618188977
 20
-47.8141157341
 10
-109.6237893992
 20
-47.7212715175
 10
-109.6777021079
 20
-47.6230523844
 10
-109.7223527007
 20
-47.521652387
 10
-109.7567437548
 20
-47.4193366334
 10
-109.7801070268
 20
-47.3183906969
 10
-109.7919206192
 20
-47.2210695459
 10
-109.7919206364
 20
-47.1295471723
 10
-109.780107078
 20
-47.0458680355
 10
-109.7567438389
 20
-46.971901389
 10
-109.7223528155
 20
-46.909299527
  0
LWPOLYLINE
  5
25F
100
AcDbEntity
  8
RACCORDO
100
AcDbPolyline
 62
253
  6
CONTINUOUS
 90
15
 70
0
 10
-38.5523953342
 20
-88.9204699974
 10
-38.6314368741
 20
-88.8679929391
 10
-38.7087127711
 20
-88.8030091913
 10
-38.7824968103
 20
-88.7269703763
 10
-38.851140779
 20
-88.6415750669
 10
-38.9131112806
 20
-88.5487308503
 10
-38.9670239892
 20
-88.4505117172
 10
-39.011674582
 20
-88.3491117198
 10
-39.0460656362
 20
-88.2467959662
 10
-39.0694289081
 20
-88.1458500296
 10
-39.0812425005
 20
-88.0485288787
 10
-39.0812425178
 20
-87.9570065051
 10
-39.0694289594
 20
-87.8733273683
 10
-39.0460657203
 20
-87.7993607218
 10
-39.0116746968
 20
-87.7367588598
  0
LWPOLYLINE
  5
260
100
AcDbEntity
  8
RACCORDO
100
AcDbPolyline
 62
253
  6
CONTINUOUS
 90
15
 70
0
 10
24.733661582
 20
-125.4610461002
 10
24.6546200421
 20
-125.408569042
 10
24.5773441451
 20
-125.3435852942
 10
24.5035601059
 20
-125.2675464791
 10
24.4349161372
 20
-125.1821511698
 10
24.3729456356
 20
-125.0893069531
 10
24.319032927
 20
-124.99108782
 10
24.2743823341
 20
-124.8896878226
 10
24.23999128
 20
-124.787372069
 10
24.2166280081
 20
-124.6864261325
 10
24.2048144157
 20
-124.5891049815
 10
24.2048143984
 20
-124.4975826079
 10
24.2166279568
 20
-124.4139034711
 10
24.2399911959
 20
-124.3399368246
 10
24.2743822194
 20
-124.2773349627
  0
LWPOLYLINE
  5
261
100
AcDbEntity
  8
ASSI
100
AcDbPolyline
 62
7
  6
CONTINUOUS
 90
15
 70
0
 10
-76.8185877673
 20
-64.7500530883
 10
-76.7768791158
 20
-64.8222945918
 10
-76.7333375349
 20
-64.8931519309
 10
-76.6879505868
 20
-64.9626157133
 10
-76.6407307092
 20
-65.0306953313
 10
-76.5919975993
 20
-65.0969298595
 10
-76.5417409886
 20
-65.1613067774
 10
-76.4899711455
 20
-65.2238386054
 10
-76.4370385721
 20
-65.2841019785
 10
-76.3829353785
 20
-65.3420815037
 10
-76.3276694546
 20
-65.3977925739
 10
-76.2716149724
 20
-65.4508580035
 10
-76.2147665809
 20
-65.5012598399
 10
-76.157129631
 20
-65.5490160357
 10
-76.1150690678
 20
-65.581475186
  0
LWPOLYLINE
  5
262
100
AcDbEntity
  8
ASSI
100
AcDbPolyline
 62
7
  6
CONTINUOUS
 90
14
 70
0
 10
-76.8185877673
 20
-64.7500530883
 10
-76.8581811055
 20
-64.6769165239
 10
-76.8956447764
 20
-64.6028788248
 10
-76.930993134
 20
-64.5279460646
 10
-76.963986856
 20
-64.4526255676
 10
-76.9946099646
 20
-64.3769147026
 10
-77.0228784376
 20
-64.3008161007
 10
-77.0486008864
 20
-64.2248449793
 10
-77.0717600345
 20
-64.1490022033
 10
-77.0923731584
 20
-64.0732869077
 10
-77.1103006991
 20
-63.9982117147
 10
-77.1255244332
 20
-63.9237809679
 10
-77.1380625842
 20
-63.8499903237
 10
-77.1451219343
 20
-63.7974836373
  0
LWPOLYLINE
  5
263
100
AcDbEntity
  8
RACCORDO
100
AcDbPolyline
 62
253
  6
CONTINUOUS
 90
20
 70
0
 10
-107.8869800226
 20
56.1196973494
 10
-107.9341470101
 20
56.328847146
 10
-107.9992853012
 20
56.5408205197
 10
-108.0815140514
 20
56.7527510916
 10
-108.1797215397
 20
56.9617734186
 10
-108.292580128
 20
57.1650613495
 10
-108.4185634428
 20
57.3598651028
 10
-108.5559670423
 20
57.5435491764
 10
-108.7029320971
 20
57.7136290363
 10
-108.8574715866
 20
57.8678055048
 10
-109.017496512
 20
58.0039945046
 10
-109.1808434458
 20
58.1203545536
 10
-109.3453028392
 20
58.215311388
 10
-109.5086498132
 20
58.2875803833
 10
-109.6686748464
 20
58.3361842636
 10
-109.8232144735
 20
58.3604662068
 10
-109.9701796042
 20
58.3600979582
 10
-110.1075831665
 20
58.3350841777
 10
-110.2335664122
 20
58.2857629018
 10
-110.2631217731
 20
58.2696782154
  0
LINE
  5
264
100
AcDbEntity
  8
RACCORDO
100
AcDbLine
 62
253
  6
CONTINUOUS
 10
-107.8584222519
 20
55.9161996928
 11
-107.8869800226
 21
56.1196973494
  0
LWPOLYLINE
  5
265
100
AcDbEntity
  8
0
100
AcDbPolyline
 62
7
  6
CONTINUOUS
 90
17
 70
0
 10
-78.7514158446
 20
-64.2812048183
 10
-78.724482367
 20
-64.6139290198
 10
-78.644707822
 20
-64.9650819645
 10
-78.5151307973
 20
-65.3212883461
 10
-78.3372022823
 20
-65.6750298767
 10
-78.1239230864
 20
-66.0004595119
 10
-77.8806779395
 20
-66.2915053749
 10
-77.6167319737
 20
-66.537081619
 10
-77.3372022823
 20
-66.7306945586
 10
-77.0625134285
 20
-66.8581973609
 10
-76.7982873878
 20
-66.9186454228
 10
-76.554588448
 20
-66.9097362963
 10
-76.3372022823
 20
-66.8298048108
 10
-76.1620127757
 20
-66.6846913678
 10
-76.0315858723
 20
-66.4791319738
 10
-75.9508894923
 20
-66.2209563222
 10
-75.9229887199
 20
-65.9143030489
  0
LWPOLYLINE
  5
266
100
AcDbEntity
  8
0
100
AcDbPolyline
 62
7
  6
CONTINUOUS
 90
17
 70
0
 10
-75.9229887199
 20
-65.9143031917
 10
-75.9499221975
 20
-65.5815789902
 10
-76.0296967425
 20
-65.2304260455
 10
-76.1592737673
 20
-64.8742196639
 10
-76.3372022823
 20
-64.5204781333
 10
-76.5504814781
 20
-64.1950484981
 10
-76.793726625
 20
-63.9040026351
 10
-77.0576725908
 20
-63.658426391
 10
-77.3372022823
 20
-63.4648134514
 10
-77.611891136
 20
-63.3373106491
 10
-77.8761171767
 20
-63.2768625872
 10
-78.1198161165
 20
-63.2857717137
 10
-78.3372022823
 20
-63.3657031992
 10
-78.5123917888
 20
-63.5108166422
 10
-78.6428186922
 20
-63.7163760362
 10
-78.7235150722
 20
-63.9745516878
 10
-78.7514158446
 20
-64.2812049611
  0
LWPOLYLINE
  5
267
100
AcDbEntity
  8
ASSI
100
AcDbPolyline
 62
7
  6
CONTINUOUS
 90
51
 70
0
 10
-84.1254273816
 20
-20.0252173839
 10
-84.1241218093
 20
-20.0883628349
 10
-84.1202832347
 20
-20.152550292
 10
-84.1139116577
 20
-20.2177797552
 10
-84.1049812077
 20
-20.284203481
 10
-84.0935177554
 20
-20.3516692128
 10
-84.0795989128
 20
-20.4197201813
 10
-84.0632080184
 20
-20.4883603578
 10
-84.0443617337
 20
-20.5575857709
 10
-84.0231876554
 20
-20.6269277375
 10
-83.9996699879
 20
-20.6963870486
 10
-83.9738245269
 20
-20.7659629132
 10
-83.9458262562
 20
-20.8351842754
 10
-83.9156605675
 20
-20.9040487299
 10
-83.8833420691
 20
-20.972558682
 10
-83.84908957
 20
-21.0402502926
 10
-83.8128899465
 20
-21.1071180086
 10
-83.7747563223
 20
-21.1731673832
 10
-83.7349468769
 20
-21.2379512362
 10
-83.6934502386
 20
-21.30146098
 10
-83.6502777791
 20
-21.3637052023
 10
-83.6057217929
 20
-21.4242624851
 10
-83.5597728917
 20
-21.4831213815
 10
-83.5124404637
 20
-21.5402933386
 10
-83.4640449681
 20
-21.5953912797
 10
-83.4145791911
 20
-21.6484011313
 10
-83.3640503464
 20
-21.6993369669
 10
-83.312800534
 20
-21.7478539311
 10
-83.2608248618
 20
-21.7939356101
 10
-83.2081282219
 20
-21.8375984177
 10
-83.1550673913
 20
-21.8785467395
 10
-83.1016398986
 20
-21.9167621559
 10
-83.0478482152
 20
-21.9522630865
 10
-82.9940565317
 20
-21.9848091761
 10
-82.9402648483
 20
-22.0143803741
 10
-82.8864731649
 20
-22.0409967312
 10
-82.8330456722
 20
-22.0644780442
 10
-82.7799848416
 20
-22.0848030396
 10
-82.7272882017
 20
-22.1019929909
 10
-82.6753125295
 20
-22.1159315154
 10
-82.6240627171
 20
-22.1265965498
 10
-82.5735338724
 20
-22.1340101575
 10
-82.5240680954
 20
-22.1381221453
 10
-82.4756725998
 20
-22.1389101095
 10
-82.4283401718
 20
-22.1363964538
 10
-82.3823912706
 20
-22.1305981967
 10
-82.3378352844
 20
-22.12149305
 10
-82.2946628249
 20
-22.1091033018
 10
-82.2531661866
 20
-22.0935128356
 10
-82.2133567412
 20
-22.0746999324
 10
-82.1940256593
 20
-22.0640615793
  0
LWPOLYLINE
  5
268
100
AcDbEntity
  8
ASSI
100
AcDbPolyline
 62
7
  6
CONTINUOUS
 90
51
 70
0
 10
-84.1254273816
 20
69.7865130633
 10
-84.1241218093
 20
69.7233676123
 10
-84.1202832347
 20
69.6591801552
 10
-84.1139116577
 20
69.593950692
 10
-84.1049812077
 20
69.5275269662
 10
-84.0935177554
 20
69.4600612344
 10
-84.0795989128
 20
69.3920102659
 10
-84.0632080184
 20
69.3233700894
 10
-84.0443617337
 20
69.2541446763
 10
-84.0231876554
 20
69.1848027097
 10
-83.9996699879
 20
69.1153433986
 10
-83.9738245269
 20
69.0457675341
 10
-83.9458262562
 20
68.9765461718
 10
-83.9156605675
 20
68.9076817174
 10
-83.8833420691
 20
68.8391717652
 10
-83.84908957
 20
68.7714801546
 10
-83.8128899465
 20
68.7046124386
 10
-83.7747563223
 20
68.638563064
 10
-83.7349468769
 20
68.5737792111
 10
-83.6934502386
 20
68.5102694672
 10
-83.6502777791
 20
68.448025245
 10
-83.6057217929
 20
68.3874679621
 10
-83.5597728917
 20
68.3286090657
 10
-83.5124404637
 20
68.2714371086
 10
-83.4640449681
 20
68.2163391675
 10
-83.4145791911
 20
68.163329316
 10
-83.3640503464
 20
68.1123934803
 10
-83.312800534
 20
68.0638765161
 10
-83.2608248618
 20
68.0177948371
 10
-83.2081282219
 20
67.9741320295
 10
-83.1550673913
 20
67.9331837077
 10
-83.1016398986
 20
67.8949682914
 10
-83.0478482152
 20
67.8594673608
 10
-82.9940565317
 20
67.8269212711
 10
-82.9402648483
 20
67.7973500731
 10
-82.8864731649
 20
67.770733716
 10
-82.8330456722
 20
67.747252403
 10
-82.7799848416
 20
67.7269274076
 10
-82.7272882017
 20
67.7097374563
 10
-82.6753125295
 20
67.6957989319
 10
-82.6240627171
 20
67.6851338974
 10
-82.5735338724
 20
67.6777202898
 10
-82.5240680954
 20
67.6736083019
 10
-82.4756725998
 20
67.6728203378
 10
-82.4283401718
 20
67.6753339934
 10
-82.3823912706
 20
67.6811322505
 10
-82.3378352844
 20
67.6902373973
 10
-82.2946628249
 20
67.7026271454
 10
-82.2531661866
 20
67.7182176116
 10
-82.2133567412
 20
67.7370305148
 10
-82.1940256593
 20
67.7476688679
  0
LWPOLYLINE
  5
269
100
AcDbEntity
  8
ASSI
100
AcDbPolyline
 62
7
  6
CONTINUOUS
 90
51
 70
0
 10
-81.8626856819
 20
-21.3316960826
 10
-81.8639912542
 20
-21.2685506315
 10
-81.8678298288
 20
-21.2043631744
 10
-81.8742014058
 20
-21.1391337113
 10
-81.8831318558
 20
-21.0727099855
 10
-81.8945953081
 20
-21.0052442537
 10
-81.9085141507
 20
-20.9371932851
 10
-81.9249050451
 20
-20.8685531087
 10
-81.9437513298
 20
-20.7993276956
 10
-81.9649254081
 20
-20.729985729
 10
-81.9884430756
 20
-20.6605264179
 10
-82.0142885366
 20
-20.5909505533
 10
-82.0422868073
 20
-20.521729191
 10
-82.072452496
 20
-20.4528647366
 10
-82.1047709944
 20
-20.3843547845
 10
-82.1390234935
 20
-20.3166631739
 10
-82.175223117
 20
-20.2497954578
 10
-82.2133567412
 20
-20.1837460833
 10
-82.2531661866
 20
-20.1189622303
 10
-82.2946628249
 20
-20.0554524865
 10
-82.3378352844
 20
-19.9932082642
 10
-82.3823912706
 20
-19.9326509814
 10
-82.4283401718
 20
-19.873792085
 10
-82.4756725998
 20
-19.8166201279
 10
-82.5240680954
 20
-19.7615221868
 10
-82.5735338724
 20
-19.7085123352
 10
-82.6240627171
 20
-19.6575764996
 10
-82.6753125295
 20
-19.6090595354
 10
-82.7272882017
 20
-19.5629778564
 10
-82.7799848416
 20
-19.5193150488
 10
-82.8330456722
 20
-19.478366727
 10
-82.8864731649
 20
-19.4401513106
 10
-82.9402648483
 20
-19.40465038
 10
-82.9940565317
 20
-19.3721042904
 10
-83.0478482152
 20
-19.3425330923
 10
-83.1016398986
 20
-19.3159167353
 10
-83.1550673913
 20
-19.2924354223
 10
-83.2081282219
 20
-19.2721104269
 10
-83.2608248618
 20
-19.2549204756
 10
-83.312800534
 20
-19.2409819511
 10
-83.3640503464
 20
-19.2303169167
 10
-83.4145791911
 20
-19.222903309
 10
-83.4640449681
 20
-19.2187913212
 10
-83.5124404637
 20
-19.218003357
 10
-83.5597728917
 20
-19.2205170127
 10
-83.6057217929
 20
-19.2263152697
 10
-83.6502777791
 20
-19.2354204165
 10
-83.6934502386
 20
-19.2478101647
 10
-83.7349468769
 20
-19.2634006308
 10
-83.7747563223
 20
-19.2822135341
 10
-83.7940874042
 20
-19.2928518872
  0
LWPOLYLINE
  5
26A
100
AcDbEntity
  8
ASSI
100
AcDbPolyline
 62
7
  6
CONTINUOUS
 90
51
 70
0
 10
-81.8626856819
 20
68.4800343646
 10
-81.8639912542
 20
68.5431798157
 10
-81.8678298288
 20
68.6073672728
 10
-81.8742014058
 20
68.672596736
 10
-81.8831318558
 20
68.7390204617
 10
-81.8945953081
 20
68.8064861936
 10
-81.9085141507
 20
68.8745371621
 10
-81.9249050451
 20
68.9431773385
 10
-81.9437513298
 20
69.0124027516
 10
-81.9649254081
 20
69.0817447182
 10
-81.9884430756
 20
69.1512040293
 10
-82.0142885366
 20
69.2207798939
 10
-82.0422868073
 20
69.2900012562
 10
-82.072452496
 20
69.3588657106
 10
-82.1047709944
 20
69.4273756627
 10
-82.1390234935
 20
69.4950672733
 10
-82.175223117
 20
69.5619349894
 10
-82.2133567412
 20
69.6279843639
 10
-82.2531661866
 20
69.6927682169
 10
-82.2946628249
 20
69.7562779607
 10
-82.3378352844
 20
69.818522183
 10
-82.3823912706
 20
69.8790794658
 10
-82.4283401718
 20
69.9379383623
 10
-82.4756725998
 20
69.9951103193
 10
-82.5240680954
 20
70.0502082604
 10
-82.5735338724
 20
70.103218112
 10
-82.6240627171
 20
70.1541539476
 10
-82.6753125295
 20
70.2026709118
 10
-82.7272882017
 20
70.2487525909
 10
-82.7799848416
 20
70.2924153984
 10
-82.8330456722
 20
70.3333637202
 10
-82.8864731649
 20
70.3715791366
 10
-82.9402648483
 20
70.4070800672
 10
-82.9940565317
 20
70.4396261568
 10
-83.0478482152
 20
70.4691973549
 10
-83.1016398986
 20
70.4958137119
 10
-83.1550673913
 20
70.5192950249
 10
-83.2081282219
 20
70.5396200203
 10
-83.2608248618
 20
70.5568099716
 10
-83.312800534
 20
70.5707484961
 10
-83.3640503464
 20
70.5814135305
 10
-83.4145791911
 20
70.5888271382
 10
-83.4640449681
 20
70.592939126
 10
-83.5124404637
 20
70.5937270902
 10
-83.5597728917
 20
70.5912134345
 10
-83.6057217929
 20
70.5854151775
 10
-83.6502777791
 20
70.5763100307
 10
-83.6934502386
 20
70.5639202825
 10
-83.7349468769
 20
70.5483298164
 10
-83.7747563223
 20
70.5295169131
 10
-83.7940874042
 20
70.51887856
  0
LWPOLYLINE
  5
26B
100
AcDbEntity
  8
ASSI
100
AcDbPolyline
 62
7
  6
CONTINUOUS
 90
51
 70
0
 10
-78.5746391493
 20
-64.3832734667
 10
-78.5732111796
 20
-64.4523388037
 10
-78.5690127386
 20
-64.5225438349
 10
-78.5620438263
 20
-64.5938885603
 10
-78.5522761466
 20
-64.6665395104
 10
-78.5397379956
 20
-64.7403301546
 10
-78.5245142615
 20
-64.8147609014
 10
-78.5065867207
 20
-64.8898360943
 10
-78.4859735969
 20
-64.9655513899
 10
-78.4628144488
 20
-65.0413941659
 10
-78.4370919999
 20
-65.1173652874
 10
-78.4088235269
 20
-65.1934638893
 10
-78.3782004183
 20
-65.2691747543
 10
-78.3452066963
 20
-65.3444952513
 10
-78.3098583388
 20
-65.4194280114
 10
-78.2723946678
 20
-65.4934657105
 10
-78.2328013297
 20
-65.566602275
 10
-78.1910926782
 20
-65.6388437784
 10
-78.1475510972
 20
-65.7097011176
 10
-78.1021641491
 20
-65.7791648999
 10
-78.0549442716
 20
-65.847244518
 10
-78.0062111616
 20
-65.9134790461
 10
-77.9559545509
 20
-65.9778559641
 10
-77.9041847079
 20
-66.0403877921
 10
-77.8512521345
 20
-66.1006511652
 10
-77.7971489409
 20
-66.1586306903
 10
-77.741883017
 20
-66.2143417606
 10
-77.6858285347
 20
-66.2674071902
 10
-77.6289801432
 20
-66.3178090266
 10
-77.5713431934
 20
-66.3655652224
 10
-77.5133079099
 20
-66.4103524493
 10
-77.4548715898
 20
-66.452150561
 10
-77.396036936
 20
-66.4909797038
 10
-77.3372022823
 20
-66.5265769894
 10
-77.2783676285
 20
-66.5589204872
 10
-77.2195329748
 20
-66.5880321278
 10
-77.1610966546
 20
-66.6137148139
 10
-77.1030613711
 20
-66.6359452776
 10
-77.0454244213
 20
-66.6547467868
 10
-76.9885760298
 20
-66.6699920479
 10
-76.9325215475
 20
-66.6816569294
 10
-76.8772556236
 20
-66.6897655627
 10
-76.82315243
 20
-66.6942630494
 10
-76.7702198567
 20
-66.6951248852
 10
-76.7184500136
 20
-66.6923755744
 10
-76.6681934029
 20
-66.6860337307
 10
-76.6194602929
 20
-66.6760749764
 10
-76.5722404154
 20
-66.6625236893
 10
-76.5268534673
 20
-66.645471617
 10
-76.4833118863
 20
-66.6248950041
 10
-76.4621685156
 20
-66.6132593054
  0
LWPOLYLINE
  5
26C
100
AcDbEntity
  8
ASSI
100
AcDbPolyline
 62
7
  6
CONTINUOUS
 90
51
 70
0
 10
-76.0997654152
 20
-65.8122345433
 10
-76.1011933849
 20
-65.7431692063
 10
-76.1053918259
 20
-65.6729641751
 10
-76.1123607383
 20
-65.6016194497
 10
-76.1221284179
 20
-65.5289684997
 10
-76.1346665689
 20
-65.4551778555
 10
-76.149890303
 20
-65.3807471086
 10
-76.1678178438
 20
-65.3056719157
 10
-76.1884309677
 20
-65.2299566201
 10
-76.2115901157
 20
-65.1541138441
 10
-76.2373125646
 20
-65.0781427226
 10
-76.2655810376
 20
-65.0020441207
 10
-76.2962041462
 20
-64.9263332557
 10
-76.3291978682
 20
-64.8510127587
 10
-76.3645462258
 20
-64.7760799986
 10
-76.4020098967
 20
-64.7020422995
 10
-76.4416032348
 20
-64.628905735
 10
-76.4833118863
 20
-64.5566642316
 10
-76.5268534673
 20
-64.4858068924
 10
-76.5722404154
 20
-64.4163431101
 10
-76.6194602929
 20
-64.348263492
 10
-76.6681934029
 20
-64.2820289639
 10
-76.7184500136
 20
-64.2176520459
 10
-76.7702198567
 20
-64.1551202179
 10
-76.82315243
 20
-64.0948568448
 10
-76.8772556236
 20
-64.0368773197
 10
-76.9325215475
 20
-63.9811662494
 10
-76.9885760298
 20
-63.9281008198
 10
-77.0454244213
 20
-63.8776989834
 10
-77.1030613711
 20
-63.8299427876
 10
-77.1610966546
 20
-63.7851555607
 10
-77.2195329748
 20
-63.743357449
 10
-77.2783676285
 20
-63.7045283062
 10
-77.3372022823
 20
-63.6689310206
 10
-77.396036936
 20
-63.6365875228
 10
-77.4548715898
 20
-63.6074758822
 10
-77.5133079099
 20
-63.5817931961
 10
-77.5713431934
 20
-63.5595627324
 10
-77.6289801432
 20
-63.5407612232
 10
-77.6858285347
 20
-63.5255159621
 10
-77.741883017
 20
-63.5138510806
 10
-77.7971489409
 20
-63.5057424473
 10
-77.8512521345
 20
-63.5012449606
 10
-77.9041847079
 20
-63.5003831248
 10
-77.9559545509
 20
-63.5031324357
 10
-78.0062111616
 20
-63.5094742793
 10
-78.0549442716
 20
-63.5194330336
 10
-78.1021641491
 20
-63.5329843207
 10
-78.1475510972
 20
-63.550036393
 10
-78.1910926782
 20
-63.5706130059
 10
-78.212236049
 20
-63.5822487046
  0
LINE
  5
26D
100
AcDbEntity
  8
0
100
AcDbLine
 62
7
  6
CONTINUOUS
 10
-87.2366972189
 20
-2.2259917481
 11
-87.2366972189
 21
-39.0488012315
  0
LINE
  5
26E
100
AcDbEntity
  8
0
100
AcDbLine
 62
253
  6
CONTINUOUS
 10
-87.2366972189
 20
-2.2259917481
 11
-87.2366972189
 21
133.633253938
  0
LINE
  5
26F
100
AcDbEntity
  8
0
100
AcDbLine
 62
253
  6
CONTINUOUS
 10
-85.8224836565
 20
132.7639337896
 11
-85.8224836565
 21
-1.4096003812
  0
LINE
  5
270
100
AcDbEntity
  8
0
100
AcDbLine
 62
7
  6
CONTINUOUS
 10
-85.8224836565
 20
-1.4096003812
 11
-85.8224836565
 21
-3.0425409348
  0
LWPOLYLINE
  5
271
100
AcDbEntity
  8
0
100
AcDbPolyline
 62
7
  6
CONTINUOUS
 90
37
 70
0
 10
-87.2366972189
 20
-39.0488012315
 10
-87.2373808748
 20
-39.0849221574
 10
-87.2393973403
 20
-39.1216100248
 10
-87.2427466154
 20
-39.1588648335
 10
-87.2474401352
 20
-39.1967595661
 10
-87.2534664647
 20
-39.23522124
 10
-87.2607912982
 20
-39.2740309083
 10
-87.2694220417
 20
-39.3131905557
 10
-87.2793512892
 20
-39.3526981975
 10
-87.2905225176
 20
-39.3923289323
 10
-87.3029428104
 20
-39.4320834623
 10
-87.3166050839
 20
-39.4719610852
 10
-87.3314315644
 20
-39.5117347937
 10
-87.3474288917
 20
-39.551403995
 10
-87.3645904259
 20
-39.5909692819
 10
-87.3828184733
 20
-39.6302054249
 10
-87.4021191165
 20
-39.6691105467
 10
-87.4224862728
 20
-39.7076865245
 10
-87.4438040001
 20
-39.7457137607
 10
-87.4660777198
 20
-39.7831891254
 10
-87.4893020105
 20
-39.8201157485
 10
-87.5133446655
 20
-39.8562834213
 10
-87.5382103522
 20
-39.8916878152
 10
-87.5638944033
 20
-39.9263332588
 10
-87.5902506095
 20
-39.9600225293
 10
-87.6172828044
 20
-39.9927501733
 10
-87.6449871546
 20
-40.0245216442
 10
-87.67320595
 20
-40.0551560797
 10
-87.7019421248
 20
-40.0846469948
 10
-87.7311927449
 20
-40.1130008744
 10
-87.7607912982
 20
-40.1400563112
 10
-87.7907397689
 20
-40.1658058996
 10
-87.8210361728
 20
-40.1902570451
 10
-87.8515080444
 20
-40.2132705572
 10
-87.8820978953
 20
-40.2348000388
 10
-87.9128632138
 20
-40.254891887
 10
-87.9438040001
 20
-40.2735461016
  0
LWPOLYLINE
  5
272
100
AcDbEntity
  8
ASSI
100
AcDbPolyline
 62
7
  6
CONTINUOUS
 90
45
 70
0
 10
-53.767369532
 20
103.5059595677
 10
-53.7745269936
 20
103.4779042555
 10
-53.7914585937
 20
103.3957476705
 10
-53.8050255516
 20
103.3109072744
 10
-53.8152454623
 20
103.2233971019
 10
-53.8220646951
 20
103.1336763773
 10
-53.825465373
 20
103.0417334803
 10
-53.825465373
 20
102.9475800313
 10
-53.8220646951
 20
102.8517101166
 10
-53.8152454623
 20
102.754114713
 10
-53.8050255516
 20
102.6548028437
 10
-53.7914585937
 20
102.5542956647
 10
-53.7745269936
 20
102.4525868924
 10
-53.7542483463
 20
102.3496828103
 10
-53.7307290674
 20
102.2461234252
 10
-53.7039521215
 20
102.1419052922
 10
-53.6739345439
 20
102.0370318562
 10
-53.6408338572
 20
101.9320534584
 10
-53.6046338538
 20
101.826969547
 10
-53.5653507411
 20
101.7217806738
 10
-53.5231906641
 20
101.6170388353
 10
-53.4781384989
 20
101.5127463816
 10
-53.4302093694
 20
101.4089009625
 10
-53.3796547917
 20
101.3060475247
 10
-53.3264609643
 20
101.2041912829
 10
-53.2706416888
 20
101.1033270223
 10
-53.2124898863
 20
101.0039840454
 10
-53.1519932951
 20
100.9061703493
 10
-53.089164177
 20
100.8098779368
 10
-53.0243322384
 20
100.7156121188
 10
-52.9574869509
 20
100.6233835488
 10
-52.8886388428
 20
100.5331815733
 10
-52.8181492065
 20
100.4454795425
 10
-52.7460094127
 20
100.3602905982
 10
-52.6722280906
 20
100.2776015987
 10
-52.5971924202
 20
100.1978464686
 10
-52.5208958077
 20
100.1210406306
 10
-52.443344847
 20
100.0471686621
 10
-52.3649465
 20
99.9766182185
 10
-52.2856963121
 20
99.9094067609
 10
-52.2055987378
 20
99.8455168283
 10
-52.1250741028
 20
99.7852836941
 10
-52.0442625157
 20
99.728819116
 10
-51.963023868
 20
99.6760113363
 10
-51.8813581595
 20
99.6268603549
  0
LINE
  5
273
100
AcDbEntity
  8
RACCORDO
100
AcDbLine
 62
253
  6
CONTINUOUS
 10
-108.9212677579
 20
55.8740017646
 11
-108.9643278324
 21
55.8592138147
  0
LWPOLYLINE
  5
274
100
AcDbEntity
  8
RACCORDO
100
AcDbPolyline
 62
253
  6
CONTINUOUS
 90
5
 70
0
 10
-38.2536497137
 20
-88.9865587815
 10
-38.322293689
 20
-88.9926857968
 10
-38.3960777617
 20
-88.9835206793
 10
-38.4733537159
 20
-88.9592681598
 10
-38.5523953342
 20
-88.9204699974
  0
LINE
  5
275
100
AcDbEntity
  8
0
100
AcDbLine
 62
7
  6
CONTINUOUS
 10
91.9441611338
 20
-154.7554780877
 11
37.9212030511
 21
-123.5632991574
  0
LINE
  5
276
100
AcDbEntity
  8
0
100
AcDbLine
 62
7
  6
CONTINUOUS
 10
21.6577470839
 20
-114.1729835109
 11
-32.7894750675
 21
-82.7358398247
  0
LINE
  5
277
100
AcDbEntity
  8
0
100
AcDbLine
 62
7
  6
CONTINUOUS
 10
-49.0529310348
 20
-73.3455241781
 11
-103.5001531862
 21
-41.9083804919
  0
LINE
  5
278
100
AcDbEntity
  8
0
100
AcDbLine
 62
253
  6
CONTINUOUS
 10
-87.9438040001
 20
-40.2735461016
 11
-49.0529310348
 21
-62.7286487346
  0
LINE
  5
279
100
AcDbEntity
  8
0
100
AcDbLine
 62
253
  6
CONTINUOUS
 10
-33.4965818487
 20
-71.7106897878
 11
21.6577470839
 21
-103.5561080674
  0
LINE
  5
27A
100
AcDbEntity
  8
0
100
AcDbLine
 62
253
  6
CONTINUOUS
 10
37.21409627
 20
-112.5381491206
 11
91.9441611338
 21
-144.1386026442
  0
LINE
  5
27B
100
AcDbEntity
  8
0
100
AcDbLine
 62
253
  6
CONTINUOUS
 10
-87.2366972189
 20
-39.0488012315
 11
-49.0529310348
 21
-61.0956292712
  0
LINE
  5
27C
100
AcDbEntity
  8
0
100
AcDbLine
 62
253
  6
CONTINUOUS
 10
-33.4965818487
 20
-70.0776703244
 11
21.6577470839
 21
-101.923088604
  0
LINE
  5
27D
100
AcDbEntity
  8
0
100
AcDbLine
 62
253
  6
CONTINUOUS
 10
37.21409627
 20
-110.9051296572
 11
91.9441611338
 21
-142.5055831807
  0
LWPOLYLINE
  5
27E
100
AcDbEntity
  8
0
100
AcDbPolyline
 62
7
  6
CONTINUOUS
 90
31
 70
0
 10
-34.2036886299
 20
-83.5523890113
 10
-34.2408632235
 20
-83.5297804646
 10
-34.2777351806
 20
-83.5051403574
 10
-34.3143045009
 20
-83.4784686898
 10
-34.3506695795
 20
-83.4496813736
 10
-34.3867320215
 20
-83.4188624969
 10
-34.4221966421
 20
-83.3862643239
 10
-34.4570585345
 20
-83.3518722506
 10
-34.4913226056
 20
-83.3157008809
 10
-34.5247083908
 20
-83.2780462913
 10
-34.5572086816
 20
-83.2388963078
 10
-34.5888306865
 20
-83.1982631043
 10
-34.6193155677
 20
-83.156479279
 10
-34.6486539917
 20
-83.1135353879
 10
-34.6768552919
 20
-83.0694408749
 10
-34.7036886299
 20
-83.0245566704
 10
-34.7291427778
 20
-82.9788762927
 10
-34.7532289636
 20
-82.9324062235
 10
-34.7757500327
 20
-82.8855268378
 10
-34.796693139
 20
-82.8382347761
 10
-34.8160711285
 20
-82.790533398
 10
-34.8337253852
 20
-82.7428131572
 10
-34.849641761
 20
-82.695073899
 10
-34.8638344039
 20
-82.6473157782
 10
-34.8761871418
 20
-82.599929713
 10
-34.8866848732
 20
-82.5529187573
 10
-34.8953426995
 20
-82.5062798573
 10
-34.9020897532
 20
-82.4603947699
 10
-34.9069024118
 20
-82.4153907476
 10
-34.9098042977
 20
-82.3711405381
 10
-34.9107954111
 20
-82.3276441412
  0
LWPOLYLINE
  5
27F
100
AcDbEntity
  8
0
100
AcDbPolyline
 62
7
  6
CONTINUOUS
 90
31
 70
0
 10
36.5069894888
 20
-124.3798483441
 10
36.4698148951
 20
-124.3572397974
 10
36.4329429381
 20
-124.3325996902
 10
36.3963736177
 20
-124.3059280225
 10
36.3600085391
 20
-124.2771407064
 10
36.3239460971
 20
-124.2463218297
 10
36.2884814766
 20
-124.2137236567
 10
36.2536195841
 20
-124.1793315834
 10
36.2193555131
 20
-124.1431602137
 10
36.1859697278
 20
-124.1055056241
 10
36.1534694371
 20
-124.0663556406
 10
36.1218474321
 20
-124.0257224371
 10
36.091362551
 20
-123.9839386118
 10
36.062024127
 20
-123.9409947206
 10
36.0338228268
 20
-123.8969002077
 10
36.0069894888
 20
-123.8520160031
 10
35.9815353408
 20
-123.8063356255
 10
35.957449155
 20
-123.7598655562
 10
35.934928086
 20
-123.7129861706
 10
35.9139849797
 20
-123.6656941089
 10
35.8946069901
 20
-123.6179927307
 10
35.8769527334
 20
-123.57027249
 10
35.8610363576
 20
-123.5225332318
 10
35.8468437147
 20
-123.474775111
 10
35.8344909768
 20
-123.4273890458
 10
35.8239932455
 20
-123.3803780901
 10
35.8153354191
 20
-123.33373919
 10
35.8085883654
 20
-123.2878541027
 10
35.8037757069
 20
-123.2428500804
 10
35.8008738209
 20
-123.1985998708
 10
35.7998827076
 20
-123.155103474
  0
LWPOLYLINE
  5
280
100
AcDbEntity
  8
ASSI
100
AcDbPolyline
 62
7
  6
CONTINUOUS
 90
28
 70
0
 10
-5.4043909491
 20
-106.4089345188
 10
-5.4464515123
 20
-106.3764753685
 10
-5.5040884622
 20
-106.3287191727
 10
-5.5609368537
 20
-106.2783173363
 10
-5.616991336
 20
-106.2252519067
 10
-5.6722572599
 20
-106.1695408364
 10
-5.7263604535
 20
-106.1115613113
 10
-5.7792930268
 20
-106.0512979382
 10
-5.8310628699
 20
-105.9887661102
 10
-5.8813194806
 20
-105.9243891922
 10
-5.9300525905
 20
-105.8581546641
 10
-5.9772724681
 20
-105.790075046
 10
-6.0226594162
 20
-105.7206112637
 10
-6.0662009972
 20
-105.6497539245
 10
-6.1079096487
 20
-105.5775124211
 10
-6.1475029868
 20
-105.5043758566
 10
-6.1849666577
 20
-105.4303381575
 10
-6.2203150153
 20
-105.3554053974
 10
-6.2533087373
 20
-105.2800849004
 10
-6.2839318459
 20
-105.2043740354
 10
-6.3122003189
 20
-105.1282754335
 10
-6.3379227678
 20
-105.052304312
 10
-6.3610819158
 20
-104.976461536
 10
-6.3816950397
 20
-104.9007462405
 10
-6.3996225805
 20
-104.8256710475
 10
-6.4148463146
 20
-104.7512403007
 10
-6.4273844656
 20
-104.6774496565
 10
-6.4344438157
 20
-104.6249429701
  0
LWPOLYLINE
  5
281
100
AcDbEntity
  8
ASSI
100
AcDbPolyline
 62
7
  6
CONTINUOUS
 90
28
 70
0
 10
65.3062871695
 20
-147.2363938516
 10
65.2642266063
 20
-147.2039347013
 10
65.2065896564
 20
-147.1561785055
 10
65.1497412649
 20
-147.1057766691
 10
65.0936867827
 20
-147.0527112395
 10
65.0384208588
 20
-146.9970001692
 10
64.9843176652
 20
-146.9390206441
 10
64.9313850918
 20
-146.878757271
 10
64.8796152487
 20
-146.816225443
 10
64.8293586381
 20
-146.751848525
 10
64.7806255281
 20
-146.6856139969
 10
64.7334056506
 20
-146.6175343788
 10
64.6880187024
 20
-146.5480705965
 10
64.6444771215
 20
-146.4772132573
 10
64.60276847
 20
-146.4049717539
 10
64.5631751318
 20
-146.3318351894
 10
64.5257114609
 20
-146.2577974903
 10
64.4903631034
 20
-146.1828647302
 10
64.4573693813
 20
-146.1075442332
 10
64.4267462728
 20
-146.0318333682
 10
64.3984777997
 20
-145.9557347663
 10
64.3727553509
 20
-145.8797636448
 10
64.3495962028
 20
-145.8039208688
 10
64.3289830789
 20
-145.7282055732
 10
64.3110555382
 20
-145.6531303803
 10
64.2958318041
 20
-145.5786996334
 10
64.2832936531
 20
-145.5049089892
 10
64.276234303
 20
-145.4524023029
  0
LWPOLYLINE
  5
282
100
AcDbEntity
  8
ASSI
100
AcDbPolyline
 62
7
  6
CONTINUOUS
 90
22
 70
0
 10
-82.6606688306
 20
-19.6229223728
 10
-82.648994456
 20
-19.6718111711
 10
-82.6301481713
 20
-19.7410365842
 10
-82.6089740931
 20
-19.8103785509
 10
-82.5854564256
 20
-19.8798378619
 10
-82.5596109645
 20
-19.9494137265
 10
-82.5316126938
 20
-20.0186350888
 10
-82.5014470051
 20
-20.0874995432
 10
-82.4691285067
 20
-20.1560094953
 10
-82.4348760076
 20
-20.2237011059
 10
-82.3986763842
 20
-20.290568822
 10
-82.3605427599
 20
-20.3566181966
 10
-82.3207333145
 20
-20.4214020495
 10
-82.2792366762
 20
-20.4849117934
 10
-82.2360642168
 20
-20.5471560156
 10
-82.1915082305
 20
-20.6077132985
 10
-82.1455593293
 20
-20.6665721949
 10
-82.0982269013
 20
-20.7237441519
 10
-82.0498314057
 20
-20.778842093
 10
-82.0003656287
 20
-20.8318519446
 10
-81.949836784
 20
-20.8827877803
 10
-81.9132306705
 20
-20.9174419071
  0
LWPOLYLINE
  5
283
100
AcDbEntity
  8
ASSI
100
AcDbPolyline
 62
7
  6
CONTINUOUS
 90
76
 70
0
 10
-70.619687861
 20
-7.329858169
 10
-70.616636521
 20
-7.5521800088
 10
-70.6075646573
 20
-7.7773142189
 10
-70.5924722698
 20
-8.0052607991
 10
-70.5713320559
 20
-8.2362547782
 10
-70.5441713182
 20
-8.4700611275
 10
-70.5110719649
 20
-8.7059747609
 10
-70.4720160691
 20
-8.9440020399
 10
-70.4270215578
 20
-9.1841366029
 10
-70.3762241201
 20
-9.4256542803
 10
-70.3196062387
 20
-9.6685592471
 10
-70.257185431
 20
-9.9128473283
 10
-70.1891499383
 20
-10.157781828
 10
-70.1154828116
 20
-10.4033646978
 10
-70.036201
 20
-10.6495939862
 10
-69.9515435923
 20
-10.8957271437
 10
-69.8614943611
 20
-11.1417638799
 10
-69.766069534
 20
-11.3877044851
 10
-69.6655568819
 20
-11.6328072802
 10
-69.5599410461
 20
-11.877069736
 10
-69.4492373854
 20
-12.1204943818
 10
-69.3337797471
 20
-12.3623471257
 10
-69.21355378
 20
-12.6026232226
 10
-69.0885738353
 20
-12.8413274176
 10
-68.9592168129
 20
-13.0777398544
 10
-68.8254694996
 20
-13.3118536148
 10
-68.6873451086
 20
-13.5436756169
 10
-68.5452601794
 20
-13.772506759
 10
-68.3992027562
 20
-13.9983380124
 10
-68.2491847948
 20
-14.2211784057
 10
-68.0956587019
 20
-14.4403559228
 10
-67.9386138874
 20
-14.6558595064
 10
-67.7780609415
 20
-14.8677002138
 10
-67.6144840409
 20
-15.0752392003
 10
-67.4478740574
 20
-15.2784634803
 10
-67.2782401192
 20
-15.4773860395
 10
-67.1060937889
 20
-15.6714069903
 10
-66.931427482
 20
-15.8605115361
 10
-66.7542487829
 20
-16.0447144736
 10
-66.5750920064
 20
-16.2234603049
 10
-66.3939511814
 20
-16.3967325566
 10
-66.2108322791
 20
-16.564547702
 10
-66.0262875281
 20
-16.7263996639
 10
-65.8403126243
 20
-16.882270441
 10
-65.6529118718
 20
-17.0321780345
 10
-65.4646504122
 20
-17.1756703705
 10
-65.275525647
 20
-17.3127280831
 10
-65.0855401747
 20
-17.4433705383
 10
-64.8952669313
 20
-17.5672037596
 10
-64.7047050481
 20
-17.6842071919
 10
-64.5138553937
 20
-17.7944013904
 10
-64.3232935105
 20
-17.8974540443
 10
-64.1330202671
 20
-17.9933435951
 10
-63.9430347948
 20
-18.0820916012
 10
-63.7539100296
 20
-18.1634304267
 10
-63.56564857
 20
-18.2373377054
 10
-63.3782478175
 20
-18.3038358035
 10
-63.1922729137
 20
-18.3627241837
 10
-63.0077281627
 20
-18.4139798745
 10
-62.8246092604
 20
-18.4576258474
 10
-62.6434684353
 20
-18.49353048
 10
-62.4643116589
 20
-18.5216704035
 10
-62.2871329598
 20
-18.5420689866
 10
-62.1124666529
 20
-18.5546647137
 10
-61.9403203226
 20
-18.5594340302
 10
-61.7706863844
 20
-18.5564004908
 10
-61.6040764009
 20
-18.5455732436
 10
-61.4404995003
 20
-18.5269287616
 10
-61.2799465544
 20
-18.5004905718
 10
-61.1229017399
 20
-18.4663384034
 10
-60.969375647
 20
-18.4244489702
 10
-60.8193576856
 20
-18.3748455584
 10
-60.6733002624
 20
-18.3176777562
 10
-60.5312153332
 20
-18.252922729
 10
-60.3930909422
 20
-18.1806033113
 10
-60.3590794485
 20
-18.1612816271
  0
LWPOLYLINE
  5
284
100
AcDbEntity
  8
ASSI
100
AcDbPolyline
 62
7
  6
CONTINUOUS
 90
70
 70
0
 10
-69.2054742986
 20
-6.5133089823
 10
-69.2024229586
 20
-6.7356308222
 10
-69.1933510949
 20
-6.9607650322
 10
-69.1782587075
 20
-7.1887116125
 10
-69.1571184935
 20
-7.4197055916
 10
-69.1299577558
 20
-7.6535119408
 10
-69.0968584026
 20
-7.8894255743
 10
-69.0578025068
 20
-8.1274528532
 10
-69.0128079954
 20
-8.3675874163
 10
-68.9620105577
 20
-8.6091050936
 10
-68.9053926763
 20
-8.8520100605
 10
-68.8429718686
 20
-9.0962981416
 10
-68.7749363759
 20
-9.3412326414
 10
-68.7012692492
 20
-9.5868155111
 10
-68.6219874376
 20
-9.8330447996
 10
-68.5373300299
 20
-10.079177957
 10
-68.4472807988
 20
-10.3252146932
 10
-68.3518559716
 20
-10.5711552984
 10
-68.2513433195
 20
-10.8162580935
 10
-68.1457274838
 20
-11.0605205494
 10
-68.0350238231
 20
-11.3039451951
 10
-67.9195661847
 20
-11.545797939
 10
-67.7993402177
 20
-11.7860740359
 10
-67.674360273
 20
-12.024778231
 10
-67.5450032505
 20
-12.2611906678
 10
-67.4112559373
 20
-12.4953044281
 10
-67.2731315462
 20
-12.7271264303
 10
-67.131046617
 20
-12.9559575723
 10
-66.9849891938
 20
-13.1817888257
 10
-66.8349712324
 20
-13.4046292191
 10
-66.6814451395
 20
-13.6238067361
 10
-66.524400325
 20
-13.8393103197
 10
-66.3638473791
 20
-14.0511510271
 10
-66.2002704786
 20
-14.2586900136
 10
-66.033660495
 20
-14.4619142936
 10
-65.8640265569
 20
-14.6608368528
 10
-65.6918802265
 20
-14.8548578036
 10
-65.5172139196
 20
-15.0439623495
 10
-65.3400352205
 20
-15.228165287
 10
-65.1608784441
 20
-15.4069111183
 10
-64.9797376191
 20
-15.5801833699
 10
-64.7966187167
 20
-15.7479985154
 10
-64.6120739657
 20
-15.9098504772
 10
-64.4260990619
 20
-16.0657212543
 10
-64.2386983094
 20
-16.2156288478
 10
-64.0504368498
 20
-16.3591211838
 10
-63.8613120847
 20
-16.4961788965
 10
-63.6713266123
 20
-16.6268213516
 10
-63.4810533689
 20
-16.7506545729
 10
-63.2904914857
 20
-16.8676580053
 10
-63.0996418314
 20
-16.9778522038
 10
-62.9090799481
 20
-17.0809048576
 10
-62.7188067047
 20
-17.1767944084
 10
-62.5288212324
 20
-17.2655424146
 10
-62.3396964673
 20
-17.3468812401
 10
-62.1514350076
 20
-17.4207885188
 10
-61.9640342552
 20
-17.4872866168
 10
-61.7780593513
 20
-17.546174997
 10
-61.5935146003
 20
-17.5974306878
 10
-61.410395698
 20
-17.6410766608
 10
-61.229254873
 20
-17.6769812934
 10
-61.0500980965
 20
-17.7051212168
 10
-60.8729193974
 20
-17.7255197999
 10
-60.6982530906
 20
-17.738115527
 10
-60.5261067602
 20
-17.7428848436
 10
-60.356472822
 20
-17.7398513041
 10
-60.1898628385
 20
-17.7290240569
 10
-60.026285938
 20
-17.7103795749
 10
-59.865732992
 20
-17.6839413851
 10
-59.7129743358
 20
-17.6507213176
  0
LWPOLYLINE
  5
285
100
AcDbEntity
  8
ASSI
100
AcDbPolyline
 62
7
  6
CONTINUOUS
 90
76
 70
0
 10
-58.5988725808
 20
-14.2705262556
 10
-58.6019239208
 20
-14.0482044157
 10
-58.6109957845
 20
-13.8230702056
 10
-58.626088172
 20
-13.5951236254
 10
-58.6472283859
 20
-13.3641296463
 10
-58.6743891236
 20
-13.130323297
 10
-58.7074884769
 20
-12.8944096636
 10
-58.7465443727
 20
-12.6563823847
 10
-58.791538884
 20
-12.4162478216
 10
-58.8423363217
 20
-12.1747301442
 10
-58.8989542031
 20
-11.9318251774
 10
-58.9613750108
 20
-11.6875370963
 10
-59.0294105035
 20
-11.4426025965
 10
-59.1030776302
 20
-11.1970197267
 10
-59.1823594418
 20
-10.9507904383
 10
-59.2670168495
 20
-10.7046572809
 10
-59.3570660807
 20
-10.4586205447
 10
-59.4524909078
 20
-10.2126799394
 10
-59.5530035599
 20
-9.9675771444
 10
-59.6586193957
 20
-9.7233146885
 10
-59.7693230564
 20
-9.4798900427
 10
-59.8847806947
 20
-9.2380372988
 10
-60.0050066618
 20
-8.9977612019
 10
-60.1299866065
 20
-8.7590570069
 10
-60.2593436289
 20
-8.5226445701
 10
-60.3930909422
 20
-8.2885308097
 10
-60.5312153332
 20
-8.0567088076
 10
-60.6733002624
 20
-7.8278776655
 10
-60.8193576856
 20
-7.6020464121
 10
-60.969375647
 20
-7.3792060188
 10
-61.1229017399
 20
-7.1600285018
 10
-61.2799465544
 20
-6.9445249181
 10
-61.4404995003
 20
-6.7326842108
 10
-61.6040764009
 20
-6.5251452242
 10
-61.7706863844
 20
-6.3219209442
 10
-61.9403203226
 20
-6.1229983851
 10
-62.1124666529
 20
-5.9289774342
 10
-62.2871329598
 20
-5.7398728884
 10
-62.4643116589
 20
-5.5556699509
 10
-62.6434684353
 20
-5.3769241196
 10
-62.8246092604
 20
-5.203651868
 10
-63.0077281627
 20
-5.0358367225
 10
-63.1922729137
 20
-4.8739847606
 10
-63.3782478175
 20
-4.7181139835
 10
-63.56564857
 20
-4.5682063901
 10
-63.7539100296
 20
-4.4247140541
 10
-63.9430347948
 20
-4.2876563414
 10
-64.1330202671
 20
-4.1570138862
 10
-64.3232935105
 20
-4.0331806649
 10
-64.5138553937
 20
-3.9161772326
 10
-64.7047050481
 20
-3.8059830341
 10
-64.8952669313
 20
-3.7029303803
 10
-65.0855401747
 20
-3.6070408295
 10
-65.275525647
 20
-3.5182928233
 10
-65.4646504122
 20
-3.4369539978
 10
-65.6529118718
 20
-3.3630467191
 10
-65.8403126243
 20
-3.2965486211
 10
-66.0262875281
 20
-3.2376602408
 10
-66.2108322791
 20
-3.18640455
 10
-66.3939511814
 20
-3.1427585771
 10
-66.5750920064
 20
-3.1068539445
 10
-66.7542487829
 20
-3.0787140211
 10
-66.931427482
 20
-3.058315438
 10
-67.1060937889
 20
-3.0457197108
 10
-67.2782401192
 20
-3.0409503943
 10
-67.4478740574
 20
-3.0439839337
 10
-67.6144840409
 20
-3.054811181
 10
-67.7780609415
 20
-3.073455663
 10
-67.9386138874
 20
-3.0998938528
 10
-68.0956587019
 20
-3.1340460211
 10
-68.2491847948
 20
-3.1759354543
 10
-68.3992027562
 20
-3.2255388661
 10
-68.5452601794
 20
-3.2827066683
 10
-68.6873451086
 20
-3.3474616956
 10
-68.8254694996
 20
-3.4197811132
 10
-68.8594809933
 20
-3.4391027975
  0
LWPOLYLINE
  5
286
100
AcDbEntity
  8
RACCORDO
100
AcDbPolyline
 62
7
  6
CONTINUOUS
 90
20
 70
0
 10
-108.9286126329
 20
-48.1661350726
 10
-108.9288898363
 20
-48.1666025539
 10
-108.9253080842
 20
-48.1582184119
 10
-108.9185189413
 20
-48.134849997
 10
-108.9120246953
 20
-48.0966133001
 10
-108.9085894122
 20
-48.0439101147
 10
-108.9104716878
 20
-47.9780143834
 10
-108.9193831448
 20
-47.9004023719
 10
-108.9367909977
 20
-47.8119562578
 10
-108.9636007823
 20
-47.7151345767
 10
-108.9999170915
 20
-47.6132555604
 10
-109.045717791
 20
-47.5085296898
 10
-109.1003946593
 20
-47.4037545981
 10
-109.1620660101
 20
-47.3029842619
 10
-109.2292098576
 20
-47.2084785932
 10
-109.3000063892
 20
-47.1223222545
 10
-109.371155454
 20
-47.0475109292
 10
-109.4399151145
 20
-46.9853259854
 10
-109.5045461804
 20
-46.9355911722
 10
-109.5630879489
 20
-46.898029956
  0
LWPOLYLINE
  5
287
100
AcDbEntity
  8
RACCORDO
100
AcDbPolyline
 62
253
  6
CONTINUOUS
 90
6
 70
0
 10
-108.081514338
 20
-49.0601892599
 10
-107.9992854843
 20
-48.9432143651
 10
-107.9341471102
 20
-48.8064610019
 10
-107.8869800679
 20
-48.6517783949
 10
-107.8584222634
 20
-48.4812584482
 10
-107.8488598905
 20
-48.2972071436
  0
LINE
  5
288
100
AcDbEntity
  8
ASSI
100
AcDbLine
 62
7
  6
CONTINUOUS
 10
-127.2759957948
 20
93.6587694389
 11
-129.6417856391
 21
97.893588175
  0
LINE
  5
289
100
AcDbEntity
  8
ASSI
100
AcDbLine
 62
7
  6
CONTINUOUS
 10
-125.8617822324
 20
92.8422202523
 11
-128.2275720767
 21
97.0770389883
  0
LWPOLYLINE
  5
28A
100
AcDbEntity
  8
ASSI
100
AcDbPolyline
 62
7
  6
CONTINUOUS
 90
22
 70
0
 10
-129.6417856391
 20
97.893588175
 10
-129.8056340084
 20
98.1977934506
 10
-129.9618471793
 20
98.5100203661
 10
-130.1104251515
 20
98.8302689214
 10
-130.2514301503
 20
99.1586960902
 10
-130.3847999506
 20
99.4951448989
 10
-130.510347877
 20
99.8391444262
 10
-130.6280629764
 20
100.1907052455
 10
-130.7379562019
 20
100.5498167834
 10
-130.839873738
 20
100.9159763979
 10
-130.9338044162
 20
101.2891939587
 10
-131.0197594049
 20
101.6694595962
 10
-131.0976183946
 20
102.0562410594
 10
-131.1673700481
 20
102.4495474727
 10
-131.2290257027
 20
102.8493697117
 10
-131.2824990599
 20
103.2551481525
 10
-131.3277786618
 20
103.6668911359
 10
-131.3648759664
 20
104.084590321
 10
-131.3937390493
 20
104.507661062
 10
-131.4143506023
 20
104.9359084769
 10
-131.4267279335
 20
105.3695274476
 10
-131.430871043
 20
105.8085179741
  0
LWPOLYLINE
  5
28B
100
AcDbEntity
  8
ASSI
100
AcDbPolyline
 62
7
  6
CONTINUOUS
 90
22
 70
0
 10
-128.2275720767
 20
97.0770389883
 10
-128.3914204461
 20
97.3812442639
 10
-128.5476336169
 20
97.6934711794
 10
-128.6962115891
 20
98.0137197347
 10
-128.837216588
 20
98.3421469036
 10
-128.9705863882
 20
98.6785957123
 10
-129.0961343147
 20
99.0225952395
 10
-129.213849414
 20
99.3741560588
 10
-129.3237426395
 20
99.7332675967
 10
-129.4256601757
 20
100.0994272112
 10
-129.5195908538
 20
100.472644772
 10
-129.6055458425
 20
100.8529104095
 10
-129.6834048322
 20
101.2396918727
 10
-129.7531564858
 20
101.632998286
 10
-129.8148121403
 20
102.032820525
 10
-129.8682854975
 20
102.4385989659
 10
-129.9135650995
 20
102.8503419492
 10
-129.9506624041
 20
103.2680411343
 10
-129.9795254869
 20
103.6911118753
 10
-130.0001370399
 20
104.1193592902
 10
-130.0125143712
 20
104.5529782609
 10
-130.0166574807
 20
104.9919687875
  0
LWPOLYLINE
  5
28C
100
AcDbEntity
  8
ASSI
100
AcDbPolyline
 62
7
  6
CONTINUOUS
 90
19
 70
0
 10
-127.2759957948
 20
93.6587694389
 10
-127.1236161633
 20
93.3741069978
 10
-126.9795856871
 20
93.0807939478
 10
-126.8439043662
 20
92.7788302891
 10
-126.7164966158
 20
92.4680132065
 10
-126.5974380208
 20
92.1485455151
 10
-126.4869553354
 20
91.8210356606
 10
-126.3850649034
 20
91.4854683165
 10
-126.291750381
 20
91.1418588093
 10
-126.2071894915
 20
90.7908615642
 10
-126.1313989172
 20
90.4324625019
 10
-126.0643619758
 20
90.0666757017
 10
-126.0062063431
 20
89.6941978268
 10
-125.956948945
 20
89.3150161256
 10
-125.9165728556
 20
88.9291433498
 10
-125.8851549737
 20
88.5373144174
 10
-125.8627209322
 20
88.1397743013
 10
-125.8492450982
 20
87.7362780287
 10
-125.8447274717
 20
87.3268255996
  0
LWPOLYLINE
  5
28D
100
AcDbEntity
  8
ASSI
100
AcDbPolyline
 62
7
  6
CONTINUOUS
 90
19
 70
0
 10
-125.8617822324
 20
92.8422202523
 10
-125.7094026009
 20
92.5575578111
 10
-125.5653721247
 20
92.2642447612
 10
-125.4296908038
 20
91.9622811025
 10
-125.3022830535
 20
91.6514640198
 10
-125.1832244584
 20
91.3319963284
 10
-125.072741773
 20
91.0044864739
 10
-124.970851341
 20
90.6689191298
 10
-124.8775368186
 20
90.3253096226
 10
-124.7929759291
 20
89.9743123775
 10
-124.7171853548
 20
89.6159133152
 10
-124.6501484134
 20
89.250126515
 10
-124.5919927807
 20
88.8776486401
 10
-124.5427353826
 20
88.498466939
 10
-124.5023592932
 20
88.1125941631
 10
-124.4709414113
 20
87.7207652308
 10
-124.4485073698
 20
87.3232251147
 10
-124.4350315358
 20
86.919728842
 10
-124.4305139093
 20
86.5102764129
  0
LWPOLYLINE
  5
28E
100
AcDbEntity
  8
ASSI
100
AcDbPolyline
 62
7
  6
CONTINUOUS
 90
22
 70
0
 10
-82.6606688306
 20
70.1888080745
 10
-82.648994456
 20
70.1399192761
 10
-82.6301481713
 20
70.070693863
 10
-82.6089740931
 20
70.0013518964
 10
-82.5854564256
 20
69.9318925853
 10
-82.5596109645
 20
69.8623167207
 10
-82.5316126938
 20
69.7930953584
 10
-82.5014470051
 20
69.724230904
 10
-82.4691285067
 20
69.6557209519
 10
-82.4348760076
 20
69.5880293413
 10
-82.3986763842
 20
69.5211616252
 10
-82.3605427599
 20
69.4551122507
 10
-82.3207333145
 20
69.3903283977
 10
-82.2792366762
 20
69.3268186538
 10
-82.2360642168
 20
69.2645744316
 10
-82.1915082305
 20
69.2040171487
 10
-82.1455593293
 20
69.1451582523
 10
-82.0982269013
 20
69.0879862953
 10
-82.0498314057
 20
69.0328883542
 10
-82.0003656287
 20
68.9798785026
 10
-81.949836784
 20
68.9289426669
 10
-81.9132306705
 20
68.8942885401
  0
LWPOLYLINE
  5
28F
100
AcDbEntity
  8
RACCORDO
100
AcDbPolyline
 62
253
  6
CONTINUOUS
 90
25
 70
0
 10
-39.9666088965
 20
-87.9814976151
 10
-39.957933031
 20
-88.1365687984
 10
-39.9335486853
 20
-88.2943943288
 10
-39.8934558594
 20
-88.4549742063
 10
-39.8363846258
 20
-88.62156087
 10
-39.763604912
 20
-88.7909018809
 10
-39.6789265008
 20
-88.9532399215
 10
-39.5818390117
 20
-89.107713574
 10
-39.4728528251
 20
-89.2551842563
 10
-39.3573088653
 20
-89.3884789045
 10
-39.2348013668
 20
-89.5069903219
 10
-39.1057360952
 20
-89.6113257053
 10
-38.9766712712
 20
-89.6961335806
 10
-38.8476077759
 20
-89.7603705107
 10
-38.7185447284
 20
-89.8050799327
 10
-38.5960377059
 20
-89.8280406845
 10
-38.4804911775
 20
-89.8281780589
 10
-38.3715006742
 20
-89.806566763
 10
-38.2744083668
 20
-89.7642097556
 10
-38.1897242779
 20
-89.6996542161
 10
-38.1169383849
 20
-89.614352965
 10
-38.0598627911
 20
-89.5136674235
 10
-38.0197681979
 20
-89.3993847317
 10
-37.9953839039
 20
-89.2697177493
 10
-37.9867099092
 20
-89.1246664764
  0
LWPOLYLINE
  5
290
100
AcDbEntity
  8
RACCORDO
100
AcDbPolyline
 62
7
  6
CONTINUOUS
 90
22
 70
0
 10
-40.1423448278
 20
-87.7365329997
 10
-40.1316455842
 20
-87.9431763377
 10
-40.1006570678
 20
-88.1510146945
 10
-40.0509446001
 20
-88.3580739172
 10
-39.9838343623
 20
-88.5628312853
 10
-39.9005184559
 20
-88.763656237
 10
-39.8023748265
 20
-88.9583541099
 10
-39.6908012128
 20
-89.14486313
 10
-39.5667754266
 20
-89.3218000423
 10
-39.4310368116
 20
-89.4878375751
 10
-39.2829868758
 20
-89.6426519007
 10
-39.1247694488
 20
-89.7826539438
 10
-38.961304197
 20
-89.9030917789
 10
-38.7936020802
 20
-90.0033586082
 10
-38.6225184491
 20
-90.0827535398
 10
-38.4531764856
 20
-90.1392606574
 10
-38.2884284009
 20
-90.1732384503
 10
-38.1277640309
 20
-90.185984583
 10
-37.9720608854
 20
-90.1781447496
 10
-37.8230110406
 20
-90.1504292376
 10
-37.6825465853
 20
-90.1039445161
 10
-37.5523470139
 20
-90.0401401987
  0
LWPOLYLINE
  5
291
100
AcDbEntity
  8
ASSI
100
AcDbPolyline
 62
7
  6
CONTINUOUS
 90
58
 70
0
 10
-52.4116882454
 20
2.5688279727
 10
-52.4099576762
 20
2.4735323641
 10
-52.4048465737
 20
2.3767779894
 10
-52.396354938
 20
2.2785648484
 10
-52.3844560418
 20
2.178715731
 10
-52.3691766123
 20
2.0774078473
 10
-52.350596831
 20
1.9751728278
 10
-52.3286993482
 20
1.8720057986
 10
-52.3035015136
 20
1.7679116335
 10
-52.2751355571
 20
1.6634365844
 10
-52.2435848242
 20
1.558578649
 10
-52.2088659694
 20
1.4533398297
 10
-52.1711611858
 20
1.3482723849
 10
-52.1304547767
 20
1.2433772157
 10
-52.0867624387
 20
1.1386534211
 10
-52.0403134549
 20
1.034650557
 10
-51.991093334
 20
0.9313724134
 10
-51.9391165671
 20
0.8288152004
 10
-51.8846559114
 20
0.7275171043
 10
-51.8276983093
 20
0.6274847444
 10
-51.7682568183
 20
0.5287115014
 10
-51.7066433677
 20
0.4317157049
 10
-51.6428465398
 20
0.3365066986
 10
-51.5768777524
 20
0.2430751388
 10
-51.5090831879
 20
0.1519113234
 10
-51.4394532484
 20
0.0630271737
 10
-51.3679975318
 20
-0.0235892315
 10
-51.2950910141
 20
-0.1074833579
 10
-51.2207260687
 20
-0.1886408948
 10
-51.1449103223
 20
-0.2670761529
 10
-51.0680416308
 20
-0.3423775298
 10
-50.9901144591
 20
-0.4145285512
 10
-50.9111343424
 20
-0.4835456913
 10
-50.8315157422
 20
-0.5490667711
 10
-50.7512553023
 20
-0.6110734121
 10
-50.670356379
 20
-0.6695839928
 10
-50.5892435031
 20
-0.7242914688
 10
-50.50791555
 20
-0.7751758478
 10
-50.4263736444
 20
-0.8222571221
 10
-50.3450456912
 20
-0.8652882248
 10
-50.2639328154
 20
-0.9042478647
 10
-50.183033892
 20
-0.9391573329
 10
-50.1027734521
 20
-0.9698334361
 10
-50.023154852
 20
-0.9962539201
 10
-49.9441747352
 20
-1.018441039
 10
-49.8662475636
 20
-1.0362783622
 10
-49.7893788721
 20
-1.0497430235
 10
-49.7135631256
 20
-1.058857889
 10
-49.6391981802
 20
-1.063575127
 10
-49.5662916625
 20
-1.0638716197
 10
-49.4948359459
 20
-1.059770485
 10
-49.4252060064
 20
-1.0512932441
 10
-49.3574114419
 20
-1.0384168925
 10
-49.2914426545
 20
-1.0211644348
 10
-49.2276458267
 20
-0.9996264062
 10
-49.1660323761
 20
-0.973780278
 10
-49.106590885
 20
-0.9436485789
 10
-49.092082666
 20
-0.9354508476
  0
LWPOLYLINE
  5
292
100
AcDbEntity
  8
ASSI
100
AcDbPolyline
 62
7
  6
CONTINUOUS
 90
39
 70
0
 10
-50.9974746831
 20
3.3853771593
 10
-50.9957441138
 20
3.2900815508
 10
-50.9906330114
 20
3.193327176
 10
-50.9821413756
 20
3.095114035
 10
-50.9702424794
 20
2.9952649176
 10
-50.9549630499
 20
2.893957034
 10
-50.9363832686
 20
2.7917220145
 10
-50.9144857859
 20
2.6885549853
 10
-50.8892879513
 20
2.5844608202
 10
-50.8609219947
 20
2.4799857711
 10
-50.8293712619
 20
2.3751278357
 10
-50.7946524071
 20
2.2698890163
 10
-50.7569476234
 20
2.1648215716
 10
-50.7162412143
 20
2.0599264023
 10
-50.6725488763
 20
1.9552026077
 10
-50.6260998925
 20
1.8511997437
 10
-50.5768797716
 20
1.7479216001
 10
-50.5249030048
 20
1.645364387
 10
-50.470442349
 20
1.544066291
 10
-50.4134847469
 20
1.444033931
 10
-50.3540432559
 20
1.3452606881
 10
-50.2924298053
 20
1.2482648915
 10
-50.2286329775
 20
1.1530558852
 10
-50.1626641901
 20
1.0596243254
 10
-50.0948696255
 20
0.96846051
 10
-50.025239686
 20
0.8795763604
 10
-49.9537839694
 20
0.7929599552
 10
-49.8808774518
 20
0.7090658288
 10
-49.8065125064
 20
0.6279082919
 10
-49.7306967599
 20
0.5494730337
 10
-49.6538280684
 20
0.4741716568
 10
-49.5759008967
 20
0.4020206355
 10
-49.49692078
 20
0.3330034953
 10
-49.4173021799
 20
0.2674824156
 10
-49.3370417399
 20
0.2054757745
 10
-49.2561428166
 20
0.1469651939
 10
-49.1750299407
 20
0.0922577179
 10
-49.0937019876
 20
0.0413733389
 10
-49.0529310348
 20
0.0178327017
  0
LINE
  5
293
100
AcDbEntity
  8
0
100
AcDbLine
 62
7
  6
CONTINUOUS
 10
-49.0529310348
 20
110.5951715573
 11
-49.0529310348
 21
-74.1621522747
  0
LWPOLYLINE
  5
294
100
AcDbEntity
  8
0
100
AcDbPolyline
 62
7
  6
CONTINUOUS
 90
16
 70
0
 10
-49.0529310348
 20
-74.1621522747
 10
-49.0539221481
 20
-74.2045041587
 10
-49.0568240341
 20
-74.2454033431
 10
-49.0616366926
 20
-74.2848498279
 10
-49.0683837464
 20
-74.3229435867
 10
-49.0770415727
 20
-74.359584646
 10
-49.087539304
 20
-74.3944730847
 10
-49.0998920419
 20
-74.4275945177
 10
-49.1140846848
 20
-74.4589633303
 10
-49.1300010606
 20
-74.4883227566
 10
-49.1476553173
 20
-74.5156563043
 10
-49.1670333069
 20
-74.5409804658
 10
-49.1879764132
 20
-74.5640879533
 10
-49.2104974823
 20
-74.5849605729
 10
-49.234583668
 20
-74.6036165186
 10
-49.2600136559
 20
-74.6198891358
  0
LWPOLYLINE
  5
295
100
AcDbEntity
  8
ASSI
100
AcDbPolyline
 62
7
  6
CONTINUOUS
 90
7
 70
0
 10
-50.939190346
 20
3.8962811034
 10
-50.9549630499
 20
3.8277059163
 10
-50.9702424794
 20
3.7440423348
 10
-50.9821413756
 20
3.6579337645
 10
-50.9906330114
 20
3.5695265516
 10
-50.9957441138
 20
3.4786743499
 10
-50.9974746831
 20
3.3853771593
  0
LWPOLYLINE
  5
296
100
AcDbEntity
  8
RACCORDO
100
AcDbPolyline
 62
253
  6
CONTINUOUS
 90
3
 70
0
 10
-109.7223528155
 20
-46.909299527
 10
-109.6777022483
 20
-46.859460874
 10
-109.6678113394
 20
-46.8523914024
  0
LWPOLYLINE
  5
297
100
AcDbEntity
  8
ASSI
100
AcDbPolyline
 62
7
  6
CONTINUOUS
 90
21
 70
0
 10
-68.0913725437
 20
-3.1331139203
 10
-68.1457274838
 20
-3.1898664736
 10
-68.2513433195
 20
-3.3121664097
 10
-68.3518559716
 20
-3.4411997135
 10
-68.4472807988
 20
-3.5769461202
 10
-68.5373300299
 20
-3.7189962615
 10
-68.6219874376
 20
-3.8673691666
 10
-68.7012692492
 20
-4.0220458062
 10
-68.7749363759
 20
-4.1825597246
 10
-68.8429718686
 20
-4.3489285428
 10
-68.9053926763
 20
-4.5211346398
 10
-68.9620105577
 20
-4.6986586963
 10
-69.0128079954
 20
-4.8815167659
 10
-69.0578025068
 20
-5.0696927951
 10
-69.0968584026
 20
-5.2626193046
 10
-69.1299577558
 20
-5.4603106345
 10
-69.1571184935
 20
-5.6627524447
 10
-69.1782587075
 20
-5.8693342347
 10
-69.1933510949
 20
-6.0798525042
 10
-69.2024229586
 20
-6.2945107534
 10
-69.2054742986
 20
-6.5133089823
  0
LWPOLYLINE
  5
298
100
AcDbEntity
  8
ASSI
100
AcDbPolyline
 62
7
  6
CONTINUOUS
 90
58
 70
0
 10
16.0400444854
 20
62.609668754
 10
16.0258228675
 20
62.6012814864
 10
15.970003592
 20
62.564875926
 10
15.9168097646
 20
62.5244465827
 10
15.8662551869
 20
62.479972304
 10
15.8183260574
 20
62.4314742424
 10
15.7732738922
 20
62.3792068998
 10
15.7311138151
 20
62.3231504614
 10
15.6918307025
 20
62.263324742
 10
15.6556306991
 20
62.2000436872
 10
15.6225300124
 20
62.1332891327
 10
15.5925124348
 20
62.0630792428
 10
15.5657354888
 20
61.9897824559
 10
15.54221621
 20
61.9133825445
 10
15.5219375627
 20
61.833895736
 10
15.5050059626
 20
61.7517391511
 10
15.4914390047
 20
61.666898755
 10
15.4812190939
 20
61.5793885824
 10
15.4743998612
 20
61.4896678579
 10
15.4709991832
 20
61.3977249609
 10
15.4709991832
 20
61.3035715119
 10
15.4743998612
 20
61.2077015972
 10
15.4812190939
 20
61.1101061936
 10
15.4914390047
 20
61.0107943243
 10
15.5050059626
 20
60.9102871453
 10
15.5219375627
 20
60.8085783729
 10
15.54221621
 20
60.7056742909
 10
15.5657354888
 20
60.6021149058
 10
15.5925124348
 20
60.4978967728
 10
15.6225300124
 20
60.3930233368
 10
15.6556306991
 20
60.288044939
 10
15.6918307025
 20
60.1829610276
 10
15.7311138151
 20
60.0777721544
 10
15.7732738922
 20
59.9730303159
 10
15.8183260574
 20
59.8687378621
 10
15.8662551869
 20
59.7648924431
 10
15.9168097646
 20
59.6620390053
 10
15.970003592
 20
59.5601827635
 10
16.0258228675
 20
59.4593185029
 10
16.08397467
 20
59.359975526
 10
16.1444712612
 20
59.2621618298
 10
16.2073003793
 20
59.1658694174
 10
16.2721323179
 20
59.0716035993
 10
16.3389776054
 20
58.9793750294
 10
16.4078257134
 20
58.8891730538
 10
16.4783153497
 20
58.801471023
 10
16.5504551436
 20
58.7162820788
 10
16.6242364657
 20
58.6335930793
 10
16.699272136
 20
58.5538379491
 10
16.7755687485
 20
58.4770321112
 10
16.8531197092
 20
58.4031601426
 10
16.9315180563
 20
58.3326096991
 10
17.0107682442
 20
58.2653982415
 10
17.0908658185
 20
58.2015083089
 10
17.1713904535
 20
58.1412751746
 10
17.2522020406
 20
58.0848105966
 10
17.3334406883
 20
58.0320028168
 10
17.4151063967
 20
57.9828518355
  0
LINE
  5
299
100
AcDbEntity
  8
0
100
AcDbLine
 62
7
  6
CONTINUOUS
 10
-87.2366972189
 20
-2.2259917481
 11
-85.8224836565
 21
-3.0425409348
  0
LWPOLYLINE
  5
29A
100
AcDbEntity
  8
RACCORDO
100
AcDbPolyline
 62
253
  6
CONTINUOUS
 90
20
 70
0
 10
-37.1763019039
 20
-88.7260752468
 10
-37.2234688914
 20
-88.5169254502
 10
-37.2886071826
 20
-88.3049520764
 10
-37.3708359327
 20
-88.0930215045
 10
-37.4690434211
 20
-87.8839991776
 10
-37.5819020093
 20
-87.6807112467
 10
-37.7078853241
 20
-87.4859074933
 10
-37.8452889236
 20
-87.3022234198
 10
-37.9922539784
 20
-87.1321435599
 10
-38.146793468
 20
-86.9779670914
 10
-38.3068183933
 20
-86.8417780916
 10
-38.4701653271
 20
-86.7254180425
 10
-38.6346247206
 20
-86.6304612082
 10
-38.7979716945
 20
-86.5581922129
 10
-38.9579967278
 20
-86.5095883326
 10
-39.1125363548
 20
-86.4853063893
 10
-39.2595014856
 20
-86.485674638
 10
-39.3969050479
 20
-86.5106884185
 10
-39.5228882936
 20
-86.5600096943
 10
-39.5524436545
 20
-86.5760943808
  0
LINE
  5
29B
100
AcDbEntity
  8
RACCORDO
100
AcDbLine
 62
253
  6
CONTINUOUS
 10
-37.1477441332
 20
-88.9295729034
 11
-37.1763019039
 21
-88.7260752468
  0
LWPOLYLINE
  5
29C
100
AcDbEntity
  8
0
100
AcDbPolyline
 62
7
  6
CONTINUOUS
 90
19
 70
0
 10
-36.8553390593
 20
-88.9613566391
 10
-36.8691212177
 20
-88.7345286446
 10
-36.9050047502
 20
-88.5055101774
 10
-36.9629896568
 20
-88.2743012374
 10
-37.0448045092
 20
-88.0369166663
 10
-37.1487207357
 20
-87.7973416225
 10
-37.2695526217
 20
-87.5675315808
 10
-37.4081585857
 20
-87.3479820854
 10
-37.5636802092
 20
-87.1381975921
 10
-37.7283565216
 20
-86.9486469426
 10
-37.9026520957
 20
-86.7803569434
 10
-38.0861023587
 20
-86.632300788
 10
-38.2695526217
 20
-86.5118668989
 10
-38.4530028847
 20
-86.4204570226
 10
-38.6364531477
 20
-86.3566694126
 10
-38.8107487218
 20
-86.3236872517
 10
-38.9754250342
 20
-86.3230738234
 10
-39.1309466577
 20
-86.3532658443
 10
-39.2696009418
 20
-86.4127845437
  0
LWPOLYLINE
  5
29D
100
AcDbEntity
  8
RACCORDO
100
AcDbPolyline
 62
253
  6
CONTINUOUS
 90
25
 70
0
 10
-37.9867099092
 20
-89.1246664764
 10
-37.9953857748
 20
-88.9695952932
 10
-38.0197701205
 20
-88.8117697628
 10
-38.0598629464
 20
-88.6511898853
 10
-38.11693418
 20
-88.4846032215
 10
-38.1897138938
 20
-88.3152622107
 10
-38.274392305
 20
-88.15292417
 10
-38.3714797941
 20
-87.9984505175
 10
-38.4804659807
 20
-87.8509798352
 10
-38.5960099405
 20
-87.717685187
 10
-38.7185174389
 20
-87.5991737696
 10
-38.8475827106
 20
-87.4948383862
 10
-38.9766475346
 20
-87.4100305109
 10
-39.1057110298
 20
-87.3457935808
 10
-39.2347740774
 20
-87.3010841588
 10
-39.3572810999
 20
-87.278123407
 10
-39.4728276283
 20
-87.2779860326
 10
-39.5818181316
 20
-87.2995973285
 10
-39.6789104389
 20
-87.3419543359
 10
-39.7635945279
 20
-87.4065098755
 10
-39.8363804209
 20
-87.4918111265
 10
-39.8934560146
 20
-87.5924966681
 10
-39.9335506079
 20
-87.7067793599
 10
-39.9579349019
 20
-87.8364463422
 10
-39.9666088965
 20
-87.9814976151
  0
LINE
  5
29E
100
AcDbEntity
  8
RACCORDO
100
AcDbLine
 62
253
  6
CONTINUOUS
 10
-37.1381817718
 20
-89.1246664764
 11
-37.1477441332
 21
-88.9295729034
  0
LWPOLYLINE
  5
29F
100
AcDbEntity
  8
0
100
AcDbPolyline
 62
7
  6
CONTINUOUS
 90
31
 70
0
 10
-33.4965818487
 20
-81.5110949546
 10
-33.4955907354
 20
-81.5545913514
 10
-33.4926888494
 20
-81.598841561
 10
-33.4878761908
 20
-81.6438455833
 10
-33.4811291371
 20
-81.6897306706
 10
-33.4724713108
 20
-81.7363695707
 10
-33.4619735795
 20
-81.7833805264
 10
-33.4496208416
 20
-81.8307665915
 10
-33.4354281986
 20
-81.8785247124
 10
-33.4195118228
 20
-81.9262639706
 10
-33.4018575662
 20
-81.9739842113
 10
-33.3824795766
 20
-82.0216855895
 10
-33.3615364703
 20
-82.0689776511
 10
-33.3390154012
 20
-82.1158570368
 10
-33.3149292154
 20
-82.162327106
 10
-33.2894750675
 20
-82.2080074837
 10
-33.2626417295
 20
-82.2528916882
 10
-33.2344404293
 20
-82.2969862012
 10
-33.2051020053
 20
-82.3399300924
 10
-33.1746171242
 20
-82.3817139177
 10
-33.1429951192
 20
-82.4223471211
 10
-33.1104948285
 20
-82.4614971047
 10
-33.0771090432
 20
-82.4991516943
 10
-33.0428449722
 20
-82.5353230639
 10
-33.0079830797
 20
-82.5697151373
 10
-32.9725184591
 20
-82.6023133103
 10
-32.9364560172
 20
-82.6331321869
 10
-32.9000909385
 20
-82.6619195031
 10
-32.8635216182
 20
-82.6885911708
 10
-32.8266496612
 20
-82.713231278
 10
-32.7894750675
 20
-82.7358398247
  0
LWPOLYLINE
  5
2A0
100
AcDbEntity
  8
ASSI
100
AcDbPolyline
 62
7
  6
CONTINUOUS
 90
36
 70
0
 10
-30.3146013334
 20
-30.6015099887
 10
-30.3176526733
 20
-30.3791881488
 10
-30.326724537
 20
-30.1540539388
 10
-30.3418169245
 20
-29.9261073585
 10
-30.3629571385
 20
-29.6951133794
 10
-30.3901178761
 20
-29.4613070301
 10
-30.4232172294
 20
-29.2253933967
 10
-30.4622731252
 20
-28.9873661178
 10
-30.5072676365
 20
-28.7472315547
 10
-30.5580650742
 20
-28.5057138773
 10
-30.6146829556
 20
-28.2628089105
 10
-30.6771037634
 20
-28.0185208294
 10
-30.745139256
 20
-27.7735863296
 10
-30.8188063827
 20
-27.5280034598
 10
-30.8980881944
 20
-27.2817741714
 10
-30.9827456021
 20
-27.035641014
 10
-31.0727948332
 20
-26.7896042778
 10
-31.1682196604
 20
-26.5436636726
 10
-31.2687323125
 20
-26.2985608775
 10
-31.3743481482
 20
-26.0542984216
 10
-31.4850518089
 20
-25.8108737758
 10
-31.6005094473
 20
-25.5690210319
 10
-31.7207354143
 20
-25.3287449351
 10
-31.845715359
 20
-25.09004074
 10
-31.9750723814
 20
-24.8536283032
 10
-32.1088196947
 20
-24.6195145428
 10
-32.2469440857
 20
-24.3876925407
 10
-32.3890290149
 20
-24.1588613986
 10
-32.5350864381
 20
-23.9330301452
 10
-32.6851043996
 20
-23.7101897519
 10
-32.8386304925
 20
-23.4910122349
 10
-32.9956753069
 20
-23.2755086512
 10
-33.1562282529
 20
-23.0636679439
 10
-33.3198051534
 20
-22.8561289573
 10
-33.486415137
 20
-22.6529046773
 10
-33.4965818487
 20
-22.6409826036
  0
LINE
  5
2A1
100
AcDbEntity
  8
0
100
AcDbLine
 62
7
  6
CONTINUOUS
 10
-34.9107954111
 20
-82.3276441412
 11
-34.9107954111
 21
102.2979288997
  0
LINE
  5
2A2
100
AcDbEntity
  8
0
100
AcDbLine
 62
7
  6
CONTINUOUS
 10
-33.4965818487
 20
-81.5110949546
 11
-33.4965818487
 21
101.4749669388
  0
LWPOLYLINE
  5
2A3
100
AcDbEntity
  8
ASSI
100
AcDbPolyline
 62
7
  6
CONTINUOUS
 90
20
 70
0
 10
-51.8422065283
 20
3.8275965296
 10
-51.8846559114
 20
3.8015351122
 10
-51.9391165671
 20
3.7631268163
 10
-51.991093334
 20
3.7205910707
 10
-52.0403134549
 20
3.674151089
 10
-52.0867624387
 20
3.6237863472
 10
-52.1304547767
 20
3.5695173693
 10
-52.1711611858
 20
3.5116289409
 10
-52.2088659694
 20
3.4501020352
 10
-52.2435848242
 20
3.3849556791
 10
-52.2751355571
 20
3.3165317392
 10
-52.3035015136
 20
3.2448129857
 10
-52.3286993482
 20
3.1698166484
 10
-52.350596831
 20
3.0919362834
 10
-52.3691766123
 20
3.0111567296
 10
-52.3844560418
 20
2.9274931481
 10
-52.396354938
 20
2.8413845778
 10
-52.4048465737
 20
2.7529773649
 10
-52.4099576762
 20
2.6621251632
 10
-52.4116882454
 20
2.5688279727
  0
LWPOLYLINE
  5
2A4
100
AcDbEntity
  8
ASSI
100
AcDbPolyline
 62
7
  6
CONTINUOUS
 90
26
 70
0
 10
-68.8594809933
 20
-3.4391027975
 10
-68.9592168129
 20
-3.4994468287
 10
-69.0885738353
 20
-3.5864810184
 10
-69.21355378
 20
-3.680861506
 10
-69.3337797471
 20
-3.7823036698
 10
-69.4492373854
 20
-3.8908288269
 10
-69.5599410461
 20
-4.0064156602
 10
-69.6655568819
 20
-4.1287155963
 10
-69.766069534
 20
-4.2577489002
 10
-69.8614943611
 20
-4.3934953069
 10
-69.9515435923
 20
-4.5355454482
 10
-70.036201
 20
-4.6839183532
 10
-70.1154828116
 20
-4.8385949929
 10
-70.1891499383
 20
-4.9991089112
 10
-70.257185431
 20
-5.1654777294
 10
-70.3196062387
 20
-5.3376838264
 10
-70.3762241201
 20
-5.515207883
 10
-70.4270215578
 20
-5.6980659526
 10
-70.4720160691
 20
-5.8862419818
 10
-70.5110719649
 20
-6.0791684912
 10
-70.5441713182
 20
-6.2768598212
 10
-70.5713320559
 20
-6.4793016314
 10
-70.5924722698
 20
-6.6858834213
 10
-70.6075646573
 20
-6.8964016908
 10
-70.616636521
 20
-7.11105994
 10
-70.619687861
 20
-7.329858169
  0
LINE
  5
2A5
100
AcDbEntity
  8
0
100
AcDbLine
 62
7
  6
CONTINUOUS
 10
-87.2366972189
 20
-1.4096003812
 11
-104.2072599673
 21
-11.2081906211
  0
LINE
  5
2A6
100
AcDbEntity
  8
0
100
AcDbLine
 62
7
  6
CONTINUOUS
 10
-87.2366972189
 20
-2.2259917481
 11
-85.8224836565
 21
-1.4094425615
  0
LINE
  5
2A7
100
AcDbEntity
  8
ASSI
100
AcDbLine
 62
253
  6
CONTINUOUS
 10
18.8293199591
 20
58.7994010222
 11
17.4151063967
 21
57.9828518355
  0
LINE
  5
2A8
100
AcDbEntity
  8
ASSI
100
AcDbLine
 62
253
  6
CONTINUOUS
 10
-69.2054742986
 20
-6.5133089823
 11
-70.619687861
 21
-7.329858169
  0
LINE
  5
2A9
100
AcDbEntity
  8
ASSI
100
AcDbLine
 62
253
  6
CONTINUOUS
 10
-50.9974746831
 20
3.3853771593
 11
-52.4116882454
 21
2.5688279727
  0
LWPOLYLINE
  5
2AA
100
AcDbEntity
  8
0
100
AcDbPolyline
 62
7
  6
CONTINUOUS
 90
31
 70
0
 10
-87.2366972189
 20
-1.4096003812
 10
-87.1985323871
 20
-1.3887086153
 10
-87.1587578959
 20
-1.36909445
 10
-87.1173737453
 20
-1.3507578856
 10
-87.0742569035
 20
-1.3336554005
 10
-87.0295304023
 20
-1.3178305163
 10
-86.9835633366
 20
-1.3034137965
 10
-86.9363468525
 20
-1.2904173358
 10
-86.887889804
 20
-1.2788290396
 10
-86.8385878477
 20
-1.2687431876
 10
-86.7884341
 20
-1.2601719641
 10
-86.7374354444
 20
-1.2531031848
 10
-86.6860081879
 20
-1.2475945768
 10
-86.6341476823
 20
-1.2436589094
 10
-86.5818585757
 20
-1.2412834133
 10
-86.5295711192
 20
-1.2404875076
 10
-86.4772872983
 20
-1.2412840713
 10
-86.4250051274
 20
-1.2436602254
 10
-86.3731489011
 20
-1.247596752
 10
-86.3217195251
 20
-1.2531067302
 10
-86.2707160936
 20
-1.260177081
 10
-86.2205601836
 20
-1.2687493492
 10
-86.1712613829
 20
-1.2788353802
 10
-86.1228101037
 20
-1.2904233287
 10
-86.0755991592
 20
-1.3034192035
 10
-86.0296366163
 20
-1.317835102
 10
-85.9849144082
 20
-1.3336589269
 10
-85.9418011469
 20
-1.3507603955
 10
-85.9004197032
 20
-1.3690960803
 10
-85.8606472064
 20
-1.3887094089
 10
-85.8224836565
 20
-1.4096003812
  0
LWPOLYLINE
  5
2AB
100
AcDbEntity
  8
RACCORDO
100
AcDbPolyline
 62
253
  6
CONTINUOUS
 90
5
 70
0
 10
-108.9643278324
 20
-48.1590994487
 10
-109.0329718077
 20
-48.165226464
 10
-109.1067558804
 20
-48.1560613465
 10
-109.1840318346
 20
-48.131808827
 10
-109.2630734528
 20
-48.0930106646
  0
LWPOLYLINE
  5
2AC
100
AcDbEntity
  8
ASSI
100
AcDbPolyline
 62
7
  6
CONTINUOUS
 90
12
 70
0
 10
-33.4965818487
 20
-34.8875660338
 10
-33.486415137
 20
-34.8873842239
 10
-33.3198051534
 20
-34.8765569767
 10
-33.1562282529
 20
-34.8579124947
 10
-32.9956753069
 20
-34.8314743049
 10
-32.8386304925
 20
-34.7973221365
 10
-32.6851043996
 20
-34.7554327033
 10
-32.5350864381
 20
-34.7058292915
 10
-32.3890290149
 20
-34.6486614893
 10
-32.2469440857
 20
-34.5839064621
 10
-32.1088196947
 20
-34.5115870444
 10
-32.0748082011
 20
-34.4922653602
  0
LWPOLYLINE
  5
2AD
100
AcDbEntity
  8
ASSI
100
AcDbPolyline
 62
7
  6
CONTINUOUS
 90
14
 70
0
 10
-33.4965818487
 20
-33.8762740995
 10
-33.4937881039
 20
-33.8771587302
 10
-33.3092433529
 20
-33.9284144209
 10
-33.1261244505
 20
-33.9720603939
 10
-32.9449836255
 20
-34.0079650265
 10
-32.7658268491
 20
-34.0361049499
 10
-32.58864815
 20
-34.056503533
 10
-32.4139818431
 20
-34.0690992602
 10
-32.2418355127
 20
-34.0738685767
 10
-32.0722015746
 20
-34.0708350373
 10
-31.905591591
 20
-34.06000779
 10
-31.7420146905
 20
-34.041363308
 10
-31.5814617446
 20
-34.0149251182
 10
-31.4287030883
 20
-33.9817050507
  0
LWPOLYLINE
  5
2AE
100
AcDbEntity
  8
ASSI
100
AcDbPolyline
 62
7
  6
CONTINUOUS
 90
40
 70
0
 10
-49.0529310348
 20
2.1704202874
 10
-49.106590885
 20
2.2646609376
 10
-49.1660323761
 20
2.3634341806
 10
-49.2276458267
 20
2.4604299771
 10
-49.2914426545
 20
2.5556389834
 10
-49.3574114419
 20
2.6490705432
 10
-49.4252060064
 20
2.7402343586
 10
-49.4948359459
 20
2.8291185083
 10
-49.5662916625
 20
2.9157349135
 10
-49.6391981802
 20
2.9996290399
 10
-49.7135631256
 20
3.0807865768
 10
-49.7893788721
 20
3.1592218349
 10
-49.8662475636
 20
3.2345232118
 10
-49.9441747352
 20
3.3066742332
 10
-50.023154852
 20
3.3756913733
 10
-50.1027734521
 20
3.4412124531
 10
-50.183033892
 20
3.5032190941
 10
-50.2639328154
 20
3.5617296748
 10
-50.3450456912
 20
3.6164371508
 10
-50.4263736444
 20
3.6673215298
 10
-50.50791555
 20
3.7144028041
 10
-50.5892435031
 20
3.7574339068
 10
-50.670356379
 20
3.7963935467
 10
-50.7512553023
 20
3.8313030149
 10
-50.8315157422
 20
3.8619791181
 10
-50.9111343424
 20
3.8883996021
 10
-50.9901144591
 20
3.910586721
 10
-51.0680416308
 20
3.9284240442
 10
-51.1449103223
 20
3.9418887055
 10
-51.2207260687
 20
3.951003571
 10
-51.2950910141
 20
3.955720809
 10
-51.3679975318
 20
3.9560173017
 10
-51.4394532484
 20
3.951916167
 10
-51.5090831879
 20
3.9434389261
 10
-51.5768777524
 20
3.9305625745
 10
-51.6428465398
 20
3.9133101168
 10
-51.7066433677
 20
3.8917720882
 10
-51.7682568183
 20
3.86592596
 10
-51.8276983093
 20
3.8357942609
 10
-51.8422065283
 20
3.8275965296
  0
LWPOLYLINE
  5
2AF
100
AcDbEntity
  8
0
100
AcDbPolyline
 62
7
  6
CONTINUOUS
 90
17
 70
0
 10
-8.040737726
 20
-105.1086641511
 10
-8.0138042484
 20
-105.4413883525
 10
-7.9340297034
 20
-105.7925412973
 10
-7.8044526786
 20
-106.1487476789
 10
-7.6265241636
 20
-106.5024892094
 10
-7.4132449677
 20
-106.8279188447
 10
-7.1699998209
 20
-107.1189647076
 10
-6.9060538551
 20
-107.3645409518
 10
-6.6265241636
 20
-107.5581538914
 10
-6.3518353098
 20
-107.6856566937
 10
-6.0876092691
 20
-107.7461047556
 10
-5.8439103294
 20
-107.7371956291
 10
-5.6265241636
 20
-107.6572641435
 10
-5.451334657
 20
-107.5121507006
 10
-5.3209077536
 20
-107.3065913066
 10
-5.2402113736
 20
-107.0484156549
 10
-5.2123106012
 20
-106.7417623817
  0
LWPOLYLINE
  5
2B0
100
AcDbEntity
  8
0
100
AcDbPolyline
 62
7
  6
CONTINUOUS
 90
17
 70
0
 10
-5.2123106012
 20
-106.7417625244
 10
-5.2392440788
 20
-106.409038323
 10
-5.3190186238
 20
-106.0578853782
 10
-5.4485956486
 20
-105.7016789967
 10
-5.6265241636
 20
-105.3479374661
 10
-5.8398033595
 20
-105.0225078309
 10
-6.0830485063
 20
-104.7314619679
 10
-6.3469944721
 20
-104.4858857237
 10
-6.6265241636
 20
-104.2922727842
 10
-6.9012130174
 20
-104.1647699818
 10
-7.1654390581
 20
-104.10432192
 10
-7.4091379978
 20
-104.1132310464
 10
-7.6265241636
 20
-104.193162532
 10
-7.8017136702
 20
-104.3382759749
 10
-7.9321405736
 20
-104.543835369
 10
-8.0128369536
 20
-104.8020110206
 10
-8.040737726
 20
-105.1086642939
  0
LWPOLYLINE
  5
2B1
100
AcDbEntity
  8
0
100
AcDbPolyline
 62
7
  6
CONTINUOUS
 90
7
 70
0
 10
-107.9801824202
 20
-49.0493710284
 10
-107.8593988544
 20
-48.9591225168
 10
-107.7554826279
 20
-48.8395473267
 10
-107.6736677755
 20
-48.6966404964
 10
-107.6156828688
 20
-48.5323910732
 10
-107.5797993363
 20
-48.3448100098
 10
-107.566017178
 20
-48.1338973063
  0
LWPOLYLINE
  5
2B2
100
AcDbEntity
  8
RACCORDO
100
AcDbPolyline
 62
253
  6
CONTINUOUS
 90
3
 70
0
 10
-108.2630251326
 20
-49.2126808659
 10
-108.1797219085
 20
-49.1558039978
 10
-108.081514338
 20
-49.0601892599
  0
LWPOLYLINE
  5
2B3
100
AcDbEntity
  8
RACCORDO
100
AcDbPolyline
 62
7
  6
CONTINUOUS
 90
10
 70
0
 10
-110.2631217731
 20
-45.7486350481
 10
-110.3727671167
 20
-45.8213031977
 10
-110.4751215659
 20
-45.909143185
 10
-110.5683432531
 20
-46.0118839591
 10
-110.6506917322
 20
-46.1289895048
 10
-110.7206187087
 20
-46.2597197541
 10
-110.7769188111
 20
-46.4035680588
 10
-110.8184996793
 20
-46.5601911325
 10
-110.844219625
 20
-46.7289191924
 10
-110.8530229465
 20
-46.9090736674
  0
LINE
  5
2B4
100
AcDbEntity
  8
ASSI
100
AcDbLine
 62
7
  6
CONTINUOUS
 10
-49.092082666
 20
-0.9354508476
 11
-49.0529310348
 21
-0.9114140553
  0
LWPOLYLINE
  5
2B5
100
AcDbEntity
  8
ASSI
100
AcDbPolyline
 62
7
  6
CONTINUOUS
 90
18
 70
0
 10
-83.7940874042
 20
-19.2928518872
 10
-83.8128899465
 20
-19.3042271552
 10
-83.84908957
 20
-19.3292924535
 10
-83.8833420691
 20
-19.3574301367
 10
-83.9156605675
 20
-19.388619497
 10
-83.9458262562
 20
-19.4226493702
 10
-83.9738245269
 20
-19.4595390313
 10
-83.9996699879
 20
-19.4992692053
 10
-84.0231876554
 20
-19.5415709034
 10
-84.0443617337
 20
-19.5864615753
 10
-84.0632080184
 20
-19.6339237712
 10
-84.0795989128
 20
-19.6836361536
 10
-84.0935177554
 20
-19.7356139916
 10
-84.1049812077
 20
-19.789842016
 10
-84.1139116577
 20
-19.845953082
 10
-84.1202832347
 20
-19.9038248078
 10
-84.1241218093
 20
-19.9635795751
 10
-84.1254273816
 20
-20.0252173839
  0
LWPOLYLINE
  5
2B6
100
AcDbEntity
  8
ASSI
100
AcDbPolyline
 62
7
  6
CONTINUOUS
 90
18
 70
0
 10
-82.1940256593
 20
-22.0640615793
 10
-82.175223117
 20
-22.0526863113
 10
-82.1390234935
 20
-22.027621013
 10
-82.1047709944
 20
-21.9994833298
 10
-82.072452496
 20
-21.9682939695
 10
-82.0422868073
 20
-21.9342640962
 10
-82.0142885366
 20
-21.8973744352
 10
-81.9884430756
 20
-21.8576442612
 10
-81.9649254081
 20
-21.8153425631
 10
-81.9437513298
 20
-21.7704518912
 10
-81.9249050451
 20
-21.7229896953
 10
-81.9085141507
 20
-21.6732773129
 10
-81.8945953081
 20
-21.6212994749
 10
-81.8831318558
 20
-21.5670714505
 10
-81.8742014058
 20
-21.5109603845
 10
-81.8678298288
 20
-21.4530886587
 10
-81.8639912542
 20
-21.3933338914
 10
-81.8626856819
 20
-21.3316960826
  0
LWPOLYLINE
  5
2B7
100
AcDbEntity
  8
ASSI
100
AcDbPolyline
 62
7
  6
CONTINUOUS
 90
26
 70
0
 10
-60.3590794485
 20
-18.1612816271
 10
-60.2593436289
 20
-18.1009375959
 10
-60.1299866065
 20
-18.0139034061
 10
-60.0050066618
 20
-17.9195229185
 10
-59.8847806947
 20
-17.8180807547
 10
-59.7693230564
 20
-17.7095555976
 10
-59.6586193957
 20
-17.5939687643
 10
-59.5530035599
 20
-17.4716688282
 10
-59.4524909078
 20
-17.3426355243
 10
-59.3570660807
 20
-17.2068891176
 10
-59.2670168495
 20
-17.0648389764
 10
-59.1823594418
 20
-16.9164660713
 10
-59.1030776302
 20
-16.7617894317
 10
-59.0294105035
 20
-16.6012755133
 10
-58.9613750108
 20
-16.4349066951
 10
-58.8989542031
 20
-16.2627005981
 10
-58.8423363217
 20
-16.0851765416
 10
-58.791538884
 20
-15.902318472
 10
-58.7465443727
 20
-15.7141424427
 10
-58.7074884769
 20
-15.5212159333
 10
-58.6743891236
 20
-15.3235246033
 10
-58.6472283859
 20
-15.1210827931
 10
-58.626088172
 20
-14.9145010032
 10
-58.6109957845
 20
-14.7039827337
 10
-58.6019239208
 20
-14.4893244845
 10
-58.5988725808
 20
-14.2705262556
  0
LINE
  5
2B8
100
AcDbEntity
  8
ASSI
100
AcDbLine
 62
253
  6
CONTINUOUS
 10
-82.9941685477
 20
-19.3720427112
 11
-84.1254273816
 21
-20.0252173839
  0
LINE
  5
2B9
100
AcDbEntity
  8
0
100
AcDbLine
 62
253
  6
CONTINUOUS
 10
-104.2072599673
 20
-40.6836356218
 11
-105.6214735297
 21
-41.5001848084
  0
LINE
  5
2BA
100
AcDbEntity
  8
0
100
AcDbLine
 62
7
  6
CONTINUOUS
 10
-109.9802790606
 20
-45.5853252107
 11
-110.2631217731
 21
-45.7486350481
  0
LINE
  5
2BB
100
AcDbEntity
  8
0
100
AcDbLine
 62
253
  6
CONTINUOUS
 10
-103.5001531862
 20
-41.9083804919
 11
-104.9143667485
 21
-42.7249296786
  0
LWPOLYLINE
  5
2BC
100
AcDbEntity
  8
RACCORDO
100
AcDbPolyline
 62
253
  6
CONTINUOUS
 90
25
 70
0
 10
-109.6873375215
 20
55.1904556767
 10
-109.815141677
 20
55.2749382188
 10
-109.9368088542
 20
55.3731061324
 10
-110.052339053
 20
55.4849594176
 10
-110.1634907501
 20
55.6128580192
 10
-110.2685054688
 20
55.7544419923
 10
-110.3621077795
 20
55.9026315025
 10
-110.443708782
 20
56.0577594911
 10
-110.5138973765
 20
56.2194930168
 10
-110.5691648338
 20
56.3797534211
 10
-110.6087520103
 20
56.5384641352
 10
-110.6334180496
 20
56.6957017278
 10
-110.6419316528
 20
56.8436172472
 10
-110.6334728285
 20
56.9817375066
 10
-110.608861568
 20
57.1105356928
 10
-110.5693265458
 20
57.2235824135
 10
-110.5141103704
 20
57.3200779741
 10
-110.4439704334
 20
57.4008220692
 10
-110.362407584
 20
57.4617843905
 10
-110.2688411242
 20
57.5019605772
 10
-110.1638517521
 20
57.52235499
 10
-110.0526824114
 20
57.5219504037
 10
-109.93708075
 20
57.500407743
 10
-109.8152991201
 20
57.4580660831
 10
-109.6873375215
 20
57.3949254241
  0
LWPOLYLINE
  5
2BD
100
AcDbEntity
  8
RACCORDO
100
AcDbPolyline
 62
253
  6
CONTINUOUS
 90
15
 70
0
 10
-109.2630734528
 20
55.9253025988
 10
-109.3421149927
 20
55.9777796571
 10
-109.4193908898
 20
56.0427634049
 10
-109.4931749289
 20
56.1188022199
 10
-109.5618188977
 20
56.2041975293
 10
-109.6237893992
 20
56.2970417459
 10
-109.6777021079
 20
56.395260879
 10
-109.7223527007
 20
56.4966608764
 10
-109.7567437548
 20
56.59897663
 10
-109.7801070268
 20
56.6999225665
 10
-109.7919206192
 20
56.7972437175
 10
-109.7919206364
 20
56.8887660911
 10
-109.780107078
 20
56.9724452279
 10
-109.7567438389
 20
57.0464118744
 10
-109.7223528155
 20
57.1090137364
  0
LWPOLYLINE
  5
2BE
100
AcDbEntity
  8
ASSI
100
AcDbPolyline
 62
7
  6
CONTINUOUS
 90
51
 70
0
 10
-7.8639610307
 20
-105.2107327995
 10
-7.862533061
 20
-105.2797981365
 10
-7.8583346199
 20
-105.3500031677
 10
-7.8513657076
 20
-105.4213478931
 10
-7.8415980279
 20
-105.4939988431
 10
-7.8290598769
 20
-105.5677894873
 10
-7.8138361429
 20
-105.6422202341
 10
-7.7959086021
 20
-105.7172954271
 10
-7.7752954782
 20
-105.7930107227
 10
-7.7521363301
 20
-105.8688534987
 10
-7.7264138813
 20
-105.9448246202
 10
-7.6981454083
 20
-106.0209232221
 10
-7.6675222997
 20
-106.0966340871
 10
-7.6345285777
 20
-106.1719545841
 10
-7.5991802201
 20
-106.2468873442
 10
-7.5617165492
 20
-106.3209250433
 10
-7.522123211
 20
-106.3940616077
 10
-7.4804145595
 20
-106.4663031112
 10
-7.4368729786
 20
-106.5371604503
 10
-7.3914860305
 20
-106.6066242327
 10
-7.3442661529
 20
-106.6747038508
 10
-7.295533043
 20
-106.7409383789
 10
-7.2452764323
 20
-106.8053152968
 10
-7.1935065892
 20
-106.8678471248
 10
-7.1405740158
 20
-106.928110498
 10
-7.0864708222
 20
-106.9860900231
 10
-7.0312048983
 20
-107.0418010934
 10
-6.9751504161
 20
-107.094866523
 10
-6.9183020246
 20
-107.1452683594
 10
-6.8606650747
 20
-107.1930245551
 10
-6.8026297912
 20
-107.2378117821
 10
-6.7441934711
 20
-107.2796098938
 10
-6.6853588174
 20
-107.3184390366
 10
-6.6265241636
 20
-107.3540363222
 10
-6.5676895099
 20
-107.38637982
 10
-6.5088548561
 20
-107.4154914606
 10
-6.450418536
 20
-107.4411741466
 10
-6.3923832525
 20
-107.4634046103
 10
-6.3347463026
 20
-107.4822061196
 10
-6.2778979111
 20
-107.4974513807
 10
-6.2218434289
 20
-107.5091162621
 10
-6.166577505
 20
-107.5172248955
 10
-6.1124743114
 20
-107.5217223822
 10
-6.059541738
 20
-107.522584218
 10
-6.0077718949
 20
-107.5198349071
 10
-5.9575152842
 20
-107.5134930635
 10
-5.9087821743
 20
-107.5035343092
 10
-5.8615622967
 20
-107.4899830221
 10
-5.8161753486
 20
-107.4729309498
 10
-5.7726337677
 20
-107.4523543369
 10
-5.7514903969
 20
-107.4407186382
  0
LWPOLYLINE
  5
2BF
100
AcDbEntity
  8
ASSI
100
AcDbPolyline
 62
7
  6
CONTINUOUS
 90
51
 70
0
 10
-5.3890872965
 20
-106.6396938761
 10
-5.3905152663
 20
-106.570628539
 10
-5.3947137073
 20
-106.5004235078
 10
-5.4016826196
 20
-106.4290787825
 10
-5.4114502993
 20
-106.3564278324
 10
-5.4239884503
 20
-106.2826371882
 10
-5.4392121844
 20
-106.2082064414
 10
-5.4571397251
 20
-106.1331312484
 10
-5.477752849
 20
-106.0574159529
 10
-5.5009119971
 20
-105.9815731769
 10
-5.5266344459
 20
-105.9056020554
 10
-5.5549029189
 20
-105.8295034535
 10
-5.5855260275
 20
-105.7537925885
 10
-5.6185197495
 20
-105.6784720915
 10
-5.6538681071
 20
-105.6035393314
 10
-5.691331778
 20
-105.5295016323
 10
-5.7309251162
 20
-105.4563650678
 10
-5.7726337677
 20
-105.3841235644
 10
-5.8161753486
 20
-105.3132662252
 10
-5.8615622967
 20
-105.2438024429
 10
-5.9087821743
 20
-105.1757228248
 10
-5.9575152842
 20
-105.1094882967
 10
-6.0077718949
 20
-105.0451113787
 10
-6.059541738
 20
-104.9825795507
 10
-6.1124743114
 20
-104.9223161776
 10
-6.166577505
 20
-104.8643366524
 10
-6.2218434289
 20
-104.8086255822
 10
-6.2778979111
 20
-104.7555601526
 10
-6.3347463026
 20
-104.7051583162
 10
-6.3923832525
 20
-104.6574021204
 10
-6.450418536
 20
-104.6126148934
 10
-6.5088548561
 20
-104.5708167818
 10
-6.5676895099
 20
-104.531987639
 10
-6.6265241636
 20
-104.4963903534
 10
-6.6853588174
 20
-104.4640468555
 10
-6.7441934711
 20
-104.434935215
 10
-6.8026297912
 20
-104.4092525289
 10
-6.8606650747
 20
-104.3870220652
 10
-6.9183020246
 20
-104.368220556
 10
-6.9751504161
 20
-104.3529752948
 10
-7.0312048983
 20
-104.3413104134
 10
-7.0864708222
 20
-104.33320178
 10
-7.1405740158
 20
-104.3287042934
 10
-7.1935065892
 20
-104.3278424575
 10
-7.2452764323
 20
-104.3305917684
 10
-7.295533043
 20
-104.3369336121
 10
-7.3442661529
 20
-104.3468923664
 10
-7.3914860305
 20
-104.3604436534
 10
-7.4368729786
 20
-104.3774957258
 10
-7.4804145595
 20
-104.3980723387
 10
-7.5015579303
 20
-104.4097080374
  0
LWPOLYLINE
  5
2C0
100
AcDbEntity
  8
ASSI
100
AcDbPolyline
 62
7
  6
CONTINUOUS
 90
45
 70
0
 10
16.9433085867
 20
62.6785002349
 10
16.936151125
 20
62.6504449227
 10
16.9192195249
 20
62.5682883378
 10
16.905652567
 20
62.4834479417
 10
16.8954326563
 20
62.3959377691
 10
16.8886134236
 20
62.3062170446
 10
16.8852127456
 20
62.2142741475
 10
16.8852127456
 20
62.1201206985
 10
16.8886134236
 20
62.0242507838
 10
16.8954326563
 20
61.9266553802
 10
16.905652567
 20
61.827343511
 10
16.9192195249
 20
61.7268363319
 10
16.936151125
 20
61.6251275596
 10
16.9564297723
 20
61.5222234775
 10
16.9799490512
 20
61.4186640924
 10
17.0067259972
 20
61.3144459595
 10
17.0367435747
 20
61.2095725235
 10
17.0698442615
 20
61.1045941256
 10
17.1060442649
 20
60.9995102143
 10
17.1453273775
 20
60.894321341
 10
17.1874874545
 20
60.7895795026
 10
17.2325396197
 20
60.6852870488
 10
17.2804687493
 20
60.5814416298
 10
17.331023327
 20
60.478588192
 10
17.3842171544
 20
60.3767319501
 10
17.4400364299
 20
60.2758676896
 10
17.4981882323
 20
60.1765247126
 10
17.5586848235
 20
60.0787110165
 10
17.6215139417
 20
59.982418604
 10
17.6863458802
 20
59.888152786
 10
17.7531911678
 20
59.795924216
 10
17.8220392758
 20
59.7057222405
 10
17.8925289121
 20
59.6180202097
 10
17.964668706
 20
59.5328312655
 10
18.0384500281
 20
59.450142266
 10
18.1134856984
 20
59.3703871358
 10
18.1897823109
 20
59.2935812979
 10
18.2673332716
 20
59.2197093293
 10
18.3457316186
 20
59.1491588858
 10
18.4249818066
 20
59.0819474281
 10
18.5050793809
 20
59.0180574955
 10
18.5856040159
 20
58.9578243613
 10
18.6664156029
 20
58.9013597832
 10
18.7476542507
 20
58.8485520035
 10
18.8293199591
 20
58.7994010222
  0
LINE
  5
2C1
100
AcDbEntity
  8
0
100
AcDbLine
 62
7
  6
CONTINUOUS
 10
-107.9801824201
 20
-49.0493710286
 11
-108.2630251326
 21
-49.2126808659
  0
LINE
  5
2C2
100
AcDbEntity
  8
0
100
AcDbLine
 62
7
  6
CONTINUOUS
 10
-87.9438040001
 20
-40.2735461016
 11
-97.1376954934
 21
-45.5819838234
  0
LINE
  5
2C3
100
AcDbEntity
  8
0
100
AcDbLine
 62
7
  6
CONTINUOUS
 10
-120.8949800033
 20
-60.1155335176
 11
-114.8138616851
 21
-56.604372015
  0
LINE
  5
2C4
100
AcDbEntity
  8
ASSI
100
AcDbLine
 62
253
  6
CONTINUOUS
 10
121.3598032312
 20
68.8770090656
 11
76.2110352524
 21
42.8086762817
  0
LWPOLYLINE
  5
2C5
100
AcDbEntity
  8
0
100
AcDbPolyline
 62
253
  6
CONTINUOUS
 90
19
 70
0
 10
121.3598032312
 20
68.8770090656
 10
121.452333925
 20
68.9281038322
 10
121.5446884813
 20
68.9744387442
 10
121.6366910981
 20
69.0159256006
 10
121.7281666431
 20
69.0524854287
 10
121.8189409874
 20
69.0840486348
 10
121.9088413368
 20
69.1105551367
 10
121.9976965611
 20
69.1319544776
 10
122.0853375191
 20
69.1482059226
 10
122.1715973814
 20
69.1592785363
 10
122.2563119474
 20
69.1651512413
 10
122.339319958
 20
69.1658128586
 10
122.4204634029
 20
69.1612621287
 10
122.4995878209
 20
69.1515077142
 10
122.5765425942
 20
69.1365681832
 10
122.6511812349
 20
69.1164719739
 10
122.7233616642
 20
69.0912573406
 10
122.7929464825
 20
69.0609722808
 10
122.8598032312
 20
69.0256744439
  0
LWPOLYLINE
  5
2C6
100
AcDbEntity
  8
RACCORDO
100
AcDbPolyline
 62
7
  6
CONTINUOUS
 90
6
 70
0
 10
-109.5630879489
 20
57.1202833074
 10
-109.604127991
 20
57.1419689809
 10
-109.6383168223
 20
57.1566105931
 10
-109.6644321386
 20
57.1651598949
 10
-109.681493067
 20
57.1690069135
 10
-109.6864688938
 20
57.1697236865
  0
LWPOLYLINE
  5
2C7
100
AcDbEntity
  8
RACCORDO
100
AcDbPolyline
 62
253
  6
CONTINUOUS
 90
25
 70
0
 10
-109.6873375215
 20
57.3949254241
 10
-109.559533366
 20
57.310442882
 10
-109.4378661889
 20
57.2122749684
 10
-109.3223359901
 20
57.1004216832
 10
-109.211184293
 20
56.9725230817
 10
-109.1061695743
 20
56.8309391086
 10
-109.0125672636
 20
56.6827495984
 10
-108.930966261
 20
56.5276216097
 10
-108.8607776666
 20
56.365888084
 10
-108.8055102093
 20
56.2056276797
 10
-108.7659230328
 20
56.0469169657
 10
-108.7412569934
 20
55.889679373
 10
-108.7327433903
 20
55.7417638537
 10
-108.7412022146
 20
55.6036435942
 10
-108.7658134751
 20
55.474845408
 10
-108.8053484973
 20
55.3617986873
 10
-108.8605646727
 20
55.2653031267
 10
-108.9307046097
 20
55.1845590316
 10
-109.0122674591
 20
55.1235967103
 10
-109.1058339189
 20
55.0834205237
 10
-109.210823291
 20
55.0630261108
 10
-109.3219926317
 20
55.0634306972
 10
-109.437594293
 20
55.0849733578
 10
-109.559375923
 20
55.1273150177
 10
-109.6873375215
 20
55.1904556767
  0
LWPOLYLINE
  5
2C8
100
AcDbEntity
  8
ASSI
100
AcDbPolyline
 62
7
  6
CONTINUOUS
 90
40
 70
0
 10
21.6577470839
 20
-38.6570390453
 10
21.6040872336
 20
-38.5627983951
 10
21.5446457426
 20
-38.4640251522
 10
21.483032292
 20
-38.3670293556
 10
21.4192354642
 20
-38.2718203494
 10
21.3532666767
 20
-38.1783887895
 10
21.2854721122
 20
-38.0872249742
 10
21.2158421727
 20
-37.9983408245
 10
21.1443864561
 20
-37.9117244193
 10
21.0714799385
 20
-37.8278302929
 10
20.9971149931
 20
-37.746672756
 10
20.9212992466
 20
-37.6682374979
 10
20.8444305551
 20
-37.5929361209
 10
20.7665033834
 20
-37.5207850996
 10
20.6875232667
 20
-37.4517679594
 10
20.6079046666
 20
-37.3862468797
 10
20.5276442266
 20
-37.3242402386
 10
20.4467453033
 20
-37.265729658
 10
20.3656324274
 20
-37.211022182
 10
20.2843044743
 20
-37.160137803
 10
20.2027625687
 20
-37.1130565286
 10
20.1214346156
 20
-37.0700254259
 10
20.0403217397
 20
-37.0310657861
 10
19.9594228163
 20
-36.9961563178
 10
19.8791623764
 20
-36.9654802146
 10
19.7995437763
 20
-36.9390597307
 10
19.7205636596
 20
-36.9168726118
 10
19.6426364879
 20
-36.8990352885
 10
19.5657677964
 20
-36.8855706273
 10
19.4899520499
 20
-36.8764557618
 10
19.4155871045
 20
-36.8717385238
 10
19.3426805868
 20
-36.871442031
 10
19.2712248702
 20
-36.8755431658
 10
19.2015949307
 20
-36.8840204067
 10
19.1338003662
 20
-36.8968967583
 10
19.0678315788
 20
-36.914149216
 10
19.004034751
 20
-36.9356872446
 10
18.9424213004
 20
-36.9615333728
 10
18.8829798094
 20
-36.9916650719
 10
18.8684715903
 20
-36.9998628031
  0
LWPOLYLINE
  5
2C9
100
AcDbEntity
  8
RACCORDO
100
AcDbPolyline
 62
253
  6
CONTINUOUS
 90
20
 70
0
 10
26.1097550122
 20
-125.2666513496
 10
26.0625880248
 20
-125.0575015531
 10
25.9974497336
 20
-124.8455281793
 10
25.9152209835
 20
-124.6335976074
 10
25.8170134951
 20
-124.4245752804
 10
25.7041549069
 20
-124.2212873495
 10
25.5781715921
 20
-124.0264835962
 10
25.4407679926
 20
-123.8427995226
 10
25.2938029378
 20
-123.6727196628
 10
25.1392634482
 20
-123.5185431942
 10
24.9792385229
 20
-123.3823541944
 10
24.8158915891
 20
-123.2659941454
 10
24.6514321956
 20
-123.171037311
 10
24.4880852217
 20
-123.0987683157
 10
24.3280601884
 20
-123.0501644354
 10
24.1735205614
 20
-123.0258824922
 10
24.0265554306
 20
-123.0262507408
 10
23.8891518683
 20
-123.0512645213
 10
23.7631686226
 20
-123.1005857972
 10
23.7336132617
 20
-123.1166704837
  0
LWPOLYLINE
  5
2CA
100
AcDbEntity
  8
RACCORDO
100
AcDbPolyline
 62
253
  6
CONTINUOUS
 90
25
 70
0
 10
23.3194480196
 20
-124.5220737179
 10
23.3281238852
 20
-124.6771449012
 10
23.3525082309
 20
-124.8349704316
 10
23.3926010568
 20
-124.9955503091
 10
23.4496722904
 20
-125.1621369728
 10
23.5224520042
 20
-125.3314779837
 10
23.6071304154
 20
-125.4938160243
 10
23.7042179045
 20
-125.6482896769
 10
23.8132040911
 20
-125.7957603591
 10
23.9287480509
 20
-125.9290550073
 10
24.0512555494
 20
-126.0475664248
 10
24.180320821
 20
-126.1519018081
 10
24.309385645
 20
-126.2367096834
 10
24.4384491403
 20
-126.3009466135
 10
24.5675121878
 20
-126.3456560356
 10
24.6900192103
 20
-126.3686167873
 10
24.8055657387
 20
-126.3687541617
 10
24.914556242
 20
-126.3471428658
 10
25.0116485493
 20
-126.3047858585
 10
25.0963326383
 20
-126.2402303189
 10
25.1691185313
 20
-126.1549290679
 10
25.226194125
 20
-126.0542435263
 10
25.2662887183
 20
-125.9399608345
 10
25.2906730123
 20
-125.8102938521
 10
25.299347007
 20
-125.6652425793
  0
LWPOLYLINE
  5
2CB
100
AcDbEntity
  8
RACCORDO
100
AcDbPolyline
 62
7
  6
CONTINUOUS
 90
22
 70
0
 10
23.1437120884
 20
-124.2771091025
 10
23.154411332
 20
-124.4837524406
 10
23.1853998484
 20
-124.6915907973
 10
23.2351123161
 20
-124.89865002
 10
23.3022225539
 20
-125.1034073882
 10
23.3855384603
 20
-125.3042323398
 10
23.4836820897
 20
-125.4989302127
 10
23.5952557034
 20
-125.6854392328
 10
23.7192814896
 20
-125.8623761451
 10
23.8550201046
 20
-126.028413678
 10
24.0030700404
 20
-126.1832280035
 10
24.1612874674
 20
-126.3232300466
 10
24.3247527192
 20
-126.4436678817
 10
24.492454836
 20
-126.543934711
 10
24.6635384671
 20
-126.6233296426
 10
24.8328804306
 20
-126.6798367603
 10
24.9976285153
 20
-126.7138145531
 10
25.1582928853
 20
-126.7265606859
 10
25.3139960308
 20
-126.7187208524
 10
25.4630458756
 20
-126.6910053405
 10
25.6035103309
 20
-126.6445206189
 10
25.7337099023
 20
-126.5807163015
  0
LWPOLYLINE
  5
2CC
100
AcDbEntity
  8
RACCORDO
100
AcDbPolyline
 62
7
  6
CONTINUOUS
 90
20
 70
0
 10
-38.2179345143
 20
-88.9935944053
 10
-38.2182117176
 20
-88.9940618867
 10
-38.2146299655
 20
-88.9856777446
 10
-38.2078408227
 20
-88.9623093298
 10
-38.2013465767
 20
-88.9240726329
 10
-38.1979112936
 20
-88.8713694475
 10
-38.1997935692
 20
-88.8054737161
 10
-38.2087050262
 20
-88.7278617047
 10
-38.226112879
 20
-88.6394155906
 10
-38.2529226637
 20
-88.5425939094
 10
-38.2892389728
 20
-88.4407148931
 10
-38.3350396723
 20
-88.3359890226
 10
-38.3897165406
 20
-88.2312139309
 10
-38.4513878915
 20
-88.1304435947
 10
-38.5185317389
 20
-88.0359379259
 10
-38.5893282706
 20
-87.9497815873
 10
-38.6604773353
 20
-87.874970262
 10
-38.7292369959
 20
-87.8127853182
 10
-38.7938680618
 20
-87.763050505
 10
-38.8524098303
 20
-87.7254892888
  0
LWPOLYLINE
  5
2CD
100
AcDbEntity
  8
ASSI
100
AcDbPolyline
 62
7
  6
CONTINUOUS
 90
26
 70
0
 10
-32.0748082011
 20
-34.4922653602
 10
-31.9750723814
 20
-34.431921329
 10
-31.845715359
 20
-34.3448871392
 10
-31.7207354143
 20
-34.2505066516
 10
-31.6005094473
 20
-34.1490644878
 10
-31.4850518089
 20
-34.0405393307
 10
-31.3743481482
 20
-33.9249524974
 10
-31.2687323125
 20
-33.8026525613
 10
-31.1682196604
 20
-33.6736192574
 10
-31.0727948332
 20
-33.5378728507
 10
-30.9827456021
 20
-33.3958227095
 10
-30.8980881944
 20
-33.2474498044
 10
-30.8188063827
 20
-33.0927731648
 10
-30.745139256
 20
-32.9322592464
 10
-30.6771037634
 20
-32.7658904282
 10
-30.6146829556
 20
-32.5936843312
 10
-30.5580650742
 20
-32.4161602747
 10
-30.5072676365
 20
-32.2333022051
 10
-30.4622731252
 20
-32.0451261758
 10
-30.4232172294
 20
-31.8521996664
 10
-30.3901178761
 20
-31.6545083364
 10
-30.3629571385
 20
-31.4520665262
 10
-30.3418169245
 20
-31.2454847363
 10
-30.326724537
 20
-31.0349664668
 10
-30.3176526733
 20
-30.8203082176
 10
-30.3146013334
 20
-30.6015099887
  0
LWPOLYLINE
  5
2CE
100
AcDbEntity
  8
ASSI
100
AcDbPolyline
 62
7
  6
CONTINUOUS
 90
18
 70
0
 10
-78.212236049
 20
-63.5822487046
 10
-78.2328013297
 20
-63.594690404
 10
-78.2723946678
 20
-63.622105574
 10
-78.3098583388
 20
-63.652881165
 10
-78.3452066963
 20
-63.6869945279
 10
-78.3782004183
 20
-63.7242147017
 10
-78.4088235269
 20
-63.7645627685
 10
-78.4370919999
 20
-63.8080176463
 10
-78.4628144488
 20
-63.8542851286
 10
-78.4859735969
 20
-63.903384301
 10
-78.5065867207
 20
-63.9552960778
 10
-78.5245142615
 20
-64.009668996
 10
-78.5397379956
 20
-64.0665197563
 10
-78.5522761466
 20
-64.125831658
 10
-78.5620438263
 20
-64.1872031364
 10
-78.5690127386
 20
-64.2505003365
 10
-78.5732111796
 20
-64.3158571133
 10
-78.5746391493
 20
-64.3832734667
  0
LINE
  5
2CF
100
AcDbEntity
  8
RACCORDO
100
AcDbLine
 62
253
  6
CONTINUOUS
 10
-108.9212677579
 20
-48.1443114988
 11
-108.9643278324
 21
-48.1590994487
  0
LINE
  5
2D0
100
AcDbEntity
  8
0
100
AcDbLine
 62
7
  6
CONTINUOUS
 10
-103.5001531862
 20
64.96773656
 11
-104.2072599673
 21
65.3760111533
  0
LINE
  5
2D1
100
AcDbEntity
  8
ASSI
100
AcDbLine
 62
253
  6
CONTINUOUS
 10
-125.8447274717
 20
87.3268255996
 11
-124.4305139093
 21
86.5102764129
  0
LINE
  5
2D2
100
AcDbEntity
  8
ASSI
100
AcDbLine
 62
253
  6
CONTINUOUS
 10
93.3583746962
 20
-39.238298332
 11
91.9441611338
 21
-38.4217491453
  0
LINE
  5
2D3
100
AcDbEntity
  8
RACCORDO
100
AcDbLine
 62
253
  6
CONTINUOUS
 10
26.138312783
 20
-125.4701490063
 11
26.1097550122
 21
-125.2666513496
  0
LWPOLYLINE
  5
2D4
100
AcDbEntity
  8
0
100
AcDbPolyline
 62
7
  6
CONTINUOUS
 90
19
 70
0
 10
26.4307178569
 20
-125.5019327419
 10
26.4169356985
 20
-125.2751047475
 10
26.381052166
 20
-125.0460862802
 10
26.3230672594
 20
-124.8148773402
 10
26.241252407
 20
-124.5774927692
 10
26.1373361805
 20
-124.3379177254
 10
26.0165042945
 20
-124.1081076836
 10
25.8778983305
 20
-123.8885581882
 10
25.722376707
 20
-123.6787736949
 10
25.5577003946
 20
-123.4892230454
 10
25.3834048205
 20
-123.3209330462
 10
25.1999545575
 20
-123.1728768908
 10
25.0165042945
 20
-123.0524430017
 10
24.8330540315
 20
-122.9610331254
 10
24.6496037685
 20
-122.8972455154
 10
24.4753081943
 20
-122.8642633546
 10
24.310631882
 20
-122.8636499263
 10
24.1551102585
 20
-122.8938419471
 10
24.0164559744
 20
-122.9533606466
  0
LWPOLYLINE
  5
2D5
100
AcDbEntity
  8
RACCORDO
100
AcDbPolyline
 62
253
  6
CONTINUOUS
 90
25
 70
0
 10
25.299347007
 20
-125.6652425793
 10
25.2906711414
 20
-125.510171396
 10
25.2662867957
 20
-125.3523458656
 10
25.2261939698
 20
-125.1917659881
 10
25.1691227362
 20
-125.0251793244
 10
25.0963430224
 20
-124.8558383135
 10
25.0116646112
 20
-124.6935002729
 10
24.9145771221
 20
-124.5390266203
 10
24.8055909355
 20
-124.391555938
 10
24.6900469757
 20
-124.2582612899
 10
24.5675394773
 20
-124.1397498724
 10
24.4384742056
 20
-124.0354144891
 10
24.3094093816
 20
-123.9506066138
 10
24.1803458864
 20
-123.8863696837
 10
24.0512828388
 20
-123.8416602616
 10
23.9287758163
 20
-123.8186995099
 10
23.8132292879
 20
-123.8185621355
 10
23.7042387846
 20
-123.8401734314
 10
23.6071464773
 20
-123.8825304387
 10
23.5224623883
 20
-123.9470859783
 10
23.4496764953
 20
-124.0323872293
 10
23.3926009016
 20
-124.1330727709
 10
23.3525063083
 20
-124.2473554627
 10
23.3281220143
 20
-124.377022445
 10
23.3194480196
 20
-124.5220737179
  0
LINE
  5
2D6
100
AcDbEntity
  8
RACCORDO
100
AcDbLine
 62
253
  6
CONTINUOUS
 10
26.1478751444
 20
-125.6652425793
 11
26.138312783
 21
-125.4701490063
  0
LWPOLYLINE
  5
2D7
100
AcDbEntity
  8
ASSI
100
AcDbPolyline
 62
7
  6
CONTINUOUS
 90
58
 70
0
 10
18.2989898732
 20
-38.2586313601
 10
18.3007204424
 20
-38.3539269686
 10
18.3058315449
 20
-38.4506813434
 10
18.3143231807
 20
-38.5488944844
 10
18.3262220769
 20
-38.6487436018
 10
18.3415015064
 20
-38.7500514854
 10
18.3600812877
 20
-38.852286505
 10
18.3819787704
 20
-38.9554535342
 10
18.407176605
 20
-39.0595476993
 10
18.4355425615
 20
-39.1640227484
 10
18.4670932944
 20
-39.2688806837
 10
18.5018121492
 20
-39.3741195031
 10
18.5395169329
 20
-39.4791869479
 10
18.580223342
 20
-39.5840821171
 10
18.6239156799
 20
-39.6888059117
 10
18.6703646637
 20
-39.7928087757
 10
18.7195847847
 20
-39.8960869194
 10
18.7715615515
 20
-39.9986441324
 10
18.8260222073
 20
-40.0999422284
 10
18.8829798094
 20
-40.1999745884
 10
18.9424213004
 20
-40.2987478314
 10
19.004034751
 20
-40.3957436279
 10
19.0678315788
 20
-40.4909526342
 10
19.1338003662
 20
-40.584384194
 10
19.2015949307
 20
-40.6755480094
 10
19.2712248702
 20
-40.7644321591
 10
19.3426805868
 20
-40.8510485643
 10
19.4155871045
 20
-40.9349426907
 10
19.4899520499
 20
-41.0161002276
 10
19.5657677964
 20
-41.0945354857
 10
19.6426364879
 20
-41.1698368626
 10
19.7205636596
 20
-41.2419878839
 10
19.7995437763
 20
-41.3110050241
 10
19.8791623764
 20
-41.3765261038
 10
19.9594228163
 20
-41.4385327449
 10
20.0403217397
 20
-41.4970433255
 10
20.1214346156
 20
-41.5517508016
 10
20.2027625687
 20
-41.6026351805
 10
20.2843044743
 20
-41.6497164549
 10
20.3656324274
 20
-41.6927475576
 10
20.4467453033
 20
-41.7317071975
 10
20.5276442266
 20
-41.7666166657
 10
20.6079046666
 20
-41.7972927689
 10
20.6875232667
 20
-41.8237132529
 10
20.7665033834
 20
-41.8459003718
 10
20.8444305551
 20
-41.863737695
 10
20.9212992466
 20
-41.8772023562
 10
20.9971149931
 20
-41.8863172218
 10
21.0714799385
 20
-41.8910344598
 10
21.1443864561
 20
-41.8913309525
 10
21.2158421727
 20
-41.8872298177
 10
21.2854721122
 20
-41.8787525769
 10
21.3532666767
 20
-41.8658762253
 10
21.4192354642
 20
-41.8486237676
 10
21.483032292
 20
-41.827085739
 10
21.5446457426
 20
-41.8012396108
 10
21.6040872336
 20
-41.7711079117
 10
21.6185954526
 20
-41.7629101804
  0
LWPOLYLINE
  5
2D8
100
AcDbEntity
  8
ASSI
100
AcDbPolyline
 62
7
  6
CONTINUOUS
 90
39
 70
0
 10
19.7132034356
 20
-37.4420821735
 10
19.7149340048
 20
-37.537377782
 10
19.7200451073
 20
-37.6341321567
 10
19.7285367431
 20
-37.7323452978
 10
19.7404356393
 20
-37.8321944151
 10
19.7557150687
 20
-37.9335022988
 10
19.7742948501
 20
-38.0357373183
 10
19.7961923328
 20
-38.1389043475
 10
19.8213901674
 20
-38.2429985126
 10
19.8497561239
 20
-38.3474735617
 10
19.8813068568
 20
-38.4523314971
 10
19.9160257116
 20
-38.5575703165
 10
19.9537304952
 20
-38.6626377612
 10
19.9944369044
 20
-38.7675329304
 10
20.0381292423
 20
-38.872256725
 10
20.0845782261
 20
-38.9762595891
 10
20.1337983471
 20
-39.0795377327
 10
20.1857751139
 20
-39.1820949457
 10
20.2402357696
 20
-39.2833930418
 10
20.2971933717
 20
-39.3834254018
 10
20.3566348628
 20
-39.4821986447
 10
20.4182483133
 20
-39.5791944412
 10
20.4820451412
 20
-39.6744034475
 10
20.5480139286
 20
-39.7678350074
 10
20.6158084931
 20
-39.8589988227
 10
20.6854384326
 20
-39.9478829724
 10
20.7568941492
 20
-40.0344993776
 10
20.8298006669
 20
-40.118393504
 10
20.9041656123
 20
-40.1995510409
 10
20.9799813588
 20
-40.277986299
 10
21.0568500502
 20
-40.353287676
 10
21.1347772219
 20
-40.4254386973
 10
21.2137573387
 20
-40.4944558374
 10
21.2933759388
 20
-40.5599769172
 10
21.3736363787
 20
-40.6219835582
 10
21.4545353021
 20
-40.6804941389
 10
21.5356481779
 20
-40.7352016149
 10
21.616976131
 20
-40.7860859939
 10
21.6577470839
 20
-40.8096266311
  0
LINE
  5
2D9
100
AcDbEntity
  8
0
100
AcDbLine
 62
7
  6
CONTINUOUS
 10
21.6577470839
 20
70.3096086567
 11
21.6577470839
 21
-114.9896116074
  0
LWPOLYLINE
  5
2DA
100
AcDbEntity
  8
0
100
AcDbPolyline
 62
7
  6
CONTINUOUS
 90
16
 70
0
 10
21.6577470839
 20
-114.9896116074
 10
21.6567559705
 20
-115.0319634914
 10
21.6538540846
 20
-115.0728626759
 10
21.649041426
 20
-115.1123091607
 10
21.6422943723
 20
-115.1504029195
 10
21.633636546
 20
-115.1870439788
 10
21.6231388146
 20
-115.2219324175
 10
21.6107860767
 20
-115.2550538505
 10
21.5965934338
 20
-115.286422663
 10
21.580677058
 20
-115.3157820894
 10
21.5630228013
 20
-115.3431156371
 10
21.5436448118
 20
-115.3684397986
 10
21.5227017055
 20
-115.3915472861
 10
21.5001806364
 20
-115.4124199057
 10
21.4760944506
 20
-115.4310758513
 10
21.4506644628
 20
-115.4473484686
  0
LWPOLYLINE
  5
2DB
100
AcDbEntity
  8
ASSI
100
AcDbPolyline
 62
7
  6
CONTINUOUS
 90
7
 70
0
 10
19.7714877726
 20
-36.9311782294
 10
19.7557150687
 20
-36.9997534165
 10
19.7404356393
 20
-37.083416998
 10
19.7285367431
 20
-37.1695255683
 10
19.7200451073
 20
-37.2579327812
 10
19.7149340048
 20
-37.3487849829
 10
19.7132034356
 20
-37.4420821735
  0
LWPOLYLINE
  5
2DC
100
AcDbEntity
  8
RACCORDO
100
AcDbPolyline
 62
253
  6
CONTINUOUS
 90
6
 70
0
 10
-37.3708362194
 20
-89.8876485927
 10
-37.2886073656
 20
-89.7706736978
 10
-37.2234689916
 20
-89.6339203347
 10
-37.1763019493
 20
-89.4792377277
 10
-37.1477441447
 20
-89.308717781
 10
-37.1381817718
 20
-89.1246664764
  0
LWPOLYLINE
  5
2DD
100
AcDbEntity
  8
RACCORDO
100
AcDbPolyline
 62
253
  6
CONTINUOUS
 90
3
 70
0
 10
-39.0116746968
 20
-87.7367588598
 10
-38.9670241296
 20
-87.6869202068
 10
-38.9571332208
 20
-87.6798507352
  0
LWPOLYLINE
  5
2DE
100
AcDbEntity
  8
ASSI
100
AcDbPolyline
 62
7
  6
CONTINUOUS
 90
18
 70
0
 10
-76.4621685156
 20
-66.6132593054
 10
-76.4416032348
 20
-66.600817606
 10
-76.4020098967
 20
-66.573402436
 10
-76.3645462258
 20
-66.542626845
 10
-76.3291978682
 20
-66.5085134821
 10
-76.2962041462
 20
-66.4712933083
 10
-76.2655810376
 20
-66.4309452415
 10
-76.2373125646
 20
-66.3874903637
 10
-76.2115901157
 20
-66.3412228814
 10
-76.1884309677
 20
-66.292123709
 10
-76.1678178438
 20
-66.2402119322
 10
-76.149890303
 20
-66.185839014
 10
-76.1346665689
 20
-66.1289882537
 10
-76.1221284179
 20
-66.069676352
 10
-76.1123607383
 20
-66.0083048736
 10
-76.1053918259
 20
-65.9450076735
 10
-76.1011933849
 20
-65.8796508967
 10
-76.0997654152
 20
-65.8122345433
  0
LWPOLYLINE
  5
2DF
100
AcDbEntity
  8
0
100
AcDbPolyline
 62
253
  6
CONTINUOUS
 90
19
 70
0
 10
130.5521913866
 20
52.9553257541
 10
130.6427030535
 20
53.0099175778
 10
130.7290043724
 20
53.0667370046
 10
130.8109310639
 20
53.1256758754
 10
130.8883271759
 20
53.1866219968
 10
130.9610453805
 20
53.2494593543
 10
131.0289472544
 20
53.3140683335
 10
131.0919035426
 20
53.3803259474
 10
131.1497944041
 20
53.448106071
 10
131.2025096406
 20
53.517279681
 10
131.2499489054
 20
53.5877151013
 10
131.2920218953
 20
53.6592782543
 10
131.3286485219
 20
53.7318329154
 10
131.3597590644
 20
53.8052409727
 10
131.3852943021
 20
53.8793626897
 10
131.4052056271
 20
53.9540569715
 10
131.4194551373
 20
54.0291816334
 10
131.4280157078
 20
54.1045936713
 10
131.430871043
 20
54.1801495341
  0
LINE
  5
2E0
100
AcDbEntity
  8
ASSI
100
AcDbLine
 62
253
  6
CONTINUOUS
 10
130.5521913866
 20
52.9553257541
 11
87.7722311248
 21
28.2547128577
  0
LINE
  5
2E1
100
AcDbEntity
  8
ASSI
100
AcDbLine
 62
253
  6
CONTINUOUS
 10
-127.2759957948
 20
93.6587694389
 11
-125.8617822324
 21
92.8422202523
  0
LINE
  5
2E2
100
AcDbEntity
  8
ASSI
100
AcDbLine
 62
253
  6
CONTINUOUS
 10
91.927106373
 20
-32.9063544927
 11
90.5128928106
 21
-32.089805306
  0
LINE
  5
2E3
100
AcDbEntity
  8
ASSI
100
AcDbLine
 62
253
  6
CONTINUOUS
 10
-129.6417856391
 20
97.893588175
 11
-128.2275720767
 21
97.0770389883
  0
LINE
  5
2E4
100
AcDbEntity
  8
ASSI
100
AcDbLine
 62
253
  6
CONTINUOUS
 10
89.5613165288
 20
-28.6715357566
 11
88.1471029664
 21
-27.85498657
  0
LINE
  5
2E5
100
AcDbEntity
  8
ASSI
100
AcDbLine
 62
253
  6
CONTINUOUS
 10
-131.430871043
 20
105.8085179741
 11
-130.0166574807
 21
104.9919687875
  0
LINE
  5
2E6
100
AcDbEntity
  8
ASSI
100
AcDbLine
 62
253
  6
CONTINUOUS
 10
87.7722311248
 20
-20.7566059574
 11
86.3580175624
 21
-19.9400567708
  0
LWPOLYLINE
  5
2E7
100
AcDbEntity
  8
ASSI
100
AcDbPolyline
 62
7
  6
CONTINUOUS
 90
34
 70
0
 10
91.9441611338
 20
-78.8483190807
 10
91.9265202914
 20
-78.8258001573
 10
91.8550645748
 20
-78.7391837521
 10
91.7821580571
 20
-78.6552896257
 10
91.7077931117
 20
-78.5741320887
 10
91.6319773652
 20
-78.4956968306
 10
91.5551086738
 20
-78.4203954537
 10
91.4771815021
 20
-78.3482444324
 10
91.3982013853
 20
-78.2792272922
 10
91.3185827852
 20
-78.2137062125
 10
91.2383223453
 20
-78.1516995714
 10
91.1574234219
 20
-78.0931889908
 10
91.0763105461
 20
-78.0384815147
 10
90.994982593
 20
-77.9875971358
 10
90.9134406873
 20
-77.9405158614
 10
90.8321127342
 20
-77.8974847587
 10
90.7509998584
 20
-77.8585251188
 10
90.670100935
 20
-77.8236156506
 10
90.5898404951
 20
-77.7929395474
 10
90.5102218949
 20
-77.7665190635
 10
90.4312417782
 20
-77.7443319445
 10
90.3533146065
 20
-77.7264946213
 10
90.276445915
 20
-77.7130299601
 10
90.2006301686
 20
-77.7039150946
 10
90.1262652232
 20
-77.6991978566
 10
90.0533587055
 20
-77.6989013638
 10
89.9819029889
 20
-77.7030024986
 10
89.9122730494
 20
-77.7114797394
 10
89.8444784849
 20
-77.724356091
 10
89.7785096975
 20
-77.7416085488
 10
89.7147128696
 20
-77.7631465774
 10
89.653099419
 20
-77.7889927055
 10
89.593657928
 20
-77.8191244046
 10
89.579149709
 20
-77.8273221359
  0
LWPOLYLINE
  5
2E8
100
AcDbEntity
  8
0
100
AcDbPolyline
 62
7
  6
CONTINUOUS
 90
31
 70
0
 10
37.21409627
 20
-122.3385542873
 10
37.2150873833
 20
-122.3820506842
 10
37.2179892693
 20
-122.4263008938
 10
37.2228019278
 20
-122.471304916
 10
37.2295489815
 20
-122.5171900034
 10
37.2382068078
 20
-122.5638289034
 10
37.2487045392
 20
-122.6108398592
 10
37.2610572771
 20
-122.6582259243
 10
37.27524992
 20
-122.7059840451
 10
37.2911662958
 20
-122.7537233033
 10
37.3088205525
 20
-122.8014435441
 10
37.3281985421
 20
-122.8491449222
 10
37.3491416483
 20
-122.8964369839
 10
37.3716627174
 20
-122.9433163696
 10
37.3957489032
 20
-122.9897864388
 10
37.4212030511
 20
-123.0354668165
 10
37.4480363892
 20
-123.080351021
 10
37.4762376894
 20
-123.124445534
 10
37.5055761134
 20
-123.1673894251
 10
37.5360609945
 20
-123.2091732504
 10
37.5676829995
 20
-123.2498064539
 10
37.6001832902
 20
-123.2889564374
 10
37.6335690755
 20
-123.326611027
 10
37.6678331465
 20
-123.3627823967
 10
37.7026950389
 20
-123.3971744701
 10
37.7381596595
 20
-123.429772643
 10
37.7742221015
 20
-123.4605915197
 10
37.8105871801
 20
-123.4893788359
 10
37.8471565005
 20
-123.5160505036
 10
37.8840284575
 20
-123.5406906107
 10
37.9212030511
 20
-123.5632991574
  0
LINE
  5
2E9
100
AcDbEntity
  8
0
100
AcDbLine
 62
7
  6
CONTINUOUS
 10
35.7998827076
 20
-123.155103474
 11
35.7998827076
 21
62.6031613901
  0
LINE
  5
2EA
100
AcDbEntity
  8
0
100
AcDbLine
 62
7
  6
CONTINUOUS
 10
37.21409627
 20
-122.3385542873
 11
37.21409627
 21
61.8361797717
  0
LWPOLYLINE
  5
2EB
100
AcDbEntity
  8
ASSI
100
AcDbPolyline
 62
7
  6
CONTINUOUS
 90
20
 70
0
 10
18.8684715903
 20
-36.9998628031
 10
18.8260222073
 20
-37.0259242206
 10
18.7715615515
 20
-37.0643325165
 10
18.7195847847
 20
-37.1068682621
 10
18.6703646637
 20
-37.1533082438
 10
18.6239156799
 20
-37.2036729856
 10
18.580223342
 20
-37.2579419635
 10
18.5395169329
 20
-37.3158303918
 10
18.5018121492
 20
-37.3773572975
 10
18.4670932944
 20
-37.4425036536
 10
18.4355425615
 20
-37.5109275935
 10
18.407176605
 20
-37.582646347
 10
18.3819787704
 20
-37.6576426844
 10
18.3600812877
 20
-37.7355230494
 10
18.3415015064
 20
-37.8163026031
 10
18.3262220769
 20
-37.8999661846
 10
18.3143231807
 20
-37.986074755
 10
18.3058315449
 20
-38.0744819678
 10
18.3007204424
 20
-38.1653341696
 10
18.2989898732
 20
-38.2586313601
  0
LINE
  5
2EC
100
AcDbEntity
  8
ASSI
100
AcDbLine
 62
7
  6
CONTINUOUS
 10
21.6185954526
 20
-41.7629101804
 11
21.6577470839
 21
-41.7388733881
  0
LINE
  5
2ED
100
AcDbEntity
  8
0
100
AcDbLine
 62
253
  6
CONTINUOUS
 10
-49.0529652049
 20
-74.1620930942
 11
-49.760037816
 21
-74.5703479581
  0
LINE
  5
2EE
100
AcDbEntity
  8
ASSI
100
AcDbLine
 62
253
  6
CONTINUOUS
 10
19.7132034356
 20
-37.4420821735
 11
18.2989898732
 21
-38.2586313601
  0
LWPOLYLINE
  5
2EF
100
AcDbEntity
  8
0
100
AcDbPolyline
 62
7
  6
CONTINUOUS
 90
16
 70
0
 10
-49.2600136559
 20
-74.6198891358
 10
-49.286871154
 20
-74.6338008226
 10
-49.3150724542
 20
-74.645329181
 10
-49.3444108782
 20
-74.6543937955
 10
-49.3748957593
 20
-74.6609744442
 10
-49.4065177643
 20
-74.665091349
 10
-49.439018055
 20
-74.6667108114
 10
-49.4724038403
 20
-74.665812333
 10
-49.5066679113
 20
-74.6624164123
 10
-49.5415298038
 20
-74.6565508461
 10
-49.5769944243
 20
-74.6481953642
 10
-49.6130568663
 20
-74.6373702368
 10
-49.6494219449
 20
-74.6241640718
 10
-49.6859912653
 20
-74.6086064049
 10
-49.7228632223
 20
-74.5906677004
 10
-49.760037816
 20
-74.5703479581
  0
LWPOLYLINE
  5
2F0
100
AcDbEntity
  8
0
100
AcDbPolyline
 62
7
  6
CONTINUOUS
 90
17
 70
0
 10
62.6699403927
 20
-145.9361234839
 10
62.6968738703
 20
-146.2688476853
 10
62.7766484153
 20
-146.6200006301
 10
62.9062254401
 20
-146.9762070117
 10
63.0841539551
 20
-147.3299485422
 10
63.2974331509
 20
-147.6553781775
 10
63.5406782978
 20
-147.9464240404
 10
63.8046242636
 20
-148.1920002846
 10
64.0841539551
 20
-148.3856132241
 10
64.3588428088
 20
-148.5131160265
 10
64.6230688495
 20
-148.5735640884
 10
64.8667677893
 20
-148.5646549619
 10
65.0841539551
 20
-148.4847234763
 10
65.2593434616
 20
-148.3396100334
 10
65.389770365
 20
-148.1340506394
 10
65.470466745
 20
-147.8758749877
 10
65.4983675174
 20
-147.5692217144
  0
LWPOLYLINE
  5
2F1
100
AcDbEntity
  8
0
100
AcDbPolyline
 62
7
  6
CONTINUOUS
 90
17
 70
0
 10
65.4983675174
 20
-147.5692218572
 10
65.4714340398
 20
-147.2364976558
 10
65.3916594948
 20
-146.885344711
 10
65.2620824701
 20
-146.5291383294
 10
65.0841539551
 20
-146.1753967989
 10
64.8708747592
 20
-145.8499671636
 10
64.6276296123
 20
-145.5589213007
 10
64.3636836465
 20
-145.3133450565
 10
64.0841539551
 20
-145.119732117
 10
63.8094651013
 20
-144.9922293146
 10
63.5452390606
 20
-144.9317812527
 10
63.3015401208
 20
-144.9406903792
 10
63.0841539551
 20
-145.0206218648
 10
62.9089644485
 20
-145.1657353077
 10
62.7785375451
 20
-145.3712947017
 10
62.6978411651
 20
-145.6294703534
 10
62.6699403927
 20
-145.9361236267
  0
LWPOLYLINE
  5
2F2
100
AcDbEntity
  8
ASSI
100
AcDbPolyline
 62
7
  6
CONTINUOUS
 90
51
 70
0
 10
62.846717088
 20
-146.0381921322
 10
62.8481450577
 20
-146.1072574693
 10
62.8523434987
 20
-146.1774625005
 10
62.859312411
 20
-146.2488072259
 10
62.8690800907
 20
-146.3214581759
 10
62.8816182417
 20
-146.3952488201
 10
62.8968419758
 20
-146.4696795669
 10
62.9147695166
 20
-146.5447547599
 10
62.9353826405
 20
-146.6204700555
 10
62.9585417885
 20
-146.6963128315
 10
62.9842642374
 20
-146.7722839529
 10
63.0125327104
 20
-146.8483825548
 10
63.043155819
 20
-146.9240934198
 10
63.076149541
 20
-146.9994139168
 10
63.1114978986
 20
-147.074346677
 10
63.1489615695
 20
-147.1483843761
 10
63.1885549076
 20
-147.2215209405
 10
63.2302635591
 20
-147.293762444
 10
63.2738051401
 20
-147.3646197831
 10
63.3191920882
 20
-147.4340835655
 10
63.3664119657
 20
-147.5021631835
 10
63.4151450757
 20
-147.5683977117
 10
63.4654016864
 20
-147.6327746296
 10
63.5171715295
 20
-147.6953064576
 10
63.5701041028
 20
-147.7555698307
 10
63.6242072964
 20
-147.8135493559
 10
63.6794732203
 20
-147.8692604261
 10
63.7355277026
 20
-147.9223258557
 10
63.7923760941
 20
-147.9727276921
 10
63.8500130439
 20
-148.0204838879
 10
63.9080483274
 20
-148.0652711149
 10
63.9664846476
 20
-148.1070692265
 10
64.0253193013
 20
-148.1458983694
 10
64.0841539551
 20
-148.1814956549
 10
64.1429886088
 20
-148.2138391528
 10
64.2018232626
 20
-148.2429507933
 10
64.2602595827
 20
-148.2686334794
 10
64.3182948662
 20
-148.2908639431
 10
64.375931816
 20
-148.3096654523
 10
64.4327802075
 20
-148.3249107135
 10
64.4888346898
 20
-148.3365755949
 10
64.5441006137
 20
-148.3446842283
 10
64.5982038073
 20
-148.349181715
 10
64.6511363806
 20
-148.3500435508
 10
64.7029062237
 20
-148.3472942399
 10
64.7531628344
 20
-148.3409523963
 10
64.8018959444
 20
-148.330993642
 10
64.8491158219
 20
-148.3174423549
 10
64.89450277
 20
-148.3003902825
 10
64.938044351
 20
-148.2798136697
 10
64.9591877217
 20
-148.2681779709
  0
LWPOLYLINE
  5
2F3
100
AcDbEntity
  8
ASSI
100
AcDbPolyline
 62
7
  6
CONTINUOUS
 90
51
 70
0
 10
65.3215908221
 20
-147.4671532089
 10
65.3201628524
 20
-147.3980878718
 10
65.3159644114
 20
-147.3278828406
 10
65.3089954991
 20
-147.2565381152
 10
65.2992278194
 20
-147.1838871652
 10
65.2866896684
 20
-147.110096521
 10
65.2714659343
 20
-147.0356657742
 10
65.2535383935
 20
-146.9605905812
 10
65.2329252696
 20
-146.8848752856
 10
65.2097661216
 20
-146.8090325096
 10
65.1840436727
 20
-146.7330613882
 10
65.1557751997
 20
-146.6569627863
 10
65.1251520911
 20
-146.5812519213
 10
65.0921583691
 20
-146.5059314243
 10
65.0568100116
 20
-146.4309986641
 10
65.0193463406
 20
-146.356960965
 10
64.9797530025
 20
-146.2838244006
 10
64.938044351
 20
-146.2115828971
 10
64.89450277
 20
-146.140725558
 10
64.8491158219
 20
-146.0712617756
 10
64.8018959444
 20
-146.0031821576
 10
64.7531628344
 20
-145.9369476294
 10
64.7029062237
 20
-145.8725707115
 10
64.6511363806
 20
-145.8100388835
 10
64.5982038073
 20
-145.7497755104
 10
64.5441006137
 20
-145.6917959852
 10
64.4888346898
 20
-145.636084915
 10
64.4327802075
 20
-145.5830194854
 10
64.375931816
 20
-145.532617649
 10
64.3182948662
 20
-145.4848614532
 10
64.2602595827
 20
-145.4400742262
 10
64.2018232626
 20
-145.3982761146
 10
64.1429886088
 20
-145.3594469717
 10
64.0841539551
 20
-145.3238496862
 10
64.0253193013
 20
-145.2915061883
 10
63.9664846476
 20
-145.2623945478
 10
63.9080483274
 20
-145.2367118617
 10
63.8500130439
 20
-145.214481398
 10
63.7923760941
 20
-145.1956798888
 10
63.7355277026
 20
-145.1804346276
 10
63.6794732203
 20
-145.1687697462
 10
63.6242072964
 20
-145.1606611128
 10
63.5701041028
 20
-145.1561636261
 10
63.5171715295
 20
-145.1553017903
 10
63.4654016864
 20
-145.1580511012
 10
63.4151450757
 20
-145.1643929448
 10
63.3664119657
 20
-145.1743516991
 10
63.3191920882
 20
-145.1879029862
 10
63.2738051401
 20
-145.2049550586
 10
63.2302635591
 20
-145.2255316714
 10
63.2091201884
 20
-145.2371673702
  0
LWPOLYLINE
  5
2F4
100
AcDbEntity
  8
0
100
AcDbPolyline
 62
7
  6
CONTINUOUS
 90
7
 70
0
 10
-37.2695043016
 20
-89.8768303611
 10
-37.1487207357
 20
-89.7865818496
 10
-37.0448045092
 20
-89.6670066594
 10
-36.9629896568
 20
-89.5240998292
 10
-36.9050047502
 20
-89.3598504059
 10
-36.8691212177
 20
-89.1722693426
 10
-36.8553390593
 20
-88.9613566391
  0
LWPOLYLINE
  5
2F5
100
AcDbEntity
  8
RACCORDO
100
AcDbPolyline
 62
253
  6
CONTINUOUS
 90
3
 70
0
 10
-37.5523470139
 20
-90.0401401987
 10
-37.4690437898
 20
-89.9832633306
 10
-37.3708362194
 20
-89.8876485927
  0
LWPOLYLINE
  5
2F6
100
AcDbEntity
  8
RACCORDO
100
AcDbPolyline
 62
7
  6
CONTINUOUS
 90
10
 70
0
 10
-39.5524436545
 20
-86.5760943808
 10
-39.662088998
 20
-86.6487625305
 10
-39.7644434472
 20
-86.7366025178
 10
-39.8576651344
 20
-86.8393432919
 10
-39.9400136136
 20
-86.9564488375
 10
-40.0099405901
 20
-87.0871790868
 10
-40.0662406925
 20
-87.2310273916
 10
-40.1078215606
 20
-87.3876504653
 10
-40.1335415064
 20
-87.5563785252
 10
-40.1423448278
 20
-87.7365330002
  0
LINE
  5
2F7
100
AcDbEntity
  8
0
100
AcDbLine
 62
253
  6
CONTINUOUS
 10
-33.4965818487
 20
-81.5110949546
 11
-34.9107954111
 21
-82.3276441412
  0
LINE
  5
2F8
100
AcDbEntity
  8
0
100
AcDbLine
 62
7
  6
CONTINUOUS
 10
-39.269600942
 20
-86.4127845435
 11
-39.5524436545
 21
-86.5760943808
  0
LINE
  5
2F9
100
AcDbEntity
  8
0
100
AcDbLine
 62
253
  6
CONTINUOUS
 10
-32.7894750675
 20
-82.7358398247
 11
-34.2036886299
 21
-83.5523890113
  0
LINE
  5
2FA
100
AcDbEntity
  8
0
100
AcDbLine
 62
7
  6
CONTINUOUS
 10
-37.2695043014
 20
-89.8768303614
 11
-37.5523470139
 21
-90.0401401987
  0
LINE
  5
2FB
100
AcDbEntity
  8
ASSI
100
AcDbLine
 62
7
  6
CONTINUOUS
 10
21.6577470839
 20
55.5332042755
 11
17.4151063967
 21
57.9828518355
  0
LINE
  5
2FC
100
AcDbEntity
  8
ASSI
100
AcDbLine
 62
7
  6
CONTINUOUS
 10
-49.0529310348
 20
96.3606636083
 11
-53.2955717219
 21
98.8103111683
  0
LINE
  5
2FD
100
AcDbEntity
  8
ASSI
100
AcDbLine
 62
7
  6
CONTINUOUS
 10
21.6577470839
 20
57.1663026488
 11
18.8293199591
 21
58.7994010222
  0
LINE
  5
2FE
100
AcDbEntity
  8
ASSI
100
AcDbLine
 62
7
  6
CONTINUOUS
 10
-49.0529310348
 20
97.9937619816
 11
-51.8813581595
 21
99.6268603549
  0
LINE
  5
2FF
100
AcDbEntity
  8
ASSI
100
AcDbLine
 62
7
  6
CONTINUOUS
 10
-53.2955717219
 20
103.3008976906
 11
-49.0529310348
 21
100.8512501307
  0
LINE
  5
300
100
AcDbEntity
  8
ASSI
100
AcDbLine
 62
7
  6
CONTINUOUS
 10
17.4151063967
 20
62.4734383579
 11
21.6577470839
 21
60.0237907979
  0
LINE
  5
301
100
AcDbEntity
  8
ASSI
100
AcDbLine
 62
253
  6
CONTINUOUS
 10
76.2110352524
 20
42.8086762817
 11
76.2110352524
 21
41.1757357281
  0
LWPOLYLINE
  5
302
100
AcDbEntity
  8
ASSI
100
AcDbPolyline
 62
7
  6
CONTINUOUS
 90
22
 70
0
 10
86.3580175624
 20
21.3558632797
 10
86.333208131
 20
21.3058297999
 10
86.3031905535
 20
21.2356199101
 10
86.2764136075
 20
21.1623231231
 10
86.2528943286
 20
21.0859232117
 10
86.2326156813
 20
21.0064364033
 10
86.2156840812
 20
20.9242798183
 10
86.2021171233
 20
20.8394394222
 10
86.1918972126
 20
20.7519292497
 10
86.1850779798
 20
20.6622085251
 10
86.1816773019
 20
20.5702656281
 10
86.1816773019
 20
20.4761121791
 10
86.1850779798
 20
20.3802422644
 10
86.1918972126
 20
20.2826468608
 10
86.2021171233
 20
20.1833349915
 10
86.2156840812
 20
20.0828278125
 10
86.2326156813
 20
19.9811190402
 10
86.2528943286
 20
19.8782149581
 10
86.2764136075
 20
19.774655573
 10
86.3031905535
 20
19.67043744
 10
86.333208131
 20
19.565564004
 10
86.3580175624
 20
19.4868812147
  0
LINE
  5
303
100
AcDbEntity
  8
RACCORDO
100
AcDbLine
 62
253
  6
CONTINUOUS
 10
-38.2105896393
 20
-88.9717708315
 11
-38.2536497137
 21
-88.9865587815
  0
LWPOLYLINE
  5
304
100
AcDbEntity
  8
RACCORDO
100
AcDbPolyline
 62
253
  6
CONTINUOUS
 90
5
 70
0
 10
-108.9643278324
 20
55.8592138147
 10
-109.0329718077
 20
55.8530867994
 10
-109.1067558804
 20
55.8622519169
 10
-109.1840318346
 20
55.8865044364
 10
-109.2630734528
 20
55.9253025988
  0
LWPOLYLINE
  5
305
100
AcDbEntity
  8
ASSI
100
AcDbPolyline
 62
7
  6
CONTINUOUS
 90
28
 70
0
 10
76.4342955415
 20
41.0601316775
 10
68.4010746008
 20
45.2483497169
 10
60.6189998449
 20
49.3384446673
 10
52.8648109849
 20
53.4460205791
 10
45.1383902403
 20
57.5711408304
 10
37.4398553915
 20
61.7137420431
 10
29.7695597796
 20
65.8736340835
 10
22.1275047008
 20
70.0508177454
 10
14.5136888588
 20
74.2452922349
 10
6.9284617065
 20
78.4568650376
 10
-0.628175444
 20
82.6855369383
 10
-8.1562239049
 20
86.9313071521
 10
-15.6553381599
 20
91.1939808102
 10
-23.1255168811
 20
95.4735586883
 10
-30.5667613963
 20
99.7700400107
 10
-37.9787301735
 20
104.0832275809
 10
-45.3614218689
 20
108.4131221658
 10
-52.7148378262
 20
112.7597229985
 10
-60.0386405443
 20
117.1228305823
 10
-67.3328286641
 20
121.5024456749
 10
-74.5974035447
 20
125.8985675185
 10
-81.8320317626
 20
130.3109943436
 10
-89.0367119432
 20
134.7397268985
 10
-96.2114454612
 20
139.1847644349
 10
-103.3559030163
 20
143.645902938
 10
-110.4699748419
 20
148.123074403
 10
-117.5537707046
 20
152.6163468347
 10
-124.6072906046
 20
157.1257202332
  0
LWPOLYLINE
  5
306
100
AcDbEntity
  8
ASSI
100
AcDbPolyline
 62
7
  6
CONTINUOUS
 90
28
 70
0
 10
76.2110352524
 20
42.8086762817
 10
68.4010746008
 20
46.8812902705
 10
60.6189998449
 20
50.9713852209
 10
52.8648109849
 20
55.0789611327
 10
45.1383902403
 20
59.204081384
 10
37.4398553915
 20
63.3466825967
 10
29.7695597796
 20
67.5065746371
 10
22.1275047008
 20
71.6837582989
 10
14.5136888588
 20
75.8782327885
 10
6.9284617065
 20
80.0898055912
 10
-0.628175444
 20
84.3184774919
 10
-8.1562239049
 20
88.5642477057
 10
-15.6553381599
 20
92.8269213637
 10
-23.1255168811
 20
97.1064992419
 10
-30.5667613963
 20
101.4029805643
 10
-37.9787301735
 20
105.7161681345
 10
-45.3614218689
 20
110.0460627194
 10
-52.7148378262
 20
114.3926635521
 10
-60.0386405443
 20
118.7557711359
 10
-67.3328286641
 20
123.1353862285
 10
-74.5974035447
 20
127.5315080721
 10
-81.8320317626
 20
131.9439348972
 10
-89.0367119432
 20
136.3726674521
 10
-96.2114454612
 20
140.8177049885
 10
-103.3559030163
 20
145.2788434916
 10
-110.4699748419
 20
149.7560149566
 10
-117.5537707046
 20
154.2492873883
 10
-124.6072906046
 20
158.7586607867
  0
LWPOLYLINE
  5
307
100
AcDbEntity
  8
ASSI
100
AcDbPolyline
 62
7
  6
CONTINUOUS
 90
58
 70
0
 10
76.2110352524
 20
42.8086762817
 10
76.4722834275
 20
42.6705492798
 10
76.736720553
 20
42.5258877757
 10
77.0041644294
 20
42.3747344102
 10
77.2745441979
 20
42.2170921389
 10
77.5475566491
 20
42.0530603278
 10
77.8226692778
 20
41.8828608671
 10
78.0997149568
 20
41.7066136476
 10
78.3784793212
 20
41.5243971817
 10
78.658363618
 20
41.3364252163
 10
78.9389571079
 20
41.1430155233
 10
79.2202967297
 20
40.9441388032
 10
79.5024499171
 20
40.7394852603
 10
79.7853183131
 20
40.5291189008
 10
80.0686001482
 20
40.3132243011
 10
80.3520410617
 20
40.0916388039
 10
80.6355727071
 20
39.8644138543
 10
80.9188432346
 20
39.6317673586
 10
81.2011706118
 20
39.3937950709
 10
81.4823456249
 20
39.1507038252
 10
81.7621649927
 20
38.9026282451
 10
82.0399628009
 20
38.6495798739
 10
82.3156062548
 20
38.3917185761
 10
82.5888193737
 20
38.1292746181
 10
82.858734593
 20
37.862389504
 10
83.1252779355
 20
37.5911948747
 10
83.3881393337
 20
37.316007531
 10
83.6461369331
 20
37.0372866707
 10
83.8991546317
 20
36.7552579513
 10
84.1469996058
 20
36.4702141278
 10
84.3884445364
 20
36.1827601904
 10
84.6232785791
 20
35.8932979847
 10
84.851514162
 20
35.6019897019
 10
85.0723213251
 20
35.3091049259
 10
85.2854362041
 20
35.0151783151
 10
85.4910041271
 20
34.7202344604
 10
85.6888069039
 20
34.4237715268
 10
85.8789180288
 20
34.1257821698
 10
86.0611042589
 20
33.8267964003
 10
86.2346849004
 20
33.5271102913
 10
86.399598708
 20
33.2269463538
 10
86.555829384
 20
32.9265918061
 10
86.7028132775
 20
32.6264345939
 10
86.8404310831
 20
32.3269022395
 10
86.9688159558
 20
32.0280429869
 10
87.0877981266
 20
31.7296680871
 10
87.1973541588
 20
31.4320120552
 10
87.2975166391
 20
31.1352857405
 10
87.3881714539
 20
30.8392641705
 10
87.4693568291
 20
30.543871688
 10
87.5410221803
 20
30.2496145782
 10
87.6029410746
 20
29.9571277422
 10
87.6551097336
 20
29.6665671645
 10
87.697629193
 20
29.3781479236
 10
87.7305056955
 20
29.0925566415
 10
87.7538213097
 20
28.8101131436
 10
87.767695459
 20
28.5307873809
 10
87.7722311248
 20
28.2547128577
  0
LWPOLYLINE
  5
308
100
AcDbEntity
  8
ASSI
100
AcDbPolyline
 62
7
  6
CONTINUOUS
 90
57
 70
0
 10
76.4342955415
 20
41.0601316775
 10
76.6606553289
 20
40.9392300551
 10
76.8899604459
 20
40.8130669414
 10
77.1221549386
 20
40.681647149
 10
77.3569782415
 20
40.5450524452
 10
77.5939677628
 20
40.4034636484
 10
77.832986864
 20
40.256984963
 10
78.0738493828
 20
40.1056800644
 10
78.3160223409
 20
39.9497146063
 10
78.5591563649
 20
39.789356419
 10
78.8032845354
 20
39.6245817644
 10
79.0484430455
 20
39.4551164595
 10
79.2945527866
 20
39.2810170405
 10
79.5413542986
 20
39.1024373103
 10
79.7885991366
 20
38.9192204571
 10
80.0362362501
 20
38.7314139267
 10
80.2839611389
 20
38.5391981859
 10
80.5311431387
 20
38.3426233327
 10
80.7776083565
 20
38.14186619
 10
81.023181651
 20
37.9370388604
 10
81.2672365949
 20
37.7281147583
 10
81.5096659851
 20
37.5152321338
 10
81.7502311377
 20
37.2985828475
 10
81.9881195134
 20
37.0782413397
 10
82.2232749801
 20
36.8543227312
 10
82.455428709
 20
36.6270913519
 10
82.6834828313
 20
36.3968792633
 10
82.9073414934
 20
36.1638787843
 10
83.1268391502
 20
35.9283362529
 10
83.3408323038
 20
35.6907029595
 10
83.5491373673
 20
35.4513159365
 10
83.7517700366
 20
35.2103154136
 10
83.9479385809
 20
34.9678778486
 10
84.1374100691
 20
34.7244500666
 10
84.3203171323
 20
34.4800584534
 10
84.4964146745
 20
34.2342434629
 10
84.6657702537
 20
33.9870019814
 10
84.8281811401
 20
33.7387793786
 10
84.9829947764
 20
33.4897819584
 10
85.130155293
 20
33.2401956629
 10
85.2696529463
 20
32.9902658595
 10
85.4009463553
 20
32.7402835998
 10
85.5239258536
 20
32.4906056011
 10
85.6387128266
 20
32.2412777176
 10
85.7451253254
 20
31.9921181258
 10
85.8431404277
 20
31.7433234767
 10
85.9327887983
 20
31.4950739661
 10
86.0139448545
 20
31.247162474
 10
86.0866398304
 20
30.9995243415
 10
86.1508320347
 20
30.7525886051
 10
86.2063041784
 20
30.5068776544
 10
86.2530453084
 20
30.2625189983
 10
86.2911486722
 20
30.0196991045
 10
86.3206171275
 20
29.7789975605
 10
86.3415193086
 20
29.5406845214
 10
86.3539570741
 20
29.3047350276
 10
86.3580175624
 20
29.0712620444
  0
LWPOLYLINE
  5
309
100
AcDbEntity
  8
ASSI
100
AcDbPolyline
 62
7
  6
CONTINUOUS
 90
20
 70
0
 10
17.4151063967
 20
62.4734383579
 10
17.3334406883
 20
62.5185928896
 10
17.2522020406
 20
62.5595974639
 10
17.1713904535
 20
62.596452081
 10
17.0908658185
 20
62.6292067768
 10
17.0107682442
 20
62.6578115153
 10
16.9315180563
 20
62.6821161883
 10
16.8531197092
 20
62.7020981908
 10
16.7755687485
 20
62.7177801277
 10
16.699272136
 20
62.7290797055
 10
16.6242364657
 20
62.7359738865
 10
16.5504551436
 20
62.7384857084
 10
16.4783153497
 20
62.7366019899
 10
16.4078257134
 20
62.7302996242
 10
16.3389776054
 20
62.7196017181
 10
16.2721323179
 20
62.7045644106
 10
16.2073003793
 20
62.6851648902
 10
16.1444712612
 20
62.6614259685
 10
16.08397467
 20
62.6334722195
 10
16.0400444854
 20
62.609668754
  0
LWPOLYLINE
  5
30A
100
AcDbEntity
  8
ASSI
100
AcDbPolyline
 62
7
  6
CONTINUOUS
 90
20
 70
0
 10
-53.2955717219
 20
103.3008976906
 10
-53.3772374303
 20
103.3460522223
 10
-53.4584760781
 20
103.3870567967
 10
-53.5392876652
 20
103.4239114138
 10
-53.6198123001
 20
103.4566661096
 10
-53.6999098744
 20
103.4852708481
 10
-53.7791600624
 20
103.509575521
 10
-53.8575584094
 20
103.5295575235
 10
-53.9351093701
 20
103.5452394605
 10
-54.0114059826
 20
103.5565390382
 10
-54.0864416529
 20
103.5634332193
 10
-54.1602229751
 20
103.5659450412
 10
-54.2323627689
 20
103.5640613227
 10
-54.3028524052
 20
103.557758957
 10
-54.3717005132
 20
103.5470610509
 10
-54.4385458008
 20
103.5320237434
 10
-54.5033777394
 20
103.512624223
 10
-54.5662068575
 20
103.4888853013
 10
-54.6267034487
 20
103.4609315523
 10
-54.6706336333
 20
103.4371280867
  0
LINE
  5
30B
100
AcDbEntity
  8
ASSI
100
AcDbLine
 62
253
  6
CONTINUOUS
 10
-131.430871043
 20
154.8198367893
 11
-130.0166574807
 21
154.0032876027
  0
LINE
  5
30C
100
AcDbEntity
  8
ASSI
100
AcDbLine
 62
253
  6
CONTINUOUS
 10
87.7722311248
 20
28.2547128577
 11
86.3580175624
 21
29.0712620444
  0
LINE
  5
30D
100
AcDbEntity
  8
0
100
AcDbLine
 62
7
  6
CONTINUOUS
 10
63.473707405
 20
47.8380703657
 11
81.7879211646
 21
37.263672872
  0
LINE
  5
30E
100
AcDbEntity
  8
ASSI
100
AcDbLine
 62
7
  6
CONTINUOUS
 10
90.5128928106
 20
-32.089805306
 11
88.1471029664
 21
-27.85498657
  0
LINE
  5
30F
100
AcDbEntity
  8
ASSI
100
AcDbLine
 62
7
  6
CONTINUOUS
 10
91.927106373
 20
-32.9063544927
 11
89.5613165288
 21
-28.6715357566
  0
LWPOLYLINE
  5
310
100
AcDbEntity
  8
ASSI
100
AcDbPolyline
 62
7
  6
CONTINUOUS
 90
22
 70
0
 10
88.1471029664
 20
-27.85498657
 10
87.983254597
 20
-27.5507812943
 10
87.8270414262
 20
-27.2385543789
 10
87.6784634539
 20
-26.9183058236
 10
87.5374584551
 20
-26.5898786547
 10
87.4040886549
 20
-26.253429846
 10
87.2785407284
 20
-25.9094303188
 10
87.1608256291
 20
-25.5578694994
 10
87.0509324035
 20
-25.1987579616
 10
86.9490148674
 20
-24.8325983471
 10
86.8550841893
 20
-24.4593807862
 10
86.7691292006
 20
-24.0791151488
 10
86.6912702109
 20
-23.6923336856
 10
86.6215185573
 20
-23.2990272723
 10
86.5598629028
 20
-22.8992050333
 10
86.5063895456
 20
-22.4934265924
 10
86.4611099436
 20
-22.0816836091
 10
86.424012639
 20
-21.6639844239
 10
86.3951495561
 20
-21.2409136829
 10
86.3745380032
 20
-20.8126662681
 10
86.3621606719
 20
-20.3790472974
 10
86.3580175624
 20
-19.9400567708
  0
LWPOLYLINE
  5
311
100
AcDbEntity
  8
ASSI
100
AcDbPolyline
 62
7
  6
CONTINUOUS
 90
22
 70
0
 10
89.5613165288
 20
-28.6715357566
 10
89.3974681594
 20
-28.367330481
 10
89.2412549886
 20
-28.0551035655
 10
89.0926770163
 20
-27.7348550102
 10
88.9516720175
 20
-27.4064278414
 10
88.8183022172
 20
-27.0699790327
 10
88.6927542908
 20
-26.7259795054
 10
88.5750391914
 20
-26.3744186861
 10
88.4651459659
 20
-26.0153071482
 10
88.3632284298
 20
-25.6491475337
 10
88.2692977517
 20
-25.2759299729
 10
88.183342763
 20
-24.8956643354
 10
88.1054837733
 20
-24.5088828722
 10
88.0357321197
 20
-24.1155764589
 10
87.9740764652
 20
-23.7157542199
 10
87.9206031079
 20
-23.3099757791
 10
87.875323506
 20
-22.8982327957
 10
87.8382262014
 20
-22.4805336106
 10
87.8093631185
 20
-22.0574628696
 10
87.7887515655
 20
-21.6292154547
 10
87.7763742343
 20
-21.195596484
 10
87.7722311248
 20
-20.7566059574
  0
LWPOLYLINE
  5
312
100
AcDbEntity
  8
ASSI
100
AcDbPolyline
 62
7
  6
CONTINUOUS
 90
19
 70
0
 10
90.5128928106
 20
-32.089805306
 10
90.6652724422
 20
-32.3744677472
 10
90.8093029184
 20
-32.6677807971
 10
90.9449842393
 20
-32.9697444558
 10
91.0723919896
 20
-33.2805615385
 10
91.1914505847
 20
-33.6000292299
 10
91.3019332701
 20
-33.9275390844
 10
91.4038237021
 20
-34.2631064285
 10
91.4971382244
 20
-34.6067159357
 10
91.581699114
 20
-34.9577131808
 10
91.6574896882
 20
-35.3161122431
 10
91.7245266297
 20
-35.6818990433
 10
91.7826822623
 20
-36.0543769181
 10
91.8319396605
 20
-36.4335586193
 10
91.8723157499
 20
-36.8194313952
 10
91.9037336318
 20
-37.2112603275
 10
91.9261676733
 20
-37.6088004436
 10
91.9396435073
 20
-38.0122967162
 10
91.9441611338
 20
-38.4217491453
  0
LWPOLYLINE
  5
313
100
AcDbEntity
  8
ASSI
100
AcDbPolyline
 62
7
  6
CONTINUOUS
 90
19
 70
0
 10
91.927106373
 20
-32.9063544927
 10
92.0794860045
 20
-33.1910169338
 10
92.2235164807
 20
-33.4843299838
 10
92.3591978016
 20
-33.7862936425
 10
92.486605552
 20
-34.0971107251
 10
92.605664147
 20
-34.4165784165
 10
92.7161468324
 20
-34.744088271
 10
92.8180372644
 20
-35.0796556151
 10
92.9113517868
 20
-35.4232651223
 10
92.9959126763
 20
-35.7742623674
 10
93.0717032506
 20
-36.1326614297
 10
93.138740192
 20
-36.4984482299
 10
93.1968958247
 20
-36.8709261048
 10
93.2461532229
 20
-37.250107806
 10
93.2865293123
 20
-37.6359805818
 10
93.3179471941
 20
-38.0278095142
 10
93.3403812356
 20
-38.4253496303
 10
93.3538570697
 20
-38.8288459029
 10
93.3583746962
 20
-39.238298332
  0
LWPOLYLINE
  5
314
100
AcDbEntity
  8
ASSI
100
AcDbPolyline
 62
7
  6
CONTINUOUS
 90
52
 70
0
 10
89.0096679919
 20
-79.0860906929
 10
89.0113985611
 20
-79.1813863014
 10
89.0165096636
 20
-79.2781406762
 10
89.0250012994
 20
-79.3763538172
 10
89.0369001955
 20
-79.4762029346
 10
89.052179625
 20
-79.5775108182
 10
89.0707594064
 20
-79.6797458377
 10
89.0926568891
 20
-79.782912867
 10
89.1178547237
 20
-79.887007032
 10
89.1462206802
 20
-79.9914820811
 10
89.1777714131
 20
-80.0963400165
 10
89.2124902679
 20
-80.2015788359
 10
89.2501950515
 20
-80.3066462806
 10
89.2909014606
 20
-80.4115414499
 10
89.3345937986
 20
-80.5162652445
 10
89.3810427824
 20
-80.6202681085
 10
89.4302629034
 20
-80.7235462521
 10
89.4822396702
 20
-80.8261034652
 10
89.5367003259
 20
-80.9274015612
 10
89.593657928
 20
-81.0274339212
 10
89.653099419
 20
-81.1262071641
 10
89.7147128696
 20
-81.2232029607
 10
89.7785096975
 20
-81.318411967
 10
89.8444784849
 20
-81.4118435268
 10
89.9122730494
 20
-81.5030073422
 10
89.9819029889
 20
-81.5918914918
 10
90.0533587055
 20
-81.678507897
 10
90.1262652232
 20
-81.7624020234
 10
90.2006301686
 20
-81.8435595603
 10
90.276445915
 20
-81.9219948185
 10
90.3533146065
 20
-81.9972961954
 10
90.4312417782
 20
-82.0694472167
 10
90.5102218949
 20
-82.1384643569
 10
90.5898404951
 20
-82.2039854366
 10
90.670100935
 20
-82.2659920777
 10
90.7509998584
 20
-82.3245026583
 10
90.8321127342
 20
-82.3792101343
 10
90.9134406873
 20
-82.4300945133
 10
90.994982593
 20
-82.4771757877
 10
91.0763105461
 20
-82.5202068904
 10
91.1574234219
 20
-82.5591665302
 10
91.2383223453
 20
-82.5940759985
 10
91.3185827852
 20
-82.6247521017
 10
91.3982013853
 20
-82.6511725856
 10
91.4771815021
 20
-82.6733597046
 10
91.5551086738
 20
-82.6911970278
 10
91.6319773652
 20
-82.704661689
 10
91.7077931117
 20
-82.7137765545
 10
91.7821580571
 20
-82.7184937925
 10
91.8550645748
 20
-82.7187902853
 10
91.9265202914
 20
-82.7146891505
 10
91.9441611338
 20
-82.7125414297
  0
LWPOLYLINE
  5
315
100
AcDbEntity
  8
ASSI
100
AcDbPolyline
 62
7
  6
CONTINUOUS
 90
34
 70
0
 10
90.4238815543
 20
-78.2695415062
 10
90.4256121235
 20
-78.3648371147
 10
90.430723226
 20
-78.4615914895
 10
90.4392148617
 20
-78.5598046305
 10
90.4511137579
 20
-78.6596537479
 10
90.4663931874
 20
-78.7609616316
 10
90.4849729687
 20
-78.8631966511
 10
90.5068704514
 20
-78.9663636803
 10
90.532068286
 20
-79.0704578454
 10
90.5604342426
 20
-79.1749328945
 10
90.5919849754
 20
-79.2797908299
 10
90.6267038303
 20
-79.3850296492
 10
90.6644086139
 20
-79.490097094
 10
90.705115023
 20
-79.5949922632
 10
90.748807361
 20
-79.6997160578
 10
90.7952563448
 20
-79.8037189219
 10
90.8444764657
 20
-79.9069970655
 10
90.8964532325
 20
-80.0095542785
 10
90.9509138883
 20
-80.1108523745
 10
91.0078714904
 20
-80.2108847345
 10
91.0673129814
 20
-80.3096579775
 10
91.128926432
 20
-80.406653774
 10
91.1927232598
 20
-80.5018627803
 10
91.2586920473
 20
-80.5952943401
 10
91.3264866118
 20
-80.6864581555
 10
91.3961165513
 20
-80.7753423052
 10
91.4675722679
 20
-80.8619587104
 10
91.5404787855
 20
-80.9458528368
 10
91.6148437309
 20
-81.0270103737
 10
91.6906594774
 20
-81.1054456318
 10
91.7675281689
 20
-81.1807470087
 10
91.8454553406
 20
-81.2528980301
 10
91.9244354573
 20
-81.3219151702
 10
91.9441611338
 20
-81.3381481562
  0
LWPOLYLINE
  5
316
100
AcDbEntity
  8
0
100
AcDbPolyline
 62
7
  6
CONTINUOUS
 90
24
 70
0
 10
93.3583746962
 20
-183.8231298452
 10
93.3605502767
 20
-183.9646338039
 10
93.3670062849
 20
-184.1031468246
 10
93.3777427208
 20
-184.2386689072
 10
93.3927830761
 20
-184.3713577484
 10
93.4121038591
 20
-184.5010556516
 10
93.4356345947
 20
-184.6272895269
 10
93.463390658
 20
-184.7500467234
 10
93.4953566739
 20
-184.8693398919
 10
93.5314160423
 20
-184.9847338954
 10
93.5715837123
 20
-185.0962144936
 10
93.6158447348
 20
-185.2037959267
 10
93.664037662
 20
-185.3070857774
 10
93.7161768534
 20
-185.4060683726
 10
93.7722479495
 20
-185.5007593855
 10
93.8320464236
 20
-185.5908134183
 10
93.8955858885
 20
-185.6762135365
 10
93.9628527315
 20
-185.7569766746
 10
94.033601588
 20
-185.8328082386
 10
94.1078451747
 20
-185.9036902182
 10
94.185570775
 20
-185.9696406237
 10
94.2664948746
 20
-186.0304188925
 10
94.3506291548
 20
-186.0860061357
 10
94.3937948417
 20
-186.1118019576
  0
LINE
  5
317
100
AcDbEntity
  8
ASSI
100
AcDbLine
 62
7
  6
CONTINUOUS
 10
86.3580175624
 20
-19.9400567708
 11
86.3580175624
 21
29.0712620444
  0
LINE
  5
318
100
AcDbEntity
  8
ASSI
100
AcDbLine
 62
7
  6
CONTINUOUS
 10
87.7722311248
 20
-20.7566059574
 11
87.7722311248
 21
28.2547128577
  0
LINE
  5
319
100
AcDbEntity
  8
0
100
AcDbLine
 62
7
  6
CONTINUOUS
 10
91.9441611338
 20
-183.0065806586
 11
91.9441611338
 21
-38.4217491453
  0
LWPOLYLINE
  5
31A
100
AcDbEntity
  8
RACCORDO
100
AcDbPolyline
 62
7
  6
CONTINUOUS
 90
20
 70
0
 10
25.0681224019
 20
-125.5341705082
 10
25.0678451986
 20
-125.5346379895
 10
25.0714269507
 20
-125.5262538475
 10
25.0782160935
 20
-125.5028854326
 10
25.0847103395
 20
-125.4646487357
 10
25.0881456226
 20
-125.4119455503
 10
25.086263347
 20
-125.346049819
 10
25.07735189
 20
-125.2684378075
 10
25.0599440372
 20
-125.1799916934
 10
25.0331342525
 20
-125.0831700123
 10
24.9968179434
 20
-124.981290996
 10
24.9510172438
 20
-124.8765651255
 10
24.8963403755
 20
-124.7717900337
 10
24.8346690247
 20
-124.6710196975
 10
24.7675251773
 20
-124.5765140288
 10
24.6967286456
 20
-124.4903576901
 10
24.6255795808
 20
-124.4155463648
 10
24.5568199203
 20
-124.353361421
 10
24.4921888544
 20
-124.3036266078
 10
24.4336470859
 20
-124.2660653916
  0
LWPOLYLINE
  5
31B
100
AcDbEntity
  8
ASSI
100
AcDbPolyline
 62
7
  6
CONTINUOUS
 90
18
 70
0
 10
-7.5015579303
 20
-104.4097080374
 10
-7.522123211
 20
-104.4221497368
 10
-7.5617165492
 20
-104.4495649068
 10
-7.5991802201
 20
-104.4803404978
 10
-7.6345285777
 20
-104.5144538606
 10
-7.6675222997
 20
-104.5516740345
 10
-7.6981454083
 20
-104.5920221013
 10
-7.7264138813
 20
-104.6354769791
 10
-7.7521363301
 20
-104.6817444614
 10
-7.7752954782
 20
-104.7308436337
 10
-7.7959086021
 20
-104.7827554105
 10
-7.8138361429
 20
-104.8371283288
 10
-7.8290598769
 20
-104.8939790891
 10
-7.8415980279
 20
-104.9532909908
 10
-7.8513657076
 20
-105.0146624692
 10
-7.8583346199
 20
-105.0779596693
 10
-7.862533061
 20
-105.143316446
 10
-7.8639610307
 20
-105.2107327995
  0
LWPOLYLINE
  5
31C
100
AcDbEntity
  8
ASSI
100
AcDbPolyline
 62
7
  6
CONTINUOUS
 90
18
 70
0
 10
-5.7514903969
 20
-107.4407186382
 10
-5.7309251162
 20
-107.4282769387
 10
-5.691331778
 20
-107.4008617687
 10
-5.6538681071
 20
-107.3700861778
 10
-5.6185197495
 20
-107.3359728149
 10
-5.5855260275
 20
-107.2987526411
 10
-5.5549029189
 20
-107.2584045743
 10
-5.5266344459
 20
-107.2149496964
 10
-5.5009119971
 20
-107.1686822141
 10
-5.477752849
 20
-107.1195830418
 10
-5.4571397251
 20
-107.067671265
 10
-5.4392121844
 20
-107.0132983467
 10
-5.4239884503
 20
-106.9564475865
 10
-5.4114502993
 20
-106.8971356847
 10
-5.4016826196
 20
-106.8357642064
 10
-5.3947137073
 20
-106.7724670063
 10
-5.3905152663
 20
-106.7071102295
 10
-5.3890872965
 20
-106.6396938761
  0
LINE
  5
31D
100
AcDbEntity
  8
0
100
AcDbLine
 62
7
  6
CONTINUOUS
 10
93.3583746962
 20
-183.8231298452
 11
93.3583746962
 21
-39.238298332
  0
LWPOLYLINE
  5
31E
100
AcDbEntity
  8
ASSI
100
AcDbPolyline
 62
7
  6
CONTINUOUS
 90
7
 70
0
 10
90.4821658913
 20
-77.7586375622
 10
90.4663931874
 20
-77.8272127493
 10
90.4511137579
 20
-77.9108763307
 10
90.4392148617
 20
-77.9969849011
 10
90.430723226
 20
-78.085392114
 10
90.4256121235
 20
-78.1762443157
 10
90.4238815543
 20
-78.2695415062
  0
LWPOLYLINE
  5
31F
100
AcDbEntity
  8
RACCORDO
100
AcDbPolyline
 62
253
  6
CONTINUOUS
 90
6
 70
0
 10
25.9152206968
 20
-126.4282246955
 10
25.9974495505
 20
-126.3112498007
 10
26.0625879246
 20
-126.1744964375
 10
26.1097549669
 20
-126.0198138305
 10
26.1383127715
 20
-125.8492938838
 10
26.1478751444
 20
-125.6652425793
  0
LWPOLYLINE
  5
320
100
AcDbEntity
  8
RACCORDO
100
AcDbPolyline
 62
253
  6
CONTINUOUS
 90
3
 70
0
 10
24.2743822194
 20
-124.2773349627
 10
24.3190327866
 20
-124.2274963096
 10
24.3289236954
 20
-124.220426838
  0
LWPOLYLINE
  5
321
100
AcDbEntity
  8
0
100
AcDbPolyline
 62
7
  6
CONTINUOUS
 90
7
 70
0
 10
26.0165526146
 20
-126.417406464
 10
26.1373361805
 20
-126.3271579524
 10
26.241252407
 20
-126.2075827623
 10
26.3230672594
 20
-126.064675932
 10
26.381052166
 20
-125.9004265088
 10
26.4169356985
 20
-125.7128454454
 10
26.4307178569
 20
-125.5019327419
  0
LWPOLYLINE
  5
322
100
AcDbEntity
  8
RACCORDO
100
AcDbPolyline
 62
253
  6
CONTINUOUS
 90
3
 70
0
 10
25.7337099023
 20
-126.5807163015
 10
25.8170131264
 20
-126.5238394334
 10
25.9152206968
 20
-126.4282246955
  0
LWPOLYLINE
  5
323
100
AcDbEntity
  8
RACCORDO
100
AcDbPolyline
 62
7
  6
CONTINUOUS
 90
10
 70
0
 10
23.7336132617
 20
-123.1166704837
 10
23.6239679182
 20
-123.1893386333
 10
23.521613469
 20
-123.2771786206
 10
23.4283917818
 20
-123.3799193947
 10
23.3460433026
 20
-123.4970249404
 10
23.2761163261
 20
-123.6277551897
 10
23.2198162237
 20
-123.7716034944
 10
23.1782353556
 20
-123.9282265681
 10
23.1525154098
 20
-124.096954628
 10
23.1437120884
 20
-124.277109103
  0
LWPOLYLINE
  5
324
100
AcDbEntity
  8
ASSI
100
AcDbPolyline
 62
7
  6
CONTINUOUS
 90
20
 70
0
 10
89.579149709
 20
-77.8273221359
 10
89.5367003259
 20
-77.8533835534
 10
89.4822396702
 20
-77.8917918493
 10
89.4302629034
 20
-77.9343275948
 10
89.3810427824
 20
-77.9807675765
 10
89.3345937986
 20
-78.0311323184
 10
89.2909014606
 20
-78.0854012963
 10
89.2501950515
 20
-78.1432897246
 10
89.2124902679
 20
-78.2048166303
 10
89.1777714131
 20
-78.2699629864
 10
89.1462206802
 20
-78.3383869263
 10
89.1178547237
 20
-78.4101056798
 10
89.0926568891
 20
-78.4851020171
 10
89.0707594064
 20
-78.5629823822
 10
89.052179625
 20
-78.6437619359
 10
89.0369001955
 20
-78.7274255174
 10
89.0250012994
 20
-78.8135340877
 10
89.0165096636
 20
-78.9019413006
 10
89.0113985611
 20
-78.9927935023
 10
89.0096679919
 20
-79.0860906929
  0
LINE
  5
325
100
AcDbEntity
  8
0
100
AcDbLine
 62
253
  6
CONTINUOUS
 10
21.6577129138
 20
-114.9895524269
 11
20.9506403027
 21
-115.3978072909
  0
LINE
  5
326
100
AcDbEntity
  8
ASSI
100
AcDbLine
 62
253
  6
CONTINUOUS
 10
90.4238815543
 20
-78.2695415062
 11
89.0096679919
 21
-79.0860906929
  0
LINE
  5
327
100
AcDbEntity
  8
0
100
AcDbLine
 62
7
  6
CONTINUOUS
 10
24.0164559742
 20
-122.9533606463
 11
23.7336132617
 21
-123.1166704837
  0
LINE
  5
328
100
AcDbEntity
  8
0
100
AcDbLine
 62
7
  6
CONTINUOUS
 10
26.0165526148
 20
-126.4174064642
 11
25.7337099023
 21
-126.5807163015
  0
LWPOLYLINE
  5
329
100
AcDbEntity
  8
0
100
AcDbPolyline
 62
7
  6
CONTINUOUS
 90
16
 70
0
 10
21.4506644628
 20
-115.4473484686
 10
21.4238069647
 20
-115.4612601554
 10
21.3956056645
 20
-115.4727885138
 10
21.3662672405
 20
-115.4818531283
 10
21.3357823593
 20
-115.488433777
 10
21.3041603544
 20
-115.4925506818
 10
21.2716600636
 20
-115.4941701442
 10
21.2382742784
 20
-115.4932716658
 10
21.2040102073
 20
-115.4898757451
 10
21.1691483149
 20
-115.4840101789
 10
21.1336836943
 20
-115.475654697
 10
21.0976212523
 20
-115.4648295696
 10
21.0612561737
 20
-115.4516234045
 10
21.0246868534
 20
-115.4360657377
 10
20.9878148963
 20
-115.4181270331
 10
20.9506403027
 20
-115.3978072909
  0
LINE
  5
32A
100
AcDbEntity
  8
0
100
AcDbLine
 62
253
  6
CONTINUOUS
 10
-79.4585226258
 20
184.8269935707
 11
121.3598032312
 21
68.8770090656
  0
LINE
  5
32B
100
AcDbEntity
  8
0
100
AcDbLine
 62
7
  6
CONTINUOUS
 10
-77.9584501454
 20
184.9756171038
 11
122.8598757116
 21
69.0256325987
  0
LWPOLYLINE
  5
32C
100
AcDbEntity
  8
0
100
AcDbPolyline
 62
253
  6
CONTINUOUS
 90
58
 70
0
 10
121.3598032312
 20
68.8770090656
 10
121.6130934416
 20
68.7267323682
 10
121.866191307
 20
68.5685095801
 10
122.1189046284
 20
68.4024608534
 10
122.3710414988
 20
68.2287122833
 10
122.6224104492
 20
68.0473958118
 10
122.8728205933
 20
67.8586491283
 10
123.1220817733
 20
67.6626155642
 10
123.3700047038
 20
67.4594439848
 10
123.6164011155
 20
67.2492886756
 10
123.8610838985
 20
67.0323092257
 10
124.103867244
 20
66.8086704062
 10
124.344566786
 20
66.5785420453
 10
124.5829997404
 20
66.3420988992
 10
124.8189850446
 20
66.0995205195
 10
125.0523434948
 20
65.8509911169
 10
125.2828978818
 20
65.596699421
 10
125.5104731259
 20
65.3368385375
 10
125.7348964095
 20
65.071605801
 10
125.9559973089
 20
64.8012026255
 10
126.173607923
 20
64.5258343514
 10
126.3875630015
 20
64.2457100895
 10
126.5977000699
 20
63.9610425623
 10
126.803859553
 20
63.6720479422
 10
127.0058848962
 20
63.3789456877
 10
127.2036226843
 20
63.0819583766
 10
127.3969227581
 20
62.7813115368
 10
127.5856383281
 20
62.4772334753
 10
127.7696260864
 20
62.1699551047
 10
127.9487463152
 20
61.859709768
 10
128.1228629933
 20
61.546733061
 10
128.2918438988
 20
61.2312626539
 10
128.45556071
 20
60.9135381104
 10
128.6138891027
 20
60.5938007062
 10
128.7667088445
 20
60.2722932452
 10
128.9139038862
 20
59.9492598759
 10
129.0553624501
 20
59.624945905
 10
129.1909771143
 20
59.2995976123
 10
129.3206448952
 20
58.9734620624
 10
129.4442673248
 20
58.6467869183
 10
129.5617505259
 20
58.3198202525
 10
129.6730052834
 20
57.9928103587
 10
129.7779471122
 20
57.6660055638
 10
129.8764963207
 20
57.3396540386
 10
129.9685780722
 20
57.0140036101
 10
130.054122441
 20
56.6893015725
 10
130.1330644659
 20
56.3657944999
 10
130.2053441995
 20
56.0437280592
 10
130.2709067536
 20
55.7233468231
 10
130.3297023409
 20
55.4048940845
 10
130.3816863129
 20
55.088611672
 10
130.4268191935
 20
54.774739766
 10
130.4650667097
 20
54.4635167164
 10
130.4963998167
 20
54.1551788617
 10
130.5207947206
 20
53.8499603493
 10
130.5382328962
 20
53.5480929578
 10
130.5487011014
 20
53.249805921
 10
130.5521913866
 20
52.9553257541
  0
LWPOLYLINE
  5
32D
100
AcDbEntity
  8
0
100
AcDbPolyline
 62
7
  6
CONTINUOUS
 90
52
 70
0
 10
122.8598757116
 20
69.0256325987
 10
123.1432741918
 20
68.8570079839
 10
123.424453137
 20
68.6797497579
 10
123.7032932716
 20
68.4940333529
 10
123.9798013063
 20
68.2999403265
 10
124.253741231
 20
68.0977142455
 10
124.5246273848
 20
67.8878102748
 10
124.7923064582
 20
67.670458663
 10
125.0567032564
 20
67.4458244098
 10
125.3174421842
 20
67.2143358389
 10
125.5744422674
 20
66.9761801157
 10
125.8275586571
 20
66.7315999332
 10
126.0763218007
 20
66.4811743691
 10
126.3204337221
 20
66.2253566172
 10
126.5599982304
 20
65.9641851801
 10
126.7951372594
 20
65.697641683
 10
127.0257917098
 20
65.4258839572
 10
127.2517969391
 20
65.1491913459
 10
127.4730916234
 20
64.8677189458
 10
127.6895846746
 20
64.5816520177
 10
127.9011391217
 20
64.2912356348
 10
128.1076171198
 20
63.9967215708
 10
128.3088604418
 20
63.6983988933
 10
128.5048094605
 20
63.3964141488
 10
128.6954644588
 20
63.0908052575
 10
128.8807425603
 20
62.7817237155
 10
129.0604911946
 20
62.4694362769
 10
129.2345967188
 20
62.1541492275
 10
129.4029159119
 20
61.8361268533
 10
129.5653648322
 20
61.5155252394
 10
129.7219113529
 20
61.1923823947
 10
129.8724631698
 20
60.8668379768
 10
130.0168663357
 20
60.5391630513
 10
130.1549913847
 20
60.2095838264
 10
130.2867125424
 20
59.8783224436
 10
130.4119176011
 20
59.5455684508
 10
130.5305009064
 20
59.2114887753
 10
130.6423199511
 20
58.8763543211
 10
130.7472781019
 20
58.5403020859
 10
130.8453252057
 20
58.2032814661
 10
130.9363890204
 20
57.865240245
 10
131.0202534844
 20
57.5266352925
 10
131.0966729104
 20
57.188157907
 10
131.165507475
 20
56.8501667916
 10
131.2266852238
 20
56.512697502
 10
131.28009702
 20
56.1759281274
 10
131.3256276863
 20
55.8400559392
 10
131.3631608849
 20
55.505268681
 10
131.3925810274
 20
55.1717013568
 10
131.4137622503
 20
54.8395177818
 10
131.4265708063
 20
54.5089327137
 10
131.430871043
 20
54.1801495341
  0
LINE
  5
32E
100
AcDbEntity
  8
0
100
AcDbLine
 62
253
  6
CONTINUOUS
 10
130.5521913866
 20
52.9553257541
 11
130.5521913866
 21
-166.4302376202
  0
LINE
  5
32F
100
AcDbEntity
  8
0
100
AcDbLine
 62
7
  6
CONTINUOUS
 10
131.430871043
 20
54.1801495341
 11
131.430871043
 21
-165.2054138402
  0
LINE
  5
330
100
AcDbEntity
  8
0
100
AcDbLine
 62
253
  6
CONTINUOUS
 10
37.21409627
 20
-122.3385542873
 11
35.7998827076
 21
-123.155103474
  0
LINE
  5
331
100
AcDbEntity
  8
0
100
AcDbLine
 62
253
  6
CONTINUOUS
 10
37.9212030511
 20
-123.5632991574
 11
36.5069894888
 21
-124.3798483441
  0
LINE
  5
332
100
AcDbEntity
  8
RACCORDO
100
AcDbLine
 62
253
  6
CONTINUOUS
 10
25.0754672769
 20
-125.5123469344
 11
25.0324072024
 21
-125.5271348843
  0
LWPOLYLINE
  5
333
100
AcDbEntity
  8
ASSI
100
AcDbPolyline
 62
7
  6
CONTINUOUS
 90
18
 70
0
 10
63.2091201884
 20
-145.2371673702
 10
63.1885549076
 20
-145.2496090696
 10
63.1489615695
 20
-145.2770242396
 10
63.1114978986
 20
-145.3077998306
 10
63.076149541
 20
-145.3419131934
 10
63.043155819
 20
-145.3791333673
 10
63.0125327104
 20
-145.4194814341
 10
62.9842642374
 20
-145.4629363119
 10
62.9585417885
 20
-145.5092037942
 10
62.9353826405
 20
-145.5583029665
 10
62.9147695166
 20
-145.6102147433
 10
62.8968419758
 20
-145.6645876616
 10
62.8816182417
 20
-145.7214384219
 10
62.8690800907
 20
-145.7807503236
 10
62.859312411
 20
-145.842121802
 10
62.8523434987
 20
-145.9054190021
 10
62.8481450577
 20
-145.9707757788
 10
62.846717088
 20
-146.0381921322
  0
LWPOLYLINE
  5
334
100
AcDbEntity
  8
ASSI
100
AcDbPolyline
 62
7
  6
CONTINUOUS
 90
18
 70
0
 10
64.9591877217
 20
-148.2681779709
 10
64.9797530025
 20
-148.2557362715
 10
65.0193463406
 20
-148.2283211015
 10
65.0568100116
 20
-148.1975455105
 10
65.0921583691
 20
-148.1634321477
 10
65.1251520911
 20
-148.1262119738
 10
65.1557751997
 20
-148.085863907
 10
65.1840436727
 20
-148.0424090292
 10
65.2097661216
 20
-147.9961415469
 10
65.2329252696
 20
-147.9470423746
 10
65.2535383935
 20
-147.8951305978
 10
65.2714659343
 20
-147.8407576795
 10
65.2866896684
 20
-147.7839069192
 10
65.2992278194
 20
-147.7245950175
 10
65.3089954991
 20
-147.6632235391
 10
65.3159644114
 20
-147.599926339
 10
65.3201628524
 20
-147.5345695623
 10
65.3215908221
 20
-147.4671532089
  0
LINE
  5
335
100
AcDbEntity
  8
0
100
AcDbLine
 62
253
  6
CONTINUOUS
 10
91.9441611338
 20
-156.0619567863
 11
91.6613184213
 21
-156.2252666237
  0
LWPOLYLINE
  5
336
100
AcDbEntity
  8
0
100
AcDbPolyline
 62
7
  6
CONTINUOUS
 90
19
 70
0
 10
130.5521913866
 20
-166.4302376202
 10
130.6429627776
 20
-166.3754589504
 10
130.7292093367
 20
-166.3186755766
 10
130.8109310639
 20
-166.2598874988
 10
130.8882661192
 20
-166.1989753299
 10
130.9610763426
 20
-166.136058457
 10
131.0289472544
 20
-166.0714950408
 10
131.0918506836
 20
-166.0052756903
 10
131.1498148012
 20
-165.9374097966
 10
131.2025096406
 20
-165.8682836933
 10
131.2499051486
 20
-165.7978901927
 10
131.2920313784
 20
-165.7262364825
 10
131.3286485219
 20
-165.6537304588
 10
131.3597251585
 20
-165.5803672605
 10
131.3852927089
 20
-165.5061517486
 10
131.4052056271
 20
-165.4315064027
 10
131.4194316625
 20
-165.3564287712
 10
131.4280030656
 20
-165.2809213057
 10
131.430871043
 20
-165.2054138402
  0
LINE
  5
337
100
AcDbEntity
  8
0
100
AcDbLine
 62
7
  6
CONTINUOUS
 10
130.5521913866
 20
-166.4302376202
 11
96.8939086021
 21
-185.8641082626
  0
ENDSEC
  0
SECTION
  2
OBJECTS
  0
DICTIONARY
  5
C
100
AcDbDictionary
280
0
281
1
  3
ACAD_GROUP
350
D
  3
ACAD_MLINESTYLE
350
17
  3
ACAD_LAYOUT
350
1A
  3
ACAD_PLOTSETTINGS
350
19
  3
ACAD_PLOTSTYLENAME
350
E
  0
DICTIONARY
  5
D
102
{ACAD_REACTORS
330
C
102
}
100
AcDbDictionary
280
0
281
1
  0
ACDBDICTIONARYWDFLT
  5
E
102
{ACAD_REACTORS
330
C
102
}
100
AcDbDictionary
281
1
  3
Normal
350
F
100
AcDbDictionaryWithDefault
340
F
  0
DICTIONARY
  5
17
102
{ACAD_REACTORS
330
C
102
}
100
AcDbDictionary
280
0
281
1
  3
Standard
350
18
  0
DICTIONARY
  5
19
102
{ACAD_REACTORS
330
C
102
}
100
AcDbDictionary
281
1
  0
DICTIONARY
  5
1A
102
{ACAD_REACTORS
330
C
102
}
100
AcDbDictionary
281
1
  3
Model
350
338
  3
Layout1
350
339
  0
ACDBPLACEHOLDER
  5
F
102
{ACAD_REACTORS
330
E
102
}
  0
MLINESTYLE
  5
18
102
{ACAD_REACTORS
330
17
102
}
100
AcDbMlineStyle
  2
STANDARD
 70
0
  3

 62
256
 51
90.0
 52
90.0
 71
2
 49
0.5
 62
256
  6
BYLAYER
 49
-0.5
 62
256
  6
BYLAYER
  0
LAYOUT
  5
338
102
{ACAD_REACTORS
330
1A
102
}
100
AcDbPlotSettings
  1

  2
none_device
  4
ISO_A4_(297.00_x_210.00_MM)
  6

 40
0.0
 41
0.0
 42
0.0
 43
0.0
 44
297.0
 45
210.0
 46
0.0
 47
0.0
 48
0.0
 49
0.0
140
0.0
141
0.0
142
1.0
143
1.0
 70
1024
 72
1
 73
0
 74
0
  7

 75
0
147
1.0
148
0.0
149
0.0
100
AcDbLayout
  1
Model
 70
0
 71
0
 10
0.0
 20
0.0
 11
297.0
 21
210.0
 12
0.0
 22
0.0
 32
0.0
 14
0.0
 24
0.0
 34
0.0
 15
0.0
 25
0.0
 35
0.0
146
0.0
 13
0.0
 23
0.0
 33
0.0
 16
1.0
 26
0.0
 36
0.0
 17
0.0
 27
1.0
 37
0.0
 76
0
330
20F
345
0
346
0
  0
LAYOUT
  5
339
102
{ACAD_REACTORS
330
1A
102
}
100
AcDbPlotSettings
  1

  2
none_device
  4
ISO_A4_(297.00_x_210.00_MM)
  6

 40
0.0
 41
0.0
 42
0.0
 43
0.0
 44
297.0
 45
210.0
 46
0.0
 47
0.0
 48
0.0
 49
0.0
140
0.0
141
0.0
142
1.0
143
1.0
 70
0
 72
1
 73
0
 74
0
  7

 75
0
147
1.0
148
0.0
149
0.0
100
AcDbLayout
  1
Layout1
 70
0
 71
1
 10
0.0
 20
0.0
 11
297.0
 21
210.0
 12
0.0
 22
0.0
 32
0.0
 14
0.0
 24
0.0
 34
0.0
 15
0.0
 25
0.0
 35
0.0
146
0.0
 13
0.0
 23
0.0
 33
0.0
 16
1.0
 26
0.0
 36
0.0
 17
0.0
 27
1.0
 37
0.0
 76
0
330
210
345
0
346
0
  0
ENDSEC
  0
EOF
