  0
SECTION
  2
HEADER
  9
$ACADVER
  1
AC1021
  9
$DWGCODEPAGE
  3
ANSI_1252
  9
$EXTMAX
 10
297.0
 20
210.0
 30
0.0
  9
$EXTMIN
 10
0.0
 20
0.0
 30
0.0
  9
$LIMMIN
 10
0.0
 20
0.0
  9
$LIMMAX
 10
297.0
 20
210.0
  9
$VIEWCTR
 10
148.5
 20
105.0
  9
$VIEWSIZE
 40
210.0
  9
$CLAYER
  8
0
  9
$LTSCALE
 40
16.335
  9
$CELTYPE
  6
BYLAYER
  9
$DIMSCALE
 40
1.0
  9
$DIMASZ
 40
3.0
  9
$DIMEXO
 40
0.5
  9
$DIMDLI
 40
11.286
  9
$DIMEXE
 40
1.5
  9
$DIMCEN
 40
2.673
  9
$DIMLFAC
 40
1.0
  9
$DIMBLK
  1
_FILLED
  9
$DIMALT
 70
0
  9
$DIMALTF
 40
0.0393700787
  9
$DIMTXT
 40
3.0
  9
$DIMTOL
 70
1
  9
$DIMLIM
 70
0
  9
$DIMTFAC
 40
1.0
  9
$DIMTP
 40
0.01
  9
$DIMTM
 40
0.01
  9
$DIMGAP
 40
0.625
  9
$DIMDSEP
 70
44
  9
$AUNITS
 70
0
  9
$PDMODE
 70
3
  9
$PDSIZE
 40
3.0
  9
$HANDSEED
  5
35F
  9
$TILEMODE
 70
1
  9
$MEASUREMENT
 70
1
  9
$INSUNITS
 70
4
  0
ENDSEC
  0
SECTION
  2
CLASSES
  0
CLASS
  1
ACDBDICTIONARYWDFLT
  2
AcDbDictionaryWithDefault
  3
AutoCAD 2000
 90
0
 91
1
280
0
281
0
  0
CLASS
  1
ACDBPLACEHOLDER
  2
AcDbPlaceHolder
  3
AutoCAD 2000
 90
0
 91
1
280
0
281
0
  0
CLASS
  1
LAYOUT
  2
AcDbLayout
  3
AutoCAD 2000
 90
0
 91
0
280
0
281
0
  0
ENDSEC
  0
SECTION
  2
TABLES
  0
TABLE
  2
VPORT
  5
8
100
AcDbSymbolTable
 70
2
  0
VPORT
  5
1F4
100
AcDbSymbolTableRecord
100
AcDbViewportTableRecord
  2
*ACTIVE
 70
0
 10
0.0
 20
0.0
 11
1.0
 21
1.0
 12
148.5
 22
105.0
 13
0.0
 23
0.0
 14
1.0
 24
1.0
 15
0.0
 25
0.0
 16
0.0
 26
0.0
 36
1.0
 17
0.0
 27
0.0
 37
0.0
 40
210.0
 41
1.4142857143
 42
50.0
 43
0.0
 44
0.0
 50
0.0
 51
0.0
 71
0
 72
100
 73
1
 74
1
 75
0
 76
0
 77
0
 78
0
  0
ENDTAB
  0
TABLE
  2
LTYPE
  5
5
100
AcDbSymbolTable
 70
6
  0
LTYPE
  5
14
100
AcDbSymbolTableRecord
100
AcDbLinetypeTableRecord
  2
BYBLOCK
 70
0
  3

 72
65
 73
0
 40
0.0
  0
LTYPE
  5
15
100
AcDbSymbolTableRecord
100
AcDbLinetypeTableRecord
  2
BYLAYER
 70
0
  3

 72
65
 73
0
 40
0.0
  0
LTYPE
  5
16
100
AcDbSymbolTableRecord
100
AcDbLinetypeTableRecord
  2
CONTINUOUS
 70
64
  3
Solid line
 72
65
 73
0
 40
0.0
  0
LTYPE
  5
1F5
100
AcDbSymbolTableRecord
100
AcDbLinetypeTableRecord
  2
CENTER
 70
64
  3
____ _ ____ _ ____ _ ____ _ ____ _ ____ _ ____
 72
65
 73
4
 40
0.6
 49
0.375
 74
0
 49
-0.075
 74
0
 49
0.075
 74
0
 49
-0.075
 74
0
  0
LTYPE
  5
1F6
100
AcDbSymbolTableRecord
100
AcDbLinetypeTableRecord
  2
HIDDEN
 70
64
  3
- - - - - - - - - - - - - - - - - - - -
 72
65
 73
2
 40
0.2
 49
0.1
 74
0
 49
-0.1
 74
0
  0
LTYPE
  5
1F7
100
AcDbSymbolTableRecord
100
AcDbLinetypeTableRecord
  2
PHANTOM
 70
64
  3
_____ _ _ _____ _ _ _____ _ _ _____
 72
65
 73
6
 40
0.8
 49
0.45
 74
0
 49
-0.05
 74
0
 49
0.1
 74
0
 49
-0.05
 74
0
 49
0.1
 74
0
 49
-0.05
 74
0
  0
LTYPE
  5
1F8
100
AcDbSymbolTableRecord
100
AcDbLinetypeTableRecord
  2
DOT
 70
64
  3
. . . . . . . . . . . . . . . . . . . .
 72
65
 73
2
 40
0.2
 49
0.1
 74
0
 49
-0.1
 74
0
  0
LTYPE
  5
1F9
100
AcDbSymbolTableRecord
100
AcDbLinetypeTableRecord
  2
DASHED
 70
64
  3
- - - - - - - - - - - - - - - - - - - -
 72
65
 73
2
 40
0.2
 49
0.1
 74
0
 49
-0.1
 74
0
  0
ENDTAB
  0
TABLE
  2
LAYER
  5
2
100
AcDbSymbolTable
 70
36
  0
LAYER
  5
10
100
AcDbSymbolTableRecord
100
AcDbLayerTableRecord
  2
0
 70
0
 62
7
  6
CONTINUOUS
370
-3
390
F
  0
LAYER
  5
1FA
100
AcDbSymbolTableRecord
100
AcDbLayerTableRecord
  2
DEFAULT_1
 70
0
 62
7
  6
CENTER
370
-3
390
F
  0
LAYER
  5
1FB
100
AcDbSymbolTableRecord
100
AcDbLayerTableRecord
  2
DEFAULT_2
 70
0
 62
7
  6
HIDDEN
370
-3
390
F
  0
LAYER
  5
1FC
100
AcDbSymbolTableRecord
100
AcDbLayerTableRecord
  2
DEFAULT_3
 70
0
 62
7
  6
PHANTOM
370
-3
390
F
  0
LAYER
  5
1FD
100
AcDbSymbolTableRecord
100
AcDbLayerTableRecord
  2
ASSI
 70
0
 62
7
  6
CONTINUOUS
370
-3
390
F
  0
LAYER
  5
1FE
100
AcDbSymbolTableRecord
100
AcDbLayerTableRecord
  2
COORDINATE
 70
0
 62
7
  6
CONTINUOUS
370
-3
390
F
  0
LAYER
  5
1FF
100
AcDbSymbolTableRecord
100
AcDbLayerTableRecord
  2
COPY_PUBLISH
 70
0
 62
7
  6
CONTINUOUS
370
-3
390
F
  0
LAYER
  5
200
100
AcDbSymbolTableRecord
100
AcDbLayerTableRecord
  2
COSMETICI
 70
0
 62
7
  6
CONTINUOUS
370
-3
390
F
  0
LAYER
  5
201
100
AcDbSymbolTableRecord
100
AcDbLayerTableRecord
  2
CURVE
 70
0
 62
7
  6
CONTINUOUS
370
-3
390
F
  0
LAYER
  5
202
100
AcDbSymbolTableRecord
100
AcDbLayerTableRecord
  2
DRAFT
 70
0
 62
7
  6
CONTINUOUS
370
-3
390
F
  0
LAYER
  5
203
100
AcDbSymbolTableRecord
100
AcDbLayerTableRecord
  2
IMPORT_IGES
 70
0
 62
7
  6
CONTINUOUS
370
-3
390
F
  0
LAYER
  5
204
100
AcDbSymbolTableRecord
100
AcDbLayerTableRecord
  2
NOTE
 70
0
 62
7
  6
CONTINUOUS
370
-3
390
F
  0
LAYER
  5
205
100
AcDbSymbolTableRecord
100
AcDbLayerTableRecord
  2
PIANI
 70
0
 62
7
  6
CONTINUOUS
370
-3
390
F
  0
LAYER
  5
206
100
AcDbSymbolTableRecord
100
AcDbLayerTableRecord
  2
PUNTI
 70
0
 62
7
  6
CONTINUOUS
370
-3
390
F
  0
LAYER
  5
207
100
AcDbSymbolTableRecord
100
AcDbLayerTableRecord
  2
RACCORDO
 70
0
 62
7
  6
CONTINUOUS
370
-3
390
F
  0
LAYER
  5
208
100
AcDbSymbolTableRecord
100
AcDbLayerTableRecord
  2
SIMBOLI
 70
0
 62
7
  6
CONTINUOUS
370
-3
390
F
  0
LAYER
  5
209
100
AcDbSymbolTableRecord
100
AcDbLayerTableRecord
  2
SMUSSO
 70
0
 62
7
  6
CONTINUOUS
370
-3
390
F
  0
LAYER
  5
20A
100
AcDbSymbolTableRecord
100
AcDbLayerTableRecord
  2
SNAPLINE
 70
0
 62
7
  6
CONTINUOUS
370
-3
390
F
  0
LAYER
  5
20B
100
AcDbSymbolTableRecord
100
AcDbLayerTableRecord
  2
SUPERFICI
 70
0
 62
7
  6
CONTINUOUS
370
-3
390
F
  0
LAYER
  5
20C
100
AcDbSymbolTableRecord
100
AcDbLayerTableRecord
  2
TRASH
 70
0
 62
7
  6
CONTINUOUS
370
-3
390
F
  0
ENDTAB
  0
TABLE
  2
STYLE
  5
3
100
AcDbSymbolTable
 70
1
  0
STYLE
  5
11
100
AcDbSymbolTableRecord
100
AcDbTextStyleTableRecord
  2
STANDARD
 70
0
 40
0.0
 41
0.8
 50
0.0
 71
0
 42
0.2
  3
txt
  4

  0
STYLE
  5
20D
100
AcDbSymbolTableRecord
100
AcDbTextStyleTableRecord
  2
TEXTSTYLE_1
 70
0
 40
0.0
 41
0.8
 50
0.0
 71
0
 42
0.2
  3
gdt
  4

  0
ENDTAB
  0
TABLE
  2
VIEW
  5
6
100
AcDbSymbolTable
 70
0
  0
ENDTAB
  0
TABLE
  2
UCS
  5
7
100
AcDbSymbolTable
 70
0
  0
ENDTAB
  0
TABLE
  2
APPID
  5
9
100
AcDbSymbolTable
 70
1
  0
APPID
  5
20E
100
AcDbSymbolTableRecord
100
AcDbRegAppTableRecord
  2
ACAD
 70
0
  0
ENDTAB
  0
TABLE
  2
BLOCK_RECORD
  5
1
100
AcDbSymbolTable
 70
0
  0
BLOCK_RECORD
  5
20F
100
AcDbSymbolTableRecord
100
AcDbBlockTableRecord
  2
*Model_Space
  0
BLOCK_RECORD
  5
210
100
AcDbSymbolTableRecord
100
AcDbBlockTableRecord
  2
*Paper_Space
  0
ENDTAB
  0
TABLE
  2
DIMSTYLE
  5
A
100
AcDbSymbolTable
 70
1
100
AcDbDimStyleTable
 71
0
  0
DIMSTYLE
105
211
100
AcDbSymbolTableRecord
100
AcDbDimStyleTableRecord
  2
STANDARD
 70
0
  3

  4

 40
1.0
 41
3.0
 42
0.5
 43
0.38
 44
1.5
 45
0.0
 46
0.0
 47
0.01
 48
0.01
140
3.0
141
0.09
142
0.0
143
25.4
144
1.0
145
0.0
146
1.0
147
0.625
 71
1.0
 72
0.0
 73
0
 74
0
 75
0
 76
0
 77
1
 78
8
170
0
171
2
172
0
173
0
174
0
175
0
176
0
177
0
178
0
270
2
271
2
272
2
273
2
274
2
275
0
280
0
281
0
282
0
283
1
284
8
285
0
286
0
287
3
288
0
340
11
278
44
  0
ENDTAB
  0
ENDSEC
  0
SECTION
  2
BLOCKS
  0
BLOCK
  5
20
100
AcDbEntity
  8
0
100
AcDbBlockBegin
  2
*Model_Space
 70
0
 10
0.0
 20
0.0
 30
0.0
  3
*Model_Space
  1

  0
ENDBLK
  5
21
100
AcDbEntity
  8
0
100
AcDbBlockEnd
  0
BLOCK
  5
1C
100
AcDbEntity
  8
0
100
AcDbBlockBegin
  2
*Paper_Space
 70
0
 10
0.0
 20
0.0
 30
0.0
  3
*Paper_Space
  1

  0
ENDBLK
  5
1D
100
AcDbEntity
  8
0
100
AcDbBlockEnd
  0
ENDSEC
  0
SECTION
  2
ENTITIES
  0
LINE
  5
212
100
AcDbEntity
  8
0
100
AcDbLine
 62
7
  6
CONTINUOUS
 10
-129.8452082759
 20
207.1995193013
 11
-85.956100039
 21
232.5405403377
  0
LINE
  5
213
100
AcDbEntity
  8
ASSI
100
AcDbLine
 62
253
  6
CONTINUOUS
 10
-124.6045539359
 20
205.8281722438
 11
-79.4557859572
 21
231.8965050278
  0
LINE
  5
214
100
AcDbEntity
  8
ASSI
100
AcDbLine
 62
253
  6
CONTINUOUS
 10
-130.013920812
 20
201.0727990598
 11
-124.6049298067
 21
204.1958826757
  0
LINE
  5
215
100
AcDbEntity
  8
0
100
AcDbLine
 62
253
  6
CONTINUOUS
 10
-85.956100039
 20
232.5405403377
 11
-85.8656088123
 21
232.5913538322
  0
LWPOLYLINE
  5
216
100
AcDbEntity
  8
0
100
AcDbPolyline
 62
7
  6
CONTINUOUS
 90
34
 70
0
 10
-85.956100039
 20
232.5405403377
 10
-85.7648852423
 20
232.6465872911
 10
-85.5695485103
 20
232.746257517
 10
-85.3702389151
 20
232.8394123263
 10
-85.1672248823
 20
232.9258747044
 10
-84.9605566417
 20
233.0055755665
 10
-84.7500450456
 20
233.0785164854
 10
-84.5358371904
 20
233.1445583129
 10
-84.3180925747
 20
233.2035674108
 10
-84.0966099689
 20
233.2554980664
 10
-83.871520207
 20
233.3002025016
 10
-83.6429873567
 20
233.3375342096
 10
-83.4108290266
 20
233.3673956104
 10
-83.175146074
 20
233.3896298587
 10
-82.9361181323
 20
233.4040784521
 10
-82.6936512232
 20
233.4105977662
 10
-82.4478067392
 20
233.4090231201
 10
-82.1987888202
 20
233.3991939336
 10
-81.9466909914
 20
233.3809544955
 10
-81.6915392667
 20
233.3541407481
 10
-81.433559117
 20
233.318610179
 10
-81.1731208804
 20
233.2742638705
 10
-80.9102391676
 20
233.2209600558
 10
-80.6451375308
 20
233.1585980149
 10
-80.3784816542
 20
233.0872178989
 10
-80.1103115611
 20
233.0067343677
 10
-79.8408115175
 20
232.9171033376
 10
-79.5708494575
 20
232.8185507933
 10
-79.3005200318
 20
232.7110807712
 10
-79.0299377242
 20
232.5947035106
 10
-78.7599902812
 20
232.4697993447
 10
-78.491037183
 20
232.3365788566
 10
-78.2229132361
 20
232.1949986886
 10
-77.9557134767
 20
232.0451285609
  0
LWPOLYLINE
  5
217
100
AcDbEntity
  8
0
100
AcDbPolyline
 62
253
  6
CONTINUOUS
 90
21
 70
0
 10
-79.4557859572
 20
231.8965050278
 10
-79.3703689992
 20
231.9438372321
 10
-79.285090588
 20
231.9871197101
 10
-79.2000890452
 20
232.0262822574
 10
-79.1155022437
 20
232.0612613522
 10
-79.0314673837
 20
232.0920002584
 10
-78.94812077
 20
232.1184491173
 10
-78.865597591
 20
232.1405650287
 10
-78.7840316997
 20
232.1583121205
 10
-78.7035553963
 20
232.171661607
 10
-78.6242992137
 20
232.1805918352
 10
-78.5463917055
 20
232.1850883202
 10
-78.4699592382
 20
232.1851437687
 10
-78.3951257854
 20
232.1807580908
 10
-78.3220127272
 20
232.1719384001
 10
-78.2507386535
 20
232.1586990022
 10
-78.1814191708
 20
232.1410613713
 10
-78.1141667157
 20
232.1190541158
 10
-78.049090372
 20
232.0927129315
 10
-77.9862956936
 20
232.062080544
 10
-77.9557134767
 20
232.0451285609
  0
LWPOLYLINE
  5
218
100
AcDbEntity
  8
ASSI
100
AcDbPolyline
 62
7
  6
CONTINUOUS
 90
31
 70
0
 10
-129.8451554613
 20
207.1995497959
 10
-129.759884986
 20
207.2458811017
 10
-129.6381622943
 20
207.3026097345
 10
-129.5116636066
 20
207.3510583232
 10
-129.3805693167
 20
207.3911800908
 10
-129.2450005539
 20
207.42295106
 10
-129.1048117892
 20
207.4465737219
 10
-128.9601549107
 20
207.4620599843
 10
-128.8112119404
 20
207.4694089721
 10
-128.6579059402
 20
207.4688599111
 10
-128.5004399936
 20
207.4604718649
 10
-128.3389701107
 20
207.4442844435
 10
-128.1733588112
 20
207.4205402012
 10
-128.0037293235
 20
207.3893076775
 10
-127.8303137916
 20
207.3506467813
 10
-127.653142771
 20
207.3048121848
 10
-127.472501048
 20
207.2519475229
 10
-127.2884676033
 20
207.1921158571
 10
-127.100758069
 20
207.1254406027
 10
-126.9095010628
 20
207.0519922132
 10
-126.7149035308
 20
206.9718564423
 10
-126.5167841384
 20
206.8851315891
 10
-126.3151641994
 20
206.7918382078
 10
-126.1103462082
 20
206.6920910924
 10
-125.9025692174
 20
206.5861366834
 10
-125.6919695953
 20
206.474094611
 10
-125.4787396517
 20
206.3560606212
 10
-125.2632058134
 20
206.23229429
 10
-125.045584947
 20
206.1029852874
 10
-124.8259820132
 20
205.9682295357
 10
-124.6045539359
 20
205.8281722438
  0
LWPOLYLINE
  5
219
100
AcDbEntity
  8
ASSI
100
AcDbPolyline
 62
7
  6
CONTINUOUS
 90
31
 70
0
 10
-128.8451069012
 20
205.4675270254
 10
-128.7796940348
 20
205.502839381
 10
-128.6860180258
 20
205.5454592144
 10
-128.5882455232
 20
205.5811047667
 10
-128.4865245638
 20
205.6097391156
 10
-128.3809622457
 20
205.6313393143
 10
-128.2713607097
 20
205.6461198436
 10
-128.1578455926
 20
205.6540924442
 10
-128.0405737969
 20
205.6552547106
 10
-127.9194141529
 20
205.6498472117
 10
-127.7945330347
 20
205.6379230802
 10
-127.6660679164
 20
205.6195126764
 10
-127.5338527983
 20
205.5948499177
 10
-127.3979901174
 20
205.5639938574
 10
-127.2586781363
 20
205.5269941293
 10
-127.1158985381
 20
205.4840917294
 10
-126.9698849947
 20
205.4354124104
 10
-126.8207116371
 20
205.3810053164
 10
-126.6681155783
 20
205.3209877332
 10
-126.5122050587
 20
205.2554196158
 10
-126.3531557765
 20
205.1843731843
 10
-126.1907937959
 20
205.1079434508
 10
-126.0251374822
 20
205.0261476164
 10
-125.8564424616
 20
204.9390830053
 10
-125.6848895202
 20
204.8469705519
 10
-125.5105900293
 20
204.7499138009
 10
-125.3337107297
 20
204.6479914489
 10
-125.154518391
 20
204.5414285865
 10
-124.9731933692
 20
204.4303875201
 10
-124.7898276237
 20
204.3149475983
 10
-124.6045539359
 20
204.1952316903
  0
LWPOLYLINE
  5
21A
100
AcDbEntity
  8
0
100
AcDbPolyline
 62
253
  6
CONTINUOUS
 90
29
 70
0
 10
-85.8656088123
 20
232.5913538322
 10
-85.6816210541
 20
232.6861677513
 10
-85.4929054841
 20
232.7723218029
 10
-85.2996054103
 20
232.8497505628
 10
-85.1018676222
 20
232.9183952326
 10
-84.899842279
 20
232.9782036847
 10
-84.6936827959
 20
233.0291305013
 10
-84.4835457275
 20
233.0711370093
 10
-84.269590649
 20
233.1041913095
 10
-84.0519800349
 20
233.1282683009
 10
-83.8308791355
 20
233.1433496999
 10
-83.6064558519
 20
233.1494240539
 10
-83.3788806078
 20
233.14648675
 10
-83.1483262208
 20
233.1345400188
 10
-82.9149677706
 20
233.1135929325
 10
-82.6789824664
 20
233.0836613979
 10
-82.4405495119
 20
233.0447681448
 10
-82.19984997
 20
232.9969427081
 10
-81.9570666244
 20
232.9402214057
 10
-81.7123838415
 20
232.874647311
 10
-81.4659874298
 20
232.8002702201
 10
-81.2180644993
 20
232.7171466138
 10
-80.9688033193
 20
232.6253396151
 10
-80.7183931751
 20
232.524918941
 10
-80.4670242248
 20
232.4159608494
 10
-80.2148873544
 20
232.2985480816
 10
-79.962174033
 20
232.1727697992
 10
-79.7090761676
 20
232.0387215165
 10
-79.4557859572
 20
231.8965050278
  0
LINE
  5
21B
100
AcDbEntity
  8
0
100
AcDbLine
 62
253
  6
CONTINUOUS
 10
-105.0704604288
 20
191.7961766148
 11
-105.6187368611
 21
191.4796086744
  0
LWPOLYLINE
  5
21C
100
AcDbEntity
  8
0
100
AcDbPolyline
 62
7
  6
CONTINUOUS
 90
4
 70
0
 10
-105.41165424
 20
191.9373455355
 10
-105.3847967418
 20
191.9512572223
 10
-105.3565954417
 20
191.9627855807
 10
-105.3422426811
 20
191.9672201148
  0
LINE
  5
21D
100
AcDbEntity
  8
0
100
AcDbLine
 62
7
  6
CONTINUOUS
 10
-104.2045232987
 20
178.2130714146
 11
-93.347616339
 21
184.4817134241
  0
LINE
  5
21E
100
AcDbEntity
  8
0
100
AcDbLine
 62
7
  6
CONTINUOUS
 10
-104.2045232987
 20
176.5799730413
 11
-91.9832080331
 21
183.6364073065
  0
LWPOLYLINE
  5
21F
100
AcDbEntity
  8
0
100
AcDbPolyline
 62
7
  6
CONTINUOUS
 90
9
 70
0
 10
91.9468978025
 20
-203.3897675924
 10
91.9174249946
 20
-203.386846535
 10
91.8825631022
 20
-203.3809809688
 10
91.8470984816
 20
-203.3726254869
 10
91.8110360397
 20
-203.3618003595
 10
91.774670961
 20
-203.3485941944
 10
91.7381016407
 20
-203.3330365276
 10
91.7012296837
 20
-203.315097823
 10
91.66405509
 20
-203.2947780808
  0
LWPOLYLINE
  5
220
100
AcDbEntity
  8
RACCORDO
100
AcDbPolyline
 62
253
  6
CONTINUOUS
 90
5
 70
0
 10
25.0351438711
 20
-172.5966463414
 10
24.9664998959
 20
-172.6027733567
 10
24.8927158231
 20
-172.5936082392
 10
24.8154398689
 20
-172.5693557197
 10
24.7363982507
 20
-172.5305575573
  0
LWPOLYLINE
  5
221
100
AcDbEntity
  8
RACCORDO
100
AcDbPolyline
 62
7
  6
CONTINUOUS
 90
20
 70
0
 10
-108.9258759642
 20
106.4325118381
 10
-108.9261531676
 20
106.4320443568
 10
-108.9225714155
 20
106.4404284988
 10
-108.9157822727
 20
106.4637969137
 10
-108.9092880267
 20
106.5020336106
 10
-108.9058527436
 20
106.554736796
 10
-108.9077350192
 20
106.6206325273
 10
-108.9166464762
 20
106.6982445388
 10
-108.934054329
 20
106.7866906529
 10
-108.9608641137
 20
106.8835123341
 10
-108.9971804228
 20
106.9853913504
 10
-109.0429811223
 20
107.0901172209
 10
-109.0976579906
 20
107.1948923126
 10
-109.1593293415
 20
107.2956626488
 10
-109.2264731889
 20
107.3901683176
 10
-109.2972697205
 20
107.4763246562
 10
-109.3684187853
 20
107.5511359815
 10
-109.4371784458
 20
107.6133209253
 10
-109.5018095118
 20
107.6630557385
 10
-109.5603512802
 20
107.7006169547
  0
LWPOLYLINE
  5
222
100
AcDbEntity
  8
RACCORDO
100
AcDbPolyline
 62
253
  6
CONTINUOUS
 90
6
 70
0
 10
-108.0787776694
 20
105.5384576508
 10
-107.9965488156
 20
105.6554325457
 10
-107.9314104416
 20
105.7921859088
 10
-107.8842433993
 20
105.9468685158
 10
-107.8556855947
 20
106.1173884625
 10
-107.8461232218
 20
106.3014397671
  0
LWPOLYLINE
  5
223
100
AcDbEntity
  8
RACCORDO
100
AcDbPolyline
 62
253
  6
CONTINUOUS
 90
3
 70
0
 10
-109.7196161468
 20
107.6893473837
 10
-109.6749655796
 20
107.7391860367
 10
-109.6650746708
 20
107.7462555083
  0
LWPOLYLINE
  5
224
100
AcDbEntity
  8
0
100
AcDbPolyline
 62
7
  6
CONTINUOUS
 90
7
 70
0
 10
-107.9774457516
 20
105.5492758824
 10
-107.8566621857
 20
105.6395243939
 10
-107.7527459592
 20
105.759099584
 10
-107.6709311068
 20
105.9020064143
 10
-107.6129462002
 20
106.0662558376
 10
-107.5770626677
 20
106.2538369009
 10
-107.5632805093
 20
106.4647496044
  0
LWPOLYLINE
  5
225
100
AcDbEntity
  8
RACCORDO
100
AcDbPolyline
 62
253
  6
CONTINUOUS
 90
3
 70
0
 10
-108.2602884639
 20
105.3859660448
 10
-108.1769852398
 20
105.4428429129
 10
-108.0787776694
 20
105.5384576508
  0
LWPOLYLINE
  5
226
100
AcDbEntity
  8
RACCORDO
100
AcDbPolyline
 62
7
  6
CONTINUOUS
 90
10
 70
0
 10
-110.2603851044
 20
108.8500118627
 10
-110.370030448
 20
108.777343713
 10
-110.4723848972
 20
108.6895037257
 10
-110.5656065844
 20
108.5867629516
 10
-110.6479550635
 20
108.469657406
 10
-110.7178820401
 20
108.3389271567
 10
-110.7741821424
 20
108.1950788519
 10
-110.8157630106
 20
108.0384557782
 10
-110.8414829564
 20
107.8697277183
 10
-110.8502862778
 20
107.6895732433
  0
LWPOLYLINE
  5
227
100
AcDbEntity
  8
ASSI
100
AcDbPolyline
 62
7
  6
CONTINUOUS
 90
60
 70
0
 10
-54.6678946322
 20
147.9347541309
 10
-54.6952685357
 20
147.9183099115
 10
-54.7483468743
 20
147.8825336341
 10
-54.7990554564
 20
147.8429649647
 10
-54.8474057453
 20
147.7996222479
 10
-54.8931631023
 20
147.7527158211
 10
-54.9363149239
 20
147.702228362
 10
-54.9768738136
 20
147.6481771928
 10
-55.0146429437
 20
147.5908246178
 10
-55.049608754
 20
147.5301545898
 10
-55.0817848047
 20
147.466183156
 10
-55.111014949
 20
147.3992207626
 10
-55.1372848677
 20
147.3292528713
 10
-55.16060888
 20
147.2562940204
 10
-55.1808737972
 20
147.180698271
 10
-55.1980647497
 20
147.1024528059
 10
-55.2121966071
 20
147.0215704423
 10
-55.223200789
 20
146.9384436932
 10
-55.2310620925
 20
146.8530616493
 10
-55.2357957206
 20
146.7654352199
 10
-55.2373787015
 20
146.6759896463
 10
-55.2357957206
 20
146.5847160861
 10
-55.2310620925
 20
146.4916233816
 10
-55.223200789
 20
146.3971633014
 10
-55.2121966071
 20
146.3013291989
 10
-55.1980647497
 20
146.2041277206
 10
-55.1808737972
 20
146.1060305744
 10
-55.16060888
 20
146.0070334066
 10
-55.1372848677
 20
145.9071405709
 10
-55.111014949
 20
145.8068368361
 10
-55.0817848047
 20
145.7061202047
 10
-55.049608754
 20
145.6049926741
 10
-55.0146429437
 20
145.5039450048
 10
-54.9768738136
 20
145.4029775851
 10
-54.9363149239
 20
145.3020900267
 10
-54.8931631023
 20
145.2017719256
 10
-54.8474057453
 20
145.1020260499
 10
-54.7990554564
 20
145.0028496314
 10
-54.7483468743
 20
144.9047239624
 10
-54.6952685357
 20
144.8076541501
 10
-54.6398319038
 20
144.7116350872
 10
-54.5823060064
 20
144.6171327433
 10
-54.5226806879
 20
144.524154491
 10
-54.4609661039
 20
144.4326929577
 10
-54.3974617483
 20
144.343191996
 10
-54.3321589214
 20
144.2556611358
 10
-54.2650663229
 20
144.1700908473
 10
-54.1965095456
 20
144.0868963934
 10
-54.1264814726
 20
144.0060893225
 10
-54.0549892207
 20
143.9276580862
 10
-53.982379734
 20
143.8519833025
 10
-53.9086475817
 20
143.7790783699
 10
-53.8337981946
 20
143.7089298899
 10
-53.7581948082
 20
143.6418782852
 10
-53.6818337575
 20
143.5779386089
 10
-53.6047187077
 20
143.517095808
 10
-53.5272238892
 20
143.4596451456
 10
-53.4494740458
 20
143.405685043
 10
-53.3713444338
 20
143.3551170789
 10
-53.2928350532
 20
143.3079412535
  0
LINE
  5
228
100
AcDbEntity
  8
0
100
AcDbLine
 62
7
  6
CONTINUOUS
 10
-104.2045232987
 20
115.139795614
 11
-103.4974165175
 21
115.5480702073
  0
LINE
  5
229
100
AcDbEntity
  8
ASSI
100
AcDbLine
 62
253
  6
CONTINUOUS
 10
-51.8786214909
 20
144.1244904401
 11
-53.2928350532
 21
143.3079412535
  0
LINE
  5
22A
100
AcDbEntity
  8
0
100
AcDbLine
 62
7
  6
CONTINUOUS
 10
-109.977542392
 20
109.0133217
 11
-110.2603851044
 21
108.8500118627
  0
LINE
  5
22B
100
AcDbEntity
  8
0
100
AcDbLine
 62
7
  6
CONTINUOUS
 10
-107.9774457514
 20
105.5492758821
 11
-108.2602884639
 21
105.3859660448
  0
LWPOLYLINE
  5
22C
100
AcDbEntity
  8
0
100
AcDbPolyline
 62
7
  6
CONTINUOUS
 90
24
 70
0
 10
94.3965315103
 20
-233.1813134147
 10
94.4406986031
 20
-233.2059326993
 10
94.5309113245
 20
-233.2509917734
 10
94.6240145054
 20
-233.2906752547
 10
94.7199976282
 20
-233.3250027037
 10
94.8185105819
 20
-233.3538489066
 10
94.9195626056
 20
-233.3771938454
 10
95.0231444604
 20
-233.3950575382
 10
95.1288783178
 20
-233.4073748247
 10
95.2367720373
 20
-233.4141254491
 10
95.3468177595
 20
-233.4153296673
 10
95.4586140784
 20
-233.4109830867
 10
95.5721673874
 20
-233.4010654355
 10
95.6874712931
 20
-233.3855969854
 10
95.8041052097
 20
-233.3646341598
 10
95.9220739943
 20
-233.3381568927
 10
96.0413727899
 20
-233.30618525
 10
96.1615664384
 20
-233.2688358524
 10
96.2826582082
 20
-233.2260890599
 10
96.4046448309
 20
-233.1779645126
 10
96.5270813448
 20
-233.1246377508
 10
96.649819429
 20
-233.0661672882
 10
96.7730074044
 20
-233.0024946111
 10
96.8966452708
 20
-232.9336197197
  0
LWPOLYLINE
  5
22D
100
AcDbEntity
  8
0
100
AcDbPolyline
 62
7
  6
CONTINUOUS
 90
24
 70
0
 10
-123.3923570951
 20
-107.4327386698
 10
-123.3481900024
 20
-107.4573579543
 10
-123.257977281
 20
-107.5024170285
 10
-123.1648741
 20
-107.5421005098
 10
-123.0688909773
 20
-107.5764279587
 10
-122.9703780236
 20
-107.6052741616
 10
-122.8693259998
 20
-107.6286191005
 10
-122.7657441451
 20
-107.6464827932
 10
-122.6600102877
 20
-107.6588000798
 10
-122.5521165682
 20
-107.6655507042
 10
-122.442070846
 20
-107.6667549224
 10
-122.3302745271
 20
-107.6624083418
 10
-122.2167212181
 20
-107.6524906905
 10
-122.1014173124
 20
-107.6370222405
 10
-121.9847833958
 20
-107.6160594148
 10
-121.8668146111
 20
-107.5895821477
 10
-121.7475158156
 20
-107.557610505
 10
-121.627322167
 20
-107.5202611074
 10
-121.5062303973
 20
-107.477514315
 10
-121.3842437745
 20
-107.4293897676
 10
-121.2618072607
 20
-107.3760630059
 10
-121.1390691764
 20
-107.3175925432
 10
-121.0158812011
 20
-107.2539198662
 10
-120.8922433347
 20
-107.1850449747
  0
LINE
  5
22E
100
AcDbEntity
  8
0
100
AcDbLine
 62
7
  6
CONTINUOUS
 10
-123.3923641354
 20
-107.4327508631
 11
-124.8065776978
 21
-106.6162016765
  0
LINE
  5
22F
100
AcDbEntity
  8
0
100
AcDbLine
 62
7
  6
CONTINUOUS
 10
92.9823109077
 20
-232.3647764214
 11
94.3965244701
 21
-233.1813256081
  0
LINE
  5
230
100
AcDbEntity
  8
0
100
AcDbLine
 62
253
  6
CONTINUOUS
 10
-124.4277772406
 20
-105.1440665574
 11
-125.841990803
 21
-104.3275173707
  0
LINE
  5
231
100
AcDbEntity
  8
0
100
AcDbLine
 62
253
  6
CONTINUOUS
 10
91.9468978025
 20
-230.0760921157
 11
93.3611113648
 21
-230.8926413023
  0
LINE
  5
232
100
AcDbEntity
  8
0
100
AcDbLine
 62
7
  6
CONTINUOUS
 10
-114.8111250165
 20
-103.6738834721
 11
91.9468978025
 21
-223.0533745611
  0
LWPOLYLINE
  5
233
100
AcDbEntity
  8
0
100
AcDbPolyline
 62
7
  6
CONTINUOUS
 90
24
 70
0
 10
-124.8065706575
 20
-106.6161894831
 10
-124.8497363443
 20
-106.5903936612
 10
-124.9338706246
 20
-106.5348064181
 10
-125.0147947242
 20
-106.4740281492
 10
-125.0925203245
 20
-106.4080777437
 10
-125.1667639111
 20
-106.3371957641
 10
-125.2375127677
 20
-106.2613642001
 10
-125.3047796107
 20
-106.180601062
 10
-125.3683190755
 20
-106.0952009438
 10
-125.4281175497
 20
-106.005146911
 10
-125.4841886458
 20
-105.9104558981
 10
-125.5363278372
 20
-105.8114733029
 10
-125.5845207643
 20
-105.7081834522
 10
-125.6287817868
 20
-105.6006020191
 10
-125.6689494569
 20
-105.4891214209
 10
-125.7050088253
 20
-105.3737274174
 10
-125.7369748412
 20
-105.2544342489
 10
-125.7647309045
 20
-105.1316770524
 10
-125.7882616401
 20
-105.0054431771
 10
-125.807582423
 20
-104.8757452739
 10
-125.8226227783
 20
-104.7430564327
 10
-125.8333592142
 20
-104.6075343501
 10
-125.8398152225
 20
-104.4690213294
 10
-125.841990803
 20
-104.3275173707
  0
LWPOLYLINE
  5
234
100
AcDbEntity
  8
0
100
AcDbPolyline
 62
7
  6
CONTINUOUS
 90
24
 70
0
 10
92.982317948
 20
-232.3647642281
 10
92.9391522611
 20
-232.3389684061
 10
92.8550179809
 20
-232.283381163
 10
92.7740938812
 20
-232.2226028942
 10
92.696368281
 20
-232.1566524886
 10
92.6221246943
 20
-232.0857705091
 10
92.5513758378
 20
-232.009938945
 10
92.4841089948
 20
-231.9291758069
 10
92.4205695299
 20
-231.8437756887
 10
92.3607710558
 20
-231.7537216559
 10
92.3046999597
 20
-231.6590306431
 10
92.2525607683
 20
-231.5600480478
 10
92.2043678411
 20
-231.4567581971
 10
92.1601068186
 20
-231.349176764
 10
92.1199391486
 20
-231.2376961658
 10
92.0838797802
 20
-231.1223021624
 10
92.0519137643
 20
-231.0030089938
 10
92.024157701
 20
-230.8802517973
 10
92.0006269654
 20
-230.7540179221
 10
91.9813061824
 20
-230.6243200189
 10
91.9662658271
 20
-230.4916311777
 10
91.9555293912
 20
-230.356109095
 10
91.949073383
 20
-230.2175960744
 10
91.9468978025
 20
-230.0760921157
  0
LWPOLYLINE
  5
235
100
AcDbEntity
  8
RACCORDO
100
AcDbPolyline
 62
253
  6
CONTINUOUS
 90
25
 70
0
 10
-109.6846008529
 20
-95.8973690438
 10
-109.8124050084
 20
-95.8128865017
 10
-109.9340721855
 20
-95.7147185881
 10
-110.0496023844
 20
-95.6028653029
 10
-110.1607540814
 20
-95.4749667013
 10
-110.2657688002
 20
-95.3333827282
 10
-110.3593711109
 20
-95.185193218
 10
-110.4409721134
 20
-95.0300652294
 10
-110.5111607079
 20
-94.8683317037
 10
-110.5664281651
 20
-94.7080712994
 10
-110.6060153417
 20
-94.5493605853
 10
-110.630681381
 20
-94.3921229927
 10
-110.6391949841
 20
-94.2442074733
 10
-110.6307361598
 20
-94.1060872139
 10
-110.6061248993
 20
-93.9772890277
 10
-110.5665898772
 20
-93.864242307
 10
-110.5113737018
 20
-93.7677467464
 10
-110.4412337647
 20
-93.6870026513
 10
-110.3596709153
 20
-93.62604033
 10
-110.2661044555
 20
-93.5858641434
 10
-110.1611150834
 20
-93.5654697305
 10
-110.0499457427
 20
-93.5658743169
 10
-109.9343440814
 20
-93.5874169775
 10
-109.8125624514
 20
-93.6297586374
 10
-109.6846008529
 20
-93.6928992964
  0
LWPOLYLINE
  5
236
100
AcDbEntity
  8
0
100
AcDbPolyline
 62
7
  6
CONTINUOUS
 90
24
 70
0
 10
-124.4277772406
 20
-105.1440665574
 10
-124.4256016601
 20
-105.2855705161
 10
-124.4191456519
 20
-105.4240835368
 10
-124.408409216
 20
-105.5596056194
 10
-124.3933688607
 20
-105.6922944606
 10
-124.3740480777
 20
-105.8219923638
 10
-124.3505173421
 20
-105.948226239
 10
-124.3227612788
 20
-106.0709834355
 10
-124.2907952629
 20
-106.1902766041
 10
-124.2547358945
 20
-106.3056706075
 10
-124.2145682245
 20
-106.4171512058
 10
-124.170307202
 20
-106.5247326388
 10
-124.1221142748
 20
-106.6280224896
 10
-124.0699750834
 20
-106.7270050848
 10
-124.0139039873
 20
-106.8216960976
 10
-123.9541055132
 20
-106.9117501304
 10
-123.8905660483
 20
-106.9971502486
 10
-123.8232992053
 20
-107.0779133867
 10
-123.7525503488
 20
-107.1537449508
 10
-123.6783067621
 20
-107.2246269304
 10
-123.6005811618
 20
-107.2905773359
 10
-123.5196570622
 20
-107.3513556047
 10
-123.435522782
 20
-107.4069428479
 10
-123.3923570951
 20
-107.4327386698
  0
LINE
  5
237
100
AcDbEntity
  8
ASSI
100
AcDbLine
 62
7
  6
CONTINUOUS
 10
-131.4281343744
 20
152.8780294313
 11
-131.4281343744
 21
201.8893482464
  0
LINE
  5
238
100
AcDbEntity
  8
ASSI
100
AcDbLine
 62
7
  6
CONTINUOUS
 10
-130.013920812
 20
152.0614802446
 11
-130.013920812
 21
201.0727990598
  0
LINE
  5
239
100
AcDbEntity
  8
0
100
AcDbLine
 62
7
  6
CONTINUOUS
 10
-125.841990803
 20
-104.3275173707
 11
-125.841990803
 21
134.3963370567
  0
LINE
  5
23A
100
AcDbEntity
  8
ASSI
100
AcDbLine
 62
253
  6
CONTINUOUS
 10
-124.6045539359
 20
205.8281722438
 11
-124.6045539359
 21
204.1952316903
  0
LINE
  5
23B
100
AcDbEntity
  8
0
100
AcDbLine
 62
7
  6
CONTINUOUS
 10
-124.4277772406
 20
-105.1440665574
 11
-124.4277772406
 21
133.5797878701
  0
LWPOLYLINE
  5
23C
100
AcDbEntity
  8
ASSI
100
AcDbPolyline
 62
7
  6
CONTINUOUS
 90
32
 70
0
 10
-130.013920812
 20
201.0727990598
 10
-130.0129099782
 20
201.2934966571
 10
-130.0098347425
 20
201.5100041257
 10
-130.0046801143
 20
201.7221742187
 10
-129.9974541923
 20
201.9297847786
 10
-129.9881309847
 20
202.1327680903
 10
-129.9766350803
 20
202.3312001221
 10
-129.9629626119
 20
202.5248880616
 10
-129.9470890987
 20
202.7137186476
 10
-129.9288779344
 20
202.897861151
 10
-129.9083083857
 20
203.0771675917
 10
-129.8853471468
 20
203.2514436469
 10
-129.8598086829
 20
203.4207590959
 10
-129.8316765831
 20
203.5849273718
 10
-129.8009084761
 20
203.7437652761
 10
-129.7672596475
 20
203.8973221966
 10
-129.7306944182
 20
204.045500929
 10
-129.6911834661
 20
204.1879924238
 10
-129.6485093569
 20
204.3245403135
 10
-129.6027094569
 20
204.4549538245
 10
-129.5537626229
 20
204.5790762292
 10
-129.5014166955
 20
204.6967568479
 10
-129.4457639858
 20
204.8077876534
 10
-129.3868060676
 20
204.9121032062
 10
-129.3241851191
 20
205.0098001029
 10
-129.2579890272
 20
205.100713092
 10
-129.1882491948
 20
205.1847535448
 10
-129.1145180803
 20
205.2621212191
 10
-129.0367859124
 20
205.3327350804
 10
-128.955173145
 20
205.3963892119
 10
-128.8694454225
 20
205.4531203812
 10
-128.8451069012
 20
205.4675270254
  0
LWPOLYLINE
  5
23D
100
AcDbEntity
  8
ASSI
100
AcDbPolyline
 62
7
  6
CONTINUOUS
 90
32
 70
0
 10
-131.4281343744
 20
201.8893482464
 10
-131.426688
 20
202.1503180385
 10
-131.4223040559
 20
202.4066232963
 10
-131.414964826
 20
202.6580900009
 10
-131.4046773467
 20
202.9044570663
 10
-131.3914134352
 20
203.1456430016
 10
-131.3750915743
 20
203.3817331968
 10
-131.3557059408
 20
203.6125005058
 10
-131.3332288558
 20
203.8378103511
 10
-131.3075102374
 20
204.0578562198
 10
-131.278522832
 20
204.2724648149
 10
-131.2462300287
 20
204.4814048936
 10
-131.2104321744
 20
204.6847475969
 10
-131.1711066885
 20
204.8822742762
 10
-131.1282066815
 20
205.0737665848
 10
-131.081472118
 20
205.2592660462
 10
-131.0308501041
 20
205.4386639767
 10
-130.976316714
 20
205.6115889417
 10
-130.917676336
 20
205.7777025357
 10
-130.8549671297
 20
205.9367827634
 10
-130.788170108
 20
206.0886409365
 10
-130.717066621
 20
206.2330531597
 10
-130.6417669297
 20
206.3697729096
 10
-130.5622717278
 20
206.4987235216
 10
-130.4782339944
 20
206.6199753553
 10
-130.3897593832
 20
206.7333320814
 10
-130.2968832192
 20
206.8386899889
 10
-130.1991470856
 20
206.9362444519
 10
-130.0965283714
 20
207.0259060897
 10
-129.9891804946
 20
207.1074251586
 10
-129.8769301748
 20
207.1807852444
 10
-129.8451554613
 20
207.1995497959
  0
LWPOLYLINE
  5
23E
100
AcDbEntity
  8
ASSI
100
AcDbPolyline
 62
7
  6
CONTINUOUS
 90
19
 70
0
 10
-83.7913548418
 20
113.2611046634
 10
-83.800343781
 20
113.2557931526
 10
-83.8355486347
 20
113.2325947353
 10
-83.8689370053
 20
113.2066411206
 10
-83.9004976138
 20
113.1779152005
 10
-83.9302417393
 20
113.1464340831
 10
-83.957985071
 20
113.1123928424
 10
-83.9837151853
 20
113.0757755816
 10
-84.0074445058
 20
113.0365981977
 10
-84.0290259928
 20
112.9951034548
 10
-84.0484463096
 20
112.9512769638
 10
-84.0657187928
 20
112.9051331138
 10
-84.0807364129
 20
112.8569578374
 10
-84.0934851684
 20
112.8067385206
 10
-84.1039790606
 20
112.7544877773
 10
-84.1121530638
 20
112.7005293815
 10
-84.1179855026
 20
112.644971258
 10
-84.1214980524
 20
112.5877054819
 10
-84.122690713
 20
112.5287320534
  0
LWPOLYLINE
  5
23F
100
AcDbEntity
  8
ASSI
100
AcDbPolyline
 62
7
  6
CONTINUOUS
 90
19
 70
0
 10
-82.1912848844
 20
110.4898807447
 10
-82.1822959451
 20
110.4951922556
 10
-82.1470910915
 20
110.5183906729
 10
-82.1137027208
 20
110.5443442875
 10
-82.0821421124
 20
110.5730702076
 10
-82.0523979869
 20
110.6045513251
 10
-82.0246546552
 20
110.6385925658
 10
-81.9989245409
 20
110.6752098265
 10
-81.9751952204
 20
110.7143872105
 10
-81.9536137334
 20
110.7558819533
 10
-81.9341934166
 20
110.7997084444
 10
-81.9169209333
 20
110.8458522943
 10
-81.9019033133
 20
110.8940275708
 10
-81.8891545578
 20
110.9442468876
 10
-81.8786606655
 20
110.9964976308
 10
-81.8704866623
 20
111.0504560266
 10
-81.8646542235
 20
111.1060141502
 10
-81.8611416738
 20
111.1632799262
 10
-81.8599490132
 20
111.2222533547
  0
LINE
  5
240
100
AcDbEntity
  8
ASSI
100
AcDbLine
 62
253
  6
CONTINUOUS
 10
-82.9917304135
 20
113.1817343561
 11
-84.122690713
 21
112.5287320534
  0
LINE
  5
241
100
AcDbEntity
  8
0
100
AcDbLine
 62
7
  6
CONTINUOUS
 10
-104.2045232987
 20
98.8103900781
 11
-103.4974165175
 21
99.2186646715
  0
LINE
  5
242
100
AcDbEntity
  8
RACCORDO
100
AcDbLine
 62
253
  6
CONTINUOUS
 10
-108.9185310893
 20
106.4543354119
 11
-108.9615911637
 21
106.439547462
  0
LWPOLYLINE
  5
243
100
AcDbEntity
  8
RACCORDO
100
AcDbPolyline
 62
253
  6
CONTINUOUS
 90
5
 70
0
 10
-38.2509130451
 20
-136.0560702386
 10
-38.3195570203
 20
-136.0621972539
 10
-38.3933410931
 20
-136.0530321364
 10
-38.4706170473
 20
-136.0287796169
 10
-38.5496586655
 20
-135.9899814545
  0
LWPOLYLINE
  5
244
100
AcDbEntity
  8
RACCORDO
100
AcDbPolyline
 62
7
  6
CONTINUOUS
 90
6
 70
0
 10
24.4363837546
 20
-171.3355768487
 10
24.3953437125
 20
-171.3138911752
 10
24.3611548812
 20
-171.299249563
 10
24.3350395649
 20
-171.2907002612
 10
24.3179786365
 20
-171.2868532426
 10
24.3130028097
 20
-171.2861364696
  0
LWPOLYLINE
  5
245
100
AcDbEntity
  8
RACCORDO
100
AcDbPolyline
 62
7
  6
CONTINUOUS
 90
6
 70
0
 10
-38.8496731616
 20
-134.7950007459
 10
-38.8907132037
 20
-134.7733150724
 10
-38.924902035
 20
-134.7586734602
 10
-38.9510173513
 20
-134.7501241583
 10
-38.9680782797
 20
-134.7462771398
 10
-38.9730541065
 20
-134.7455603668
  0
LWPOLYLINE
  5
246
100
AcDbEntity
  8
RACCORDO
100
AcDbPolyline
 62
7
  6
CONTINUOUS
 90
6
 70
0
 10
-109.5603512802
 20
-93.9675414131
 10
-109.6013913223
 20
-93.9458557396
 10
-109.6355801537
 20
-93.9312141274
 10
-109.6616954699
 20
-93.9226648256
 10
-109.6787563983
 20
-93.918817807
 10
-109.6837322252
 20
-93.918101034
  0
LINE
  5
247
100
AcDbEntity
  8
0
100
AcDbLine
 62
7
  6
CONTINUOUS
 10
91.66405509
 20
-203.2947780808
 11
36.5097261574
 21
-171.4493598012
  0
LINE
  5
248
100
AcDbEntity
  8
0
100
AcDbLine
 62
7
  6
CONTINUOUS
 10
20.9533769713
 20
-162.467318748
 11
-34.2009519612
 21
-130.6219004684
  0
LINE
  5
249
100
AcDbEntity
  8
0
100
AcDbLine
 62
7
  6
CONTINUOUS
 10
-49.7573011473
 20
-121.6398594152
 11
-104.9116300799
 21
-89.7944411357
  0
LINE
  5
24A
100
AcDbEntity
  8
0
100
AcDbLine
 62
7
  6
CONTINUOUS
 10
91.9468978025
 20
-201.8249895448
 11
37.9239397198
 21
-170.6328106146
  0
LINE
  5
24B
100
AcDbEntity
  8
0
100
AcDbLine
 62
7
  6
CONTINUOUS
 10
21.6604837525
 20
-161.242494968
 11
-32.7867383988
 21
-129.8053512818
  0
LINE
  5
24C
100
AcDbEntity
  8
0
100
AcDbLine
 62
7
  6
CONTINUOUS
 10
-49.0501943661
 20
-120.4150356352
 11
-103.4974165175
 21
-88.977891949
  0
LINE
  5
24D
100
AcDbEntity
  8
0
100
AcDbLine
 62
7
  6
CONTINUOUS
 10
-104.1098551515
 20
-88.2158845993
 11
-49.0501943661
 21
-120.0066426771
  0
LINE
  5
24E
100
AcDbEntity
  8
0
100
AcDbLine
 62
7
  6
CONTINUOUS
 10
-33.3991770328
 20
-129.043343932
 11
21.6604837525
 21
-160.8341020099
  0
LINE
  5
24F
100
AcDbEntity
  8
0
100
AcDbLine
 62
7
  6
CONTINUOUS
 10
37.3115010858
 20
-169.8708032648
 11
91.9468978025
 21
-201.4165965867
  0
LWPOLYLINE
  5
250
100
AcDbEntity
  8
0
100
AcDbPolyline
 62
7
  6
CONTINUOUS
 90
31
 70
0
 10
-104.9116300799
 20
-89.7944411357
 10
-104.9488046735
 20
-89.771832589
 10
-104.9856766305
 20
-89.7471924818
 10
-105.0222459509
 20
-89.7205208141
 10
-105.0586110295
 20
-89.6917334979
 10
-105.0946734715
 20
-89.6609146212
 10
-105.1301380921
 20
-89.6283164483
 10
-105.1649999845
 20
-89.5939243749
 10
-105.1992640556
 20
-89.5577530053
 10
-105.2326498408
 20
-89.5200984156
 10
-105.2651501316
 20
-89.4809484321
 10
-105.2967721365
 20
-89.4403152287
 10
-105.3272570176
 20
-89.3985314034
 10
-105.3565954417
 20
-89.3555875122
 10
-105.3847967418
 20
-89.3114929992
 10
-105.4116300799
 20
-89.2666087947
 10
-105.4370842278
 20
-89.220928417
 10
-105.4611704136
 20
-89.1744583478
 10
-105.4836914827
 20
-89.1275789621
 10
-105.504634589
 20
-89.0802869004
 10
-105.5240125785
 20
-89.0325855223
 10
-105.5416668352
 20
-88.9848652815
 10
-105.557583211
 20
-88.9371260233
 10
-105.5717758539
 20
-88.8893679025
 10
-105.5841285918
 20
-88.8419818374
 10
-105.5946263232
 20
-88.7949708817
 10
-105.6032841495
 20
-88.7483319816
 10
-105.6100312032
 20
-88.7024468943
 10
-105.6148438618
 20
-88.657442872
 10
-105.6177457477
 20
-88.6131926624
 10
-105.6187368611
 20
-88.5696962655
  0
LWPOLYLINE
  5
251
100
AcDbEntity
  8
0
100
AcDbPolyline
 62
7
  6
CONTINUOUS
 90
31
 70
0
 10
-34.2009519612
 20
-130.6219004684
 10
-34.2381265549
 20
-130.5992919217
 10
-34.2749985119
 20
-130.5746518145
 10
-34.3115678323
 20
-130.5479801469
 10
-34.3479329109
 20
-130.5191928307
 10
-34.3839953528
 20
-130.488373954
 10
-34.4194599734
 20
-130.455775781
 10
-34.4543218659
 20
-130.4213837077
 10
-34.4885859369
 20
-130.385212338
 10
-34.5219717222
 20
-130.3475577484
 10
-34.5544720129
 20
-130.3084077649
 10
-34.5860940179
 20
-130.2677745614
 10
-34.616578899
 20
-130.2259907361
 10
-34.645917323
 20
-130.183046845
 10
-34.6741186232
 20
-130.138952332
 10
-34.7009519612
 20
-130.0940681275
 10
-34.7264061092
 20
-130.0483877498
 10
-34.7504922949
 20
-130.0019176806
 10
-34.773013364
 20
-129.9550382949
 10
-34.7939564703
 20
-129.9077462332
 10
-34.8133344599
 20
-129.8600448551
 10
-34.8309887165
 20
-129.8123246143
 10
-34.8469050924
 20
-129.7645853561
 10
-34.8610977353
 20
-129.7168272353
 10
-34.8734504732
 20
-129.6694411702
 10
-34.8839482045
 20
-129.6224302144
 10
-34.8926060308
 20
-129.5757913144
 10
-34.8993530845
 20
-129.529906227
 10
-34.9041657431
 20
-129.4849022047
 10
-34.9070676291
 20
-129.4406519952
 10
-34.9080587424
 20
-129.3971555983
  0
LWPOLYLINE
  5
252
100
AcDbEntity
  8
0
100
AcDbPolyline
 62
7
  6
CONTINUOUS
 90
31
 70
0
 10
36.5097261574
 20
-171.4493598012
 10
36.4725515638
 20
-171.4267512545
 10
36.4356796068
 20
-171.4021111473
 10
36.3991102864
 20
-171.3754394797
 10
36.3627452078
 20
-171.3466521635
 10
36.3266827658
 20
-171.3158332868
 10
36.2912181452
 20
-171.2832351138
 10
36.2563562528
 20
-171.2488430405
 10
36.2220921818
 20
-171.2126716708
 10
36.1887063965
 20
-171.1750170812
 10
36.1562061057
 20
-171.1358670977
 10
36.1245841008
 20
-171.0952338942
 10
36.0940992197
 20
-171.0534500689
 10
36.0647607956
 20
-171.0105061777
 10
36.0365594955
 20
-170.9664116648
 10
36.0097261574
 20
-170.9215274602
 10
35.9842720095
 20
-170.8758470826
 10
35.9601858237
 20
-170.8293770133
 10
35.9376647546
 20
-170.7824976277
 10
35.9167216484
 20
-170.735205566
 10
35.8973436588
 20
-170.6875041878
 10
35.8796894021
 20
-170.6397839471
 10
35.8637730263
 20
-170.5920446889
 10
35.8495803834
 20
-170.5442865681
 10
35.8372276455
 20
-170.4969005029
 10
35.8267299141
 20
-170.4498895472
 10
35.8180720878
 20
-170.4032506471
 10
35.8113250341
 20
-170.3573655598
 10
35.8065123755
 20
-170.3123615375
 10
35.8036104896
 20
-170.2681113279
 10
35.8026193763
 20
-170.2246149311
  0
LWPOLYLINE
  5
253
100
AcDbEntity
  8
RACCORDO
100
AcDbPolyline
 62
253
  6
CONTINUOUS
 90
25
 70
0
 10
-109.6846008529
 20
-93.6928992964
 10
-109.5567966974
 20
-93.7773818385
 10
-109.4351295202
 20
-93.8755497521
 10
-109.3195993214
 20
-93.9874030373
 10
-109.2084476243
 20
-94.1153016389
 10
-109.1034329056
 20
-94.256885612
 10
-109.0098305949
 20
-94.4050751222
 10
-108.9282295924
 20
-94.5602031108
 10
-108.8580409979
 20
-94.7219366365
 10
-108.8027735407
 20
-94.8821970408
 10
-108.7631863641
 20
-95.0409077549
 10
-108.7385203248
 20
-95.1981453475
 10
-108.7300067217
 20
-95.3460608668
 10
-108.7384655459
 20
-95.4841811263
 10
-108.7630768064
 20
-95.6129793125
 10
-108.8026118286
 20
-95.7260260332
 10
-108.857828004
 20
-95.8225215938
 10
-108.9279679411
 20
-95.9032656889
 10
-109.0095307904
 20
-95.9642280102
 10
-109.1030972502
 20
-96.0044041968
 10
-109.2080866223
 20
-96.0247986097
 10
-109.319255963
 20
-96.0243940233
 10
-109.4348576244
 20
-96.0028513627
 10
-109.5566392543
 20
-95.9605097028
 10
-109.6846008529
 20
-95.8973690438
  0
LWPOLYLINE
  5
254
100
AcDbEntity
  8
RACCORDO
100
AcDbPolyline
 62
253
  6
CONTINUOUS
 90
25
 70
0
 10
-38.9739227342
 20
-136.7248283765
 10
-39.1017268897
 20
-136.6403458345
 10
-39.2233940669
 20
-136.5421779208
 10
-39.3389242657
 20
-136.4303246357
 10
-39.4500759628
 20
-136.3024260341
 10
-39.5550906815
 20
-136.160842061
 10
-39.6486929922
 20
-136.0126525508
 10
-39.7302939947
 20
-135.8575245622
 10
-39.8004825892
 20
-135.6957910365
 10
-39.8557500464
 20
-135.5355306322
 10
-39.895337223
 20
-135.3768199181
 10
-39.9200032623
 20
-135.2195823255
 10
-39.9285168654
 20
-135.0716668061
 10
-39.9200580412
 20
-134.9335465466
 10
-39.8954467807
 20
-134.8047483605
 10
-39.8559117585
 20
-134.6917016398
 10
-39.8006955831
 20
-134.5952060792
 10
-39.730555646
 20
-134.5144619841
 10
-39.6489927967
 20
-134.4534996627
 10
-39.5554263369
 20
-134.4133234761
 10
-39.4504369648
 20
-134.3929290633
 10
-39.3392676241
 20
-134.3933336496
 10
-39.2236659627
 20
-134.4148763103
 10
-39.1018843328
 20
-134.4572179702
 10
-38.9739227342
 20
-134.5203586292
  0
LWPOLYLINE
  5
255
100
AcDbEntity
  8
RACCORDO
100
AcDbPolyline
 62
253
  6
CONTINUOUS
 90
25
 70
0
 10
-38.9739227342
 20
-134.5203586292
 10
-38.8461185787
 20
-134.6048411713
 10
-38.7244514016
 20
-134.7030090849
 10
-38.6089212027
 20
-134.8148623701
 10
-38.4977695057
 20
-134.9427609716
 10
-38.3927547869
 20
-135.0843449447
 10
-38.2991524762
 20
-135.2325344549
 10
-38.2175514737
 20
-135.3876624436
 10
-38.1473628792
 20
-135.5493959693
 10
-38.092095422
 20
-135.7096563736
 10
-38.0525082454
 20
-135.8683670876
 10
-38.0278422061
 20
-136.0256046803
 10
-38.019328603
 20
-136.1735201996
 10
-38.0277874273
 20
-136.3116404591
 10
-38.0523986878
 20
-136.4404386453
 10
-38.0919337099
 20
-136.553485366
 10
-38.1471498853
 20
-136.6499809266
 10
-38.2172898224
 20
-136.7307250217
 10
-38.2988526718
 20
-136.791687343
 10
-38.3924191316
 20
-136.8318635296
 10
-38.4974085037
 20
-136.8522579425
 10
-38.6085778444
 20
-136.8518533561
 10
-38.7241795057
 20
-136.8303106954
 10
-38.8459611357
 20
-136.7879690356
 10
-38.9739227342
 20
-136.7248283765
  0
LWPOLYLINE
  5
256
100
AcDbEntity
  8
RACCORDO
100
AcDbPolyline
 62
253
  6
CONTINUOUS
 90
25
 70
0
 10
24.312134182
 20
-173.2654044794
 10
24.1843300265
 20
-173.1809219373
 10
24.0626628493
 20
-173.0827540237
 10
23.9471326505
 20
-172.9709007385
 10
23.8359809534
 20
-172.8430021369
 10
23.7309662347
 20
-172.7014181638
 10
23.637363924
 20
-172.5532286536
 10
23.5557629215
 20
-172.398100665
 10
23.485574327
 20
-172.2363671393
 10
23.4303068698
 20
-172.076106735
 10
23.3907196932
 20
-171.9173960209
 10
23.3660536539
 20
-171.7601584283
 10
23.3575400508
 20
-171.612242909
 10
23.365998875
 20
-171.4741226495
 10
23.3906101355
 20
-171.3453244633
 10
23.4301451577
 20
-171.2322777426
 10
23.4853613331
 20
-171.135782182
 10
23.5555012701
 20
-171.0550380869
 10
23.6370641195
 20
-170.9940757656
 10
23.7306305793
 20
-170.953899579
 10
23.8356199514
 20
-170.9335051661
 10
23.9467892921
 20
-170.9339097525
 10
24.0623909535
 20
-170.9554524131
 10
24.1841725834
 20
-170.997794073
 10
24.312134182
 20
-171.060934732
  0
LWPOLYLINE
  5
257
100
AcDbEntity
  8
RACCORDO
100
AcDbPolyline
 62
253
  6
CONTINUOUS
 90
25
 70
0
 10
24.312134182
 20
-171.060934732
 10
24.4399383375
 20
-171.1454172741
 10
24.5616055146
 20
-171.2435851877
 10
24.6771357135
 20
-171.3554384729
 10
24.7882874105
 20
-171.4833370745
 10
24.8933021293
 20
-171.6249210476
 10
24.98690444
 20
-171.7731105578
 10
25.0685054425
 20
-171.9282385464
 10
25.138694037
 20
-172.0899720721
 10
25.1939614942
 20
-172.2502324764
 10
25.2335486708
 20
-172.4089431905
 10
25.2582147101
 20
-172.5661807831
 10
25.2667283132
 20
-172.7140963025
 10
25.2582694889
 20
-172.8522165619
 10
25.2336582284
 20
-172.9810147481
 10
25.1941232063
 20
-173.0940614688
 10
25.1389070309
 20
-173.1905570294
 10
25.0687670938
 20
-173.2713011245
 10
24.9872042444
 20
-173.3322634458
 10
24.8936377846
 20
-173.3724396324
 10
24.7886484125
 20
-173.3928340453
 10
24.6774790718
 20
-173.3924294589
 10
24.5618774105
 20
-173.3708867983
 10
24.4400957805
 20
-173.3285451384
 10
24.312134182
 20
-173.2654044794
  0
LWPOLYLINE
  5
258
100
AcDbEntity
  8
RACCORDO
100
AcDbPolyline
 62
253
  6
CONTINUOUS
 90
15
 70
0
 10
-109.2603367842
 20
-95.1625221217
 10
-109.3393783241
 20
-95.1100450635
 10
-109.4166542211
 20
-95.0450613157
 10
-109.4904382603
 20
-94.9690225006
 10
-109.559082229
 20
-94.8836271913
 10
-109.6210527306
 20
-94.7907829746
 10
-109.6749654392
 20
-94.6925638415
 10
-109.719616032
 20
-94.5911638441
 10
-109.7540070862
 20
-94.4888480905
 10
-109.7773703581
 20
-94.387902154
 10
-109.7891839505
 20
-94.290581003
 10
-109.7891839678
 20
-94.1990586294
 10
-109.7773704093
 20
-94.1153794926
 10
-109.7540071703
 20
-94.0414128461
 10
-109.7196161468
 20
-93.9788109842
  0
LWPOLYLINE
  5
259
100
AcDbEntity
  8
RACCORDO
100
AcDbPolyline
 62
253
  6
CONTINUOUS
 90
15
 70
0
 10
-38.5496586655
 20
-135.9899814545
 10
-38.6287002054
 20
-135.9375043962
 10
-38.7059761025
 20
-135.8725206484
 10
-38.7797601416
 20
-135.7964818334
 10
-38.8484041104
 20
-135.711086524
 10
-38.9103746119
 20
-135.6182423074
 10
-38.9642873205
 20
-135.5200231743
 10
-39.0089379134
 20
-135.4186231769
 10
-39.0433289675
 20
-135.3163074233
 10
-39.0666922394
 20
-135.2153614867
 10
-39.0785058319
 20
-135.1180403358
 10
-39.0785058491
 20
-135.0265179622
 10
-39.0666922907
 20
-134.9428388254
 10
-39.0433290516
 20
-134.8688721789
 10
-39.0089380281
 20
-134.8062703169
  0
LWPOLYLINE
  5
25A
100
AcDbEntity
  8
RACCORDO
100
AcDbPolyline
 62
253
  6
CONTINUOUS
 90
15
 70
0
 10
24.7363982507
 20
-172.5305575573
 10
24.6573567108
 20
-172.4780804991
 10
24.5800808137
 20
-172.4130967513
 10
24.5062967746
 20
-172.3370579362
 10
24.4376528058
 20
-172.2516626269
 10
24.3756823043
 20
-172.1588184102
 10
24.3217695957
 20
-172.0605992771
 10
24.2771190028
 20
-171.9591992797
 10
24.2427279487
 20
-171.8568835261
 10
24.2193646768
 20
-171.7559375896
 10
24.2075510843
 20
-171.6586164386
 10
24.2075510671
 20
-171.567094065
 10
24.2193646255
 20
-171.4834149282
 10
24.2427278646
 20
-171.4094482817
 10
24.2771188881
 20
-171.3468464198
  0
LWPOLYLINE
  5
25B
100
AcDbEntity
  8
ASSI
100
AcDbPolyline
 62
7
  6
CONTINUOUS
 90
30
 70
0
 10
-5.4016586552
 20
-152.33559735
 10
-5.4059708001
 20
-152.3324232134
 10
-5.4613379039
 20
-152.2886897071
 10
-5.5161806736
 20
-152.2423454583
 10
-5.5705023447
 20
-152.1934065779
 10
-5.6239663107
 20
-152.142176318
 10
-5.6765672458
 20
-152.0886404504
 10
-5.7283104758
 20
-152.0328132032
 10
-5.7788753715
 20
-151.9750405124
 10
-5.8282546162
 20
-151.9153102981
 10
-5.8764555266
 20
-151.8536346401
 10
-5.9231794237
 20
-151.7903957144
 10
-5.9684171361
 20
-151.7255838141
 10
-6.0121778351
 20
-151.6592086461
 10
-6.0541903557
 20
-151.5916815071
 10
-6.0944438428
 20
-151.522995244
 10
-6.1329491515
 20
-151.4531570098
 10
-6.1694676819
 20
-151.3825995602
 10
-6.2039870974
 20
-151.3113184293
 10
-6.2365197346
 20
-151.2393180831
 10
-6.2668640037
 20
-151.1670446747
 10
-6.2950063162
 20
-151.0944965088
 10
-6.3209602605
 20
-151.0216752807
 10
-6.3445650119
 20
-150.9490322304
 10
-6.3658059834
 20
-150.8765684644
 10
-6.384697762
 20
-150.8042828762
 10
-6.4011232839
 20
-150.7326233866
 10
-6.4150672352
 20
-150.6615938834
 10
-6.4265449299
 20
-150.5911904788
 10
-6.4317027723
 20
-150.551186278
  0
LWPOLYLINE
  5
25C
100
AcDbEntity
  8
ASSI
100
AcDbPolyline
 62
7
  6
CONTINUOUS
 90
3
 70
0
 10
-76.1720160226
 20
-111.4612303743
 10
-76.1166489188
 20
-111.5049638807
 10
-76.1123367739
 20
-111.5081380173
  0
LWPOLYLINE
  5
25D
100
AcDbEntity
  8
ASSI
100
AcDbPolyline
 62
7
  6
CONTINUOUS
 90
28
 70
0
 10
-76.1720160226
 20
-111.4612303743
 10
-76.2268587922
 20
-111.4148861255
 10
-76.2811804633
 20
-111.3659472451
 10
-76.3346444294
 20
-111.3147169852
 10
-76.3872453645
 20
-111.2611811176
 10
-76.4389885945
 20
-111.2053538704
 10
-76.4895534902
 20
-111.1475811797
 10
-76.5389327349
 20
-111.0878509653
 10
-76.5871336453
 20
-111.0261753073
 10
-76.6338575423
 20
-110.9629363816
 10
-76.6790952547
 20
-110.8981244814
 10
-76.7228559538
 20
-110.8317493134
 10
-76.7648684744
 20
-110.7642221743
 10
-76.8051219615
 20
-110.6955359112
 10
-76.8436272701
 20
-110.625697677
 10
-76.8801458005
 20
-110.5551402274
 10
-76.914665216
 20
-110.4838590965
 10
-76.9471978533
 20
-110.4118587503
 10
-76.9775421224
 20
-110.339585342
 10
-77.0056844349
 20
-110.267037176
 10
-77.0316383792
 20
-110.1942159479
 10
-77.0552431306
 20
-110.1215728977
 10
-77.0764841021
 20
-110.0491091316
 10
-77.0953758806
 20
-109.9768235434
 10
-77.1118014025
 20
-109.9051640539
 10
-77.1257453539
 20
-109.8341345506
 10
-77.1372230486
 20
-109.763731146
 10
-77.1423808909
 20
-109.7237269453
  0
LWPOLYLINE
  5
25E
100
AcDbEntity
  8
RACCORDO
100
AcDbPolyline
 62
253
  6
CONTINUOUS
 90
20
 70
0
 10
-107.8842433539
 20
-94.9681273711
 10
-107.9314103414
 20
-94.7589775746
 10
-107.9965486326
 20
-94.5470042008
 10
-108.0787773827
 20
-94.3350736289
 10
-108.176984871
 20
-94.1260513019
 10
-108.2898434593
 20
-93.922763371
 10
-108.4158267741
 20
-93.7279596177
 10
-108.5532303736
 20
-93.5442755441
 10
-108.7001954284
 20
-93.3741956843
 10
-108.854734918
 20
-93.2200192157
 10
-109.0147598433
 20
-93.0838302159
 10
-109.1781067771
 20
-92.9674701669
 10
-109.3425661706
 20
-92.8725133325
 10
-109.5059131445
 20
-92.8002443372
 10
-109.6659381778
 20
-92.7516404569
 10
-109.8204778048
 20
-92.7273585137
 10
-109.9674429356
 20
-92.7277267623
 10
-110.1048464979
 20
-92.7527405428
 10
-110.2308297436
 20
-92.8020618187
 10
-110.2603851044
 20
-92.8181465052
  0
LWPOLYLINE
  5
25F
100
AcDbEntity
  8
0
100
AcDbPolyline
 62
7
  6
CONTINUOUS
 90
19
 70
0
 10
-107.5632805093
 20
-95.2034087634
 10
-107.5770626677
 20
-94.976580769
 10
-107.6129462002
 20
-94.7475623017
 10
-107.6709311068
 20
-94.5163533617
 10
-107.7527459592
 20
-94.2789687907
 10
-107.8566621857
 20
-94.0393937469
 10
-107.9774940717
 20
-93.8095837051
 10
-108.1161000357
 20
-93.5900342098
 10
-108.2716216592
 20
-93.3802497164
 10
-108.4362979715
 20
-93.1906990669
 10
-108.6105935456
 20
-93.0224090677
 10
-108.7940438087
 20
-92.8743529123
 10
-108.9774940717
 20
-92.7539190232
 10
-109.1609443347
 20
-92.6625091469
 10
-109.3443945977
 20
-92.5987215369
 10
-109.5186901718
 20
-92.5657393761
 10
-109.6833664842
 20
-92.5651259478
 10
-109.8388881077
 20
-92.5953179686
 10
-109.9775423918
 20
-92.6548366681
  0
LWPOLYLINE
  5
260
100
AcDbEntity
  8
0
100
AcDbPolyline
 62
7
  6
CONTINUOUS
 90
19
 70
0
 10
-107.5632805093
 20
5.6306704205
 10
-107.5770626677
 20
5.857498415
 10
-107.6129462002
 20
6.0865168822
 10
-107.6709311068
 20
6.3177258222
 10
-107.7527459592
 20
6.5551103932
 10
-107.8566621857
 20
6.794685437
 10
-107.9774940717
 20
7.0244954788
 10
-108.1161000357
 20
7.2440449742
 10
-108.2716216592
 20
7.4538294675
 10
-108.4362979715
 20
7.643380117
 10
-108.6105935456
 20
7.8116701162
 10
-108.7940438087
 20
7.9597262716
 10
-108.9774940717
 20
8.0801601607
 10
-109.1609443347
 20
8.171570037
 10
-109.3443945977
 20
8.235357647
 10
-109.5186901718
 20
8.2683398079
 10
-109.6833664842
 20
8.2689532361
 10
-109.8388881077
 20
8.2387612153
 10
-109.9775423918
 20
8.1792425158
  0
LWPOLYLINE
  5
261
100
AcDbEntity
  8
RACCORDO
100
AcDbPolyline
 62
253
  6
CONTINUOUS
 90
25
 70
0
 10
-110.6745503465
 20
-94.2235497394
 10
-110.665874481
 20
-94.3786209227
 10
-110.6414901352
 20
-94.5364464531
 10
-110.6013973094
 20
-94.6970263306
 10
-110.5443260758
 20
-94.8636129943
 10
-110.471546362
 20
-95.0329540052
 10
-110.3868679508
 20
-95.1952920458
 10
-110.2897804616
 20
-95.3497656984
 10
-110.1807942751
 20
-95.4972363806
 10
-110.0652503153
 20
-95.6305310288
 10
-109.9427428168
 20
-95.7490424463
 10
-109.8136775452
 20
-95.8533778296
 10
-109.6846127212
 20
-95.9381857049
 10
-109.5555492259
 20
-96.002422635
 10
-109.4264861783
 20
-96.0471320571
 10
-109.3039791559
 20
-96.0700928088
 10
-109.1884326275
 20
-96.0702301832
 10
-109.0794421242
 20
-96.0486188873
 10
-108.9823498168
 20
-96.00626188
 10
-108.8976657279
 20
-95.9417063404
 10
-108.8248798349
 20
-95.8564050894
 10
-108.7678042411
 20
-95.7557195478
 10
-108.7277096479
 20
-95.641436856
 10
-108.7033253539
 20
-95.5117698736
 10
-108.6946513592
 20
-95.3667186008
  0
LWPOLYLINE
  5
262
100
AcDbEntity
  8
RACCORDO
100
AcDbPolyline
 62
253
  6
CONTINUOUS
 90
25
 70
0
 10
-108.6946513592
 20
-95.3667186008
 10
-108.7033272248
 20
-95.2116474175
 10
-108.7277115705
 20
-95.0538218871
 10
-108.7678043964
 20
-94.8932420096
 10
-108.82487563
 20
-94.7266553459
 10
-108.8976553438
 20
-94.557314335
 10
-108.982333755
 20
-94.3949762944
 10
-109.0794212441
 20
-94.2405026418
 10
-109.1884074307
 20
-94.0930319595
 10
-109.3039513905
 20
-93.9597373114
 10
-109.4264588889
 20
-93.8412258939
 10
-109.5555241606
 20
-93.7368905106
 10
-109.6845889846
 20
-93.6520826353
 10
-109.8136524798
 20
-93.5878457052
 10
-109.9427155274
 20
-93.5431362831
 10
-110.0652225498
 20
-93.5201755314
 10
-110.1807690783
 20
-93.520038157
 10
-110.2897595816
 20
-93.5416494529
 10
-110.3868518889
 20
-93.5840064602
 10
-110.4715359779
 20
-93.6485619998
 10
-110.5443218709
 20
-93.7338632508
 10
-110.6013974646
 20
-93.8345487924
 10
-110.6414920579
 20
-93.9488314842
 10
-110.6658763519
 20
-94.0784984665
 10
-110.6745503465
 20
-94.2235497394
  0
LWPOLYLINE
  5
263
100
AcDbEntity
  8
RACCORDO
100
AcDbPolyline
 62
253
  6
CONTINUOUS
 90
25
 70
0
 10
-110.6745503465
 20
6.6105294445
 10
-110.665874481
 20
6.4554582612
 10
-110.6414901352
 20
6.2976327308
 10
-110.6013973094
 20
6.1370528533
 10
-110.5443260758
 20
5.9704661896
 10
-110.471546362
 20
5.8011251787
 10
-110.3868679508
 20
5.6387871381
 10
-110.2897804616
 20
5.4843134856
 10
-110.1807942751
 20
5.3368428033
 10
-110.0652503153
 20
5.2035481551
 10
-109.9427428168
 20
5.0850367376
 10
-109.8136775452
 20
4.9807013543
 10
-109.6846127212
 20
4.895893479
 10
-109.5555492259
 20
4.8316565489
 10
-109.4264861783
 20
4.7869471268
 10
-109.3039791559
 20
4.7639863751
 10
-109.1884326275
 20
4.7638490007
 10
-109.0794421242
 20
4.7854602966
 10
-108.9823498168
 20
4.827817304
 10
-108.8976657279
 20
4.8923728435
 10
-108.8248798349
 20
4.9776740945
 10
-108.7678042411
 20
5.0783596361
 10
-108.7277096479
 20
5.1926423279
 10
-108.7033253539
 20
5.3223093103
 10
-108.6946513592
 20
5.4673605832
  0
LWPOLYLINE
  5
264
100
AcDbEntity
  8
RACCORDO
100
AcDbPolyline
 62
253
  6
CONTINUOUS
 90
25
 70
0
 10
-108.6946513592
 20
5.4673605832
 10
-108.7033272248
 20
5.6224317664
 10
-108.7277115705
 20
5.7802572968
 10
-108.7678043964
 20
5.9408371743
 10
-108.82487563
 20
6.1074238381
 10
-108.8976553438
 20
6.2767648489
 10
-108.982333755
 20
6.4391028895
 10
-109.0794212441
 20
6.5935765421
 10
-109.1884074307
 20
6.7410472244
 10
-109.3039513905
 20
6.8743418726
 10
-109.4264588889
 20
6.99285329
 10
-109.5555241606
 20
7.0971886733
 10
-109.6845889846
 20
7.1819965487
 10
-109.8136524798
 20
7.2462334787
 10
-109.9427155274
 20
7.2909429008
 10
-110.0652225498
 20
7.3139036525
 10
-110.1807690783
 20
7.314041027
 10
-110.2897595816
 20
7.2924297311
 10
-110.3868518889
 20
7.2500727237
 10
-110.4715359779
 20
7.1855171841
 10
-110.5443218709
 20
7.1002159331
 10
-110.6013974646
 20
6.9995303915
 10
-110.6414920579
 20
6.8852476997
 10
-110.6658763519
 20
6.7555807174
 10
-110.6745503465
 20
6.6105294445
  0
LWPOLYLINE
  5
265
100
AcDbEntity
  8
RACCORDO
100
AcDbPolyline
 62
7
  6
CONTINUOUS
 90
22
 70
0
 10
-110.8502862778
 20
-93.978585124
 10
-110.8395870342
 20
-94.1852284621
 10
-110.8085985177
 20
-94.3930668188
 10
-110.7588860501
 20
-94.6001260415
 10
-110.6917758123
 20
-94.8048834097
 10
-110.6084599059
 20
-95.0057083613
 10
-110.5103162765
 20
-95.2004062342
 10
-110.3987426628
 20
-95.3869152543
 10
-110.2747168766
 20
-95.5638521666
 10
-110.1389782616
 20
-95.7298896995
 10
-109.9909283258
 20
-95.884704025
 10
-109.8327108988
 20
-96.0247060681
 10
-109.669245647
 20
-96.1451439032
 10
-109.5015435302
 20
-96.2454107325
 10
-109.3304598991
 20
-96.3248056641
 10
-109.1611179356
 20
-96.3813127818
 10
-108.9963698509
 20
-96.4152905746
 10
-108.8357054809
 20
-96.4280367074
 10
-108.6800023354
 20
-96.4201968739
 10
-108.5309524906
 20
-96.392481362
 10
-108.3904880353
 20
-96.3459966404
 10
-108.2602884639
 20
-96.282192323
  0
LWPOLYLINE
  5
266
100
AcDbEntity
  8
RACCORDO
100
AcDbPolyline
 62
7
  6
CONTINUOUS
 90
22
 70
0
 10
-110.8502862778
 20
6.8554940599
 10
-110.8395870342
 20
6.6488507218
 10
-110.8085985177
 20
6.4410123651
 10
-110.7588860501
 20
6.2339531424
 10
-110.6917758123
 20
6.0291957742
 10
-110.6084599059
 20
5.8283708226
 10
-110.5103162765
 20
5.6336729497
 10
-110.3987426628
 20
5.4471639296
 10
-110.2747168766
 20
5.2702270173
 10
-110.1389782616
 20
5.1041894844
 10
-109.9909283258
 20
4.9493751589
 10
-109.8327108988
 20
4.8093731158
 10
-109.669245647
 20
4.6889352807
 10
-109.5015435302
 20
4.5886684514
 10
-109.3304598991
 20
4.5092735198
 10
-109.1611179356
 20
4.4527664021
 10
-108.9963698509
 20
4.4187886093
 10
-108.8357054809
 20
4.4060424766
 10
-108.6800023354
 20
4.41388231
 10
-108.5309524906
 20
4.441597822
 10
-108.3904880353
 20
4.4880825435
 10
-108.2602884639
 20
4.5518868609
  0
LWPOLYLINE
  5
267
100
AcDbEntity
  8
RACCORDO
100
AcDbPolyline
 62
7
  6
CONTINUOUS
 90
22
 70
0
 10
-110.8502862778
 20
107.6895732438
 10
-110.8395870342
 20
107.4829299058
 10
-110.8085985177
 20
107.275091549
 10
-110.7588860501
 20
107.0680323263
 10
-110.6917758123
 20
106.8632749582
 10
-110.6084599059
 20
106.6624500065
 10
-110.5103162765
 20
106.4677521336
 10
-110.3987426628
 20
106.2812431135
 10
-110.2747168766
 20
106.1043062012
 10
-110.1389782616
 20
105.9382686684
 10
-109.9909283258
 20
105.7834543428
 10
-109.8327108988
 20
105.6434522997
 10
-109.669245647
 20
105.5230144646
 10
-109.5015435302
 20
105.4227476353
 10
-109.3304598991
 20
105.3433527037
 10
-109.1611179356
 20
105.286845586
 10
-108.9963698509
 20
105.2528677932
 10
-108.8357054809
 20
105.2401216605
 10
-108.6800023354
 20
105.2479614939
 10
-108.5309524906
 20
105.2756770059
 10
-108.3904880353
 20
105.3221617274
 10
-108.2602884639
 20
105.3859660448
  0
LINE
  5
268
100
AcDbEntity
  8
RACCORDO
100
AcDbLine
 62
253
  6
CONTINUOUS
 10
-107.8461232218
 20
-95.3667186008
 11
-107.8556855832
 21
-95.1716250278
  0
LINE
  5
269
100
AcDbEntity
  8
RACCORDO
100
AcDbLine
 62
253
  6
CONTINUOUS
 10
-107.8461232218
 20
5.4673605832
 11
-107.8556855832
 21
5.6624541562
  0
LWPOLYLINE
  5
26A
100
AcDbEntity
  8
0
100
AcDbPolyline
 62
7
  6
CONTINUOUS
 90
31
 70
0
 10
-104.2045232987
 20
-87.7531470789
 10
-104.2035321853
 20
-87.7966434757
 10
-104.2006302994
 20
-87.8408936853
 10
-104.1958176408
 20
-87.8858977076
 10
-104.1890705871
 20
-87.9317827949
 10
-104.1804127608
 20
-87.978421695
 10
-104.1699150295
 20
-88.0254326507
 10
-104.1575622916
 20
-88.0728187159
 10
-104.1433696486
 20
-88.1205768367
 10
-104.1274532728
 20
-88.1683160949
 10
-104.1097990161
 20
-88.2160363356
 10
-104.0904210266
 20
-88.2637377138
 10
-104.0694779203
 20
-88.3110297755
 10
-104.0469568512
 20
-88.3579091611
 10
-104.0228706654
 20
-88.4043792304
 10
-103.9974165175
 20
-88.450059608
 10
-103.9705831795
 20
-88.4949438126
 10
-103.9423818793
 20
-88.5390383255
 10
-103.9130434553
 20
-88.5819822167
 10
-103.8825585742
 20
-88.623766042
 10
-103.8509365692
 20
-88.6643992455
 10
-103.8184362785
 20
-88.703549229
 10
-103.7850504932
 20
-88.7412038186
 10
-103.7507864221
 20
-88.7773751883
 10
-103.7159245297
 20
-88.8117672616
 10
-103.6804599091
 20
-88.8443654346
 10
-103.6443974672
 20
-88.8751843113
 10
-103.6080323885
 20
-88.9039716275
 10
-103.5714630682
 20
-88.9306432951
 10
-103.5345911112
 20
-88.9552834023
 10
-103.4974165175
 20
-88.977891949
  0
LINE
  5
26B
100
AcDbEntity
  8
0
100
AcDbLine
 62
7
  6
CONTINUOUS
 10
-105.6187368611
 20
-88.5696962655
 11
-105.6187368611
 21
191.4796086744
  0
LWPOLYLINE
  5
26C
100
AcDbEntity
  8
0
100
AcDbPolyline
 62
7
  6
CONTINUOUS
 90
16
 70
0
 10
-105.6187368611
 20
191.4796086744
 10
-105.6177457477
 20
191.5219605584
 10
-105.6148438618
 20
191.5628597428
 10
-105.6100312032
 20
191.6023062276
 10
-105.6032841495
 20
191.6403999865
 10
-105.5946263232
 20
191.6770410457
 10
-105.5841285918
 20
191.7119294844
 10
-105.5717758539
 20
191.7450509175
 10
-105.557583211
 20
191.77641973
 10
-105.5416668352
 20
191.8057791564
 10
-105.5240125785
 20
191.833112704
 10
-105.504634589
 20
191.8584368655
 10
-105.4836914827
 20
191.8815443531
 10
-105.4611704136
 20
191.9024169727
 10
-105.4370842278
 20
191.9210729183
 10
-105.41165424
 20
191.9373455355
  0
LINE
  5
26D
100
AcDbEntity
  8
0
100
AcDbLine
 62
253
  6
CONTINUOUS
 10
-87.9410673314
 20
-87.3430575587
 11
-49.0501943661
 21
-109.7981601917
  0
LINE
  5
26E
100
AcDbEntity
  8
0
100
AcDbLine
 62
253
  6
CONTINUOUS
 10
-33.49384518
 20
-118.780201245
 11
21.6604837525
 21
-150.6256195245
  0
LINE
  5
26F
100
AcDbEntity
  8
0
100
AcDbLine
 62
253
  6
CONTINUOUS
 10
37.2168329386
 20
-159.6076605777
 11
91.9468978025
 21
-191.2081141013
  0
LINE
  5
270
100
AcDbEntity
  8
0
100
AcDbLine
 62
253
  6
CONTINUOUS
 10
-87.2339605502
 20
-86.1183126886
 11
-49.0501943661
 21
-108.1651407283
  0
LINE
  5
271
100
AcDbEntity
  8
0
100
AcDbLine
 62
253
  6
CONTINUOUS
 10
-33.49384518
 20
-117.1471817815
 11
21.6604837525
 21
-148.9926000611
  0
LINE
  5
272
100
AcDbEntity
  8
0
100
AcDbLine
 62
253
  6
CONTINUOUS
 10
37.2168329386
 20
-157.9746411143
 11
91.9468978025
 21
-189.5750946378
  0
LWPOLYLINE
  5
273
100
AcDbEntity
  8
ASSI
100
AcDbPolyline
 62
7
  6
CONTINUOUS
 90
30
 70
0
 10
65.3090194634
 20
-193.1630566828
 10
65.3047073185
 20
-193.1598825462
 10
65.2493402147
 20
-193.1161490399
 10
65.1944974451
 20
-193.069804791
 10
65.140175774
 20
-193.0208659107
 10
65.086711808
 20
-192.9696356507
 10
65.0341108729
 20
-192.9160997832
 10
64.9823676429
 20
-192.860272536
 10
64.9318027471
 20
-192.8024998452
 10
64.8824235025
 20
-192.7427696309
 10
64.834222592
 20
-192.6810939729
 10
64.787498695
 20
-192.6178550472
 10
64.7422609826
 20
-192.5530431469
 10
64.6985002835
 20
-192.4866679789
 10
64.6564877629
 20
-192.4191408399
 10
64.6162342758
 20
-192.3504545767
 10
64.5777289672
 20
-192.2806163425
 10
64.5412104368
 20
-192.2100588929
 10
64.5066910213
 20
-192.1387777621
 10
64.474158384
 20
-192.0667774158
 10
64.443814115
 20
-191.9945040075
 10
64.4156718025
 20
-191.9219558415
 10
64.3897178581
 20
-191.8491346135
 10
64.3661131067
 20
-191.7764915632
 10
64.3448721352
 20
-191.7040277972
 10
64.3259803567
 20
-191.631742209
 10
64.3095548348
 20
-191.5600827194
 10
64.2956108834
 20
-191.4890532162
 10
64.2841331888
 20
-191.4186498116
 10
64.2789753464
 20
-191.3786456108
  0
LINE
  5
274
100
AcDbEntity
  8
RACCORDO
100
AcDbLine
 62
253
  6
CONTINUOUS
 10
-107.8556855832
 20
-95.1716250278
 11
-107.8842433539
 21
-94.9681273711
  0
LINE
  5
275
100
AcDbEntity
  8
RACCORDO
100
AcDbLine
 62
253
  6
CONTINUOUS
 10
-107.8556855832
 20
5.6624541562
 11
-107.8842433539
 21
5.8659518128
  0
LWPOLYLINE
  5
276
100
AcDbEntity
  8
0
100
AcDbPolyline
 62
7
  6
CONTINUOUS
 90
17
 70
0
 10
-78.748679176
 20
-110.2076578879
 10
-78.7217456984
 20
-110.5403820894
 10
-78.6419711534
 20
-110.8915350341
 10
-78.5123941286
 20
-111.2477414157
 10
-78.3344656136
 20
-111.6014829463
 10
-78.1211864177
 20
-111.9269125815
 10
-77.8779412709
 20
-112.2179584445
 10
-77.6139953051
 20
-112.4635346886
 10
-77.3344656136
 20
-112.6571476282
 10
-77.0597767598
 20
-112.7846504305
 10
-76.7955507191
 20
-112.8450984924
 10
-76.5518517793
 20
-112.8361893659
 10
-76.3344656136
 20
-112.7562578804
 10
-76.159276107
 20
-112.6111444374
 10
-76.0288492036
 20
-112.4055850434
 10
-75.9481528236
 20
-112.1474093918
 10
-75.9202520512
 20
-111.8407561185
  0
LWPOLYLINE
  5
277
100
AcDbEntity
  8
0
100
AcDbPolyline
 62
7
  6
CONTINUOUS
 90
19
 70
0
 10
-107.5632805093
 20
106.4647496044
 10
-107.5770626677
 20
106.6915775989
 10
-107.6129462002
 20
106.9205960661
 10
-107.6709311068
 20
107.1518050061
 10
-107.7527459592
 20
107.3891895772
 10
-107.8566621857
 20
107.628764621
 10
-107.9774940717
 20
107.8585746627
 10
-108.1161000357
 20
108.0781241581
 10
-108.2716216592
 20
108.2879086514
 10
-108.4362979715
 20
108.4774593009
 10
-108.6105935456
 20
108.6457493001
 10
-108.7940438087
 20
108.7938054555
 10
-108.9774940717
 20
108.9142393446
 10
-109.1609443347
 20
109.0056492209
 10
-109.3443945977
 20
109.0694368309
 10
-109.5186901718
 20
109.1024189918
 10
-109.6833664842
 20
109.1030324201
 10
-109.8388881077
 20
109.0728403992
 10
-109.9775423918
 20
109.0133216998
  0
LWPOLYLINE
  5
278
100
AcDbEntity
  8
RACCORDO
100
AcDbPolyline
 62
253
  6
CONTINUOUS
 90
25
 70
0
 10
-110.6745503465
 20
107.4446086284
 10
-110.665874481
 20
107.2895374451
 10
-110.6414901352
 20
107.1317119147
 10
-110.6013973094
 20
106.9711320372
 10
-110.5443260758
 20
106.8045453735
 10
-110.471546362
 20
106.6352043626
 10
-110.3868679508
 20
106.472866322
 10
-110.2897804616
 20
106.3183926695
 10
-110.1807942751
 20
106.1709219872
 10
-110.0652503153
 20
106.037627339
 10
-109.9427428168
 20
105.9191159215
 10
-109.8136775452
 20
105.8147805382
 10
-109.6846127212
 20
105.7299726629
 10
-109.5555492259
 20
105.6657357328
 10
-109.4264861783
 20
105.6210263108
 10
-109.3039791559
 20
105.598065559
 10
-109.1884326275
 20
105.5979281846
 10
-109.0794421242
 20
105.6195394805
 10
-108.9823498168
 20
105.6618964879
 10
-108.8976657279
 20
105.7264520274
 10
-108.8248798349
 20
105.8117532785
 10
-108.7678042411
 20
105.91243882
 10
-108.7277096479
 20
106.0267215118
 10
-108.7033253539
 20
106.1563884942
 10
-108.6946513592
 20
106.3014397671
  0
LWPOLYLINE
  5
279
100
AcDbEntity
  8
RACCORDO
100
AcDbPolyline
 62
253
  6
CONTINUOUS
 90
25
 70
0
 10
-108.6946513592
 20
106.3014397671
 10
-108.7033272248
 20
106.4565109503
 10
-108.7277115705
 20
106.6143364807
 10
-108.7678043964
 20
106.7749163582
 10
-108.82487563
 20
106.941503022
 10
-108.8976553438
 20
107.1108440328
 10
-108.982333755
 20
107.2731820734
 10
-109.0794212441
 20
107.427655726
 10
-109.1884074307
 20
107.5751264083
 10
-109.3039513905
 20
107.7084210565
 10
-109.4264588889
 20
107.8269324739
 10
-109.5555241606
 20
107.9312678572
 10
-109.6845889846
 20
108.0160757326
 10
-109.8136524798
 20
108.0803126626
 10
-109.9427155274
 20
108.1250220847
 10
-110.0652225498
 20
108.1479828365
 10
-110.1807690783
 20
108.1481202109
 10
-110.2897595816
 20
108.126508915
 10
-110.3868518889
 20
108.0841519076
 10
-110.4715359779
 20
108.019596368
 10
-110.5443218709
 20
107.934295117
 10
-110.6013974646
 20
107.8336095754
 10
-110.6414920579
 20
107.7193268836
 10
-110.6658763519
 20
107.5896599013
 10
-110.6745503465
 20
107.4446086284
  0
LINE
  5
27A
100
AcDbEntity
  8
RACCORDO
100
AcDbLine
 62
253
  6
CONTINUOUS
 10
-107.8461232218
 20
106.3014397671
 11
-107.8556855832
 21
106.4965333401
  0
LINE
  5
27B
100
AcDbEntity
  8
0
100
AcDbLine
 62
7
  6
CONTINUOUS
 10
-104.2045232987
 20
-87.7531470789
 11
-104.2045232987
 21
191.2512075585
  0
LINE
  5
27C
100
AcDbEntity
  8
0
100
AcDbLine
 62
7
  6
CONTINUOUS
 10
-103.4974165175
 20
-1.6154145125
 11
-103.4974165175
 21
14.7139910234
  0
LINE
  5
27D
100
AcDbEntity
  8
0
100
AcDbLine
 62
7
  6
CONTINUOUS
 10
-103.4974165175
 20
99.2186646715
 11
-103.4974165175
 21
115.5480702073
  0
LINE
  5
27E
100
AcDbEntity
  8
0
100
AcDbLine
 62
253
  6
CONTINUOUS
 10
-87.2339605502
 20
-43.0495055878
 11
-87.2339605502
 21
180.7027653951
  0
LINE
  5
27F
100
AcDbEntity
  8
0
100
AcDbLine
 62
7
  6
CONTINUOUS
 10
-87.2339605502
 20
-43.0495055878
 11
-87.2339605502
 21
-86.1183126886
  0
LWPOLYLINE
  5
280
100
AcDbEntity
  8
ASSI
100
AcDbPolyline
 62
7
  6
CONTINUOUS
 90
47
 70
0
 10
-53.7649102607
 20
148.0037755181
 10
-53.7666602348
 20
147.9972474577
 10
-53.7838511873
 20
147.9190019925
 10
-53.7979830447
 20
147.8381196289
 10
-53.8089872266
 20
147.7549928798
 10
-53.8168485302
 20
147.6696108359
 10
-53.8215821583
 20
147.5819844066
 10
-53.8231651391
 20
147.492538833
 10
-53.8215821583
 20
147.4012652727
 10
-53.8168485302
 20
147.3081725683
 10
-53.8089872266
 20
147.213712488
 10
-53.7979830447
 20
147.1178783855
 10
-53.7838511873
 20
147.0206769073
 10
-53.7666602348
 20
146.922579761
 10
-53.7463953176
 20
146.8235825933
 10
-53.7230713053
 20
146.7236897576
 10
-53.6968013866
 20
146.6233860227
 10
-53.6675712423
 20
146.5226693913
 10
-53.6353951916
 20
146.4215418607
 10
-53.6004293814
 20
146.3204941915
 10
-53.5626602512
 20
146.2195267717
 10
-53.5221013615
 20
146.1186392133
 10
-53.4789495399
 20
146.0183211123
 10
-53.4331921829
 20
145.9185752365
 10
-53.3848418941
 20
145.8193988181
 10
-53.3341333119
 20
145.721273149
 10
-53.2810549733
 20
145.6242033368
 10
-53.2256183414
 20
145.5281842738
 10
-53.168092444
 20
145.43368193
 10
-53.1084671256
 20
145.3407036776
 10
-53.0467525416
 20
145.2492421443
 10
-52.9832481859
 20
145.1597411827
 10
-52.9179453591
 20
145.0722103225
 10
-52.8508527606
 20
144.986640034
 10
-52.7822959833
 20
144.9034455801
 10
-52.7122679102
 20
144.8226385091
 10
-52.6407756584
 20
144.7442072728
 10
-52.5681661716
 20
144.6685324892
 10
-52.4944340194
 20
144.5956275565
 10
-52.4195846322
 20
144.5254790765
 10
-52.3439812458
 20
144.4584274718
 10
-52.2676201952
 20
144.3944877956
 10
-52.1905051453
 20
144.3336449946
 10
-52.1130103268
 20
144.2761943323
 10
-52.0352604834
 20
144.2222342296
 10
-51.9571308714
 20
144.1716662656
 10
-51.8786214909
 20
144.1244904401
  0
LWPOLYLINE
  5
281
100
AcDbEntity
  8
RACCORDO
100
AcDbPolyline
 62
7
  6
CONTINUOUS
 90
20
 70
0
 10
-108.9258759642
 20
5.5984326542
 10
-108.9261531676
 20
5.5979651729
 10
-108.9225714155
 20
5.6063493149
 10
-108.9157822727
 20
5.6297177298
 10
-108.9092880267
 20
5.6679544267
 10
-108.9058527436
 20
5.7206576121
 10
-108.9077350192
 20
5.7865533434
 10
-108.9166464762
 20
5.8641653549
 10
-108.934054329
 20
5.952611469
 10
-108.9608641137
 20
6.0494331502
 10
-108.9971804228
 20
6.1513121664
 10
-109.0429811223
 20
6.256038037
 10
-109.0976579906
 20
6.3608131287
 10
-109.1593293415
 20
6.4615834649
 10
-109.2264731889
 20
6.5560891337
 10
-109.2972697205
 20
6.6422454723
 10
-109.3684187853
 20
6.7170567976
 10
-109.4371784458
 20
6.7792417414
 10
-109.5018095118
 20
6.8289765546
 10
-109.5603512802
 20
6.8665377708
  0
LWPOLYLINE
  5
282
100
AcDbEntity
  8
RACCORDO
100
AcDbPolyline
 62
253
  6
CONTINUOUS
 90
6
 70
0
 10
-108.0787776694
 20
4.7043784669
 10
-107.9965488156
 20
4.8213533618
 10
-107.9314104416
 20
4.9581067249
 10
-107.8842433993
 20
5.1127893319
 10
-107.8556855947
 20
5.2833092786
 10
-107.8461232218
 20
5.4673605832
  0
LWPOLYLINE
  5
283
100
AcDbEntity
  8
ASSI
100
AcDbPolyline
 62
7
  6
CONTINUOUS
 90
15
 70
0
 10
-33.49384518
 20
-82.0473693001
 10
-33.4419830235
 20
-82.0632294279
 10
-33.2632326161
 20
-82.1111424977
 10
-33.0860458737
 20
-82.1518070294
 10
-32.910418362
 20
-82.1852435784
 10
-32.736849072
 20
-82.2113571451
 10
-32.5653438571
 20
-82.2301269039
 10
-32.3958968639
 20
-82.2415736804
 10
-32.2289895234
 20
-82.2456649522
 10
-32.064629058
 20
-82.2423798012
 10
-31.9028082452
 20
-82.2317391454
 10
-31.7439868487
 20
-82.213773217
 10
-31.5881733983
 20
-82.1884611839
 10
-31.4353593641
 20
-82.1558238781
 10
-31.4243296937
 20
-82.1528800436
  0
LWPOLYLINE
  5
284
100
AcDbEntity
  8
ASSI
100
AcDbPolyline
 62
7
  6
CONTINUOUS
 90
23
 70
0
 10
-82.65796648
 20
-66.6921820197
 10
-82.6515052305
 20
-66.7203704601
 10
-82.6342327472
 20
-66.7864601408
 10
-82.6148124304
 20
-66.8527127269
 10
-82.5932309434
 20
-66.9191292299
 10
-82.5695016229
 20
-66.9857086385
 10
-82.5437715086
 20
-67.0520383902
 10
-82.5160281769
 20
-67.118116935
 10
-82.4862840514
 20
-67.183945823
 10
-82.454723443
 20
-67.2491171426
 10
-82.4213350723
 20
-67.3136268108
 10
-82.3861302187
 20
-67.3774789107
 10
-82.3493270305
 20
-67.4402777798
 10
-82.310915583
 20
-67.5020168784
 10
-82.270905801
 20
-67.5627027462
 10
-82.2295456069
 20
-67.6219593408
 10
-82.1868266153
 20
-67.6797777871
 10
-82.1427572115
 20
-67.7361669601
 10
-82.0976104735
 20
-67.7907774418
 10
-82.0513797117
 20
-67.8435981877
 10
-82.0040716157
 20
-67.8946402422
 10
-81.9559793321
 20
-67.9435873212
 10
-81.9104596838
 20
-67.9872051743
  0
LWPOLYLINE
  5
285
100
AcDbEntity
  8
RACCORDO
100
AcDbPolyline
 62
253
  6
CONTINUOUS
 90
20
 70
0
 10
-107.8842433539
 20
5.8659518128
 10
-107.9314103414
 20
6.0751016094
 10
-107.9965486326
 20
6.2870749831
 10
-108.0787773827
 20
6.4990055551
 10
-108.176984871
 20
6.708027882
 10
-108.2898434593
 20
6.9113158129
 10
-108.4158267741
 20
7.1061195662
 10
-108.5532303736
 20
7.2898036398
 10
-108.7001954284
 20
7.4598834997
 10
-108.854734918
 20
7.6140599682
 10
-109.0147598433
 20
7.750248968
 10
-109.1781067771
 20
7.866609017
 10
-109.3425661706
 20
7.9615658514
 10
-109.5059131445
 20
8.0338348467
 10
-109.6659381778
 20
8.082438727
 10
-109.8204778048
 20
8.1067206702
 10
-109.9674429356
 20
8.1063524216
 10
-110.1048464979
 20
8.0813386411
 10
-110.2308297436
 20
8.0320173652
 10
-110.2603851044
 20
8.0159326788
  0
LINE
  5
286
100
AcDbEntity
  8
RACCORDO
100
AcDbLine
 62
253
  6
CONTINUOUS
 10
-107.8556855832
 20
106.4965333401
 11
-107.8842433539
 21
106.7000309967
  0
LWPOLYLINE
  5
287
100
AcDbEntity
  8
0
100
AcDbPolyline
 62
7
  6
CONTINUOUS
 90
17
 70
0
 10
-75.9202520512
 20
-111.8407562613
 10
-75.9471855288
 20
-111.5080320598
 10
-76.0269600738
 20
-111.1568791151
 10
-76.1565370986
 20
-110.8006727335
 10
-76.3344656136
 20
-110.4469312029
 10
-76.5477448095
 20
-110.1215015677
 10
-76.7909899563
 20
-109.8304557047
 10
-77.0549359221
 20
-109.5848794606
 10
-77.3344656136
 20
-109.391266521
 10
-77.6091544674
 20
-109.2637637187
 10
-77.873380508
 20
-109.2033156568
 10
-78.1170794478
 20
-109.2122247833
 10
-78.3344656136
 20
-109.2921562688
 10
-78.5096551202
 20
-109.4372697118
 10
-78.6400820236
 20
-109.6428291058
 10
-78.7207784035
 20
-109.9010047574
 10
-78.748679176
 20
-110.2076580307
  0
LWPOLYLINE
  5
288
100
AcDbEntity
  8
ASSI
100
AcDbPolyline
 62
7
  6
CONTINUOUS
 90
53
 70
0
 10
-84.122690713
 20
-67.094728841
 10
-84.1214980524
 20
-67.1550795241
 10
-84.1179855026
 20
-67.2164015045
 10
-84.1121530638
 20
-67.2786947823
 10
-84.1039790606
 20
-67.342092312
 10
-84.0934851684
 20
-67.4064611391
 10
-84.0807364129
 20
-67.4714023992
 10
-84.0657187928
 20
-67.5369196468
 10
-84.0484463096
 20
-67.6030093274
 10
-84.0290259928
 20
-67.6692619135
 10
-84.0074445058
 20
-67.7356784166
 10
-83.9837151853
 20
-67.8022578251
 10
-83.957985071
 20
-67.8685875769
 10
-83.9302417393
 20
-67.9346661216
 10
-83.9004976138
 20
-68.0004950096
 10
-83.8689370053
 20
-68.0656663293
 10
-83.8355486347
 20
-68.1301759975
 10
-83.800343781
 20
-68.1940280973
 10
-83.7635405928
 20
-68.2568269665
 10
-83.7251291454
 20
-68.318566065
 10
-83.6851193634
 20
-68.3792519329
 10
-83.6437591692
 20
-68.4385085274
 10
-83.6010401776
 20
-68.4963269738
 10
-83.5569707738
 20
-68.5527161468
 10
-83.5118240358
 20
-68.6073266285
 10
-83.465593274
 20
-68.6601473744
 10
-83.418285178
 20
-68.7111894289
 10
-83.3701928945
 20
-68.7601365078
 10
-83.3213115542
 20
-68.8069756026
 10
-83.2716460263
 20
-68.8517197218
 10
-83.2215040655
 20
-68.8940916065
 10
-83.1708827134
 20
-68.9340765265
 10
-83.1197849285
 20
-68.9716892121
 10
-83.0685273403
 20
-69.0066965945
 10
-83.0171089566
 20
-69.0390824964
 10
-82.9655307696
 20
-69.0688630951
 10
-82.9141123859
 20
-69.0958538539
 10
-82.8628547977
 20
-69.1200374495
 10
-82.8117570127
 20
-69.1414312052
 10
-82.7611356607
 20
-69.1599025536
 10
-82.7109936999
 20
-69.1754333485
 10
-82.661328172
 20
-69.188041736
 10
-82.6124468316
 20
-69.1976495877
 10
-82.5643545481
 20
-69.2042382724
 10
-82.5170464521
 20
-69.2078264212
 10
-82.4708156903
 20
-69.2083918003
 10
-82.4256689523
 20
-69.20591564
 10
-82.3815995485
 20
-69.2004167099
 10
-82.3388805569
 20
-69.1919290842
 10
-82.2975203627
 20
-69.1804342052
 10
-82.2575105808
 20
-69.1659506307
 10
-82.2190991333
 20
-69.1485681088
 10
-82.1912848844
 20
-69.1335801497
  0
LWPOLYLINE
  5
289
100
AcDbEntity
  8
ASSI
100
AcDbPolyline
 62
7
  6
CONTINUOUS
 90
53
 70
0
 10
-84.122690713
 20
22.7170016062
 10
-84.1214980524
 20
22.6566509231
 10
-84.1179855026
 20
22.5953289427
 10
-84.1121530638
 20
22.533035665
 10
-84.1039790606
 20
22.4696381352
 10
-84.0934851684
 20
22.4052693081
 10
-84.0807364129
 20
22.340328048
 10
-84.0657187928
 20
22.2748108004
 10
-84.0484463096
 20
22.2087211198
 10
-84.0290259928
 20
22.1424685337
 10
-84.0074445058
 20
22.0760520306
 10
-83.9837151853
 20
22.0094726221
 10
-83.957985071
 20
21.9431428703
 10
-83.9302417393
 20
21.8770643256
 10
-83.9004976138
 20
21.8112354376
 10
-83.8689370053
 20
21.7460641179
 10
-83.8355486347
 20
21.6815544497
 10
-83.800343781
 20
21.6177023499
 10
-83.7635405928
 20
21.5549034807
 10
-83.7251291454
 20
21.4931643822
 10
-83.6851193634
 20
21.4324785143
 10
-83.6437591692
 20
21.3732219198
 10
-83.6010401776
 20
21.3154034734
 10
-83.5569707738
 20
21.2590143004
 10
-83.5118240358
 20
21.2044038187
 10
-83.465593274
 20
21.1515830729
 10
-83.418285178
 20
21.1005410183
 10
-83.3701928945
 20
21.0515939394
 10
-83.3213115542
 20
21.0047548446
 10
-83.2716460263
 20
20.9600107254
 10
-83.2215040655
 20
20.9176388407
 10
-83.1708827134
 20
20.8776539207
 10
-83.1197849285
 20
20.8400412351
 10
-83.0685273403
 20
20.8050338528
 10
-83.0171089566
 20
20.7726479509
 10
-82.9655307696
 20
20.7428673521
 10
-82.9141123859
 20
20.7158765934
 10
-82.8628547977
 20
20.6916929977
 10
-82.8117570127
 20
20.670299242
 10
-82.7611356607
 20
20.6518278936
 10
-82.7109936999
 20
20.6362970988
 10
-82.661328172
 20
20.6236887113
 10
-82.6124468316
 20
20.6140808595
 10
-82.5643545481
 20
20.6074921749
 10
-82.5170464521
 20
20.603904026
 10
-82.4708156903
 20
20.6033386469
 10
-82.4256689523
 20
20.6058148072
 10
-82.3815995485
 20
20.6113137374
 10
-82.3388805569
 20
20.619801363
 10
-82.2975203627
 20
20.631296242
 10
-82.2575105808
 20
20.6457798165
 10
-82.2190991333
 20
20.6631623384
 10
-82.1912848844
 20
20.6781502975
  0
LWPOLYLINE
  5
28A
100
AcDbEntity
  8
ASSI
100
AcDbPolyline
 62
7
  6
CONTINUOUS
 90
53
 70
0
 10
-81.8599490132
 20
-68.4012075397
 10
-81.8611416738
 20
-68.3408568566
 10
-81.8646542235
 20
-68.2795348761
 10
-81.8704866623
 20
-68.2172415984
 10
-81.8786606655
 20
-68.1538440687
 10
-81.8891545578
 20
-68.0894752416
 10
-81.9019033133
 20
-68.0245339815
 10
-81.9169209333
 20
-67.9590167339
 10
-81.9341934166
 20
-67.8929270533
 10
-81.9536137334
 20
-67.8266744672
 10
-81.9751952204
 20
-67.7602579641
 10
-81.9989245409
 20
-67.6936785556
 10
-82.0246546552
 20
-67.6273488038
 10
-82.0523979869
 20
-67.5612702591
 10
-82.0821421124
 20
-67.4954413711
 10
-82.1137027208
 20
-67.4302700514
 10
-82.1470910915
 20
-67.3657603832
 10
-82.1822959451
 20
-67.3019082834
 10
-82.2190991333
 20
-67.2391094142
 10
-82.2575105808
 20
-67.1773703157
 10
-82.2975203627
 20
-67.1166844478
 10
-82.3388805569
 20
-67.0574278533
 10
-82.3815995485
 20
-66.9996094069
 10
-82.4256689523
 20
-66.9432202339
 10
-82.4708156903
 20
-66.8886097522
 10
-82.5170464521
 20
-66.8357890063
 10
-82.5643545481
 20
-66.7847469518
 10
-82.6124468316
 20
-66.7357998729
 10
-82.661328172
 20
-66.6889607781
 10
-82.7109936999
 20
-66.6442166589
 10
-82.7611356607
 20
-66.6018447742
 10
-82.8117570127
 20
-66.5618598542
 10
-82.8628547977
 20
-66.5242471686
 10
-82.9141123859
 20
-66.4892397862
 10
-82.9655307696
 20
-66.4568538843
 10
-83.0171089566
 20
-66.4270732856
 10
-83.0685273403
 20
-66.4000825268
 10
-83.1197849285
 20
-66.3758989312
 10
-83.1708827134
 20
-66.3545051755
 10
-83.2215040655
 20
-66.336033827
 10
-83.2716460263
 20
-66.3205030322
 10
-83.3213115542
 20
-66.3078946447
 10
-83.3701928945
 20
-66.298286793
 10
-83.418285178
 20
-66.2916981083
 10
-83.465593274
 20
-66.2881099595
 10
-83.5118240358
 20
-66.2875445804
 10
-83.5569707738
 20
-66.2900207407
 10
-83.6010401776
 20
-66.2955196708
 10
-83.6437591692
 20
-66.3040072965
 10
-83.6851193634
 20
-66.3155021755
 10
-83.7251291454
 20
-66.32998575
 10
-83.7635405928
 20
-66.3473682719
 10
-83.7913548418
 20
-66.362356231
  0
LWPOLYLINE
  5
28B
100
AcDbEntity
  8
ASSI
100
AcDbPolyline
 62
7
  6
CONTINUOUS
 90
53
 70
0
 10
-84.122690713
 20
112.5287320534
 10
-84.1214980524
 20
112.4683813703
 10
-84.1179855026
 20
112.4070593899
 10
-84.1121530638
 20
112.3447661122
 10
-84.1039790606
 20
112.2813685824
 10
-84.0934851684
 20
112.2169997553
 10
-84.0807364129
 20
112.1520584952
 10
-84.0657187928
 20
112.0865412476
 10
-84.0484463096
 20
112.020451567
 10
-84.0290259928
 20
111.9541989809
 10
-84.0074445058
 20
111.8877824778
 10
-83.9837151853
 20
111.8212030693
 10
-83.957985071
 20
111.7548733175
 10
-83.9302417393
 20
111.6887947728
 10
-83.9004976138
 20
111.6229658848
 10
-83.8689370053
 20
111.5577945651
 10
-83.8355486347
 20
111.4932848969
 10
-83.800343781
 20
111.4294327971
 10
-83.7635405928
 20
111.366633928
 10
-83.7251291454
 20
111.3048948294
 10
-83.6851193634
 20
111.2442089615
 10
-83.6437591692
 20
111.184952367
 10
-83.6010401776
 20
111.1271339206
 10
-83.5569707738
 20
111.0707447476
 10
-83.5118240358
 20
111.0161342659
 10
-83.465593274
 20
110.9633135201
 10
-83.418285178
 20
110.9122714655
 10
-83.3701928945
 20
110.8633243866
 10
-83.3213115542
 20
110.8164852918
 10
-83.2716460263
 20
110.7717411726
 10
-83.2215040655
 20
110.7293692879
 10
-83.1708827134
 20
110.6893843679
 10
-83.1197849285
 20
110.6517716823
 10
-83.0685273403
 20
110.6167643
 10
-83.0171089566
 20
110.5843783981
 10
-82.9655307696
 20
110.5545977993
 10
-82.9141123859
 20
110.5276070406
 10
-82.8628547977
 20
110.5034234449
 10
-82.8117570127
 20
110.4820296892
 10
-82.7611356607
 20
110.4635583408
 10
-82.7109936999
 20
110.448027546
 10
-82.661328172
 20
110.4354191585
 10
-82.6124468316
 20
110.4258113067
 10
-82.5643545481
 20
110.4192226221
 10
-82.5170464521
 20
110.4156344732
 10
-82.4708156903
 20
110.4150690941
 10
-82.4256689523
 20
110.4175452544
 10
-82.3815995485
 20
110.4230441846
 10
-82.3388805569
 20
110.4315318102
 10
-82.2975203627
 20
110.4430266892
 10
-82.2575105808
 20
110.4575102637
 10
-82.2190991333
 20
110.4748927856
 10
-82.1912848844
 20
110.4898807447
  0
LWPOLYLINE
  5
28C
100
AcDbEntity
  8
ASSI
100
AcDbPolyline
 62
7
  6
CONTINUOUS
 90
53
 70
0
 10
-81.8599490132
 20
21.4105229075
 10
-81.8611416738
 20
21.4708735906
 10
-81.8646542235
 20
21.5321955711
 10
-81.8704866623
 20
21.5944888488
 10
-81.8786606655
 20
21.6578863785
 10
-81.8891545578
 20
21.7222552056
 10
-81.9019033133
 20
21.7871964657
 10
-81.9169209333
 20
21.8527137133
 10
-81.9341934166
 20
21.9188033939
 10
-81.9536137334
 20
21.98505598
 10
-81.9751952204
 20
22.0514724831
 10
-81.9989245409
 20
22.1180518916
 10
-82.0246546552
 20
22.1843816434
 10
-82.0523979869
 20
22.2504601882
 10
-82.0821421124
 20
22.3162890762
 10
-82.1137027208
 20
22.3814603958
 10
-82.1470910915
 20
22.445970064
 10
-82.1822959451
 20
22.5098221638
 10
-82.2190991333
 20
22.572621033
 10
-82.2575105808
 20
22.6343601315
 10
-82.2975203627
 20
22.6950459994
 10
-82.3388805569
 20
22.754302594
 10
-82.3815995485
 20
22.8121210403
 10
-82.4256689523
 20
22.8685102133
 10
-82.4708156903
 20
22.923120695
 10
-82.5170464521
 20
22.9759414409
 10
-82.5643545481
 20
23.0269834954
 10
-82.6124468316
 20
23.0759305743
 10
-82.661328172
 20
23.1227696691
 10
-82.7109936999
 20
23.1675137883
 10
-82.7611356607
 20
23.209885673
 10
-82.8117570127
 20
23.2498705931
 10
-82.8628547977
 20
23.2874832786
 10
-82.9141123859
 20
23.322490661
 10
-82.9655307696
 20
23.3548765629
 10
-83.0171089566
 20
23.3846571616
 10
-83.0685273403
 20
23.4116479204
 10
-83.1197849285
 20
23.435831516
 10
-83.1708827134
 20
23.4572252718
 10
-83.2215040655
 20
23.4756966202
 10
-83.2716460263
 20
23.491227415
 10
-83.3213115542
 20
23.5038358025
 10
-83.3701928945
 20
23.5134436542
 10
-83.418285178
 20
23.5200323389
 10
-83.465593274
 20
23.5236204878
 10
-83.5118240358
 20
23.5241858668
 10
-83.5569707738
 20
23.5217097065
 10
-83.6010401776
 20
23.5162107764
 10
-83.6437591692
 20
23.5077231507
 10
-83.6851193634
 20
23.4962282717
 10
-83.7251291454
 20
23.4817446972
 10
-83.7635405928
 20
23.4643621753
 10
-83.7913548418
 20
23.4493742162
  0
LWPOLYLINE
  5
28D
100
AcDbEntity
  8
ASSI
100
AcDbPolyline
 62
7
  6
CONTINUOUS
 90
53
 70
0
 10
-78.5719024807
 20
-110.3097265363
 10
-78.5705980081
 20
-110.3757350959
 10
-78.5667561569
 20
-110.442806012
 10
-78.5603769269
 20
-110.5109392845
 10
-78.5514366109
 20
-110.5802803327
 10
-78.5399589162
 20
-110.6506837373
 10
-78.5260149649
 20
-110.7217132405
 10
-78.509589443
 20
-110.7933727301
 10
-78.4906976645
 20
-110.8656583183
 10
-78.469456693
 20
-110.9381220843
 10
-78.4458519416
 20
-111.0107651346
 10
-78.4198979972
 20
-111.0835863626
 10
-78.3917556847
 20
-111.1561345286
 10
-78.3614114157
 20
-111.228407937
 10
-78.3288787784
 20
-111.3004082832
 10
-78.2943593629
 20
-111.3716894141
 10
-78.2578408325
 20
-111.4422468636
 10
-78.2193355238
 20
-111.5120850978
 10
-78.1790820368
 20
-111.580771361
 10
-78.1370695161
 20
-111.6482985
 10
-78.0933088171
 20
-111.714673668
 10
-78.0480711047
 20
-111.7794855683
 10
-78.0013472076
 20
-111.842724494
 10
-77.9531462972
 20
-111.904400152
 10
-77.9037670525
 20
-111.9641303663
 10
-77.8532021568
 20
-112.0219030571
 10
-77.8014589268
 20
-112.0777303043
 10
-77.7488579917
 20
-112.1312661718
 10
-77.6953940257
 20
-112.1824964318
 10
-77.6410723546
 20
-112.2314353121
 10
-77.586229585
 20
-112.277779561
 10
-77.5308624812
 20
-112.3215130673
 10
-77.4749742789
 20
-112.3626519421
 10
-77.4189112918
 20
-112.4009412666
 10
-77.3626724346
 20
-112.4363633468
 10
-77.3062587926
 20
-112.4689358767
 10
-77.2500199354
 20
-112.4984570191
 10
-77.1939569483
 20
-112.5249078268
 10
-77.138068746
 20
-112.5483072471
 10
-77.0827016422
 20
-112.5685102845
 10
-77.0278588726
 20
-112.5854970913
 10
-76.9735372015
 20
-112.5992875151
 10
-76.9200732355
 20
-112.609796103
 10
-76.8674723004
 20
-112.6170024768
 10
-76.8157290704
 20
-112.6209270146
 10
-76.7651641747
 20
-112.621545398
 10
-76.71578493
 20
-112.6188370976
 10
-76.6675840195
 20
-112.6128226428
 10
-76.6208601225
 20
-112.6035393023
 10
-76.5756224101
 20
-112.5909667783
 10
-76.5318617111
 20
-112.5751253687
 10
-76.4898491904
 20
-112.5561132354
 10
-76.4594273557
 20
-112.5397201552
  0
LWPOLYLINE
  5
28E
100
AcDbEntity
  8
ASSI
100
AcDbPolyline
 62
7
  6
CONTINUOUS
 90
53
 70
0
 10
-81.8599490132
 20
111.2222533547
 10
-81.8611416738
 20
111.2826040379
 10
-81.8646542235
 20
111.3439260183
 10
-81.8704866623
 20
111.406219296
 10
-81.8786606655
 20
111.4696168257
 10
-81.8891545578
 20
111.5339856528
 10
-81.9019033133
 20
111.5989269129
 10
-81.9169209333
 20
111.6644441605
 10
-81.9341934166
 20
111.7305338412
 10
-81.9536137334
 20
111.7967864272
 10
-81.9751952204
 20
111.8632029303
 10
-81.9989245409
 20
111.9297823388
 10
-82.0246546552
 20
111.9961120906
 10
-82.0523979869
 20
112.0621906354
 10
-82.0821421124
 20
112.1280195234
 10
-82.1137027208
 20
112.193190843
 10
-82.1470910915
 20
112.2577005112
 10
-82.1822959451
 20
112.321552611
 10
-82.2190991333
 20
112.3843514802
 10
-82.2575105808
 20
112.4460905787
 10
-82.2975203627
 20
112.5067764466
 10
-82.3388805569
 20
112.5660330412
 10
-82.3815995485
 20
112.6238514875
 10
-82.4256689523
 20
112.6802406605
 10
-82.4708156903
 20
112.7348511422
 10
-82.5170464521
 20
112.7876718881
 10
-82.5643545481
 20
112.8387139426
 10
-82.6124468316
 20
112.8876610215
 10
-82.661328172
 20
112.9345001164
 10
-82.7109936999
 20
112.9792442355
 10
-82.7611356607
 20
113.0216161202
 10
-82.8117570127
 20
113.0616010403
 10
-82.8628547977
 20
113.0992137258
 10
-82.9141123859
 20
113.1342211082
 10
-82.9655307696
 20
113.1666070101
 10
-83.0171089566
 20
113.1963876088
 10
-83.0685273403
 20
113.2233783676
 10
-83.1197849285
 20
113.2475619632
 10
-83.1708827134
 20
113.268955719
 10
-83.2215040655
 20
113.2874270674
 10
-83.2716460263
 20
113.3029578622
 10
-83.3213115542
 20
113.3155662497
 10
-83.3701928945
 20
113.3251741015
 10
-83.418285178
 20
113.3317627861
 10
-83.465593274
 20
113.335350935
 10
-83.5118240358
 20
113.335916314
 10
-83.5569707738
 20
113.3334401537
 10
-83.6010401776
 20
113.3279412236
 10
-83.6437591692
 20
113.3194535979
 10
-83.6851193634
 20
113.3079587189
 10
-83.7251291454
 20
113.2934751444
 10
-83.7635405928
 20
113.2760926225
 10
-83.7913548418
 20
113.2611046634
  0
LWPOLYLINE
  5
28F
100
AcDbEntity
  8
ASSI
100
AcDbPolyline
 62
7
  6
CONTINUOUS
 90
53
 70
0
 10
-76.0970287465
 20
-111.7386876129
 10
-76.0983332191
 20
-111.6726790533
 10
-76.1021750703
 20
-111.6056081372
 10
-76.1085543003
 20
-111.5374748647
 10
-76.1174946163
 20
-111.4681338165
 10
-76.1289723109
 20
-111.3977304119
 10
-76.1429162623
 20
-111.3267009087
 10
-76.1593417842
 20
-111.2550414191
 10
-76.1782335627
 20
-111.1827558309
 10
-76.1994745342
 20
-111.1102920649
 10
-76.2230792856
 20
-111.0376490146
 10
-76.24903323
 20
-110.9648277866
 10
-76.2771755425
 20
-110.8922796206
 10
-76.3075198115
 20
-110.8200062122
 10
-76.3400524488
 20
-110.748005866
 10
-76.3745718643
 20
-110.6767247351
 10
-76.4110903947
 20
-110.6061672856
 10
-76.4495957033
 20
-110.5363290514
 10
-76.4898491904
 20
-110.4676427882
 10
-76.5318617111
 20
-110.4001156492
 10
-76.5756224101
 20
-110.3337404812
 10
-76.6208601225
 20
-110.2689285809
 10
-76.6675840195
 20
-110.2056896552
 10
-76.71578493
 20
-110.1440139972
 10
-76.7651641747
 20
-110.0842837829
 10
-76.8157290704
 20
-110.0265110921
 10
-76.8674723004
 20
-109.9706838449
 10
-76.9200732355
 20
-109.9171479774
 10
-76.9735372015
 20
-109.8659177174
 10
-77.0278588726
 20
-109.8169788371
 10
-77.0827016422
 20
-109.7706345882
 10
-77.138068746
 20
-109.7269010819
 10
-77.1939569483
 20
-109.6857622071
 10
-77.2500199354
 20
-109.6474728826
 10
-77.3062587926
 20
-109.6120508024
 10
-77.3626724346
 20
-109.5794782725
 10
-77.4189112918
 20
-109.5499571301
 10
-77.4749742789
 20
-109.5235063224
 10
-77.5308624812
 20
-109.5001069021
 10
-77.586229585
 20
-109.4799038647
 10
-77.6410723546
 20
-109.4629170579
 10
-77.6953940257
 20
-109.4491266341
 10
-77.7488579917
 20
-109.4386180462
 10
-77.8014589268
 20
-109.4314116724
 10
-77.8532021568
 20
-109.4274871346
 10
-77.9037670525
 20
-109.4268687512
 10
-77.9531462972
 20
-109.4295770516
 10
-78.0013472076
 20
-109.4355915064
 10
-78.0480711047
 20
-109.4448748469
 10
-78.0933088171
 20
-109.4574473709
 10
-78.1370695161
 20
-109.4732887805
 10
-78.1790820368
 20
-109.4923009138
 10
-78.2095038715
 20
-109.508693994
  0
LWPOLYLINE
  5
290
100
AcDbEntity
  8
ASSI
100
AcDbPolyline
 62
7
  6
CONTINUOUS
 90
78
 70
0
 10
-70.6169511923
 20
-55.5016044998
 10
-70.6140780717
 20
-55.717317813
 10
-70.6055316253
 20
-55.9356998142
 10
-70.5913118529
 20
-56.1567505034
 10
-70.5713945187
 20
-56.3806844876
 10
-70.5458038586
 20
-56.6072871597
 10
-70.5146125806
 20
-56.8359146988
 10
-70.477804757
 20
-57.0665728633
 10
-70.4353963155
 20
-57.2992558947
 10
-70.3875077464
 20
-57.5333026965
 10
-70.3341234649
 20
-57.7687171471
 10
-70.2752590558
 20
-58.0054953682
 10
-70.211081764
 20
-58.242964628
 10
-70.1415764804
 20
-58.4811268917
 10
-70.0667583141
 20
-58.7199801941
 10
-69.9868398377
 20
-58.9588459079
 10
-69.9018065466
 20
-59.1977240682
 10
-69.8116729453
 20
-59.4366146398
 10
-69.7166951206
 20
-59.6748388895
 10
-69.6168592959
 20
-59.9123949222
 10
-69.5121792478
 20
-60.149284633
 10
-69.402952392
 20
-60.3848349732
 10
-69.2891657979
 20
-60.619042134
 10
-69.1708323962
 20
-60.8519099243
 10
-69.0482883944
 20
-61.0827767228
 10
-68.921521818
 20
-61.3116368387
 10
-68.7905446415
 20
-61.5384959628
 10
-68.6557289959
 20
-61.7627095452
 10
-68.5170639649
 20
-61.9842700625
 10
-68.3745604648
 20
-62.2031850382
 10
-68.2286233749
 20
-62.4188324935
 10
-68.0792429305
 20
-62.6312031359
 10
-67.9264288963
 20
-62.8403062579
 10
-67.770615446
 20
-63.0455477579
 10
-67.6117940494
 20
-63.246916654
 10
-67.4499732367
 20
-63.4444239282
 10
-67.2856127713
 20
-63.6375084249
 10
-67.1187054307
 20
-63.8261575662
 10
-66.9492584375
 20
-64.0103839301
 10
-66.7777532226
 20
-64.1896640946
 10
-66.6041839326
 20
-64.3639839932
 10
-66.428556421
 20
-64.5333576925
 10
-66.2513696786
 20
-64.6973039696
 10
-66.0726192712
 20
-64.8558073897
 10
-65.8923096331
 20
-65.0088833876
 10
-65.710953058
 20
-65.1560970455
 10
-65.5285465686
 20
-65.2974316917
 10
-65.3450931423
 20
-65.4329039979
 10
-65.1611140049
 20
-65.5621290616
 10
-64.9766076614
 20
-65.6850891165
 10
-64.7915756068
 20
-65.8018019289
 10
-64.6065435522
 20
-65.9119358958
 10
-64.4215114977
 20
-66.0154723076
 10
-64.2364794431
 20
-66.1124298737
 10
-64.0519730996
 20
-66.2025331195
 10
-63.8679939622
 20
-66.285762552
 10
-63.6845405359
 20
-66.3621376642
 10
-63.5021340465
 20
-66.4314414598
 10
-63.3207774714
 20
-66.4936538289
 10
-63.1404678333
 20
-66.5487948814
 10
-62.9617174259
 20
-66.5967079513
 10
-62.7845306835
 20
-66.6373724829
 10
-62.6089031718
 20
-66.6708090319
 10
-62.4353338819
 20
-66.6969225986
 10
-62.263828667
 20
-66.7156923574
 10
-62.0943816737
 20
-66.7271391339
 10
-61.9274743332
 20
-66.7312304058
 10
-61.7631138678
 20
-66.7279452547
 10
-61.601293055
 20
-66.7173045989
 10
-61.4424716585
 20
-66.6993386706
 10
-61.2866582081
 20
-66.6740266374
 10
-61.133844174
 20
-66.6413893317
 10
-60.9844637296
 20
-66.6015194821
 10
-60.8385266397
 20
-66.5543965202
 10
-60.6960231395
 20
-66.5000410145
 10
-60.5573581086
 20
-66.4386073992
 10
-60.4225424629
 20
-66.370075545
 10
-60.356345447
 20
-66.3330233392
  0
LWPOLYLINE
  5
291
100
AcDbEntity
  8
ASSI
100
AcDbPolyline
 62
7
  6
CONTINUOUS
 90
73
 70
0
 10
-69.2027376299
 20
-54.6850553131
 10
-69.1998645094
 20
-54.9007686263
 10
-69.1913180629
 20
-55.1191506276
 10
-69.1770982906
 20
-55.3402013167
 10
-69.1571809564
 20
-55.5641353009
 10
-69.1315902963
 20
-55.7907379731
 10
-69.1003990182
 20
-56.0193655121
 10
-69.0635911947
 20
-56.2500236766
 10
-69.0211827531
 20
-56.482706708
 10
-68.973294184
 20
-56.7167535098
 10
-68.9199099025
 20
-56.9521679605
 10
-68.8610454934
 20
-57.1889461815
 10
-68.7968682016
 20
-57.4264154413
 10
-68.727362918
 20
-57.664577705
 10
-68.6525447517
 20
-57.9034310075
 10
-68.5726262753
 20
-58.1422967212
 10
-68.4875929842
 20
-58.3811748815
 10
-68.3974593829
 20
-58.6200654532
 10
-68.3024815582
 20
-58.8582897028
 10
-68.2026457335
 20
-59.0958457356
 10
-68.0979656854
 20
-59.3327354463
 10
-67.9887388296
 20
-59.5682857866
 10
-67.8749522356
 20
-59.8024929474
 10
-67.7566188338
 20
-60.0353607377
 10
-67.634074832
 20
-60.2662275361
 10
-67.5073082556
 20
-60.4950876521
 10
-67.3763310792
 20
-60.7219467761
 10
-67.2415154335
 20
-60.9461603586
 10
-67.1028504026
 20
-61.1677208759
 10
-66.9603469024
 20
-61.3866358516
 10
-66.8144098125
 20
-61.6022833069
 10
-66.6650293681
 20
-61.8146539493
 10
-66.512215334
 20
-62.0237570713
 10
-66.3564018836
 20
-62.2289985713
 10
-66.1975804871
 20
-62.4303674674
 10
-66.0357596743
 20
-62.6278747415
 10
-65.8713992089
 20
-62.8209592382
 10
-65.7044918684
 20
-63.0096083796
 10
-65.5350448751
 20
-63.1938347435
 10
-65.3635396602
 20
-63.3731149079
 10
-65.1899703703
 20
-63.5474348066
 10
-65.0143428586
 20
-63.7168085058
 10
-64.8371561162
 20
-63.880754783
 10
-64.6584057088
 20
-64.039258203
 10
-64.4780960707
 20
-64.1923342009
 10
-64.2967394956
 20
-64.3395478589
 10
-64.1143330062
 20
-64.480882505
 10
-63.9308795799
 20
-64.6163548112
 10
-63.7469004425
 20
-64.7455798749
 10
-63.562394099
 20
-64.8685399298
 10
-63.3773620444
 20
-64.9852527423
 10
-63.1923299899
 20
-65.0953867091
 10
-63.0072979353
 20
-65.1989231209
 10
-62.8222658807
 20
-65.2958806871
 10
-62.6377595372
 20
-65.3859839329
 10
-62.4537803998
 20
-65.4692133654
 10
-62.2703269735
 20
-65.5455884775
 10
-62.0879204841
 20
-65.6148922731
 10
-61.906563909
 20
-65.6771046422
 10
-61.7262542709
 20
-65.7322456948
 10
-61.5475038635
 20
-65.7801587646
 10
-61.3703171211
 20
-65.8208232963
 10
-61.1946896095
 20
-65.8542598453
 10
-61.0211203195
 20
-65.880373412
 10
-60.8496151046
 20
-65.8991431708
 10
-60.6801681114
 20
-65.9105899473
 10
-60.5132607708
 20
-65.9146812191
 10
-60.3489003054
 20
-65.911396068
 10
-60.1870794927
 20
-65.9007554123
 10
-60.0282580961
 20
-65.8827894839
 10
-59.8724446458
 20
-65.8574774508
 10
-59.7196306116
 20
-65.824840145
 10
-59.7086009411
 20
-65.8218963105
  0
LINE
  5
292
100
AcDbEntity
  8
0
100
AcDbLine
 62
253
  6
CONTINUOUS
 10
-85.8197469878
 20
179.8334452467
 11
-85.8197469878
 21
-42.2331142208
  0
LINE
  5
293
100
AcDbEntity
  8
0
100
AcDbLine
 62
7
  6
CONTINUOUS
 10
-85.8197469878
 20
-42.2331142208
 11
-85.8197469878
 21
-43.8660547744
  0
LWPOLYLINE
  5
294
100
AcDbEntity
  8
0
100
AcDbPolyline
 62
7
  6
CONTINUOUS
 90
37
 70
0
 10
-87.2339605502
 20
-86.1183126886
 10
-87.2346442061
 20
-86.1544336145
 10
-87.2366606716
 20
-86.1911214819
 10
-87.2400099467
 20
-86.2283762906
 10
-87.2447034666
 20
-86.2662710232
 10
-87.250729796
 20
-86.3047326971
 10
-87.2580546295
 20
-86.3435423654
 10
-87.266685373
 20
-86.3827020128
 10
-87.2766146206
 20
-86.4222096546
 10
-87.287785849
 20
-86.4618403895
 10
-87.3002061417
 20
-86.5015949194
 10
-87.3138684152
 20
-86.5414725423
 10
-87.3286948957
 20
-86.5812462508
 10
-87.344692223
 20
-86.6209154521
 10
-87.3618537573
 20
-86.660480739
 10
-87.3800818046
 20
-86.699716882
 10
-87.3993824478
 20
-86.7386220038
 10
-87.4197496041
 20
-86.7771979816
 10
-87.4410673314
 20
-86.8152252178
 10
-87.4633410511
 20
-86.8527005825
 10
-87.4865653418
 20
-86.8896272056
 10
-87.5106079968
 20
-86.9257948784
 10
-87.5354736836
 20
-86.9611992723
 10
-87.5611577346
 20
-86.9958447159
 10
-87.5875139408
 20
-87.0295339864
 10
-87.6145461358
 20
-87.0622616304
 10
-87.6422504859
 20
-87.0940331013
 10
-87.6704692813
 20
-87.1246675368
 10
-87.6992054561
 20
-87.1541584519
 10
-87.7284560763
 20
-87.1825123315
 10
-87.7580546295
 20
-87.2095677683
 10
-87.7880031003
 20
-87.2353173567
 10
-87.8182995042
 20
-87.2597685022
 10
-87.8487713757
 20
-87.2827820143
 10
-87.8793612266
 20
-87.3043114959
 10
-87.9101265451
 20
-87.3244033441
 10
-87.9410673314
 20
-87.3430575587
  0
LWPOLYLINE
  5
295
100
AcDbEntity
  8
RACCORDO
100
AcDbPolyline
 62
253
  6
CONTINUOUS
 90
3
 70
0
 10
-109.7196161468
 20
6.8552681998
 10
-109.6749655796
 20
6.9051068528
 10
-109.6650746708
 20
6.9121763244
  0
LWPOLYLINE
  5
296
100
AcDbEntity
  8
ASSI
100
AcDbPolyline
 62
7
  6
CONTINUOUS
 90
60
 70
0
 10
16.0427834864
 20
107.1072947982
 10
16.015409583
 20
107.0908505787
 10
15.9623312444
 20
107.0550743014
 10
15.9116226622
 20
107.0155056319
 10
15.8632723734
 20
106.9721629152
 10
15.8175150164
 20
106.9252564883
 10
15.7743631948
 20
106.8747690292
 10
15.7338043051
 20
106.82071786
 10
15.6960351749
 20
106.763365285
 10
15.6610693647
 20
106.702695257
 10
15.628893314
 20
106.6387238232
 10
15.5996631697
 20
106.5717614298
 10
15.573393251
 20
106.5017935385
 10
15.5500692387
 20
106.4288346876
 10
15.5298043215
 20
106.3532389383
 10
15.512613369
 20
106.2749934731
 10
15.4984815116
 20
106.1941111095
 10
15.4874773297
 20
106.1109843604
 10
15.4796160261
 20
106.0256023165
 10
15.474882398
 20
105.9379758871
 10
15.4732994171
 20
105.8485303135
 10
15.474882398
 20
105.7572567533
 10
15.4796160261
 20
105.6641640489
 10
15.4874773297
 20
105.5697039686
 10
15.4984815116
 20
105.4738698661
 10
15.512613369
 20
105.3766683878
 10
15.5298043215
 20
105.2785712416
 10
15.5500692387
 20
105.1795740739
 10
15.573393251
 20
105.0796812382
 10
15.5996631697
 20
104.9793775033
 10
15.628893314
 20
104.8786608719
 10
15.6610693647
 20
104.7775333413
 10
15.6960351749
 20
104.676485672
 10
15.7338043051
 20
104.5755182523
 10
15.7743631948
 20
104.4746306939
 10
15.8175150164
 20
104.3743125928
 10
15.8632723734
 20
104.2745667171
 10
15.9116226622
 20
104.1753902987
 10
15.9623312444
 20
104.0772646296
 10
16.015409583
 20
103.9801948173
 10
16.0708462148
 20
103.8841757544
 10
16.1283721123
 20
103.7896734106
 10
16.1879974307
 20
103.6966951582
 10
16.2497120147
 20
103.6052336249
 10
16.3132163703
 20
103.5157326632
 10
16.3785191972
 20
103.4282018031
 10
16.4456117957
 20
103.3426315145
 10
16.514168573
 20
103.2594370606
 10
16.5841966461
 20
103.1786299897
 10
16.6556888979
 20
103.1001987534
 10
16.7282983847
 20
103.0245239697
 10
16.8020305369
 20
102.9516190371
 10
16.8768799241
 20
102.8814705571
 10
16.9524833105
 20
102.8144189524
 10
17.0288443611
 20
102.7504792761
 10
17.105959411
 20
102.6896364752
 10
17.1834542294
 20
102.6321858129
 10
17.2612040729
 20
102.5782257102
 10
17.3393336849
 20
102.5276577462
 10
17.4178430654
 20
102.4804819207
  0
LINE
  5
297
100
AcDbEntity
  8
ASSI
100
AcDbLine
 62
253
  6
CONTINUOUS
 10
18.8320566278
 20
103.2970311074
 11
17.4178430654
 21
102.4804819207
  0
LWPOLYLINE
  5
298
100
AcDbEntity
  8
RACCORDO
100
AcDbPolyline
 62
253
  6
CONTINUOUS
 90
5
 70
0
 10
-108.9615911637
 20
-95.2286109058
 10
-109.030235139
 20
-95.2347379211
 10
-109.1040192117
 20
-95.2255728036
 10
-109.1812951659
 20
-95.2013202841
 10
-109.2603367842
 20
-95.1625221217
  0
LWPOLYLINE
  5
299
100
AcDbEntity
  8
ASSI
100
AcDbPolyline
 62
7
  6
CONTINUOUS
 90
12
 70
0
 10
-33.49384518
 20
-83.0592288511
 10
-33.4788426203
 20
-83.0589289878
 10
-33.3170218076
 20
-83.048288332
 10
-33.158200411
 20
-83.0303224037
 10
-33.0023869607
 20
-83.0050103705
 10
-32.8495729265
 20
-82.9723730648
 10
-32.7001924821
 20
-82.9325032152
 10
-32.5542553922
 20
-82.8853802533
 10
-32.4117518921
 20
-82.8310247476
 10
-32.2730868611
 20
-82.7695911323
 10
-32.1382712155
 20
-82.7010592781
 10
-32.0720741995
 20
-82.6640070723
  0
LINE
  5
29A
100
AcDbEntity
  8
0
100
AcDbLine
 62
7
  6
CONTINUOUS
 10
-87.2339605502
 20
-43.0495055878
 11
-85.8197469878
 21
-43.8660547744
  0
LWPOLYLINE
  5
29B
100
AcDbEntity
  8
ASSI
100
AcDbPolyline
 62
7
  6
CONTINUOUS
 90
23
 70
0
 10
-82.65796648
 20
23.1195484275
 10
-82.6515052305
 20
23.0913599871
 10
-82.6342327472
 20
23.0252703064
 10
-82.6148124304
 20
22.9590177203
 10
-82.5932309434
 20
22.8926012173
 10
-82.5695016229
 20
22.8260218087
 10
-82.5437715086
 20
22.759692057
 10
-82.5160281769
 20
22.6936135122
 10
-82.4862840514
 20
22.6277846242
 10
-82.454723443
 20
22.5626133046
 10
-82.4213350723
 20
22.4981036364
 10
-82.3861302187
 20
22.4342515366
 10
-82.3493270305
 20
22.3714526674
 10
-82.310915583
 20
22.3097135688
 10
-82.270905801
 20
22.249027701
 10
-82.2295456069
 20
22.1897711064
 10
-82.1868266153
 20
22.1319526601
 10
-82.1427572115
 20
22.0755634871
 10
-82.0976104735
 20
22.0209530054
 10
-82.0513797117
 20
21.9681322595
 10
-82.0040716157
 20
21.917090205
 10
-81.9559793321
 20
21.868143126
 10
-81.9104596838
 20
21.8245252729
  0
LWPOLYLINE
  5
29C
100
AcDbEntity
  8
RACCORDO
100
AcDbPolyline
 62
253
  6
CONTINUOUS
 90
20
 70
0
 10
-107.8842433539
 20
106.7000309967
 10
-107.9314103414
 20
106.9091807933
 10
-107.9965486326
 20
107.1211541671
 10
-108.0787773827
 20
107.333084739
 10
-108.176984871
 20
107.5421070659
 10
-108.2898434593
 20
107.7453949968
 10
-108.4158267741
 20
107.9401987502
 10
-108.5532303736
 20
108.1238828237
 10
-108.7001954284
 20
108.2939626836
 10
-108.854734918
 20
108.4481391521
 10
-109.0147598433
 20
108.5843281519
 10
-109.1781067771
 20
108.700688201
 10
-109.3425661706
 20
108.7956450353
 10
-109.5059131445
 20
108.8679140306
 10
-109.6659381778
 20
108.9165179109
 10
-109.8204778048
 20
108.9407998542
 10
-109.9674429356
 20
108.9404316055
 10
-110.1048464979
 20
108.915417825
 10
-110.2308297436
 20
108.8660965492
 10
-110.2603851044
 20
108.8500118627
  0
LWPOLYLINE
  5
29D
100
AcDbEntity
  8
ASSI
100
AcDbPolyline
 62
7
  6
CONTINUOUS
 90
60
 70
0
 10
-52.4089515768
 20
-46.0111534965
 10
-52.4073532814
 20
-46.1027282357
 10
-52.4026273105
 20
-46.1956703507
 10
-52.3947736642
 20
-46.2899798414
 10
-52.3837694823
 20
-46.3858139439
 10
-52.3696376249
 20
-46.4830154222
 10
-52.3524466724
 20
-46.5811125684
 10
-52.3321817552
 20
-46.6801097362
 10
-52.3088577429
 20
-46.7800025719
 10
-52.2825878242
 20
-46.8803063068
 10
-52.2533576799
 20
-46.9810229382
 10
-52.2211816292
 20
-47.0821504688
 10
-52.186215819
 20
-47.183198138
 10
-52.1484466889
 20
-47.2841655578
 10
-52.1078877991
 20
-47.3850531162
 10
-52.0647359775
 20
-47.4853712172
 10
-52.0189786205
 20
-47.585117093
 10
-51.9706283317
 20
-47.6842935114
 10
-51.9199197495
 20
-47.7824191805
 10
-51.8668414109
 20
-47.8794889927
 10
-51.8114047791
 20
-47.9755080557
 10
-51.7538788816
 20
-48.0700103995
 10
-51.6942535632
 20
-48.1629886519
 10
-51.6325389792
 20
-48.2544501852
 10
-51.5690346236
 20
-48.3439511468
 10
-51.5037317967
 20
-48.431482007
 10
-51.4366391982
 20
-48.5170522955
 10
-51.3680824209
 20
-48.6002467494
 10
-51.2980543478
 20
-48.6810538204
 10
-51.226562096
 20
-48.7594850567
 10
-51.1539526092
 20
-48.8351598403
 10
-51.080220457
 20
-48.908064773
 10
-51.0053710698
 20
-48.978213253
 10
-50.9297676834
 20
-49.0452648577
 10
-50.8534066328
 20
-49.1092045339
 10
-50.7762915829
 20
-49.1700473349
 10
-50.6987967645
 20
-49.2274979972
 10
-50.6209203315
 20
-49.2815400326
 10
-50.54266413
 20
-49.3321899294
 10
-50.4644079285
 20
-49.3792018894
 10
-50.386151727
 20
-49.4225582293
 10
-50.3078955255
 20
-49.4622766325
 10
-50.2300190925
 20
-49.4981643498
 10
-50.1525242741
 20
-49.5302027613
 10
-50.0754092242
 20
-49.558410487
 10
-49.9990481736
 20
-49.582650638
 10
-49.9234447872
 20
-49.6029039289
 10
-49.8485954
 20
-49.619189645
 10
-49.7748632478
 20
-49.6314287536
 10
-49.702253761
 20
-49.6396015852
 10
-49.6307615092
 20
-49.6437278093
 10
-49.5607334361
 20
-49.6437874019
 10
-49.4921766588
 20
-49.6397605959
 10
-49.4250840603
 20
-49.6316671584
 10
-49.3597812334
 20
-49.6195463658
 10
-49.2962768778
 20
-49.6033786422
 10
-49.2345622938
 20
-49.5831835636
 10
-49.1749369754
 20
-49.5590591344
 10
-49.1174110779
 20
-49.530986255
 10
-49.0893483495
 20
-49.5154282445
  0
LWPOLYLINE
  5
29E
100
AcDbEntity
  8
ASSI
100
AcDbPolyline
 62
7
  6
CONTINUOUS
 90
40
 70
0
 10
-50.9947380144
 20
-45.1946043099
 10
-50.993139719
 20
-45.2861790491
 10
-50.9884137482
 20
-45.379121164
 10
-50.9805601018
 20
-45.4734306548
 10
-50.9695559199
 20
-45.5692647573
 10
-50.9554240626
 20
-45.6664662356
 10
-50.93823311
 20
-45.7645633818
 10
-50.9179681929
 20
-45.8635605495
 10
-50.8946441805
 20
-45.9634533852
 10
-50.8683742619
 20
-46.0637571201
 10
-50.8391441175
 20
-46.1644737515
 10
-50.8069680669
 20
-46.2656012821
 10
-50.7720022566
 20
-46.3666489514
 10
-50.7342331265
 20
-46.4676163711
 10
-50.6936742367
 20
-46.5685039295
 10
-50.6505224152
 20
-46.6688220306
 10
-50.6047650582
 20
-46.7685679063
 10
-50.5564147693
 20
-46.8677443247
 10
-50.5057061871
 20
-46.9658699938
 10
-50.4526278486
 20
-47.0629398061
 10
-50.3971912167
 20
-47.158958869
 10
-50.3396653192
 20
-47.2534612129
 10
-50.2800400008
 20
-47.3464394652
 10
-50.2183254168
 20
-47.4379009985
 10
-50.1548210612
 20
-47.5274019602
 10
-50.0895182343
 20
-47.6149328203
 10
-50.0224256358
 20
-47.7005031089
 10
-49.9538688585
 20
-47.7836975628
 10
-49.8838407855
 20
-47.8645046337
 10
-49.8123485336
 20
-47.94293587
 10
-49.7397390469
 20
-48.0186106537
 10
-49.6660068946
 20
-48.0915155863
 10
-49.5911575075
 20
-48.1616640663
 10
-49.5155541211
 20
-48.228715671
 10
-49.4391930704
 20
-48.2926553473
 10
-49.3620780205
 20
-48.3534981482
 10
-49.2845832021
 20
-48.4109488105
 10
-49.2067067692
 20
-48.4649908459
 10
-49.1284505676
 20
-48.5156407427
 10
-49.0501943661
 20
-48.5626527027
  0
LWPOLYLINE
  5
29F
100
AcDbEntity
  8
ASSI
100
AcDbPolyline
 62
7
  6
CONTINUOUS
 90
78
 70
0
 10
-58.5961359121
 20
-62.4422725863
 10
-58.5990090327
 20
-62.2265592731
 10
-58.6075554792
 20
-62.0081772719
 10
-58.6217752515
 20
-61.7871265827
 10
-58.6416925857
 20
-61.5631925985
 10
-58.6672832458
 20
-61.3365899264
 10
-58.6984745239
 20
-61.1079623873
 10
-58.7352823474
 20
-60.8773042228
 10
-58.777690789
 20
-60.6446211914
 10
-58.8255793581
 20
-60.4105743896
 10
-58.8789636396
 20
-60.175159939
 10
-58.9378280487
 20
-59.9383817179
 10
-59.0020053405
 20
-59.7009124581
 10
-59.0715106241
 20
-59.4627501944
 10
-59.1463287904
 20
-59.223896892
 10
-59.2262472667
 20
-58.9850311782
 10
-59.3112805579
 20
-58.7461530179
 10
-59.4014141592
 20
-58.5072624462
 10
-59.4963919839
 20
-58.2690381966
 10
-59.5962278085
 20
-58.0314821639
 10
-59.7009078567
 20
-57.7945924531
 10
-59.8101347125
 20
-57.5590421129
 10
-59.9239213065
 20
-57.3248349521
 10
-60.0422547083
 20
-57.0919671617
 10
-60.1647987101
 20
-56.8611003633
 10
-60.2915652865
 20
-56.6322402474
 10
-60.4225424629
 20
-56.4053811233
 10
-60.5573581086
 20
-56.1811675408
 10
-60.6960231395
 20
-55.9596070236
 10
-60.8385266397
 20
-55.7406920478
 10
-60.9844637296
 20
-55.5250445926
 10
-61.133844174
 20
-55.3126739502
 10
-61.2866582081
 20
-55.1035708282
 10
-61.4424716585
 20
-54.8983293281
 10
-61.601293055
 20
-54.696960432
 10
-61.7631138678
 20
-54.4994531579
 10
-61.9274743332
 20
-54.3063686612
 10
-62.0943816737
 20
-54.1177195199
 10
-62.263828667
 20
-53.933493156
 10
-62.4353338819
 20
-53.7542129915
 10
-62.6089031718
 20
-53.5798930928
 10
-62.7845306835
 20
-53.4105193936
 10
-62.9617174259
 20
-53.2465731165
 10
-63.1404678333
 20
-53.0880696964
 10
-63.3207774714
 20
-52.9349936985
 10
-63.5021340465
 20
-52.7877800405
 10
-63.6845405359
 20
-52.6464453944
 10
-63.8679939622
 20
-52.5109730882
 10
-64.0519730996
 20
-52.3817480245
 10
-64.2364794431
 20
-52.2587879696
 10
-64.4215114977
 20
-52.1420751572
 10
-64.6065435522
 20
-52.0319411903
 10
-64.7915756068
 20
-51.9284047785
 10
-64.9766076614
 20
-51.8314472123
 10
-65.1611140049
 20
-51.7413439666
 10
-65.3450931423
 20
-51.658114534
 10
-65.5285465686
 20
-51.5817394219
 10
-65.710953058
 20
-51.5124356263
 10
-65.8923096331
 20
-51.4502232572
 10
-66.0726192712
 20
-51.3950822047
 10
-66.2513696786
 20
-51.3471691348
 10
-66.428556421
 20
-51.3065046031
 10
-66.6041839326
 20
-51.2730680542
 10
-66.7777532226
 20
-51.2469544874
 10
-66.9492584375
 20
-51.2281847287
 10
-67.1187054307
 20
-51.2167379521
 10
-67.2856127713
 20
-51.2126466803
 10
-67.4499732367
 20
-51.2159318314
 10
-67.6117940494
 20
-51.2265724872
 10
-67.770615446
 20
-51.2445384155
 10
-67.9264288963
 20
-51.2698504487
 10
-68.0792429305
 20
-51.3024877544
 10
-68.2286233749
 20
-51.342357604
 10
-68.3745604648
 20
-51.3894805659
 10
-68.5170639649
 20
-51.4438360716
 10
-68.6557289959
 20
-51.5052696869
 10
-68.7905446415
 20
-51.5738015411
 10
-68.8567416575
 20
-51.6108537469
  0
LWPOLYLINE
  5
2A0
100
AcDbEntity
  8
0
100
AcDbPolyline
 62
7
  6
CONTINUOUS
 90
7
 70
0
 10
-107.9774457516
 20
4.7151966984
 10
-107.8566621857
 20
4.80544521
 10
-107.7527459592
 20
4.9250204001
 10
-107.6709311068
 20
5.0679272304
 10
-107.6129462002
 20
5.2321766537
 10
-107.5770626677
 20
5.419757717
 10
-107.5632805093
 20
5.6306704205
  0
LWPOLYLINE
  5
2A1
100
AcDbEntity
  8
RACCORDO
100
AcDbPolyline
 62
253
  6
CONTINUOUS
 90
3
 70
0
 10
-108.2602884639
 20
4.5518868609
 10
-108.1769852398
 20
4.608763729
 10
-108.0787776694
 20
4.7043784669
  0
LWPOLYLINE
  5
2A2
100
AcDbEntity
  8
RACCORDO
100
AcDbPolyline
 62
7
  6
CONTINUOUS
 90
10
 70
0
 10
-110.2603851044
 20
8.0159326788
 10
-110.370030448
 20
7.9432645291
 10
-110.4723848972
 20
7.8554245418
 10
-110.5656065844
 20
7.7526837677
 10
-110.6479550635
 20
7.635578222
 10
-110.7178820401
 20
7.5048479728
 10
-110.7741821424
 20
7.360999668
 10
-110.8157630106
 20
7.2043765943
 10
-110.8414829564
 20
7.0356485344
 10
-110.8502862778
 20
6.8554940594
  0
LWPOLYLINE
  5
2A3
100
AcDbEntity
  8
ASSI
100
AcDbPolyline
 62
7
  6
CONTINUOUS
 90
19
 70
0
 10
-83.7913548418
 20
23.4493742162
 10
-83.800343781
 20
23.4440627054
 10
-83.8355486347
 20
23.4208642881
 10
-83.8689370053
 20
23.3949106734
 10
-83.9004976138
 20
23.3661847533
 10
-83.9302417393
 20
23.3347036359
 10
-83.957985071
 20
23.3006623951
 10
-83.9837151853
 20
23.2640451344
 10
-84.0074445058
 20
23.2248677505
 10
-84.0290259928
 20
23.1833730076
 10
-84.0484463096
 20
23.1395465166
 10
-84.0657187928
 20
23.0934026666
 10
-84.0807364129
 20
23.0452273902
 10
-84.0934851684
 20
22.9950080734
 10
-84.1039790606
 20
22.9427573301
 10
-84.1121530638
 20
22.8887989343
 10
-84.1179855026
 20
22.8332408107
 10
-84.1214980524
 20
22.7759750347
 10
-84.122690713
 20
22.7170016062
  0
LWPOLYLINE
  5
2A4
100
AcDbEntity
  8
ASSI
100
AcDbPolyline
 62
7
  6
CONTINUOUS
 90
19
 70
0
 10
-82.1912848844
 20
20.6781502975
 10
-82.1822959451
 20
20.6834618084
 10
-82.1470910915
 20
20.7066602256
 10
-82.1137027208
 20
20.7326138403
 10
-82.0821421124
 20
20.7613397604
 10
-82.0523979869
 20
20.7928208779
 10
-82.0246546552
 20
20.8268621186
 10
-81.9989245409
 20
20.8634793793
 10
-81.9751952204
 20
20.9026567633
 10
-81.9536137334
 20
20.9441515061
 10
-81.9341934166
 20
20.9879779972
 10
-81.9169209333
 20
21.0341218471
 10
-81.9019033133
 20
21.0822971235
 10
-81.8891545578
 20
21.1325164403
 10
-81.8786606655
 20
21.1847671836
 10
-81.8704866623
 20
21.2387255794
 10
-81.8646542235
 20
21.294283703
 10
-81.8611416738
 20
21.351549479
 10
-81.8599490132
 20
21.4105229075
  0
LINE
  5
2A5
100
AcDbEntity
  8
0
100
AcDbLine
 62
7
  6
CONTINUOUS
 10
-104.2045232987
 20
14.3057164301
 11
-103.4974165175
 21
14.7139910234
  0
LINE
  5
2A6
100
AcDbEntity
  8
0
100
AcDbLine
 62
7
  6
CONTINUOUS
 10
-109.977542392
 20
8.1792425161
 11
-110.2603851044
 21
8.0159326788
  0
LINE
  5
2A7
100
AcDbEntity
  8
ASSI
100
AcDbLine
 62
253
  6
CONTINUOUS
 10
-82.9917304135
 20
23.3700039089
 11
-84.122690713
 21
22.7170016062
  0
LINE
  5
2A8
100
AcDbEntity
  8
0
100
AcDbLine
 62
7
  6
CONTINUOUS
 10
-107.9774457514
 20
4.7151966982
 11
-108.2602884639
 21
4.5518868609
  0
LWPOLYLINE
  5
2A9
100
AcDbEntity
  8
RACCORDO
100
AcDbPolyline
 62
253
  6
CONTINUOUS
 90
25
 70
0
 10
-109.6846008529
 20
4.9367101401
 10
-109.8124050084
 20
5.0211926822
 10
-109.9340721855
 20
5.1193605958
 10
-110.0496023844
 20
5.231213881
 10
-110.1607540814
 20
5.3591124826
 10
-110.2657688002
 20
5.5006964557
 10
-110.3593711109
 20
5.6488859659
 10
-110.4409721134
 20
5.8040139545
 10
-110.5111607079
 20
5.9657474802
 10
-110.5664281651
 20
6.1260078845
 10
-110.6060153417
 20
6.2847185986
 10
-110.630681381
 20
6.4419561912
 10
-110.6391949841
 20
6.5898717106
 10
-110.6307361598
 20
6.72799197
 10
-110.6061248993
 20
6.8567901562
 10
-110.5665898772
 20
6.9698368769
 10
-110.5113737018
 20
7.0663324375
 10
-110.4412337647
 20
7.1470765326
 10
-110.3596709153
 20
7.2080388539
 10
-110.2661044555
 20
7.2482150406
 10
-110.1611150834
 20
7.2686094534
 10
-110.0499457427
 20
7.2682048671
 10
-109.9343440814
 20
7.2466622064
 10
-109.8125624514
 20
7.2043205465
 10
-109.6846008529
 20
7.1411798875
  0
LWPOLYLINE
  5
2AA
100
AcDbEntity
  8
RACCORDO
100
AcDbPolyline
 62
253
  6
CONTINUOUS
 90
25
 70
0
 10
-109.6846008529
 20
7.1411798875
 10
-109.5567966974
 20
7.0566973454
 10
-109.4351295202
 20
6.9585294318
 10
-109.3195993214
 20
6.8466761466
 10
-109.2084476243
 20
6.7187775451
 10
-109.1034329056
 20
6.577193572
 10
-109.0098305949
 20
6.4290040618
 10
-108.9282295924
 20
6.2738760731
 10
-108.8580409979
 20
6.1121425474
 10
-108.8027735407
 20
5.9518821431
 10
-108.7631863641
 20
5.7931714291
 10
-108.7385203248
 20
5.6359338364
 10
-108.7300067217
 20
5.4880183171
 10
-108.7384655459
 20
5.3498980576
 10
-108.7630768064
 20
5.2210998714
 10
-108.8026118286
 20
5.1080531507
 10
-108.857828004
 20
5.0115575901
 10
-108.9279679411
 20
4.930813495
 10
-109.0095307904
 20
4.8698511737
 10
-109.1030972502
 20
4.8296749871
 10
-109.2080866223
 20
4.8092805742
 10
-109.319255963
 20
4.8096851606
 10
-109.4348576244
 20
4.8312278212
 10
-109.5566392543
 20
4.8735694811
 10
-109.6846008529
 20
4.9367101401
  0
LWPOLYLINE
  5
2AB
100
AcDbEntity
  8
RACCORDO
100
AcDbPolyline
 62
253
  6
CONTINUOUS
 90
15
 70
0
 10
-109.2603367842
 20
5.6715570622
 10
-109.3393783241
 20
5.7240341205
 10
-109.4166542211
 20
5.7890178683
 10
-109.4904382603
 20
5.8650566833
 10
-109.559082229
 20
5.9504519927
 10
-109.6210527306
 20
6.0432962093
 10
-109.6749654392
 20
6.1415153424
 10
-109.719616032
 20
6.2429153398
 10
-109.7540070862
 20
6.3452310934
 10
-109.7773703581
 20
6.4461770299
 10
-109.7891839505
 20
6.5434981809
 10
-109.7891839678
 20
6.6350205545
 10
-109.7773704093
 20
6.7186996913
 10
-109.7540071703
 20
6.7926663378
 10
-109.7196161468
 20
6.8552681998
  0
LWPOLYLINE
  5
2AC
100
AcDbEntity
  8
ASSI
100
AcDbPolyline
 62
7
  6
CONTINUOUS
 90
42
 70
0
 10
-49.0501943661
 20
-46.4098717063
 10
-49.0619744461
 20
-46.3883282636
 10
-49.1174110779
 20
-46.2923092007
 10
-49.1749369754
 20
-46.1978068568
 10
-49.2345622938
 20
-46.1048286045
 10
-49.2962768778
 20
-46.0133670712
 10
-49.3597812334
 20
-45.9238661095
 10
-49.4250840603
 20
-45.8363352494
 10
-49.4921766588
 20
-45.7507649608
 10
-49.5607334361
 20
-45.6675705069
 10
-49.6307615092
 20
-45.586763436
 10
-49.702253761
 20
-45.5083321997
 10
-49.7748632478
 20
-45.432657416
 10
-49.8485954
 20
-45.3597524834
 10
-49.9234447872
 20
-45.2896040034
 10
-49.9990481736
 20
-45.2225523987
 10
-50.0754092242
 20
-45.1586127224
 10
-50.1525242741
 20
-45.0977699215
 10
-50.2300190925
 20
-45.0403192592
 10
-50.3078955255
 20
-44.9862772238
 10
-50.386151727
 20
-44.9356273269
 10
-50.4644079285
 20
-44.888615367
 10
-50.54266413
 20
-44.845259027
 10
-50.6209203315
 20
-44.8055406239
 10
-50.6987967645
 20
-44.7696529065
 10
-50.7762915829
 20
-44.737614495
 10
-50.8534066328
 20
-44.7094067693
 10
-50.9297676834
 20
-44.6851666183
 10
-51.0053710698
 20
-44.6649133275
 10
-51.080220457
 20
-44.6486276114
 10
-51.1539526092
 20
-44.6363885027
 10
-51.226562096
 20
-44.6282156711
 10
-51.2980543478
 20
-44.624089447
 10
-51.3680824209
 20
-44.6240298545
 10
-51.4366391982
 20
-44.6280566604
 10
-51.5037317967
 20
-44.636150098
 10
-51.5690346236
 20
-44.6482708905
 10
-51.6325389792
 20
-44.6644386141
 10
-51.6942535632
 20
-44.6846336927
 10
-51.7538788816
 20
-44.7087581219
 10
-51.8114047791
 20
-44.7368310013
 10
-51.8394675075
 20
-44.7523890119
  0
LWPOLYLINE
  5
2AD
100
AcDbEntity
  8
ASSI
100
AcDbPolyline
 62
7
  6
CONTINUOUS
 90
23
 70
0
 10
-82.65796648
 20
112.9312788747
 10
-82.6515052305
 20
112.9030904343
 10
-82.6342327472
 20
112.8370007536
 10
-82.6148124304
 20
112.7707481676
 10
-82.5932309434
 20
112.7043316645
 10
-82.5695016229
 20
112.637752256
 10
-82.5437715086
 20
112.5714225042
 10
-82.5160281769
 20
112.5053439594
 10
-82.4862840514
 20
112.4395150714
 10
-82.454723443
 20
112.3743437518
 10
-82.4213350723
 20
112.3098340836
 10
-82.3861302187
 20
112.2459819838
 10
-82.3493270305
 20
112.1831831146
 10
-82.310915583
 20
112.121444016
 10
-82.270905801
 20
112.0607581482
 10
-82.2295456069
 20
112.0015015536
 10
-82.1868266153
 20
111.9436831073
 10
-82.1427572115
 20
111.8872939343
 10
-82.0976104735
 20
111.8326834526
 10
-82.0513797117
 20
111.7798627067
 10
-82.0040716157
 20
111.7288206522
 10
-81.9559793321
 20
111.6798735733
 10
-81.9104596838
 20
111.6362557201
  0
LWPOLYLINE
  5
2AE
100
AcDbEntity
  8
RACCORDO
100
AcDbPolyline
 62
253
  6
CONTINUOUS
 90
20
 70
0
 10
-37.1735652353
 20
-135.7955867039
 10
-37.2207322227
 20
-135.5864369073
 10
-37.2858705139
 20
-135.3744635335
 10
-37.368099264
 20
-135.1625329616
 10
-37.4663067524
 20
-134.9535106347
 10
-37.5791653407
 20
-134.7502227038
 10
-37.7051486555
 20
-134.5554189504
 10
-37.8425522549
 20
-134.3717348769
 10
-37.9895173098
 20
-134.201655017
 10
-38.1440567993
 20
-134.0474785485
 10
-38.3040817247
 20
-133.9112895487
 10
-38.4674286585
 20
-133.7949294996
 10
-38.6318880519
 20
-133.6999726653
 10
-38.7952350259
 20
-133.62770367
 10
-38.9552600591
 20
-133.5790997897
 10
-39.1097996862
 20
-133.5548178464
 10
-39.2567648169
 20
-133.5551860951
 10
-39.3941683792
 20
-133.5801998756
 10
-39.5201516249
 20
-133.6295211514
 10
-39.5497069858
 20
-133.6456058379
  0
LINE
  5
2AF
100
AcDbEntity
  8
RACCORDO
100
AcDbLine
 62
253
  6
CONTINUOUS
 10
-37.1450074646
 20
-135.9990843605
 11
-37.1735652353
 21
-135.7955867039
  0
LWPOLYLINE
  5
2B0
100
AcDbEntity
  8
0
100
AcDbPolyline
 62
7
  6
CONTINUOUS
 90
19
 70
0
 10
-36.8526023907
 20
-136.0308680962
 10
-36.866384549
 20
-135.8040401017
 10
-36.9022680815
 20
-135.5750216345
 10
-36.9602529882
 20
-135.3438126945
 10
-37.0420678405
 20
-135.1064281234
 10
-37.1459840671
 20
-134.8668530796
 10
-37.266815953
 20
-134.6370430379
 10
-37.4054219171
 20
-134.4174935425
 10
-37.5609435405
 20
-134.2077090492
 10
-37.7256198529
 20
-134.0181583997
 10
-37.899915427
 20
-133.8498684005
 10
-38.08336569
 20
-133.7018122451
 10
-38.266815953
 20
-133.581378356
 10
-38.4502662161
 20
-133.4899684797
 10
-38.6337164791
 20
-133.4261808697
 10
-38.8080120532
 20
-133.3931987088
 10
-38.9726883656
 20
-133.3925852805
 10
-39.128209989
 20
-133.4227773014
 10
-39.2668642732
 20
-133.4822960008
  0
LWPOLYLINE
  5
2B1
100
AcDbEntity
  8
RACCORDO
100
AcDbPolyline
 62
253
  6
CONTINUOUS
 90
25
 70
0
 10
-39.9638722279
 20
-135.0510090722
 10
-39.9551963623
 20
-135.2060802555
 10
-39.9308120166
 20
-135.3639057859
 10
-39.8907191907
 20
-135.5244856634
 10
-39.8336479571
 20
-135.6910723271
 10
-39.7608682433
 20
-135.860413338
 10
-39.6761898321
 20
-136.0227513786
 10
-39.579102343
 20
-136.1772250311
 10
-39.4701161564
 20
-136.3246957134
 10
-39.3545721966
 20
-136.4579903616
 10
-39.2320646982
 20
-136.5765017791
 10
-39.1029994265
 20
-136.6808371624
 10
-38.9739346025
 20
-136.7656450377
 10
-38.8448711073
 20
-136.8298819678
 10
-38.7158080597
 20
-136.8745913899
 10
-38.5933010372
 20
-136.8975521416
 10
-38.4777545088
 20
-136.897689516
 10
-38.3687640055
 20
-136.8760782201
 10
-38.2716716982
 20
-136.8337212127
 10
-38.1869876092
 20
-136.7691656732
 10
-38.1142017162
 20
-136.6838644221
 10
-38.0571261225
 20
-136.5831788806
 10
-38.0170315292
 20
-136.4688961888
 10
-37.9926472352
 20
-136.3392292064
 10
-37.9839732406
 20
-136.1941779335
  0
LWPOLYLINE
  5
2B2
100
AcDbEntity
  8
RACCORDO
100
AcDbPolyline
 62
253
  6
CONTINUOUS
 90
25
 70
0
 10
-37.9839732406
 20
-136.1941779335
 10
-37.9926491061
 20
-136.0391067503
 10
-38.0170334519
 20
-135.8812812199
 10
-38.0571262777
 20
-135.7207013424
 10
-38.1141975113
 20
-135.5541146786
 10
-38.1869772251
 20
-135.3847736678
 10
-38.2716556363
 20
-135.2224356272
 10
-38.3687431255
 20
-135.0679619746
 10
-38.477729312
 20
-134.9204912923
 10
-38.5932732718
 20
-134.7871966441
 10
-38.7157807703
 20
-134.6686852267
 10
-38.8448460419
 20
-134.5643498434
 10
-38.9739108659
 20
-134.479541968
 10
-39.1029743612
 20
-134.415305038
 10
-39.2320374088
 20
-134.3705956159
 10
-39.3545444312
 20
-134.3476348641
 10
-39.4700909596
 20
-134.3474974897
 10
-39.5790814629
 20
-134.3691087856
 10
-39.6761737703
 20
-134.411465793
 10
-39.7608578592
 20
-134.4760213326
 10
-39.8336437522
 20
-134.5613225836
 10
-39.890719346
 20
-134.6620081252
 10
-39.9308139392
 20
-134.776290817
 10
-39.9551982332
 20
-134.9059577993
 10
-39.9638722279
 20
-135.0510090722
  0
LWPOLYLINE
  5
2B3
100
AcDbEntity
  8
RACCORDO
100
AcDbPolyline
 62
7
  6
CONTINUOUS
 90
22
 70
0
 10
-40.1396081592
 20
-134.8060444568
 10
-40.1289089155
 20
-135.0126877948
 10
-40.0979203991
 20
-135.2205261516
 10
-40.0482079314
 20
-135.4275853743
 10
-39.9810976936
 20
-135.6323427424
 10
-39.8977817873
 20
-135.8331676941
 10
-39.7996381578
 20
-136.027865567
 10
-39.6880645442
 20
-136.2143745871
 10
-39.564038758
 20
-136.3913114994
 10
-39.4283001429
 20
-136.5573490322
 10
-39.2802502072
 20
-136.7121633578
 10
-39.1220327801
 20
-136.8521654009
 10
-38.9585675283
 20
-136.972603236
 10
-38.7908654115
 20
-137.0728700653
 10
-38.6197817805
 20
-137.1522649969
 10
-38.450439817
 20
-137.2087721146
 10
-38.2856917322
 20
-137.2427499074
 10
-38.1250273623
 20
-137.2554960401
 10
-37.9693242167
 20
-137.2476562067
 10
-37.820274372
 20
-137.2199406947
 10
-37.6798099166
 20
-137.1734559732
 10
-37.5496103452
 20
-137.1096516558
  0
LINE
  5
2B4
100
AcDbEntity
  8
RACCORDO
100
AcDbLine
 62
253
  6
CONTINUOUS
 10
-37.1354451031
 20
-136.1941779335
 11
-37.1450074646
 21
-135.9990843605
  0
LWPOLYLINE
  5
2B5
100
AcDbEntity
  8
0
100
AcDbPolyline
 62
7
  6
CONTINUOUS
 90
31
 70
0
 10
-33.49384518
 20
-128.5806064117
 10
-33.4928540667
 20
-128.6241028085
 10
-33.4899521807
 20
-128.6683530181
 10
-33.4851395222
 20
-128.7133570404
 10
-33.4783924685
 20
-128.7592421277
 10
-33.4697346422
 20
-128.8058810278
 10
-33.4592369108
 20
-128.8528919835
 10
-33.4468841729
 20
-128.9002780486
 10
-33.43269153
 20
-128.9480361695
 10
-33.4167751542
 20
-128.9957754277
 10
-33.3991208975
 20
-129.0434956684
 10
-33.3797429079
 20
-129.0911970466
 10
-33.3587998017
 20
-129.1384891083
 10
-33.3362787326
 20
-129.1853684939
 10
-33.3121925468
 20
-129.2318385631
 10
-33.2867383988
 20
-129.2775189408
 10
-33.2599050608
 20
-129.3224031453
 10
-33.2317037606
 20
-129.3664976583
 10
-33.2023653366
 20
-129.4094415495
 10
-33.1718804555
 20
-129.4512253748
 10
-33.1402584505
 20
-129.4918585782
 10
-33.1077581598
 20
-129.5310085618
 10
-33.0743723745
 20
-129.5686631514
 10
-33.0401083035
 20
-129.604834521
 10
-33.0052464111
 20
-129.6392265944
 10
-32.9697817905
 20
-129.6718247674
 10
-32.9337193485
 20
-129.702643644
 10
-32.8973542699
 20
-129.7314309602
 10
-32.8607849495
 20
-129.7581026279
 10
-32.8239129925
 20
-129.7827427351
 10
-32.7867383988
 20
-129.8053512818
  0
LINE
  5
2B6
100
AcDbEntity
  8
0
100
AcDbLine
 62
7
  6
CONTINUOUS
 10
-49.0501943661
 20
157.6646830144
 11
-49.0501943661
 21
-121.2316637318
  0
LINE
  5
2B7
100
AcDbEntity
  8
0
100
AcDbLine
 62
7
  6
CONTINUOUS
 10
-34.9080587424
 20
-129.3971555983
 11
-34.9080587424
 21
149.3674403568
  0
LINE
  5
2B8
100
AcDbEntity
  8
0
100
AcDbLine
 62
7
  6
CONTINUOUS
 10
-33.49384518
 20
-128.5806064117
 11
-33.49384518
 21
148.5444783959
  0
LWPOLYLINE
  5
2B9
100
AcDbEntity
  8
0
100
AcDbPolyline
 62
7
  6
CONTINUOUS
 90
16
 70
0
 10
-49.0501943661
 20
-121.2316637318
 10
-49.0511854795
 20
-121.2740156158
 10
-49.0540873654
 20
-121.3149148002
 10
-49.058900024
 20
-121.354361285
 10
-49.0656470777
 20
-121.3924550438
 10
-49.074304904
 20
-121.4290961031
 10
-49.0848026354
 20
-121.4639845418
 10
-49.0971553733
 20
-121.4971059748
 10
-49.1113480162
 20
-121.5284747874
 10
-49.127264392
 20
-121.5578342137
 10
-49.1449186487
 20
-121.5851677614
 10
-49.1642966382
 20
-121.6104919229
 10
-49.1852397445
 20
-121.6335994104
 10
-49.2077608136
 20
-121.65447203
 10
-49.2318469994
 20
-121.6731279757
 10
-49.2572769872
 20
-121.6894005929
  0
LWPOLYLINE
  5
2BA
100
AcDbEntity
  8
ASSI
100
AcDbPolyline
 62
7
  6
CONTINUOUS
 90
8
 70
0
 10
-50.9364831359
 20
-44.6833676247
 10
-50.93823311
 20
-44.6898956851
 10
-50.9554240626
 20
-44.7681411503
 10
-50.9695559199
 20
-44.8490235139
 10
-50.9805601018
 20
-44.932150263
 10
-50.9884137482
 20
-45.0173905598
 10
-50.993139719
 20
-45.1048752421
 10
-50.9947380144
 20
-45.1946043099
  0
LWPOLYLINE
  5
2BB
100
AcDbEntity
  8
RACCORDO
100
AcDbPolyline
 62
7
  6
CONTINUOUS
 90
20
 70
0
 10
-108.9258759642
 20
-95.2356465297
 10
-108.9261531676
 20
-95.236114011
 10
-108.9225714155
 20
-95.227729869
 10
-108.9157822727
 20
-95.2043614541
 10
-108.9092880267
 20
-95.1661247572
 10
-108.9058527436
 20
-95.1134215718
 10
-108.9077350192
 20
-95.0475258405
 10
-108.9166464762
 20
-94.969913829
 10
-108.934054329
 20
-94.8814677149
 10
-108.9608641137
 20
-94.7846460338
 10
-108.9971804228
 20
-94.6827670175
 10
-109.0429811223
 20
-94.578041147
 10
-109.0976579906
 20
-94.4732660552
 10
-109.1593293415
 20
-94.372495719
 10
-109.2264731889
 20
-94.2779900503
 10
-109.2972697205
 20
-94.1918337116
 10
-109.3684187853
 20
-94.1170223863
 10
-109.4371784458
 20
-94.0548374425
 10
-109.5018095118
 20
-94.0051026293
 10
-109.5603512802
 20
-93.9675414131
  0
LINE
  5
2BC
100
AcDbEntity
  8
0
100
AcDbLine
 62
7
  6
CONTINUOUS
 10
-104.2045232987
 20
-2.0236891058
 11
-103.4974165175
 21
-1.6154145125
  0
LINE
  5
2BD
100
AcDbEntity
  8
ASSI
100
AcDbLine
 62
253
  6
CONTINUOUS
 10
121.3625398998
 20
115.9465205227
 11
76.2137719211
 21
89.8781877388
  0
LWPOLYLINE
  5
2BE
100
AcDbEntity
  8
0
100
AcDbPolyline
 62
253
  6
CONTINUOUS
 90
21
 70
0
 10
121.3625398998
 20
115.9465205227
 10
121.4479568577
 20
115.9938527271
 10
121.533235269
 20
116.037135205
 10
121.6182368118
 20
116.0762977523
 10
121.7028236132
 20
116.1112768472
 10
121.7868584733
 20
116.1420157533
 10
121.870205087
 20
116.1684646122
 10
121.952728266
 20
116.1905805236
 10
122.0342941572
 20
116.2083276155
 10
122.1147704606
 20
116.2216771019
 10
122.1940266433
 20
116.2306073301
 10
122.2719341515
 20
116.2351038151
 10
122.3483666188
 20
116.2351592637
 10
122.4232000716
 20
116.2307735858
 10
122.4963131297
 20
116.2219538951
 10
122.5675872035
 20
116.2087144971
 10
122.6369066862
 20
116.1910768662
 10
122.7041591413
 20
116.1690696107
 10
122.769235485
 20
116.1427284265
 10
122.8320301634
 20
116.1120960389
 10
122.8626123802
 20
116.0951440558
  0
LINE
  5
2BF
100
AcDbEntity
  8
RACCORDO
100
AcDbLine
 62
253
  6
CONTINUOUS
 10
-108.9185310893
 20
5.620256228
 11
-108.9615911637
 21
5.6054682781
  0
LWPOLYLINE
  5
2C0
100
AcDbEntity
  8
RACCORDO
100
AcDbPolyline
 62
7
  6
CONTINUOUS
 90
6
 70
0
 10
-109.5603512802
 20
6.8665377708
 10
-109.6013913223
 20
6.8882234443
 10
-109.6355801537
 20
6.9028650565
 10
-109.6616954699
 20
6.9114143583
 10
-109.6787563983
 20
6.9152613769
 10
-109.6837322252
 20
6.9159781499
  0
LINE
  5
2C1
100
AcDbEntity
  8
0
100
AcDbLine
 62
7
  6
CONTINUOUS
 10
-103.4974165175
 20
14.7139910234
 11
-104.2045232987
 21
15.1222656167
  0
LINE
  5
2C2
100
AcDbEntity
  8
ASSI
100
AcDbLine
 62
7
  6
CONTINUOUS
 10
-127.2732591262
 20
140.7282808961
 11
-129.6390489704
 21
144.9630996321
  0
LINE
  5
2C3
100
AcDbEntity
  8
ASSI
100
AcDbLine
 62
7
  6
CONTINUOUS
 10
-125.8590455638
 20
139.9117317094
 11
-128.224835408
 21
144.1465504454
  0
LWPOLYLINE
  5
2C4
100
AcDbEntity
  8
ASSI
100
AcDbPolyline
 62
7
  6
CONTINUOUS
 90
22
 70
0
 10
-129.6390489704
 20
144.9630996321
 10
-129.8028973398
 20
145.2673049077
 10
-129.9591105106
 20
145.5795318232
 10
-130.1076884829
 20
145.8997803785
 10
-130.2486934817
 20
146.2282075473
 10
-130.3820632819
 20
146.564656356
 10
-130.5076112084
 20
146.9086558833
 10
-130.6253263077
 20
147.2602167026
 10
-130.7352195332
 20
147.6193282405
 10
-130.8371370694
 20
147.985487855
 10
-130.9310677475
 20
148.3587054158
 10
-131.0170227362
 20
148.7389710533
 10
-131.0948817259
 20
149.1257525165
 10
-131.1646333795
 20
149.5190589298
 10
-131.226289034
 20
149.9188811688
 10
-131.2797623912
 20
150.3246596096
 10
-131.3250419932
 20
150.736402593
 10
-131.3621392978
 20
151.1541017781
 10
-131.3910023807
 20
151.5771725191
 10
-131.4116139336
 20
152.005419934
 10
-131.4239912649
 20
152.4390389047
 10
-131.4281343744
 20
152.8780294313
  0
LWPOLYLINE
  5
2C5
100
AcDbEntity
  8
ASSI
100
AcDbPolyline
 62
7
  6
CONTINUOUS
 90
22
 70
0
 10
-127.2732591262
 20
140.7282808961
 10
-127.1421804307
 20
140.4849166755
 10
-127.017209894
 20
140.2351351432
 10
-126.8983475162
 20
139.9789362989
 10
-126.7855435171
 20
139.7161945638
 10
-126.6788476769
 20
139.4470355169
 10
-126.5784093358
 20
139.1718358951
 10
-126.4842372563
 20
138.8905872396
 10
-126.3963226759
 20
138.6032980093
 10
-126.314788647
 20
138.3103703177
 10
-126.2396441045
 20
138.0117962691
 10
-126.1708801135
 20
137.7075837591
 10
-126.1085929218
 20
137.3981585885
 10
-126.0527915989
 20
137.0835134579
 10
-126.0034670753
 20
136.7636556667
 10
-125.9606883895
 20
136.439032914
 10
-125.9244647079
 20
136.1096385273
 10
-125.8947868643
 20
135.7754791792
 10
-125.871696398
 20
135.4370225864
 10
-125.8552071556
 20
135.0944246545
 10
-125.8453052906
 20
134.747529478
 10
-125.841990803
 20
134.3963370567
  0
LWPOLYLINE
  5
2C6
100
AcDbEntity
  8
ASSI
100
AcDbPolyline
 62
7
  6
CONTINUOUS
 90
22
 70
0
 10
-128.224835408
 20
144.1465504454
 10
-128.3886837774
 20
144.4507557211
 10
-128.5448969482
 20
144.7629826365
 10
-128.6934749205
 20
145.0832311918
 10
-128.8344799193
 20
145.4116583607
 10
-128.9678497196
 20
145.7481071694
 10
-129.093397646
 20
146.0921066966
 10
-129.2111127454
 20
146.443667516
 10
-129.3210059709
 20
146.8027790538
 10
-129.422923507
 20
147.1689386683
 10
-129.5168541851
 20
147.5421562291
 10
-129.6028091738
 20
147.9224218666
 10
-129.6806681635
 20
148.3092033298
 10
-129.7504198171
 20
148.7025097431
 10
-129.8120754716
 20
149.1023319821
 10
-129.8655488289
 20
149.508110423
 10
-129.9108284308
 20
149.9198534063
 10
-129.9479257354
 20
150.3375525915
 10
-129.9767888183
 20
150.7606233325
 10
-129.9974003713
 20
151.1888707473
 10
-130.0097777025
 20
151.622489718
 10
-130.013920812
 20
152.0614802446
  0
LWPOLYLINE
  5
2C7
100
AcDbEntity
  8
ASSI
100
AcDbPolyline
 62
7
  6
CONTINUOUS
 90
22
 70
0
 10
-125.8590455638
 20
139.9117317094
 10
-125.7279668683
 20
139.6683674889
 10
-125.6029963316
 20
139.4185859565
 10
-125.4841339538
 20
139.1623871123
 10
-125.3713299548
 20
138.8996453772
 10
-125.2646341146
 20
138.6304863302
 10
-125.1641957734
 20
138.3552867084
 10
-125.0700236939
 20
138.074038053
 10
-124.9821091135
 20
137.7867488227
 10
-124.9005750846
 20
137.4938211311
 10
-124.8254305421
 20
137.1952470824
 10
-124.7566665511
 20
136.8910345724
 10
-124.6943793594
 20
136.5816094019
 10
-124.6385780365
 20
136.2669642712
 10
-124.5892535129
 20
135.94710648
 10
-124.5464748271
 20
135.6224837274
 10
-124.5102511456
 20
135.2930893407
 10
-124.4805733019
 20
134.9589299926
 10
-124.4574828356
 20
134.6204733998
 10
-124.4409935932
 20
134.2778754679
 10
-124.4310917282
 20
133.9309802913
 10
-124.4277772406
 20
133.5797878701
  0
LWPOLYLINE
  5
2C8
100
AcDbEntity
  8
0
100
AcDbPolyline
 62
7
  6
CONTINUOUS
 90
17
 70
0
 10
-8.0380010573
 20
-151.0351172207
 10
-8.0110675797
 20
-151.3678414221
 10
-7.9312930347
 20
-151.7189943669
 10
-7.8017160099
 20
-152.0752007485
 10
-7.6237874949
 20
-152.428942279
 10
-7.4105082991
 20
-152.7543719143
 10
-7.1672631522
 20
-153.0454177772
 10
-6.9033171864
 20
-153.2909940214
 10
-6.6237874949
 20
-153.484606961
 10
-6.3490986412
 20
-153.6121097633
 10
-6.0848726005
 20
-153.6725578252
 10
-5.8411736607
 20
-153.6636486987
 10
-5.6237874949
 20
-153.5837172131
 10
-5.4485979884
 20
-153.4386037702
 10
-5.318171085
 20
-153.2330443762
 10
-5.237474705
 20
-152.9748687245
 10
-5.2095739326
 20
-152.6682154513
  0
LWPOLYLINE
  5
2C9
100
AcDbEntity
  8
0
100
AcDbPolyline
 62
7
  6
CONTINUOUS
 90
17
 70
0
 10
-5.2095739326
 20
-152.668215594
 10
-5.2365074102
 20
-152.3354913926
 10
-5.3162819552
 20
-151.9843384478
 10
-5.4458589799
 20
-151.6281320663
 10
-5.6237874949
 20
-151.2743905357
 10
-5.8370666908
 20
-150.9489609005
 10
-6.0803118377
 20
-150.6579150375
 10
-6.3442578035
 20
-150.4123387933
 10
-6.6237874949
 20
-150.2187258538
 10
-6.8984763487
 20
-150.0912230514
 10
-7.1627023894
 20
-150.0307749896
 10
-7.4064013292
 20
-150.039684116
 10
-7.6237874949
 20
-150.1196156016
 10
-7.7989770015
 20
-150.2647290445
 10
-7.9294039049
 20
-150.4702884386
 10
-8.0101002849
 20
-150.7284640902
 10
-8.0380010573
 20
-151.0351173635
  0
LWPOLYLINE
  5
2CA
100
AcDbEntity
  8
ASSI
100
AcDbPolyline
 62
7
  6
CONTINUOUS
 90
37
 70
0
 10
-30.3118646647
 20
-78.7732563194
 10
-30.3147377853
 20
-78.5575430062
 10
-30.3232842317
 20
-78.339161005
 10
-30.3375040041
 20
-78.1181103158
 10
-30.3574213383
 20
-77.8941763316
 10
-30.3830119984
 20
-77.6675736595
 10
-30.4142032764
 20
-77.4389461204
 10
-30.4510111
 20
-77.2082879559
 10
-30.4934195415
 20
-76.9756049245
 10
-30.5413081106
 20
-76.7415581227
 10
-30.5946923921
 20
-76.5061436721
 10
-30.6535568012
 20
-76.269365451
 10
-30.717734093
 20
-76.0318961912
 10
-30.7872393766
 20
-75.7937339275
 10
-30.8620575429
 20
-75.5548806251
 10
-30.9419760193
 20
-75.3160149113
 10
-31.0270093104
 20
-75.077136751
 10
-31.1171429117
 20
-74.8382461793
 10
-31.2121207365
 20
-74.6000219297
 10
-31.3119565611
 20
-74.362465897
 10
-31.4166366092
 20
-74.1255761862
 10
-31.525863465
 20
-73.890025846
 10
-31.6396500591
 20
-73.6558186852
 10
-31.7579834608
 20
-73.4229508948
 10
-31.8805274626
 20
-73.1920840964
 10
-32.007294039
 20
-72.9632239805
 10
-32.1382712155
 20
-72.7363648564
 10
-32.2730868611
 20
-72.5121512739
 10
-32.4117518921
 20
-72.2905907567
 10
-32.5542553922
 20
-72.071675781
 10
-32.7001924821
 20
-71.8560283257
 10
-32.8495729265
 20
-71.6436576833
 10
-33.0023869607
 20
-71.4345545613
 10
-33.158200411
 20
-71.2293130612
 10
-33.3170218076
 20
-71.0279441652
 10
-33.4788426203
 20
-70.830436891
 10
-33.49384518
 20
-70.8128124478
  0
LWPOLYLINE
  5
2CB
100
AcDbEntity
  8
RACCORDO
100
AcDbPolyline
 62
253
  6
CONTINUOUS
 90
6
 70
0
 10
-108.0787776694
 20
-96.129700717
 10
-107.9965488156
 20
-96.0127258222
 10
-107.9314104416
 20
-95.875972459
 10
-107.8842433993
 20
-95.721289852
 10
-107.8556855947
 20
-95.5507699053
 10
-107.8461232218
 20
-95.3667186008
  0
LWPOLYLINE
  5
2CC
100
AcDbEntity
  8
RACCORDO
100
AcDbPolyline
 62
253
  6
CONTINUOUS
 90
3
 70
0
 10
-109.7196161468
 20
-93.9788109842
 10
-109.6749655796
 20
-93.9289723311
 10
-109.6650746708
 20
-93.9219028595
  0
LWPOLYLINE
  5
2CD
100
AcDbEntity
  8
0
100
AcDbPolyline
 62
253
  6
CONTINUOUS
 90
21
 70
0
 10
130.5549280553
 20
100.0248372112
 10
130.6386246185
 20
100.0751492265
 10
130.7187446362
 20
100.1273663041
 10
130.7951581535
 20
100.1814037479
 10
130.8677412274
 20
100.2371739088
 10
130.9363761277
 20
100.2945863275
 10
131.0009515286
 20
100.3535478807
 10
131.0613626884
 20
100.4139629327
 10
131.11751162
 20
100.4757334901
 10
131.1693072497
 20
100.5387593606
 10
131.2166655647
 20
100.6029383162
 10
131.2595097497
 20
100.6681662583
 10
131.2977703112
 20
100.734337387
 10
131.3313851906
 20
100.8013443725
 10
131.3602998642
 20
100.8690785292
 10
131.3844674325
 20
100.937429992
 10
131.4038486956
 20
101.0062878947
 10
131.4184122169
 20
101.0755405494
 10
131.4281343744
 20
101.1450756281
 10
131.4329993986
 20
101.2147803446
 10
131.4336077117
 20
101.2496609912
  0
LINE
  5
2CE
100
AcDbEntity
  8
ASSI
100
AcDbLine
 62
253
  6
CONTINUOUS
 10
130.5549280553
 20
100.0248372112
 11
87.7749677935
 21
75.3242243149
  0
LWPOLYLINE
  5
2CF
100
AcDbEntity
  8
ASSI
100
AcDbPolyline
 62
7
  6
CONTINUOUS
 90
42
 70
0
 10
21.6604837525
 20
-87.2373310391
 10
21.6487036726
 20
-87.2157875964
 10
21.5932670407
 20
-87.1197685335
 10
21.5357411433
 20
-87.0252661896
 10
21.4761158248
 20
-86.9322879372
 10
21.4144012408
 20
-86.840826404
 10
21.3508968852
 20
-86.7513254423
 10
21.2855940583
 20
-86.6637945821
 10
21.2185014598
 20
-86.5782242936
 10
21.1499446825
 20
-86.4950298397
 10
21.0799166095
 20
-86.4142227688
 10
21.0084243576
 20
-86.3357915325
 10
20.9358148709
 20
-86.2601167488
 10
20.8620827186
 20
-86.1872118162
 10
20.7872333315
 20
-86.1170633361
 10
20.7116299451
 20
-86.0500117314
 10
20.6352688944
 20
-85.9860720552
 10
20.5581538446
 20
-85.9252292543
 10
20.4806590261
 20
-85.8677785919
 10
20.4027825932
 20
-85.8137365565
 10
20.3245263917
 20
-85.7630866597
 10
20.2462701902
 20
-85.7160746998
 10
20.1680139886
 20
-85.6727183598
 10
20.0897577871
 20
-85.6329999566
 10
20.0118813542
 20
-85.5971122393
 10
19.9343865357
 20
-85.5650738278
 10
19.8572714859
 20
-85.5368661021
 10
19.7809104352
 20
-85.5126259511
 10
19.7053070488
 20
-85.4923726603
 10
19.6304576617
 20
-85.4760869441
 10
19.5567255094
 20
-85.4638478355
 10
19.4841160227
 20
-85.4556750039
 10
19.4126237708
 20
-85.4515487798
 10
19.3425956978
 20
-85.4514891873
 10
19.2740389205
 20
-85.4555159932
 10
19.206946322
 20
-85.4636094307
 10
19.1416434951
 20
-85.4757302233
 10
19.0781391395
 20
-85.4918979469
 10
19.0164245555
 20
-85.5120930255
 10
18.956799237
 20
-85.5362174547
 10
18.8992733396
 20
-85.5642903341
 10
18.8712106112
 20
-85.5798483447
  0
LWPOLYLINE
  5
2D0
100
AcDbEntity
  8
ASSI
100
AcDbPolyline
 62
7
  6
CONTINUOUS
 90
53
 70
0
 10
-7.861224362
 20
-151.137185869
 10
-7.8599198895
 20
-151.2031944287
 10
-7.8560780382
 20
-151.2702653448
 10
-7.8496988083
 20
-151.3383986173
 10
-7.8407584923
 20
-151.4077396655
 10
-7.8292807976
 20
-151.47814307
 10
-7.8153368462
 20
-151.5491725733
 10
-7.7989113244
 20
-151.6208320629
 10
-7.7800195458
 20
-151.6931176511
 10
-7.7587785743
 20
-151.7655814171
 10
-7.7351738229
 20
-151.8382244673
 10
-7.7092198786
 20
-151.9110456954
 10
-7.6810775661
 20
-151.9835938614
 10
-7.650733297
 20
-152.0558672697
 10
-7.6182006598
 20
-152.127867616
 10
-7.5836812443
 20
-152.1991487468
 10
-7.5471627139
 20
-152.2697061964
 10
-7.5086574052
 20
-152.3395444306
 10
-7.4684039181
 20
-152.4082306937
 10
-7.4263913975
 20
-152.4757578328
 10
-7.3826306984
 20
-152.5421330008
 10
-7.337392986
 20
-152.6069449011
 10
-7.290669089
 20
-152.6701838268
 10
-7.2424681786
 20
-152.7318594847
 10
-7.1930889339
 20
-152.7915896991
 10
-7.1425240382
 20
-152.8493623899
 10
-7.0907808082
 20
-152.905189637
 10
-7.0381798731
 20
-152.9587255046
 10
-6.9847159071
 20
-153.0099557646
 10
-6.9303942359
 20
-153.0588946449
 10
-6.8755514663
 20
-153.1052388938
 10
-6.8201843625
 20
-153.1489724001
 10
-6.7642961602
 20
-153.1901112749
 10
-6.7082331731
 20
-153.2284005994
 10
-6.6519943159
 20
-153.2638226796
 10
-6.5955806739
 20
-153.2963952094
 10
-6.5393418167
 20
-153.3259163518
 10
-6.4832788296
 20
-153.3523671596
 10
-6.4273906274
 20
-153.3757665799
 10
-6.3720235236
 20
-153.3959696172
 10
-6.3171807539
 20
-153.412956424
 10
-6.2628590828
 20
-153.4267468479
 10
-6.2093951168
 20
-153.4372554358
 10
-6.1567941817
 20
-153.4444618096
 10
-6.1050509517
 20
-153.4483863474
 10
-6.054486056
 20
-153.4490047307
 10
-6.0051068113
 20
-153.4462964304
 10
-5.9569059009
 20
-153.4402819756
 10
-5.9101820038
 20
-153.430998635
 10
-5.8649442914
 20
-153.4184261111
 10
-5.8211835924
 20
-153.4025847015
 10
-5.7791710718
 20
-153.3835725682
 10
-5.748749237
 20
-153.3671794879
  0
LWPOLYLINE
  5
2D1
100
AcDbEntity
  8
ASSI
100
AcDbPolyline
 62
7
  6
CONTINUOUS
 90
53
 70
0
 10
-5.3863506279
 20
-152.5661469457
 10
-5.3876551004
 20
-152.500138386
 10
-5.3914969517
 20
-152.43306747
 10
-5.3978761816
 20
-152.3649341975
 10
-5.4068164976
 20
-152.2955931493
 10
-5.4182941923
 20
-152.2251897447
 10
-5.4322381436
 20
-152.1541602415
 10
-5.4486636655
 20
-152.0825007519
 10
-5.4675554441
 20
-152.0102151637
 10
-5.4887964156
 20
-151.9377513977
 10
-5.512401167
 20
-151.8651083474
 10
-5.5383551113
 20
-151.7922871193
 10
-5.5664974238
 20
-151.7197389534
 10
-5.5968416929
 20
-151.647465545
 10
-5.6293743301
 20
-151.5754651988
 10
-5.6638937456
 20
-151.5041840679
 10
-5.700412276
 20
-151.4336266183
 10
-5.7389175847
 20
-151.3637883841
 10
-5.7791710718
 20
-151.295102121
 10
-5.8211835924
 20
-151.2275749819
 10
-5.8649442914
 20
-151.161199814
 10
-5.9101820038
 20
-151.0963879137
 10
-5.9569059009
 20
-151.033148988
 10
-6.0051068113
 20
-150.97147333
 10
-6.054486056
 20
-150.9117431156
 10
-6.1050509517
 20
-150.8539704249
 10
-6.1567941817
 20
-150.7981431777
 10
-6.2093951168
 20
-150.7446073101
 10
-6.2628590828
 20
-150.6933770502
 10
-6.3171807539
 20
-150.6444381698
 10
-6.3720235236
 20
-150.598093921
 10
-6.4273906274
 20
-150.5543604147
 10
-6.4832788296
 20
-150.5132215398
 10
-6.5393418167
 20
-150.4749322154
 10
-6.5955806739
 20
-150.4395101352
 10
-6.6519943159
 20
-150.4069376053
 10
-6.7082331731
 20
-150.3774164629
 10
-6.7642961602
 20
-150.3509656551
 10
-6.8201843625
 20
-150.3275662348
 10
-6.8755514663
 20
-150.3073631975
 10
-6.9303942359
 20
-150.2903763907
 10
-6.9847159071
 20
-150.2765859669
 10
-7.0381798731
 20
-150.266077379
 10
-7.0907808082
 20
-150.2588710052
 10
-7.1425240382
 20
-150.2549464673
 10
-7.1930889339
 20
-150.254328084
 10
-7.2424681786
 20
-150.2570363843
 10
-7.290669089
 20
-150.2630508392
 10
-7.337392986
 20
-150.2723341797
 10
-7.3826306984
 20
-150.2849067036
 10
-7.4263913975
 20
-150.3007481133
 10
-7.4684039181
 20
-150.3197602466
 10
-7.4988257529
 20
-150.3361533268
  0
LWPOLYLINE
  5
2D2
100
AcDbEntity
  8
ASSI
100
AcDbPolyline
 62
7
  6
CONTINUOUS
 90
47
 70
0
 10
16.945767858
 20
107.1763161854
 10
16.9440178839
 20
107.1697881249
 10
16.9268269313
 20
107.0915426598
 10
16.912695074
 20
107.0106602961
 10
16.9016908921
 20
106.9275335471
 10
16.8938295885
 20
106.8421515032
 10
16.8890959604
 20
106.7545250738
 10
16.8875129795
 20
106.6650795002
 10
16.8890959604
 20
106.57380594
 10
16.8938295885
 20
106.4807132355
 10
16.9016908921
 20
106.3862531553
 10
16.912695074
 20
106.2904190528
 10
16.9268269313
 20
106.1932175745
 10
16.9440178839
 20
106.0951204283
 10
16.964282801
 20
105.9961232605
 10
16.9876068134
 20
105.8962304248
 10
17.013876732
 20
105.7959266899
 10
17.0431068764
 20
105.6952100586
 10
17.075282927
 20
105.594082528
 10
17.1102487373
 20
105.4930348587
 10
17.1480178674
 20
105.392067439
 10
17.1885767572
 20
105.2911798806
 10
17.2317285787
 20
105.1908617795
 10
17.2774859357
 20
105.0911159037
 10
17.3258362246
 20
104.9919394853
 10
17.3765448068
 20
104.8938138163
 10
17.4296231453
 20
104.796744004
 10
17.4850597772
 20
104.7007249411
 10
17.5425856747
 20
104.6062225972
 10
17.6022109931
 20
104.5132443448
 10
17.6639255771
 20
104.4217828115
 10
17.7274299327
 20
104.3322818499
 10
17.7927327596
 20
104.2447509897
 10
17.8598253581
 20
104.1591807012
 10
17.9283821354
 20
104.0759862473
 10
17.9984102084
 20
103.9951791764
 10
18.0699024603
 20
103.9167479401
 10
18.142511947
 20
103.8410731564
 10
18.2162440993
 20
103.7681682238
 10
18.2910934865
 20
103.6980197437
 10
18.3666968729
 20
103.630968139
 10
18.4430579235
 20
103.5670284628
 10
18.5201729734
 20
103.5061856619
 10
18.5976677918
 20
103.4487349995
 10
18.6754176352
 20
103.3947748969
 10
18.7535472472
 20
103.3442069328
 10
18.8320566278
 20
103.2970311074
  0
LWPOLYLINE
  5
2D3
100
AcDbEntity
  8
ASSI
100
AcDbPolyline
 62
7
  6
CONTINUOUS
 90
22
 70
0
 10
-68.090272601
 20
-51.3054315889
 10
-68.0979656854
 20
-51.3131381293
 10
-68.2026457335
 20
-51.4291459444
 10
-68.3024815582
 20
-51.5514140693
 10
-68.3974593829
 20
-51.6799603077
 10
-68.4875929842
 20
-51.8147668558
 10
-68.5726262753
 20
-51.955450703
 10
-68.6525447517
 20
-52.1020285634
 10
-68.727362918
 20
-52.2544837228
 10
-68.7968682016
 20
-52.4123830272
 10
-68.8610454934
 20
-52.5757419591
 10
-68.9199099025
 20
-52.7445450361
 10
-68.973294184
 20
-52.9183126565
 10
-69.0211827531
 20
-53.0970589391
 10
-69.0635911947
 20
-53.2807697652
 10
-69.1003990182
 20
-53.4689231777
 10
-69.1315902963
 20
-53.6615318107
 10
-69.1571809564
 20
-53.85858303
 10
-69.1770982906
 20
-54.0595169759
 10
-69.1913180629
 20
-54.2641470284
 10
-69.1998645094
 20
-54.4726598075
 10
-69.2027376299
 20
-54.6850553131
  0
LINE
  5
2D4
100
AcDbEntity
  8
0
100
AcDbLine
 62
7
  6
CONTINUOUS
 10
-87.2339605502
 20
-42.2331142208
 11
-104.2045232987
 21
-52.0317044607
  0
LINE
  5
2D5
100
AcDbEntity
  8
0
100
AcDbLine
 62
7
  6
CONTINUOUS
 10
-87.2339605502
 20
-43.0495055878
 11
-85.8197469878
 21
-42.2329564011
  0
LWPOLYLINE
  5
2D6
100
AcDbEntity
  8
0
100
AcDbPolyline
 62
7
  6
CONTINUOUS
 90
31
 70
0
 10
-87.2339605502
 20
-42.2331142208
 10
-87.1957973103
 20
-42.2122237794
 10
-87.1560269189
 20
-42.1926113341
 10
-87.114649376
 20
-42.1742768848
 10
-87.0715431437
 20
-42.1571774324
 10
-87.0268297598
 20
-42.141355976
 10
-86.9808738386
 20
-42.1269415137
 10
-86.9336652708
 20
-42.1139454134
 10
-86.8852141657
 20
-42.1023563071
 10
-86.8359154651
 20
-42.0922690881
 10
-86.7857612263
 20
-42.0836959006
 10
-86.7347593921
 20
-42.0766246004
 10
-86.6833287315
 20
-42.0711136489
 10
-86.6314653783
 20
-42.0671760542
 10
-86.5791731987
 20
-42.0647988081
 10
-86.5268825614
 20
-42.0640013474
 10
-86.4745954742
 20
-42.0647965547
 10
-86.4223099293
 20
-42.0671715473
 10
-86.3704502714
 20
-42.0711071133
 10
-86.3190173938
 20
-42.0766163346
 10
-86.2680104031
 20
-42.0836861293
 10
-86.2178509641
 20
-42.0922580393
 10
-86.1685486679
 20
-42.1023439134
 10
-86.1200939234
 20
-42.1139319028
 10
-86.0728796224
 20
-42.1269280032
 10
-86.0269138374
 20
-42.1413443132
 10
-85.9821884959
 20
-42.1571687341
 10
-85.9390722727
 20
-42.1742709654
 10
-85.8976880595
 20
-42.1926075735
 10
-85.8579129645
 20
-42.212221992
 10
-85.8197469878
 20
-42.2331142208
  0
LWPOLYLINE
  5
2D7
100
AcDbEntity
  8
ASSI
100
AcDbPolyline
 62
7
  6
CONTINUOUS
 90
35
 70
0
 10
91.9468978025
 20
-127.4282815518
 10
91.9291795785
 20
-127.4056836264
 10
91.8606228012
 20
-127.3224891725
 10
91.7905947281
 20
-127.2416821015
 10
91.7191024763
 20
-127.1632508652
 10
91.6464929895
 20
-127.0875760816
 10
91.5727608373
 20
-127.0146711489
 10
91.4979114501
 20
-126.9445226689
 10
91.4223080637
 20
-126.8774710642
 10
91.3459470131
 20
-126.813531388
 10
91.2688319632
 20
-126.752688587
 10
91.1913371448
 20
-126.6952379247
 10
91.1134607118
 20
-126.6411958893
 10
91.0352045103
 20
-126.5905459925
 10
90.9569483088
 20
-126.5435340325
 10
90.8786921073
 20
-126.5001776925
 10
90.8004359058
 20
-126.4604592894
 10
90.7225594728
 20
-126.4245715721
 10
90.6450646544
 20
-126.3925331606
 10
90.5679496045
 20
-126.3643254349
 10
90.4915885539
 20
-126.3400852839
 10
90.4159851675
 20
-126.319831993
 10
90.3411357803
 20
-126.3035462769
 10
90.2674036281
 20
-126.2913071683
 10
90.1947941413
 20
-126.2831343367
 10
90.1233018895
 20
-126.2790081126
 10
90.0532738164
 20
-126.27894852
 10
89.9847170391
 20
-126.282975326
 10
89.9176244406
 20
-126.2910687635
 10
89.8523216137
 20
-126.3031895561
 10
89.7888172581
 20
-126.3193572796
 10
89.7271026741
 20
-126.3395523583
 10
89.6674773557
 20
-126.3636767875
 10
89.6099514582
 20
-126.3917496669
 10
89.5818887298
 20
-126.4073076774
  0
LWPOLYLINE
  5
2D8
100
AcDbEntity
  8
RACCORDO
100
AcDbPolyline
 62
253
  6
CONTINUOUS
 90
20
 70
0
 10
26.1124916809
 20
-172.3361628067
 10
26.0653246935
 20
-172.1270130102
 10
26.0001864023
 20
-171.9150396364
 10
25.9179576521
 20
-171.7031090645
 10
25.8197501638
 20
-171.4940867375
 10
25.7068915755
 20
-171.2907988066
 10
25.5809082607
 20
-171.0959950533
 10
25.4435046613
 20
-170.9123109797
 10
25.2965396064
 20
-170.7422311199
 10
25.1420001169
 20
-170.5880546513
 10
24.9819751915
 20
-170.4518656515
 10
24.8186282577
 20
-170.3355056025
 10
24.6541688643
 20
-170.2405487681
 10
24.4908218903
 20
-170.1682797728
 10
24.3307968571
 20
-170.1196758925
 10
24.17625723
 20
-170.0953939493
 10
24.0292920993
 20
-170.0957621979
 10
23.891888537
 20
-170.1207759784
 10
23.7659052913
 20
-170.1700972543
 10
23.7363499304
 20
-170.1861819408
  0
LINE
  5
2D9
100
AcDbEntity
  8
RACCORDO
100
AcDbLine
 62
253
  6
CONTINUOUS
 10
26.1410494516
 20
-172.5396604634
 11
26.1124916809
 21
-172.3361628067
  0
LWPOLYLINE
  5
2DA
100
AcDbEntity
  8
0
100
AcDbPolyline
 62
7
  6
CONTINUOUS
 90
19
 70
0
 10
26.4334545255
 20
-172.571444199
 10
26.4196723672
 20
-172.3446162046
 10
26.3837888347
 20
-172.1155977373
 10
26.325803928
 20
-171.8843887973
 10
26.2439890757
 20
-171.6470042263
 10
26.1400728491
 20
-171.4074291825
 10
26.0192409632
 20
-171.1776191407
 10
25.8806349991
 20
-170.9580696454
 10
25.7251133757
 20
-170.748285152
 10
25.5604370633
 20
-170.5587345026
 10
25.3861414892
 20
-170.3904445033
 10
25.2026912262
 20
-170.2423883479
 10
25.0192409632
 20
-170.1219544588
 10
24.8357907001
 20
-170.0305445825
 10
24.6523404371
 20
-169.9667569725
 10
24.478044863
 20
-169.9337748117
 10
24.3133685506
 20
-169.9331613834
 10
24.1578469272
 20
-169.9633534042
 10
24.019192643
 20
-170.0228721037
  0
LWPOLYLINE
  5
2DB
100
AcDbEntity
  8
RACCORDO
100
AcDbPolyline
 62
253
  6
CONTINUOUS
 90
25
 70
0
 10
23.3221846883
 20
-171.591585175
 10
23.3308605539
 20
-171.7466563583
 10
23.3552448996
 20
-171.9044818887
 10
23.3953377255
 20
-172.0650617662
 10
23.4524089591
 20
-172.2316484299
 10
23.5251886729
 20
-172.4009894408
 10
23.6098670841
 20
-172.5633274814
 10
23.7069545732
 20
-172.717801134
 10
23.8159407598
 20
-172.8652718163
 10
23.9314847196
 20
-172.9985664644
 10
24.053992218
 20
-173.1170778819
 10
24.1830574897
 20
-173.2214132652
 10
24.3121223137
 20
-173.3062211405
 10
24.4411858089
 20
-173.3704580706
 10
24.5702488565
 20
-173.4151674927
 10
24.6927558789
 20
-173.4381282444
 10
24.8083024074
 20
-173.4382656188
 10
24.9172929107
 20
-173.4166543229
 10
25.014385218
 20
-173.3742973156
 10
25.099069307
 20
-173.309741776
 10
25.1718552
 20
-173.224440525
 10
25.2289307937
 20
-173.1237549834
 10
25.269025387
 20
-173.0094722916
 10
25.293409681
 20
-172.8798053093
 10
25.3020836756
 20
-172.7347540364
  0
LWPOLYLINE
  5
2DC
100
AcDbEntity
  8
RACCORDO
100
AcDbPolyline
 62
253
  6
CONTINUOUS
 90
25
 70
0
 10
25.3020836756
 20
-172.7347540364
 10
25.2934078101
 20
-172.5796828531
 10
25.2690234643
 20
-172.4218573227
 10
25.2289306385
 20
-172.2612774452
 10
25.1718594048
 20
-172.0946907815
 10
25.0990796911
 20
-171.9253497706
 10
25.0144012799
 20
-171.76301173
 10
24.9173137907
 20
-171.6085380774
 10
24.8083276042
 20
-171.4610673952
 10
24.6927836444
 20
-171.327772747
 10
24.5702761459
 20
-171.2092613295
 10
24.4412108743
 20
-171.1049259462
 10
24.3121460502
 20
-171.0201180709
 10
24.183082555
 20
-170.9558811408
 10
24.0540195074
 20
-170.9111717187
 10
23.931512485
 20
-170.888210967
 10
23.8159659566
 20
-170.8880735926
 10
23.7069754533
 20
-170.9096848885
 10
23.6098831459
 20
-170.9520418958
 10
23.525199057
 20
-171.0165974354
 10
23.452413164
 20
-171.1018986864
 10
23.3953375702
 20
-171.202584228
 10
23.355242977
 20
-171.3168669198
 10
23.330858683
 20
-171.4465339022
 10
23.3221846883
 20
-171.591585175
  0
LWPOLYLINE
  5
2DD
100
AcDbEntity
  8
RACCORDO
100
AcDbPolyline
 62
7
  6
CONTINUOUS
 90
22
 70
0
 10
23.146448757
 20
-171.3466205596
 10
23.1571480007
 20
-171.5532638977
 10
23.1881365171
 20
-171.7611022544
 10
23.2378489848
 20
-171.9681614771
 10
23.3049592226
 20
-172.1729188453
 10
23.3882751289
 20
-172.3737437969
 10
23.4864187584
 20
-172.5684416698
 10
23.597992372
 20
-172.75495069
 10
23.7220181582
 20
-172.9318876022
 10
23.8577567733
 20
-173.0979251351
 10
24.005806709
 20
-173.2527394606
 10
24.1640241361
 20
-173.3927415037
 10
24.3274893878
 20
-173.5131793388
 10
24.4951915047
 20
-173.6134461681
 10
24.6662751357
 20
-173.6928410997
 10
24.8356170992
 20
-173.7493482174
 10
25.000365184
 20
-173.7833260102
 10
25.1610295539
 20
-173.796072143
 10
25.3167326995
 20
-173.7882323095
 10
25.4657825442
 20
-173.7605167976
 10
25.6062469996
 20
-173.714032076
 10
25.736446571
 20
-173.6502277587
  0
LINE
  5
2DE
100
AcDbEntity
  8
RACCORDO
100
AcDbLine
 62
253
  6
CONTINUOUS
 10
26.1506118131
 20
-172.7347540364
 11
26.1410494516
 21
-172.5396604634
  0
LWPOLYLINE
  5
2DF
100
AcDbEntity
  8
ASSI
100
AcDbPolyline
 62
7
  6
CONTINUOUS
 90
60
 70
0
 10
18.3017265419
 20
-86.8386128293
 10
18.3033248373
 20
-86.9301875685
 10
18.3080508081
 20
-87.0231296835
 10
18.3159044544
 20
-87.1174391742
 10
18.3269086363
 20
-87.2132732767
 10
18.3410404937
 20
-87.310474755
 10
18.3582314462
 20
-87.4085719012
 10
18.3784963634
 20
-87.507569069
 10
18.4018203757
 20
-87.6074619047
 10
18.4280902944
 20
-87.7077656396
 10
18.4573204387
 20
-87.8084822709
 10
18.4894964894
 20
-87.9096098015
 10
18.5244622997
 20
-88.0106574708
 10
18.5622314298
 20
-88.1116248905
 10
18.6027903195
 20
-88.2125124489
 10
18.6459421411
 20
-88.31283055
 10
18.6916994981
 20
-88.4125764257
 10
18.740049787
 20
-88.5117528442
 10
18.7907583691
 20
-88.6098785132
 10
18.8438367077
 20
-88.7069483255
 10
18.8992733396
 20
-88.8029673884
 10
18.956799237
 20
-88.8974697323
 10
19.0164245555
 20
-88.9904479847
 10
19.0781391395
 20
-89.0819095179
 10
19.1416434951
 20
-89.1714104796
 10
19.206946322
 20
-89.2589413398
 10
19.2740389205
 20
-89.3445116283
 10
19.3425956978
 20
-89.4277060822
 10
19.4126237708
 20
-89.5085131531
 10
19.4841160227
 20
-89.5869443894
 10
19.5567255094
 20
-89.6626191731
 10
19.6304576617
 20
-89.7355241057
 10
19.7053070488
 20
-89.8056725857
 10
19.7809104352
 20
-89.8727241904
 10
19.8572714859
 20
-89.9366638667
 10
19.9343865357
 20
-89.9975066676
 10
20.0118813542
 20
-90.05495733
 10
20.0897577871
 20
-90.1089993654
 10
20.1680139886
 20
-90.1596492622
 10
20.2462701902
 20
-90.2066612221
 10
20.3245263917
 20
-90.2500175621
 10
20.4027825932
 20
-90.2897359653
 10
20.4806590261
 20
-90.3256236826
 10
20.5581538446
 20
-90.3576620941
 10
20.6352688944
 20
-90.3858698198
 10
20.7116299451
 20
-90.4101099708
 10
20.7872333315
 20
-90.4303632616
 10
20.8620827186
 20
-90.4466489777
 10
20.9358148709
 20
-90.4588880864
 10
21.0084243576
 20
-90.467060918
 10
21.0799166095
 20
-90.4711871421
 10
21.1499446825
 20
-90.4712467346
 10
21.2185014598
 20
-90.4672199287
 10
21.2855940583
 20
-90.4591264912
 10
21.3508968852
 20
-90.4470056986
 10
21.4144012408
 20
-90.430837975
 10
21.4761158248
 20
-90.4106428964
 10
21.5357411433
 20
-90.3865184672
 10
21.5932670407
 20
-90.3584455878
 10
21.6213297691
 20
-90.3428875772
  0
LWPOLYLINE
  5
2E0
100
AcDbEntity
  8
ASSI
100
AcDbPolyline
 62
7
  6
CONTINUOUS
 90
40
 70
0
 10
19.7159401043
 20
-86.0220636426
 10
19.7175383996
 20
-86.1136383818
 10
19.7222643705
 20
-86.2065804968
 10
19.7301180168
 20
-86.3008899876
 10
19.7411221987
 20
-86.3967240901
 10
19.7552540561
 20
-86.4939255683
 10
19.7724450086
 20
-86.5920227146
 10
19.7927099258
 20
-86.6910198823
 10
19.8160339381
 20
-86.790912718
 10
19.8423038568
 20
-86.8912164529
 10
19.8715340011
 20
-86.9919330843
 10
19.9037100518
 20
-87.0930606149
 10
19.938675862
 20
-87.1941082841
 10
19.9764449922
 20
-87.2950757039
 10
20.0170038819
 20
-87.3959632623
 10
20.0601557035
 20
-87.4962813633
 10
20.1059130605
 20
-87.5960272391
 10
20.1542633493
 20
-87.6952036575
 10
20.2049719315
 20
-87.7933293266
 10
20.2580502701
 20
-87.8903991388
 10
20.313486902
 20
-87.9864182018
 10
20.3710127994
 20
-88.0809205456
 10
20.4306381178
 20
-88.173898798
 10
20.4923527018
 20
-88.2653603313
 10
20.5558570575
 20
-88.3548612929
 10
20.6211598843
 20
-88.4423921531
 10
20.6882524828
 20
-88.5279624416
 10
20.7568092601
 20
-88.6111568956
 10
20.8268373332
 20
-88.6919639665
 10
20.898329585
 20
-88.7703952028
 10
20.9709390718
 20
-88.8460699864
 10
21.044671224
 20
-88.9189749191
 10
21.1195206112
 20
-88.9891233991
 10
21.1951239976
 20
-89.0561750038
 10
21.2714850482
 20
-89.12011468
 10
21.3486000981
 20
-89.180957481
 10
21.4260949166
 20
-89.2384081433
 10
21.5039713495
 20
-89.2924501787
 10
21.582227551
 20
-89.3431000755
 10
21.6604837525
 20
-89.3901120355
  0
LWPOLYLINE
  5
2E1
100
AcDbEntity
  8
0
100
AcDbPolyline
 62
7
  6
CONTINUOUS
 90
7
 70
0
 10
-107.9774457516
 20
-96.1188824855
 10
-107.8566621857
 20
-96.0286339739
 10
-107.7527459592
 20
-95.9090587838
 10
-107.6709311068
 20
-95.7661519535
 10
-107.6129462002
 20
-95.6019025303
 10
-107.5770626677
 20
-95.4143214669
 10
-107.5632805093
 20
-95.2034087634
  0
LWPOLYLINE
  5
2E2
100
AcDbEntity
  8
RACCORDO
100
AcDbPolyline
 62
253
  6
CONTINUOUS
 90
3
 70
0
 10
-108.2602884639
 20
-96.282192323
 10
-108.1769852398
 20
-96.2253154549
 10
-108.0787776694
 20
-96.129700717
  0
LWPOLYLINE
  5
2E3
100
AcDbEntity
  8
RACCORDO
100
AcDbPolyline
 62
7
  6
CONTINUOUS
 90
10
 70
0
 10
-110.2603851044
 20
-92.8181465052
 10
-110.370030448
 20
-92.8908146548
 10
-110.4723848972
 20
-92.9786546421
 10
-110.5656065844
 20
-93.0813954162
 10
-110.6479550635
 20
-93.1985009619
 10
-110.7178820401
 20
-93.3292312112
 10
-110.7741821424
 20
-93.4730795159
 10
-110.8157630106
 20
-93.6297025896
 10
-110.8414829564
 20
-93.7984306495
 10
-110.8502862778
 20
-93.9785851245
  0
LWPOLYLINE
  5
2E4
100
AcDbEntity
  8
ASSI
100
AcDbPolyline
 62
7
  6
CONTINUOUS
 90
21
 70
0
 10
-51.8394675075
 20
-44.7523890119
 10
-51.8668414109
 20
-44.7688332313
 10
-51.9199197495
 20
-44.8046095087
 10
-51.9706283317
 20
-44.8441781781
 10
-52.0189786205
 20
-44.8875208949
 10
-52.0647359775
 20
-44.9344273217
 10
-52.1078877991
 20
-44.9849147809
 10
-52.1484466889
 20
-45.0389659501
 10
-52.186215819
 20
-45.096318525
 10
-52.2211816292
 20
-45.1569885531
 10
-52.2533576799
 20
-45.2209599869
 10
-52.2825878242
 20
-45.2879223803
 10
-52.3088577429
 20
-45.3578902716
 10
-52.3321817552
 20
-45.4308491224
 10
-52.3524466724
 20
-45.5064448718
 10
-52.3696376249
 20
-45.5846903369
 10
-52.3837694823
 20
-45.6655727006
 10
-52.3947736642
 20
-45.7486994496
 10
-52.4026273105
 20
-45.8339397465
 10
-52.4073532814
 20
-45.9214244288
 10
-52.4089515768
 20
-46.0111534965
  0
LWPOLYLINE
  5
2E5
100
AcDbEntity
  8
ASSI
100
AcDbPolyline
 62
7
  6
CONTINUOUS
 90
3
 70
0
 10
-49.0893483495
 20
-49.5154282445
 10
-49.0619744461
 20
-49.498984025
 10
-49.0501943661
 20
-49.4910439233
  0
LWPOLYLINE
  5
2E6
100
AcDbEntity
  8
ASSI
100
AcDbPolyline
 62
7
  6
CONTINUOUS
 90
27
 70
0
 10
-68.8567416575
 20
-51.6108537469
 10
-68.921521818
 20
-51.6494115048
 10
-69.0482883944
 20
-51.7318847559
 10
-69.1708323962
 20
-51.8212408127
 10
-69.2891657979
 20
-51.9174601568
 10
-69.402952392
 20
-52.0202694109
 10
-69.5121792478
 20
-52.129687316
 10
-69.6168592959
 20
-52.2456951311
 10
-69.7166951206
 20
-52.367963256
 10
-69.8116729453
 20
-52.4965094943
 10
-69.9018065466
 20
-52.6313160425
 10
-69.9868398377
 20
-52.7719998896
 10
-70.0667583141
 20
-52.9185777501
 10
-70.1415764804
 20
-53.0710329095
 10
-70.211081764
 20
-53.2289322139
 10
-70.2752590558
 20
-53.3922911458
 10
-70.3341234649
 20
-53.5610942227
 10
-70.3875077464
 20
-53.7348618432
 10
-70.4353963155
 20
-53.9136081258
 10
-70.477804757
 20
-54.0973189519
 10
-70.5146125806
 20
-54.2854723644
 10
-70.5458038586
 20
-54.4780809974
 10
-70.5713945187
 20
-54.6751322167
 10
-70.5913118529
 20
-54.8760661626
 10
-70.6055316253
 20
-55.0806962151
 10
-70.6140780717
 20
-55.2892089941
 10
-70.6169511923
 20
-55.5016044998
  0
LWPOLYLINE
  5
2E7
100
AcDbEntity
  8
ASSI
100
AcDbPolyline
 62
7
  6
CONTINUOUS
 90
19
 70
0
 10
-83.7913548418
 20
-66.362356231
 10
-83.800343781
 20
-66.3676677418
 10
-83.8355486347
 20
-66.3908661591
 10
-83.8689370053
 20
-66.4168197738
 10
-83.9004976138
 20
-66.4455456939
 10
-83.9302417393
 20
-66.4770268114
 10
-83.957985071
 20
-66.5110680521
 10
-83.9837151853
 20
-66.5476853128
 10
-84.0074445058
 20
-66.5868626968
 10
-84.0290259928
 20
-66.6283574396
 10
-84.0484463096
 20
-66.6721839307
 10
-84.0657187928
 20
-66.7183277806
 10
-84.0807364129
 20
-66.766503057
 10
-84.0934851684
 20
-66.8167223738
 10
-84.1039790606
 20
-66.8689731171
 10
-84.1121530638
 20
-66.9229315129
 10
-84.1179855026
 20
-66.9784896365
 10
-84.1214980524
 20
-67.0357554125
 10
-84.122690713
 20
-67.094728841
  0
LWPOLYLINE
  5
2E8
100
AcDbEntity
  8
ASSI
100
AcDbPolyline
 62
7
  6
CONTINUOUS
 90
19
 70
0
 10
-82.1912848844
 20
-69.1335801497
 10
-82.1822959451
 20
-69.1282686389
 10
-82.1470910915
 20
-69.1050702216
 10
-82.1137027208
 20
-69.0791166069
 10
-82.0821421124
 20
-69.0503906868
 10
-82.0523979869
 20
-69.0189095693
 10
-82.0246546552
 20
-68.9848683286
 10
-81.9989245409
 20
-68.9482510679
 10
-81.9751952204
 20
-68.9090736839
 10
-81.9536137334
 20
-68.8675789411
 10
-81.9341934166
 20
-68.82375245
 10
-81.9169209333
 20
-68.7776086001
 10
-81.9019033133
 20
-68.7294333237
 10
-81.8891545578
 20
-68.6792140069
 10
-81.8786606655
 20
-68.6269632636
 10
-81.8704866623
 20
-68.5730048678
 10
-81.8646542235
 20
-68.5174467442
 10
-81.8611416738
 20
-68.4601809682
 10
-81.8599490132
 20
-68.4012075397
  0
LINE
  5
2E9
100
AcDbEntity
  8
ASSI
100
AcDbLine
 62
253
  6
CONTINUOUS
 10
-69.2027376299
 20
-54.6850553131
 11
-70.6169511923
 21
-55.5016044998
  0
LINE
  5
2EA
100
AcDbEntity
  8
ASSI
100
AcDbLine
 62
253
  6
CONTINUOUS
 10
-50.9947380144
 20
-45.1946043099
 11
-52.4089515768
 21
-46.0111534965
  0
LINE
  5
2EB
100
AcDbEntity
  8
ASSI
100
AcDbLine
 62
253
  6
CONTINUOUS
 10
-82.9917304135
 20
-66.4417265383
 11
-84.122690713
 21
-67.094728841
  0
LWPOLYLINE
  5
2EC
100
AcDbEntity
  8
RACCORDO
100
AcDbPolyline
 62
253
  6
CONTINUOUS
 90
5
 70
0
 10
-108.9615911637
 20
5.6054682781
 10
-109.030235139
 20
5.5993412628
 10
-109.1040192117
 20
5.6085063803
 10
-109.1812951659
 20
5.6327588998
 10
-109.2603367842
 20
5.6715570622
  0
LWPOLYLINE
  5
2ED
100
AcDbEntity
  8
0
100
AcDbPolyline
 62
7
  6
CONTINUOUS
 90
31
 70
0
 10
37.2168329386
 20
-169.4080657444
 10
37.217824052
 20
-169.4515621413
 10
37.2207259379
 20
-169.4958123509
 10
37.2255385965
 20
-169.5408163731
 10
37.2322856502
 20
-169.5867014605
 10
37.2409434765
 20
-169.6333403605
 10
37.2514412079
 20
-169.6803513163
 10
37.2637939457
 20
-169.7277373814
 10
37.2779865887
 20
-169.7754955022
 10
37.2939029645
 20
-169.8232347604
 10
37.3115572212
 20
-169.8709550012
 10
37.3309352107
 20
-169.9186563793
 10
37.351878317
 20
-169.965948441
 10
37.3743993861
 20
-170.0128278267
 10
37.3984855719
 20
-170.0592978959
 10
37.4239397198
 20
-170.1049782736
 10
37.4507730578
 20
-170.1498624781
 10
37.478974358
 20
-170.1939569911
 10
37.508312782
 20
-170.2369008822
 10
37.5387976632
 20
-170.2786847075
 10
37.5704196681
 20
-170.319317911
 10
37.6029199589
 20
-170.3584678945
 10
37.6363057441
 20
-170.3961224842
 10
37.6705698152
 20
-170.4322938538
 10
37.7054317076
 20
-170.4666859272
 10
37.7408963282
 20
-170.4992841001
 10
37.7769587702
 20
-170.5301029768
 10
37.8133238488
 20
-170.558890293
 10
37.8498931691
 20
-170.5855619607
 10
37.8867651262
 20
-170.6102020678
 10
37.9239397198
 20
-170.6328106146
  0
LINE
  5
2EE
100
AcDbEntity
  8
0
100
AcDbLine
 62
7
  6
CONTINUOUS
 10
21.6604837525
 20
117.3791201138
 11
21.6604837525
 21
-162.0591230645
  0
LINE
  5
2EF
100
AcDbEntity
  8
0
100
AcDbLine
 62
7
  6
CONTINUOUS
 10
35.8026193763
 20
-170.2246149311
 11
35.8026193763
 21
109.6726728472
  0
LINE
  5
2F0
100
AcDbEntity
  8
0
100
AcDbLine
 62
7
  6
CONTINUOUS
 10
37.2168329386
 20
-169.4080657444
 11
37.2168329386
 21
108.9056912288
  0
LWPOLYLINE
  5
2F1
100
AcDbEntity
  8
0
100
AcDbPolyline
 62
7
  6
CONTINUOUS
 90
16
 70
0
 10
21.6604837525
 20
-162.0591230645
 10
21.6594926392
 20
-162.1014749486
 10
21.6565907532
 20
-162.142374133
 10
21.6517780947
 20
-162.1818206178
 10
21.645031041
 20
-162.2199143766
 10
21.6363732146
 20
-162.2565554359
 10
21.6258754833
 20
-162.2914438746
 10
21.6135227454
 20
-162.3245653076
 10
21.5993301025
 20
-162.3559341201
 10
21.5834137267
 20
-162.3852935465
 10
21.56575947
 20
-162.4126270942
 10
21.5463814804
 20
-162.4379512557
 10
21.5254383742
 20
-162.4610587432
 10
21.5029173051
 20
-162.4819313628
 10
21.4788311193
 20
-162.5005873084
 10
21.4534011315
 20
-162.5168599257
  0
LWPOLYLINE
  5
2F2
100
AcDbEntity
  8
RACCORDO
100
AcDbPolyline
 62
7
  6
CONTINUOUS
 90
20
 70
0
 10
-38.2151978456
 20
-136.0631058625
 10
-38.215475049
 20
-136.0635733438
 10
-38.2118932968
 20
-136.0551892018
 10
-38.205104154
 20
-136.0318207869
 10
-38.198609908
 20
-135.99358409
 10
-38.1951746249
 20
-135.9408809046
 10
-38.1970569005
 20
-135.8749851733
 10
-38.2059683575
 20
-135.7973731618
 10
-38.2233762104
 20
-135.7089270477
 10
-38.250185995
 20
-135.6121053665
 10
-38.2865023041
 20
-135.5102263502
 10
-38.3323030037
 20
-135.4055004797
 10
-38.386979872
 20
-135.300725388
 10
-38.4486512228
 20
-135.1999550518
 10
-38.5157950702
 20
-135.105449383
 10
-38.5865916019
 20
-135.0192930444
 10
-38.6577406667
 20
-134.9444817191
 10
-38.7265003272
 20
-134.8822967753
 10
-38.7911313931
 20
-134.8325619621
 10
-38.8496731616
 20
-134.7950007459
  0
LWPOLYLINE
  5
2F3
100
AcDbEntity
  8
ASSI
100
AcDbPolyline
 62
7
  6
CONTINUOUS
 90
27
 70
0
 10
-60.356345447
 20
-66.3330233392
 10
-60.2915652865
 20
-66.2944655813
 10
-60.1647987101
 20
-66.2119923302
 10
-60.0422547083
 20
-66.1226362734
 10
-59.9239213065
 20
-66.0264169293
 10
-59.8101347125
 20
-65.9236076751
 10
-59.7009078567
 20
-65.8141897701
 10
-59.5962278085
 20
-65.698181955
 10
-59.4963919839
 20
-65.5759138301
 10
-59.4014141592
 20
-65.4473675918
 10
-59.3112805579
 20
-65.3125610436
 10
-59.2262472667
 20
-65.1718771964
 10
-59.1463287904
 20
-65.025299336
 10
-59.0715106241
 20
-64.8728441766
 10
-59.0020053405
 20
-64.7149448722
 10
-58.9378280487
 20
-64.5515859403
 10
-58.8789636396
 20
-64.3827828634
 10
-58.8255793581
 20
-64.2090152429
 10
-58.777690789
 20
-64.0302689603
 10
-58.7352823474
 20
-63.8465581342
 10
-58.6984745239
 20
-63.6584047217
 10
-58.6672832458
 20
-63.4657960887
 10
-58.6416925857
 20
-63.2687448694
 10
-58.6217752515
 20
-63.0678109235
 10
-58.6075554792
 20
-62.863180871
 10
-58.5990090327
 20
-62.6546680919
 10
-58.5961359121
 20
-62.4422725863
  0
LINE
  5
2F4
100
AcDbEntity
  8
0
100
AcDbLine
 62
253
  6
CONTINUOUS
 10
-104.2045232987
 20
-87.7531470789
 11
-105.6187368611
 21
-88.5696962655
  0
LINE
  5
2F5
100
AcDbEntity
  8
0
100
AcDbLine
 62
7
  6
CONTINUOUS
 10
-109.977542392
 20
-92.6548366678
 11
-110.2603851044
 21
-92.8181465052
  0
LINE
  5
2F6
100
AcDbEntity
  8
0
100
AcDbLine
 62
253
  6
CONTINUOUS
 10
-103.4974165175
 20
-88.977891949
 11
-104.9116300799
 21
-89.7944411357
  0
LINE
  5
2F7
100
AcDbEntity
  8
0
100
AcDbLine
 62
7
  6
CONTINUOUS
 10
-107.9774457514
 20
-96.1188824857
 11
-108.2602884639
 21
-96.282192323
  0
LINE
  5
2F8
100
AcDbEntity
  8
0
100
AcDbLine
 62
7
  6
CONTINUOUS
 10
-87.9410673314
 20
-87.3430575587
 11
-96.7813029339
 21
-92.4472988014
  0
LINE
  5
2F9
100
AcDbEntity
  8
0
100
AcDbLine
 62
7
  6
CONTINUOUS
 10
-120.8922433347
 20
-107.1850449747
 11
-114.8111250165
 21
-103.6738834721
  0
LWPOLYLINE
  5
2FA
100
AcDbEntity
  8
RACCORDO
100
AcDbPolyline
 62
253
  6
CONTINUOUS
 90
25
 70
0
 10
-109.6846008529
 20
105.7707893241
 10
-109.8124050084
 20
105.8552718661
 10
-109.9340721855
 20
105.9534397798
 10
-110.0496023844
 20
106.0652930649
 10
-110.1607540814
 20
106.1931916665
 10
-110.2657688002
 20
106.3347756396
 10
-110.3593711109
 20
106.4829651498
 10
-110.4409721134
 20
106.6380931384
 10
-110.5111607079
 20
106.7998266641
 10
-110.5664281651
 20
106.9600870684
 10
-110.6060153417
 20
107.1187977825
 10
-110.630681381
 20
107.2760353751
 10
-110.6391949841
 20
107.4239508945
 10
-110.6307361598
 20
107.562071154
 10
-110.6061248993
 20
107.6908693401
 10
-110.5665898772
 20
107.8039160608
 10
-110.5113737018
 20
107.9004116214
 10
-110.4412337647
 20
107.9811557165
 10
-110.3596709153
 20
108.0421180379
 10
-110.2661044555
 20
108.0822942245
 10
-110.1611150834
 20
108.1026886373
 10
-110.0499457427
 20
108.102284051
 10
-109.9343440814
 20
108.0807413903
 10
-109.8125624514
 20
108.0383997304
 10
-109.6846008529
 20
107.9752590714
  0
LWPOLYLINE
  5
2FB
100
AcDbEntity
  8
RACCORDO
100
AcDbPolyline
 62
253
  6
CONTINUOUS
 90
25
 70
0
 10
-109.6846008529
 20
107.9752590714
 10
-109.5567966974
 20
107.8907765293
 10
-109.4351295202
 20
107.7926086157
 10
-109.3195993214
 20
107.6807553305
 10
-109.2084476243
 20
107.552856729
 10
-109.1034329056
 20
107.4112727559
 10
-109.0098305949
 20
107.2630832457
 10
-108.9282295924
 20
107.107955257
 10
-108.8580409979
 20
106.9462217313
 10
-108.8027735407
 20
106.785961327
 10
-108.7631863641
 20
106.627250613
 10
-108.7385203248
 20
106.4700130203
 10
-108.7300067217
 20
106.322097501
 10
-108.7384655459
 20
106.1839772415
 10
-108.7630768064
 20
106.0551790553
 10
-108.8026118286
 20
105.9421323346
 10
-108.857828004
 20
105.8456367741
 10
-108.9279679411
 20
105.7648926789
 10
-109.0095307904
 20
105.7039303576
 10
-109.1030972502
 20
105.663754171
 10
-109.2080866223
 20
105.6433597581
 10
-109.319255963
 20
105.6437643445
 10
-109.4348576244
 20
105.6653070052
 10
-109.5566392543
 20
105.707648665
 10
-109.6846008529
 20
105.7707893241
  0
LWPOLYLINE
  5
2FC
100
AcDbEntity
  8
RACCORDO
100
AcDbPolyline
 62
253
  6
CONTINUOUS
 90
15
 70
0
 10
-109.2603367842
 20
106.5056362461
 10
-109.3393783241
 20
106.5581133044
 10
-109.4166542211
 20
106.6230970522
 10
-109.4904382603
 20
106.6991358672
 10
-109.559082229
 20
106.7845311766
 10
-109.6210527306
 20
106.8773753932
 10
-109.6749654392
 20
106.9755945263
 10
-109.719616032
 20
107.0769945237
 10
-109.7540070862
 20
107.1793102773
 10
-109.7773703581
 20
107.2802562139
 10
-109.7891839505
 20
107.3775773648
 10
-109.7891839678
 20
107.4690997384
 10
-109.7773704093
 20
107.5527788752
 10
-109.7540071703
 20
107.6267455217
 10
-109.7196161468
 20
107.6893473837
  0
LWPOLYLINE
  5
2FD
100
AcDbEntity
  8
0
100
AcDbPolyline
 62
7
  6
CONTINUOUS
 90
17
 70
0
 10
62.6726770613
 20
-191.8625765535
 10
62.6996105389
 20
-192.1953007549
 10
62.7793850839
 20
-192.5464536997
 10
62.9089621087
 20
-192.9026600813
 10
63.0868906237
 20
-193.2564016118
 10
63.3001698196
 20
-193.581831247
 10
63.5434149665
 20
-193.87287711
 10
63.8073609323
 20
-194.1184533542
 10
64.0868906237
 20
-194.3120662937
 10
64.3615794775
 20
-194.4395690961
 10
64.6258055182
 20
-194.500017158
 10
64.869504458
 20
-194.4911080315
 10
65.0868906237
 20
-194.4111765459
 10
65.2620801303
 20
-194.266063103
 10
65.3925070337
 20
-194.060503709
 10
65.4732034137
 20
-193.8023280573
 10
65.5011041861
 20
-193.495674784
  0
LWPOLYLINE
  5
2FE
100
AcDbEntity
  8
0
100
AcDbPolyline
 62
7
  6
CONTINUOUS
 90
17
 70
0
 10
65.5011041861
 20
-193.4956749268
 10
65.4741707085
 20
-193.1629507254
 10
65.3943961635
 20
-192.8117977806
 10
65.2648191387
 20
-192.455591399
 10
65.0868906237
 20
-192.1018498685
 10
64.8736114278
 20
-191.7764202332
 10
64.630366281
 20
-191.4853743703
 10
64.3664203152
 20
-191.2397981261
 10
64.0868906237
 20
-191.0461851866
 10
63.8122017699
 20
-190.9186823842
 10
63.5479757293
 20
-190.8582343223
 10
63.3042767895
 20
-190.8671434488
 10
63.0868906237
 20
-190.9470749344
 10
62.9117011171
 20
-191.0921883773
 10
62.7812742138
 20
-191.2977477713
 10
62.7005778338
 20
-191.555923423
 10
62.6726770613
 20
-191.8625766962
  0
LWPOLYLINE
  5
2FF
100
AcDbEntity
  8
ASSI
100
AcDbPolyline
 62
7
  6
CONTINUOUS
 90
8
 70
0
 10
19.7741949827
 20
-85.5108269575
 10
19.7724450086
 20
-85.5173550179
 10
19.7552540561
 20
-85.5956004831
 10
19.7411221987
 20
-85.6764828467
 10
19.7301180168
 20
-85.7596095958
 10
19.7222643705
 20
-85.8448498926
 10
19.7175383996
 20
-85.9323345749
 10
19.7159401043
 20
-86.0220636426
  0
LWPOLYLINE
  5
300
100
AcDbEntity
  8
ASSI
100
AcDbPolyline
 62
7
  6
CONTINUOUS
 90
23
 70
0
 10
86.3607542311
 20
65.8533794785
 10
86.3395714326
 20
65.8112644904
 10
86.3103412883
 20
65.744302097
 10
86.2840713697
 20
65.6743342057
 10
86.2607473573
 20
65.6013753548
 10
86.2404824402
 20
65.5257796055
 10
86.2232914876
 20
65.4475341403
 10
86.2091596303
 20
65.3666517767
 10
86.1981554484
 20
65.2835250276
 10
86.1902941448
 20
65.1981429837
 10
86.1855605167
 20
65.1105165544
 10
86.1839775358
 20
65.0210709808
 10
86.1855605167
 20
64.9297974205
 10
86.1902941448
 20
64.8367047161
 10
86.1981554484
 20
64.7422446358
 10
86.2091596303
 20
64.6464105333
 10
86.2232914876
 20
64.5492090551
 10
86.2404824402
 20
64.4511119088
 10
86.2607473573
 20
64.3521147411
 10
86.2840713697
 20
64.2522219054
 10
86.3103412883
 20
64.1519181705
 10
86.3395714326
 20
64.0512015391
 10
86.3607542311
 20
63.9846251864
  0
LWPOLYLINE
  5
301
100
AcDbEntity
  8
RACCORDO
100
AcDbPolyline
 62
253
  6
CONTINUOUS
 90
6
 70
0
 10
-37.3680995507
 20
-136.9571600498
 10
-37.285870697
 20
-136.8401851549
 10
-37.2207323229
 20
-136.7034317918
 10
-37.1735652806
 20
-136.5487491848
 10
-37.1450074761
 20
-136.3782292381
 10
-37.1354451031
 20
-136.1941779335
  0
LWPOLYLINE
  5
302
100
AcDbEntity
  8
ASSI
100
AcDbPolyline
 62
7
  6
CONTINUOUS
 90
27
 70
0
 10
-32.0720741995
 20
-82.6640070723
 10
-32.007294039
 20
-82.6254493144
 10
-31.8805274626
 20
-82.5429760633
 10
-31.7579834608
 20
-82.4536200065
 10
-31.6396500591
 20
-82.3574006624
 10
-31.525863465
 20
-82.2545914083
 10
-31.4166366092
 20
-82.1451735032
 10
-31.3119565611
 20
-82.0291656881
 10
-31.2121207365
 20
-81.9068975632
 10
-31.1171429117
 20
-81.7783513249
 10
-31.0270093104
 20
-81.6435447767
 10
-30.9419760193
 20
-81.5028609295
 10
-30.8620575429
 20
-81.3562830691
 10
-30.7872393766
 20
-81.2038279097
 10
-30.717734093
 20
-81.0459286053
 10
-30.6535568012
 20
-80.8825696734
 10
-30.5946923921
 20
-80.7137665965
 10
-30.5413081106
 20
-80.539998976
 10
-30.4934195415
 20
-80.3612526934
 10
-30.4510111
 20
-80.1775418673
 10
-30.4142032764
 20
-79.9893884548
 10
-30.3830119984
 20
-79.7967798218
 10
-30.3574213383
 20
-79.5997286025
 10
-30.3375040041
 20
-79.3987946566
 10
-30.3232842317
 20
-79.1941646041
 10
-30.3147377853
 20
-78.9856518251
 10
-30.3118646647
 20
-78.7732563194
  0
LWPOLYLINE
  5
303
100
AcDbEntity
  8
ASSI
100
AcDbPolyline
 62
7
  6
CONTINUOUS
 90
19
 70
0
 10
-78.2095038715
 20
-109.508693994
 10
-78.2193355238
 20
-109.514503459
 10
-78.2578408325
 20
-109.539876728
 10
-78.2943593629
 20
-109.568263494
 10
-78.3288787784
 20
-109.5996824691
 10
-78.3614114157
 20
-109.6341149413
 10
-78.3917556847
 20
-109.6713475484
 10
-78.4198979972
 20
-109.7113976773
 10
-78.4458519416
 20
-109.754247941
 10
-78.469456693
 20
-109.799632816
 10
-78.4906976645
 20
-109.8475680406
 10
-78.509589443
 20
-109.8980378764
 10
-78.5260149649
 20
-109.950729585
 10
-78.5399589162
 20
-110.0056569628
 10
-78.5514366109
 20
-110.0628062133
 10
-78.5603769269
 20
-110.1218232086
 10
-78.5667561569
 20
-110.1825899063
 10
-78.5705980081
 20
-110.2452243488
 10
-78.5719024807
 20
-110.3097265363
  0
LINE
  5
304
100
AcDbEntity
  8
RACCORDO
100
AcDbLine
 62
253
  6
CONTINUOUS
 10
-108.9185310893
 20
-95.2138229559
 11
-108.9615911637
 21
-95.2286109058
  0
LWPOLYLINE
  5
305
100
AcDbEntity
  8
RACCORDO
100
AcDbPolyline
 62
7
  6
CONTINUOUS
 90
6
 70
0
 10
-109.5603512802
 20
107.7006169547
 10
-109.6013913223
 20
107.7223026282
 10
-109.6355801537
 20
107.7369442404
 10
-109.6616954699
 20
107.7454935423
 10
-109.6787563983
 20
107.7493405608
 10
-109.6837322252
 20
107.7500573338
  0
LINE
  5
306
100
AcDbEntity
  8
0
100
AcDbLine
 62
7
  6
CONTINUOUS
 10
-103.4974165175
 20
115.5480702073
 11
-104.2045232987
 21
115.9563448006
  0
LINE
  5
307
100
AcDbEntity
  8
ASSI
100
AcDbLine
 62
253
  6
CONTINUOUS
 10
-125.841990803
 20
134.3963370567
 11
-124.4277772406
 21
133.5797878701
  0
LINE
  5
308
100
AcDbEntity
  8
ASSI
100
AcDbLine
 62
253
  6
CONTINUOUS
 10
93.3611113648
 20
7.8312131251
 11
91.9468978025
 21
8.6477623118
  0
LWPOLYLINE
  5
309
100
AcDbEntity
  8
ASSI
100
AcDbPolyline
 62
7
  6
CONTINUOUS
 90
53
 70
0
 10
62.8494537566
 20
-191.9646452018
 10
62.8507582292
 20
-192.0306537615
 10
62.8546000805
 20
-192.0977246776
 10
62.8609793104
 20
-192.16585795
 10
62.8699196264
 20
-192.2351989982
 10
62.8813973211
 20
-192.3056024028
 10
62.8953412724
 20
-192.3766319061
 10
62.9117667943
 20
-192.4482913956
 10
62.9306585729
 20
-192.5205769838
 10
62.9518995443
 20
-192.5930407499
 10
62.9755042957
 20
-192.6656838001
 10
63.0014582401
 20
-192.7385050282
 10
63.0296005526
 20
-192.8110531942
 10
63.0599448217
 20
-192.8833266025
 10
63.0924774589
 20
-192.9553269487
 10
63.1269968744
 20
-193.0266080796
 10
63.1635154048
 20
-193.0971655292
 10
63.2020207135
 20
-193.1670037634
 10
63.2422742006
 20
-193.2356900265
 10
63.2842867212
 20
-193.3032171656
 10
63.3280474202
 20
-193.3695923336
 10
63.3732851326
 20
-193.4344042338
 10
63.4200090297
 20
-193.4976431595
 10
63.4682099401
 20
-193.5593188175
 10
63.5175891848
 20
-193.6190490319
 10
63.5681540805
 20
-193.6768217227
 10
63.6198973105
 20
-193.7326489698
 10
63.6724982456
 20
-193.7861848374
 10
63.7259622116
 20
-193.8374150973
 10
63.7802838827
 20
-193.8863539777
 10
63.8351266523
 20
-193.9326982265
 10
63.8904937561
 20
-193.9764317329
 10
63.9463819584
 20
-194.0175706077
 10
64.0024449455
 20
-194.0558599321
 10
64.0586838027
 20
-194.0912820123
 10
64.1150974447
 20
-194.1238545422
 10
64.1713363019
 20
-194.1533756846
 10
64.227399289
 20
-194.1798264924
 10
64.2832874913
 20
-194.2032259127
 10
64.3386545951
 20
-194.22342895
 10
64.3934973647
 20
-194.2404157568
 10
64.4478190358
 20
-194.2542061807
 10
64.5012830018
 20
-194.2647147685
 10
64.553883937
 20
-194.2719211423
 10
64.605627167
 20
-194.2758456802
 10
64.6561920627
 20
-194.2764640635
 10
64.7055713074
 20
-194.2737557632
 10
64.7537722178
 20
-194.2677413084
 10
64.8004961148
 20
-194.2584579678
 10
64.8457338272
 20
-194.2458854439
 10
64.8894945263
 20
-194.2300440343
 10
64.9315070469
 20
-194.2110319009
 10
64.9619288816
 20
-194.1946388207
  0
LWPOLYLINE
  5
30A
100
AcDbEntity
  8
ASSI
100
AcDbPolyline
 62
7
  6
CONTINUOUS
 90
53
 70
0
 10
65.3243274908
 20
-193.3936062785
 10
65.3230230182
 20
-193.3275977188
 10
65.319181167
 20
-193.2605268027
 10
65.312801937
 20
-193.1923935302
 10
65.303861621
 20
-193.1230524821
 10
65.2923839264
 20
-193.0526490775
 10
65.278439975
 20
-192.9816195742
 10
65.2620144531
 20
-192.9099600847
 10
65.2431226746
 20
-192.8376744965
 10
65.2218817031
 20
-192.7652107304
 10
65.1982769517
 20
-192.6925676802
 10
65.1723230074
 20
-192.6197464521
 10
65.1441806948
 20
-192.5471982861
 10
65.1138364258
 20
-192.4749248778
 10
65.0813037885
 20
-192.4029245315
 10
65.046784373
 20
-192.3316434007
 10
65.0102658426
 20
-192.2610859511
 10
64.971760534
 20
-192.1912477169
 10
64.9315070469
 20
-192.1225614538
 10
64.8894945263
 20
-192.0550343147
 10
64.8457338272
 20
-191.9886591467
 10
64.8004961148
 20
-191.9238472464
 10
64.7537722178
 20
-191.8606083208
 10
64.7055713074
 20
-191.7989326628
 10
64.6561920627
 20
-191.7392024484
 10
64.605627167
 20
-191.6814297576
 10
64.553883937
 20
-191.6256025105
 10
64.5012830018
 20
-191.5720666429
 10
64.4478190358
 20
-191.520836383
 10
64.3934973647
 20
-191.4718975026
 10
64.3386545951
 20
-191.4255532537
 10
64.2832874913
 20
-191.3818197474
 10
64.227399289
 20
-191.3406808726
 10
64.1713363019
 20
-191.3023915482
 10
64.1150974447
 20
-191.266969468
 10
64.0586838027
 20
-191.2343969381
 10
64.0024449455
 20
-191.2048757957
 10
63.9463819584
 20
-191.1784249879
 10
63.8904937561
 20
-191.1550255676
 10
63.8351266523
 20
-191.1348225303
 10
63.7802838827
 20
-191.1178357235
 10
63.7259622116
 20
-191.1040452996
 10
63.6724982456
 20
-191.0935367118
 10
63.6198973105
 20
-191.086330338
 10
63.5681540805
 20
-191.0824058001
 10
63.5175891848
 20
-191.0817874168
 10
63.4682099401
 20
-191.0844957171
 10
63.4200090297
 20
-191.0905101719
 10
63.3732851326
 20
-191.0997935125
 10
63.3280474202
 20
-191.1123660364
 10
63.2842867212
 20
-191.128207446
 10
63.2422742006
 20
-191.1472195794
 10
63.2118523658
 20
-191.1636126596
  0
LWPOLYLINE
  5
30B
100
AcDbEntity
  8
RACCORDO
100
AcDbPolyline
 62
253
  6
CONTINUOUS
 90
3
 70
0
 10
-39.0089380281
 20
-134.8062703169
 10
-38.964287461
 20
-134.7564316639
 10
-38.9543965521
 20
-134.7493621923
  0
LWPOLYLINE
  5
30C
100
AcDbEntity
  8
ASSI
100
AcDbPolyline
 62
7
  6
CONTINUOUS
 90
19
 70
0
 10
-76.4594273557
 20
-112.5397201552
 10
-76.4495957033
 20
-112.5339106902
 10
-76.4110903947
 20
-112.5085374212
 10
-76.3745718643
 20
-112.4801506552
 10
-76.3400524488
 20
-112.4487316801
 10
-76.3075198115
 20
-112.4142992079
 10
-76.2771755425
 20
-112.3770666008
 10
-76.24903323
 20
-112.3370164719
 10
-76.2230792856
 20
-112.2941662082
 10
-76.1994745342
 20
-112.2487813332
 10
-76.1782335627
 20
-112.2008461086
 10
-76.1593417842
 20
-112.1503762728
 10
-76.1429162623
 20
-112.0976845642
 10
-76.1289723109
 20
-112.0427571864
 10
-76.1174946163
 20
-111.9856079359
 10
-76.1085543003
 20
-111.9265909406
 10
-76.1021750703
 20
-111.8658242429
 10
-76.0983332191
 20
-111.8031898004
 10
-76.0970287465
 20
-111.7386876129
  0
LINE
  5
30D
100
AcDbEntity
  8
ASSI
100
AcDbLine
 62
253
  6
CONTINUOUS
 10
-127.2732591262
 20
140.7282808961
 11
-125.8590455638
 21
139.9117317094
  0
LINE
  5
30E
100
AcDbEntity
  8
ASSI
100
AcDbLine
 62
253
  6
CONTINUOUS
 10
91.9298430417
 20
14.1631569645
 11
90.5156294793
 21
14.9797061511
  0
LINE
  5
30F
100
AcDbEntity
  8
ASSI
100
AcDbLine
 62
253
  6
CONTINUOUS
 10
-129.6390489704
 20
144.9630996321
 11
-128.224835408
 21
144.1465504454
  0
LINE
  5
310
100
AcDbEntity
  8
ASSI
100
AcDbLine
 62
253
  6
CONTINUOUS
 10
89.5640531974
 20
18.3979757005
 11
88.1498396351
 21
19.2145248871
  0
LINE
  5
311
100
AcDbEntity
  8
ASSI
100
AcDbLine
 62
253
  6
CONTINUOUS
 10
-131.4281343744
 20
152.8780294313
 11
-130.013920812
 21
152.0614802446
  0
LINE
  5
312
100
AcDbEntity
  8
ASSI
100
AcDbLine
 62
253
  6
CONTINUOUS
 10
87.7749677935
 20
26.3129054997
 11
86.3607542311
 21
27.1294546863
  0
LWPOLYLINE
  5
313
100
AcDbEntity
  8
ASSI
100
AcDbPolyline
 62
7
  6
CONTINUOUS
 90
54
 70
0
 10
89.0124046605
 20
-127.6660721621
 10
89.0140029559
 20
-127.7576469013
 10
89.0187289268
 20
-127.8505890162
 10
89.0265825731
 20
-127.944898507
 10
89.037586755
 20
-128.0407326095
 10
89.0517186124
 20
-128.1379340878
 10
89.0689095649
 20
-128.236031234
 10
89.0891744821
 20
-128.3350284017
 10
89.1124984944
 20
-128.4349212374
 10
89.1387684131
 20
-128.5352249723
 10
89.1679985574
 20
-128.6359416037
 10
89.2001746081
 20
-128.7370691343
 10
89.2351404183
 20
-128.8381168036
 10
89.2729095485
 20
-128.9390842233
 10
89.3134684382
 20
-129.0399717817
 10
89.3566202598
 20
-129.1402898828
 10
89.4023776168
 20
-129.2400357585
 10
89.4507279056
 20
-129.3392121769
 10
89.5014364878
 20
-129.437337846
 10
89.5545148264
 20
-129.5344076583
 10
89.6099514582
 20
-129.6304267212
 10
89.6674773557
 20
-129.7249290651
 10
89.7271026741
 20
-129.8179073174
 10
89.7888172581
 20
-129.9093688507
 10
89.8523216137
 20
-129.9988698124
 10
89.9176244406
 20
-130.0864006725
 10
89.9847170391
 20
-130.1719709611
 10
90.0532738164
 20
-130.255165415
 10
90.1233018895
 20
-130.3359724859
 10
90.1947941413
 20
-130.4144037222
 10
90.2674036281
 20
-130.4900785059
 10
90.3411357803
 20
-130.5629834385
 10
90.4159851675
 20
-130.6331319185
 10
90.4915885539
 20
-130.7001835232
 10
90.5679496045
 20
-130.7641231995
 10
90.6450646544
 20
-130.8249660004
 10
90.7225594728
 20
-130.8824166627
 10
90.8004359058
 20
-130.9364586981
 10
90.8786921073
 20
-130.9871085949
 10
90.9569483088
 20
-131.0341205549
 10
91.0352045103
 20
-131.0774768949
 10
91.1134607118
 20
-131.117195298
 10
91.1913371448
 20
-131.1530830154
 10
91.2688319632
 20
-131.1851214269
 10
91.3459470131
 20
-131.2133291526
 10
91.4223080637
 20
-131.2375693035
 10
91.4979114501
 20
-131.2578225944
 10
91.5727608373
 20
-131.2741083105
 10
91.6464929895
 20
-131.2863474191
 10
91.7191024763
 20
-131.2945202507
 10
91.7905947281
 20
-131.2986464749
 10
91.8606228012
 20
-131.2987060674
 10
91.9291795785
 20
-131.2946792615
 10
91.9468978025
 20
-131.292541897
  0
LWPOLYLINE
  5
314
100
AcDbEntity
  8
ASSI
100
AcDbPolyline
 62
7
  6
CONTINUOUS
 90
35
 70
0
 10
90.4266182229
 20
-126.8495229754
 10
90.4282165183
 20
-126.9410977146
 10
90.4329424892
 20
-127.0340398296
 10
90.4407961355
 20
-127.1283493203
 10
90.4518003174
 20
-127.2241834228
 10
90.4659321747
 20
-127.3213849011
 10
90.4831231273
 20
-127.4194820473
 10
90.5033880444
 20
-127.5184792151
 10
90.5267120568
 20
-127.6183720508
 10
90.5529819754
 20
-127.7186757857
 10
90.5822121198
 20
-127.8193924171
 10
90.6143881704
 20
-127.9205199477
 10
90.6493539807
 20
-128.0215676169
 10
90.6871231108
 20
-128.1225350366
 10
90.7276820006
 20
-128.223422595
 10
90.7708338221
 20
-128.3237406961
 10
90.8165911791
 20
-128.4234865719
 10
90.864941468
 20
-128.5226629903
 10
90.9156500502
 20
-128.6207886593
 10
90.9687283887
 20
-128.7178584716
 10
91.0241650206
 20
-128.8138775346
 10
91.0816909181
 20
-128.9083798784
 10
91.1413162365
 20
-129.0013581308
 10
91.2030308205
 20
-129.0928196641
 10
91.2665351761
 20
-129.1823206257
 10
91.331838003
 20
-129.2698514859
 10
91.3989306015
 20
-129.3554217744
 10
91.4674873788
 20
-129.4386162283
 10
91.5375154518
 20
-129.5194232993
 10
91.6090077037
 20
-129.5978545355
 10
91.6816171904
 20
-129.6735293192
 10
91.7553493427
 20
-129.7464342519
 10
91.8301987299
 20
-129.8165827319
 10
91.9058021163
 20
-129.8836343366
 10
91.9468978025
 20
-129.918045137
  0
LWPOLYLINE
  5
315
100
AcDbEntity
  8
0
100
AcDbPolyline
 62
7
  6
CONTINUOUS
 90
24
 70
0
 10
93.3611113648
 20
-230.8926413023
 10
93.3632869454
 20
-231.034145261
 10
93.3697429536
 20
-231.1726582817
 10
93.3804793895
 20
-231.3081803643
 10
93.3955197448
 20
-231.4408692055
 10
93.4148405278
 20
-231.5705671087
 10
93.4383712634
 20
-231.696800984
 10
93.4661273267
 20
-231.8195581805
 10
93.4980933426
 20
-231.938851349
 10
93.534152711
 20
-232.0542453525
 10
93.574320381
 20
-232.1657259507
 10
93.6185814035
 20
-232.2733073838
 10
93.6667743307
 20
-232.3765972345
 10
93.7189135221
 20
-232.4755798297
 10
93.7749846181
 20
-232.5702708426
 10
93.8347830923
 20
-232.6603248754
 10
93.8983225572
 20
-232.7457249936
 10
93.9655894001
 20
-232.8264881317
 10
94.0363382567
 20
-232.9023196957
 10
94.1105818434
 20
-232.9732016753
 10
94.1883074436
 20
-233.0391520808
 10
94.2692315433
 20
-233.0999303496
 10
94.3533658235
 20
-233.1555175928
 10
94.3965315103
 20
-233.1813134147
  0
LINE
  5
316
100
AcDbEntity
  8
ASSI
100
AcDbLine
 62
253
  6
CONTINUOUS
 10
76.2137719211
 20
89.8781877388
 11
76.2137719211
 21
88.2452471852
  0
LINE
  5
317
100
AcDbEntity
  8
ASSI
100
AcDbLine
 62
7
  6
CONTINUOUS
 10
86.3607542311
 20
27.1294546863
 11
86.3607542311
 21
76.1407735015
  0
LINE
  5
318
100
AcDbEntity
  8
ASSI
100
AcDbLine
 62
7
  6
CONTINUOUS
 10
87.7749677935
 20
26.3129054997
 11
87.7749677935
 21
75.3242243149
  0
LWPOLYLINE
  5
319
100
AcDbEntity
  8
0
100
AcDbPolyline
 62
7
  6
CONTINUOUS
 90
7
 70
0
 10
-37.2667676329
 20
-136.9463418182
 10
-37.1459840671
 20
-136.8560933067
 10
-37.0420678405
 20
-136.7365181166
 10
-36.9602529882
 20
-136.5936112863
 10
-36.9022680815
 20
-136.429361863
 10
-36.866384549
 20
-136.2417807997
 10
-36.8526023907
 20
-136.0308680962
  0
LWPOLYLINE
  5
31A
100
AcDbEntity
  8
RACCORDO
100
AcDbPolyline
 62
7
  6
CONTINUOUS
 90
10
 70
0
 10
-39.5497069858
 20
-133.6456058379
 10
-39.6593523293
 20
-133.7182739876
 10
-39.7617067786
 20
-133.8061139749
 10
-39.8549284657
 20
-133.908854749
 10
-39.9372769449
 20
-134.0259602946
 10
-40.0072039214
 20
-134.1566905439
 10
-40.0635040238
 20
-134.3005388487
 10
-40.1050848919
 20
-134.4571619224
 10
-40.1308048377
 20
-134.6258899823
 10
-40.1396081592
 20
-134.8060444573
  0
LWPOLYLINE
  5
31B
100
AcDbEntity
  8
ASSI
100
AcDbPolyline
 62
7
  6
CONTINUOUS
 90
21
 70
0
 10
18.8712106112
 20
-85.5798483447
 10
18.8438367077
 20
-85.5962925641
 10
18.7907583691
 20
-85.6320688415
 10
18.740049787
 20
-85.6716375109
 10
18.6916994981
 20
-85.7149802277
 10
18.6459421411
 20
-85.7618866545
 10
18.6027903195
 20
-85.8123741137
 10
18.5622314298
 20
-85.8664252828
 10
18.5244622997
 20
-85.9237778578
 10
18.4894964894
 20
-85.9844478858
 10
18.4573204387
 20
-86.0484193196
 10
18.4280902944
 20
-86.115381713
 10
18.4018203757
 20
-86.1853496043
 10
18.3784963634
 20
-86.2583084552
 10
18.3582314462
 20
-86.3339042046
 10
18.3410404937
 20
-86.4121496697
 10
18.3269086363
 20
-86.4930320333
 10
18.3159044544
 20
-86.5761587824
 10
18.3080508081
 20
-86.6613990793
 10
18.3033248373
 20
-86.7488837616
 10
18.3017265419
 20
-86.8386128293
  0
LWPOLYLINE
  5
31C
100
AcDbEntity
  8
ASSI
100
AcDbPolyline
 62
7
  6
CONTINUOUS
 90
3
 70
0
 10
21.6213297691
 20
-90.3428875772
 10
21.6487036726
 20
-90.3264433578
 10
21.6604837525
 20
-90.3185032561
  0
LINE
  5
31D
100
AcDbEntity
  8
0
100
AcDbLine
 62
253
  6
CONTINUOUS
 10
-49.0502285362
 20
-121.2316045513
 11
-49.7573011473
 21
-121.6398594152
  0
LINE
  5
31E
100
AcDbEntity
  8
ASSI
100
AcDbLine
 62
253
  6
CONTINUOUS
 10
19.7159401043
 20
-86.0220636426
 11
18.3017265419
 21
-86.8386128293
  0
LWPOLYLINE
  5
31F
100
AcDbEntity
  8
0
100
AcDbPolyline
 62
7
  6
CONTINUOUS
 90
16
 70
0
 10
-49.2572769872
 20
-121.6894005929
 10
-49.2841344853
 20
-121.7033122797
 10
-49.3123357855
 20
-121.7148406381
 10
-49.3416742095
 20
-121.7239052526
 10
-49.3721590907
 20
-121.7304859013
 10
-49.4037810956
 20
-121.7346028061
 10
-49.4362813864
 20
-121.7362222685
 10
-49.4696671716
 20
-121.7353237902
 10
-49.5039312427
 20
-121.7319278694
 10
-49.5387931351
 20
-121.7260623033
 10
-49.5742577557
 20
-121.7177068213
 10
-49.6103201977
 20
-121.7068816939
 10
-49.6466852763
 20
-121.6936755289
 10
-49.6832545966
 20
-121.678117862
 10
-49.7201265537
 20
-121.6601791575
 10
-49.7573011473
 20
-121.6398594152
  0
LINE
  5
320
100
AcDbEntity
  8
ASSI
100
AcDbLine
 62
7
  6
CONTINUOUS
 10
90.5156294793
 20
14.9797061511
 11
88.1498396351
 21
19.2145248871
  0
LINE
  5
321
100
AcDbEntity
  8
ASSI
100
AcDbLine
 62
7
  6
CONTINUOUS
 10
91.9298430417
 20
14.1631569645
 11
89.5640531974
 21
18.3979757005
  0
LWPOLYLINE
  5
322
100
AcDbEntity
  8
ASSI
100
AcDbPolyline
 62
7
  6
CONTINUOUS
 90
22
 70
0
 10
88.1498396351
 20
19.2145248871
 10
87.9859912657
 20
19.5187301628
 10
87.8297780949
 20
19.8309570782
 10
87.6812001226
 20
20.1512056335
 10
87.5401951238
 20
20.4796328024
 10
87.4068253235
 20
20.8160816111
 10
87.2812773971
 20
21.1600811383
 10
87.1635622977
 20
21.5116419577
 10
87.0536690722
 20
21.8707534955
 10
86.9517515361
 20
22.23691311
 10
86.857820858
 20
22.6101306709
 10
86.7718658693
 20
22.9903963083
 10
86.6940068796
 20
23.3771777715
 10
86.624255226
 20
23.7704841848
 10
86.5625995714
 20
24.1703064238
 10
86.5091262142
 20
24.5760848647
 10
86.4638466123
 20
24.987827848
 10
86.4267493077
 20
25.4055270332
 10
86.3978862248
 20
25.8285977742
 10
86.3772746718
 20
26.256845189
 10
86.3648973406
 20
26.6904641597
 10
86.3607542311
 20
27.1294546863
  0
LWPOLYLINE
  5
323
100
AcDbEntity
  8
ASSI
100
AcDbPolyline
 62
7
  6
CONTINUOUS
 90
22
 70
0
 10
90.5156294793
 20
14.9797061511
 10
90.6467081748
 20
14.7363419306
 10
90.7716787114
 20
14.4865603982
 10
90.8905410893
 20
14.230361554
 10
91.0033450883
 20
13.9676198189
 10
91.1100409285
 20
13.6984607719
 10
91.2104792697
 20
13.4232611501
 10
91.3046513492
 20
13.1420124947
 10
91.3925659296
 20
12.8547232644
 10
91.4740999585
 20
12.5617955728
 10
91.549244501
 20
12.2632215241
 10
91.6180084919
 20
11.9590090142
 10
91.6802956837
 20
11.6495838436
 10
91.7360970066
 20
11.334938713
 10
91.7854215302
 20
11.0150809217
 10
91.828200216
 20
10.6904581691
 10
91.8644238975
 20
10.3610637824
 10
91.8941017412
 20
10.0269044343
 10
91.9171922075
 20
9.6884478415
 10
91.9336814499
 20
9.3458499096
 10
91.9435833149
 20
8.998954733
 10
91.9468978025
 20
8.6477623118
  0
LWPOLYLINE
  5
324
100
AcDbEntity
  8
ASSI
100
AcDbPolyline
 62
7
  6
CONTINUOUS
 90
22
 70
0
 10
89.5640531974
 20
18.3979757005
 10
89.4002048281
 20
18.7021809761
 10
89.2439916572
 20
19.0144078916
 10
89.095413685
 20
19.3346564469
 10
88.9544086862
 20
19.6630836157
 10
88.8210388859
 20
19.9995324244
 10
88.6954909595
 20
20.3435319517
 10
88.5777758601
 20
20.695092771
 10
88.4678826346
 20
21.0542043089
 10
88.3659650985
 20
21.4203639234
 10
88.2720344203
 20
21.7935814842
 10
88.1860794316
 20
22.1738471217
 10
88.1082204419
 20
22.5606285849
 10
88.0384687884
 20
22.9539349982
 10
87.9768131338
 20
23.3537572372
 10
87.9233397766
 20
23.759535678
 10
87.8780601747
 20
24.1712786614
 10
87.84096287
 20
24.5889778465
 10
87.8120997872
 20
25.0120485875
 10
87.7914882342
 20
25.4402960024
 10
87.779110903
 20
25.8739149731
 10
87.7749677935
 20
26.3129054997
  0
LWPOLYLINE
  5
325
100
AcDbEntity
  8
ASSI
100
AcDbPolyline
 62
7
  6
CONTINUOUS
 90
22
 70
0
 10
91.9298430417
 20
14.1631569645
 10
92.0609217372
 20
13.9197927439
 10
92.1858922738
 20
13.6700112116
 10
92.3047546516
 20
13.4138123673
 10
92.4175586507
 20
13.1510706322
 10
92.5242544909
 20
12.8819115853
 10
92.624692832
 20
12.6067119635
 10
92.7188649115
 20
12.325463308
 10
92.8067794919
 20
12.0381740777
 10
92.8883135209
 20
11.7452463861
 10
92.9634580633
 20
11.4466723375
 10
93.0322220543
 20
11.1424598275
 10
93.0945092461
 20
10.8330346569
 10
93.1503105689
 20
10.5183895263
 10
93.1996350926
 20
10.1985317351
 10
93.2424137783
 20
9.8739089824
 10
93.2786374599
 20
9.5445145957
 10
93.3083153036
 20
9.2103552476
 10
93.3314057699
 20
8.8718986548
 10
93.3478950123
 20
8.5293007229
 10
93.3577968772
 20
8.1824055464
 10
93.3611113648
 20
7.8312131251
  0
LINE
  5
326
100
AcDbEntity
  8
0
100
AcDbLine
 62
7
  6
CONTINUOUS
 10
91.9468978025
 20
-230.0760921157
 11
91.9468978025
 21
8.6477623118
  0
LINE
  5
327
100
AcDbEntity
  8
0
100
AcDbLine
 62
7
  6
CONTINUOUS
 10
93.3611113648
 20
-230.8926413023
 11
93.3611113648
 21
7.8312131251
  0
LWPOLYLINE
  5
328
100
AcDbEntity
  8
RACCORDO
100
AcDbPolyline
 62
253
  6
CONTINUOUS
 90
3
 70
0
 10
-37.5496103452
 20
-137.1096516558
 10
-37.4663071211
 20
-137.0527747877
 10
-37.3680995507
 20
-136.9571600498
  0
LINE
  5
329
100
AcDbEntity
  8
0
100
AcDbLine
 62
253
  6
CONTINUOUS
 10
-33.49384518
 20
-128.5806064117
 11
-34.9080587424
 21
-129.3971555983
  0
LINE
  5
32A
100
AcDbEntity
  8
0
100
AcDbLine
 62
7
  6
CONTINUOUS
 10
-39.2668642733
 20
-133.4822960006
 11
-39.5497069858
 21
-133.6456058379
  0
LINE
  5
32B
100
AcDbEntity
  8
0
100
AcDbLine
 62
253
  6
CONTINUOUS
 10
-32.7867383988
 20
-129.8053512818
 11
-34.2009519612
 21
-130.6219004684
  0
LINE
  5
32C
100
AcDbEntity
  8
0
100
AcDbLine
 62
7
  6
CONTINUOUS
 10
-37.2667676328
 20
-136.9463418185
 11
-37.5496103452
 21
-137.1096516558
  0
LWPOLYLINE
  5
32D
100
AcDbEntity
  8
ASSI
100
AcDbPolyline
 62
7
  6
CONTINUOUS
 90
21
 70
0
 10
17.4178430654
 20
106.9710684431
 10
17.3393336849
 20
107.0145532824
 10
17.2612040729
 20
107.0542074358
 10
17.1834542294
 20
107.0900309035
 10
17.105959411
 20
107.122069315
 10
17.0288443611
 20
107.1502770407
 10
16.9524833105
 20
107.1745171917
 10
16.8768799241
 20
107.1947704826
 10
16.8020305369
 20
107.2110561987
 10
16.7282983847
 20
107.2232953073
 10
16.6556888979
 20
107.2314681389
 10
16.5841966461
 20
107.235594363
 10
16.514168573
 20
107.2356539556
 10
16.4456117957
 20
107.2316271496
 10
16.3785191972
 20
107.2235337121
 10
16.3132163703
 20
107.2114129195
 10
16.2497120147
 20
107.195245196
 10
16.1879974307
 20
107.1750501173
 10
16.1283721123
 20
107.1509256881
 10
16.0708462148
 20
107.1228528087
 10
16.0427834864
 20
107.1072947982
  0
LWPOLYLINE
  5
32E
100
AcDbEntity
  8
ASSI
100
AcDbPolyline
 62
7
  6
CONTINUOUS
 90
21
 70
0
 10
-53.2928350532
 20
147.7985277758
 10
-53.3713444338
 20
147.8420126151
 10
-53.4494740458
 20
147.8816667686
 10
-53.5272238892
 20
147.9174902363
 10
-53.6047187077
 20
147.9495286478
 10
-53.6818337575
 20
147.9777363735
 10
-53.7581948082
 20
148.0019765245
 10
-53.8337981946
 20
148.0222298153
 10
-53.9086475817
 20
148.0385155315
 10
-53.982379734
 20
148.0507546401
 10
-54.0549892207
 20
148.0589274717
 10
-54.1264814726
 20
148.0630536958
 10
-54.1965095456
 20
148.0631132883
 10
-54.2650663229
 20
148.0590864824
 10
-54.3321589214
 20
148.0509930449
 10
-54.3974617483
 20
148.0388722523
 10
-54.4609661039
 20
148.0227045287
 10
-54.5226806879
 20
148.0025094501
 10
-54.5823060064
 20
147.9783850209
 10
-54.6398319038
 20
147.9503121415
 10
-54.6678946322
 20
147.9347541309
  0
LINE
  5
32F
100
AcDbEntity
  8
ASSI
100
AcDbLine
 62
7
  6
CONTINUOUS
 10
21.6604837525
 20
100.0308343607
 11
17.4178430654
 21
102.4804819207
  0
LINE
  5
330
100
AcDbEntity
  8
ASSI
100
AcDbLine
 62
7
  6
CONTINUOUS
 10
-49.0501943661
 20
140.8582936935
 11
-53.2928350532
 21
143.3079412535
  0
LINE
  5
331
100
AcDbEntity
  8
ASSI
100
AcDbLine
 62
7
  6
CONTINUOUS
 10
21.6604837525
 20
101.6639327341
 11
18.8320566278
 21
103.2970311074
  0
LINE
  5
332
100
AcDbEntity
  8
ASSI
100
AcDbLine
 62
7
  6
CONTINUOUS
 10
-49.0501943661
 20
142.4913920668
 11
-51.8786214909
 21
144.1244904401
  0
LINE
  5
333
100
AcDbEntity
  8
ASSI
100
AcDbLine
 62
7
  6
CONTINUOUS
 10
-53.2928350532
 20
147.7985277758
 11
-49.0501943661
 21
145.3488802159
  0
LINE
  5
334
100
AcDbEntity
  8
ASSI
100
AcDbLine
 62
7
  6
CONTINUOUS
 10
17.4178430654
 20
106.9710684431
 11
21.6604837525
 21
104.5214208831
  0
LINE
  5
335
100
AcDbEntity
  8
ASSI
100
AcDbLine
 62
253
  6
CONTINUOUS
 10
-131.4281343744
 20
201.8893482464
 11
-130.013920812
 21
201.0727990598
  0
LINE
  5
336
100
AcDbEntity
  8
ASSI
100
AcDbLine
 62
253
  6
CONTINUOUS
 10
87.7749677935
 20
75.3242243149
 11
86.3607542311
 21
76.1407735015
  0
LWPOLYLINE
  5
337
100
AcDbEntity
  8
ASSI
100
AcDbPolyline
 62
7
  6
CONTINUOUS
 90
8
 70
0
 10
90.4848731014
 20
-126.3382862902
 10
90.4831231273
 20
-126.3448143507
 10
90.4659321747
 20
-126.4230598158
 10
90.4518003174
 20
-126.5039421795
 10
90.4407961355
 20
-126.5870689285
 10
90.4329424892
 20
-126.6723092254
 10
90.4282165183
 20
-126.7597939077
 10
90.4266182229
 20
-126.8495229754
  0
LWPOLYLINE
  5
338
100
AcDbEntity
  8
RACCORDO
100
AcDbPolyline
 62
7
  6
CONTINUOUS
 90
20
 70
0
 10
25.0708590706
 20
-172.6036819653
 10
25.0705818672
 20
-172.6041494466
 10
25.0741636194
 20
-172.5957653046
 10
25.0809527622
 20
-172.5723968897
 10
25.0874470082
 20
-172.5341601928
 10
25.0908822913
 20
-172.4814570074
 10
25.0890000157
 20
-172.4155612761
 10
25.0800885587
 20
-172.3379492646
 10
25.0626807058
 20
-172.2495031505
 10
25.0358709212
 20
-172.1526814694
 10
24.999554612
 20
-172.0508024531
 10
24.9537539125
 20
-171.9460765826
 10
24.8990770442
 20
-171.8413014908
 10
24.8374056934
 20
-171.7405311546
 10
24.770261846
 20
-171.6460254859
 10
24.6994653143
 20
-171.5598691473
 10
24.6283162495
 20
-171.4850578219
 10
24.559556589
 20
-171.4228728782
 10
24.4949255231
 20
-171.3731380649
 10
24.4363837546
 20
-171.3355768487
  0
LWPOLYLINE
  5
339
100
AcDbEntity
  8
RACCORDO
100
AcDbPolyline
 62
253
  6
CONTINUOUS
 90
6
 70
0
 10
25.9179573655
 20
-173.4977361526
 10
26.0001862192
 20
-173.3807612578
 10
26.0653245933
 20
-173.2440078946
 10
26.1124916356
 20
-173.0893252876
 10
26.1410494401
 20
-172.9188053409
 10
26.1506118131
 20
-172.7347540364
  0
LWPOLYLINE
  5
33A
100
AcDbEntity
  8
ASSI
100
AcDbPolyline
 62
7
  6
CONTINUOUS
 90
19
 70
0
 10
-7.4988257529
 20
-150.3361533268
 10
-7.5086574052
 20
-150.3419627918
 10
-7.5471627139
 20
-150.3673360607
 10
-7.5836812443
 20
-150.3957228268
 10
-7.6182006598
 20
-150.4271418019
 10
-7.650733297
 20
-150.4615742741
 10
-7.6810775661
 20
-150.4988068811
 10
-7.7092198786
 20
-150.53885701
 10
-7.7351738229
 20
-150.5817072738
 10
-7.7587785743
 20
-150.6270921487
 10
-7.7800195458
 20
-150.6750273733
 10
-7.7989113244
 20
-150.7254972092
 10
-7.8153368462
 20
-150.7781889178
 10
-7.8292807976
 20
-150.8331162956
 10
-7.8407584923
 20
-150.890265546
 10
-7.8496988083
 20
-150.9492825414
 10
-7.8560780382
 20
-151.0100492391
 10
-7.8599198895
 20
-151.0726836816
 10
-7.861224362
 20
-151.137185869
  0
LINE
  5
33B
100
AcDbEntity
  8
RACCORDO
100
AcDbLine
 62
253
  6
CONTINUOUS
 10
-38.2078529706
 20
-136.0412822887
 11
-38.2509130451
 21
-136.0560702386
  0
LWPOLYLINE
  5
33C
100
AcDbEntity
  8
RACCORDO
100
AcDbPolyline
 62
253
  6
CONTINUOUS
 90
5
 70
0
 10
-108.9615911637
 20
106.439547462
 10
-109.030235139
 20
106.4334204467
 10
-109.1040192117
 20
106.4425855642
 10
-109.1812951659
 20
106.4668380837
 10
-109.2603367842
 20
106.5056362461
  0
LWPOLYLINE
  5
33D
100
AcDbEntity
  8
ASSI
100
AcDbPolyline
 62
7
  6
CONTINUOUS
 90
28
 70
0
 10
76.4261873426
 20
88.1353417882
 10
68.4038112694
 20
92.3178611741
 10
60.6217365136
 20
96.4079561244
 10
52.8675476535
 20
100.5155320362
 10
45.141126909
 20
104.6406522875
 10
37.4425920602
 20
108.7832535002
 10
29.7722964483
 20
112.9431455406
 10
22.1302413694
 20
117.1203292025
 10
14.5164255275
 20
121.314803692
 10
6.9311983752
 20
125.5263764947
 10
-0.6254387754
 20
129.7550483954
 10
-8.1534872363
 20
134.0008186092
 10
-15.6526014913
 20
138.2634922673
 10
-23.1227802124
 20
142.5430701454
 10
-30.5640247276
 20
146.8395514678
 10
-37.9759935048
 20
151.1527390381
 10
-45.3586852002
 20
155.4826336229
 10
-52.7121011575
 20
159.8292344556
 10
-60.0359038757
 20
164.1923420394
 10
-67.3300919954
 20
168.571957132
 10
-74.594666876
 20
172.9680789756
 10
-81.8292950939
 20
177.3805058007
 10
-89.0339752746
 20
181.8092383556
 10
-96.2087087925
 20
186.254275892
 10
-103.3531663476
 20
190.7154143951
 10
-110.4672381732
 20
195.1925858601
 10
-117.551034036
 20
199.6858582918
 10
-124.6045539359
 20
204.1952316903
  0
LWPOLYLINE
  5
33E
100
AcDbEntity
  8
ASSI
100
AcDbPolyline
 62
7
  6
CONTINUOUS
 90
5
 70
0
 10
76.2137719211
 20
89.8781877388
 10
68.4038112694
 20
93.9508017276
 10
60.6217365136
 20
98.040896678
 10
52.8675476535
 20
102.1484725898
 10
45.141126909
 20
106.2735928411
  0
LWPOLYLINE
  5
33F
100
AcDbEntity
  8
ASSI
100
AcDbPolyline
 62
7
  6
CONTINUOUS
 90
61
 70
0
 10
76.2137719211
 20
89.8781877388
 10
76.4623401971
 20
89.7468744743
 10
76.7138122721
 20
89.6096374343
 10
76.9680312313
 20
89.4665124254
 10
77.2249333889
 20
89.3175006508
 10
77.4842605939
 20
89.1626865503
 10
77.7455625863
 20
89.0022590418
 10
78.0086992949
 20
88.8363142558
 10
78.2734820867
 20
88.6649200723
 10
78.5393913416
 20
88.4882681888
 10
78.8061194777
 20
88.3065961734
 10
79.0736502751
 20
88.1199050943
 10
79.3418997691
 20
87.9280402868
 10
79.6106683838
 20
87.731150636
 10
79.8798200803
 20
87.5293184325
 10
80.1493516667
 20
87.3222575618
 10
80.4192806335
 20
87.1099399072
 10
80.6892255025
 20
86.8926065703
 10
80.9585784428
 20
86.6703721166
 10
81.2271317742
 20
86.4434305364
 10
81.4947377482
 20
86.2118698128
 10
81.7608833538
 20
85.9756656095
 10
82.0254796589
 20
85.7349215109
 10
82.288256966
 20
85.4898505827
 10
82.5484410513
 20
85.240613438
 10
82.805891714
 20
84.9873948521
 10
83.0604148231
 20
84.7303842061
 10
83.3111785993
 20
84.4697778215
 10
83.5581195424
 20
84.205707714
 10
83.801000018
 20
83.9384611358
 10
84.0387691357
 20
83.6685002171
 10
84.271306157
 20
83.3960655056
 10
84.4985070688
 20
83.1213845226
 10
84.7194060064
 20
82.8449305705
 10
84.9337279978
 20
82.5672006575
 10
85.1416172293
 20
82.2881879148
 10
85.3427575162
 20
82.0076141667
 10
85.5371334864
 20
81.7256120515
 10
85.724619403
 20
81.4425117066
 10
85.9047275798
 20
81.1583240986
 10
86.0774701289
 20
80.8731192295
 10
86.2427238906
 20
80.5872783884
 10
86.3998342904
 20
80.3012774013
 10
86.5487542857
 20
80.015321123
 10
86.6895116993
 20
79.7296375175
 10
86.8216269895
 20
79.4447292416
 10
86.9450060423
 20
79.1610082916
 10
87.0598198008
 20
78.878454076
 10
87.1660073233
 20
78.5969103458
 10
87.2635804281
 20
78.3165616538
 10
87.352596812
 20
78.0375802053
 10
87.4330404417
 20
77.7597887772
 10
87.5049176778
 20
77.4833938396
 10
87.5682860515
 20
77.2085196966
 10
87.6231707291
 20
76.9348714902
 10
87.6695856213
 20
76.6625597875
 10
87.7075503172
 20
76.3917970498
 10
87.7370626922
 20
76.1224518335
 10
87.7581230327
 20
75.854589117
 10
87.7707521661
 20
75.5884620886
 10
87.7749677935
 20
75.3242243149
  0
LWPOLYLINE
  5
340
100
AcDbEntity
  8
ASSI
100
AcDbPolyline
 62
7
  6
CONTINUOUS
 90
60
 70
0
 10
76.4261873426
 20
88.1353417882
 10
76.6414234285
 20
88.020633906
 10
76.859347405
 20
87.9011538366
 10
77.0799085285
 20
87.7769044138
 10
77.3028852191
 20
87.6479552708
 10
77.5278870537
 20
87.5144608145
 10
77.7547995346
 20
87.3765047093
 10
77.9834590252
 20
87.234142069
 10
78.2134043421
 20
87.0875226822
 10
78.4443748786
 20
86.9368473689
 10
78.6763572551
 20
86.7821172322
 10
78.9092599546
 20
86.623189583
 10
79.1429146837
 20
86.4601907348
 10
79.3772057542
 20
86.2931899843
 10
79.6121082586
 20
86.1219324126
 10
79.847644344
 20
85.9463984712
 10
80.0834838738
 20
85.7667879267
 10
80.3190682813
 20
85.5831721709
 10
80.5542236996
 20
85.3957164247
 10
80.7888232483
 20
85.2044940601
 10
81.0223830059
 20
85.0094557104
 10
81.2548330503
 20
84.8106921006
 10
81.4859398481
 20
84.6083804406
 10
81.7149824666
 20
84.4026186301
 10
81.9418453126
 20
84.1935647718
 10
82.1663610834
 20
83.9813773569
 10
82.387751032
 20
83.766179238
 10
82.6059659426
 20
83.5480847275
 10
82.8208002248
 20
83.3273342781
 10
83.0312761847
 20
83.1042678364
 10
83.237291391
 20
82.8790887879
 10
83.4387581005
 20
82.6519898054
 10
83.6347713676
 20
82.423320753
 10
83.825089169
 20
82.1934967746
 10
84.009842863
 20
81.9625174593
 10
84.1887052975
 20
81.730113009
 10
84.3616649946
 20
81.4963965391
 10
84.528614032
 20
81.2616465135
 10
84.6890755531
 20
81.0258351438
 10
84.8430607941
 20
80.7890222327
 10
84.9904645553
 20
80.5515298392
 10
85.1306658034
 20
80.3137218064
 10
85.263619655
 20
80.075768541
 10
85.3893547308
 20
79.8378658678
 10
85.5074133365
 20
79.600409129
 10
85.6177067572
 20
79.3637416941
 10
85.7203887171
 20
79.1278513826
 10
85.8153829633
 20
78.8925917296
 10
85.9026967976
 20
78.6581173371
 10
85.9823817387
 20
78.4245754755
 10
86.0544076284
 20
78.191806607
 10
86.1187775213
 20
77.9599840932
 10
86.1755424252
 20
77.7292144584
 10
86.2247140245
 20
77.4992426586
 10
86.2663030317
 20
77.2701616396
 10
86.3003270804
 20
77.0421517873
 10
86.3267779381
 20
76.8150981649
 10
86.345653702
 20
76.5890545156
 10
86.3569741404
 20
76.3642363142
 10
86.3607542311
 20
76.1407735015
  0
LINE
  5
341
100
AcDbEntity
  8
ASSI
100
AcDbLine
 62
7
  6
CONTINUOUS
 10
45.141126909
 20
106.2735928411
 11
37.1738327207
 21
110.5619524305
  0
LWPOLYLINE
  5
342
100
AcDbEntity
  8
ASSI
100
AcDbPolyline
 62
7
  6
CONTINUOUS
 90
23
 70
0
 10
37.1738327207
 20
110.5619524305
 10
29.7722964483
 20
114.5760860942
 10
22.1302413694
 20
118.753269756
 10
14.5164255275
 20
122.9477442456
 10
6.9311983752
 20
127.1593170483
 10
-0.6254387754
 20
131.387988949
 10
-8.1534872363
 20
135.6337591628
 10
-15.6526014913
 20
139.8964328208
 10
-23.1227802124
 20
144.176010699
 10
-30.5640247276
 20
148.4724920214
 10
-37.9759935048
 20
152.7856795916
 10
-45.3586852002
 20
157.1155741765
 10
-52.7121011575
 20
161.4621750092
 10
-60.0359038757
 20
165.825282593
 10
-67.3300919954
 20
170.2048976856
 10
-74.594666876
 20
174.6010195292
 10
-81.8292950939
 20
179.0134463543
 10
-89.0339752746
 20
183.4421789092
 10
-96.2087087925
 20
187.8872164456
 10
-103.3531663476
 20
192.3483549487
 10
-110.4672381732
 20
196.8255264137
 10
-117.551034036
 20
201.3187988454
 10
-124.6045539359
 20
205.8281722438
  0
LINE
  5
343
100
AcDbEntity
  8
0
100
AcDbLine
 62
7
  6
CONTINUOUS
 10
58.5857545409
 20
97.4864635813
 11
82.4415113492
 21
83.7124485831
  0
LINE
  5
344
100
AcDbEntity
  8
0
100
AcDbLine
 62
253
  6
CONTINUOUS
 10
130.5549280553
 20
100.0248372112
 11
130.5549280553
 21
-213.4997490773
  0
LINE
  5
345
100
AcDbEntity
  8
0
100
AcDbLine
 62
7
  6
CONTINUOUS
 10
131.4336077117
 20
101.2496609912
 11
131.4336077117
 21
-212.2749252973
  0
LWPOLYLINE
  5
346
100
AcDbEntity
  8
RACCORDO
100
AcDbPolyline
 62
253
  6
CONTINUOUS
 90
3
 70
0
 10
24.2771188881
 20
-171.3468464198
 10
24.3217694552
 20
-171.2970077667
 10
24.3316603641
 20
-171.2899382951
  0
LWPOLYLINE
  5
347
100
AcDbEntity
  8
ASSI
100
AcDbPolyline
 62
7
  6
CONTINUOUS
 90
19
 70
0
 10
-5.748749237
 20
-153.3671794879
 10
-5.7389175847
 20
-153.3613700229
 10
-5.700412276
 20
-153.335996754
 10
-5.6638937456
 20
-153.307609988
 10
-5.6293743301
 20
-153.2761910129
 10
-5.5968416929
 20
-153.2417585406
 10
-5.5664974238
 20
-153.2045259336
 10
-5.5383551113
 20
-153.1644758047
 10
-5.512401167
 20
-153.121625541
 10
-5.4887964156
 20
-153.076240666
 10
-5.4675554441
 20
-153.0283054414
 10
-5.4486636655
 20
-152.9778356055
 10
-5.4322381436
 20
-152.9251438969
 10
-5.4182941923
 20
-152.8702165192
 10
-5.4068164976
 20
-152.8130672687
 10
-5.3978761816
 20
-152.7540502733
 10
-5.3914969517
 20
-152.6932835757
 10
-5.3876551004
 20
-152.6306491331
 10
-5.3863506279
 20
-152.5661469457
  0
LWPOLYLINE
  5
348
100
AcDbEntity
  8
0
100
AcDbPolyline
 62
7
  6
CONTINUOUS
 90
7
 70
0
 10
26.0192892833
 20
-173.4869179211
 10
26.1400728491
 20
-173.3966694096
 10
26.2439890757
 20
-173.2770942194
 10
26.325803928
 20
-173.1341873891
 10
26.3837888347
 20
-172.9699379659
 10
26.4196723672
 20
-172.7823569025
 10
26.4334545255
 20
-172.571444199
  0
LWPOLYLINE
  5
349
100
AcDbEntity
  8
RACCORDO
100
AcDbPolyline
 62
253
  6
CONTINUOUS
 90
3
 70
0
 10
25.736446571
 20
-173.6502277587
 10
25.8197497951
 20
-173.5933508905
 10
25.9179573655
 20
-173.4977361526
  0
LWPOLYLINE
  5
34A
100
AcDbEntity
  8
RACCORDO
100
AcDbPolyline
 62
7
  6
CONTINUOUS
 90
10
 70
0
 10
23.7363499304
 20
-170.1861819408
 10
23.6267045868
 20
-170.2588500904
 10
23.5243501376
 20
-170.3466900777
 10
23.4311284505
 20
-170.4494308518
 10
23.3487799713
 20
-170.5665363975
 10
23.2788529948
 20
-170.6972666468
 10
23.2225528924
 20
-170.8411149515
 10
23.1809720243
 20
-170.9977380252
 10
23.1552520785
 20
-171.1664660851
 10
23.146448757
 20
-171.3466205601
  0
LWPOLYLINE
  5
34B
100
AcDbEntity
  8
ASSI
100
AcDbPolyline
 62
7
  6
CONTINUOUS
 90
21
 70
0
 10
89.5818887298
 20
-126.4073076774
 10
89.5545148264
 20
-126.4237518969
 10
89.5014364878
 20
-126.4595281742
 10
89.4507279056
 20
-126.4990968437
 10
89.4023776168
 20
-126.5424395604
 10
89.3566202598
 20
-126.5893459873
 10
89.3134684382
 20
-126.6398334464
 10
89.2729095485
 20
-126.6938846156
 10
89.2351404183
 20
-126.7512371906
 10
89.2001746081
 20
-126.8119072186
 10
89.1679985574
 20
-126.8758786524
 10
89.1387684131
 20
-126.9428410458
 10
89.1124984944
 20
-127.0128089371
 10
89.0891744821
 20
-127.085767788
 10
89.0689095649
 20
-127.1613635373
 10
89.0517186124
 20
-127.2396090025
 10
89.037586755
 20
-127.3204913661
 10
89.0265825731
 20
-127.4036181152
 10
89.0187289268
 20
-127.488858412
 10
89.0140029559
 20
-127.5763430943
 10
89.0124046605
 20
-127.6660721621
  0
LINE
  5
34C
100
AcDbEntity
  8
0
100
AcDbLine
 62
253
  6
CONTINUOUS
 10
21.6604495825
 20
-162.059063884
 11
20.9533769713
 21
-162.467318748
  0
LINE
  5
34D
100
AcDbEntity
  8
ASSI
100
AcDbLine
 62
253
  6
CONTINUOUS
 10
90.4266182229
 20
-126.8495229754
 11
89.0124046605
 21
-127.6660721621
  0
LINE
  5
34E
100
AcDbEntity
  8
0
100
AcDbLine
 62
7
  6
CONTINUOUS
 10
24.0191926429
 20
-170.0228721034
 11
23.7363499304
 21
-170.1861819408
  0
LWPOLYLINE
  5
34F
100
AcDbEntity
  8
0
100
AcDbPolyline
 62
7
  6
CONTINUOUS
 90
16
 70
0
 10
21.4534011315
 20
-162.5168599257
 10
21.4265436333
 20
-162.5307716125
 10
21.3983423331
 20
-162.5422999709
 10
21.3690039091
 20
-162.5513645854
 10
21.338519028
 20
-162.5579452341
 10
21.306897023
 20
-162.5620621389
 10
21.2743967323
 20
-162.5636816013
 10
21.241010947
 20
-162.5627831229
 10
21.206746876
 20
-162.5593872022
 10
21.1718849836
 20
-162.553521636
 10
21.136420363
 20
-162.5451661541
 10
21.100357921
 20
-162.5343410267
 10
21.0639928424
 20
-162.5211348616
 10
21.027423522
 20
-162.5055771948
 10
20.990551565
 20
-162.4876384902
 10
20.9533769713
 20
-162.467318748
  0
LINE
  5
350
100
AcDbEntity
  8
0
100
AcDbLine
 62
253
  6
CONTINUOUS
 10
-79.4557859572
 20
231.8965050278
 11
121.3625398998
 21
115.9465205227
  0
LINE
  5
351
100
AcDbEntity
  8
0
100
AcDbLine
 62
7
  6
CONTINUOUS
 10
-77.9557134767
 20
232.0451285609
 11
122.8626123802
 21
116.0951440558
  0
LWPOLYLINE
  5
352
100
AcDbEntity
  8
0
100
AcDbPolyline
 62
253
  6
CONTINUOUS
 90
58
 70
0
 10
121.3625398998
 20
115.9465205227
 10
121.6158301102
 20
115.7962438254
 10
121.8689279756
 20
115.6380210372
 10
122.121641297
 20
115.4719723106
 10
122.3737781675
 20
115.2982237404
 10
122.6251471178
 20
115.1169072689
 10
122.875557262
 20
114.9281605854
 10
123.124818442
 20
114.7321270213
 10
123.3727413724
 20
114.5289554419
 10
123.6191377841
 20
114.3188001328
 10
123.8638205671
 20
114.1018206829
 10
124.1066039127
 20
113.8781818633
 10
124.3473034546
 20
113.6480535024
 10
124.585736409
 20
113.4116103563
 10
124.8217217133
 20
113.1690319766
 10
125.0550801635
 20
112.920502574
 10
125.2856345505
 20
112.6662108782
 10
125.5132097945
 20
112.4063499946
 10
125.7376330782
 20
112.1411172581
 10
125.9587339775
 20
111.8707140826
 10
126.1763445917
 20
111.5953458085
 10
126.3902996702
 20
111.3152215466
 10
126.6004367386
 20
111.0305540194
 10
126.8065962217
 20
110.7415593993
 10
127.0086215649
 20
110.4484571448
 10
127.206359353
 20
110.1514698337
 10
127.3996594267
 20
109.8508229939
 10
127.5883749967
 20
109.5467449324
 10
127.772362755
 20
109.2394665619
 10
127.9514829839
 20
108.9292212251
 10
128.125599662
 20
108.6162445181
 10
128.2945805675
 20
108.300774111
 10
128.4582973787
 20
107.9830495675
 10
128.6166257714
 20
107.6633121633
 10
128.7694455132
 20
107.3418047023
 10
128.9166405549
 20
107.018771333
 10
129.0580991187
 20
106.6944573622
 10
129.193713783
 20
106.3691090694
 10
129.3233815639
 20
106.0429735196
 10
129.4470039934
 20
105.7162983754
 10
129.5644871945
 20
105.3893317096
 10
129.6757419521
 20
105.0623218158
 10
129.7806837808
 20
104.7355170209
 10
129.8792329894
 20
104.4091654957
 10
129.9713147408
 20
104.0835150672
 10
130.0568591096
 20
103.7588130296
 10
130.1358011346
 20
103.435305957
 10
130.2080808682
 20
103.1132395163
 10
130.2736434223
 20
102.7928582802
 10
130.3324390096
 20
102.4744055416
 10
130.3844229815
 20
102.1581231291
 10
130.4295558622
 20
101.8442512231
 10
130.4678033783
 20
101.5330281735
 10
130.4991364853
 20
101.2246903188
 10
130.5235313892
 20
100.9194718064
 10
130.5409695649
 20
100.6176044149
 10
130.55143777
 20
100.3193173781
 10
130.5549280553
 20
100.0248372112
  0
LWPOLYLINE
  5
353
100
AcDbEntity
  8
0
100
AcDbPolyline
 62
7
  6
CONTINUOUS
 90
52
 70
0
 10
122.8626123802
 20
116.0951440558
 10
123.1460108605
 20
115.926519441
 10
123.4271898056
 20
115.749261215
 10
123.7060299403
 20
115.56354481
 10
123.9825379749
 20
115.3694517836
 10
124.2564778996
 20
115.1672257026
 10
124.5273640534
 20
114.9573217319
 10
124.7950431269
 20
114.7399701201
 10
125.059439925
 20
114.5153358669
 10
125.3201788529
 20
114.2838472961
 10
125.5771789361
 20
114.0456915728
 10
125.8302953257
 20
113.8011113903
 10
126.0790584694
 20
113.5506858263
 10
126.3231703908
 20
113.2948680743
 10
126.562734899
 20
113.0336966372
 10
126.7978739281
 20
112.7671531401
 10
127.0285283785
 20
112.4953954143
 10
127.2545336078
 20
112.218702803
 10
127.475828292
 20
111.9372304029
 10
127.6923213432
 20
111.6511634748
 10
127.9038757903
 20
111.3607470919
 10
128.1103537884
 20
111.0662330279
 10
128.3115971105
 20
110.7679103504
 10
128.5075461292
 20
110.4659256059
 10
128.6982011275
 20
110.1603167146
 10
128.883479229
 20
109.8512351726
 10
129.0632278633
 20
109.538947734
 10
129.2373333874
 20
109.2236606846
 10
129.4056525806
 20
108.9056383104
 10
129.5681015008
 20
108.5850366965
 10
129.7246480215
 20
108.2618938519
 10
129.8751998384
 20
107.9363494339
 10
130.0196030044
 20
107.6086745084
 10
130.1577280534
 20
107.2790952835
 10
130.2894492111
 20
106.9478339007
 10
130.4146542698
 20
106.6150799079
 10
130.5332375751
 20
106.2810002324
 10
130.6450566197
 20
105.9458657782
 10
130.7500147705
 20
105.609813543
 10
130.8480618743
 20
105.2727929232
 10
130.9391256891
 20
104.9347517021
 10
131.0229901531
 20
104.5961467496
 10
131.0994095791
 20
104.2576693641
 10
131.1682441437
 20
103.9196782487
 10
131.2294218924
 20
103.5822089591
 10
131.2828336887
 20
103.2454395845
 10
131.3283643549
 20
102.9095673963
 10
131.3658975536
 20
102.5747801381
 10
131.395317696
 20
102.2412128139
 10
131.416498919
 20
101.9090292389
 10
131.429307475
 20
101.5784441709
 10
131.4336077117
 20
101.2496609912
  0
LINE
  5
354
100
AcDbEntity
  8
0
100
AcDbLine
 62
7
  6
CONTINUOUS
 10
26.0192892834
 20
-173.4869179213
 11
25.736446571
 21
-173.6502277587
  0
LINE
  5
355
100
AcDbEntity
  8
0
100
AcDbLine
 62
253
  6
CONTINUOUS
 10
37.2168329386
 20
-169.4080657444
 11
35.8026193763
 21
-170.2246149311
  0
LINE
  5
356
100
AcDbEntity
  8
0
100
AcDbLine
 62
253
  6
CONTINUOUS
 10
37.9239397198
 20
-170.6328106146
 11
36.5097261574
 21
-171.4493598012
  0
LINE
  5
357
100
AcDbEntity
  8
RACCORDO
100
AcDbLine
 62
253
  6
CONTINUOUS
 10
25.0782039456
 20
-172.5818583915
 11
25.0351438711
 21
-172.5966463414
  0
LWPOLYLINE
  5
358
100
AcDbEntity
  8
ASSI
100
AcDbPolyline
 62
7
  6
CONTINUOUS
 90
19
 70
0
 10
63.2118523658
 20
-191.1636126596
 10
63.2020207135
 20
-191.1694221246
 10
63.1635154048
 20
-191.1947953935
 10
63.1269968744
 20
-191.2231821596
 10
63.0924774589
 20
-191.2546011347
 10
63.0599448217
 20
-191.2890336069
 10
63.0296005526
 20
-191.3262662139
 10
63.0014582401
 20
-191.3663163428
 10
62.9755042957
 20
-191.4091666065
 10
62.9518995443
 20
-191.4545514815
 10
62.9306585729
 20
-191.5024867061
 10
62.9117667943
 20
-191.552956542
 10
62.8953412724
 20
-191.6056482506
 10
62.8813973211
 20
-191.6605756283
 10
62.8699196264
 20
-191.7177248788
 10
62.8609793104
 20
-191.7767418742
 10
62.8546000805
 20
-191.8375085718
 10
62.8507582292
 20
-191.9001430144
 10
62.8494537566
 20
-191.9646452018
  0
LWPOLYLINE
  5
359
100
AcDbEntity
  8
ASSI
100
AcDbPolyline
 62
7
  6
CONTINUOUS
 90
19
 70
0
 10
64.9619288816
 20
-194.1946388207
 10
64.971760534
 20
-194.1888293557
 10
65.0102658426
 20
-194.1634560868
 10
65.046784373
 20
-194.1350693207
 10
65.0813037885
 20
-194.1036503456
 10
65.1138364258
 20
-194.0692178734
 10
65.1441806948
 20
-194.0319852664
 10
65.1723230074
 20
-193.9919351375
 10
65.1982769517
 20
-193.9490848738
 10
65.2218817031
 20
-193.9036999988
 10
65.2431226746
 20
-193.8557647742
 10
65.2620144531
 20
-193.8052949383
 10
65.278439975
 20
-193.7526032297
 10
65.2923839264
 20
-193.697675852
 10
65.303861621
 20
-193.6405266015
 10
65.312801937
 20
-193.5815096061
 10
65.319181167
 20
-193.5207429085
 10
65.3230230182
 20
-193.4581084659
 10
65.3243274908
 20
-193.3936062785
  0
LINE
  5
35A
100
AcDbEntity
  8
0
100
AcDbLine
 62
253
  6
CONTINUOUS
 10
91.9468978025
 20
-203.1314682434
 11
91.66405509
 21
-203.2947780808
  0
LWPOLYLINE
  5
35B
100
AcDbEntity
  8
0
100
AcDbPolyline
 62
7
  6
CONTINUOUS
 90
21
 70
0
 10
130.5549280553
 20
-213.4997490773
 10
130.6388310573
 20
-213.4492910757
 10
130.7189077567
 20
-213.3971022301
 10
130.7951581535
 20
-213.3431825405
 10
130.8676933934
 20
-213.2874390348
 10
130.9364023307
 20
-213.229964685
 10
131.0009515286
 20
-213.1710384077
 10
131.0613207678
 20
-213.1106531456
 10
131.1175302676
 20
-213.048815956
 10
131.1693072497
 20
-212.9858269278
 10
131.2166301687
 20
-212.9216804624
 10
131.25952057
 20
-212.8563821585
 10
131.2977703112
 20
-212.7902489014
 10
131.3313568354
 20
-212.7232766326
 10
131.3603026995
 20
-212.6554694107
 10
131.3844674325
 20
-212.5871562964
 10
131.4038277947
 20
-212.5183348308
 10
131.4184070257
 20
-212.4490074728
 10
131.4281343744
 20
-212.3795106604
 10
131.4329862568
 20
-212.3098435698
 10
131.4335927421
 20
-212.2749252973
  0
LINE
  5
35C
100
AcDbEntity
  8
0
100
AcDbLine
 62
7
  6
CONTINUOUS
 10
130.5549280553
 20
-213.4997490773
 11
96.8966452708
 21
-232.9336197197
  0
ENDSEC
  0
SECTION
  2
OBJECTS
  0
DICTIONARY
  5
C
100
AcDbDictionary
280
0
281
1
  3
ACAD_GROUP
350
D
  3
ACAD_MLINESTYLE
350
17
  3
ACAD_LAYOUT
350
1A
  3
ACAD_PLOTSETTINGS
350
19
  3
ACAD_PLOTSTYLENAME
350
E
  0
DICTIONARY
  5
D
102
{ACAD_REACTORS
330
C
102
}
100
AcDbDictionary
280
0
281
1
  0
ACDBDICTIONARYWDFLT
  5
E
102
{ACAD_REACTORS
330
C
102
}
100
AcDbDictionary
281
1
  3
Normal
350
F
100
AcDbDictionaryWithDefault
340
F
  0
DICTIONARY
  5
17
102
{ACAD_REACTORS
330
C
102
}
100
AcDbDictionary
280
0
281
1
  3
Standard
350
18
  0
DICTIONARY
  5
19
102
{ACAD_REACTORS
330
C
102
}
100
AcDbDictionary
281
1
  0
DICTIONARY
  5
1A
102
{ACAD_REACTORS
330
C
102
}
100
AcDbDictionary
281
1
  3
Model
350
35D
  3
Layout1
350
35E
  0
ACDBPLACEHOLDER
  5
F
102
{ACAD_REACTORS
330
E
102
}
  0
MLINESTYLE
  5
18
102
{ACAD_REACTORS
330
17
102
}
100
AcDbMlineStyle
  2
STANDARD
 70
0
  3

 62
256
 51
90.0
 52
90.0
 71
2
 49
0.5
 62
256
  6
BYLAYER
 49
-0.5
 62
256
  6
BYLAYER
  0
LAYOUT
  5
35D
102
{ACAD_REACTORS
330
1A
102
}
100
AcDbPlotSettings
  1

  2
none_device
  4
ISO_A4_(297.00_x_210.00_MM)
  6

 40
0.0
 41
0.0
 42
0.0
 43
0.0
 44
297.0
 45
210.0
 46
0.0
 47
0.0
 48
0.0
 49
0.0
140
0.0
141
0.0
142
1.0
143
1.0
 70
1024
 72
1
 73
0
 74
0
  7

 75
0
147
1.0
148
0.0
149
0.0
100
AcDbLayout
  1
Model
 70
0
 71
0
 10
0.0
 20
0.0
 11
297.0
 21
210.0
 12
0.0
 22
0.0
 32
0.0
 14
0.0
 24
0.0
 34
0.0
 15
0.0
 25
0.0
 35
0.0
146
0.0
 13
0.0
 23
0.0
 33
0.0
 16
1.0
 26
0.0
 36
0.0
 17
0.0
 27
1.0
 37
0.0
 76
0
330
20F
345
0
346
0
  0
LAYOUT
  5
35E
102
{ACAD_REACTORS
330
1A
102
}
100
AcDbPlotSettings
  1

  2
none_device
  4
ISO_A4_(297.00_x_210.00_MM)
  6

 40
0.0
 41
0.0
 42
0.0
 43
0.0
 44
297.0
 45
210.0
 46
0.0
 47
0.0
 48
0.0
 49
0.0
140
0.0
141
0.0
142
1.0
143
1.0
 70
0
 72
1
 73
0
 74
0
  7

 75
0
147
1.0
148
0.0
149
0.0
100
AcDbLayout
  1
Layout1
 70
0
 71
1
 10
0.0
 20
0.0
 11
297.0
 21
210.0
 12
0.0
 22
0.0
 32
0.0
 14
0.0
 24
0.0
 34
0.0
 15
0.0
 25
0.0
 35
0.0
146
0.0
 13
0.0
 23
0.0
 33
0.0
 16
1.0
 26
0.0
 36
0.0
 17
0.0
 27
1.0
 37
0.0
 76
0
330
210
345
0
346
0
  0
ENDSEC
  0
EOF
