  0
SECTION
  2
HEADER
  9
$ACADVER
  1
AC1015
  9
$DWGCODEPAGE
  3
ANSI_1252
  9
$EXTMAX
 10
210.0
 20
297.0
 30
0.0
  9
$EXTMIN
 10
0.0
 20
0.0
 30
0.0
  9
$LIMMIN
 10
0.0
 20
0.0
  9
$LIMMAX
 10
210.0
 20
297.0
  9
$VIEWCTR
 10
105.0
 20
148.5
  9
$VIEWSIZE
 40
297.0
  9
$CLAYER
  8
0
  9
$LTSCALE
 40
19.36
  9
$CELTYPE
  6
BYLAYER
  9
$DIMSCALE
 40
1.0
  9
$DIMASZ
 40
3.0
  9
$DIMEXO
 40
0.5
  9
$DIMDLI
 40
13.376
  9
$DIMEXE
 40
1.5
  9
$DIMCEN
 40
3.168
  9
$DIMLFAC
 40
1.0
  9
$DIMBLK
  1
_FILLED
  9
$DIMALT
 70
0
  9
$DIMALTF
 40
0.0393700787
  9
$DIMTXT
 40
3.0
  9
$DIMTOL
 70
1
  9
$DIMLIM
 70
0
  9
$DIMTFAC
 40
1.0
  9
$DIMTP
 40
0.01
  9
$DIMTM
 40
0.01
  9
$DIMGAP
 40
0.625
  9
$DIMDSEP
 70
44
  9
$AUNITS
 70
0
  9
$PDMODE
 70
3
  9
$PDSIZE
 40
3.0
  9
$HANDSEED
  5
500
  9
$TILEMODE
 70
1
  9
$MEASUREMENT
 70
1
  9
$INSUNITS
 70
4
  0
ENDSEC
  0
SECTION
  2
CLASSES
  0
CLASS
  1
ACDBDICTIONARYWDFLT
  2
AcDbDictionaryWithDefault
  3
AutoCAD 2000
 90
0
280
0
281
0
  0
CLASS
  1
ACDBPLACEHOLDER
  2
AcDbPlaceHolder
  3
AutoCAD 2000
 90
0
280
0
281
0
  0
CLASS
  1
LAYOUT
  2
AcDbLayout
  3
AutoCAD 2000
 90
0
280
0
281
0
  0
ENDSEC
  0
SECTION
  2
TABLES
  0
TABLE
  2
VPORT
  5
8
100
AcDbSymbolTable
 70
2
  0
VPORT
  5
1F4
100
AcDbSymbolTableRecord
100
AcDbViewportTableRecord
  2
*ACTIVE
 70
0
 10
0.0
 20
0.0
 11
1.0
 21
1.0
 12
105.0
 22
148.5
 13
0.0
 23
0.0
 14
1.0
 24
1.0
 15
0.0
 25
0.0
 16
0.0
 26
0.0
 36
1.0
 17
0.0
 27
0.0
 37
0.0
 40
297.0
 41
0.7070707071
 42
50.0
 43
0.0
 44
0.0
 50
0.0
 51
0.0
 71
0
 72
100
 73
1
 74
1
 75
0
 76
0
 77
0
 78
0
  0
ENDTAB
  0
TABLE
  2
LTYPE
  5
5
100
AcDbSymbolTable
 70
6
  0
LTYPE
  5
14
100
AcDbSymbolTableRecord
100
AcDbLinetypeTableRecord
  2
BYBLOCK
 70
0
  3

 72
65
 73
0
 40
0.0
  0
LTYPE
  5
15
100
AcDbSymbolTableRecord
100
AcDbLinetypeTableRecord
  2
BYLAYER
 70
0
  3

 72
65
 73
0
 40
0.0
  0
LTYPE
  5
16
100
AcDbSymbolTableRecord
100
AcDbLinetypeTableRecord
  2
CONTINUOUS
 70
64
  3
Solid line
 72
65
 73
0
 40
0.0
  0
LTYPE
  5
1F5
100
AcDbSymbolTableRecord
100
AcDbLinetypeTableRecord
  2
CENTER
 70
64
  3
____ _ ____ _ ____ _ ____ _ ____ _ ____ _ ____
 72
65
 73
4
 40
0.6
 49
0.375
 74
0
 49
-0.075
 74
0
 49
0.075
 74
0
 49
-0.075
 74
0
  0
LTYPE
  5
1F6
100
AcDbSymbolTableRecord
100
AcDbLinetypeTableRecord
  2
HIDDEN
 70
64
  3
- - - - - - - - - - - - - - - - - - - -
 72
65
 73
2
 40
0.2
 49
0.1
 74
0
 49
-0.1
 74
0
  0
LTYPE
  5
1F7
100
AcDbSymbolTableRecord
100
AcDbLinetypeTableRecord
  2
PHANTOM
 70
64
  3
_____ _ _ _____ _ _ _____ _ _ _____
 72
65
 73
6
 40
0.8
 49
0.45
 74
0
 49
-0.05
 74
0
 49
0.1
 74
0
 49
-0.05
 74
0
 49
0.1
 74
0
 49
-0.05
 74
0
  0
LTYPE
  5
1F8
100
AcDbSymbolTableRecord
100
AcDbLinetypeTableRecord
  2
DOT
 70
64
  3
. . . . . . . . . . . . . . . . . . . .
 72
65
 73
2
 40
0.2
 49
0.1
 74
0
 49
-0.1
 74
0
  0
LTYPE
  5
1F9
100
AcDbSymbolTableRecord
100
AcDbLinetypeTableRecord
  2
DASHED
 70
64
  3
- - - - - - - - - - - - - - - - - - - -
 72
65
 73
2
 40
0.2
 49
0.1
 74
0
 49
-0.1
 74
0
  0
ENDTAB
  0
TABLE
  2
LAYER
  5
2
100
AcDbSymbolTable
 70
36
  0
LAYER
  5
10
100
AcDbSymbolTableRecord
100
AcDbLayerTableRecord
  2
0
 70
0
 62
7
  6
CONTINUOUS
370
-3
390
F
  0
LAYER
  5
1FA
100
AcDbSymbolTableRecord
100
AcDbLayerTableRecord
  2
DEFAULT_1
 70
0
 62
7
  6
CENTER
370
-3
390
F
  0
LAYER
  5
1FB
100
AcDbSymbolTableRecord
100
AcDbLayerTableRecord
  2
DEFAULT_2
 70
0
 62
7
  6
HIDDEN
370
-3
390
F
  0
LAYER
  5
1FC
100
AcDbSymbolTableRecord
100
AcDbLayerTableRecord
  2
DEFAULT_3
 70
0
 62
7
  6
PHANTOM
370
-3
390
F
  0
LAYER
  5
1FD
100
AcDbSymbolTableRecord
100
AcDbLayerTableRecord
  2
ASSI
 70
0
 62
7
  6
CONTINUOUS
370
-3
390
F
  0
LAYER
  5
1FE
100
AcDbSymbolTableRecord
100
AcDbLayerTableRecord
  2
COORDINATE
 70
0
 62
7
  6
CONTINUOUS
370
-3
390
F
  0
LAYER
  5
1FF
100
AcDbSymbolTableRecord
100
AcDbLayerTableRecord
  2
COPY_PUBLISH
 70
0
 62
7
  6
CONTINUOUS
370
-3
390
F
  0
LAYER
  5
200
100
AcDbSymbolTableRecord
100
AcDbLayerTableRecord
  2
COSMETICI
 70
0
 62
7
  6
CONTINUOUS
370
-3
390
F
  0
LAYER
  5
201
100
AcDbSymbolTableRecord
100
AcDbLayerTableRecord
  2
CURVE
 70
0
 62
7
  6
CONTINUOUS
370
-3
390
F
  0
LAYER
  5
202
100
AcDbSymbolTableRecord
100
AcDbLayerTableRecord
  2
DRAFT
 70
0
 62
7
  6
CONTINUOUS
370
-3
390
F
  0
LAYER
  5
203
100
AcDbSymbolTableRecord
100
AcDbLayerTableRecord
  2
IMPORT_IGES
 70
0
 62
7
  6
CONTINUOUS
370
-3
390
F
  0
LAYER
  5
204
100
AcDbSymbolTableRecord
100
AcDbLayerTableRecord
  2
NOTE
 70
0
 62
7
  6
CONTINUOUS
370
-3
390
F
  0
LAYER
  5
205
100
AcDbSymbolTableRecord
100
AcDbLayerTableRecord
  2
PIANI
 70
0
 62
7
  6
CONTINUOUS
370
-3
390
F
  0
LAYER
  5
206
100
AcDbSymbolTableRecord
100
AcDbLayerTableRecord
  2
PUNTI
 70
0
 62
7
  6
CONTINUOUS
370
-3
390
F
  0
LAYER
  5
207
100
AcDbSymbolTableRecord
100
AcDbLayerTableRecord
  2
RACCORDO
 70
0
 62
7
  6
CONTINUOUS
370
-3
390
F
  0
LAYER
  5
208
100
AcDbSymbolTableRecord
100
AcDbLayerTableRecord
  2
SIMBOLI
 70
0
 62
7
  6
CONTINUOUS
370
-3
390
F
  0
LAYER
  5
209
100
AcDbSymbolTableRecord
100
AcDbLayerTableRecord
  2
SMUSSO
 70
0
 62
7
  6
CONTINUOUS
370
-3
390
F
  0
LAYER
  5
20A
100
AcDbSymbolTableRecord
100
AcDbLayerTableRecord
  2
SNAPLINE
 70
0
 62
7
  6
CONTINUOUS
370
-3
390
F
  0
LAYER
  5
20B
100
AcDbSymbolTableRecord
100
AcDbLayerTableRecord
  2
SUPERFICI
 70
0
 62
7
  6
CONTINUOUS
370
-3
390
F
  0
LAYER
  5
20C
100
AcDbSymbolTableRecord
100
AcDbLayerTableRecord
  2
TRASH
 70
0
 62
7
  6
CONTINUOUS
370
-3
390
F
  0
ENDTAB
  0
TABLE
  2
STYLE
  5
3
100
AcDbSymbolTable
 70
1
  0
STYLE
  5
11
100
AcDbSymbolTableRecord
100
AcDbTextStyleTableRecord
  2
STANDARD
 70
0
 40
0.0
 41
0.8
 50
0.0
 71
0
 42
0.2
  3
txt
  4

  0
STYLE
  5
20D
100
AcDbSymbolTableRecord
100
AcDbTextStyleTableRecord
  2
TEXTSTYLE_1
 70
0
 40
0.0
 41
0.8
 50
0.0
 71
0
 42
0.2
  3
gdt
  4

  0
ENDTAB
  0
TABLE
  2
VIEW
  5
6
100
AcDbSymbolTable
 70
0
  0
ENDTAB
  0
TABLE
  2
UCS
  5
7
100
AcDbSymbolTable
 70
0
  0
ENDTAB
  0
TABLE
  2
APPID
  5
9
100
AcDbSymbolTable
 70
1
  0
APPID
  5
20E
100
AcDbSymbolTableRecord
100
AcDbRegAppTableRecord
  2
ACAD
 70
0
  0
ENDTAB
  0
TABLE
  2
BLOCK_RECORD
  5
1
100
AcDbSymbolTable
 70
0
  0
BLOCK_RECORD
  5
20F
100
AcDbSymbolTableRecord
100
AcDbBlockTableRecord
  2
*Model_Space
  0
BLOCK_RECORD
  5
210
100
AcDbSymbolTableRecord
100
AcDbBlockTableRecord
  2
*Paper_Space
  0
ENDTAB
  0
TABLE
  2
DIMSTYLE
  5
A
100
AcDbSymbolTable
 70
1
100
AcDbDimStyleTable
 71
0
  0
DIMSTYLE
105
211
100
AcDbSymbolTableRecord
100
AcDbDimStyleTableRecord
  2
STANDARD
 70
0
  3

  4

 40
1.0
 41
3.0
 42
0.5
 43
0.38
 44
1.5
 45
0.0
 46
0.0
 47
0.01
 48
0.01
140
3.0
141
0.09
142
0.0
143
25.4
144
1.0
145
0.0
146
1.0
147
0.625
 71
1.0
 72
0.0
 73
0
 74
0
 75
0
 76
0
 77
1
 78
8
170
0
171
2
172
0
173
0
174
0
175
0
176
0
177
0
178
0
270
2
271
2
272
2
273
2
274
2
275
0
280
0
281
0
282
0
283
1
284
8
285
0
286
0
287
3
288
0
340
11
278
44
  0
ENDTAB
  0
ENDSEC
  0
SECTION
  2
BLOCKS
  0
BLOCK
  5
20
100
AcDbEntity
  8
0
100
AcDbBlockBegin
  2
*Model_Space
 70
0
 10
0.0
 20
0.0
 30
0.0
  3
*Model_Space
  1

  0
ENDBLK
  5
21
100
AcDbEntity
  8
0
100
AcDbBlockEnd
  0
BLOCK
  5
1C
100
AcDbEntity
  8
0
100
AcDbBlockBegin
  2
*Paper_Space
 70
0
 10
0.0
 20
0.0
 30
0.0
  3
*Paper_Space
  1

  0
ENDBLK
  5
1D
100
AcDbEntity
  8
0
100
AcDbBlockEnd
  0
ENDSEC
  0
SECTION
  2
ENTITIES
  0
LINE
  5
212
100
AcDbEntity
  8
0
100
AcDbLine
 62
7
  6
CONTINUOUS
 10
3.1459805868
 20
46.1775382749
 11
-1.4502134909
 21
43.5237534182
  0
LINE
  5
213
100
AcDbEntity
  8
0
100
AcDbLine
 62
7
  6
CONTINUOUS
 10
-4.4624883788
 20
41.7274675179
 11
-1.4502134909
 21
43.4667172855
  0
LINE
  5
214
100
AcDbEntity
  8
0
100
AcDbLine
 62
7
  6
CONTINUOUS
 10
-2.5811492351
 20
42.7646257357
 11
-1.4502134909
 21
43.4176138604
  0
LINE
  5
215
100
AcDbEntity
  8
0
100
AcDbLine
 62
7
  6
CONTINUOUS
 10
-2.2700222514
 20
42.5849849147
 11
-1.1532286428
 21
43.2298075475
  0
LINE
  5
216
100
AcDbEntity
  8
0
100
AcDbLine
 62
7
  6
CONTINUOUS
 10
-4.6671142396
 20
41.1520515659
 11
-4.2782055099
 21
41.3766025922
  0
LINE
  5
217
100
AcDbEntity
  8
0
100
AcDbLine
 62
7
  6
CONTINUOUS
 10
-4.0307181365
 20
41.519427681
 11
-2.9347026257
 21
42.1522533007
  0
LINE
  5
218
100
AcDbEntity
  8
0
100
AcDbLine
 62
7
  6
CONTINUOUS
 10
-1.3790677071
 20
42.6911757638
 11
-2.623575642
 21
41.9726124796
  0
LINE
  5
219
100
AcDbEntity
  8
0
100
AcDbLine
 62
7
  6
CONTINUOUS
 10
4.9278896754
 20
45.1486862997
 11
0.3316955977
 21
42.494901443
  0
LINE
  5
21A
100
AcDbEntity
  8
0
100
AcDbLine
 62
7
  6
CONTINUOUS
 10
5.9602655759
 20
45.2874286425
 11
2.42473167
 21
43.2460556759
  0
LINE
  5
21B
100
AcDbEntity
  8
0
100
AcDbLine
 62
7
  6
CONTINUOUS
 10
2.42473167
 20
43.0093668856
 11
2.2055285678
 21
42.8828017616
  0
LINE
  5
21C
100
AcDbEntity
  8
0
100
AcDbLine
 62
7
  6
CONTINUOUS
 10
1.7539170492
 20
42.4996040077
 11
0.3533199901
 21
41.6909168194
  0
LINE
  5
21D
100
AcDbEntity
  8
0
100
AcDbLine
 62
7
  6
CONTINUOUS
 10
-0.8996573955
 20
-1.5837682394
 11
-0.2592827617
 21
-1.9242458172
  0
LINE
  5
21E
100
AcDbEntity
  8
0
100
AcDbLine
 62
7
  6
CONTINUOUS
 10
2.2619856321
 20
-5.4540215685
 11
3.8523384736
 21
-6.6113125437
  0
LINE
  5
21F
100
AcDbEntity
  8
0
100
AcDbLine
 62
7
  6
CONTINUOUS
 10
0.7068562973
 20
41.4867893865
 11
2.4530159412
 21
42.494901443
  0
LINE
  5
220
100
AcDbEntity
  8
0
100
AcDbLine
 62
7
  6
CONTINUOUS
 10
6.6673723571
 20
44.8791540492
 11
3.1318384512
 21
42.8377810826
  0
LINE
  5
221
100
AcDbEntity
  8
0
100
AcDbLine
 62
7
  6
CONTINUOUS
 10
3.1318384512
 20
42.1029578335
 11
6.6673723571
 21
44.1443308001
  0
LINE
  5
222
100
AcDbEntity
  8
0
100
AcDbLine
 62
7
  6
CONTINUOUS
 10
2.1560310931
 20
41.4415529923
 11
6.7522251708
 21
44.0953378489
  0
LINE
  5
223
100
AcDbEntity
  8
0
100
AcDbLine
 62
7
  6
CONTINUOUS
 10
7.8694538851
 20
44.1850872405
 11
4.3339199792
 21
42.1437142739
  0
LINE
  5
224
100
AcDbEntity
  8
0
100
AcDbLine
 62
7
  6
CONTINUOUS
 10
4.0298640633
 20
41.8294533109
 11
4.3339199792
 21
42.005011386
  0
LINE
  5
225
100
AcDbEntity
  8
0
100
AcDbLine
 62
7
  6
CONTINUOUS
 10
3.2166912649
 20
40.8291411023
 11
4.3339199792
 21
41.4742149597
  0
LINE
  5
226
100
AcDbEntity
  8
0
100
AcDbLine
 62
7
  6
CONTINUOUS
 10
5.0410267604
 20
41.7354396806
 11
8.5765606663
 21
43.7768126472
  0
LINE
  5
227
100
AcDbEntity
  8
0
100
AcDbLine
 62
7
  6
CONTINUOUS
 10
2.1776575755
 20
40.6375671619
 11
3.8570913125
 21
41.6072338394
  0
LINE
  5
228
100
AcDbEntity
  8
0
100
AcDbLine
 62
7
  6
CONTINUOUS
 10
-2.5811492351
 20
42.7646257357
 11
-2.9347026257
 21
42.1522533007
  0
LINE
  5
229
100
AcDbEntity
  8
0
100
AcDbLine
 62
7
  6
CONTINUOUS
 10
3.2166912649
 20
40.4209256913
 11
3.0399145696
 21
40.318857043
  0
LINE
  5
22A
100
AcDbEntity
  8
0
100
AcDbLine
 62
7
  6
CONTINUOUS
 10
5.0410267604
 20
41.0006164315
 11
8.5765606663
 21
43.0419893981
  0
LWPOLYLINE
  5
22B
100
AcDbEntity
  8
RACCORDO
100
AcDbPolyline
 62
7
  6
CONTINUOUS
 90
6
 70
0
 10
-11.8653140242
 20
15.8357603235
 10
-11.8630556437
 20
15.7708628808
 10
-11.8521883556
 20
15.7058698144
 10
-11.8326105201
 20
15.6421919149
 10
-11.8044843681
 20
15.5812136621
 10
-11.7683120997
 20
15.524379217
  0
LWPOLYLINE
  5
22C
100
AcDbEntity
  8
RACCORDO
100
AcDbPolyline
 62
253
  6
CONTINUOUS
 90
9
 70
0
 10
-11.823534808
 20
17.2176198589
 10
-11.8229209746
 20
17.1975474272
 10
-11.8174454829
 20
17.1674457199
 10
-11.8065625483
 20
17.1378078294
 10
-11.7903937111
 20
17.1089517066
 10
-11.7691148941
 20
17.0811841088
 10
-11.7429575837
 20
17.0548082377
 10
-11.7122091887
 20
17.0301198928
 10
-11.6772063571
 20
17.0073933505
  0
LINE
  5
22D
100
AcDbEntity
  8
RACCORDO
100
AcDbLine
 62
7
  6
CONTINUOUS
 10
-11.8653140242
 20
15.8357603235
 11
-11.8235318888
 21
17.217717369
  0
LINE
  5
22E
100
AcDbEntity
  8
RACCORDO
100
AcDbLine
 62
253
  6
CONTINUOUS
 10
-11.7190419345
 20
15.6236686913
 11
-11.6772063571
 21
17.0073933505
  0
LINE
  5
22F
100
AcDbEntity
  8
0
100
AcDbLine
 62
7
  6
CONTINUOUS
 10
-2.623575642
 20
41.9726124796
 11
-2.2700222514
 21
42.5849849147
  0
LINE
  5
230
100
AcDbEntity
  8
0
100
AcDbLine
 62
7
  6
CONTINUOUS
 10
6.4410981871
 20
38.8449384152
 11
5.3243045786
 21
38.2001157823
  0
LINE
  5
231
100
AcDbEntity
  8
0
100
AcDbLine
 62
7
  6
CONTINUOUS
 10
6.7946515777
 20
38.76327166
 11
11.3908456554
 21
41.4170565167
  0
LINE
  5
232
100
AcDbEntity
  8
0
100
AcDbLine
 62
7
  6
CONTINUOUS
 10
6.7522251708
 20
38.6652975941
 11
5.6354315623
 21
38.0204749612
  0
LINE
  5
233
100
AcDbEntity
  8
0
100
AcDbLine
 62
7
  6
CONTINUOUS
 10
4.1858626609
 20
36.7752769065
 11
5.2818781717
 21
37.4081025262
  0
LINE
  5
234
100
AcDbEntity
  8
0
100
AcDbLine
 62
7
  6
CONTINUOUS
 10
-0.2592827617
 20
-1.9242458172
 11
0.5700161047
 21
-2.9980522378
  0
LINE
  5
235
100
AcDbEntity
  8
0
100
AcDbLine
 62
7
  6
CONTINUOUS
 10
1.3942579071
 20
-4.2577676298
 11
2.2619856321
 21
-5.4540215685
  0
LINE
  5
236
100
AcDbEntity
  8
0
100
AcDbLine
 62
7
  6
CONTINUOUS
 10
0.5700161047
 20
-2.9980522378
 11
1.3942579071
 21
-4.2577676298
  0
LWPOLYLINE
  5
237
100
AcDbEntity
  8
RACCORDO
100
AcDbPolyline
 62
253
  6
CONTINUOUS
 90
9
 70
0
 10
-10.4589345529
 20
17.5361734301
 10
-10.4583198223
 20
17.5160744396
 10
-10.4528426495
 20
17.4860721598
 10
-10.44194163
 20
17.456583746
 10
-10.4257315765
 20
17.4279489828
 10
-10.4044114255
 20
17.4005038787
 10
-10.3782365562
 20
17.3745579
 10
-10.3474961898
 20
17.3503939975
 10
-10.3125355002
 20
17.3282817128
  0
LWPOLYLINE
  5
238
100
AcDbEntity
  8
RACCORDO
100
AcDbPolyline
 62
253
  6
CONTINUOUS
 90
8
 70
0
 10
-10.4017300827
 20
19.4282295414
 10
-10.4018061803
 20
19.4231937279
 10
-10.3975315705
 20
19.385432744
 10
-10.38478085
 20
19.3481453037
 10
-10.3637721028
 20
19.3119691585
 10
-10.3348646555
 20
19.2775230527
 10
-10.2985529312
 20
19.2453961404
 10
-10.255457993
 20
19.2161379092
  0
LINE
  5
239
100
AcDbEntity
  8
RACCORDO
100
AcDbLine
 62
7
  6
CONTINUOUS
 10
-10.4589345529
 20
17.5361734301
 11
-10.4017300827
 21
19.4282295414
  0
LINE
  5
23A
100
AcDbEntity
  8
RACCORDO
100
AcDbLine
 62
253
  6
CONTINUOUS
 10
-10.3125355002
 20
17.3282817128
 11
-10.255457993
 21
19.2161379092
  0
LWPOLYLINE
  5
23B
100
AcDbEntity
  8
RACCORDO
100
AcDbPolyline
 62
7
  6
CONTINUOUS
 90
9
 70
0
 10
-10.4017300827
 20
19.4282295414
 10
-10.3959191977
 20
19.4905875617
 10
-10.3821204582
 20
19.5525593466
 10
-10.3603166743
 20
19.6128886424
 10
-10.330691349
 20
19.6703897708
 10
-10.2937546858
 20
19.7237569516
 10
-10.2502839058
 20
19.7718245687
 10
-10.2006490433
 20
19.8140979204
 10
-10.151881065
 20
19.8461767757
  0
LWPOLYLINE
  5
23C
100
AcDbEntity
  8
RACCORDO
100
AcDbPolyline
 62
253
  6
CONTINUOUS
 90
11
 70
0
 10
-11.6132588343
 20
17.4169959455
 10
-11.6199322058
 20
17.3991922981
 10
-11.6231792927
 20
17.3810813764
 10
-11.6231571271
 20
17.3626630004
 10
-11.6198865001
 20
17.3445725301
 10
-11.613236568
 20
17.3268256942
 10
-11.6033381747
 20
17.3094067639
 10
-11.5906046429
 20
17.2929039134
 10
-11.575173747
 20
17.2775132005
 10
-11.5569077127
 20
17.2630385674
 10
-11.53580654
 20
17.2494800139
  0
LINE
  5
23D
100
AcDbEntity
  8
0
100
AcDbLine
 62
7
  6
CONTINUOUS
 10
4.5747713905
 20
36.2650046837
 11
4.1858626609
 21
36.0404536574
  0
LINE
  5
23E
100
AcDbEntity
  8
0
100
AcDbLine
 62
7
  6
CONTINUOUS
 10
9.2695253119
 20
38.9267038076
 11
6.7946515777
 21
37.497742731
  0
LINE
  5
23F
100
AcDbEntity
  8
0
100
AcDbLine
 62
7
  6
CONTINUOUS
 10
6.8688977897
 20
37.3323915207
 11
5.9284457708
 21
36.7893863116
  0
LINE
  5
240
100
AcDbEntity
  8
0
100
AcDbLine
 62
7
  6
CONTINUOUS
 10
5.0767686883
 20
35.9751577355
 11
5.9284457708
 21
36.4669054089
  0
LINE
  5
241
100
AcDbEntity
  8
0
100
AcDbLine
 62
7
  6
CONTINUOUS
 10
4.8222587639
 20
35.6730065234
 11
5.2111674936
 21
35.8975575498
  0
LINE
  5
242
100
AcDbEntity
  8
0
100
AcDbLine
 62
7
  6
CONTINUOUS
 10
6.7946515777
 20
36.2892499348
 11
10.316043348
 21
38.3224574095
  0
LINE
  5
243
100
AcDbEntity
  8
0
100
AcDbLine
 62
7
  6
CONTINUOUS
 10
5.2111674936
 20
35.3178636532
 11
6.3703847757
 21
35.9871811835
  0
LWPOLYLINE
  5
244
100
AcDbEntity
  8
0
100
AcDbPolyline
 62
7
  6
CONTINUOUS
 90
12
 70
0
 10
10.316043348
 20
38.3224574095
 10
10.3482452084
 20
38.3395762383
 10
10.3798665243
 20
38.3536995515
 10
10.4109072956
 20
38.3648273489
 10
10.4415248171
 20
38.3729754301
 10
10.4715617941
 20
38.3781279957
 10
10.5005463424
 20
38.3802376468
 10
10.5284611804
 20
38.3792614077
 10
10.5553235897
 20
38.3752422542
 10
10.5807135309
 20
38.3682617152
 10
10.6046096388
 20
38.3582784745
 10
10.616042259
 20
38.3521551236
  0
LWPOLYLINE
  5
245
100
AcDbEntity
  8
RACCORDO
100
AcDbPolyline
 62
253
  6
CONTINUOUS
 90
8
 70
0
 10
-11.6316968058
 20
15.3982547245
 10
-11.654971166
 20
15.4190784907
 10
-11.6748682062
 20
15.4443436841
 10
-11.6912262943
 20
15.4737385278
 10
-11.7038777782
 20
15.5068176014
 10
-11.7127403578
 20
15.5431258887
 10
-11.7177915436
 20
15.5822330777
 10
-11.7190419392
 20
15.6236686942
  0
LWPOLYLINE
  5
246
100
AcDbEntity
  8
RACCORDO
100
AcDbPolyline
 62
7
  6
CONTINUOUS
 90
4
 70
0
 10
-11.7683120997
 20
15.524379217
 10
-11.7248420888
 20
15.4729380779
 10
-11.6744549389
 20
15.4274927278
 10
-11.6155018292
 20
15.3876141016
  0
LINE
  5
247
100
AcDbEntity
  8
RACCORDO
100
AcDbLine
 62
253
  6
CONTINUOUS
 10
-8.6253533011
 20
19.8593168436
 11
-8.6353882674
 21
19.5274072335
  0
LINE
  5
248
100
AcDbEntity
  8
RACCORDO
100
AcDbLine
 62
253
  6
CONTINUOUS
 10
-8.7717500734
 20
19.65907215
 11
-8.7716747869
 21
19.6611385022
  0
LWPOLYLINE
  5
249
100
AcDbEntity
  8
RACCORDO
100
AcDbPolyline
 62
253
  6
CONTINUOUS
 90
9
 70
0
 10
-8.7716747869
 20
19.6611385022
 10
-8.7711376233
 20
19.6691816045
 10
-8.7656604505
 20
19.6992667821
 10
-8.754759431
 20
19.7289333094
 10
-8.7385493775
 20
19.757835589
 10
-8.7172292264
 20
19.7856146356
 10
-8.6910543572
 20
19.8119609451
 10
-8.6603139908
 20
19.8366135571
 10
-8.6253533011
 20
19.8593168436
  0
LINE
  5
24A
100
AcDbEntity
  8
0
100
AcDbLine
 62
7
  6
CONTINUOUS
 10
10.7403074167
 20
38.0367164856
 11
8.2088651401
 21
36.5750934415
  0
LINE
  5
24B
100
AcDbEntity
  8
0
100
AcDbLine
 62
7
  6
CONTINUOUS
 10
10.3023362629
 20
37.5797703635
 11
9.8069616316
 21
37.2937472599
  0
LINE
  5
24C
100
AcDbEntity
  8
0
100
AcDbLine
 62
7
  6
CONTINUOUS
 10
5.2111674985
 20
34.027840613
 11
6.5581031843
 21
34.8055443969
  0
LINE
  5
24D
100
AcDbEntity
  8
0
100
AcDbLine
 62
7
  6
CONTINUOUS
 10
8.2088651401
 20
35.7586736613
 11
9.8071791894
 21
36.6815201618
  0
LINE
  5
24E
100
AcDbEntity
  8
0
100
AcDbLine
 62
7
  6
CONTINUOUS
 10
10.1949255057
 20
36.8887673487
 11
10.2597401673
 21
36.926190522
  0
LINE
  5
24F
100
AcDbEntity
  8
0
100
AcDbLine
 62
7
  6
CONTINUOUS
 10
10.7403074167
 20
36.6487170151
 11
8.2088651401
 21
35.1870939709
  0
LINE
  5
250
100
AcDbEntity
  8
0
100
AcDbLine
 62
7
  6
CONTINUOUS
 10
5.2818781717
 20
33.4890451976
 11
4.1858626609
 21
32.8562195779
  0
LINE
  5
251
100
AcDbEntity
  8
0
100
AcDbLine
 62
7
  6
CONTINUOUS
 10
6.6955609614
 20
33.8970527843
 11
5.6354315623
 21
33.2849473558
  0
LINE
  5
252
100
AcDbEntity
  8
0
100
AcDbLine
 62
7
  6
CONTINUOUS
 10
6.7946515777
 20
33.8398391044
 11
10.316043348
 21
35.8730465791
  0
LINE
  5
253
100
AcDbEntity
  8
0
100
AcDbLine
 62
7
  6
CONTINUOUS
 10
6.7946515777
 20
33.7828029716
 11
11.3908456554
 21
36.4365878282
  0
LWPOLYLINE
  5
254
100
AcDbEntity
  8
RACCORDO
100
AcDbPolyline
 62
253
  6
CONTINUOUS
 90
16
 70
0
 10
1.7035366011
 20
9.2815200666
 10
1.7424461779
 20
9.2615736988
 10
1.7847959806
 20
9.244063201
 10
1.8301201085
 20
9.2291749174
 10
1.8779137833
 20
9.2170662439
 10
1.9276586205
 20
9.2078652582
 10
1.9788307417
 20
9.2016733627
 10
2.0308849445
 20
9.1985606657
 10
2.0832374206
 20
9.1985624327
 10
2.135293399
 20
9.2016786751
 10
2.1864730755
 20
9.2078749585
 10
2.236226528
 20
9.2170815395
 10
2.2840178314
 20
9.2291941636
 10
2.3293263459
 20
9.2440817641
 10
2.3716533905
 20
9.2615862622
 10
2.4105356865
 20
9.2815200666
  0
LINE
  5
255
100
AcDbEntity
  8
RACCORDO
100
AcDbLine
 62
7
  6
CONTINUOUS
 10
1.8070240637
 20
7.6376158621
 11
-11.6155544719
 21
15.3876444841
  0
LINE
  5
256
100
AcDbEntity
  8
RACCORDO
100
AcDbLine
 62
253
  6
CONTINUOUS
 10
1.7035366011
 20
7.8736400693
 11
-11.7190419345
 21
15.6236686913
  0
LINE
  5
257
100
AcDbEntity
  8
RACCORDO
100
AcDbLine
 62
253
  6
CONTINUOUS
 10
-11.6155544719
 20
15.3876444841
 11
-11.6316968058
 21
15.3982547245
  0
LWPOLYLINE
  5
258
100
AcDbEntity
  8
RACCORDO
100
AcDbPolyline
 62
253
  6
CONTINUOUS
 90
9
 70
0
 10
1.8070240637
 20
7.6376158621
 10
1.7908811927
 20
7.6482265016
 10
1.7676071052
 20
7.6690501512
 10
1.7477103884
 20
7.6943149729
 10
1.7313525618
 20
7.7237092142
 10
1.7187011078
 20
7.7567878475
 10
1.7098383911
 20
7.7930961135
 10
1.7047870566
 20
7.8322036593
 10
1.7035366011
 20
7.8736400693
  0
LWPOLYLINE
  5
259
100
AcDbEntity
  8
RACCORDO
100
AcDbPolyline
 62
253
  6
CONTINUOUS
 90
8
 70
0
 10
-11.7190419345
 20
15.6236686913
 10
-11.7621368727
 20
15.6529269226
 10
-11.798448597
 20
15.6850538348
 10
-11.8273560443
 20
15.7194999406
 10
-11.8483647914
 20
15.7556760858
 10
-11.861115512
 20
15.7929635261
 10
-11.8653901217
 20
15.83072451
 10
-11.8653140242
 20
15.8357603235
  0
LWPOLYLINE
  5
25A
100
AcDbEntity
  8
RACCORDO
100
AcDbPolyline
 62
7
  6
CONTINUOUS
 90
4
 70
0
 10
-8.7649867828
 20
19.6345647338
 10
-8.7694066354
 20
19.6449187724
 10
-8.7715039715
 20
19.6539649349
 10
-8.7716739101
 20
19.6611610753
  0
LINE
  5
25B
100
AcDbEntity
  8
0
100
AcDbLine
 62
7
  6
CONTINUOUS
 10
1.9580411944
 20
43.0256978693
 11
1.7539170492
 21
42.4996040077
  0
LINE
  5
25C
100
AcDbEntity
  8
0
100
AcDbLine
 62
7
  6
CONTINUOUS
 10
8.2088651401
 20
36.3150916284
 11
8.4957328414
 21
36.6019778122
  0
LWPOLYLINE
  5
25D
100
AcDbEntity
  8
RACCORDO
100
AcDbPolyline
 62
253
  6
CONTINUOUS
 90
6
 70
0
 10
-11.53580654
 20
17.4944074606
 10
-11.5600905372
 20
17.506003303
 10
-11.5836540313
 20
17.5124039722
 10
-11.605796863
 20
17.513418705
 10
-11.625861019
 20
17.5090167053
 10
-11.6358113805
 20
17.5043156912
  0
LWPOLYLINE
  5
25E
100
AcDbEntity
  8
RACCORDO
100
AcDbPolyline
 62
253
  6
CONTINUOUS
 90
16
 70
0
 10
1.562136784
 20
10.1482656149
 10
1.6172886814
 20
10.1197170652
 10
1.6760435965
 20
10.0950319705
 10
1.7384015294
 20
10.074210331
 10
1.8051679958
 20
10.0570868075
 10
1.87553748
 20
10.0438267392
 10
1.9470934343
 20
10.0349261428
 10
2.0198152028
 20
10.0305487119
 10
2.0937234413
 20
10.0305307529
 10
2.1664635695
 20
10.034877203
 10
2.2380555184
 20
10.0437509207
 10
2.308479357
 20
10.0569890474
 10
2.3753207122
 20
10.074107944
 10
2.4377747928
 20
10.0949463977
 10
2.4966463899
 20
10.1196656213
 10
2.5519355035
 20
10.1482656149
  0
LWPOLYLINE
  5
25F
100
AcDbEntity
  8
RACCORDO
100
AcDbPolyline
 62
253
  6
CONTINUOUS
 90
16
 70
0
 10
1.8449364181
 20
9.52360673
 10
1.8683363135
 20
9.5114421495
 10
1.8933700424
 20
9.5009051943
 10
1.9200376047
 20
9.4919958642
 10
1.9487061142
 20
9.4846274925
 10
1.9790084572
 20
9.4788867459
 10
2.0098432925
 20
9.4750336249
 10
2.041210308
 20
9.4731587976
 10
2.0731098158
 20
9.4731715957
 10
2.1044414109
 20
9.4750600147
 10
2.1351778521
 20
9.4788996022
 10
2.1653463806
 20
9.4846148105
 10
2.1939283147
 20
9.4919669921
 10
2.2205840939
 20
9.500876598
 10
2.2456532788
 20
9.5114231773
 10
2.2691358694
 20
9.52360673
  0
LWPOLYLINE
  5
260
100
AcDbEntity
  8
RACCORDO
100
AcDbPolyline
 62
253
  6
CONTINUOUS
 90
16
 70
0
 10
1.7035366011
 20
10.3903522783
 10
1.7424426212
 20
10.3698253791
 10
1.7847958192
 20
10.3518107191
 10
1.8301318267
 20
10.3364959545
 10
1.8779565402
 20
10.3240350595
 10
1.927743046
 20
10.3145637287
 10
1.9789363623
 20
10.3081962301
 10
2.0309614252
 20
10.3050024468
 10
2.083261553
 20
10.3050069817
 10
2.1352954651
 20
10.3082108815
 10
2.1865218465
 20
10.3145940503
 10
2.236347177
 20
10.3240872902
 10
2.2841696133
 20
10.3365642495
 10
2.3294531458
 20
10.3518774563
 10
2.3717267638
 20
10.3698709134
 10
2.4105356865
 20
10.3903522783
  0
LINE
  5
261
100
AcDbEntity
  8
RACCORDO
100
AcDbLine
 62
253
  6
CONTINUOUS
 10
-11.6772063571
 20
17.0073933505
 11
1.7035366011
 21
9.2815200666
  0
LINE
  5
262
100
AcDbEntity
  8
RACCORDO
100
AcDbLine
 62
253
  6
CONTINUOUS
 10
-11.53580654
 20
17.2494800139
 11
1.8449364181
 21
9.52360673
  0
LINE
  5
263
100
AcDbEntity
  8
RACCORDO
100
AcDbLine
 62
253
  6
CONTINUOUS
 10
-10.4539353173
 20
17.0861950494
 11
1.562136784
 21
10.1482656149
  0
LINE
  5
264
100
AcDbEntity
  8
RACCORDO
100
AcDbLine
 62
253
  6
CONTINUOUS
 10
-10.3125355002
 20
17.3282817128
 11
1.7035366011
 21
10.3903522783
  0
LWPOLYLINE
  5
265
100
AcDbEntity
  8
RACCORDO
100
AcDbPolyline
 62
253
  6
CONTINUOUS
 90
10
 70
0
 10
2.2691358694
 20
9.52360673
 10
2.2934232986
 20
9.5071573556
 10
2.3169890342
 20
9.4863445353
 10
2.3391328272
 20
9.4617867159
 10
2.3591966815
 20
9.4342136256
 10
2.3765844056
 20
9.4044445905
 10
2.3907793284
 20
9.3733641888
 10
2.4013596522
 20
9.3418959652
 10
2.4080109857
 20
9.3109749886
 10
2.4105356865
 20
9.2815200666
  0
LWPOLYLINE
  5
266
100
AcDbEntity
  8
RACCORDO
100
AcDbPolyline
 62
253
  6
CONTINUOUS
 90
10
 70
0
 10
2.5519355035
 20
10.1482656149
 10
2.5276480743
 20
10.1647149893
 10
2.5040823388
 20
10.1855278095
 10
2.4819385457
 20
10.210085629
 10
2.4618746915
 20
10.2376587193
 10
2.4444869674
 20
10.2674277543
 10
2.4302920445
 20
10.2985081561
 10
2.4197117207
 20
10.3299763797
 10
2.4130603873
 20
10.3608973563
 10
2.4105356865
 20
10.3903522783
  0
LINE
  5
267
100
AcDbEntity
  8
0
100
AcDbLine
 62
7
  6
CONTINUOUS
 10
-4.6671142396
 20
38.7026407355
 11
-4.6671142396
 21
41.1520515659
  0
LINE
  5
268
100
AcDbEntity
  8
0
100
AcDbLine
 62
7
  6
CONTINUOUS
 10
-4.4624883788
 20
41.7274675179
 11
-4.4624883788
 21
41.2701999733
  0
LINE
  5
269
100
AcDbEntity
  8
0
100
AcDbLine
 62
7
  6
CONTINUOUS
 10
-4.0307181365
 20
38.3351936015
 11
-4.0307181365
 21
37.6003703524
  0
LINE
  5
26A
100
AcDbEntity
  8
0
100
AcDbLine
 62
7
  6
CONTINUOUS
 10
-4.0307181365
 20
40.7846044319
 11
-4.0307181365
 21
41.519427681
  0
LINE
  5
26B
100
AcDbEntity
  8
0
100
AcDbLine
 62
7
  6
CONTINUOUS
 10
3.7823766899
 20
41.9723494185
 11
3.6803146172
 21
41.7093024877
  0
LINE
  5
26C
100
AcDbEntity
  8
0
100
AcDbLine
 62
7
  6
CONTINUOUS
 10
5.3243045786
 20
38.2001157823
 11
4.970751188
 21
37.5877433473
  0
LINE
  5
26D
100
AcDbEntity
  8
0
100
AcDbLine
 62
7
  6
CONTINUOUS
 10
5.2818781717
 20
37.4081025262
 11
5.6354315623
 21
38.0204749612
  0
LWPOLYLINE
  5
26E
100
AcDbEntity
  8
0
100
AcDbPolyline
 62
7
  6
CONTINUOUS
 90
13
 70
0
 10
9.9695662885
 20
36.5872244269
 10
10.0184529193
 20
36.6398471514
 10
10.0632094326
 20
36.6922546629
 10
10.1038358285
 20
36.7444469616
 10
10.14002519
 20
36.7958738785
 10
10.1720844341
 20
36.8470855826
 10
10.2009343114
 20
36.89973258
 10
10.2271092269
 20
36.9544719132
 10
10.2500747755
 20
37.0106465398
 10
10.2691484925
 20
37.0679358384
 10
10.2841028897
 20
37.1262329354
 10
10.2951654552
 20
37.1856447044
 10
10.3023361892
 20
37.2461711455
  0
LWPOLYLINE
  5
26F
100
AcDbEntity
  8
RACCORDO
100
AcDbPolyline
 62
253
  6
CONTINUOUS
 90
15
 70
0
 10
-10.5033796703
 20
17.6258484107
 10
-10.5461327539
 20
17.591924059
 10
-10.5821945681
 20
17.5559193701
 10
-10.6118514699
 20
17.5173692492
 10
-10.6348171024
 20
17.4767387909
 10
-10.6502323943
 20
17.4354232798
 10
-10.6578138387
 20
17.3934346421
 10
-10.6578449424
 20
17.3507609514
 10
-10.6503171551
 20
17.308761713
 10
-10.6349484154
 20
17.267425419
 10
-10.6120207846
 20
17.2267635772
 10
-10.582371896
 20
17.1881702165
 10
-10.5462809608
 20
17.1521100131
 10
-10.5034687679
 20
17.1181182907
 10
-10.4539353173
 20
17.0861950494
  0
LWPOLYLINE
  5
270
100
AcDbEntity
  8
RACCORDO
100
AcDbPolyline
 62
253
  6
CONTINUOUS
 90
10
 70
0
 10
-11.53580654
 20
17.2494800139
 10
-11.5600939692
 20
17.2330306395
 10
-11.5836597048
 20
17.2122178193
 10
-11.6058034978
 20
17.1876599998
 10
-11.6258673521
 20
17.1600869095
 10
-11.6432550762
 20
17.1303178745
 10
-11.657449999
 20
17.0992374727
 10
-11.6680303228
 20
17.0677692491
 10
-11.6746816563
 20
17.0368482725
 10
-11.6772063571
 20
17.0073933505
  0
LWPOLYLINE
  5
271
100
AcDbEntity
  8
RACCORDO
100
AcDbPolyline
 62
253
  6
CONTINUOUS
 90
13
 70
0
 10
-9.9019584503
 20
19.8213545676
 10
-9.9477797034
 20
19.7914549302
 10
-9.9928436321
 20
19.7551598131
 10
-10.0363883625
 20
19.713075486
 10
-10.0776821955
 20
19.665899904
 10
-10.116017681
 20
19.6144315693
 10
-10.1507283972
 20
19.5595619576
 10
-10.1812861798
 20
19.5021002769
 10
-10.20709791
 20
19.4431325787
 10
-10.2276083326
 20
19.384052102
 10
-10.242552943
 20
19.3259773717
 10
-10.2518482712
 20
19.2697142346
 10
-10.255457993
 20
19.2161379092
  0
LWPOLYLINE
  5
272
100
AcDbEntity
  8
RACCORDO
100
AcDbPolyline
 62
7
  6
CONTINUOUS
 90
10
 70
0
 10
-11.6358329211
 20
17.5042614823
 10
-11.6711531524
 20
17.4816969268
 10
-11.706463759
 20
17.4539318271
 10
-11.7373481629
 20
17.4236161296
 10
-11.7637432455
 20
17.3909394242
 10
-11.7854826836
 20
17.3562697373
 10
-11.8022879196
 20
17.3203474161
 10
-11.814122527
 20
17.2838460224
 10
-11.8211570875
 20
17.2471881314
 10
-11.8234886696
 20
17.2177253681
  0
LINE
  5
273
100
AcDbEntity
  8
RACCORDO
100
AcDbLine
 62
7
  6
CONTINUOUS
 10
-2.2941952672
 20
24.3831061124
 11
-10.1519705304
 21
19.8461251564
  0
LINE
  5
274
100
AcDbEntity
  8
RACCORDO
100
AcDbLine
 62
253
  6
CONTINUOUS
 10
-2.0441831871
 20
24.3583355235
 11
-9.9019584503
 21
19.8213545676
  0
LINE
  5
275
100
AcDbEntity
  8
RACCORDO
100
AcDbLine
 62
253
  6
CONTINUOUS
 10
-8.7667531182
 20
20.1071032554
 11
-2.5390825469
 21
23.7028821922
  0
LINE
  5
276
100
AcDbEntity
  8
RACCORDO
100
AcDbLine
 62
253
  6
CONTINUOUS
 10
-10.151881065
 20
19.8461767757
 11
-10.1519705304
 21
19.8461251564
  0
LWPOLYLINE
  5
277
100
AcDbEntity
  8
RACCORDO
100
AcDbPolyline
 62
253
  6
CONTINUOUS
 90
16
 70
0
 10
-2.5390825469
 20
23.7028821922
 10
-2.4839306852
 20
23.7314307506
 10
-2.4251757984
 20
23.7561158756
 10
-2.3628178865
 20
23.7769375672
 10
-2.2960514393
 20
23.7940611839
 10
-2.2256819669
 20
23.8073213671
 10
-2.1541260005
 20
23.8162220417
 10
-2.0814041746
 20
23.8205994898
 10
-2.0074958547
 20
23.8206174291
 10
-1.9347556672
 20
23.8162709379
 10
-1.8631637006
 20
23.8073971501
 10
-1.7927398665
 20
23.7941589316
 10
-1.7258985261
 20
23.777039959
 10
-1.6634444662
 20
23.7562014576
 10
-1.6045729
 20
23.731482202
 10
-1.5492838273
 20
23.7028821922
  0
LWPOLYLINE
  5
278
100
AcDbEntity
  8
RACCORDO
100
AcDbPolyline
 62
253
  6
CONTINUOUS
 90
7
 70
0
 10
-2.0441831871
 20
24.3583355235
 10
-1.9983617589
 20
24.3813491953
 10
-1.9532977931
 20
24.3970927562
 10
-1.909753156
 20
24.4052927471
 10
-1.8684596541
 20
24.4058022539
 10
-1.8301245546
 20
24.3986029391
 10
-1.794171111
 20
24.3831061147
  0
LWPOLYLINE
  5
279
100
AcDbEntity
  8
RACCORDO
100
AcDbPolyline
 62
253
  6
CONTINUOUS
 90
10
 70
0
 10
2.3756708432
 20
13.4977789267
 10
2.3089043959
 20
13.48065531
 10
2.2385349236
 20
13.4673951268
 10
2.1669789571
 20
13.4584944522
 10
2.0942571313
 20
13.4541170041
 10
2.0203488113
 20
13.4540990648
 10
1.9476086238
 20
13.458445556
 10
1.8760166573
 20
13.4673193438
 10
1.8055928232
 20
13.4805575623
 10
1.7387514827
 20
13.4976765349
  0
LWPOLYLINE
  5
27A
100
AcDbEntity
  8
RACCORDO
100
AcDbPolyline
 62
253
  6
CONTINUOUS
 90
3
 70
0
 10
1.7387514827
 20
13.4976765349
 10
1.6762974229
 20
13.5185150363
 10
1.6174258566
 20
13.5432342919
  0
LWPOLYLINE
  5
27B
100
AcDbEntity
  8
RACCORDO
100
AcDbPolyline
 62
253
  6
CONTINUOUS
 90
13
 70
0
 10
1.7035366011
 20
12.311164312
 10
1.7527057662
 20
12.287150405
 10
1.8070800935
 20
12.2669163248
 10
1.8657295843
 20
12.2508081485
 10
1.9276511201
 20
12.2391013851
 10
1.9917856157
 20
12.2319962642
 10
2.0570361335
 20
12.2296143101
 10
2.1222866499
 20
12.2319962626
 10
2.186421144
 20
12.2391013816
 10
2.2483426814
 20
12.2508081434
 10
2.3069921778
 20
12.2669163196
 10
2.3613665127
 20
12.2871504014
 10
2.4105356865
 20
12.311164312
  0
LINE
  5
27C
100
AcDbEntity
  8
RACCORDO
100
AcDbLine
 62
253
  6
CONTINUOUS
 10
1.6174258566
 20
13.5432342919
 11
1.562136784
 21
13.5718343017
  0
LINE
  5
27D
100
AcDbEntity
  8
RACCORDO
100
AcDbLine
 62
253
  6
CONTINUOUS
 10
-10.255457993
 20
19.2161379092
 11
1.7035366011
 21
12.311164312
  0
LINE
  5
27E
100
AcDbEntity
  8
RACCORDO
100
AcDbLine
 62
253
  6
CONTINUOUS
 10
-9.9019584503
 20
19.8213545676
 11
2.0570361438
 21
12.9163809704
  0
LINE
  5
27F
100
AcDbEntity
  8
RACCORDO
100
AcDbLine
 62
253
  6
CONTINUOUS
 10
1.562136784
 20
13.5718343017
 11
-8.7667531182
 21
19.5356058798
  0
LINE
  5
280
100
AcDbEntity
  8
RACCORDO
100
AcDbLine
 62
7
  6
CONTINUOUS
 10
1.662141616
 20
13.5817425372
 11
-8.6667482842
 21
19.5455141142
  0
LWPOLYLINE
  5
281
100
AcDbEntity
  8
RACCORDO
100
AcDbPolyline
 62
7
  6
CONTINUOUS
 90
7
 70
0
 10
-8.6669063556
 20
19.5456214817
 10
-8.6800024364
 20
19.5534922367
 10
-8.7068695603
 20
19.5718732074
 10
-8.7283205726
 20
19.5895653817
 10
-8.7448426851
 20
19.6061799398
 10
-8.7570680628
 20
19.6215452051
 10
-8.7649867828
 20
19.6345647338
  0
LINE
  5
282
100
AcDbEntity
  8
RACCORDO
100
AcDbLine
 62
253
  6
CONTINUOUS
 10
-8.7667531182
 20
19.5356058798
 11
-8.8161974862
 21
19.5674498735
  0
LWPOLYLINE
  5
283
100
AcDbEntity
  8
RACCORDO
100
AcDbPolyline
 62
253
  6
CONTINUOUS
 90
13
 70
0
 10
2.0570361438
 20
12.9163809704
 10
2.1028573968
 20
12.8864813329
 10
2.1479213256
 20
12.8501862158
 10
2.1914660559
 20
12.8081018888
 10
2.2327598889
 20
12.7609263067
 10
2.2710953744
 20
12.709457972
 10
2.3058060907
 20
12.6545883603
 10
2.3363638732
 20
12.5971266797
 10
2.3621756034
 20
12.5381589814
 10
2.3826860261
 20
12.4790785048
 10
2.3976306364
 20
12.4210037744
 10
2.4069259647
 20
12.3647406373
 10
2.4105356865
 20
12.311164312
  0
LWPOLYLINE
  5
284
100
AcDbEntity
  8
RACCORDO
100
AcDbPolyline
 62
253
  6
CONTINUOUS
 90
10
 70
0
 10
-8.7667531182
 20
20.1071032554
 10
-8.7419255182
 20
20.0902320154
 10
-8.7178691056
 20
20.0688126348
 10
-8.6953311131
 20
20.0435104359
 10
-8.675011609
 20
20.0151113478
 10
-8.6575417516
 20
19.9844974943
 10
-8.6434641841
 20
19.9526197934
 10
-8.6332161797
 20
19.9204684206
 10
-8.6271160586
 20
19.8890420519
 10
-8.6253533011
 20
19.8593168436
  0
LWPOLYLINE
  5
285
100
AcDbEntity
  8
RACCORDO
100
AcDbPolyline
 62
253
  6
CONTINUOUS
 90
15
 70
0
 10
-8.8161974862
 20
19.5674498735
 10
-8.8589506223
 20
19.6013742088
 10
-8.8950125266
 20
19.6373788856
 10
-8.92466959
 20
19.6759289955
 10
-8.9476354215
 20
19.7165594468
 10
-8.9630508489
 20
19.7578749651
 10
-8.9706323229
 20
19.7998636359
 10
-8.9706633927
 20
19.8425373736
 10
-8.9631355341
 20
19.8845366462
 10
-8.9477666729
 20
19.9258729504
 10
-8.9248388831
 20
19.9665347896
 10
-8.895189863
 20
20.0051281418
 10
-8.8590988451
 20
20.0411883333
 10
-8.8162865969
 20
20.0751800378
 10
-8.7667531182
 20
20.1071032554
  0
LINE
  5
286
100
AcDbEntity
  8
RACCORDO
100
AcDbLine
 62
253
  6
CONTINUOUS
 10
-2.3976827298
 20
23.4550957804
 11
-2.3976827298
 21
20.8978006721
  0
LINE
  5
287
100
AcDbEntity
  8
RACCORDO
100
AcDbLine
 62
253
  6
CONTINUOUS
 10
-1.6906836444
 20
23.4550957804
 11
-1.6906836444
 21
20.8978006721
  0
LINE
  5
288
100
AcDbEntity
  8
0
100
AcDbLine
 62
7
  6
CONTINUOUS
 10
-1.4502134909
 20
43.4012828767
 11
-1.4502134909
 21
43.5237534182
  0
LINE
  5
289
100
AcDbEntity
  8
0
100
AcDbLine
 62
7
  6
CONTINUOUS
 10
-1.1532286428
 20
42.5607791186
 11
-1.1532286428
 21
43.2298075475
  0
LINE
  5
28A
100
AcDbEntity
  8
0
100
AcDbLine
 62
7
  6
CONTINUOUS
 10
6.1969345963
 20
39.108385954
 11
6.7946515777
 21
40.3963700333
  0
LWPOLYLINE
  5
28B
100
AcDbEntity
  8
RACCORDO
100
AcDbPolyline
 62
253
  6
CONTINUOUS
 90
10
 70
0
 10
-1.5492838273
 20
23.7028821922
 10
-1.5741114273
 20
23.6860109522
 10
-1.59816784
 20
23.6645915717
 10
-1.6207058325
 20
23.6392893728
 10
-1.6410253365
 20
23.6108902847
 10
-1.658495194
 20
23.5802764311
 10
-1.6725727615
 20
23.5483987303
 10
-1.6828207659
 20
23.5162473574
 10
-1.6889208869
 20
23.4848209888
 10
-1.6906836444
 20
23.4550957804
  0
LWPOLYLINE
  5
28C
100
AcDbEntity
  8
RACCORDO
100
AcDbPolyline
 62
253
  6
CONTINUOUS
 90
10
 70
0
 10
-10.4539353173
 20
17.0861950494
 10
-10.429647888
 20
17.1026444238
 10
-10.4060821525
 20
17.123457244
 10
-10.3839383594
 20
17.1480150635
 10
-10.3638745052
 20
17.1755881538
 10
-10.3464867811
 20
17.2053571888
 10
-10.3322918582
 20
17.2364375906
 10
-10.3217115344
 20
17.2679058142
 10
-10.315060201
 20
17.2988267908
 10
-10.3125355002
 20
17.3282817128
  0
LINE
  5
28D
100
AcDbEntity
  8
RACCORDO
100
AcDbLine
 62
253
  6
CONTINUOUS
 10
-10.4539353173
 20
17.657692425
 11
-10.5033796703
 21
17.6258484107
  0
LWPOLYLINE
  5
28E
100
AcDbEntity
  8
RACCORDO
100
AcDbPolyline
 62
253
  6
CONTINUOUS
 90
6
 70
0
 10
-11.53580654
 20
17.4944074606
 10
-11.5568748539
 20
17.4808966542
 10
-11.57512422
 20
17.466442493
 10
-11.5905546382
 20
17.4510449767
 10
-11.6033162102
 20
17.4344921386
 10
-11.6132588343
 20
17.4169959455
  0
LINE
  5
28F
100
AcDbEntity
  8
RACCORDO
100
AcDbLine
 62
253
  6
CONTINUOUS
 10
-8.6253533011
 20
19.8593168436
 11
-2.3976827298
 21
23.4550957804
  0
LINE
  5
290
100
AcDbEntity
  8
RACCORDO
100
AcDbLine
 62
7
  6
CONTINUOUS
 10
-10.4390054133
 20
18.1953364572
 11
-11.6358113805
 21
17.5043156912
  0
LINE
  5
291
100
AcDbEntity
  8
RACCORDO
100
AcDbLine
 62
253
  6
CONTINUOUS
 10
-10.4410870778
 20
18.1264847579
 11
-11.53580654
 21
17.4944074606
  0
LWPOLYLINE
  5
292
100
AcDbEntity
  8
RACCORDO
100
AcDbPolyline
 62
253
  6
CONTINUOUS
 90
16
 70
0
 10
-2.3976827298
 20
23.4550957804
 10
-2.3587767096
 20
23.4750314302
 10
-2.3164235117
 20
23.4925567105
 10
-2.2710875041
 20
23.5074703905
 10
-2.2232627907
 20
23.5195972108
 10
-2.1734762849
 20
23.528801808
 10
-2.1222829686
 20
23.5349920876
 10
-2.0702579057
 20
23.5381031453
 10
-2.0179577779
 20
23.5380985648
 10
-1.9659238658
 20
23.5349775627
 10
-1.9146974844
 20
23.5287725075
 10
-1.8648721539
 20
23.519546784
 10
-1.8170497176
 20
23.5074037672
 10
-1.7717661851
 20
23.4924908911
 10
-1.7294925671
 20
23.4749861435
 10
-1.6906836444
 20
23.4550957804
  0
LWPOLYLINE
  5
293
100
AcDbEntity
  8
RACCORDO
100
AcDbPolyline
 62
253
  6
CONTINUOUS
 90
6
 70
0
 10
-8.7667531182
 20
19.5356058798
 10
-8.7419219087
 20
19.5474062703
 10
-8.7178631715
 20
19.5537661931
 10
-8.6953242322
 20
19.5544887246
 10
-8.6750051492
 20
19.5495521386
 10
-8.6669135447
 20
19.5456092186
  0
LWPOLYLINE
  5
294
100
AcDbEntity
  8
RACCORDO
100
AcDbPolyline
 62
253
  6
CONTINUOUS
 90
6
 70
0
 10
2.5519355035
 20
13.5718343017
 10
2.5271042951
 20
13.5836346927
 10
2.5030455588
 20
13.5899946161
 10
2.4805066204
 20
13.5907171481
 10
2.4601875381
 20
13.5857805625
 10
2.4519306735
 20
13.5817425383
  0
LWPOLYLINE
  5
295
100
AcDbEntity
  8
RACCORDO
100
AcDbPolyline
 62
253
  6
CONTINUOUS
 90
7
 70
0
 10
-9.9019584503
 20
19.8213545676
 10
-9.9477798786
 20
19.8443682394
 10
-9.9928438443
 20
19.8601118003
 10
-10.0363884815
 20
19.8683117912
 10
-10.0776819833
 20
19.868821298
 10
-10.1160170829
 20
19.8616219832
 10
-10.151881065
 20
19.8461767757
  0
LINE
  5
296
100
AcDbEntity
  8
ASSI
100
AcDbLine
 62
7
  6
CONTINUOUS
 10
-0.8996573955
 20
35.792535122
 11
-0.8996573955
 21
18.6708979563
  0
LINE
  5
297
100
AcDbEntity
  8
ASSI
100
AcDbLine
 62
7
  6
CONTINUOUS
 10
-0.8996573955
 20
9.2004198139
 11
-0.8996573955
 21
-1.5837682394
  0
LINE
  5
298
100
AcDbEntity
  8
ASSI
100
AcDbLine
 62
253
  6
CONTINUOUS
 10
-0.4879450225
 20
35.5548175577
 11
-0.4879450225
 21
18.4331803921
  0
LINE
  5
299
100
AcDbEntity
  8
ASSI
100
AcDbLine
 62
253
  6
CONTINUOUS
 10
-0.4879450225
 20
8.9627022497
 11
-0.4879450225
 21
-1.8026695264
  0
LINE
  5
29A
100
AcDbEntity
  8
ASSI
100
AcDbLine
 62
253
  6
CONTINUOUS
 10
-0.2391357562
 20
35.4111582057
 11
-0.2391357562
 21
18.28952104
  0
LINE
  5
29B
100
AcDbEntity
  8
ASSI
100
AcDbLine
 62
253
  6
CONTINUOUS
 10
-0.2391357562
 20
8.8190428977
 11
-0.2391357562
 21
-1.9503328947
  0
LINE
  5
29C
100
AcDbEntity
  8
ASSI
100
AcDbLine
 62
253
  6
CONTINUOUS
 10
-0.1157068134
 20
35.339891881
 11
-0.1157068134
 21
18.2182547153
  0
LINE
  5
29D
100
AcDbEntity
  8
ASSI
100
AcDbLine
 62
253
  6
CONTINUOUS
 10
-0.1157068134
 20
8.747776573
 11
-0.1157068134
 21
-2.110153192
  0
LINE
  5
29E
100
AcDbEntity
  8
ASSI
100
AcDbLine
 62
253
  6
CONTINUOUS
 10
0.0
 20
35.2730842171
 11
0.0
 21
18.1514470515
  0
LINE
  5
29F
100
AcDbEntity
  8
ASSI
100
AcDbLine
 62
253
  6
CONTINUOUS
 10
0.0
 20
8.6809689091
 11
0.0
 21
-2.2599745943
  0
LINE
  5
2A0
100
AcDbEntity
  8
0
100
AcDbLine
 62
7
  6
CONTINUOUS
 10
0.3316955977
 20
42.494901443
 11
0.3316955977
 21
41.7034024726
  0
LINE
  5
2A1
100
AcDbEntity
  8
ASSI
100
AcDbLine
 62
253
  6
CONTINUOUS
 10
0.4100805896
 20
35.0363088242
 11
0.4100805896
 21
17.9146716585
  0
LINE
  5
2A2
100
AcDbEntity
  8
ASSI
100
AcDbLine
 62
253
  6
CONTINUOUS
 10
0.4100805896
 20
8.4441935162
 11
0.4100805896
 21
-2.7909618993
  0
LINE
  5
2A3
100
AcDbEntity
  8
ASSI
100
AcDbLine
 62
253
  6
CONTINUOUS
 10
0.6588898559
 20
34.8926494722
 11
0.6588898559
 21
17.7710123065
  0
LINE
  5
2A4
100
AcDbEntity
  8
ASSI
100
AcDbLine
 62
253
  6
CONTINUOUS
 10
0.6588898559
 20
8.3005341641
 11
0.6588898559
 21
-3.1338808648
  0
LINE
  5
2A5
100
AcDbEntity
  8
ASSI
100
AcDbLine
 62
253
  6
CONTINUOUS
 10
0.7823187988
 20
34.8213831475
 11
0.7823187988
 21
17.6997459818
  0
LINE
  5
2A6
100
AcDbEntity
  8
ASSI
100
AcDbLine
 62
253
  6
CONTINUOUS
 10
0.7823187988
 20
8.2292678395
 11
0.7823187988
 21
-3.3225213083
  0
LINE
  5
2A7
100
AcDbEntity
  8
ASSI
100
AcDbLine
 62
253
  6
CONTINUOUS
 10
0.8980256121
 20
34.7545754836
 11
0.8980256121
 21
17.6329383179
  0
LINE
  5
2A8
100
AcDbEntity
  8
ASSI
100
AcDbLine
 62
253
  6
CONTINUOUS
 10
0.8980256121
 20
8.1624601756
 11
0.8980256121
 21
-3.4993597716
  0
LWPOLYLINE
  5
2A9
100
AcDbEntity
  8
RACCORDO
100
AcDbPolyline
 62
253
  6
CONTINUOUS
 90
16
 70
0
 10
-2.0441831871
 20
20.2783346426
 10
-2.0066220674
 20
20.302332314
 10
-1.9694938028
 20
20.330672689
 10
-1.9332180636
 20
20.363032496
 10
-1.8982266863
 20
20.3990188706
 10
-1.864889935
 20
20.4382431056
 10
-1.8335240171
 20
20.4803450298
 10
-1.80442883
 20
20.5249709478
 10
-1.7780282362
 20
20.5715237591
 10
-1.7547541487
 20
20.6192237414
 10
-1.7348574319
 20
20.6674647929
 10
-1.7184996053
 20
20.7157486423
 10
-1.7058481513
 20
20.7634368576
 10
-1.6969854345
 20
20.8099795669
 10
-1.6919340999
 20
20.8549202673
 10
-1.6906836444
 20
20.8978006721
  0
LINE
  5
2AA
100
AcDbEntity
  8
RACCORDO
100
AcDbLine
 62
253
  6
CONTINUOUS
 10
-6.7032545709
 20
18.4118174525
 11
-2.3976827298
 21
20.8978006721
  0
LINE
  5
2AB
100
AcDbEntity
  8
RACCORDO
100
AcDbLine
 62
253
  6
CONTINUOUS
 10
-5.9900660432
 20
18.000031335
 11
-2.0441831871
 21
20.2783346426
  0
LWPOLYLINE
  5
2AC
100
AcDbEntity
  8
RACCORDO
100
AcDbPolyline
 62
253
  6
CONTINUOUS
 90
13
 70
0
 10
-2.3976827298
 20
20.8978006721
 10
-2.3485135647
 20
20.9235517119
 10
-2.2941392374
 20
20.9452494975
 10
-2.2354897466
 20
20.9625229171
 10
-2.1735682108
 20
20.9750765315
 10
-2.1094337151
 20
20.9826956271
 10
-2.0441831973
 20
20.9852498885
 10
-1.9789326809
 20
20.9826956288
 10
-1.9147981869
 20
20.9750765353
 10
-1.8528766495
 20
20.9625229225
 10
-1.7942271531
 20
20.9452495031
 10
-1.7398528182
 20
20.9235517158
 10
-1.6906836444
 20
20.8978006721
  0
LINE
  5
2AD
100
AcDbEntity
  8
0
100
AcDbLine
 62
7
  6
CONTINUOUS
 10
5.1831905744
 20
15.1587377744
 11
-1.0895890325
 21
18.7805621031
  0
LINE
  5
2AE
100
AcDbEntity
  8
RACCORDO
100
AcDbLine
 62
253
  6
CONTINUOUS
 10
-2.0441831871
 20
20.2783346426
 11
-0.8996573955
 21
19.6174997948
  0
LWPOLYLINE
  5
2AF
100
AcDbEntity
  8
RACCORDO
100
AcDbPolyline
 62
253
  6
CONTINUOUS
 90
16
 70
0
 10
-2.0441831871
 20
20.2783346426
 10
-2.0817446463
 20
20.3023325519
 10
-2.1188730458
 20
20.3306730813
 10
-2.1551487206
 20
20.3630328892
 10
-2.1901397299
 20
20.3990189168
 10
-2.2234759763
 20
20.4382425238
 10
-2.2548416232
 20
20.4803439774
 10
-2.2839368716
 20
20.5249698428
 10
-2.3103376707
 20
20.5715228721
 10
-2.3336119955
 20
20.61922323
 10
-2.3535089939
 20
20.6674649303
 10
-2.3698670483
 20
20.7157495672
 10
-2.382518528
 20
20.7634381952
 10
-2.3913811245
 20
20.8099807835
 10
-2.3964323282
 20
20.8549210214
 10
-2.3976827298
 20
20.8978006721
  0
LINE
  5
2B0
100
AcDbEntity
  8
ASSI
100
AcDbLine
 62
253
  6
CONTINUOUS
 10
1.3081062017
 20
34.5178000907
 11
1.3081062017
 21
17.396162925
  0
LINE
  5
2B1
100
AcDbEntity
  8
ASSI
100
AcDbLine
 62
253
  6
CONTINUOUS
 10
1.3081062017
 20
7.9256847827
 11
1.3081062017
 21
-4.1260991935
  0
LINE
  5
2B2
100
AcDbEntity
  8
0
100
AcDbLine
 62
7
  6
CONTINUOUS
 10
1.3923557695
 20
41.0909905826
 11
1.3923557695
 21
41.8824895531
  0
LINE
  5
2B3
100
AcDbEntity
  8
ASSI
100
AcDbLine
 62
253
  6
CONTINUOUS
 10
1.556915468
 20
34.3741407386
 11
1.556915468
 21
17.252503573
  0
LINE
  5
2B4
100
AcDbEntity
  8
ASSI
100
AcDbLine
 62
253
  6
CONTINUOUS
 10
1.556915468
 20
7.7820254306
 11
1.556915468
 21
-4.4820081863
  0
LINE
  5
2B5
100
AcDbEntity
  8
ASSI
100
AcDbLine
 62
253
  6
CONTINUOUS
 10
1.6803444109
 20
34.302874414
 11
1.6803444109
 21
17.1812372483
  0
LINE
  5
2B6
100
AcDbEntity
  8
ASSI
100
AcDbLine
 62
253
  6
CONTINUOUS
 10
1.6803444109
 20
7.7107591059
 11
1.6803444109
 21
-4.6521679666
  0
LINE
  5
2B7
100
AcDbEntity
  8
RACCORDO
100
AcDbLine
 62
253
  6
CONTINUOUS
 10
1.7035366011
 20
7.8736400693
 11
1.7035366011
 21
9.2815200666
  0
LINE
  5
2B8
100
AcDbEntity
  8
RACCORDO
100
AcDbLine
 62
253
  6
CONTINUOUS
 10
1.7035366011
 20
10.3903522783
 11
1.7035366011
 21
12.311164312
  0
LINE
  5
2B9
100
AcDbEntity
  8
ASSI
100
AcDbLine
 62
253
  6
CONTINUOUS
 10
1.7960512242
 20
34.2360667501
 11
1.7960512242
 21
17.1144295844
  0
LINE
  5
2BA
100
AcDbEntity
  8
ASSI
100
AcDbLine
 62
253
  6
CONTINUOUS
 10
1.7960512242
 20
7.6439514421
 11
1.7960512242
 21
-4.8116819791
  0
LINE
  5
2BB
100
AcDbEntity
  8
0
100
AcDbLine
 62
7
  6
CONTINUOUS
 10
1.9580411944
 20
43.4339330077
 11
1.9580411944
 21
43.0256978693
  0
LINE
  5
2BC
100
AcDbEntity
  8
0
100
AcDbLine
 62
7
  6
CONTINUOUS
 10
2.1560310931
 20
41.4415529923
 11
2.1560310931
 21
40.6500540218
  0
LINE
  5
2BD
100
AcDbEntity
  8
ASSI
100
AcDbLine
 62
253
  6
CONTINUOUS
 10
2.2061318138
 20
33.9992913572
 11
2.2061318138
 21
16.8776541915
  0
LINE
  5
2BE
100
AcDbEntity
  8
ASSI
100
AcDbLine
 62
253
  6
CONTINUOUS
 10
2.2061318138
 20
7.5943415819
 11
2.2061318138
 21
-5.3770212051
  0
LINE
  5
2BF
100
AcDbEntity
  8
RACCORDO
100
AcDbLine
 62
253
  6
CONTINUOUS
 10
2.4105356865
 20
7.8736400693
 11
2.4105356865
 21
9.2815200666
  0
LINE
  5
2C0
100
AcDbEntity
  8
RACCORDO
100
AcDbLine
 62
253
  6
CONTINUOUS
 10
2.4105356865
 20
10.3903522783
 11
2.4105356865
 21
12.311164312
  0
LINE
  5
2C1
100
AcDbEntity
  8
0
100
AcDbLine
 62
7
  6
CONTINUOUS
 10
2.42473167
 20
43.2460556759
 11
2.42473167
 21
42.5112324268
  0
LINE
  5
2C2
100
AcDbEntity
  8
ASSI
100
AcDbLine
 62
253
  6
CONTINUOUS
 10
2.4549410801
 20
33.8556320051
 11
2.4549410801
 21
16.7339948394
  0
LINE
  5
2C3
100
AcDbEntity
  8
ASSI
100
AcDbLine
 62
253
  6
CONTINUOUS
 10
2.4549410801
 20
7.7230073437
 11
2.4549410801
 21
-5.5944341818
  0
LINE
  5
2C4
100
AcDbEntity
  8
ASSI
100
AcDbLine
 62
253
  6
CONTINUOUS
 10
2.578370023
 20
33.7843656804
 11
2.578370023
 21
16.6627285148
  0
LINE
  5
2C5
100
AcDbEntity
  8
ASSI
100
AcDbLine
 62
253
  6
CONTINUOUS
 10
2.578370023
 20
7.7942736684
 11
2.578370023
 21
-5.6842527415
  0
LINE
  5
2C6
100
AcDbEntity
  8
ASSI
100
AcDbLine
 62
253
  6
CONTINUOUS
 10
2.6940768363
 20
33.7175580166
 11
2.6940768363
 21
16.5959208509
  0
LINE
  5
2C7
100
AcDbEntity
  8
ASSI
100
AcDbLine
 62
253
  6
CONTINUOUS
 10
2.6940768363
 20
7.8610813323
 11
2.6940768363
 21
-5.7684519503
  0
LINE
  5
2C8
100
AcDbEntity
  8
0
100
AcDbLine
 62
7
  6
CONTINUOUS
 10
-1.0895890325
 20
18.7805621031
 11
-0.8996573955
 21
18.8902262499
  0
LWPOLYLINE
  5
2C9
100
AcDbEntity
  8
RACCORDO
100
AcDbPolyline
 62
253
  6
CONTINUOUS
 90
6
 70
0
 10
8.7796060749
 20
17.1676132385
 10
8.7547784749
 20
17.1794122886
 10
8.7307220622
 20
17.1857726505
 10
8.7081840697
 20
17.1864967603
 10
8.6878645657
 20
17.1815621262
 10
8.6798249197
 20
17.1776500458
  0
LINE
  5
2CA
100
AcDbEntity
  8
RACCORDO
100
AcDbLine
 62
253
  6
CONTINUOUS
 10
-1.6906836444
 20
20.8978006721
 11
-0.8996573955
 21
20.4410720299
  0
LINE
  5
2CB
100
AcDbEntity
  8
RACCORDO
100
AcDbLine
 62
253
  6
CONTINUOUS
 10
6.2865218892
 20
16.2918621748
 11
6.7161075276
 21
16.0438248112
  0
LWPOLYLINE
  5
2CC
100
AcDbEntity
  8
RACCORDO
100
AcDbPolyline
 62
253
  6
CONTINUOUS
 90
10
 70
0
 10
10.4667882739
 20
14.7182024081
 10
10.4424973332
 20
14.7346545157
 10
10.418929321
 20
14.7554703457
 10
10.3967845736
 20
14.7800307463
 10
10.3767210817
 20
14.8076052753
 10
10.3593346579
 20
14.8373743263
 10
10.345141387
 20
14.8684535927
 10
10.3345626769
 20
14.8999197294
 10
10.3279126141
 20
14.9308377134
 10
10.3253884568
 20
14.9602890715
  0
LINE
  5
2CD
100
AcDbEntity
  8
ASSI
100
AcDbLine
 62
253
  6
CONTINUOUS
 10
3.1041574259
 20
33.4807826236
 11
3.1041574259
 21
16.359145458
  0
LINE
  5
2CE
100
AcDbEntity
  8
ASSI
100
AcDbLine
 62
253
  6
CONTINUOUS
 10
3.1041574259
 20
8.0978567252
 11
3.1041574259
 21
-6.0668653294
  0
LINE
  5
2CF
100
AcDbEntity
  8
0
100
AcDbLine
 62
7
  6
CONTINUOUS
 10
3.1318384512
 20
42.1029578335
 11
3.1318384512
 21
42.8377810826
  0
LINE
  5
2D0
100
AcDbEntity
  8
0
100
AcDbLine
 62
7
  6
CONTINUOUS
 10
3.2166912649
 20
40.0376421318
 11
3.2166912649
 21
40.8291411023
  0
LINE
  5
2D1
100
AcDbEntity
  8
ASSI
100
AcDbLine
 62
253
  6
CONTINUOUS
 10
3.3529666922
 20
33.3371232716
 11
3.3529666922
 21
16.2154861059
  0
LINE
  5
2D2
100
AcDbEntity
  8
ASSI
100
AcDbLine
 62
253
  6
CONTINUOUS
 10
3.3529666922
 20
8.2415160773
 11
3.3529666922
 21
-6.2479224577
  0
LINE
  5
2D3
100
AcDbEntity
  8
ASSI
100
AcDbLine
 62
253
  6
CONTINUOUS
 10
3.4763956351
 20
33.2658569469
 11
3.4763956351
 21
16.1442197812
  0
LINE
  5
2D4
100
AcDbEntity
  8
ASSI
100
AcDbLine
 62
253
  6
CONTINUOUS
 10
3.4763956351
 20
8.3127824019
 11
3.4763956351
 21
-6.3377410174
  0
LINE
  5
2D5
100
AcDbEntity
  8
ASSI
100
AcDbLine
 62
253
  6
CONTINUOUS
 10
3.5921024484
 20
33.199049283
 11
3.5921024484
 21
16.0774121174
  0
LINE
  5
2D6
100
AcDbEntity
  8
ASSI
100
AcDbLine
 62
253
  6
CONTINUOUS
 10
3.5921024484
 20
8.3795900658
 11
3.5921024484
 21
-6.4219402262
  0
LINE
  5
2D7
100
AcDbEntity
  8
0
100
AcDbLine
 62
7
  6
CONTINUOUS
 10
3.7823766899
 20
42.3805845569
 11
3.7823766899
 21
41.9723494185
  0
LINE
  5
2D8
100
AcDbEntity
  8
0
100
AcDbLine
 62
7
  6
CONTINUOUS
 10
3.7823766899
 20
41.6503731261
 11
3.7823766899
 21
41.5641142801
  0
LINE
  5
2D9
100
AcDbEntity
  8
ASSI
100
AcDbLine
 62
253
  6
CONTINUOUS
 10
4.002183038
 20
32.9622738901
 11
4.002183038
 21
15.8406367244
  0
LINE
  5
2DA
100
AcDbEntity
  8
ASSI
100
AcDbLine
 62
253
  6
CONTINUOUS
 10
4.002183038
 20
8.6163654587
 11
4.002183038
 21
-6.5638217492
  0
LINE
  5
2DB
100
AcDbEntity
  8
0
100
AcDbLine
 62
7
  6
CONTINUOUS
 10
4.1858626609
 20
36.7752769065
 11
4.1858626609
 21
36.0404536574
  0
LINE
  5
2DC
100
AcDbEntity
  8
0
100
AcDbLine
 62
7
  6
CONTINUOUS
 10
4.1858626609
 20
32.8562195779
 11
4.1858626609
 21
33.591042827
  0
LINE
  5
2DD
100
AcDbEntity
  8
ASSI
100
AcDbLine
 62
253
  6
CONTINUOUS
 10
4.2509923043
 20
32.8938246178
 11
4.2509923043
 21
15.6969773724
  0
LINE
  5
2DE
100
AcDbEntity
  8
ASSI
100
AcDbLine
 62
253
  6
CONTINUOUS
 10
4.2509923043
 20
8.7600248108
 11
4.2509923043
 21
-6.4849657039
  0
LINE
  5
2DF
100
AcDbEntity
  8
0
100
AcDbLine
 62
7
  6
CONTINUOUS
 10
4.3339199792
 20
42.1437142739
 11
4.3339199792
 21
41.4088910248
  0
LINE
  5
2E0
100
AcDbEntity
  8
ASSI
100
AcDbLine
 62
253
  6
CONTINUOUS
 10
4.3744212472
 20
32.9650909425
 11
4.3744212472
 21
15.6257110477
  0
LINE
  5
2E1
100
AcDbEntity
  8
ASSI
100
AcDbLine
 62
253
  6
CONTINUOUS
 10
4.3744212472
 20
8.8312911355
 11
4.3744212472
 21
-6.4458469105
  0
LINE
  5
2E2
100
AcDbEntity
  8
ASSI
100
AcDbLine
 62
253
  6
CONTINUOUS
 10
4.4901280605
 20
33.0318986063
 11
4.4901280605
 21
15.5589033838
  0
LINE
  5
2E3
100
AcDbEntity
  8
ASSI
100
AcDbLine
 62
253
  6
CONTINUOUS
 10
4.4901280605
 20
8.8980987993
 11
4.4901280605
 21
-6.4091755202
  0
LINE
  5
2E4
100
AcDbEntity
  8
0
100
AcDbLine
 62
7
  6
CONTINUOUS
 10
4.5639414344
 20
40.0512557394
 11
4.5639414344
 21
39.8471381702
  0
LINE
  5
2E5
100
AcDbEntity
  8
0
100
AcDbLine
 62
7
  6
CONTINUOUS
 10
4.8222587639
 20
33.223595693
 11
4.8222587639
 21
35.6730065234
  0
LINE
  5
2E6
100
AcDbEntity
  8
ASSI
100
AcDbLine
 62
253
  6
CONTINUOUS
 10
4.9002086501
 20
33.2686739993
 11
4.9002086501
 21
15.3221279909
  0
LINE
  5
2E7
100
AcDbEntity
  8
ASSI
100
AcDbLine
 62
253
  6
CONTINUOUS
 10
4.9002086501
 20
9.1348741923
 11
4.9002086501
 21
-6.2792071552
  0
LWPOLYLINE
  5
2E8
100
AcDbEntity
  8
RACCORDO
100
AcDbPolyline
 62
253
  6
CONTINUOUS
 90
7
 70
0
 10
-2.0441831871
 20
24.3583355235
 10
-2.0900044402
 20
24.3813491206
 10
-2.1350683689
 20
24.3970926988
 10
-2.1786130993
 20
24.4052927349
 10
-2.2199069323
 20
24.4058022361
 10
-2.2582424177
 20
24.3986027591
 10
-2.2941952672
 20
24.3831061124
  0
LINE
  5
2E9
100
AcDbEntity
  8
RACCORDO
100
AcDbLine
 62
253
  6
CONTINUOUS
 10
10.1647340217
 20
17.4781841343
 11
10.1648234871
 21
17.4781325151
  0
LINE
  5
2EA
100
AcDbEntity
  8
RACCORDO
100
AcDbLine
 62
253
  6
CONTINUOUS
 10
11.5486594966
 20
15.1264148193
 11
10.4539400345
 21
15.7584921166
  0
LINE
  5
2EB
100
AcDbEntity
  8
RACCORDO
100
AcDbLine
 62
7
  6
CONTINUOUS
 10
11.6486643287
 20
15.1363230548
 11
10.4518583699
 21
15.8273438159
  0
LINE
  5
2EC
100
AcDbEntity
  8
RACCORDO
100
AcDbLine
 62
253
  6
CONTINUOUS
 10
-1.6906836444
 20
23.4550957804
 11
-0.8996573955
 21
22.9983671382
  0
LINE
  5
2ED
100
AcDbEntity
  8
RACCORDO
100
AcDbLine
 62
253
  6
CONTINUOUS
 10
6.2865218892
 20
18.8491572832
 11
8.6382062578
 21
17.4913242023
  0
LINE
  5
2EE
100
AcDbEntity
  8
RACCORDO
100
AcDbLine
 62
253
  6
CONTINUOUS
 10
-1.5492838273
 20
23.7028821922
 11
-0.8996573955
 21
23.3277960323
  0
LINE
  5
2EF
100
AcDbEntity
  8
RACCORDO
100
AcDbLine
 62
253
  6
CONTINUOUS
 10
6.2865218892
 20
19.1785861772
 11
8.7796060749
 21
17.7391106141
  0
LINE
  5
2F0
100
AcDbEntity
  8
RACCORDO
100
AcDbLine
 62
253
  6
CONTINUOUS
 10
9.914811407
 20
17.4533619263
 11
6.2865218892
 21
19.5482908207
  0
LINE
  5
2F1
100
AcDbEntity
  8
RACCORDO
100
AcDbLine
 62
253
  6
CONTINUOUS
 10
-0.8996573955
 20
23.6975006758
 11
-2.0441831871
 21
24.3583355235
  0
LINE
  5
2F2
100
AcDbEntity
  8
RACCORDO
100
AcDbLine
 62
7
  6
CONTINUOUS
 10
10.1648234871
 20
17.4781325151
 11
6.2865218892
 21
19.7174152512
  0
LINE
  5
2F3
100
AcDbEntity
  8
RACCORDO
100
AcDbLine
 62
7
  6
CONTINUOUS
 10
-0.8996573955
 20
23.8666251062
 11
-1.794171107
 21
24.3831061124
  0
LWPOLYLINE
  5
2F4
100
AcDbEntity
  8
RACCORDO
100
AcDbPolyline
 62
253
  6
CONTINUOUS
 90
15
 70
0
 10
8.7796060749
 20
17.7391106141
 10
8.8290504428
 20
17.7072666204
 10
8.871803579
 20
17.6733422851
 10
8.9078654833
 20
17.6373376083
 10
8.9375225466
 20
17.5987874984
 10
8.9604883781
 20
17.5581570471
 10
8.9759038055
 20
17.5168415288
 10
8.9834852795
 20
17.474852858
 10
8.9835163494
 20
17.4321791203
 10
8.9759884908
 20
17.3901798477
 10
8.9606196295
 20
17.3488435435
 10
8.9376918398
 20
17.3081817043
 10
8.9080428197
 20
17.2695883521
 10
8.8719518018
 20
17.2335281606
 10
8.8291395535
 20
17.1995364561
  0
LINE
  5
2F5
100
AcDbEntity
  8
RACCORDO
100
AcDbLine
 62
253
  6
CONTINUOUS
 10
10.5163217246
 20
15.2577765424
 11
10.4667882739
 21
15.2896997837
  0
LWPOLYLINE
  5
2F6
100
AcDbEntity
  8
RACCORDO
100
AcDbPolyline
 62
253
  6
CONTINUOUS
 90
9
 70
0
 10
8.6382062578
 20
17.4913242023
 10
8.6732455956
 20
17.4685647291
 10
8.7040221038
 20
17.4438658336
 10
8.7301990183
 20
17.4174888487
 10
8.7514912325
 20
17.3897084213
 10
8.7676640186
 20
17.3608289499
 10
8.7785386729
 20
17.3311819612
 10
8.7839984736
 20
17.3011019791
 10
8.7845197199
 20
17.2933316379
  0
LWPOLYLINE
  5
2F7
100
AcDbEntity
  8
RACCORDO
100
AcDbPolyline
 62
253
  6
CONTINUOUS
 90
13
 70
0
 10
9.914811407
 20
17.4533619263
 10
9.9606328352
 20
17.4234621613
 10
10.005696801
 20
17.3871669841
 10
10.0492414381
 20
17.3450827195
 10
10.09053494
 20
17.2979075255
 10
10.1288700395
 20
17.2464397986
 10
10.1635806808
 20
17.1915704744
 10
10.1941388386
 20
17.1341082525
 10
10.2199510118
 20
17.0751395713
 10
10.2404615923
 20
17.0160584582
 10
10.2554061094
 20
16.9579837182
 10
10.2647012952
 20
16.9017209288
 10
10.2683109319
 20
16.8481452578
  0
LWPOLYLINE
  5
2F8
100
AcDbEntity
  8
RACCORDO
100
AcDbPolyline
 62
253
  6
CONTINUOUS
 90
10
 70
0
 10
11.5486594966
 20
14.8814873726
 10
11.5729434938
 20
14.8650406805
 10
11.596506988
 20
14.8442308275
 10
11.6186498196
 20
14.8196755768
 10
11.6387139756
 20
14.7921039877
 10
11.6561029252
 20
14.7623350885
 10
11.6702994706
 20
14.7312536299
 10
11.6808814202
 20
14.6997833134
 10
11.6875340432
 20
14.6688592854
 10
11.6900592925
 20
14.6394006973
  0
LWPOLYLINE
  5
2F9
100
AcDbEntity
  8
RACCORDO
100
AcDbPolyline
 62
253
  6
CONTINUOUS
 90
10
 70
0
 10
-2.5390825469
 20
23.7028821922
 10
-2.5142513384
 20
23.686008125
 10
-2.4901926022
 20
23.6645856217
 10
-2.4676536638
 20
23.6392807516
 10
-2.4473345815
 20
23.6108801982
 10
-2.4298661048
 20
23.5802663713
 10
-2.4157902547
 20
23.5483898832
 10
-2.4055438948
 20
23.5162406826
 10
-2.3994450265
 20
23.4848173846
 10
-2.397682732
 20
23.4550957791
  0
LINE
  5
2FA
100
AcDbEntity
  8
0
100
AcDbLine
 62
7
  6
CONTINUOUS
 10
5.0410267604
 20
41.0006164315
 11
5.0410267604
 21
41.7354396806
  0
LINE
  5
2FB
100
AcDbEntity
  8
ASSI
100
AcDbLine
 62
253
  6
CONTINUOUS
 10
5.1490179164
 20
33.4123333513
 11
5.1490179164
 21
15.1784686389
  0
LINE
  5
2FC
100
AcDbEntity
  8
ASSI
100
AcDbLine
 62
253
  6
CONTINUOUS
 10
5.1490179164
 20
9.2785335443
 11
5.1490179164
 21
-6.20035111
  0
LINE
  5
2FD
100
AcDbEntity
  8
0
100
AcDbLine
 62
7
  6
CONTINUOUS
 10
5.2111674936
 20
35.8975575498
 11
5.2111674936
 21
35.3178636532
  0
LINE
  5
2FE
100
AcDbEntity
  8
0
100
AcDbLine
 62
7
  6
CONTINUOUS
 10
5.2111674936
 20
34.0278068182
 11
5.2111674936
 21
33.4481467194
  0
LINE
  5
2FF
100
AcDbEntity
  8
ASSI
100
AcDbLine
 62
253
  6
CONTINUOUS
 10
5.2724468593
 20
33.483599676
 11
5.2724468593
 21
15.2102732346
  0
LINE
  5
300
100
AcDbEntity
  8
ASSI
100
AcDbLine
 62
253
  6
CONTINUOUS
 10
5.2724468593
 20
9.349799869
 11
5.2724468593
 21
-6.1612323166
  0
LINE
  5
301
100
AcDbEntity
  8
ASSI
100
AcDbLine
 62
253
  6
CONTINUOUS
 10
5.3881536726
 20
33.4276949151
 11
5.3881536726
 21
15.2770808985
  0
LINE
  5
302
100
AcDbEntity
  8
ASSI
100
AcDbLine
 62
253
  6
CONTINUOUS
 10
5.3881536726
 20
9.4166075329
 11
5.3881536726
 21
-6.1245609263
  0
LINE
  5
303
100
AcDbEntity
  8
0
100
AcDbLine
 62
7
  6
CONTINUOUS
 10
5.9284457708
 20
34.3399754812
 11
5.9284457708
 21
34.4419880978
  0
LINE
  5
304
100
AcDbEntity
  8
0
100
AcDbLine
 62
7
  6
CONTINUOUS
 10
5.9284457708
 20
36.2423512261
 11
5.9284457708
 21
36.7893863116
  0
LINE
  5
305
100
AcDbEntity
  8
0
100
AcDbLine
 62
7
  6
CONTINUOUS
 10
6.1969345963
 20
38.9042683848
 11
6.1969345963
 21
39.108385954
  0
LINE
  5
306
100
AcDbEntity
  8
ASSI
100
AcDbLine
 62
7
  6
CONTINUOUS
 10
6.2865218892
 20
33.6608787505
 11
6.2865218892
 21
15.7957874476
  0
LINE
  5
307
100
AcDbEntity
  8
ASSI
100
AcDbLine
 62
7
  6
CONTINUOUS
 10
6.2865218892
 20
9.9353140819
 11
6.2865218892
 21
-5.4308278234
  0
LINE
  5
308
100
AcDbEntity
  8
0
100
AcDbLine
 62
7
  6
CONTINUOUS
 10
6.5581031843
 20
35.878794927
 11
6.5581031843
 21
34.507124862
  0
LINE
  5
309
100
AcDbEntity
  8
0
100
AcDbLine
 62
7
  6
CONTINUOUS
 10
6.6673723571
 20
44.1443308001
 11
6.6673723571
 21
44.8791540492
  0
LINE
  5
30A
100
AcDbEntity
  8
0
100
AcDbLine
 62
7
  6
CONTINUOUS
 10
6.7522251708
 20
37.2650262128
 11
6.7522251708
 21
38.6652975941
  0
LINE
  5
30B
100
AcDbEntity
  8
0
100
AcDbLine
 62
7
  6
CONTINUOUS
 10
6.7946515777
 20
33.7828029716
 11
6.7946515777
 21
36.2892499348
  0
LINE
  5
30C
100
AcDbEntity
  8
0
100
AcDbLine
 62
7
  6
CONTINUOUS
 10
6.7946515777
 20
37.497742731
 11
6.7946515777
 21
38.76327166
  0
LINE
  5
30D
100
AcDbEntity
  8
0
100
AcDbLine
 62
7
  6
CONTINUOUS
 10
6.8688977897
 20
37.3323915207
 11
6.8688977897
 21
37.4548738987
  0
LINE
  5
30E
100
AcDbEntity
  8
0
100
AcDbLine
 62
7
  6
CONTINUOUS
 10
1.7539170492
 20
42.4996040077
 11
1.8286316719
 21
42.1344884286
  0
LINE
  5
30F
100
AcDbEntity
  8
RACCORDO
100
AcDbLine
 62
253
  6
CONTINUOUS
 10
8.7845197199
 20
17.2933316379
 11
8.7846030292
 21
17.2910795376
  0
LINE
  5
310
100
AcDbEntity
  8
RACCORDO
100
AcDbLine
 62
253
  6
CONTINUOUS
 10
8.6382062578
 20
17.4913242023
 11
8.648241224
 21
17.1594145922
  0
LINE
  5
311
100
AcDbEntity
  8
0
100
AcDbLine
 62
7
  6
CONTINUOUS
 10
8.2088651401
 20
35.1870939709
 11
8.2088651401
 21
36.5750934415
  0
LINE
  5
312
100
AcDbEntity
  8
0
100
AcDbLine
 62
7
  6
CONTINUOUS
 10
8.4957328414
 20
36.6019778122
 11
8.4957328414
 21
36.7407272569
  0
LINE
  5
313
100
AcDbEntity
  8
0
100
AcDbLine
 62
7
  6
CONTINUOUS
 10
8.5765606663
 20
43.0419893981
 11
8.5765606663
 21
43.7768126472
  0
LWPOLYLINE
  5
314
100
AcDbEntity
  8
RACCORDO
100
AcDbPolyline
 62
7
  6
CONTINUOUS
 90
4
 70
0
 10
8.7845168987
 20
17.2932299978
 10
8.7843581372
 20
17.28589823
 10
8.7822034888
 20
17.2767623451
 10
8.7776749917
 20
17.266269133
  0
LWPOLYLINE
  5
315
100
AcDbEntity
  8
0
100
AcDbPolyline
 62
7
  6
CONTINUOUS
 90
16
 70
0
 10
9.4937893806
 20
38.9605294271
 10
9.4939920129
 20
38.963148811
 10
9.4947164081
 20
38.9658913888
 10
9.4959670543
 20
38.9683371814
 10
9.4977429407
 20
38.970472658
 10
9.5000420149
 20
38.9722798833
 10
9.5028690847
 20
38.9737131458
 10
9.5062225519
 20
38.9747587376
 10
9.5101004884
 20
38.9753972476
 10
9.5145141202
 20
38.9755724584
 10
9.5194615681
 20
38.9752699204
 10
9.5249409073
 20
38.974467269
 10
9.5309710567
 20
38.9730928593
 10
9.5375590244
 20
38.9711074978
 10
9.5446935478
 20
38.9685066681
 10
9.5523680243
 20
38.965268087
  0
LWPOLYLINE
  5
316
100
AcDbEntity
  8
0
100
AcDbPolyline
 62
7
  6
CONTINUOUS
 90
13
 70
0
 10
10.3023361409
 20
37.5797703253
 10
10.2960670479
 20
37.5429367547
 10
10.2858988196
 20
37.5069894933
 10
10.2718314561
 20
37.4719285412
 10
10.2538444489
 20
37.437695032
 10
10.2319583065
 20
37.4043478321
 10
10.2062345542
 20
37.3720635403
 10
10.1767627476
 20
37.3409457676
 10
10.143453331
 20
37.310890903
 10
10.1060991624
 20
37.2817647127
 10
10.0646311946
 20
37.2535224518
 10
10.0191184748
 20
37.2262088653
 10
9.969561003
 20
37.1998239529
  0
LWPOLYLINE
  5
317
100
AcDbEntity
  8
RACCORDO
100
AcDbPolyline
 62
253
  6
CONTINUOUS
 90
10
 70
0
 10
8.7796060749
 20
17.7391106141
 10
8.7547748654
 20
17.7222365474
 10
8.7307161281
 20
17.7008140447
 10
8.7081771889
 20
17.6755091751
 10
8.6878581058
 20
17.6471086221
 10
8.6703896285
 20
17.6164947957
 10
8.656313778
 20
17.5846183078
 10
8.646067418
 20
17.5524691072
 10
8.6399685497
 20
17.5210458092
 10
8.6382062556
 20
17.4913242034
  0
LWPOLYLINE
  5
318
100
AcDbEntity
  8
RACCORDO
100
AcDbPolyline
 62
253
  6
CONTINUOUS
 90
13
 70
0
 10
2.0570361438
 20
12.9163809704
 10
2.0112147155
 20
12.8864812053
 10
1.9661507498
 20
12.8501860281
 10
1.9226061126
 20
12.8081017636
 10
1.8813126108
 20
12.7609265696
 10
1.8429775112
 20
12.7094588427
 10
1.8082668699
 20
12.6545895185
 10
1.7777087134
 20
12.5971272958
 10
1.7518965416
 20
12.5381586139
 10
1.7313859585
 20
12.4790775023
 10
1.7164414334
 20
12.4210027669
 10
1.7071462358
 20
12.3647399843
 10
1.7035365833
 20
12.3111643224
  0
LINE
  5
319
100
AcDbEntity
  8
RACCORDO
100
AcDbLine
 62
253
  6
CONTINUOUS
 10
8.8291395535
 20
17.1995364561
 11
8.7796060749
 21
17.1676132385
  0
LINE
  5
31A
100
AcDbEntity
  8
RACCORDO
100
AcDbLine
 62
7
  6
CONTINUOUS
 10
8.6796012429
 20
17.177521474
 11
2.4519306735
 21
13.5817425383
  0
LINE
  5
31B
100
AcDbEntity
  8
RACCORDO
100
AcDbLine
 62
253
  6
CONTINUOUS
 10
8.7796060749
 20
17.1676132385
 11
2.5519355035
 21
13.5718343017
  0
LINE
  5
31C
100
AcDbEntity
  8
RACCORDO
100
AcDbLine
 62
253
  6
CONTINUOUS
 10
2.0570361438
 20
12.9163809704
 11
9.914811407
 21
17.4533619263
  0
LWPOLYLINE
  5
31D
100
AcDbEntity
  8
RACCORDO
100
AcDbPolyline
 62
7
  6
CONTINUOUS
 90
16
 70
0
 10
2.4518930078
 20
13.5817372907
 10
2.4150889532
 20
13.56250227
 10
2.3710763991
 20
13.5437981545
 10
2.3218965449
 20
13.5271466133
 10
2.2680667468
 20
13.5130558709
 10
2.2104682735
 20
13.5020373103
 10
2.1503142372
 20
13.4945015604
 10
2.0885750025
 20
13.4906619992
 10
2.0261994128
 20
13.4906389988
 10
1.964432277
 20
13.4944384542
 10
1.9042161582
 20
13.5019425591
 10
1.8465237479
 20
13.5129386696
 10
1.7926020659
 20
13.5270195608
 10
1.7433300875
 20
13.5436718363
 10
1.6992161017
 20
13.5623848626
 10
1.6621859195
 20
13.581729627
  0
LINE
  5
31E
100
AcDbEntity
  8
RACCORDO
100
AcDbLine
 62
253
  6
CONTINUOUS
 10
2.5519355035
 20
13.5718343017
 11
2.4967836418
 21
13.5432857433
  0
LWPOLYLINE
  5
31F
100
AcDbEntity
  8
RACCORDO
100
AcDbPolyline
 62
253
  6
CONTINUOUS
 90
7
 70
0
 10
9.914811407
 20
17.4533619263
 10
9.96063266
 20
17.4763755233
 10
10.0056965888
 20
17.4921191016
 10
10.0492413192
 20
17.5003191377
 10
10.0905351521
 20
17.5008286389
 10
10.1288706376
 20
17.4936291619
 10
10.1647340217
 20
17.4781841343
  0
LWPOLYLINE
  5
320
100
AcDbEntity
  8
RACCORDO
100
AcDbPolyline
 62
253
  6
CONTINUOUS
 90
6
 70
0
 10
1.562136784
 20
13.5718343017
 10
1.586964384
 20
13.5836333518
 10
1.6110207966
 20
13.5899937136
 10
1.6335587891
 20
13.5907178235
 10
1.6538782932
 20
13.5857831893
 10
1.662141616
 20
13.5817425372
  0
LWPOLYLINE
  5
321
100
AcDbEntity
  8
RACCORDO
100
AcDbPolyline
 62
253
  6
CONTINUOUS
 90
3
 70
0
 10
2.4967836418
 20
13.5432857433
 10
2.4380287551
 20
13.5186006183
 10
2.3756708432
 20
13.4977789267
  0
LWPOLYLINE
  5
322
100
AcDbEntity
  8
RACCORDO
100
AcDbPolyline
 62
253
  6
CONTINUOUS
 90
6
 70
0
 10
11.6260895247
 20
15.049069139
 10
11.6161911313
 20
15.0664880692
 10
11.6034575995
 20
15.0829909198
 10
11.5880267037
 20
15.0983816326
 10
11.5697606693
 20
15.1128562658
 10
11.5486594966
 20
15.1264148193
  0
LWPOLYLINE
  5
323
100
AcDbEntity
  8
RACCORDO
100
AcDbPolyline
 62
7
  6
CONTINUOUS
 90
9
 70
0
 10
10.4145830393
 20
17.0602369001
 10
10.4087721546
 20
17.1225949192
 10
10.3949734155
 20
17.1845667028
 10
10.3731696325
 20
17.2448959975
 10
10.3435443084
 20
17.302397125
 10
10.3066076464
 20
17.3557643053
 10
10.2631368681
 20
17.4038319219
 10
10.2135020076
 20
17.4461052734
 10
10.1647340217
 20
17.4781841343
  0
LINE
  5
324
100
AcDbEntity
  8
RACCORDO
100
AcDbLine
 62
253
  6
CONTINUOUS
 10
10.3253884568
 20
14.9602890715
 11
10.2683109497
 21
16.8481452679
  0
LINE
  5
325
100
AcDbEntity
  8
RACCORDO
100
AcDbLine
 62
7
  6
CONTINUOUS
 10
10.4717853313
 20
15.1682534078
 11
10.4145830393
 21
17.0602369001
  0
LINE
  5
326
100
AcDbEntity
  8
0
100
AcDbLine
 62
253
  6
CONTINUOUS
 10
9.5523680243
 20
38.965268087
 11
9.5523680243
 21
38.8986869771
  0
LINE
  5
327
100
AcDbEntity
  8
0
100
AcDbLine
 62
7
  6
CONTINUOUS
 10
9.8069616316
 20
37.2937472599
 11
9.8069616316
 21
36.6813607547
  0
LINE
  5
328
100
AcDbEntity
  8
0
100
AcDbLine
 62
7
  6
CONTINUOUS
 10
9.9695631727
 20
36.5872258881
 11
9.9695631727
 21
37.1998225591
  0
LINE
  5
329
100
AcDbEntity
  8
0
100
AcDbLine
 62
7
  6
CONTINUOUS
 10
10.3023362629
 20
37.7838374304
 11
10.3023362407
 21
37.2461711457
  0
LINE
  5
32A
100
AcDbEntity
  8
0
100
AcDbLine
 62
7
  6
CONTINUOUS
 10
10.7403074167
 20
38.0775399994
 11
10.7403074167
 21
38.0367164856
  0
LINE
  5
32B
100
AcDbEntity
  8
0
100
AcDbLine
 62
7
  6
CONTINUOUS
 10
10.7403074167
 20
36.6487170151
 11
10.7403074167
 21
36.6078935012
  0
LWPOLYLINE
  5
32C
100
AcDbEntity
  8
0
100
AcDbPolyline
 62
7
  6
CONTINUOUS
 90
22
 70
0
 10
10.7403074167
 20
36.6078935012
 10
10.7390307487
 20
36.5699740614
 10
10.7354501047
 20
36.5313946683
 10
10.7295654847
 20
36.4921553218
 10
10.7213119171
 20
36.4520368857
 10
10.7107543736
 20
36.4112584963
 10
10.6980877691
 20
36.3704775624
 10
10.683283526
 20
36.3296975379
 10
10.6663702221
 20
36.2889149689
 10
10.6476285057
 20
36.2487769025
 10
10.6270332784
 20
36.2092935167
 10
10.6046096388
 20
36.1704546336
 10
10.5807135309
 20
36.1328767665
 10
10.5553235897
 20
36.0965765599
 10
10.5284611804
 20
36.0615373694
 10
10.5005463424
 20
36.028325775
 10
10.4715617941
 20
35.9969647963
 10
10.4415248171
 20
35.9674314138
 10
10.4109072956
 20
35.9402231487
 10
10.3798665243
 20
35.9155058414
 10
10.3482452084
 20
35.8931136516
 10
10.316043348
 20
35.8730465791
  0
LWPOLYLINE
  5
32D
100
AcDbEntity
  8
RACCORDO
100
AcDbPolyline
 62
7
  6
CONTINUOUS
 90
7
 70
0
 10
8.7776749917
 20
17.266269133
 10
8.7696210636
 20
17.2531205043
 10
8.7571257572
 20
17.2375528116
 10
8.7403038986
 20
17.2207876898
 10
8.7190193844
 20
17.2033453104
 10
8.6931291944
 20
17.185662195
 10
8.6798194092
 20
17.1776594489
  0
LWPOLYLINE
  5
32E
100
AcDbEntity
  8
RACCORDO
100
AcDbPolyline
 62
253
  6
CONTINUOUS
 90
8
 70
0
 10
10.2683109497
 20
16.8481452679
 10
10.3114058812
 20
16.877403494
 10
10.3477176028
 20
16.9095304018
 10
10.3766250504
 20
16.9439765044
 10
10.3976338003
 20
16.9801526486
 10
10.4103845243
 20
17.01744009
 10
10.4146591369
 20
17.0552010748
 10
10.4145830393
 20
17.0602369001
  0
LWPOLYLINE
  5
32F
100
AcDbEntity
  8
RACCORDO
100
AcDbPolyline
 62
253
  6
CONTINUOUS
 90
10
 70
0
 10
1.562136784
 20
10.1482656149
 10
1.5864277231
 20
10.1647177235
 10
1.6099957339
 20
10.1855335543
 10
1.63214048
 20
10.2100939556
 10
1.6522039704
 20
10.2376684855
 10
1.669590393
 20
10.2674375372
 10
1.6837836638
 20
10.2985168036
 10
1.6943623751
 20
10.3299829396
 10
1.7010124403
 20
10.3609009222
 10
1.7035366011
 20
10.3903522783
  0
LWPOLYLINE
  5
330
100
AcDbEntity
  8
RACCORDO
100
AcDbPolyline
 62
253
  6
CONTINUOUS
 90
10
 70
0
 10
1.8449364181
 20
9.52360673
 10
1.8206524355
 20
9.5071600295
 10
1.7970889501
 20
9.4863501714
 10
1.7749461214
 20
9.461794919
 10
1.7548819612
 20
9.4342233323
 10
1.7374930016
 20
9.404454439
 10
1.7232964443
 20
9.3733729872
 10
1.7127144824
 20
9.3419026778
 10
1.7060618452
 20
9.310978658
 10
1.7035365799
 20
9.2815200791
  0
LWPOLYLINE
  5
331
100
AcDbEntity
  8
RACCORDO
100
AcDbPolyline
 62
253
  6
CONTINUOUS
 90
9
 70
0
 10
10.3253884568
 20
14.9602890715
 10
10.3604277946
 20
14.9824572952
 10
10.3912043029
 20
15.0066668111
 10
10.4173812173
 20
15.0326427113
 10
10.4386734315
 20
15.0600890642
 10
10.4548462176
 20
15.0887018018
 10
10.4657208719
 20
15.1181715715
 10
10.4711806726
 20
15.148168828
 10
10.4717879552
 20
15.1681657985
  0
LINE
  5
332
100
AcDbEntity
  8
RACCORDO
100
AcDbLine
 62
253
  6
CONTINUOUS
 10
2.4105356865
 20
12.311164312
 11
10.2683109497
 21
16.8481452679
  0
LINE
  5
333
100
AcDbEntity
  8
RACCORDO
100
AcDbLine
 62
253
  6
CONTINUOUS
 10
2.4105356865
 20
10.3903522783
 11
10.3253884568
 21
14.9602890715
  0
LINE
  5
334
100
AcDbEntity
  8
RACCORDO
100
AcDbLine
 62
253
  6
CONTINUOUS
 10
2.5519355035
 20
10.1482656149
 11
10.4667882739
 21
14.7182024081
  0
LWPOLYLINE
  5
335
100
AcDbEntity
  8
RACCORDO
100
AcDbPolyline
 62
253
  6
CONTINUOUS
 90
6
 70
0
 10
11.5486594966
 20
15.1264148193
 10
11.5729469259
 20
15.1380119594
 10
11.5965126614
 20
15.1444122599
 10
11.6186564544
 20
15.1454255376
 10
11.6387203087
 20
15.1410216832
 10
11.6486643287
 20
15.1363230548
  0
LWPOLYLINE
  5
336
100
AcDbEntity
  8
RACCORDO
100
AcDbPolyline
 62
7
  6
CONTINUOUS
 90
10
 70
0
 10
11.8363501162
 20
14.8492880107
 10
11.8340244901
 20
14.8789465726
 10
11.8270320725
 20
14.9155504579
 10
11.8152644344
 20
14.952035212
 10
11.7985041142
 20
14.987977797
 10
11.776779612
 20
15.0226869345
 10
11.7504019318
 20
15.0553944175
 10
11.7195718008
 20
15.0857306034
 10
11.6843094183
 20
15.1135123132
 10
11.6486445094
 20
15.1362889439
  0
LINE
  5
337
100
AcDbEntity
  8
RACCORDO
100
AcDbLine
 62
253
  6
CONTINUOUS
 10
11.7318948912
 20
13.25567605
 11
11.6900593137
 21
14.6394007092
  0
LINE
  5
338
100
AcDbEntity
  8
RACCORDO
100
AcDbLine
 62
7
  6
CONTINUOUS
 10
11.8781669808
 20
13.4677676822
 11
11.8363848426
 21
14.8497248228
  0
LINE
  5
339
100
AcDbEntity
  8
RACCORDO
100
AcDbLine
 62
253
  6
CONTINUOUS
 10
11.8781669808
 20
13.4677676822
 11
11.8782430784
 21
13.4627318569
  0
LINE
  5
33A
100
AcDbEntity
  8
0
100
AcDbLine
 62
7
  6
CONTINUOUS
 10
11.3908456554
 20
41.4170565167
 11
11.3908456554
 21
36.4365878282
  0
LWPOLYLINE
  5
33B
100
AcDbEntity
  8
RACCORDO
100
AcDbPolyline
 62
7
  6
CONTINUOUS
 90
4
 70
0
 10
11.8781669808
 20
13.4677676822
 10
11.8759086002
 20
13.4028702383
 10
11.8650413117
 20
13.3378771707
 10
11.8454634754
 20
13.27419927
  0
LWPOLYLINE
  5
33C
100
AcDbEntity
  8
RACCORDO
100
AcDbPolyline
 62
253
  6
CONTINUOUS
 90
7
 70
0
 10
11.8782430784
 20
13.4627318569
 10
11.8739684657
 20
13.4249708721
 10
11.8612177418
 20
13.3876834308
 10
11.8402089919
 20
13.3515072865
 10
11.8113015443
 20
13.3170611839
 10
11.7749898227
 20
13.2849342761
 10
11.7318948912
 20
13.25567605
  0
LWPOLYLINE
  5
33D
100
AcDbEntity
  8
RACCORDO
100
AcDbPolyline
 62
253
  6
CONTINUOUS
 90
9
 70
0
 10
2.3070482278
 20
7.6376158644
 10
2.3231905577
 20
7.6482261025
 10
2.3464649179
 20
7.6690498687
 10
2.3663619585
 20
7.6943150622
 10
2.3827200469
 20
7.7237099062
 10
2.3953715302
 20
7.7567889794
 10
2.4042341077
 20
7.7930972655
 10
2.4092852903
 20
7.8322044527
 10
2.4105356818
 20
7.8736400667
  0
LWPOLYLINE
  5
33E
100
AcDbEntity
  8
RACCORDO
100
AcDbPolyline
 62
253
  6
CONTINUOUS
 90
9
 70
0
 10
11.6900593137
 20
14.6394007092
 10
11.7250842314
 20
14.6621431919
 10
11.7558430307
 20
14.6868446847
 10
11.7820013019
 20
14.7132294424
 10
11.8032727895
 20
14.7409981281
 10
11.819431443
 20
14.7698489919
 10
11.8303066732
 20
14.7994824595
 10
11.8357765648
 20
14.8295834537
 10
11.8363963793
 20
14.8493275162
  0
LWPOLYLINE
  5
33F
100
AcDbEntity
  8
RACCORDO
100
AcDbPolyline
 62
253
  6
CONTINUOUS
 90
15
 70
0
 10
10.4667882739
 20
14.7182024081
 10
10.5162326269
 20
14.7500464225
 10
10.5589857105
 20
14.7839707741
 10
10.5950475247
 20
14.819975463
 10
10.6247044266
 20
14.858525584
 10
10.6476700591
 20
14.8991560422
 10
10.6630853509
 20
14.9404715534
 10
10.6706667953
 20
14.9824601911
 10
10.6706978991
 20
15.0251338817
 10
10.6631701117
 20
15.0671331201
 10
10.647801372
 20
15.1084694141
 10
10.6248737412
 20
15.1491312559
 10
10.5952248527
 20
15.1877246167
 10
10.5591339175
 20
15.2237848201
 10
10.5163217246
 20
15.2577765424
  0
LWPOLYLINE
  5
340
100
AcDbEntity
  8
RACCORDO
100
AcDbPolyline
 62
253
  6
CONTINUOUS
 90
11
 70
0
 10
11.5486594966
 20
14.8814873726
 10
11.5697278106
 20
14.8949981789
 10
11.5879771767
 20
14.9094523402
 10
11.6034075949
 20
14.9248498565
 10
11.6161691668
 20
14.9414026946
 10
11.6261117909
 20
14.9588988876
 10
11.6327851624
 20
14.9767025351
 10
11.6360322493
 20
14.9948134567
 10
11.6360100837
 20
15.0132318327
 10
11.6327394568
 20
15.031322303
 10
11.6260895247
 20
15.049069139
  0
LINE
  5
341
100
AcDbEntity
  8
RACCORDO
100
AcDbLine
 62
253
  6
CONTINUOUS
 10
2.2691358694
 20
9.52360673
 11
11.5486594966
 21
14.8814873726
  0
LINE
  5
342
100
AcDbEntity
  8
RACCORDO
100
AcDbLine
 62
253
  6
CONTINUOUS
 10
2.4105356865
 20
9.2815200666
 11
11.6900593137
 21
14.6394007092
  0
LINE
  5
343
100
AcDbEntity
  8
RACCORDO
100
AcDbLine
 62
253
  6
CONTINUOUS
 10
11.7318948912
 20
13.25567605
 11
2.4105356865
 21
7.8736400693
  0
LINE
  5
344
100
AcDbEntity
  8
0
100
AcDbLine
 62
7
  6
CONTINUOUS
 10
1.9580411944
 20
43.4339330077
 11
2.2055285678
 21
42.8828017616
  0
LINE
  5
345
100
AcDbEntity
  8
0
100
AcDbLine
 62
7
  6
CONTINUOUS
 10
3.7823766899
 20
42.3805845569
 11
4.0298640633
 21
41.8294533109
  0
LWPOLYLINE
  5
346
100
AcDbEntity
  8
RACCORDO
100
AcDbPolyline
 62
7
  6
CONTINUOUS
 90
3
 70
0
 10
11.8454634754
 20
13.27419927
 10
11.8173373223
 20
13.2132210163
 10
11.7811650526
 20
13.1563865706
  0
LWPOLYLINE
  5
347
100
AcDbEntity
  8
RACCORDO
100
AcDbPolyline
 62
7
  6
CONTINUOUS
 90
4
 70
0
 10
11.7811650526
 20
13.1563865706
 10
11.73769504
 20
13.104945431
 10
11.6873078881
 20
13.0595000807
 10
11.6283547858
 20
13.0196214603
  0
LWPOLYLINE
  5
348
100
AcDbEntity
  8
RACCORDO
100
AcDbPolyline
 62
253
  6
CONTINUOUS
 90
8
 70
0
 10
11.6445502995
 20
13.0302624823
 10
11.6678243871
 20
13.0510861319
 10
11.6877211038
 20
13.0763509536
 10
11.7040789304
 20
13.105745195
 10
11.7167303844
 20
13.1388238282
 10
11.7255931011
 20
13.1751320943
 10
11.7306444357
 20
13.21423964
 10
11.7318948912
 20
13.25567605
  0
LINE
  5
349
100
AcDbEntity
  8
RACCORDO
100
AcDbLine
 62
253
  6
CONTINUOUS
 10
11.6284074285
 20
13.0196518428
 11
11.6445502995
 21
13.0302624823
  0
LINE
  5
34A
100
AcDbEntity
  8
RACCORDO
100
AcDbLine
 62
7
  6
CONTINUOUS
 10
11.6284074285
 20
13.0196518428
 11
2.3070482238
 21
7.6376158621
  0
LWPOLYLINE
  5
34B
100
AcDbEntity
  8
RACCORDO
100
AcDbPolyline
 62
253
  6
CONTINUOUS
 90
13
 70
0
 10
2.4105356865
 20
7.8736400693
 10
2.3613665127
 20
7.8496261587
 10
2.3069921778
 20
7.8293920769
 10
2.2483426814
 20
7.8132839007
 10
2.186421144
 20
7.8015771389
 10
2.1222866499
 20
7.7944720199
 10
2.0570361335
 20
7.7920900674
 10
1.9917856157
 20
7.7944720215
 10
1.9276511201
 20
7.8015771424
 10
1.8657295843
 20
7.8132839058
 10
1.8070800935
 20
7.8293920821
 10
1.7527057662
 20
7.8496261624
 10
1.7035366011
 20
7.8736400693
  0
LINE
  5
34C
100
AcDbEntity
  8
0
100
AcDbLine
 62
7
  6
CONTINUOUS
 10
-4.0307181365
 20
37.6003703524
 11
4.1858626609
 21
32.8562195779
  0
LINE
  5
34D
100
AcDbEntity
  8
0
100
AcDbLine
 62
7
  6
CONTINUOUS
 10
3.0399145696
 20
40.318857043
 11
3.1950647825
 21
40.0501289917
  0
LINE
  5
34E
100
AcDbEntity
  8
0
100
AcDbLine
 62
7
  6
CONTINUOUS
 10
-4.0307181365
 20
38.3351936015
 11
-4.6671142396
 21
38.7026407355
  0
LINE
  5
34F
100
AcDbEntity
  8
0
100
AcDbLine
 62
7
  6
CONTINUOUS
 10
4.1858626609
 20
33.591042827
 11
4.8222587639
 21
33.223595693
  0
LINE
  5
350
100
AcDbEntity
  8
0
100
AcDbLine
 62
7
  6
CONTINUOUS
 10
5.6354315623
 20
33.2849473558
 11
5.2818781717
 21
33.4890451976
  0
LINE
  5
351
100
AcDbEntity
  8
0
100
AcDbLine
 62
7
  6
CONTINUOUS
 10
6.6461694037
 20
33.868534718
 11
6.7946515777
 21
33.7828029716
  0
LINE
  5
352
100
AcDbEntity
  8
0
100
AcDbLine
 62
7
  6
CONTINUOUS
 10
5.9284457708
 20
34.3399754812
 11
6.7946515777
 21
33.8398391044
  0
LINE
  5
353
100
AcDbEntity
  8
0
100
AcDbLine
 62
7
  6
CONTINUOUS
 10
5.0909747746
 20
44.7855110286
 11
4.9278896754
 21
45.1486862997
  0
LINE
  5
354
100
AcDbEntity
  8
0
100
AcDbLine
 62
7
  6
CONTINUOUS
 10
6.9502516502
 20
43.6543513904
 11
6.7522251708
 21
44.0953378489
  0
LINE
  5
355
100
AcDbEntity
  8
0
100
AcDbLine
 62
7
  6
CONTINUOUS
 10
6.5581031843
 20
34.507124862
 11
6.2996809359
 21
34.6563346295
  0
LINE
  5
356
100
AcDbEntity
  8
0
100
AcDbLine
 62
7
  6
CONTINUOUS
 10
-4.6671142396
 20
41.1520515659
 11
-4.0307181365
 21
40.7846044319
  0
LINE
  5
357
100
AcDbEntity
  8
0
100
AcDbLine
 62
7
  6
CONTINUOUS
 10
4.1858626609
 20
36.0404536574
 11
4.8222587639
 21
35.6730065234
  0
LINE
  5
358
100
AcDbEntity
  8
0
100
AcDbLine
 62
7
  6
CONTINUOUS
 10
-4.2782055099
 20
41.3766025922
 11
-4.0307181365
 21
41.2337064845
  0
LINE
  5
359
100
AcDbEntity
  8
0
100
AcDbLine
 62
7
  6
CONTINUOUS
 10
4.5747713905
 20
36.2650046837
 11
5.2111674936
 21
35.8975575498
  0
LINE
  5
35A
100
AcDbEntity
  8
0
100
AcDbLine
 62
7
  6
CONTINUOUS
 10
-4.0307181365
 20
41.4781687914
 11
-4.4624883788
 21
41.7274675179
  0
LINE
  5
35B
100
AcDbEntity
  8
0
100
AcDbLine
 62
7
  6
CONTINUOUS
 10
-4.0307181365
 20
41.519427681
 11
4.1858626609
 21
36.7752769065
  0
LINE
  5
35C
100
AcDbEntity
  8
0
100
AcDbLine
 62
7
  6
CONTINUOUS
 10
5.9284457708
 20
36.2423512261
 11
6.5581031843
 21
35.878794927
  0
LINE
  5
35D
100
AcDbEntity
  8
0
100
AcDbLine
 62
7
  6
CONTINUOUS
 10
5.9284457708
 20
36.7893863116
 11
6.7946515777
 21
36.2892499348
  0
LINE
  5
35E
100
AcDbEntity
  8
0
100
AcDbLine
 62
7
  6
CONTINUOUS
 10
5.8713773368
 20
-5.9714110549
 11
6.2865218892
 21
-5.4308278234
  0
LINE
  5
35F
100
AcDbEntity
  8
0
100
AcDbLine
 62
7
  6
CONTINUOUS
 10
5.2818781717
 20
37.4081025262
 11
4.970751188
 21
37.5877433473
  0
LINE
  5
360
100
AcDbEntity
  8
0
100
AcDbLine
 62
7
  6
CONTINUOUS
 10
-2.623575642
 20
41.9726124796
 11
-2.9347026257
 21
42.1522533007
  0
LINE
  5
361
100
AcDbEntity
  8
0
100
AcDbLine
 62
7
  6
CONTINUOUS
 10
5.6354315623
 20
38.0204749612
 11
5.3243045786
 21
38.2001157823
  0
LINE
  5
362
100
AcDbEntity
  8
0
100
AcDbLine
 62
7
  6
CONTINUOUS
 10
-2.2700222514
 20
42.5849849147
 11
-2.5811492351
 21
42.7646257357
  0
LINE
  5
363
100
AcDbEntity
  8
0
100
AcDbLine
 62
7
  6
CONTINUOUS
 10
6.7946515777
 20
37.497742731
 11
6.8688977897
 21
37.4548738987
  0
LINE
  5
364
100
AcDbEntity
  8
0
100
AcDbLine
 62
7
  6
CONTINUOUS
 10
5.8617398991
 20
38.5104242007
 11
-1.3790677071
 21
42.6911757638
  0
LINE
  5
365
100
AcDbEntity
  8
0
100
AcDbLine
 62
7
  6
CONTINUOUS
 10
2.3328077884
 20
40.7271316363
 11
3.0399145696
 21
40.318857043
  0
LINE
  5
366
100
AcDbEntity
  8
0
100
AcDbLine
 62
7
  6
CONTINUOUS
 10
4.5639414344
 20
39.8471381702
 11
6.1969345963
 21
38.9042683848
  0
LINE
  5
367
100
AcDbEntity
  8
0
100
AcDbLine
 62
7
  6
CONTINUOUS
 10
9.8070438403
 20
36.681263066
 11
9.9695662885
 21
36.5872244269
  0
LWPOLYLINE
  5
368
100
AcDbEntity
  8
0
100
AcDbPolyline
 62
7
  6
CONTINUOUS
 90
9
 70
0
 10
9.5071423479
 20
38.9336450445
 10
9.5036645413
 20
38.9378613847
 10
9.5007095135
 20
38.9419664855
 10
9.4982768412
 20
38.9459474591
 10
9.4963661663
 20
38.9497732858
 10
9.4949804285
 20
38.9534315441
 10
9.4941226318
 20
38.9569032329
 10
9.4937933766
 20
38.9601477907
 10
9.4937893806
 20
38.9605294271
  0
LINE
  5
369
100
AcDbEntity
  8
0
100
AcDbLine
 62
7
  6
CONTINUOUS
 10
4.5639414344
 20
39.8471381702
 11
6.6925993682
 21
40.1764639152
  0
LINE
  5
36A
100
AcDbEntity
  8
0
100
AcDbLine
 62
7
  6
CONTINUOUS
 10
6.7946515777
 20
40.3963700333
 11
4.5639414344
 21
40.0512557394
  0
LWPOLYLINE
  5
36B
100
AcDbEntity
  8
0
100
AcDbPolyline
 62
7
  6
CONTINUOUS
 90
9
 70
0
 10
9.5255055857
 20
38.975225301
 10
9.4973438371
 20
38.9816004148
 10
9.4678827785
 20
38.9843934283
 10
9.4369115066
 20
38.9835755858
 10
9.4046409246
 20
38.9791756431
 10
9.3717037431
 20
38.9712798672
 10
9.3383108656
 20
38.9599170138
 10
9.3042513885
 20
38.9450583273
 10
9.2695253119
 20
38.9267038076
  0
LWPOLYLINE
  5
36C
100
AcDbEntity
  8
0
100
AcDbPolyline
 62
7
  6
CONTINUOUS
 90
10
 70
0
 10
10.0364723346
 20
38.665616612
 10
10.0463062705
 20
38.6629221731
 10
10.0560118494
 20
38.6601879656
 10
10.065554834
 20
38.6574080616
 10
10.0749207612
 20
38.6545569879
 10
10.0840959418
 20
38.6516101806
 10
10.0930442693
 20
38.6485587236
 10
10.1017407486
 20
38.6453788791
 10
10.1101725606
 20
38.6420345977
 10
10.118318811
 20
38.6384951958
  0
LINE
  5
36D
100
AcDbEntity
  8
0
100
AcDbLine
 62
7
  6
CONTINUOUS
 10
10.1354727208
 20
38.6296246726
 11
10.118318811
 21
38.6384951958
  0
LWPOLYLINE
  5
36E
100
AcDbEntity
  8
0
100
AcDbPolyline
 62
7
  6
CONTINUOUS
 90
18
 70
0
 10
9.8354760986
 20
38.7352239232
 10
9.8431303258
 20
38.7309541243
 10
9.8510940688
 20
38.7267893482
 10
9.8593667346
 20
38.7227273317
 10
9.8679686998
 20
38.7187548147
 10
9.8768771849
 20
38.714876029
 10
9.8860262974
 20
38.7111129214
 10
9.8954219986
 20
38.7074558449
 10
9.9050534397
 20
38.7038970775
 10
9.9148290805
 20
38.7004602506
 10
9.9247338408
 20
38.6971391662
 10
9.9347755009
 20
38.6939162431
 10
9.9448964616
 20
38.6907975615
 10
9.9550946254
 20
38.6877682888
 10
9.965361976
 20
38.6848136607
 10
9.9756317249
 20
38.6819399279
 10
9.9858892252
 20
38.6791331153
 10
10.0364723346
 20
38.665616612
  0
LINE
  5
36F
100
AcDbEntity
  8
0
100
AcDbLine
 62
7
  6
CONTINUOUS
 10
6.7522251708
 20
38.6652975941
 11
6.4410981871
 21
38.8449384152
  0
LINE
  5
370
100
AcDbEntity
  8
0
100
AcDbLine
 62
7
  6
CONTINUOUS
 10
-1.1532286428
 20
43.2298075475
 11
-1.4502134909
 21
43.4012828767
  0
LINE
  5
371
100
AcDbEntity
  8
0
100
AcDbLine
 62
7
  6
CONTINUOUS
 10
-1.4502134909
 20
43.5237534182
 11
0.3316955977
 21
42.494901443
  0
LINE
  5
372
100
AcDbEntity
  8
0
100
AcDbLine
 62
7
  6
CONTINUOUS
 10
1.3923557695
 20
41.8824895531
 11
2.1560310931
 21
41.4415529923
  0
LINE
  5
373
100
AcDbEntity
  8
0
100
AcDbLine
 62
7
  6
CONTINUOUS
 10
3.2166912649
 20
40.8291411023
 11
4.5639414344
 21
40.0512557394
  0
LINE
  5
374
100
AcDbEntity
  8
0
100
AcDbLine
 62
7
  6
CONTINUOUS
 10
6.1969345963
 20
39.108385954
 11
6.7946515777
 21
38.76327166
  0
LINE
  5
375
100
AcDbEntity
  8
0
100
AcDbLine
 62
7
  6
CONTINUOUS
 10
10.2597401673
 20
36.926190522
 11
10.7403074167
 21
36.6487170151
  0
LINE
  5
376
100
AcDbEntity
  8
0
100
AcDbLine
 62
7
  6
CONTINUOUS
 10
9.8069264705
 20
37.2937269527
 11
9.9695631727
 21
37.1998225591
  0
LINE
  5
377
100
AcDbEntity
  8
0
100
AcDbLine
 62
7
  6
CONTINUOUS
 10
4.2106959533
 20
41.4030669515
 11
3.6803146172
 21
41.7093024877
  0
LINE
  5
378
100
AcDbEntity
  8
0
100
AcDbLine
 62
7
  6
CONTINUOUS
 10
2.42473167
 20
42.5112324268
 11
3.1318384512
 21
42.1029578335
  0
LINE
  5
379
100
AcDbEntity
  8
0
100
AcDbLine
 62
7
  6
CONTINUOUS
 10
4.3339199792
 20
41.4088910248
 11
5.0410267604
 21
41.0006164315
  0
LINE
  5
37A
100
AcDbEntity
  8
0
100
AcDbLine
 62
7
  6
CONTINUOUS
 10
2.42473167
 20
42.7562366377
 11
1.9580411944
 21
43.0256978693
  0
LINE
  5
37B
100
AcDbEntity
  8
0
100
AcDbLine
 62
7
  6
CONTINUOUS
 10
3.7823766899
 20
41.9723494185
 11
4.3339199792
 21
41.6538952357
  0
LINE
  5
37C
100
AcDbEntity
  8
0
100
AcDbLine
 62
253
  6
CONTINUOUS
 10
10.316043348
 20
38.3224574095
 11
9.2695253119
 21
38.9267038076
  0
LINE
  5
37D
100
AcDbEntity
  8
0
100
AcDbLine
 62
7
  6
CONTINUOUS
 10
9.5523680243
 20
38.8986869771
 11
9.8354760986
 21
38.7352239232
  0
LINE
  5
37E
100
AcDbEntity
  8
0
100
AcDbLine
 62
7
  6
CONTINUOUS
 10
10.6160578441
 20
38.3521821161
 11
10.1354905947
 21
38.629655623
  0
LINE
  5
37F
100
AcDbEntity
  8
0
100
AcDbLine
 62
7
  6
CONTINUOUS
 10
5.0410267604
 20
41.7354396806
 11
4.3339199792
 21
42.1437142739
  0
LINE
  5
380
100
AcDbEntity
  8
0
100
AcDbLine
 62
7
  6
CONTINUOUS
 10
3.1318384512
 20
42.8377810826
 11
2.42473167
 21
43.2460556759
  0
LWPOLYLINE
  5
381
100
AcDbEntity
  8
0
100
AcDbPolyline
 62
7
  6
CONTINUOUS
 90
6
 70
0
 10
9.5523680243
 20
38.8986869771
 10
9.5451423344
 20
38.9030073203
 10
9.538336465
 20
38.9073707636
 10
9.5319671558
 20
38.9117637032
 10
9.5260511441
 20
38.9161748492
 10
9.5206009212
 20
38.9205869782
  0
LWPOLYLINE
  5
382
100
AcDbEntity
  8
0
100
AcDbPolyline
 62
7
  6
CONTINUOUS
 90
12
 70
0
 10
10.616042259
 20
38.3521551236
 10
10.6270332784
 20
38.3453338483
 10
10.6476285057
 20
38.3296333148
 10
10.6663702221
 20
38.3111377127
 10
10.683283526
 20
38.2898862032
 10
10.6980877691
 20
38.2662017475
 10
10.7107543736
 20
38.2400478909
 10
10.7213119171
 20
38.2114610881
 10
10.7295654847
 20
38.180873665
 10
10.7354501047
 20
38.1484297302
 10
10.7390307487
 20
38.113985175
 10
10.7403074167
 20
38.0775399994
  0
LWPOLYLINE
  5
383
100
AcDbEntity
  8
0
100
AcDbPolyline
 62
7
  6
CONTINUOUS
 90
4
 70
0
 10
9.5206009212
 20
38.9205869782
 10
9.5156257965
 20
38.9249773625
 10
9.5111345255
 20
38.9293368731
 10
9.5071423479
 20
38.9336450445
  0
LINE
  5
384
100
AcDbEntity
  8
0
100
AcDbLine
 62
7
  6
CONTINUOUS
 10
9.5523680243
 20
38.965268087
 11
9.5255055857
 21
38.975225301
  0
LINE
  5
385
100
AcDbEntity
  8
0
100
AcDbLine
 62
7
  6
CONTINUOUS
 10
11.3908456554
 20
41.4170565167
 11
8.5765606663
 21
43.0419893981
  0
LINE
  5
386
100
AcDbEntity
  8
0
100
AcDbLine
 62
7
  6
CONTINUOUS
 10
6.7522251708
 20
44.0953378489
 11
6.6673723571
 21
44.1443308001
  0
LINE
  5
387
100
AcDbEntity
  8
0
100
AcDbLine
 62
7
  6
CONTINUOUS
 10
4.9278896754
 20
45.1486862997
 11
3.1459805868
 21
46.1775382749
  0
LINE
  5
388
100
AcDbEntity
  8
0
100
AcDbLine
 62
7
  6
CONTINUOUS
 10
8.5765606663
 20
43.7768126472
 11
7.8694538851
 21
44.1850872405
  0
LINE
  5
389
100
AcDbEntity
  8
0
100
AcDbLine
 62
7
  6
CONTINUOUS
 10
6.6673723571
 20
44.8791540492
 11
5.9602655759
 21
45.2874286425
  0
LINE
  5
38A
100
AcDbEntity
  8
0
100
AcDbLine
 62
7
  6
CONTINUOUS
 10
3.8523384736
 20
-6.6113125437
 11
5.8713773368
 21
-5.9714110549
  0
LWPOLYLINE
  5
38B
100
AcDbEntity
  8
0
100
AcDbPolyline
 62
7
  6
CONTINUOUS
 90
13
 70
0
 10
4.4749063511
 20
-48.1695084155
 10
4.5386998568
 20
-48.1658887197
 10
4.6009583287
 20
-48.1600177121
 10
4.6616817668
 20
-48.1518953928
 10
4.720972124
 20
-48.1415099203
 10
4.7787274474
 20
-48.1288731359
 10
4.8346418786
 20
-48.1140205637
 10
4.8885359696
 20
-48.097003912
 10
4.9405891684
 20
-48.0777714723
 10
4.9910339599
 20
-48.0562036435
 10
5.039947839
 20
-48.0322605586
 10
5.0872533109
 20
-48.0059820846
 10
5.1329503755
 20
-47.9773682215
  0
LINE
  5
38C
100
AcDbEntity
  8
0
100
AcDbLine
 62
7
  6
CONTINUOUS
 10
4.9698809765
 20
-48.5613866322
 11
4.474906285
 21
-48.5684254336
  0
LINE
  5
38D
100
AcDbEntity
  8
0
100
AcDbLine
 62
7
  6
CONTINUOUS
 10
-0.6158274891
 20
-50.4307836899
 11
-1.3229342703
 21
-50.0225090966
  0
LINE
  5
38E
100
AcDbEntity
  8
0
100
AcDbLine
 62
7
  6
CONTINUOUS
 10
-2.5250157983
 20
-49.3284422879
 11
-3.2321225795
 21
-48.9201676946
  0
LINE
  5
38F
100
AcDbEntity
  8
0
100
AcDbLine
 62
7
  6
CONTINUOUS
 10
2.1984575
 20
-51.3208933222
 11
-0.6158274891
 21
-49.6959604408
  0
LINE
  5
390
100
AcDbEntity
  8
0
100
AcDbLine
 62
7
  6
CONTINUOUS
 10
-1.3229342703
 20
-49.2876858474
 11
-1.3795028128
 21
-49.25502388
  0
LINE
  5
391
100
AcDbEntity
  8
0
100
AcDbLine
 62
7
  6
CONTINUOUS
 10
-2.4401629846
 20
-48.64261199
 11
-2.5250157983
 21
-48.5936190388
  0
LINE
  5
392
100
AcDbEntity
  8
0
100
AcDbLine
 62
7
  6
CONTINUOUS
 10
-4.26449848
 20
-47.5892635392
 11
-6.0464075686
 21
-46.560411564
  0
LINE
  5
393
100
AcDbEntity
  8
0
100
AcDbLine
 62
7
  6
CONTINUOUS
 10
-3.2321225795
 20
-48.1853444455
 11
-3.2038383083
 21
-48.2016754292
  0
LINE
  5
394
100
AcDbEntity
  8
0
100
AcDbLine
 62
7
  6
CONTINUOUS
 10
-1.6269901862
 20
-48.7038926339
 11
-2.1926756112
 21
-48.3772729593
  0
LINE
  5
395
100
AcDbEntity
  8
0
100
AcDbLine
 62
7
  6
CONTINUOUS
 10
-3.4513256817
 20
-47.6505441831
 11
-4.0170111066
 21
-47.3239245085
  0
LWPOLYLINE
  5
396
100
AcDbEntity
  8
0
100
AcDbPolyline
 62
7
  6
CONTINUOUS
 90
12
 70
0
 10
4.2459870558
 20
-48.4362503725
 10
4.2298864229
 20
-48.4332413824
 10
4.209538726
 20
-48.4307354161
 10
4.1888556492
 20
-48.4295002271
 10
4.1678453013
 20
-48.4295006181
 10
4.1471627353
 20
-48.4307364649
 10
4.1268161445
 20
-48.4332429519
 10
4.1067973357
 20
-48.4369848947
 10
4.0877367826
 20
-48.4418566157
 10
4.0698446431
 20
-48.4478228891
 10
4.0529107592
 20
-48.4549189408
 10
4.0369351311
 20
-48.4631447706
  0
LWPOLYLINE
  5
397
100
AcDbEntity
  8
0
100
AcDbPolyline
 62
7
  6
CONTINUOUS
 90
11
 70
0
 10
4.1693558279
 20
-48.9097380899
 10
4.1187793054
 20
-48.8962256845
 10
4.1089397403
 20
-48.8935262846
 10
4.099246495
 20
-48.8908071082
 10
4.0896976975
 20
-48.8880173387
 10
4.0803268296
 20
-48.8851607734
 10
4.0711641692
 20
-48.8822314186
 10
4.0622091954
 20
-48.8791682519
 10
4.0534882535
 20
-48.8759513379
 10
4.0450507011
 20
-48.8725981555
 10
4.0369351311
 20
-48.8691048926
  0
LINE
  5
398
100
AcDbEntity
  8
0
100
AcDbLine
 62
7
  6
CONTINUOUS
 10
-5.1519174904
 20
-46.2236674853
 11
-4.0559019796
 21
-46.856493105
  0
LINE
  5
399
100
AcDbEntity
  8
0
100
AcDbLine
 62
7
  6
CONTINUOUS
 10
-3.3558662662
 20
-47.2606849524
 11
-2.2598507554
 21
-47.893510572
  0
LINE
  5
39A
100
AcDbEntity
  8
0
100
AcDbLine
 62
7
  6
CONTINUOUS
 10
-1.559815042
 20
-48.2977024194
 11
-0.4637995312
 21
-48.9305280391
  0
LINE
  5
39B
100
AcDbEntity
  8
0
100
AcDbLine
 62
7
  6
CONTINUOUS
 10
0.2362361822
 20
-49.3347198865
 11
1.3322516931
 21
-49.9675455061
  0
LINE
  5
39C
100
AcDbEntity
  8
0
100
AcDbLine
 62
7
  6
CONTINUOUS
 10
-4.6569427436
 20
-45.9379028885
 11
-4.0559019796
 21
-46.2849362928
  0
LINE
  5
39D
100
AcDbEntity
  8
0
100
AcDbLine
 62
7
  6
CONTINUOUS
 10
-2.8608915194
 20
-46.9749203555
 11
-2.2598507554
 21
-47.3219537598
  0
LINE
  5
39E
100
AcDbEntity
  8
0
100
AcDbLine
 62
7
  6
CONTINUOUS
 10
-1.0648402952
 20
-48.0119378226
 11
-0.4637995312
 21
-48.3589712269
  0
LINE
  5
39F
100
AcDbEntity
  8
0
100
AcDbLine
 62
7
  6
CONTINUOUS
 10
0.731210929
 20
-49.0489552896
 11
1.3322516931
 21
-49.3959886939
  0
LINE
  5
3A0
100
AcDbEntity
  8
0
100
AcDbLine
 62
7
  6
CONTINUOUS
 10
1.3322516931
 20
-49.1510239379
 11
0.9433429634
 21
-48.9264729116
  0
LINE
  5
3A1
100
AcDbEntity
  8
0
100
AcDbLine
 62
7
  6
CONTINUOUS
 10
-0.4637995312
 20
-48.1140064709
 11
-0.8527082608
 21
-47.8894554446
  0
LINE
  5
3A2
100
AcDbEntity
  8
0
100
AcDbLine
 62
7
  6
CONTINUOUS
 10
-2.2598507554
 20
-47.0769890038
 11
-2.648759485
 21
-46.8524379775
  0
LINE
  5
3A3
100
AcDbEntity
  8
0
100
AcDbLine
 62
7
  6
CONTINUOUS
 10
-4.0559019796
 20
-46.0399715368
 11
-4.4448107092
 21
-45.8154205105
  0
LINE
  5
3A4
100
AcDbEntity
  8
0
100
AcDbLine
 62
7
  6
CONTINUOUS
 10
1.3322516931
 20
-48.7673341993
 11
0.2362361822
 21
-48.1345085796
  0
LINE
  5
3A5
100
AcDbEntity
  8
0
100
AcDbLine
 62
7
  6
CONTINUOUS
 10
-0.4637995312
 20
-47.7303167322
 11
-1.559815042
 21
-47.0974911125
  0
LINE
  5
3A6
100
AcDbEntity
  8
0
100
AcDbLine
 62
7
  6
CONTINUOUS
 10
-2.2598507554
 20
-46.6932992652
 11
-3.3558662662
 21
-46.0604736455
  0
LINE
  5
3A7
100
AcDbEntity
  8
0
100
AcDbLine
 62
7
  6
CONTINUOUS
 10
-4.0559019796
 20
-45.6562817981
 11
-5.1519174904
 21
-45.0234561784
  0
LINE
  5
3A8
100
AcDbEntity
  8
0
100
AcDbLine
 62
7
  6
CONTINUOUS
 10
5.8713773368
 20
-8.9716130549
 11
3.8523384736
 21
-9.6115145437
  0
LINE
  5
3A9
100
AcDbEntity
  8
0
100
AcDbLine
 62
7
  6
CONTINUOUS
 10
6.8688977897
 20
-44.9950375385
 11
7.0810298241
 21
-44.9950375385
  0
LWPOLYLINE
  5
3AA
100
AcDbEntity
  8
0
100
AcDbPolyline
 62
7
  6
CONTINUOUS
 90
17
 70
0
 10
4.3197778436
 20
-48.9658336199
 10
4.3121625248
 20
-48.9615849508
 10
4.304191264
 20
-48.9574162643
 10
4.2958876218
 20
-48.9533372257
 10
4.2872779453
 20
-48.9493614213
 10
4.2783852708
 20
-48.9454921411
 10
4.2692285805
 20
-48.9417229926
 10
4.2598255239
 20
-48.9380600925
 10
4.2502097071
 20
-48.9345111786
 10
4.2404253642
 20
-48.9310701198
 10
4.2305116878
 20
-48.9277449922
 10
4.2204854199
 20
-48.9245323298
 10
4.2103576507
 20
-48.9214073097
 10
4.2001509948
 20
-48.9183722651
 10
4.1898972596
 20
-48.9154282947
 10
4.1796207572
 20
-48.912549221
 10
4.1693558279
 20
-48.9097380899
  0
LINE
  5
3AB
100
AcDbEntity
  8
0
100
AcDbLine
 62
7
  6
CONTINUOUS
 10
-5.1519174904
 20
-44.1498329823
 11
-4.0559019796
 21
-44.7826586019
  0
LINE
  5
3AC
100
AcDbEntity
  8
0
100
AcDbLine
 62
7
  6
CONTINUOUS
 10
-3.3558662662
 20
-45.1868504493
 11
-2.2598507554
 21
-45.819676069
  0
LINE
  5
3AD
100
AcDbEntity
  8
0
100
AcDbLine
 62
7
  6
CONTINUOUS
 10
-1.559815042
 20
-46.2238679164
 11
-0.4637995312
 21
-46.856693536
  0
LINE
  5
3AE
100
AcDbEntity
  8
0
100
AcDbLine
 62
7
  6
CONTINUOUS
 10
0.2362361822
 20
-47.2608853834
 11
1.3322516931
 21
-47.8937110031
  0
LINE
  5
3AF
100
AcDbEntity
  8
0
100
AcDbLine
 62
7
  6
CONTINUOUS
 10
-4.6569427436
 20
-43.8640683854
 11
-4.0559019796
 21
-44.2111017897
  0
LINE
  5
3B0
100
AcDbEntity
  8
0
100
AcDbLine
 62
7
  6
CONTINUOUS
 10
-2.8608915194
 20
-44.9010858525
 11
-2.2598507554
 21
-45.2481192568
  0
LINE
  5
3B1
100
AcDbEntity
  8
0
100
AcDbLine
 62
7
  6
CONTINUOUS
 10
-1.0648402952
 20
-45.9381033195
 11
-0.4637995312
 21
-46.2851367238
  0
LINE
  5
3B2
100
AcDbEntity
  8
0
100
AcDbLine
 62
7
  6
CONTINUOUS
 10
0.731210929
 20
-46.9751207866
 11
1.3322516931
 21
-47.3221541909
  0
LINE
  5
3B3
100
AcDbEntity
  8
0
100
AcDbLine
 62
7
  6
CONTINUOUS
 10
5.0662813836
 20
-49.4645117179
 11
4.5857141342
 21
-49.187038211
  0
LINE
  5
3B4
100
AcDbEntity
  8
0
100
AcDbLine
 62
7
  6
CONTINUOUS
 10
4.3197778436
 20
-48.9658336199
 11
4.4859532724
 21
-49.0617812299
  0
LINE
  5
3B5
100
AcDbEntity
  8
0
100
AcDbLine
 62
253
  6
CONTINUOUS
 10
4.4614645616
 20
-48.9123960943
 11
4.942031811
 21
-49.1898696013
  0
LINE
  5
3B6
100
AcDbEntity
  8
0
100
AcDbLine
 62
7
  6
CONTINUOUS
 10
1.3322516931
 20
-47.0771894349
 11
0.9433429634
 21
-46.8526384086
  0
LINE
  5
3B7
100
AcDbEntity
  8
0
100
AcDbLine
 62
7
  6
CONTINUOUS
 10
-0.4637995312
 20
-46.0401719678
 11
-0.8527082608
 21
-45.8156209415
  0
LINE
  5
3B8
100
AcDbEntity
  8
0
100
AcDbLine
 62
7
  6
CONTINUOUS
 10
-2.2598507554
 20
-45.0031545008
 11
-2.648759485
 21
-44.7786034745
  0
LINE
  5
3B9
100
AcDbEntity
  8
0
100
AcDbLine
 62
7
  6
CONTINUOUS
 10
-4.0559019796
 20
-43.9661370337
 11
-4.4448107092
 21
-43.7415860074
  0
LINE
  5
3BA
100
AcDbEntity
  8
0
100
AcDbLine
 62
7
  6
CONTINUOUS
 10
4.942031811
 20
-49.1490460874
 11
4.4614645616
 21
-48.8715725805
  0
LINE
  5
3BB
100
AcDbEntity
  8
0
100
AcDbLine
 62
7
  6
CONTINUOUS
 10
4.4749062018
 20
-48.5684254183
 11
3.9257875293
 21
-48.2513711789
  0
LINE
  5
3BC
100
AcDbEntity
  8
0
100
AcDbLine
 62
7
  6
CONTINUOUS
 10
4.6028859178
 20
-48.6266078245
 11
4.5014634737
 21
-48.5680477764
  0
LINE
  5
3BD
100
AcDbEntity
  8
0
100
AcDbLine
 62
7
  6
CONTINUOUS
 10
1.3322516931
 20
-46.6934996962
 11
0.2362361822
 21
-46.0606740765
  0
LINE
  5
3BE
100
AcDbEntity
  8
0
100
AcDbLine
 62
7
  6
CONTINUOUS
 10
-0.4637995312
 20
-45.6564822292
 11
-1.559815042
 21
-45.0236566095
  0
LINE
  5
3BF
100
AcDbEntity
  8
0
100
AcDbLine
 62
7
  6
CONTINUOUS
 10
-2.2598507554
 20
-44.6194647621
 11
-3.3558662662
 21
-43.9866391424
  0
LINE
  5
3C0
100
AcDbEntity
  8
0
100
AcDbLine
 62
7
  6
CONTINUOUS
 10
-4.0559019796
 20
-43.582447295
 11
-5.1519174904
 21
-42.9496216754
  0
LINE
  5
3C1
100
AcDbEntity
  8
0
100
AcDbLine
 62
7
  6
CONTINUOUS
 10
4.4749061356
 20
-47.8359091391
 11
3.9257875436
 21
-47.5188549461
  0
LWPOLYLINE
  5
3C2
100
AcDbEntity
  8
0
100
AcDbPolyline
 62
7
  6
CONTINUOUS
 90
12
 70
0
 10
5.0662969688
 20
-49.4644847254
 10
5.0553059493
 20
-49.4576634501
 10
5.034710722
 20
-49.4419629166
 10
5.0159690057
 20
-49.4234673145
 10
4.9990557017
 20
-49.402215805
 10
4.9842514586
 20
-49.3785313493
 10
4.9715848542
 20
-49.3523774927
 10
4.9610273106
 20
-49.3237906899
 10
4.952773743
 20
-49.2932032668
 10
4.9468891231
 20
-49.260759332
 10
4.9433084791
 20
-49.2263147768
 10
4.942031811
 20
-49.1898696013
  0
LWPOLYLINE
  5
3C3
100
AcDbEntity
  8
ASSI
100
AcDbPolyline
 62
7
  6
CONTINUOUS
 90
10
 70
0
 10
4.9002086501
 20
-42.8329776447
 10
4.8287027976
 20
-42.8256887193
 10
4.7628073817
 20
-42.8131397753
 10
4.7025224026
 20
-42.7953308128
 10
4.6466813282
 20
-42.7715882907
 10
4.5964506905
 20
-42.74258575
 10
4.5553300853
 20
-42.7103438135
 10
4.5244860445
 20
-42.6755360221
 10
4.5027520363
 20
-42.6374888349
 10
4.4901280605
 20
-42.5962022518
  0
LWPOLYLINE
  5
3C4
100
AcDbEntity
  8
0
100
AcDbPolyline
 62
7
  6
CONTINUOUS
 90
30
 70
0
 10
4.3197778436
 20
-46.5724564507
 10
4.3121236299
 20
-46.5683505355
 10
4.3041599018
 20
-46.5646626255
 10
4.2958872523
 20
-46.5613942994
 10
4.2872853123
 20
-46.5585418593
 10
4.2783768537
 20
-46.5561152565
 10
4.2692277466
 20
-46.5541379169
 10
4.2598320113
 20
-46.5526172138
 10
4.250200515
 20
-46.5515574996
 10
4.2404248304
 20
-46.5509783714
 10
4.2305200466
 20
-46.5508900544
 10
4.2204783744
 20
-46.551297673
 10
4.2103574175
 20
-46.5522132459
 10
4.2001592824
 20
-46.5536463442
 10
4.189891976
 20
-46.5556053141
 10
4.1796222646
 20
-46.558099909
 10
4.1693647825
 20
-46.5611368441
 10
4.1591178498
 20
-46.5647279287
 10
4.1489242013
 20
-46.5688899461
 10
4.138794492
 20
-46.5736284537
 10
4.1287347659
 20
-46.5789566634
 10
4.1187818197
 20
-46.5849026636
 10
4.1089478632
 20
-46.5914705973
 10
4.0992422395
 20
-46.5986747403
 10
4.0896992128
 20
-46.6065586762
 10
4.0803332533
 20
-46.6151248492
 10
4.0711580431
 20
-46.6243883425
 10
4.0622096933
 20
-46.634412551
 10
4.0535132004
 20
-46.6452244067
 10
4.0450813817
 20
-46.6568130972
  0
LINE
  5
3C5
100
AcDbEntity
  8
0
100
AcDbLine
 62
7
  6
CONTINUOUS
 10
2.1984575
 20
-46.3404246338
 11
-6.0464075686
 21
-41.5799428756
  0
LINE
  5
3C6
100
AcDbEntity
  8
0
100
AcDbLine
 62
7
  6
CONTINUOUS
 10
4.4614645616
 20
-47.4835731099
 11
4.942031811
 21
-47.7610466169
  0
LINE
  5
3C7
100
AcDbEntity
  8
0
100
AcDbLine
 62
253
  6
CONTINUOUS
 10
4.942031811
 20
-47.720223103
 11
4.4614645616
 21
-47.4427495961
  0
LINE
  5
3C8
100
AcDbEntity
  8
0
100
AcDbLine
 62
7
  6
CONTINUOUS
 10
4.3197778436
 20
-47.0751453001
 11
4.510719056
 21
-47.1853923631
  0
LINE
  5
3C9
100
AcDbEntity
  8
0
100
AcDbLine
 62
7
  6
CONTINUOUS
 10
4.6028859178
 20
-46.7359195046
 11
4.3197778436
 21
-46.5724564507
  0
LINE
  5
3CA
100
AcDbEntity
  8
0
100
AcDbLine
 62
253
  6
CONTINUOUS
 10
4.3197778436
 20
-46.3811297828
 11
5.3662958797
 21
-46.985376181
  0
LINE
  5
3CB
100
AcDbEntity
  8
0
100
AcDbLine
 62
7
  6
CONTINUOUS
 10
7.4734740877
 20
-47.6874230433
 11
7.1482090683
 21
-47.4996190977
  0
LWPOLYLINE
  5
3CC
100
AcDbEntity
  8
0
100
AcDbPolyline
 62
7
  6
CONTINUOUS
 90
17
 70
0
 10
4.6028859178
 20
-46.7359195046
 10
4.6101116077
 20
-46.7403931405
 10
4.6169174772
 20
-46.7452347094
 10
4.6232867863
 20
-46.7504306077
 10
4.6292027981
 20
-46.7559617004
 10
4.6346530209
 20
-46.761818609
 10
4.6396281456
 20
-46.7680021411
 10
4.6441194166
 20
-46.7745010447
 10
4.6481115942
 20
-46.7812969774
 10
4.6515894009
 20
-46.7883793511
 10
4.6545444286
 20
-46.7957223153
 10
4.6569771009
 20
-46.8033194245
 10
4.6588877758
 20
-46.8111888919
 10
4.6602735137
 20
-46.819317024
 10
4.6611313103
 20
-46.8276860916
 10
4.6614605656
 20
-46.8363085811
 10
4.6614645615
 20
-46.8373862819
  0
LWPOLYLINE
  5
3CD
100
AcDbEntity
  8
RACCORDO
100
AcDbPolyline
 62
253
  6
CONTINUOUS
 90
16
 70
0
 10
-5.9915308548
 20
-18.2122739546
 10
-6.0290919744
 20
-18.236271626
 10
-6.0662202389
 20
-18.2646120008
 10
-6.1024959781
 20
-18.2969718078
 10
-6.1374873554
 20
-18.3329581824
 10
-6.1708241067
 20
-18.3721824175
 10
-6.2021900247
 20
-18.4142843417
 10
-6.2312852119
 20
-18.4589102598
 10
-6.2576858058
 20
-18.5054630713
 10
-6.2809598934
 20
-18.5531630538
 10
-6.3008566102
 20
-18.6014041053
 10
-6.3172144367
 20
-18.6496879548
 10
-6.3298658907
 20
-18.69737617
 10
-6.3387286075
 20
-18.7439188792
 10
-6.343779942
 20
-18.7888595794
 10
-6.3450303975
 20
-18.8317399841
  0
LINE
  5
3CE
100
AcDbEntity
  8
RACCORDO
100
AcDbLine
 62
7
  6
CONTINUOUS
 10
-0.8996573955
 20
-15.1031656049
 11
-6.2415429349
 21
-18.1875033657
  0
LWPOLYLINE
  5
3CF
100
AcDbEntity
  8
ASSI
100
AcDbPolyline
 62
7
  6
CONTINUOUS
 90
10
 70
0
 10
4.002183038
 20
-42.3144689112
 10
3.9306771855
 20
-42.3071799858
 10
3.8647817696
 20
-42.2946310418
 10
3.8044967904
 20
-42.2768220792
 10
3.7486557161
 20
-42.2530795572
 10
3.6984250784
 20
-42.2240770165
 10
3.6573044732
 20
-42.19183508
 10
3.6264604324
 20
-42.1570272886
 10
3.6047264242
 20
-42.1189801013
 10
3.5921024484
 20
-42.0776935183
  0
LWPOLYLINE
  5
3D0
100
AcDbEntity
  8
ASSI
100
AcDbPolyline
 62
7
  6
CONTINUOUS
 90
10
 70
0
 10
3.1041574259
 20
-41.7959601777
 10
3.0326515734
 20
-41.7886712523
 10
2.9667561575
 20
-41.7761223083
 10
2.9064711783
 20
-41.7583133457
 10
2.8506301039
 20
-41.7345708237
 10
2.8003994663
 20
-41.705568283
 10
2.7592788611
 20
-41.6733263465
 10
2.7284348203
 20
-41.6385185551
 10
2.7067008121
 20
-41.6004713678
 10
2.6940768363
 20
-41.5591847847
  0
LWPOLYLINE
  5
3D1
100
AcDbEntity
  8
ASSI
100
AcDbPolyline
 62
7
  6
CONTINUOUS
 90
10
 70
0
 10
2.2061318138
 20
-41.2774514441
 10
2.1346259613
 20
-41.2701625187
 10
2.0687305454
 20
-41.2576135748
 10
2.0084455662
 20
-41.2398046122
 10
1.9526044918
 20
-41.2160620901
 10
1.9023738542
 20
-41.1870595495
 10
1.861253249
 20
-41.154817613
 10
1.8304092082
 20
-41.1200098216
 10
1.8086752
 20
-41.0819626343
 10
1.7960512242
 20
-41.0406760512
  0
LWPOLYLINE
  5
3D2
100
AcDbEntity
  8
ASSI
100
AcDbPolyline
 62
7
  6
CONTINUOUS
 90
10
 70
0
 10
1.3081062017
 20
-40.7589427106
 10
1.2366003492
 20
-40.7516537852
 10
1.1707049333
 20
-40.7391048412
 10
1.1104199541
 20
-40.7212958787
 10
1.0545788797
 20
-40.6975533566
 10
1.0043482421
 20
-40.6685508159
 10
0.9632276369
 20
-40.6363088794
 10
0.9323835961
 20
-40.601501088
 10
0.9106495879
 20
-40.5634539008
 10
0.8980256121
 20
-40.5221673177
  0
LINE
  5
3D3
100
AcDbEntity
  8
0
100
AcDbLine
 62
7
  6
CONTINUOUS
 10
7.1906313752
 20
-46.8627722818
 11
7.1552760361
 21
-46.8423585521
  0
LINE
  5
3D4
100
AcDbEntity
  8
0
100
AcDbLine
 62
7
  6
CONTINUOUS
 10
7.0562810868
 20
-46.7443726497
 11
7.1552760361
 21
-46.8015310928
  0
LINE
  5
3D5
100
AcDbEntity
  8
0
100
AcDbLine
 62
7
  6
CONTINUOUS
 10
6.8688977897
 20
-44.9950375385
 11
6.7946515777
 21
-44.9521687062
  0
LINE
  5
3D6
100
AcDbEntity
  8
0
100
AcDbLine
 62
7
  6
CONTINUOUS
 10
9.0640777564
 20
-46.1974487238
 11
9.5660750542
 21
-46.4872956721
  0
LINE
  5
3D7
100
AcDbEntity
  8
0
100
AcDbLine
 62
7
  6
CONTINUOUS
 10
-3.2038383083
 20
-48.2016754292
 11
-3.4513256817
 21
-47.6505441831
  0
LINE
  5
3D8
100
AcDbEntity
  8
RACCORDO
100
AcDbLine
 62
253
  6
CONTINUOUS
 10
-0.8996573955
 20
-15.2722900354
 11
-5.9915308548
 21
-18.2122739546
  0
LWPOLYLINE
  5
3D9
100
AcDbEntity
  8
ASSI
100
AcDbPolyline
 62
7
  6
CONTINUOUS
 90
10
 70
0
 10
0.4100805896
 20
-40.2404339771
 10
0.338574737
 20
-40.2331450517
 10
0.2726793212
 20
-40.2205961077
 10
0.212394342
 20
-40.2027871451
 10
0.1565532676
 20
-40.1790446231
 10
0.10632263
 20
-40.1500420824
 10
0.0652020248
 20
-40.1178001459
 10
0.034357984
 20
-40.0829923545
 10
0.0126239758
 20
-40.0449451672
 10
0.0
 20
-40.0036585842
  0
LWPOLYLINE
  5
3DA
100
AcDbEntity
  8
ASSI
100
AcDbPolyline
 62
7
  6
CONTINUOUS
 90
9
 70
0
 10
-0.4879450225
 20
-39.7219252435
 10
-0.5758422636
 20
-39.7116193811
 10
-0.6542081929
 20
-39.6941183191
 10
-0.7230428104
 20
-39.6694220574
 10
-0.7840813674
 20
-39.6361678785
 10
-0.8355886125
 20
-39.5957184999
 10
-0.872358792
 20
-39.552162075
 10
-0.8928505263
 20
-39.5051736313
 10
-0.8986994307
 20
-39.4630391154
  0
LWPOLYLINE
  5
3DB
100
AcDbEntity
  8
ASSI
100
AcDbPolyline
 62
7
  6
CONTINUOUS
 90
10
 70
0
 10
5.1490179164
 20
-42.8997853086
 10
5.1259190965
 20
-42.8874857459
 10
5.1015563774
 20
-42.8763711415
 10
5.0759297591
 20
-42.8664414953
 10
5.0488695941
 20
-42.8576512554
 10
5.0205455299
 20
-42.8500459737
 10
4.9914665091
 20
-42.8437623061
 10
4.9618021794
 20
-42.8388458048
 10
4.931382893
 20
-42.8352509177
 10
4.9002086501
 20
-42.8329776447
  0
LWPOLYLINE
  5
3DC
100
AcDbEntity
  8
ASSI
100
AcDbPolyline
 62
7
  6
CONTINUOUS
 90
10
 70
0
 10
4.2509923043
 20
-42.3812765751
 10
4.2278934844
 20
-42.3689770124
 10
4.2035307653
 20
-42.357862408
 10
4.177904147
 20
-42.3479327618
 10
4.150843982
 20
-42.3391425218
 10
4.1225199178
 20
-42.3315372401
 10
4.093440897
 20
-42.3252535726
 10
4.0637765673
 20
-42.3203370713
 10
4.0333572809
 20
-42.3167421841
 10
4.002183038
 20
-42.3144689112
  0
LWPOLYLINE
  5
3DD
100
AcDbEntity
  8
ASSI
100
AcDbPolyline
 62
7
  6
CONTINUOUS
 90
10
 70
0
 10
3.3529666922
 20
-41.8627678415
 10
3.3298678723
 20
-41.8504682789
 10
3.3055051532
 20
-41.8393536744
 10
3.2798785349
 20
-41.8294240283
 10
3.2528183699
 20
-41.8206337883
 10
3.2244943057
 20
-41.8130285066
 10
3.1954152849
 20
-41.8067448391
 10
3.1657509552
 20
-41.8018283378
 10
3.1353316688
 20
-41.7982334506
 10
3.1041574259
 20
-41.7959601777
  0
LWPOLYLINE
  5
3DE
100
AcDbEntity
  8
ASSI
100
AcDbPolyline
 62
7
  6
CONTINUOUS
 90
10
 70
0
 10
2.4549410801
 20
-41.344259108
 10
2.4318422602
 20
-41.3319595453
 10
2.4074795411
 20
-41.3208449409
 10
2.3818529228
 20
-41.3109152947
 10
2.3547927578
 20
-41.3021250548
 10
2.3264686936
 20
-41.2945197731
 10
2.2973896728
 20
-41.2882361056
 10
2.2677253431
 20
-41.2833196042
 10
2.2373060567
 20
-41.2797247171
 10
2.2061318138
 20
-41.2774514441
  0
LWPOLYLINE
  5
3DF
100
AcDbEntity
  8
ASSI
100
AcDbPolyline
 62
7
  6
CONTINUOUS
 90
10
 70
0
 10
1.556915468
 20
-40.8257503745
 10
1.5338166481
 20
-40.8134508118
 10
1.509453929
 20
-40.8023362074
 10
1.4838273107
 20
-40.7924065612
 10
1.4567671457
 20
-40.7836163213
 10
1.4284430815
 20
-40.7760110396
 10
1.3993640607
 20
-40.769727372
 10
1.369699731
 20
-40.7648108707
 10
1.3392804446
 20
-40.7612159836
 10
1.3081062017
 20
-40.7589427106
  0
LWPOLYLINE
  5
3E0
100
AcDbEntity
  8
ASSI
100
AcDbPolyline
 62
7
  6
CONTINUOUS
 90
10
 70
0
 10
0.6588898559
 20
-40.307241641
 10
0.635791036
 20
-40.2949420783
 10
0.6114283169
 20
-40.2838274739
 10
0.5858016986
 20
-40.2738978277
 10
0.5587415336
 20
-40.2651075877
 10
0.5304174694
 20
-40.257502306
 10
0.5013384486
 20
-40.2512186385
 10
0.4716741188
 20
-40.2463021372
 10
0.4412548325
 20
-40.24270725
 10
0.4100805896
 20
-40.2404339771
  0
LWPOLYLINE
  5
3E1
100
AcDbEntity
  8
ASSI
100
AcDbPolyline
 62
7
  6
CONTINUOUS
 90
10
 70
0
 10
-0.2391357562
 20
-39.7887329074
 10
-0.2622345761
 20
-39.7764333448
 10
-0.2865972952
 20
-39.7653187403
 10
-0.3122239135
 20
-39.7553890941
 10
-0.3392840785
 20
-39.7465988542
 10
-0.3676081427
 20
-39.7389935725
 10
-0.3966871635
 20
-39.732709905
 10
-0.4263514933
 20
-39.7277934037
 10
-0.4567707796
 20
-39.7241985165
 10
-0.4879450225
 20
-39.7219252435
  0
LINE
  5
3E2
100
AcDbEntity
  8
ASSI
100
AcDbLine
 62
7
  6
CONTINUOUS
 10
5.2724468593
 20
-42.9710516333
 11
5.1490179164
 21
-42.8997853086
  0
LINE
  5
3E3
100
AcDbEntity
  8
ASSI
100
AcDbLine
 62
7
  6
CONTINUOUS
 10
4.3744212472
 20
-42.4525428997
 11
4.2509923043
 21
-42.3812765751
  0
LINE
  5
3E4
100
AcDbEntity
  8
ASSI
100
AcDbLine
 62
7
  6
CONTINUOUS
 10
3.4763956351
 20
-41.9340341662
 11
3.3529666922
 21
-41.8627678415
  0
LINE
  5
3E5
100
AcDbEntity
  8
ASSI
100
AcDbLine
 62
7
  6
CONTINUOUS
 10
2.578370023
 20
-41.4155254327
 11
2.4549410801
 21
-41.344259108
  0
LINE
  5
3E6
100
AcDbEntity
  8
ASSI
100
AcDbLine
 62
7
  6
CONTINUOUS
 10
1.6803444109
 20
-40.8970166992
 11
1.556915468
 21
-40.8257503745
  0
LINE
  5
3E7
100
AcDbEntity
  8
ASSI
100
AcDbLine
 62
7
  6
CONTINUOUS
 10
0.7823187988
 20
-40.3785079656
 11
0.6588898559
 21
-40.307241641
  0
LINE
  5
3E8
100
AcDbEntity
  8
ASSI
100
AcDbLine
 62
7
  6
CONTINUOUS
 10
-0.1157068134
 20
-39.8599992321
 11
-0.2391357562
 21
-39.7887329074
  0
LINE
  5
3E9
100
AcDbEntity
  8
0
100
AcDbLine
 62
7
  6
CONTINUOUS
 10
8.0214818431
 20
-44.4520323294
 11
8.88768765
 21
-44.9521687062
  0
LINE
  5
3EA
100
AcDbEntity
  8
0
100
AcDbLine
 62
7
  6
CONTINUOUS
 10
-1.4502134909
 20
-38.926158019
 11
-0.8996573955
 21
-39.2440422083
  0
LINE
  5
3EB
100
AcDbEntity
  8
0
100
AcDbLine
 62
7
  6
CONTINUOUS
 10
6.1156983276
 20
-43.2946206798
 11
6.7946515777
 21
-43.6866397772
  0
LINE
  5
3EC
100
AcDbEntity
  8
0
100
AcDbLine
 62
7
  6
CONTINUOUS
 10
8.9296789512
 20
-44.2501316042
 11
9.5660750592
 21
-44.6175787411
  0
LINE
  5
3ED
100
AcDbEntity
  8
0
100
AcDbLine
 62
7
  6
CONTINUOUS
 10
-1.3795028128
 20
-49.25502388
 11
-1.6269901862
 21
-48.7038926339
  0
LWPOLYLINE
  5
3EE
100
AcDbEntity
  8
RACCORDO
100
AcDbPolyline
 62
7
  6
CONTINUOUS
 90
9
 70
0
 10
-6.4913024871
 20
-18.6356192051
 10
-6.4890441067
 20
-18.5707217625
 10
-6.4781768186
 20
-18.5057286961
 10
-6.4585989831
 20
-18.4420507966
 10
-6.4304728311
 20
-18.3810725438
 10
-6.3943005627
 20
-18.3242380986
 10
-6.3508305518
 20
-18.2727969595
 10
-6.3004434019
 20
-18.2273516095
 10
-6.2414902921
 20
-18.1874729833
  0
LINE
  5
3EF
100
AcDbEntity
  8
0
100
AcDbLine
 62
7
  6
CONTINUOUS
 10
-0.8996573955
 20
-19.0620551021
 11
-1.0895890325
 21
-19.1717192489
  0
LINE
  5
3F0
100
AcDbEntity
  8
0
100
AcDbLine
 62
7
  6
CONTINUOUS
 10
7.5578917957
 20
-42.9601503891
 11
8.22257217
 21
-43.3438890519
  0
LINE
  5
3F1
100
AcDbEntity
  8
0
100
AcDbLine
 62
7
  6
CONTINUOUS
 10
8.9296789512
 20
-43.6704377077
 11
9.5660750542
 21
-44.0378848417
  0
LINE
  5
3F2
100
AcDbEntity
  8
0
100
AcDbLine
 62
7
  6
CONTINUOUS
 10
9.3185876808
 20
-43.4458866814
 11
9.9549837839
 21
-43.8133338154
  0
LINE
  5
3F3
100
AcDbEntity
  8
0
100
AcDbLine
 62
7
  6
CONTINUOUS
 10
6.2865218892
 20
-40.9603866449
 11
9.3185876808
 21
-42.7110634323
  0
LWPOLYLINE
  5
3F4
100
AcDbEntity
  8
RACCORDO
100
AcDbPolyline
 62
7
  6
CONTINUOUS
 90
6
 70
0
 10
-5.0277185457
 20
-22.2280884231
 10
-5.0219076607
 20
-22.2904464434
 10
-5.0081089211
 20
-22.3524182282
 10
-4.9863051373
 20
-22.4127475241
 10
-4.956679812
 20
-22.4702486524
 10
-4.9197431487
 20
-22.5236158333
  0
LWPOLYLINE
  5
3F5
100
AcDbEntity
  8
RACCORDO
100
AcDbPolyline
 62
7
  6
CONTINUOUS
 90
6
 70
0
 10
-6.4494771326
 20
-20.0175842498
 10
-6.4471455505
 20
-20.0470470131
 10
-6.44011099
 20
-20.083704904
 10
-6.4282763826
 20
-20.1202062977
 10
-6.4114711466
 20
-20.1561286189
 10
-6.3897317085
 20
-20.1907983058
  0
LINE
  5
3F6
100
AcDbEntity
  8
RACCORDO
100
AcDbLine
 62
7
  6
CONTINUOUS
 10
-6.4913024871
 20
-18.6356192052
 11
-6.4495203518
 21
-20.0175762507
  0
LINE
  5
3F7
100
AcDbEntity
  8
RACCORDO
100
AcDbLine
 62
253
  6
CONTINUOUS
 10
-6.3450303975
 20
-18.8317399841
 11
-6.30319482
 21
-20.2154646433
  0
LINE
  5
3F8
100
AcDbEntity
  8
RACCORDO
100
AcDbLine
 62
7
  6
CONTINUOUS
 10
-5.0649938763
 20
-20.9951953388
 11
-5.0277185457
 21
-22.228088423
  0
LINE
  5
3F9
100
AcDbEntity
  8
RACCORDO
100
AcDbLine
 62
253
  6
CONTINUOUS
 10
-4.9221578558
 20
-21.0776670669
 11
-4.881446456
 21
-22.424209202
  0
LINE
  5
3FA
100
AcDbEntity
  8
0
100
AcDbLine
 62
7
  6
CONTINUOUS
 10
-6.0464075686
 20
-41.5799428756
 11
-6.0464075686
 21
-46.560411564
  0
LINE
  5
3FB
100
AcDbEntity
  8
0
100
AcDbLine
 62
7
  6
CONTINUOUS
 10
-5.1519174904
 20
-42.9496216754
 11
-5.1519174904
 21
-44.1498329823
  0
LINE
  5
3FC
100
AcDbEntity
  8
0
100
AcDbLine
 62
7
  6
CONTINUOUS
 10
-5.1519174904
 20
-45.0234561784
 11
-5.1519174904
 21
-46.2236674853
  0
LINE
  5
3FD
100
AcDbEntity
  8
0
100
AcDbLine
 62
7
  6
CONTINUOUS
 10
-4.6569427436
 20
-43.2353862723
 11
-4.6569427436
 21
-43.8640683854
  0
LINE
  5
3FE
100
AcDbEntity
  8
0
100
AcDbLine
 62
7
  6
CONTINUOUS
 10
-4.6569427436
 20
-45.3092207753
 11
-4.6569427436
 21
-45.9379028885
  0
LINE
  5
3FF
100
AcDbEntity
  8
0
100
AcDbLine
 62
7
  6
CONTINUOUS
 10
-4.4448107092
 20
-43.7415860074
 11
-4.4448107092
 21
-43.3578962687
  0
LINE
  5
400
100
AcDbEntity
  8
0
100
AcDbLine
 62
7
  6
CONTINUOUS
 10
-4.4448107092
 20
-45.4317307718
 11
-4.4448107092
 21
-45.8154205105
  0
LINE
  5
401
100
AcDbEntity
  8
0
100
AcDbLine
 62
7
  6
CONTINUOUS
 10
6.2865218892
 20
-8.4310298234
 11
5.8713773368
 21
-8.9716130549
  0
LWPOLYLINE
  5
402
100
AcDbEntity
  8
RACCORDO
100
AcDbPolyline
 62
253
  6
CONTINUOUS
 90
3
 70
0
 10
-6.4434421796
 20
-20.0576436206
 10
-6.4489120712
 20
-20.027633726
 10
-6.4495203335
 20
-20.0175768547
  0
LWPOLYLINE
  5
403
100
AcDbEntity
  8
RACCORDO
100
AcDbPolyline
 62
253
  6
CONTINUOUS
 90
7
 70
0
 10
-6.4913024871
 20
-18.6356192052
 10
-6.4871039721
 20
-18.6681720692
 10
-6.4743532481
 20
-18.7049455359
 10
-6.4533444982
 20
-18.7402748291
 10
-6.4244370506
 20
-18.7735556884
 10
-6.388125329
 20
-18.8042188908
 10
-6.3450303975
 20
-18.8317399841
  0
LINE
  5
404
100
AcDbEntity
  8
0
100
AcDbLine
 62
7
  6
CONTINUOUS
 10
-4.0559019796
 20
-46.856493105
 11
-4.0559019796
 21
-45.6562817981
  0
LINE
  5
405
100
AcDbEntity
  8
0
100
AcDbLine
 62
7
  6
CONTINUOUS
 10
-4.0559019796
 20
-44.7826586019
 11
-4.0559019796
 21
-43.582447295
  0
LINE
  5
406
100
AcDbEntity
  8
0
100
AcDbLine
 62
7
  6
CONTINUOUS
 10
-3.3558662662
 20
-43.9866391424
 11
-3.3558662662
 21
-45.1868504493
  0
LINE
  5
407
100
AcDbEntity
  8
0
100
AcDbLine
 62
7
  6
CONTINUOUS
 10
-3.3558662662
 20
-46.0604736455
 11
-3.3558662662
 21
-47.2606849524
  0
LINE
  5
408
100
AcDbEntity
  8
0
100
AcDbLine
 62
7
  6
CONTINUOUS
 10
-3.2321225795
 20
-48.9201676946
 11
-3.2321225795
 21
-48.1853444455
  0
LINE
  5
409
100
AcDbEntity
  8
0
100
AcDbLine
 62
7
  6
CONTINUOUS
 10
-2.8608915194
 20
-44.2724037393
 11
-2.8608915194
 21
-44.9010858525
  0
LINE
  5
40A
100
AcDbEntity
  8
0
100
AcDbLine
 62
7
  6
CONTINUOUS
 10
-2.8608915194
 20
-46.3462382424
 11
-2.8608915194
 21
-46.9749203555
  0
LINE
  5
40B
100
AcDbEntity
  8
0
100
AcDbLine
 62
7
  6
CONTINUOUS
 10
-2.648759485
 20
-44.7786034745
 11
-2.648759485
 21
-44.3949137358
  0
LINE
  5
40C
100
AcDbEntity
  8
0
100
AcDbLine
 62
7
  6
CONTINUOUS
 10
-2.648759485
 20
-46.4687482388
 11
-2.648759485
 21
-46.8524379775
  0
LINE
  5
40D
100
AcDbEntity
  8
0
100
AcDbLine
 62
7
  6
CONTINUOUS
 10
-2.5250157983
 20
-48.5936190388
 11
-2.5250157983
 21
-49.3284422879
  0
LINE
  5
40E
100
AcDbEntity
  8
0
100
AcDbLine
 62
7
  6
CONTINUOUS
 10
-2.2598507554
 20
-47.893510572
 11
-2.2598507554
 21
-46.6932992652
  0
LINE
  5
40F
100
AcDbEntity
  8
0
100
AcDbLine
 62
7
  6
CONTINUOUS
 10
-2.2598507554
 20
-45.819676069
 11
-2.2598507554
 21
-44.6194647621
  0
LINE
  5
410
100
AcDbEntity
  8
0
100
AcDbLine
 62
7
  6
CONTINUOUS
 10
-1.559815042
 20
-45.0236566095
 11
-1.559815042
 21
-46.2238679164
  0
LINE
  5
411
100
AcDbEntity
  8
0
100
AcDbLine
 62
7
  6
CONTINUOUS
 10
-1.559815042
 20
-47.0974911125
 11
-1.559815042
 21
-48.2977024194
  0
LINE
  5
412
100
AcDbEntity
  8
0
100
AcDbLine
 62
7
  6
CONTINUOUS
 10
-1.3229342703
 20
-50.0225090966
 11
-1.3229342703
 21
-49.2876858474
  0
LINE
  5
413
100
AcDbEntity
  8
0
100
AcDbLine
 62
7
  6
CONTINUOUS
 10
-1.0648402952
 20
-45.3094212064
 11
-1.0648402952
 21
-45.9381033195
  0
LINE
  5
414
100
AcDbEntity
  8
0
100
AcDbLine
 62
7
  6
CONTINUOUS
 10
-1.0648402952
 20
-47.3832557094
 11
-1.0648402952
 21
-48.0119378226
  0
LINE
  5
415
100
AcDbEntity
  8
ASSI
100
AcDbLine
 62
7
  6
CONTINUOUS
 10
-0.8996573955
 20
-4.5839702394
 11
-0.8996573955
 21
-19.2813833957
  0
LINE
  5
416
100
AcDbEntity
  8
ASSI
100
AcDbLine
 62
7
  6
CONTINUOUS
 10
-0.8996573955
 20
-24.8852667741
 11
-0.8996573955
 21
-39.4630430547
  0
LINE
  5
417
100
AcDbEntity
  8
0
100
AcDbLine
 62
7
  6
CONTINUOUS
 10
-0.8527082608
 20
-45.8156209415
 11
-0.8527082608
 21
-45.4319312028
  0
LINE
  5
418
100
AcDbEntity
  8
0
100
AcDbLine
 62
7
  6
CONTINUOUS
 10
-0.8527082608
 20
-47.5057657059
 11
-0.8527082608
 21
-47.8894554446
  0
LWPOLYLINE
  5
419
100
AcDbEntity
  8
ASSI
100
AcDbPolyline
 62
7
  6
CONTINUOUS
 90
10
 70
0
 10
0.0
 20
-40.0036585842
 10
-0.0039371706
 20
-39.985658967
 10
-0.0101632966
 20
-39.9680952523
 10
-0.0186783781
 20
-39.9509674401
 10
-0.0295613084
 20
-39.934177578
 10
-0.042733194
 20
-39.9178236183
 10
-0.0579573553
 20
-39.9021994181
 10
-0.075154899
 20
-39.8874029299
 10
-0.0944047184
 20
-39.8733362012
 10
-0.1157068134
 20
-39.8599992321
  0
LWPOLYLINE
  5
41A
100
AcDbEntity
  8
ASSI
100
AcDbPolyline
 62
7
  6
CONTINUOUS
 90
10
 70
0
 10
0.8980256121
 20
-40.5221673177
 10
0.8940884415
 20
-40.5041677005
 10
0.8878623155
 20
-40.4866039858
 10
0.879347234
 20
-40.4694761736
 10
0.8684643037
 20
-40.4526863115
 10
0.8552924181
 20
-40.4363323518
 10
0.8400682568
 20
-40.4207081517
 10
0.8228707131
 20
-40.4059116634
 10
0.8036208937
 20
-40.3918449348
 10
0.7823187988
 20
-40.3785079656
  0
LWPOLYLINE
  5
41B
100
AcDbEntity
  8
ASSI
100
AcDbPolyline
 62
7
  6
CONTINUOUS
 90
10
 70
0
 10
1.7960512242
 20
-41.0406760512
 10
1.7921140536
 20
-41.0226764341
 10
1.7858879276
 20
-41.0051127194
 10
1.7773728461
 20
-40.9879849071
 10
1.7664899158
 20
-40.971195045
 10
1.7533180302
 20
-40.9548410853
 10
1.7380938689
 20
-40.9392168852
 10
1.7208963252
 20
-40.924420397
 10
1.7016465058
 20
-40.9103536683
 10
1.6803444109
 20
-40.8970166992
  0
LINE
  5
41C
100
AcDbEntity
  8
0
100
AcDbLine
 62
7
  6
CONTINUOUS
 10
-0.6158274891
 20
-49.6959604408
 11
-0.6158274891
 21
-50.4307836899
  0
LINE
  5
41D
100
AcDbEntity
  8
ASSI
100
AcDbLine
 62
253
  6
CONTINUOUS
 10
-0.4879450225
 20
-4.8028715264
 11
-0.4879450225
 21
-19.5191009599
  0
LINE
  5
41E
100
AcDbEntity
  8
ASSI
100
AcDbLine
 62
253
  6
CONTINUOUS
 10
-0.4879450225
 20
-25.1229843384
 11
-0.4879450225
 21
-39.7219252435
  0
LINE
  5
41F
100
AcDbEntity
  8
0
100
AcDbLine
 62
7
  6
CONTINUOUS
 10
-0.4637995312
 20
-48.9305280391
 11
-0.4637995312
 21
-47.7303167322
  0
LINE
  5
420
100
AcDbEntity
  8
0
100
AcDbLine
 62
7
  6
CONTINUOUS
 10
-0.4637995312
 20
-46.856693536
 11
-0.4637995312
 21
-45.6564822292
  0
LINE
  5
421
100
AcDbEntity
  8
ASSI
100
AcDbLine
 62
253
  6
CONTINUOUS
 10
-0.2391357562
 20
-4.9505348947
 11
-0.2391357562
 21
-19.6627603119
  0
LINE
  5
422
100
AcDbEntity
  8
ASSI
100
AcDbLine
 62
253
  6
CONTINUOUS
 10
-0.2391357562
 20
-25.2666436904
 11
-0.2391357562
 21
-39.7887329074
  0
LINE
  5
423
100
AcDbEntity
  8
ASSI
100
AcDbLine
 62
253
  6
CONTINUOUS
 10
-0.1157068134
 20
-5.110355192
 11
-0.1157068134
 21
-19.7340266366
  0
LINE
  5
424
100
AcDbEntity
  8
ASSI
100
AcDbLine
 62
253
  6
CONTINUOUS
 10
-0.1157068134
 20
-25.3379100151
 11
-0.1157068134
 21
-39.8599992321
  0
LINE
  5
425
100
AcDbEntity
  8
ASSI
100
AcDbLine
 62
253
  6
CONTINUOUS
 10
0.0
 20
-5.2601765943
 11
0.0
 21
-19.8008343005
  0
LINE
  5
426
100
AcDbEntity
  8
ASSI
100
AcDbLine
 62
253
  6
CONTINUOUS
 10
0.0
 20
-25.404717679
 11
0.0
 21
-40.0036585842
  0
LINE
  5
427
100
AcDbEntity
  8
0
100
AcDbLine
 62
7
  6
CONTINUOUS
 10
0.2362361822
 20
-46.0606740765
 11
0.2362361822
 21
-47.2608853834
  0
LINE
  5
428
100
AcDbEntity
  8
0
100
AcDbLine
 62
7
  6
CONTINUOUS
 10
0.2362361822
 20
-48.1345085796
 11
0.2362361822
 21
-49.3347198865
  0
LINE
  5
429
100
AcDbEntity
  8
ASSI
100
AcDbLine
 62
253
  6
CONTINUOUS
 10
0.4100805896
 20
-5.7911638993
 11
0.4100805896
 21
-20.0376096934
  0
LINE
  5
42A
100
AcDbEntity
  8
ASSI
100
AcDbLine
 62
253
  6
CONTINUOUS
 10
0.4100805896
 20
-25.6414930719
 11
0.4100805896
 21
-40.2404339771
  0
LINE
  5
42B
100
AcDbEntity
  8
ASSI
100
AcDbLine
 62
253
  6
CONTINUOUS
 10
0.6588898559
 20
-6.1340828648
 11
0.6588898559
 21
-20.1812690455
  0
LINE
  5
42C
100
AcDbEntity
  8
ASSI
100
AcDbLine
 62
253
  6
CONTINUOUS
 10
0.6588898559
 20
-25.7851524239
 11
0.6588898559
 21
-40.307241641
  0
LINE
  5
42D
100
AcDbEntity
  8
0
100
AcDbLine
 62
7
  6
CONTINUOUS
 10
0.731210929
 20
-46.3464386734
 11
0.731210929
 21
-46.9751207866
  0
LINE
  5
42E
100
AcDbEntity
  8
0
100
AcDbLine
 62
7
  6
CONTINUOUS
 10
0.731210929
 20
-48.4202731765
 11
0.731210929
 21
-49.0489552896
  0
LINE
  5
42F
100
AcDbEntity
  8
ASSI
100
AcDbLine
 62
253
  6
CONTINUOUS
 10
0.7823187988
 20
-6.3227233083
 11
0.7823187988
 21
-20.2525353702
  0
LINE
  5
430
100
AcDbEntity
  8
ASSI
100
AcDbLine
 62
253
  6
CONTINUOUS
 10
0.7823187988
 20
-25.8564187486
 11
0.7823187988
 21
-40.3785079656
  0
LINE
  5
431
100
AcDbEntity
  8
ASSI
100
AcDbLine
 62
253
  6
CONTINUOUS
 10
0.8980256121
 20
-6.4995617716
 11
0.8980256121
 21
-20.319343034
  0
LINE
  5
432
100
AcDbEntity
  8
ASSI
100
AcDbLine
 62
253
  6
CONTINUOUS
 10
0.8980256121
 20
-25.9232264125
 11
0.8980256121
 21
-40.5221673177
  0
LINE
  5
433
100
AcDbEntity
  8
0
100
AcDbLine
 62
7
  6
CONTINUOUS
 10
0.9433429634
 20
-46.8526384086
 11
0.9433429634
 21
-46.4689486699
  0
LINE
  5
434
100
AcDbEntity
  8
0
100
AcDbLine
 62
7
  6
CONTINUOUS
 10
0.9433429634
 20
-48.5427831729
 11
0.9433429634
 21
-48.9264729116
  0
LINE
  5
435
100
AcDbEntity
  8
0
100
AcDbLine
 62
7
  6
CONTINUOUS
 10
5.769346745
 20
-23.1319828042
 11
6.4764535262
 21
-22.7237082108
  0
LWPOLYLINE
  5
436
100
AcDbEntity
  8
RACCORDO
100
AcDbPolyline
 62
7
  6
CONTINUOUS
 90
4
 70
0
 10
-4.9197431487
 20
-22.5236158333
 10
-4.8762723688
 20
-22.5716834503
 10
-4.8266375063
 20
-22.613956802
 10
-4.777869528
 20
-22.6460356573
  0
LWPOLYLINE
  5
437
100
AcDbEntity
  8
RACCORDO
100
AcDbPolyline
 62
7
  6
CONTINUOUS
 90
5
 70
0
 10
-6.3897317085
 20
-20.1907983058
 10
-6.3633366259
 20
-20.2234750112
 10
-6.3324522219
 20
-20.2537907087
 10
-6.2971416154
 20
-20.2815558085
 10
-6.2618213841
 20
-20.304120364
  0
LWPOLYLINE
  5
438
100
AcDbEntity
  8
ASSI
100
AcDbPolyline
 62
7
  6
CONTINUOUS
 90
10
 70
0
 10
2.6940768363
 20
-41.5591847847
 10
2.6901396657
 20
-41.5411851676
 10
2.6839135397
 20
-41.5236214529
 10
2.6753984582
 20
-41.5064936407
 10
2.6645155279
 20
-41.4897037785
 10
2.6513436423
 20
-41.4733498188
 10
2.636119481
 20
-41.4577256187
 10
2.6189219373
 20
-41.4429291305
 10
2.5996721179
 20
-41.4288624018
 10
2.578370023
 20
-41.4155254327
  0
LWPOLYLINE
  5
439
100
AcDbEntity
  8
ASSI
100
AcDbPolyline
 62
7
  6
CONTINUOUS
 90
10
 70
0
 10
3.5921024484
 20
-42.0776935183
 10
3.5881652778
 20
-42.0596939011
 10
3.5819391518
 20
-42.0421301864
 10
3.5734240703
 20
-42.0250023742
 10
3.5625411401
 20
-42.0082125121
 10
3.5493692544
 20
-41.9918585524
 10
3.5341450931
 20
-41.9762343522
 10
3.5169475494
 20
-41.961437864
 10
3.49769773
 20
-41.9473711353
 10
3.4763956351
 20
-41.9340341662
  0
LINE
  5
43A
100
AcDbEntity
  8
ASSI
100
AcDbLine
 62
253
  6
CONTINUOUS
 10
1.3081062017
 20
-7.1263011935
 11
1.3081062017
 21
-20.556118427
  0
LINE
  5
43B
100
AcDbEntity
  8
ASSI
100
AcDbLine
 62
253
  6
CONTINUOUS
 10
1.3081062017
 20
-26.1600018054
 11
1.3081062017
 21
-40.7589427106
  0
LINE
  5
43C
100
AcDbEntity
  8
0
100
AcDbLine
 62
7
  6
CONTINUOUS
 10
1.3322516931
 20
-49.9675455061
 11
1.3322516931
 21
-48.7673341993
  0
LINE
  5
43D
100
AcDbEntity
  8
0
100
AcDbLine
 62
7
  6
CONTINUOUS
 10
1.3322516931
 20
-47.8937110031
 11
1.3322516931
 21
-46.6934996962
  0
LINE
  5
43E
100
AcDbEntity
  8
ASSI
100
AcDbLine
 62
253
  6
CONTINUOUS
 10
1.556915468
 20
-7.4822101863
 11
1.556915468
 21
-20.699777779
  0
LINE
  5
43F
100
AcDbEntity
  8
ASSI
100
AcDbLine
 62
253
  6
CONTINUOUS
 10
1.556915468
 20
-26.3036611575
 11
1.556915468
 21
-40.8257503745
  0
LINE
  5
440
100
AcDbEntity
  8
ASSI
100
AcDbLine
 62
253
  6
CONTINUOUS
 10
1.6803444109
 20
-7.6523699666
 11
1.6803444109
 21
-20.7710441037
  0
LINE
  5
441
100
AcDbEntity
  8
ASSI
100
AcDbLine
 62
253
  6
CONTINUOUS
 10
1.6803444109
 20
-26.3749274821
 11
1.6803444109
 21
-40.8970166992
  0
LINE
  5
442
100
AcDbEntity
  8
ASSI
100
AcDbLine
 62
253
  6
CONTINUOUS
 10
1.7960512242
 20
-7.8118839791
 11
1.7960512242
 21
-20.8378517676
  0
LINE
  5
443
100
AcDbEntity
  8
ASSI
100
AcDbLine
 62
253
  6
CONTINUOUS
 10
1.7960512242
 20
-26.441735146
 11
1.7960512242
 21
-41.0406760512
  0
LINE
  5
444
100
AcDbEntity
  8
0
100
AcDbLine
 62
7
  6
CONTINUOUS
 10
2.1984575
 20
-51.3208933222
 11
2.1984575
 21
-46.3404246338
  0
LINE
  5
445
100
AcDbEntity
  8
ASSI
100
AcDbLine
 62
253
  6
CONTINUOUS
 10
2.2061318138
 20
-8.3772232051
 11
2.2061318138
 21
-21.0746271605
  0
LINE
  5
446
100
AcDbEntity
  8
ASSI
100
AcDbLine
 62
253
  6
CONTINUOUS
 10
2.2061318138
 20
-26.678510539
 11
2.2061318138
 21
-41.2774514441
  0
LINE
  5
447
100
AcDbEntity
  8
ASSI
100
AcDbLine
 62
253
  6
CONTINUOUS
 10
2.4549410801
 20
-8.5946361818
 11
2.4549410801
 21
-21.2182865125
  0
LINE
  5
448
100
AcDbEntity
  8
ASSI
100
AcDbLine
 62
253
  6
CONTINUOUS
 10
2.4549410801
 20
-26.822169891
 11
2.4549410801
 21
-41.344259108
  0
LINE
  5
449
100
AcDbEntity
  8
ASSI
100
AcDbLine
 62
253
  6
CONTINUOUS
 10
2.578370023
 20
-8.6844547415
 11
2.578370023
 21
-21.2895528372
  0
LINE
  5
44A
100
AcDbEntity
  8
ASSI
100
AcDbLine
 62
253
  6
CONTINUOUS
 10
2.578370023
 20
-26.8934362157
 11
2.578370023
 21
-41.4155254327
  0
LINE
  5
44B
100
AcDbEntity
  8
ASSI
100
AcDbLine
 62
253
  6
CONTINUOUS
 10
2.6940768363
 20
-8.7686539503
 11
2.6940768363
 21
-21.3563605011
  0
LINE
  5
44C
100
AcDbEntity
  8
ASSI
100
AcDbLine
 62
253
  6
CONTINUOUS
 10
2.6940768363
 20
-26.9602438796
 11
2.6940768363
 21
-41.5591847847
  0
LWPOLYLINE
  5
44D
100
AcDbEntity
  8
RACCORDO
100
AcDbPolyline
 62
253
  6
CONTINUOUS
 90
9
 70
0
 10
16.7524068855
 20
-20.5802665959
 10
16.7899680051
 20
-20.5608896278
 10
16.8270962696
 20
-20.5463552136
 10
16.8633720088
 20
-20.5368247061
 10
16.8983633861
 20
-20.5324039153
 10
16.9317001374
 20
-20.5331317056
 10
16.9630660554
 20
-20.539013054
 10
16.9921612426
 20
-20.5500405792
 10
17.0023663228
 20
-20.5554656246
  0
LWPOLYLINE
  5
44E
100
AcDbEntity
  8
RACCORDO
100
AcDbPolyline
 62
253
  6
CONTINUOUS
 90
10
 70
0
 10
7.6579637161
 20
-27.9951650813
 10
7.6101700412
 20
-28.0076201885
 10
7.5604252041
 20
-28.0170788109
 10
7.5092530829
 20
-28.0234453587
 10
7.45719888
 20
-28.0266491554
 10
7.4048464039
 20
-28.0266478812
 10
7.3527904255
 20
-28.0234411631
 10
7.301610749
 20
-28.0170701063
 10
7.2518572965
 20
-28.0076053195
 10
7.2040659931
 20
-27.9951456991
  0
LWPOLYLINE
  5
44F
100
AcDbEntity
  8
RACCORDO
100
AcDbPolyline
 62
253
  6
CONTINUOUS
 90
7
 70
0
 10
-4.7779589934
 20
-22.6459840381
 10
-4.8072743449
 20
-22.6245200904
 10
-4.8330865181
 20
-22.5953586583
 10
-4.8535970986
 20
-22.5599626524
 10
-4.8685416158
 20
-22.5191454754
 10
-4.8778368015
 20
-22.4736165472
 10
-4.8814464382
 20
-22.4242092124
  0
LWPOLYLINE
  5
450
100
AcDbEntity
  8
ASSI
100
AcDbPolyline
 62
7
  6
CONTINUOUS
 90
10
 70
0
 10
4.4901280605
 20
-42.5962022518
 10
4.4861908899
 20
-42.5782026346
 10
4.4799647639
 20
-42.5606389199
 10
4.4714496824
 20
-42.5435111077
 10
4.4605667522
 20
-42.5267212456
 10
4.4473948665
 20
-42.5103672859
 10
4.4321707052
 20
-42.4947430858
 10
4.4149731615
 20
-42.4799465975
 10
4.3957233422
 20
-42.4658798689
 10
4.3744212472
 20
-42.4525428997
  0
LWPOLYLINE
  5
451
100
AcDbEntity
  8
ASSI
100
AcDbPolyline
 62
7
  6
CONTINUOUS
 90
10
 70
0
 10
5.3881536726
 20
-43.1147109853
 10
5.384216502
 20
-43.0967113682
 10
5.377990376
 20
-43.0791476535
 10
5.3694752945
 20
-43.0620198412
 10
5.3585923643
 20
-43.0452299791
 10
5.3454204786
 20
-43.0288760194
 10
5.3301963173
 20
-43.0132518193
 10
5.3129987736
 20
-42.9984553311
 10
5.2937489543
 20
-42.9843886024
 10
5.2724468593
 20
-42.9710516333
  0
LWPOLYLINE
  5
452
100
AcDbEntity
  8
0
100
AcDbPolyline
 62
7
  6
CONTINUOUS
 90
9
 70
0
 10
4.661423364
 20
-48.7082627432
 10
4.6611555451
 20
-48.7021937161
 10
4.6590151336
 20
-48.6902518617
 10
4.6546740504
 20
-48.6785039952
 10
4.6481932329
 20
-48.6669453859
 10
4.6397557082
 20
-48.6559400614
 10
4.6294224853
 20
-48.6456093643
 10
4.6171325552
 20
-48.635831952
 10
4.6028859178
 20
-48.6266078245
  0
LWPOLYLINE
  5
453
100
AcDbEntity
  8
0
100
AcDbPolyline
 62
7
  6
CONTINUOUS
 90
13
 70
0
 10
4.4614645616
 20
-48.9123960943
 10
4.4625480832
 20
-48.9463504456
 10
4.4656626246
 20
-48.9786330062
 10
4.4708081857
 20
-49.0092437762
 10
4.4780298551
 20
-49.0383166643
 10
4.4872825442
 20
-49.0657177618
 10
4.4984309875
 20
-49.0910453429
 10
4.511503283
 20
-49.1142686748
 10
4.5264713327
 20
-49.1354184902
 10
4.543115577
 20
-49.1541852616
 10
4.5613628293
 20
-49.1704658131
 10
4.5812862763
 20
-49.1843633205
 10
4.5857320081
 20
-49.1870072605
  0
LINE
  5
454
100
AcDbEntity
  8
ASSI
100
AcDbLine
 62
253
  6
CONTINUOUS
 10
3.1041574259
 20
-9.0670673294
 11
3.1041574259
 21
-21.593135894
  0
LINE
  5
455
100
AcDbEntity
  8
ASSI
100
AcDbLine
 62
253
  6
CONTINUOUS
 10
3.1041574259
 20
-27.1970192725
 11
3.1041574259
 21
-41.7959601777
  0
LINE
  5
456
100
AcDbEntity
  8
ASSI
100
AcDbLine
 62
253
  6
CONTINUOUS
 10
3.3529666922
 20
-9.2481244577
 11
3.3529666922
 21
-21.7367952461
  0
LINE
  5
457
100
AcDbEntity
  8
ASSI
100
AcDbLine
 62
253
  6
CONTINUOUS
 10
3.3529666922
 20
-27.3406786245
 11
3.3529666922
 21
-41.8627678415
  0
LINE
  5
458
100
AcDbEntity
  8
ASSI
100
AcDbLine
 62
253
  6
CONTINUOUS
 10
3.4763956351
 20
-9.3379430174
 11
3.4763956351
 21
-21.8080615707
  0
LINE
  5
459
100
AcDbEntity
  8
ASSI
100
AcDbLine
 62
253
  6
CONTINUOUS
 10
3.4763956351
 20
-27.4119449492
 11
3.4763956351
 21
-41.9340341662
  0
LINE
  5
45A
100
AcDbEntity
  8
ASSI
100
AcDbLine
 62
253
  6
CONTINUOUS
 10
3.5921024484
 20
-9.4221422262
 11
3.5921024484
 21
-21.8748692346
  0
LINE
  5
45B
100
AcDbEntity
  8
ASSI
100
AcDbLine
 62
253
  6
CONTINUOUS
 10
3.5921024484
 20
-27.4787526131
 11
3.5921024484
 21
-42.0776935183
  0
LINE
  5
45C
100
AcDbEntity
  8
0
100
AcDbLine
 62
7
  6
CONTINUOUS
 10
3.9257875293
 20
-47.5188549678
 11
3.9257875293
 21
-48.2513711789
  0
LINE
  5
45D
100
AcDbEntity
  8
ASSI
100
AcDbLine
 62
253
  6
CONTINUOUS
 10
4.002183038
 20
-9.5640237492
 11
4.002183038
 21
-22.1116446275
  0
LINE
  5
45E
100
AcDbEntity
  8
ASSI
100
AcDbLine
 62
253
  6
CONTINUOUS
 10
4.002183038
 20
-27.715528006
 11
4.002183038
 21
-42.3144689112
  0
LINE
  5
45F
100
AcDbEntity
  8
0
100
AcDbLine
 62
253
  6
CONTINUOUS
 10
4.0369351311
 20
-48.8691048926
 11
4.0369351311
 21
-48.4631447706
  0
LINE
  5
460
100
AcDbEntity
  8
0
100
AcDbLine
 62
253
  6
CONTINUOUS
 10
4.0369351311
 20
-47.0751453001
 11
4.0369351311
 21
-46.6691851781
  0
LINE
  5
461
100
AcDbEntity
  8
ASSI
100
AcDbLine
 62
253
  6
CONTINUOUS
 10
4.2509923043
 20
-9.4851677039
 11
4.2509923043
 21
-22.2553039796
  0
LINE
  5
462
100
AcDbEntity
  8
ASSI
100
AcDbLine
 62
253
  6
CONTINUOUS
 10
4.2509923043
 20
-27.859187358
 11
4.2509923043
 21
-42.3812765751
  0
LINE
  5
463
100
AcDbEntity
  8
0
100
AcDbLine
 62
253
  6
CONTINUOUS
 10
4.3197778436
 20
-46.5724564507
 11
4.3197778436
 21
-47.0751453001
  0
LINE
  5
464
100
AcDbEntity
  8
0
100
AcDbLine
 62
253
  6
CONTINUOUS
 10
4.3197778436
 20
-48.4788562485
 11
4.3197778436
 21
-48.9658336199
  0
LINE
  5
465
100
AcDbEntity
  8
ASSI
100
AcDbLine
 62
253
  6
CONTINUOUS
 10
4.3744212472
 20
-9.4460489105
 11
4.3744212472
 21
-22.3265703043
  0
LINE
  5
466
100
AcDbEntity
  8
ASSI
100
AcDbLine
 62
253
  6
CONTINUOUS
 10
4.3744212472
 20
-27.9304536827
 11
4.3744212472
 21
-42.4525428997
  0
LINE
  5
467
100
AcDbEntity
  8
0
100
AcDbLine
 62
7
  6
CONTINUOUS
 10
4.4614645616
 20
-48.9123960943
 11
4.4614645616
 21
-48.8715725805
  0
LINE
  5
468
100
AcDbEntity
  8
0
100
AcDbLine
 62
7
  6
CONTINUOUS
 10
4.4614645616
 20
-47.4427495961
 11
4.4614645616
 21
-47.4835731099
  0
LINE
  5
469
100
AcDbEntity
  8
0
100
AcDbLine
 62
7
  6
CONTINUOUS
 10
4.474906285
 20
-48.5684254336
 11
4.4749061523
 21
-47.8359091786
  0
LINE
  5
46A
100
AcDbEntity
  8
ASSI
100
AcDbLine
 62
253
  6
CONTINUOUS
 10
4.4901280605
 20
-9.4093775202
 11
4.4901280605
 21
-22.3933779681
  0
LINE
  5
46B
100
AcDbEntity
  8
ASSI
100
AcDbLine
 62
253
  6
CONTINUOUS
 10
4.4901280605
 20
-27.9972613466
 11
4.4901280605
 21
-42.5962022518
  0
LINE
  5
46C
100
AcDbEntity
  8
0
100
AcDbLine
 62
253
  6
CONTINUOUS
 10
4.6028859178
 20
-48.7899176618
 11
4.6028859178
 21
-48.6266078245
  0
LINE
  5
46D
100
AcDbEntity
  8
0
100
AcDbLine
 62
253
  6
CONTINUOUS
 10
4.6028859178
 20
-46.9959580693
 11
4.6028859178
 21
-46.7359195046
  0
LWPOLYLINE
  5
46E
100
AcDbEntity
  8
RACCORDO
100
AcDbPolyline
 62
253
  6
CONTINUOUS
 90
16
 70
0
 10
7.4310476808
 20
-25.9623025766
 10
7.393486171
 20
-25.9863005214
 10
7.3563577515
 20
-26.0146410737
 10
7.3200820863
 20
-26.0470008817
 10
7.2850911319
 20
-26.0829868576
 10
7.2517549606
 20
-26.1222103711
 10
7.220389354
 20
-26.1643117546
 10
7.1912940965
 20
-26.2089376123
 10
7.1648932668
 20
-26.2554906741
 10
7.1416189066
 20
-26.303191088
 10
7.1217218661
 20
-26.3514328848
 10
7.1053637776
 20
-26.3997176389
 10
7.0927122944
 20
-26.4474063286
 10
7.0838497169
 20
-26.4939488995
 10
7.0787985342
 20
-26.5388890694
 10
7.0775481428
 20
-26.581768609
  0
LINE
  5
46F
100
AcDbEntity
  8
RACCORDO
100
AcDbLine
 62
253
  6
CONTINUOUS
 10
7.4310476808
 20
-25.9623025766
 11
16.7524068855
 21
-20.5802665959
  0
LINE
  5
470
100
AcDbEntity
  8
RACCORDO
100
AcDbLine
 62
253
  6
CONTINUOUS
 10
7.7845472235
 20
-26.5817686061
 11
17.1059064282
 21
-21.1997326254
  0
LWPOLYLINE
  5
471
100
AcDbEntity
  8
RACCORDO
100
AcDbPolyline
 62
253
  6
CONTINUOUS
 90
4
 70
0
 10
7.2040659931
 20
-27.9951456991
 10
7.1587574786
 20
-27.9798274931
 10
7.116430434
 20
-27.9618245154
 10
7.0775481381
 20
-27.9413379272
  0
LWPOLYLINE
  5
472
100
AcDbEntity
  8
RACCORDO
100
AcDbPolyline
 62
7
  6
CONTINUOUS
 90
14
 70
0
 10
7.1187681214
 20
-28.0299007113
 10
7.1465701698
 20
-28.0448224758
 10
7.1944880501
 20
-28.0657785915
 10
7.245335863
 20
-28.082553664
 10
7.2985386033
 20
-28.0951100416
 10
7.3527666027
 20
-28.103281475
 10
7.4071775784
 20
-28.1071573895
 10
7.4617334832
 20
-28.1069080732
 10
7.5161438073
 20
-28.1025010462
 10
7.5704768815
 20
-28.093738992
 10
7.6238015853
 20
-28.0805301068
 10
7.6745268494
 20
-28.0630725518
 10
7.7220312808
 20
-28.0415186693
 10
7.7433522079
 20
-28.0298900038
  0
LINE
  5
473
100
AcDbEntity
  8
RACCORDO
100
AcDbLine
 62
7
  6
CONTINUOUS
 10
7.1810356007
 20
-29.5509576353
 11
-4.7779589934
 21
-22.6459840381
  0
LINE
  5
474
100
AcDbEntity
  8
RACCORDO
100
AcDbLine
 62
253
  6
CONTINUOUS
 10
7.0775481381
 20
-29.3291827992
 11
-4.881446456
 21
-22.424209202
  0
LINE
  5
475
100
AcDbEntity
  8
RACCORDO
100
AcDbLine
 62
7
  6
CONTINUOUS
 10
7.1189431231
 20
-28.0300478617
 11
-6.2617998435
 21
-20.3041745729
  0
LINE
  5
476
100
AcDbEntity
  8
RACCORDO
100
AcDbLine
 62
253
  6
CONTINUOUS
 10
7.0775481381
 20
-27.9413379272
 11
-6.30319482
 21
-20.2154646433
  0
LWPOLYLINE
  5
477
100
AcDbEntity
  8
RACCORDO
100
AcDbPolyline
 62
253
  6
CONTINUOUS
 90
7
 70
0
 10
-6.30319482
 20
-20.2154646433
 10
-6.3382197377
 20
-20.193275322
 10
-6.3689785371
 20
-20.1690723241
 10
-6.3951368082
 20
-20.143117915
 10
-6.4164082958
 20
-20.115695663
 10
-6.4325669493
 20
-20.0871024358
 10
-6.4434421796
 20
-20.0576436206
  0
LWPOLYLINE
  5
478
100
AcDbEntity
  8
RACCORDO
100
AcDbPolyline
 62
253
  6
CONTINUOUS
 90
7
 70
0
 10
-4.881446456
 20
-22.424209202
 10
-4.9245413875
 20
-22.3966881087
 10
-4.9608531091
 20
-22.3660249063
 10
-4.9897605567
 20
-22.332744047
 10
-5.0107693066
 20
-22.2974147538
 10
-5.0235200306
 20
-22.2606412871
 10
-5.0277185457
 20
-22.2280884231
  0
LWPOLYLINE
  5
479
100
AcDbEntity
  8
RACCORDO
100
AcDbPolyline
 62
253
  6
CONTINUOUS
 90
6
 70
0
 10
-6.2618396194
 20
-20.3041515885
 10
-6.2692384315
 20
-20.2991870224
 10
-6.2834349769
 20
-20.2844993923
 10
-6.2940169265
 20
-20.2652488602
 10
-6.3006695495
 20
-20.2420071308
 10
-6.3031947988
 20
-20.2154646558
  0
LWPOLYLINE
  5
47A
100
AcDbEntity
  8
RACCORDO
100
AcDbPolyline
 62
253
  6
CONTINUOUS
 90
7
 70
0
 10
7.1810355967
 20
-29.550957633
 10
7.1517199514
 20
-29.5294934162
 10
7.1259082211
 20
-29.500332457
 10
7.1053977985
 20
-29.4649369023
 10
7.0904531882
 20
-29.4241198333
 10
7.0811578599
 20
-29.3785907083
 10
7.0775481381
 20
-29.3291827992
  0
LINE
  5
47B
100
AcDbEntity
  8
ASSI
100
AcDbLine
 62
253
  6
CONTINUOUS
 10
4.9002086501
 20
-9.2794091552
 11
4.9002086501
 21
-22.6301533611
  0
LINE
  5
47C
100
AcDbEntity
  8
ASSI
100
AcDbLine
 62
253
  6
CONTINUOUS
 10
4.9002086501
 20
-28.2340367395
 11
4.9002086501
 21
-42.8329776447
  0
LINE
  5
47D
100
AcDbEntity
  8
0
100
AcDbLine
 62
7
  6
CONTINUOUS
 10
4.942031811
 20
-49.1898696013
 11
4.942031811
 21
-49.1490460874
  0
LINE
  5
47E
100
AcDbEntity
  8
0
100
AcDbLine
 62
7
  6
CONTINUOUS
 10
4.942031811
 20
-47.7610466169
 11
4.942031811
 21
-47.720223103
  0
LINE
  5
47F
100
AcDbEntity
  8
0
100
AcDbLine
 62
7
  6
CONTINUOUS
 10
5.1329527894
 20
-47.6508112368
 11
5.1329527894
 21
-47.9773694743
  0
LINE
  5
480
100
AcDbEntity
  8
ASSI
100
AcDbLine
 62
253
  6
CONTINUOUS
 10
5.1490179164
 20
-9.20055311
 11
5.1490179164
 21
-22.7738127131
  0
LINE
  5
481
100
AcDbEntity
  8
ASSI
100
AcDbLine
 62
253
  6
CONTINUOUS
 10
5.1490179164
 20
-28.3776960916
 11
5.1490179164
 21
-42.8997853086
  0
LINE
  5
482
100
AcDbEntity
  8
ASSI
100
AcDbLine
 62
253
  6
CONTINUOUS
 10
5.2724468593
 20
-9.1614343165
 11
5.2724468593
 21
-22.8450790378
  0
LINE
  5
483
100
AcDbEntity
  8
ASSI
100
AcDbLine
 62
253
  6
CONTINUOUS
 10
5.2724468593
 20
-28.4489624163
 11
5.2724468593
 21
-42.9710516333
  0
LINE
  5
484
100
AcDbEntity
  8
ASSI
100
AcDbLine
 62
253
  6
CONTINUOUS
 10
5.3881536726
 20
-9.1247629263
 11
5.3881536726
 21
-22.9118867017
  0
LINE
  5
485
100
AcDbEntity
  8
ASSI
100
AcDbLine
 62
253
  6
CONTINUOUS
 10
5.3881536726
 20
-28.5157700801
 11
5.3881536726
 21
-43.1147109853
  0
LINE
  5
486
100
AcDbEntity
  8
0
100
AcDbLine
 62
7
  6
CONTINUOUS
 10
6.2815097064
 20
-47.1917159345
 11
6.2815097064
 21
-47.8040686421
  0
LINE
  5
487
100
AcDbEntity
  8
ASSI
100
AcDbLine
 62
7
  6
CONTINUOUS
 10
6.2865218892
 20
-8.4310298234
 11
6.2865218892
 21
-22.8333723576
  0
LINE
  5
488
100
AcDbEntity
  8
ASSI
100
AcDbLine
 62
7
  6
CONTINUOUS
 10
6.2865218892
 20
-29.0344766292
 11
6.2865218892
 21
-43.0926041894
  0
LWPOLYLINE
  5
489
100
AcDbEntity
  8
ASSI
100
AcDbPolyline
 62
7
  6
CONTINUOUS
 90
6
 70
0
 10
6.2855639244
 20
-43.0926081286
 10
6.2854696885
 20
-43.1005691027
 10
6.2759056764
 20
-43.1487085691
 10
6.2494207716
 20
-43.1946874274
 10
6.2076171862
 20
-43.238710262
 10
6.1547199408
 20
-43.2763277564
  0
LWPOLYLINE
  5
48A
100
AcDbEntity
  8
0
100
AcDbPolyline
 62
7
  6
CONTINUOUS
 90
16
 70
0
 10
4.6614645615
 20
-46.8373862819
 10
4.6612619292
 20
-46.8451612439
 10
4.6605375341
 20
-46.854236017
 10
4.6592868878
 20
-46.863568133
 10
4.6575110014
 20
-46.8731382293
 10
4.6552119272
 20
-46.8829342022
 10
4.6523848575
 20
-46.8930014095
 10
4.6490313903
 20
-46.9033183009
 10
4.6451534538
 20
-46.9138733075
 10
4.6407398219
 20
-46.9247248088
 10
4.635792374
 20
-46.9358485902
 10
4.6303130349
 20
-46.9472320521
 10
4.6242828854
 20
-46.958947441
 10
4.6176949177
 20
-46.9710035276
 10
4.6105603943
 20
-46.9833478315
 10
4.6028859178
 20
-46.9959580693
  0
LWPOLYLINE
  5
48B
100
AcDbEntity
  8
0
100
AcDbPolyline
 62
7
  6
CONTINUOUS
 90
22
 70
0
 10
4.942031811
 20
-47.720223103
 10
4.9433084791
 20
-47.6823036632
 10
4.9468891231
 20
-47.6437242701
 10
4.952773743
 20
-47.6044849236
 10
4.9610273106
 20
-47.5643664875
 10
4.9715848542
 20
-47.5235880981
 10
4.9842514586
 20
-47.4828071642
 10
4.9990557017
 20
-47.4420271397
 10
5.0159690057
 20
-47.4012445707
 10
5.034710722
 20
-47.3611065043
 10
5.0553059493
 20
-47.3216231185
 10
5.077729589
 20
-47.2827842354
 10
5.1016256969
 20
-47.2452063683
 10
5.127015638
 20
-47.2089061617
 10
5.1538780473
 20
-47.1738669712
 10
5.1817928854
 20
-47.1406553768
 10
5.2107774336
 20
-47.1092943981
 10
5.2408144106
 20
-47.0797610156
 10
5.2714319321
 20
-47.0525527505
 10
5.3024727034
 20
-47.0278354432
 10
5.3340940193
 20
-47.0054432534
 10
5.3662958797
 20
-46.985376181
  0
LWPOLYLINE
  5
48C
100
AcDbEntity
  8
RACCORDO
100
AcDbPolyline
 62
253
  6
CONTINUOUS
 90
6
 70
0
 10
7.7433705064
 20
-28.0299212851
 10
7.750590823
 20
-28.0250603133
 10
7.7647873802
 20
-28.0103726763
 10
7.7753693422
 20
-27.9911221371
 10
7.7820219793
 20
-27.9678803995
 10
7.7845472447
 20
-27.9413379153
  0
LWPOLYLINE
  5
48D
100
AcDbEntity
  8
RACCORDO
100
AcDbPolyline
 62
253
  6
CONTINUOUS
 90
6
 70
0
 10
17.0226759324
 20
-22.6721671805
 10
17.0301195698
 20
-22.6671757204
 10
17.0443144927
 20
-22.6524872598
 10
17.0548948165
 20
-22.6332369288
 10
17.0615461499
 20
-22.6099967454
 10
17.0640708507
 20
-22.5834572846
  0
LWPOLYLINE
  5
48E
100
AcDbEntity
  8
RACCORDO
100
AcDbPolyline
 62
253
  6
CONTINUOUS
 90
7
 70
0
 10
17.1059064282
 20
-21.1997326254
 10
17.1490013663
 20
-21.1722115273
 10
17.1853130907
 20
-21.1415483205
 10
17.214220538
 20
-21.108267458
 10
17.2352292851
 20
-21.0729381638
 10
17.2479800056
 20
-21.036164698
 10
17.2521785178
 20
-21.0036118464
  0
LWPOLYLINE
  5
48F
100
AcDbEntity
  8
RACCORDO
100
AcDbPolyline
 62
7
  6
CONTINUOUS
 90
5
 70
0
 10
17.0226560465
 20
-22.6721331081
 10
17.0583209553
 20
-22.6493564775
 10
17.0935833378
 20
-22.6215747677
 10
17.1244134688
 20
-22.5912385817
 10
17.150791149
 20
-22.5585310988
  0
LINE
  5
490
100
AcDbEntity
  8
RACCORDO
100
AcDbLine
 62
253
  6
CONTINUOUS
 10
17.0640708507
 20
-22.5834572846
 11
7.7845472235
 21
-27.9413379272
  0
LINE
  5
491
100
AcDbEntity
  8
RACCORDO
100
AcDbLine
 62
7
  6
CONTINUOUS
 10
17.0226758657
 20
-22.6721672191
 11
7.7431522299
 21
-28.0300478666
  0
LINE
  5
492
100
AcDbEntity
  8
RACCORDO
100
AcDbLine
 62
253
  6
CONTINUOUS
 10
15.6423224867
 20
-24.7922018433
 11
7.7845472235
 21
-29.3291827992
  0
LWPOLYLINE
  5
493
100
AcDbEntity
  8
RACCORDO
100
AcDbPolyline
 62
253
  6
CONTINUOUS
 90
4
 70
0
 10
7.7845472235
 20
-27.9413379272
 10
7.7456376467
 20
-27.9618374564
 10
7.703287844
 20
-27.9798464491
 10
7.6579637161
 20
-27.9951650813
  0
LWPOLYLINE
  5
494
100
AcDbEntity
  8
RACCORDO
100
AcDbPolyline
 62
253
  6
CONTINUOUS
 90
13
 70
0
 10
7.7845472235
 20
-29.3291827992
 10
7.7353780584
 20
-29.354933839
 10
7.6810037311
 20
-29.3766316247
 10
7.6223542403
 20
-29.3939050442
 10
7.5604327045
 20
-29.4064586587
 10
7.4962982088
 20
-29.4140777542
 10
7.431047691
 20
-29.4166320156
 10
7.3657971746
 20
-29.4140777559
 10
7.3016626806
 20
-29.4064586624
 10
7.2397411431
 20
-29.3939050496
 10
7.1810916467
 20
-29.3766316303
 10
7.1267173118
 20
-29.354933843
 10
7.0775481381
 20
-29.3291827992
  0
LWPOLYLINE
  5
495
100
AcDbEntity
  8
RACCORDO
100
AcDbPolyline
 62
253
  6
CONTINUOUS
 90
13
 70
0
 10
7.0775481381
 20
-26.5817686061
 10
7.1267173118
 20
-26.6075196499
 10
7.1810916467
 20
-26.6292174372
 10
7.2397411431
 20
-26.6464908566
 10
7.3016626806
 20
-26.6590444693
 10
7.3657971746
 20
-26.6666635628
 10
7.431047691
 20
-26.6692178225
 10
7.4962982088
 20
-26.6666635611
 10
7.5604327045
 20
-26.6590444656
 10
7.6223542403
 20
-26.6464908511
 10
7.6810037311
 20
-26.6292174316
 10
7.7353780584
 20
-26.6075196459
 10
7.7845472235
 20
-26.5817686061
  0
LINE
  5
496
100
AcDbEntity
  8
RACCORDO
100
AcDbLine
 62
253
  6
CONTINUOUS
 10
-6.3450303975
 20
-18.8317399841
 11
7.0775481381
 21
-26.5817686061
  0
LINE
  5
497
100
AcDbEntity
  8
RACCORDO
100
AcDbLine
 62
253
  6
CONTINUOUS
 10
-5.9915308548
 20
-18.2122739546
 11
7.4310476808
 21
-25.9623025766
  0
LWPOLYLINE
  5
498
100
AcDbEntity
  8
RACCORDO
100
AcDbPolyline
 62
253
  6
CONTINUOUS
 90
6
 70
0
 10
7.118748139
 20
-28.0299348404
 10
7.111499419
 20
-28.025056363
 10
7.0973044961
 20
-28.0103679024
 10
7.0867241723
 20
-27.9911175714
 10
7.0800728389
 20
-27.967877388
 10
7.0775481381
 20
-27.9413379272
  0
LINE
  5
499
100
AcDbEntity
  8
0
100
AcDbLine
 62
7
  6
CONTINUOUS
 10
6.7946515777
 20
-43.6866397772
 11
6.7946515777
 21
-44.9521687062
  0
LINE
  5
49A
100
AcDbEntity
  8
0
100
AcDbLine
 62
7
  6
CONTINUOUS
 10
6.7946515777
 20
-48.6100723328
 11
6.7946515777
 21
-48.6671084656
  0
LINE
  5
49B
100
AcDbEntity
  8
RACCORDO
100
AcDbLine
 62
253
  6
CONTINUOUS
 10
7.0775481381
 20
-26.5817686061
 11
7.0775481381
 21
-27.9413379272
  0
LINE
  5
49C
100
AcDbEntity
  8
RACCORDO
100
AcDbLine
 62
253
  6
CONTINUOUS
 10
7.0775481381
 20
-28.0061469161
 11
7.0775481381
 21
-29.3291827992
  0
LINE
  5
49D
100
AcDbEntity
  8
0
100
AcDbLine
 62
7
  6
CONTINUOUS
 10
7.084565358
 20
-47.5363661784
 11
7.084565358
 21
-46.9240134708
  0
LINE
  5
49E
100
AcDbEntity
  8
0
100
AcDbLine
 62
7
  6
CONTINUOUS
 10
7.1552760361
 20
-46.8423585521
 11
7.1552760361
 21
-46.4831471397
  0
LINE
  5
49F
100
AcDbEntity
  8
0
100
AcDbLine
 62
7
  6
CONTINUOUS
 10
7.1906313752
 20
-47.4751249894
 11
7.1906313752
 21
-46.8627722818
  0
LINE
  5
4A0
100
AcDbEntity
  8
0
100
AcDbLine
 62
7
  6
CONTINUOUS
 10
7.4734740877
 20
-46.2994235728
 11
7.4734740877
 21
-47.6874230433
  0
LINE
  5
4A1
100
AcDbEntity
  8
RACCORDO
100
AcDbLine
 62
253
  6
CONTINUOUS
 10
7.7845472235
 20
-26.5817686061
 11
7.7845472235
 21
-27.9413379272
  0
LINE
  5
4A2
100
AcDbEntity
  8
RACCORDO
100
AcDbLine
 62
253
  6
CONTINUOUS
 10
7.7845472235
 20
-28.0061469161
 11
7.7845472235
 21
-29.3291827992
  0
LWPOLYLINE
  5
4A3
100
AcDbEntity
  8
RACCORDO
100
AcDbPolyline
 62
253
  6
CONTINUOUS
 90
7
 70
0
 10
7.6810597609
 20
-29.5509576353
 10
7.7103751111
 20
-29.5294936883
 10
7.736187283
 20
-29.500332257
 10
7.7566978661
 20
-29.4649362496
 10
7.7716423911
 20
-29.4241190681
 10
7.7809375888
 20
-29.378590133
 10
7.7845472413
 20
-29.3291827891
  0
LWPOLYLINE
  5
4A4
100
AcDbEntity
  8
RACCORDO
100
AcDbPolyline
 62
253
  6
CONTINUOUS
 90
7
 70
0
 10
15.5388350241
 20
-25.0139766794
 10
15.5681506734
 20
-24.9925124602
 10
15.5939624037
 20
-24.9633515011
 10
15.6144728263
 20
-24.9279559464
 10
15.6294174366
 20
-24.8871388774
 10
15.6387127649
 20
-24.8416097524
 10
15.6423224867
 20
-24.7922018433
  0
LINE
  5
4A5
100
AcDbEntity
  8
RACCORDO
100
AcDbLine
 62
7
  6
CONTINUOUS
 10
15.5388350241
 20
-25.0139766794
 11
7.6810597609
 21
-29.5509576353
  0
LWPOLYLINE
  5
4A6
100
AcDbEntity
  8
RACCORDO
100
AcDbPolyline
 62
253
  6
CONTINUOUS
 90
9
 70
0
 10
-5.9915308548
 20
-18.2122739546
 10
-6.0290923645
 20
-18.1928968094
 10
-6.0662207841
 20
-18.1783623935
 10
-6.1024964493
 20
-18.1688319726
 10
-6.1374874037
 20
-18.1644112714
 10
-6.1708235749
 20
-18.16513901
 10
-6.2021891815
 20
-18.1710201772
 10
-6.2312844391
 20
-18.1820475608
 10
-6.2414902921
 20
-18.1874729833
  0
LINE
  5
4A7
100
AcDbEntity
  8
0
100
AcDbLine
 62
7
  6
CONTINUOUS
 10
-1.0895890325
 20
-19.1717192489
 11
5.769346745
 21
-23.1319828042
  0
LWPOLYLINE
  5
4A8
100
AcDbEntity
  8
RACCORDO
100
AcDbPolyline
 62
253
  6
CONTINUOUS
 90
16
 70
0
 10
7.4310476808
 20
-25.9623025766
 10
7.4686088004
 20
-25.986300248
 10
7.5057370649
 20
-26.0146406229
 10
7.5420128041
 20
-26.0470004298
 10
7.5770041814
 20
-26.0829868044
 10
7.6103409327
 20
-26.1222110395
 10
7.6417068507
 20
-26.1643129638
 10
7.6708020379
 20
-26.2089388818
 10
7.6972026318
 20
-26.2554916933
 10
7.7204767194
 20
-26.3031916758
 10
7.7403734361
 20
-26.3514327273
 10
7.7567312627
 20
-26.3997165768
 10
7.7693827167
 20
-26.447404792
 10
7.7782454335
 20
-26.4939475012
 10
7.783296768
 20
-26.5388882015
 10
7.7845472235
 20
-26.5817686061
  0
LINE
  5
4A9
100
AcDbEntity
  8
0
100
AcDbLine
 62
7
  6
CONTINUOUS
 10
8.88768765
 20
-47.4015795366
 11
8.88768765
 21
-44.9521687062
  0
LINE
  5
4AA
100
AcDbEntity
  8
0
100
AcDbLine
 62
7
  6
CONTINUOUS
 10
8.9296789512
 20
-43.6704377077
 11
8.9296789512
 21
-44.2501316042
  0
LINE
  5
4AB
100
AcDbEntity
  8
0
100
AcDbLine
 62
7
  6
CONTINUOUS
 10
9.3185876808
 20
-46.6301207609
 11
9.3185876808
 21
-46.3443995644
  0
LINE
  5
4AC
100
AcDbEntity
  8
0
100
AcDbLine
 62
7
  6
CONTINUOUS
 10
9.3185876808
 20
-42.7110634323
 11
9.3185876808
 21
-43.4458866814
  0
LINE
  5
4AD
100
AcDbEntity
  8
0
100
AcDbLine
 62
7
  6
CONTINUOUS
 10
9.5660750542
 20
-46.4872956721
 11
9.5660750542
 21
-45.9076017756
  0
LINE
  5
4AE
100
AcDbEntity
  8
0
100
AcDbLine
 62
7
  6
CONTINUOUS
 10
9.5660750542
 20
-44.6175449406
 11
9.5660750542
 21
-44.0378848417
  0
LINE
  5
4AF
100
AcDbEntity
  8
0
100
AcDbLine
 62
7
  6
CONTINUOUS
 10
9.9549837839
 20
-43.8133338154
 11
9.9549837839
 21
-46.2627446458
  0
LINE
  5
4B0
100
AcDbEntity
  8
0
100
AcDbLine
 62
7
  6
CONTINUOUS
 10
-6.0464075686
 20
-41.5799428756
 11
-1.4502134909
 21
-38.926158019
  0
LINE
  5
4B1
100
AcDbEntity
  8
0
100
AcDbLine
 62
7
  6
CONTINUOUS
 10
6.4764535262
 20
-22.7237082108
 11
6.2865218892
 21
-22.6140440641
  0
LWPOLYLINE
  5
4B2
100
AcDbEntity
  8
RACCORDO
100
AcDbPolyline
 62
7
  6
CONTINUOUS
 90
4
 70
0
 10
15.6806191834
 20
-24.8916084695
 10
15.6371484051
 20
-24.9396760861
 10
15.5875135446
 20
-24.9819494376
 10
15.5387455587
 20
-25.0140282986
  0
LINE
  5
4B3
100
AcDbEntity
  8
0
100
AcDbLine
 62
7
  6
CONTINUOUS
 10
-4.0170111066
 20
-47.3239245085
 11
-4.26449848
 21
-47.5892635392
  0
LINE
  5
4B4
100
AcDbEntity
  8
0
100
AcDbLine
 62
7
  6
CONTINUOUS
 10
-1.4008219332
 20
-38.9546760853
 11
-0.8996573955
 21
-38.6653099624
  0
LINE
  5
4B5
100
AcDbEntity
  8
0
100
AcDbLine
 62
7
  6
CONTINUOUS
 10
-1.3582998594
 20
-38.9792277978
 11
-0.8996573955
 21
-38.7144133874
  0
LINE
  5
4B6
100
AcDbEntity
  8
0
100
AcDbLine
 62
7
  6
CONTINUOUS
 10
-0.8996573955
 20
-39.0736950295
 11
-1.0471728757
 21
-39.1588686189
  0
LWPOLYLINE
  5
4B7
100
AcDbEntity
  8
RACCORDO
100
AcDbPolyline
 62
7
  6
CONTINUOUS
 90
3
 70
0
 10
15.7471811695
 20
-24.7807401618
 10
15.7175558454
 20
-24.8382412893
 10
15.6806191834
 20
-24.8916084695
  0
LWPOLYLINE
  5
4B8
100
AcDbEntity
  8
RACCORDO
100
AcDbPolyline
 62
7
  6
CONTINUOUS
 90
6
 70
0
 10
17.150791149
 20
-22.5585310988
 10
17.1725156512
 20
-22.5238219613
 10
17.1892759714
 20
-22.4878793763
 10
17.2010436095
 20
-22.4513946222
 10
17.2080360271
 20
-22.4147907368
 10
17.2103616532
 20
-22.385132175
  0
LINE
  5
4B9
100
AcDbEntity
  8
0
100
AcDbLine
 62
7
  6
CONTINUOUS
 10
-2.1926756112
 20
-48.3772729593
 11
-2.4401629846
 21
-48.64261199
  0
LINE
  5
4BA
100
AcDbEntity
  8
0
100
AcDbLine
 62
7
  6
CONTINUOUS
 10
-4.4448107092
 20
-43.7415860074
 11
-5.1519174904
 21
-44.1498329823
  0
LINE
  5
4BB
100
AcDbEntity
  8
0
100
AcDbLine
 62
7
  6
CONTINUOUS
 10
2.2619856321
 20
-8.4542235685
 11
1.3942579071
 21
-7.2579696298
  0
LINE
  5
4BC
100
AcDbEntity
  8
0
100
AcDbLine
 62
7
  6
CONTINUOUS
 10
1.3942579071
 20
-7.2579696298
 11
0.5700161047
 21
-5.9982542378
  0
LINE
  5
4BD
100
AcDbEntity
  8
RACCORDO
100
AcDbLine
 62
253
  6
CONTINUOUS
 10
15.6830338865
 20
-23.4456597082
 11
15.6423224867
 21
-24.7922018433
  0
LINE
  5
4BE
100
AcDbEntity
  8
RACCORDO
100
AcDbLine
 62
7
  6
CONTINUOUS
 10
15.8258699069
 20
-23.3631879801
 11
15.7885945764
 21
-24.5960810643
  0
LWPOLYLINE
  5
4BF
100
AcDbEntity
  8
RACCORDO
100
AcDbPolyline
 62
7
  6
CONTINUOUS
 90
4
 70
0
 10
15.7885945764
 20
-24.5960810644
 10
15.7827836916
 20
-24.6584390834
 10
15.7689849525
 20
-24.7204108671
 10
15.7471811695
 20
-24.7807401618
  0
LWPOLYLINE
  5
4C0
100
AcDbEntity
  8
RACCORDO
100
AcDbPolyline
 62
253
  6
CONTINUOUS
 90
7
 70
0
 10
15.7885945764
 20
-24.5960810643
 10
15.7843960641
 20
-24.6286339159
 10
15.7716453436
 20
-24.6654073817
 10
15.7506365965
 20
-24.7007366759
 10
15.7217291492
 20
-24.7340175384
 10
15.6854174248
 20
-24.7646807452
 10
15.6423224867
 20
-24.7922018433
  0
LWPOLYLINE
  5
4C1
100
AcDbEntity
  8
0
100
AcDbPolyline
 62
7
  6
CONTINUOUS
 90
13
 70
0
 10
4.6028859178
 20
-46.9959580693
 10
4.5812862763
 20
-47.0324152573
 10
4.5613628293
 20
-47.0693198618
 10
4.543115577
 20
-47.1066718828
 10
4.5264713327
 20
-47.1446590103
 10
4.511503283
 20
-47.1830935544
 10
4.4984309875
 20
-47.2214124455
 10
4.4872825442
 20
-47.2596139694
 10
4.4780298551
 20
-47.2976998404
 10
4.4708081857
 20
-47.3351121312
 10
4.4656626246
 20
-47.3716648663
 10
4.4625480832
 20
-47.4075440212
 10
4.4614645616
 20
-47.4427495961
  0
LINE
  5
4C2
100
AcDbEntity
  8
0
100
AcDbLine
 62
7
  6
CONTINUOUS
 10
3.9257875436
 20
-47.5188549461
 11
4.1352991704
 21
-47.2028441387
  0
LINE
  5
4C3
100
AcDbEntity
  8
0
100
AcDbLine
 62
7
  6
CONTINUOUS
 10
-4.4448107092
 20
-45.8154205105
 11
-5.1519174904
 21
-46.2236674853
  0
LINE
  5
4C4
100
AcDbEntity
  8
0
100
AcDbLine
 62
7
  6
CONTINUOUS
 10
-2.648759485
 20
-44.7786034745
 11
-3.3558662662
 21
-45.1868504493
  0
LINE
  5
4C5
100
AcDbEntity
  8
0
100
AcDbLine
 62
7
  6
CONTINUOUS
 10
0.5700161047
 20
-5.9982542378
 11
-0.2592827617
 21
-4.9244478172
  0
LWPOLYLINE
  5
4C6
100
AcDbEntity
  8
RACCORDO
100
AcDbPolyline
 62
7
  6
CONTINUOUS
 90
9
 70
0
 10
17.2521785178
 20
-21.0036118464
 10
17.2499201373
 20
-20.9387144025
 10
17.2390528487
 20
-20.8737213349
 10
17.2194750124
 20
-20.8100434343
 10
17.1913488593
 20
-20.7490651806
 10
17.1551765896
 20
-20.6922307349
 10
17.111706577
 20
-20.6407895952
 10
17.0613194252
 20
-20.595344245
 10
17.0023663228
 20
-20.5554656246
  0
LINE
  5
4C7
100
AcDbEntity
  8
RACCORDO
100
AcDbLine
 62
253
  6
CONTINUOUS
 10
17.1059064282
 20
-21.1997326254
 11
17.0640708507
 21
-22.5834572846
  0
LINE
  5
4C8
100
AcDbEntity
  8
RACCORDO
100
AcDbLine
 62
7
  6
CONTINUOUS
 10
17.2521785178
 20
-21.0036118465
 11
17.2103963796
 21
-22.385568987
  0
LINE
  5
4C9
100
AcDbEntity
  8
RACCORDO
100
AcDbLine
 62
253
  6
CONTINUOUS
 10
17.2103963614
 20
-22.3855695875
 11
17.2097854683
 21
-22.395655528
  0
LWPOLYLINE
  5
4CA
100
AcDbEntity
  8
RACCORDO
100
AcDbPolyline
 62
253
  6
CONTINUOUS
 90
8
 70
0
 10
17.2097854683
 20
-22.395655528
 10
17.2043099766
 20
-22.4256667597
 10
17.1934270419
 20
-22.4551298767
 10
17.1772582048
 20
-22.4837277937
 10
17.1559793878
 20
-22.5111483952
 10
17.1298220773
 20
-22.5370936608
 10
17.0990736823
 20
-22.5612835261
 10
17.0640708507
 20
-22.5834572846
  0
LINE
  5
4CB
100
AcDbEntity
  8
0
100
AcDbLine
 62
7
  6
CONTINUOUS
 10
4.2664843881
 20
-47.0532202605
 11
4.1352991704
 21
-47.2028441387
  0
LINE
  5
4CC
100
AcDbEntity
  8
0
100
AcDbLine
 62
7
  6
CONTINUOUS
 10
-4.26449848
 20
-47.5892635392
 11
-3.9109792562
 21
-47.38514597
  0
LINE
  5
4CD
100
AcDbEntity
  8
0
100
AcDbLine
 62
7
  6
CONTINUOUS
 10
-2.648759485
 20
-46.8524379775
 11
-3.3558662662
 21
-47.2606849524
  0
LINE
  5
4CE
100
AcDbEntity
  8
0
100
AcDbLine
 62
7
  6
CONTINUOUS
 10
-0.8527082608
 20
-45.8156209415
 11
-1.559815042
 21
-46.2238679164
  0
LINE
  5
4CF
100
AcDbEntity
  8
0
100
AcDbLine
 62
7
  6
CONTINUOUS
 10
-3.2321225795
 20
-48.1853444455
 11
-3.215485435
 21
-48.1757383667
  0
LINE
  5
4D0
100
AcDbEntity
  8
RACCORDO
100
AcDbLine
 62
253
  6
CONTINUOUS
 10
16.7524068855
 20
-20.5802665959
 11
6.2865218892
 21
-14.5373957674
  0
LINE
  5
4D1
100
AcDbEntity
  8
RACCORDO
100
AcDbLine
 62
7
  6
CONTINUOUS
 10
17.0024189655
 20
-20.555496007
 11
6.2865218892
 21
-14.3682713369
  0
LWPOLYLINE
  5
4D2
100
AcDbEntity
  8
RACCORDO
100
AcDbPolyline
 62
253
  6
CONTINUOUS
 90
16
 70
0
 10
16.7524068855
 20
-20.5802665959
 10
16.7899683952
 20
-20.6042645406
 10
16.8270968147
 20
-20.632605093
 10
16.86337248
 20
-20.664964901
 10
16.8983634344
 20
-20.7009508769
 10
16.9316996056
 20
-20.7401743904
 10
16.9630652122
 20
-20.7822757739
 10
16.9921604698
 20
-20.8269016316
 10
17.0185612995
 20
-20.8734546933
 10
17.0418356596
 20
-20.9211551073
 10
17.0617326998
 20
-20.9693969043
 10
17.078090788
 20
-21.0176816586
 10
17.0907422719
 20
-21.0653703479
 10
17.0996048515
 20
-21.1119129175
 10
17.1046560373
 20
-21.1568530857
 10
17.1059064329
 20
-21.1997326228
  0
LWPOLYLINE
  5
4D3
100
AcDbEntity
  8
0
100
AcDbPolyline
 62
7
  6
CONTINUOUS
 90
10
 70
0
 10
4.3197778436
 20
-46.3811297828
 10
4.2850517669
 20
-46.402876066
 10
4.2509922898
 20
-46.4273484099
 10
4.2175994123
 20
-46.4545468145
 10
4.1846622308
 20
-46.4846860702
 10
4.1523916489
 20
-46.5175513866
 10
4.1214203769
 20
-46.5524983927
 10
4.0919593183
 20
-46.5893122982
 10
4.0637975697
 20
-46.6282078933
 10
4.0369351311
 20
-46.6691851781
  0
LINE
  5
4D4
100
AcDbEntity
  8
0
100
AcDbLine
 62
7
  6
CONTINUOUS
 10
-2.0866437608
 20
-48.4384944208
 11
-2.4401629846
 21
-48.64261199
  0
LINE
  5
4D5
100
AcDbEntity
  8
0
100
AcDbLine
 62
7
  6
CONTINUOUS
 10
6.5471539543
 20
-43.5437377512
 11
7.5578917957
 21
-42.9601503891
  0
LINE
  5
4D6
100
AcDbEntity
  8
0
100
AcDbLine
 62
7
  6
CONTINUOUS
 10
-0.8527082608
 20
-47.8894554446
 11
-1.559815042
 21
-48.2977024194
  0
LINE
  5
4D7
100
AcDbEntity
  8
0
100
AcDbLine
 62
7
  6
CONTINUOUS
 10
0.9433429634
 20
-46.8526384086
 11
0.2362361822
 21
-47.2608853834
  0
LINE
  5
4D8
100
AcDbEntity
  8
0
100
AcDbLine
 62
7
  6
CONTINUOUS
 10
6.7946515777
 20
-43.6866397772
 11
2.1984575
 21
-46.3404246338
  0
LINE
  5
4D9
100
AcDbEntity
  8
0
100
AcDbLine
 62
7
  6
CONTINUOUS
 10
6.7946515777
 20
-43.7601173675
 11
7.8690187794
 21
-43.1397912102
  0
LINE
  5
4DA
100
AcDbEntity
  8
0
100
AcDbLine
 62
7
  6
CONTINUOUS
 10
-2.5250157983
 20
-49.3284422879
 11
-1.5891764189
 21
-48.788100359
  0
LINE
  5
4DB
100
AcDbEntity
  8
0
100
AcDbLine
 62
7
  6
CONTINUOUS
 10
8.22257217
 20
-43.3438890519
 11
9.3185876808
 21
-42.7110634323
  0
LWPOLYLINE
  5
4DC
100
AcDbEntity
  8
ASSI
100
AcDbPolyline
 62
7
  6
CONTINUOUS
 90
13
 70
0
 10
6.1547199408
 20
-43.2763277564
 10
6.0895687269
 20
-43.3068699629
 10
6.013323853
 20
-43.3310068292
 10
5.933691265
 20
-43.3462988813
 10
5.8503166351
 20
-43.351821022
 10
5.7635542911
 20
-43.3484983485
 10
5.6821731626
 20
-43.336666678
 10
5.6067360819
 20
-43.3154360372
 10
5.5366802167
 20
-43.2856963994
 10
5.4790859999
 20
-43.2504535016
 10
5.4363135758
 20
-43.2107092561
 10
5.4060028
 20
-43.1654617507
 10
5.3881536726
 20
-43.1147109853
  0
LINE
  5
4DD
100
AcDbEntity
  8
0
100
AcDbLine
 62
7
  6
CONTINUOUS
 10
3.8523384736
 20
-9.6115145437
 11
2.2619856321
 21
-8.4542235685
  0
LWPOLYLINE
  5
4DE
100
AcDbEntity
  8
0
100
AcDbPolyline
 62
7
  6
CONTINUOUS
 90
7
 70
0
 10
4.7972902311
 20
-47.6774746426
 10
4.7898371206
 20
-47.6826120053
 10
4.7319679826
 20
-47.7186337368
 10
4.6715253611
 20
-47.7520371485
 10
4.6085591028
 20
-47.7826127985
 10
4.5430193609
 20
-47.8105701287
 10
4.4749061356
 20
-47.8359091391
  0
LWPOLYLINE
  5
4DF
100
AcDbEntity
  8
0
100
AcDbPolyline
 62
7
  6
CONTINUOUS
 90
9
 70
0
 10
4.6028859178
 20
-48.7899176618
 10
4.617134305
 20
-48.7806920546
 10
4.6294254062
 20
-48.7709133113
 10
4.6397592213
 20
-48.7605814319
 10
4.648196638
 20
-48.7495750251
 10
4.6546767688
 20
-48.7380154822
 10
4.65901695
 20
-48.726266977
 10
4.6611562223
 20
-48.7143248277
 10
4.661423364
 20
-48.7082627432
  0
LINE
  5
4E0
100
AcDbEntity
  8
0
100
AcDbLine
 62
7
  6
CONTINUOUS
 10
9.3185876808
 20
-43.4458866814
 11
8.9296789512
 21
-43.6704377077
  0
LINE
  5
4E1
100
AcDbEntity
  8
0
100
AcDbLine
 62
7
  6
CONTINUOUS
 10
6.7946515777
 20
-44.9521687062
 11
4.3197778436
 21
-46.3811297828
  0
LINE
  5
4E2
100
AcDbEntity
  8
0
100
AcDbLine
 62
7
  6
CONTINUOUS
 10
7.0810298241
 20
-44.9950375385
 11
8.0214818431
 21
-44.4520323294
  0
LINE
  5
4E3
100
AcDbEntity
  8
0
100
AcDbLine
 62
7
  6
CONTINUOUS
 10
8.3007405048
 20
-44.6132727807
 11
8.9296789512
 21
-44.2501316042
  0
LINE
  5
4E4
100
AcDbEntity
  8
0
100
AcDbLine
 62
7
  6
CONTINUOUS
 10
0.9433429634
 20
-48.9264729116
 11
0.2362361822
 21
-49.3347198865
  0
LINE
  5
4E5
100
AcDbEntity
  8
0
100
AcDbLine
 62
7
  6
CONTINUOUS
 10
9.5660750542
 20
-44.0378848417
 11
9.9549837839
 21
-43.8133338154
  0
LINE
  5
4E6
100
AcDbEntity
  8
0
100
AcDbLine
 62
7
  6
CONTINUOUS
 10
0.0205071138
 20
-50.0633720653
 11
-0.6158274891
 21
-50.4307836899
  0
LINE
  5
4E7
100
AcDbEntity
  8
0
100
AcDbLine
 62
7
  6
CONTINUOUS
 10
8.88768765
 20
-44.9521687062
 11
5.3662958797
 21
-46.985376181
  0
LINE
  5
4E8
100
AcDbEntity
  8
0
100
AcDbLine
 62
7
  6
CONTINUOUS
 10
9.5660750592
 20
-44.6175787411
 11
8.88768765
 21
-45.009271129
  0
LINE
  5
4E9
100
AcDbEntity
  8
0
100
AcDbLine
 62
7
  6
CONTINUOUS
 10
4.942031811
 20
-47.7610466169
 11
7.4734740877
 21
-46.2994235728
  0
LINE
  5
4EA
100
AcDbEntity
  8
0
100
AcDbLine
 62
7
  6
CONTINUOUS
 10
4.164750825
 20
-48.3893455909
 11
4.0369351311
 21
-48.4631447706
  0
LINE
  5
4EB
100
AcDbEntity
  8
0
100
AcDbLine
 62
7
  6
CONTINUOUS
 10
7.0562810868
 20
-46.7443726497
 11
6.2815097064
 21
-47.1917159345
  0
LWPOLYLINE
  5
4EC
100
AcDbEntity
  8
0
100
AcDbPolyline
 62
7
  6
CONTINUOUS
 90
16
 70
0
 10
4.0369351311
 20
-47.0751453001
 10
4.052913322
 20
-47.0669184599
 10
4.0698495111
 20
-47.0598217321
 10
4.0877436983
 20
-47.0538551168
 10
4.106806126
 20
-47.0489834581
 10
4.1268265517
 20
-47.0452419118
 10
4.1471742486
 20
-47.0427359456
 10
4.1678573254
 20
-47.0415007566
 10
4.1888676734
 20
-47.0415011476
 10
4.2095502393
 20
-47.0427369943
 10
4.2298968301
 20
-47.0452434814
 10
4.2499156389
 20
-47.0489854241
 10
4.268976192
 20
-47.0538571452
 10
4.2868683316
 20
-47.0598234186
 10
4.3038022154
 20
-47.0669194702
 10
4.3197778436
 20
-47.0751453001
  0
LINE
  5
4ED
100
AcDbEntity
  8
0
100
AcDbLine
 62
7
  6
CONTINUOUS
 10
7.084565358
 20
-46.9240134708
 11
7.1906313752
 21
-46.8627722818
  0
LINE
  5
4EE
100
AcDbEntity
  8
0
100
AcDbLine
 62
7
  6
CONTINUOUS
 10
9.5660750542
 20
-45.9076017756
 11
8.88768765
 21
-46.2992941606
  0
LINE
  5
4EF
100
AcDbEntity
  8
0
100
AcDbLine
 62
7
  6
CONTINUOUS
 10
6.2815097064
 20
-47.8040686421
 11
4.9698809765
 21
-48.5613866322
  0
LINE
  5
4F0
100
AcDbEntity
  8
0
100
AcDbLine
 62
7
  6
CONTINUOUS
 10
4.4614645616
 20
-48.8715725805
 11
4.6028859178
 21
-48.7899176618
  0
LINE
  5
4F1
100
AcDbEntity
  8
0
100
AcDbLine
 62
7
  6
CONTINUOUS
 10
7.1906313752
 20
-47.4751249894
 11
7.084565358
 21
-47.5363661784
  0
LINE
  5
4F2
100
AcDbEntity
  8
0
100
AcDbLine
 62
7
  6
CONTINUOUS
 10
4.942031811
 20
-49.1490460874
 11
7.4734740877
 21
-47.6874230433
  0
LINE
  5
4F3
100
AcDbEntity
  8
0
100
AcDbLine
 62
7
  6
CONTINUOUS
 10
9.3185876808
 20
-46.6301207609
 11
8.88768765
 21
-46.8789170382
  0
LINE
  5
4F4
100
AcDbEntity
  8
0
100
AcDbLine
 62
7
  6
CONTINUOUS
 10
9.9549837839
 20
-46.2627446458
 11
9.5660750542
 21
-46.4872956721
  0
LINE
  5
4F5
100
AcDbEntity
  8
0
100
AcDbLine
 62
7
  6
CONTINUOUS
 10
8.88768765
 20
-47.4015795366
 11
5.3662958797
 21
-49.4347870113
  0
LINE
  5
4F6
100
AcDbEntity
  8
0
100
AcDbLine
 62
7
  6
CONTINUOUS
 10
6.7946515777
 20
-48.6671084656
 11
2.1984575
 21
-51.3208933222
  0
LWPOLYLINE
  5
4F7
100
AcDbEntity
  8
0
100
AcDbPolyline
 62
7
  6
CONTINUOUS
 90
12
 70
0
 10
5.3662958797
 20
-49.4347870113
 10
5.3340940193
 20
-49.4519058402
 10
5.3024727034
 20
-49.4660291533
 10
5.2714319321
 20
-49.4771569507
 10
5.2408144106
 20
-49.4853050319
 10
5.2107774336
 20
-49.4904575975
 10
5.1817928854
 20
-49.4925672486
 10
5.1538780473
 20
-49.4915910095
 10
5.127015638
 20
-49.487571856
 10
5.1016256969
 20
-49.480591317
 10
5.077729589
 20
-49.4706080763
 10
5.0662969688
 20
-49.4644847254
  0
LINE
  5
4F8
100
AcDbEntity
  8
0
100
AcDbLine
 62
7
  6
CONTINUOUS
 10
7.084565358
 20
-46.9240134708
 11
6.2815097064
 21
-47.1917159345
  0
LINE
  5
4F9
100
AcDbEntity
  8
0
100
AcDbLine
 62
7
  6
CONTINUOUS
 10
6.2815097064
 20
-47.8040686421
 11
7.084565358
 21
-47.5363661784
  0
LINE
  5
4FA
100
AcDbEntity
  8
0
100
AcDbLine
 62
7
  6
CONTINUOUS
 10
-0.2592827617
 20
-4.9244478172
 11
-0.8996573955
 21
-4.5839702394
  0
ARC
  5
4FB
100
AcDbEntity
  8
RACCORDO
100
AcDbCircle
 62
7
  6
CONTINUOUS
 10
-2.0441831871
 20
23.9501003851
 40
0.5
100
AcDbArc
 50
59.9984020905
 51
120.0015989602
  0
ARC
  5
4FC
100
AcDbEntity
  8
RACCORDO
100
AcDbCircle
 62
7
  6
CONTINUOUS
 10
2.0570361438
 20
8.0706215893
 40
0.5
100
AcDbArc
 50
239.9984020922
 51
300.0015989619
  0
ARC
  5
4FD
100
AcDbEntity
  8
RACCORDO
100
AcDbCircle
 62
7
  6
CONTINUOUS
 10
7.4310476808
 20
-29.1179519081
 40
0.5
100
AcDbArc
 50
239.9984010398
 51
300.0015979095
  0
ENDSEC
  0
SECTION
  2
OBJECTS
  0
DICTIONARY
  5
C
100
AcDbDictionary
280
0
281
1
  3
ACAD_GROUP
350
D
  3
ACAD_MLINESTYLE
350
17
  3
ACAD_LAYOUT
350
1A
  3
ACAD_PLOTSETTINGS
350
19
  3
ACAD_PLOTSTYLENAME
350
E
  0
DICTIONARY
  5
D
102
{ACAD_REACTORS
330
C
102
}
100
AcDbDictionary
280
0
281
1
  0
ACDBDICTIONARYWDFLT
  5
E
102
{ACAD_REACTORS
330
C
102
}
100
AcDbDictionary
281
1
  3
Normal
350
F
100
AcDbDictionaryWithDefault
340
F
  0
DICTIONARY
  5
17
102
{ACAD_REACTORS
330
C
102
}
100
AcDbDictionary
280
0
281
1
  3
Standard
350
18
  0
DICTIONARY
  5
19
102
{ACAD_REACTORS
330
C
102
}
100
AcDbDictionary
281
1
  0
DICTIONARY
  5
1A
102
{ACAD_REACTORS
330
C
102
}
100
AcDbDictionary
281
1
  3
Model
350
4FE
  3
Layout1
350
4FF
  0
ACDBPLACEHOLDER
  5
F
102
{ACAD_REACTORS
330
E
102
}
  0
MLINESTYLE
  5
18
102
{ACAD_REACTORS
330
17
102
}
100
AcDbMlineStyle
  2
STANDARD
 70
0
  3

 62
256
 51
90.0
 52
90.0
 71
2
 49
0.5
 62
256
  6
BYLAYER
 49
-0.5
 62
256
  6
BYLAYER
  0
LAYOUT
  5
4FE
102
{ACAD_REACTORS
330
1A
102
}
100
AcDbPlotSettings
  1

  2
none_device
  4

  6

 40
0.0
 41
0.0
 42
0.0
 43
0.0
 44
210.0
 45
297.0
 46
0.0
 47
0.0
 48
0.0
 49
0.0
140
0.0
141
0.0
142
1.0
143
1.0
 70
1024
 72
1
 73
0
 74
0
  7

 75
0
147
1.0
148
0.0
149
0.0
100
AcDbLayout
  1
Model
 70
0
 71
0
 10
0.0
 20
0.0
 11
210.0
 21
297.0
 12
0.0
 22
0.0
 32
0.0
 14
0.0
 24
0.0
 34
0.0
 15
0.0
 25
0.0
 35
0.0
146
0.0
 13
0.0
 23
0.0
 33
0.0
 16
1.0
 26
0.0
 36
0.0
 17
0.0
 27
1.0
 37
0.0
 76
0
330
20F
345
0
346
0
  0
LAYOUT
  5
4FF
102
{ACAD_REACTORS
330
1A
102
}
100
AcDbPlotSettings
  1

  2
none_device
  4

  6

 40
0.0
 41
0.0
 42
0.0
 43
0.0
 44
210.0
 45
297.0
 46
0.0
 47
0.0
 48
0.0
 49
0.0
140
0.0
141
0.0
142
1.0
143
1.0
 70
0
 72
1
 73
0
 74
0
  7

 75
0
147
1.0
148
0.0
149
0.0
100
AcDbLayout
  1
Layout1
 70
0
 71
1
 10
0.0
 20
0.0
 11
210.0
 21
297.0
 12
0.0
 22
0.0
 32
0.0
 14
0.0
 24
0.0
 34
0.0
 15
0.0
 25
0.0
 35
0.0
146
0.0
 13
0.0
 23
0.0
 33
0.0
 16
1.0
 26
0.0
 36
0.0
 17
0.0
 27
1.0
 37
0.0
 76
0
330
210
345
0
346
0
  0
ENDSEC
  0
EOF
