  0
SECTION
  2
HEADER
  9
$ACADVER
  1
AC1015
  9
$DWGCODEPAGE
  3
ANSI_1252
  9
$EXTMAX
 10
210.0
 20
297.0
 30
0.0
  9
$EXTMIN
 10
0.0
 20
0.0
 30
0.0
  9
$LIMMIN
 10
0.0
 20
0.0
  9
$LIMMAX
 10
210.0
 20
297.0
  9
$VIEWCTR
 10
105.0
 20
148.5
  9
$VIEWSIZE
 40
297.0
  9
$CLAYER
  8
0
  9
$LTSCALE
 40
19.36
  9
$CELTYPE
  6
BYLAYER
  9
$DIMSCALE
 40
1.0
  9
$DIMASZ
 40
3.0
  9
$DIMEXO
 40
0.5
  9
$DIMDLI
 40
13.376
  9
$DIMEXE
 40
1.5
  9
$DIMCEN
 40
3.168
  9
$DIMLFAC
 40
1.0
  9
$DIMBLK
  1
_FILLED
  9
$DIMALT
 70
0
  9
$DIMALTF
 40
0.0393700787
  9
$DIMTXT
 40
3.0
  9
$DIMTOL
 70
1
  9
$DIMLIM
 70
0
  9
$DIMTFAC
 40
1.0
  9
$DIMTP
 40
0.01
  9
$DIMTM
 40
0.01
  9
$DIMGAP
 40
0.625
  9
$DIMDSEP
 70
44
  9
$AUNITS
 70
0
  9
$PDMODE
 70
3
  9
$PDSIZE
 40
3.0
  9
$HANDSEED
  5
4CC
  9
$TILEMODE
 70
1
  9
$MEASUREMENT
 70
1
  9
$INSUNITS
 70
4
  0
ENDSEC
  0
SECTION
  2
CLASSES
  0
CLASS
  1
ACDBDICTIONARYWDFLT
  2
AcDbDictionaryWithDefault
  3
AutoCAD 2000
 90
0
280
0
281
0
  0
CLASS
  1
ACDBPLACEHOLDER
  2
AcDbPlaceHolder
  3
AutoCAD 2000
 90
0
280
0
281
0
  0
CLASS
  1
LAYOUT
  2
AcDbLayout
  3
AutoCAD 2000
 90
0
280
0
281
0
  0
ENDSEC
  0
SECTION
  2
TABLES
  0
TABLE
  2
VPORT
  5
8
100
AcDbSymbolTable
 70
2
  0
VPORT
  5
1F4
100
AcDbSymbolTableRecord
100
AcDbViewportTableRecord
  2
*ACTIVE
 70
0
 10
0.0
 20
0.0
 11
1.0
 21
1.0
 12
105.0
 22
148.5
 13
0.0
 23
0.0
 14
1.0
 24
1.0
 15
0.0
 25
0.0
 16
0.0
 26
0.0
 36
1.0
 17
0.0
 27
0.0
 37
0.0
 40
297.0
 41
0.7070707071
 42
50.0
 43
0.0
 44
0.0
 50
0.0
 51
0.0
 71
0
 72
100
 73
1
 74
1
 75
0
 76
0
 77
0
 78
0
  0
ENDTAB
  0
TABLE
  2
LTYPE
  5
5
100
AcDbSymbolTable
 70
6
  0
LTYPE
  5
14
100
AcDbSymbolTableRecord
100
AcDbLinetypeTableRecord
  2
BYBLOCK
 70
0
  3

 72
65
 73
0
 40
0.0
  0
LTYPE
  5
15
100
AcDbSymbolTableRecord
100
AcDbLinetypeTableRecord
  2
BYLAYER
 70
0
  3

 72
65
 73
0
 40
0.0
  0
LTYPE
  5
16
100
AcDbSymbolTableRecord
100
AcDbLinetypeTableRecord
  2
CONTINUOUS
 70
64
  3
Solid line
 72
65
 73
0
 40
0.0
  0
LTYPE
  5
1F5
100
AcDbSymbolTableRecord
100
AcDbLinetypeTableRecord
  2
CENTER
 70
64
  3
____ _ ____ _ ____ _ ____ _ ____ _ ____ _ ____
 72
65
 73
4
 40
0.6
 49
0.375
 74
0
 49
-0.075
 74
0
 49
0.075
 74
0
 49
-0.075
 74
0
  0
LTYPE
  5
1F6
100
AcDbSymbolTableRecord
100
AcDbLinetypeTableRecord
  2
HIDDEN
 70
64
  3
- - - - - - - - - - - - - - - - - - - -
 72
65
 73
2
 40
0.2
 49
0.1
 74
0
 49
-0.1
 74
0
  0
LTYPE
  5
1F7
100
AcDbSymbolTableRecord
100
AcDbLinetypeTableRecord
  2
PHANTOM
 70
64
  3
_____ _ _ _____ _ _ _____ _ _ _____
 72
65
 73
6
 40
0.8
 49
0.45
 74
0
 49
-0.05
 74
0
 49
0.1
 74
0
 49
-0.05
 74
0
 49
0.1
 74
0
 49
-0.05
 74
0
  0
LTYPE
  5
1F8
100
AcDbSymbolTableRecord
100
AcDbLinetypeTableRecord
  2
DOT
 70
64
  3
. . . . . . . . . . . . . . . . . . . .
 72
65
 73
2
 40
0.2
 49
0.1
 74
0
 49
-0.1
 74
0
  0
LTYPE
  5
1F9
100
AcDbSymbolTableRecord
100
AcDbLinetypeTableRecord
  2
DASHED
 70
64
  3
- - - - - - - - - - - - - - - - - - - -
 72
65
 73
2
 40
0.2
 49
0.1
 74
0
 49
-0.1
 74
0
  0
ENDTAB
  0
TABLE
  2
LAYER
  5
2
100
AcDbSymbolTable
 70
36
  0
LAYER
  5
10
100
AcDbSymbolTableRecord
100
AcDbLayerTableRecord
  2
0
 70
0
 62
7
  6
CONTINUOUS
370
-3
390
F
  0
LAYER
  5
1FA
100
AcDbSymbolTableRecord
100
AcDbLayerTableRecord
  2
DEFAULT_1
 70
0
 62
7
  6
CENTER
370
-3
390
F
  0
LAYER
  5
1FB
100
AcDbSymbolTableRecord
100
AcDbLayerTableRecord
  2
DEFAULT_2
 70
0
 62
7
  6
HIDDEN
370
-3
390
F
  0
LAYER
  5
1FC
100
AcDbSymbolTableRecord
100
AcDbLayerTableRecord
  2
DEFAULT_3
 70
0
 62
7
  6
PHANTOM
370
-3
390
F
  0
LAYER
  5
1FD
100
AcDbSymbolTableRecord
100
AcDbLayerTableRecord
  2
ASSI
 70
0
 62
7
  6
CONTINUOUS
370
-3
390
F
  0
LAYER
  5
1FE
100
AcDbSymbolTableRecord
100
AcDbLayerTableRecord
  2
COORDINATE
 70
0
 62
7
  6
CONTINUOUS
370
-3
390
F
  0
LAYER
  5
1FF
100
AcDbSymbolTableRecord
100
AcDbLayerTableRecord
  2
COPY_PUBLISH
 70
0
 62
7
  6
CONTINUOUS
370
-3
390
F
  0
LAYER
  5
200
100
AcDbSymbolTableRecord
100
AcDbLayerTableRecord
  2
COSMETICI
 70
0
 62
7
  6
CONTINUOUS
370
-3
390
F
  0
LAYER
  5
201
100
AcDbSymbolTableRecord
100
AcDbLayerTableRecord
  2
CURVE
 70
0
 62
7
  6
CONTINUOUS
370
-3
390
F
  0
LAYER
  5
202
100
AcDbSymbolTableRecord
100
AcDbLayerTableRecord
  2
DRAFT
 70
0
 62
7
  6
CONTINUOUS
370
-3
390
F
  0
LAYER
  5
203
100
AcDbSymbolTableRecord
100
AcDbLayerTableRecord
  2
IMPORT_IGES
 70
0
 62
7
  6
CONTINUOUS
370
-3
390
F
  0
LAYER
  5
204
100
AcDbSymbolTableRecord
100
AcDbLayerTableRecord
  2
NOTE
 70
0
 62
7
  6
CONTINUOUS
370
-3
390
F
  0
LAYER
  5
205
100
AcDbSymbolTableRecord
100
AcDbLayerTableRecord
  2
PIANI
 70
0
 62
7
  6
CONTINUOUS
370
-3
390
F
  0
LAYER
  5
206
100
AcDbSymbolTableRecord
100
AcDbLayerTableRecord
  2
PUNTI
 70
0
 62
7
  6
CONTINUOUS
370
-3
390
F
  0
LAYER
  5
207
100
AcDbSymbolTableRecord
100
AcDbLayerTableRecord
  2
RACCORDO
 70
0
 62
7
  6
CONTINUOUS
370
-3
390
F
  0
LAYER
  5
208
100
AcDbSymbolTableRecord
100
AcDbLayerTableRecord
  2
SIMBOLI
 70
0
 62
7
  6
CONTINUOUS
370
-3
390
F
  0
LAYER
  5
209
100
AcDbSymbolTableRecord
100
AcDbLayerTableRecord
  2
SMUSSO
 70
0
 62
7
  6
CONTINUOUS
370
-3
390
F
  0
LAYER
  5
20A
100
AcDbSymbolTableRecord
100
AcDbLayerTableRecord
  2
SNAPLINE
 70
0
 62
7
  6
CONTINUOUS
370
-3
390
F
  0
LAYER
  5
20B
100
AcDbSymbolTableRecord
100
AcDbLayerTableRecord
  2
SUPERFICI
 70
0
 62
7
  6
CONTINUOUS
370
-3
390
F
  0
LAYER
  5
20C
100
AcDbSymbolTableRecord
100
AcDbLayerTableRecord
  2
TRASH
 70
0
 62
7
  6
CONTINUOUS
370
-3
390
F
  0
ENDTAB
  0
TABLE
  2
STYLE
  5
3
100
AcDbSymbolTable
 70
1
  0
STYLE
  5
11
100
AcDbSymbolTableRecord
100
AcDbTextStyleTableRecord
  2
STANDARD
 70
0
 40
0.0
 41
0.8
 50
0.0
 71
0
 42
0.2
  3
txt
  4

  0
STYLE
  5
20D
100
AcDbSymbolTableRecord
100
AcDbTextStyleTableRecord
  2
TEXTSTYLE_1
 70
0
 40
0.0
 41
0.8
 50
0.0
 71
0
 42
0.2
  3
gdt
  4

  0
ENDTAB
  0
TABLE
  2
VIEW
  5
6
100
AcDbSymbolTable
 70
0
  0
ENDTAB
  0
TABLE
  2
UCS
  5
7
100
AcDbSymbolTable
 70
0
  0
ENDTAB
  0
TABLE
  2
APPID
  5
9
100
AcDbSymbolTable
 70
1
  0
APPID
  5
20E
100
AcDbSymbolTableRecord
100
AcDbRegAppTableRecord
  2
ACAD
 70
0
  0
ENDTAB
  0
TABLE
  2
BLOCK_RECORD
  5
1
100
AcDbSymbolTable
 70
0
  0
BLOCK_RECORD
  5
20F
100
AcDbSymbolTableRecord
100
AcDbBlockTableRecord
  2
*Model_Space
  0
BLOCK_RECORD
  5
210
100
AcDbSymbolTableRecord
100
AcDbBlockTableRecord
  2
*Paper_Space
  0
ENDTAB
  0
TABLE
  2
DIMSTYLE
  5
A
100
AcDbSymbolTable
 70
1
100
AcDbDimStyleTable
 71
0
  0
DIMSTYLE
105
211
100
AcDbSymbolTableRecord
100
AcDbDimStyleTableRecord
  2
STANDARD
 70
0
  3

  4

 40
1.0
 41
3.0
 42
0.5
 43
0.38
 44
1.5
 45
0.0
 46
0.0
 47
0.01
 48
0.01
140
3.0
141
0.09
142
0.0
143
25.4
144
1.0
145
0.0
146
1.0
147
0.625
 71
1.0
 72
0.0
 73
0
 74
0
 75
0
 76
0
 77
1
 78
8
170
0
171
2
172
0
173
0
174
0
175
0
176
0
177
0
178
0
270
2
271
2
272
2
273
2
274
2
275
0
280
0
281
0
282
0
283
1
284
8
285
0
286
0
287
3
288
0
340
11
278
44
  0
ENDTAB
  0
ENDSEC
  0
SECTION
  2
BLOCKS
  0
BLOCK
  5
20
100
AcDbEntity
  8
0
100
AcDbBlockBegin
  2
*Model_Space
 70
0
 10
0.0
 20
0.0
 30
0.0
  3
*Model_Space
  1

  0
ENDBLK
  5
21
100
AcDbEntity
  8
0
100
AcDbBlockEnd
  0
BLOCK
  5
1C
100
AcDbEntity
  8
0
100
AcDbBlockBegin
  2
*Paper_Space
 70
0
 10
0.0
 20
0.0
 30
0.0
  3
*Paper_Space
  1

  0
ENDBLK
  5
1D
100
AcDbEntity
  8
0
100
AcDbBlockEnd
  0
ENDSEC
  0
SECTION
  2
ENTITIES
  0
LINE
  5
212
100
AcDbEntity
  8
0
100
AcDbLine
 62
7
  6
CONTINUOUS
 10
3.3311918196
 20
-6.0335188646
 11
4.9784156875
 21
-5.9243756229
  0
LINE
  5
213
100
AcDbEntity
  8
0
100
AcDbLine
 62
7
  6
CONTINUOUS
 10
-2.7158932858
 20
36.8833523421
 11
-7.3120873635
 21
34.2295674855
  0
LINE
  5
214
100
AcDbEntity
  8
0
100
AcDbLine
 62
7
  6
CONTINUOUS
 10
-2.5674111117
 20
36.7976205958
 11
-1.5566732703
 21
37.3812079579
  0
LINE
  5
215
100
AcDbEntity
  8
0
100
AcDbLine
 62
7
  6
CONTINUOUS
 10
-2.256284128
 20
36.6179797747
 11
-1.2455462866
 21
37.2015671368
  0
LINE
  5
216
100
AcDbEntity
  8
0
100
AcDbLine
 62
7
  6
CONTINUOUS
 10
-0.1071043689
 20
37.8099357358
 11
-1.2031198798
 21
37.1771101162
  0
LINE
  5
217
100
AcDbEntity
  8
0
100
AcDbLine
 62
7
  6
CONTINUOUS
 10
-0.891992896
 20
36.9974692951
 11
-2.0795245161
 21
36.3118034209
  0
LINE
  5
218
100
AcDbEntity
  8
0
100
AcDbLine
 62
7
  6
CONTINUOUS
 10
-0.9622684684
 20
35.3808308198
 11
-4.4978023744
 21
33.3394578532
  0
LINE
  5
219
100
AcDbEntity
  8
0
100
AcDbLine
 62
7
  6
CONTINUOUS
 10
-6.4458815565
 20
31.6760083626
 11
-5.7387747753
 21
32.0842553374
  0
LINE
  5
21A
100
AcDbEntity
  8
0
100
AcDbLine
 62
7
  6
CONTINUOUS
 10
-3.7906955932
 20
32.9311832599
 11
-0.2551616872
 21
34.9725562265
  0
LINE
  5
21B
100
AcDbEntity
  8
0
100
AcDbLine
 62
7
  6
CONTINUOUS
 10
-2.2077635973
 20
-1.8022134382
 11
-1.9643221075
 21
-1.8640828589
  0
LINE
  5
21C
100
AcDbEntity
  8
0
100
AcDbLine
 62
7
  6
CONTINUOUS
 10
-3.7906955932
 20
32.1963600107
 11
-0.2551616872
 21
34.2377329774
  0
LINE
  5
21D
100
AcDbEntity
  8
0
100
AcDbLine
 62
7
  6
CONTINUOUS
 10
0.862067027
 20
34.8174828999
 11
-3.7341270507
 21
32.1636980433
  0
LINE
  5
21E
100
AcDbEntity
  8
0
100
AcDbLine
 62
7
  6
CONTINUOUS
 10
-2.5886140652
 20
32.2371164512
 11
0.9469198408
 21
34.2784894178
  0
LINE
  5
21F
100
AcDbEntity
  8
0
100
AcDbLine
 62
7
  6
CONTINUOUS
 10
-2.5886140652
 20
32.1310755307
 11
-3.4866396773
 21
31.6125667972
  0
LINE
  5
220
100
AcDbEntity
  8
0
100
AcDbLine
 62
7
  6
CONTINUOUS
 10
-6.4458815565
 20
29.6021738595
 11
-5.7387747753
 21
30.0104208344
  0
LINE
  5
221
100
AcDbEntity
  8
0
100
AcDbLine
 62
7
  6
CONTINUOUS
 10
-4.6498303323
 20
30.6389908955
 11
-3.9427235511
 21
31.0472378704
  0
LINE
  5
222
100
AcDbEntity
  8
0
100
AcDbLine
 62
7
  6
CONTINUOUS
 10
1.9227271988
 20
34.2050710099
 11
1.4984016299
 21
33.9600707445
  0
LINE
  5
223
100
AcDbEntity
  8
0
100
AcDbLine
 62
7
  6
CONTINUOUS
 10
-2.5886140652
 20
31.6002791045
 11
-2.6734668789
 21
31.5512861533
  0
LINE
  5
224
100
AcDbEntity
  8
0
100
AcDbLine
 62
7
  6
CONTINUOUS
 10
0.8756346113
 20
-4.3167727524
 11
3.3311918196
 21
-6.0335188646
  0
LINE
  5
225
100
AcDbEntity
  8
0
100
AcDbLine
 62
7
  6
CONTINUOUS
 10
-1.9643221075
 20
-1.8640828589
 11
-1.0316970756
 21
-2.5458155513
  0
LINE
  5
226
100
AcDbEntity
  8
0
100
AcDbLine
 62
7
  6
CONTINUOUS
 10
-1.881507284
 20
31.8288418579
 11
1.654026622
 21
33.8702148245
  0
LINE
  5
227
100
AcDbEntity
  8
0
100
AcDbLine
 62
7
  6
CONTINUOUS
 10
2.6864025225
 20
33.7641344491
 11
1.654026622
 21
33.1680535429
  0
LINE
  5
228
100
AcDbEntity
  8
0
100
AcDbLine
 62
7
  6
CONTINUOUS
 10
-1.881507284
 20
31.0940186088
 11
1.654026622
 21
33.1353915754
  0
LINE
  5
229
100
AcDbEntity
  8
0
100
AcDbLine
 62
7
  6
CONTINUOUS
 10
-1.6623041818
 20
30.5592183464
 11
1.3075442992
 21
32.2739716384
  0
LINE
  5
22A
100
AcDbEntity
  8
0
100
AcDbLine
 62
7
  6
CONTINUOUS
 10
1.4135761496
 20
32.2127501769
 11
2.6864025225
 21
32.9476641723
  0
LINE
  5
22B
100
AcDbEntity
  8
0
100
AcDbLine
 62
7
  6
CONTINUOUS
 10
-4.6498303323
 20
28.5651563924
 11
-3.9427235511
 21
28.9734033673
  0
LINE
  5
22C
100
AcDbEntity
  8
0
100
AcDbLine
 62
7
  6
CONTINUOUS
 10
-2.8537791081
 20
29.6019734284
 11
-2.1466723269
 21
30.0102204033
  0
LINE
  5
22D
100
AcDbEntity
  8
0
100
AcDbLine
 62
7
  6
CONTINUOUS
 10
-1.0316970756
 20
-2.5458155513
 11
-0.0893104995
 21
-3.4024624247
  0
LINE
  5
22E
100
AcDbEntity
  8
0
100
AcDbLine
 62
7
  6
CONTINUOUS
 10
-0.0893104995
 20
-3.4024624247
 11
0.8756346113
 21
-4.3167727524
  0
LINE
  5
22F
100
AcDbEntity
  8
0
100
AcDbLine
 62
7
  6
CONTINUOUS
 10
-2.9209542523
 20
31.2859471225
 11
-2.6734668789
 21
31.5512861533
  0
LINE
  5
230
100
AcDbEntity
  8
0
100
AcDbLine
 62
7
  6
CONTINUOUS
 10
-0.8491313834
 20
30.4979377025
 11
3.7470626943
 21
33.1517225591
  0
LINE
  5
231
100
AcDbEntity
  8
0
100
AcDbLine
 62
7
  6
CONTINUOUS
 10
-2.8537791081
 20
27.5281389254
 11
-2.1466723269
 21
27.9363859003
  0
LINE
  5
232
100
AcDbEntity
  8
0
100
AcDbLine
 62
7
  6
CONTINUOUS
 10
-1.0577278839
 20
28.5649559614
 11
-0.3506211027
 21
28.9732029363
  0
LINE
  5
233
100
AcDbEntity
  8
0
100
AcDbLine
 62
7
  6
CONTINUOUS
 10
6.3487805433
 20
32.8166980045
 11
5.3380427019
 21
32.2331106424
  0
LINE
  5
234
100
AcDbEntity
  8
0
100
AcDbLine
 62
7
  6
CONTINUOUS
 10
-2.1181763043
 20
36.5382380482
 11
-2.7158932858
 21
35.2502539688
  0
LINE
  5
235
100
AcDbEntity
  8
0
100
AcDbLine
 62
7
  6
CONTINUOUS
 10
-2.6138410762
 20
35.2660425178
 11
-2.1181763043
 21
36.334120479
  0
LINE
  5
236
100
AcDbEntity
  8
0
100
AcDbLine
 62
7
  6
CONTINUOUS
 10
-1.0966187568
 20
30.2325986718
 11
-0.8491313834
 21
30.4979377025
  0
LWPOLYLINE
  5
237
100
AcDbEntity
  8
0
100
AcDbPolyline
 62
7
  6
CONTINUOUS
 90
10
 70
0
 10
3.0540980487
 20
29.4283805783
 10
3.0193719721
 20
29.4066342951
 10
2.985312495
 20
29.3821619512
 10
2.9519196174
 20
29.3549635466
 10
2.918982436
 20
29.3248242909
 10
2.886711854
 20
29.2919589745
 10
2.855740582
 20
29.2570119684
 10
2.8262795235
 20
29.2201980629
 10
2.7981177749
 20
29.1813024678
 10
2.7712553362
 20
29.140325183
  0
LINE
  5
238
100
AcDbEntity
  8
0
100
AcDbLine
 62
7
  6
CONTINUOUS
 10
0.9327777052
 20
29.4690857273
 11
5.5289717829
 21
32.1228705839
  0
LINE
  5
239
100
AcDbEntity
  8
0
100
AcDbLine
 62
7
  6
CONTINUOUS
 10
5.5289717829
 20
32.0004000424
 11
5.231551829
 21
31.8286734886
  0
LINE
  5
23A
100
AcDbEntity
  8
0
100
AcDbLine
 62
7
  6
CONTINUOUS
 10
6.659907527
 20
32.6370571834
 11
5.2456939647
 21
31.8205079968
  0
LINE
  5
23B
100
AcDbEntity
  8
0
100
AcDbLine
 62
7
  6
CONTINUOUS
 10
8.1094764285
 20
33.0657849613
 11
7.0134609176
 21
32.4329593417
  0
LINE
  5
23C
100
AcDbEntity
  8
0
100
AcDbLine
 62
7
  6
CONTINUOUS
 10
5.231551829
 20
30.6856151011
 11
3.0540980487
 21
29.4283805783
  0
LINE
  5
23D
100
AcDbEntity
  8
0
100
AcDbLine
 62
7
  6
CONTINUOUS
 10
8.1094764285
 20
32.3309617122
 11
7.7205676988
 21
32.1064106859
  0
LINE
  5
23E
100
AcDbEntity
  8
0
100
AcDbLine
 62
7
  6
CONTINUOUS
 10
5.2456939647
 20
30.6774496093
 11
5.5431139185
 21
30.849176163
  0
LINE
  5
23F
100
AcDbEntity
  8
0
100
AcDbLine
 62
7
  6
CONTINUOUS
 10
5.8153500292
 20
30.8144728226
 11
7.6750408638
 21
31.8882350031
  0
LINE
  5
240
100
AcDbEntity
  8
0
100
AcDbLine
 62
7
  6
CONTINUOUS
 10
-1.0577278839
 20
26.4911214583
 11
-0.3506211027
 21
26.8993684332
  0
LWPOLYLINE
  5
241
100
AcDbEntity
  8
0
100
AcDbPolyline
 62
7
  6
CONTINUOUS
 90
16
 70
0
 10
2.7712553362
 20
28.7180356555
 10
2.7872335272
 20
28.7262624957
 10
2.8041697163
 20
28.7333592235
 10
2.8220639035
 20
28.7393258388
 10
2.8411263311
 20
28.7441974975
 10
2.8611467569
 20
28.7479390437
 10
2.8814944538
 20
28.75044501
 10
2.9021775306
 20
28.751680199
 10
2.9231878785
 20
28.751679808
 10
2.9438704445
 20
28.7504439612
 10
2.9642170353
 20
28.7479374742
 10
2.9842358441
 20
28.7441955314
 10
3.0032963972
 20
28.7393238104
 10
3.0211885367
 20
28.733357537
 10
3.0381224206
 20
28.7262614853
 10
3.0540980487
 20
28.7180356555
  0
LINE
  5
242
100
AcDbEntity
  8
0
100
AcDbLine
 62
7
  6
CONTINUOUS
 10
5.8754541057
 20
28.8528349229
 11
5.0723984541
 21
28.5851324591
  0
LINE
  5
243
100
AcDbEntity
  8
0
100
AcDbLine
 62
7
  6
CONTINUOUS
 10
5.0723984541
 20
27.9727797515
 11
5.8754541057
 21
28.2404822153
  0
LWPOLYLINE
  5
244
100
AcDbEntity
  8
RACCORDO
100
AcDbPolyline
 62
7
  6
CONTINUOUS
 90
6
 70
0
 10
-7.7994086889
 20
16.731682127
 10
-7.7971503084
 20
16.6667846843
 10
-7.7862830203
 20
16.6017916179
 10
-7.7667051848
 20
16.5381137184
 10
-7.7385790328
 20
16.4771354656
 10
-7.7024067644
 20
16.4203010205
  0
LWPOLYLINE
  5
245
100
AcDbEntity
  8
RACCORDO
100
AcDbPolyline
 62
253
  6
CONTINUOUS
 90
9
 70
0
 10
-7.7576294727
 20
18.1135416624
 10
-7.7570156393
 20
18.0934692307
 10
-7.7515401476
 20
18.0633675234
 10
-7.740657213
 20
18.0337296329
 10
-7.7244883758
 20
18.0048735101
 10
-7.7032095588
 20
17.9771059123
 10
-7.6770522484
 20
17.9507300411
 10
-7.6463038534
 20
17.9260416962
 10
-7.6113010218
 20
17.903315154
  0
LINE
  5
246
100
AcDbEntity
  8
0
100
AcDbLine
 62
7
  6
CONTINUOUS
 10
-7.3120873635
 20
34.2295674855
 11
-7.3120873635
 21
29.2490987971
  0
LINE
  5
247
100
AcDbEntity
  8
RACCORDO
100
AcDbLine
 62
7
  6
CONTINUOUS
 10
-7.7994086889
 20
16.731682127
 11
-7.7576265535
 21
18.1136391725
  0
LINE
  5
248
100
AcDbEntity
  8
RACCORDO
100
AcDbLine
 62
253
  6
CONTINUOUS
 10
-7.6531365992
 20
16.5195904948
 11
-7.6113010218
 21
17.903315154
  0
LWPOLYLINE
  5
249
100
AcDbEntity
  8
RACCORDO
100
AcDbPolyline
 62
253
  6
CONTINUOUS
 90
11
 70
0
 10
-7.547353499
 20
18.312917749
 10
-7.5540268705
 20
18.2951141016
 10
-7.5572739574
 20
18.2770031799
 10
-7.5572517918
 20
18.2585848039
 10
-7.5539811648
 20
18.2404943336
 10
-7.5473312327
 20
18.2227474977
 10
-7.5374328394
 20
18.2053285674
 10
-7.5246993076
 20
18.1888257169
 10
-7.5092684117
 20
18.173435004
 10
-7.4910023774
 20
18.1589603708
 10
-7.4699012047
 20
18.1454018174
  0
LWPOLYLINE
  5
24A
100
AcDbEntity
  8
0
100
AcDbPolyline
 62
7
  6
CONTINUOUS
 90
7
 70
0
 10
3.5812245762
 20
28.0870597303
 10
3.579248762
 20
28.0857246452
 10
3.5214961998
 20
28.0510642361
 10
3.4612858477
 20
28.0192489328
 10
3.3985799823
 20
27.990300602
 10
3.3334163269
 20
27.964197377
 10
3.2657948817
 20
27.9409392577
  0
LINE
  5
24B
100
AcDbEntity
  8
0
100
AcDbLine
 62
7
  6
CONTINUOUS
 10
8.7458725315
 20
31.9635145782
 11
8.3569638019
 21
31.7389635519
  0
LINE
  5
24C
100
AcDbEntity
  8
0
100
AcDbLine
 62
7
  6
CONTINUOUS
 10
8.5412466707
 20
31.3880986262
 11
4.1006160849
 21
28.8241341801
  0
LINE
  5
24D
100
AcDbEntity
  8
0
100
AcDbLine
 62
7
  6
CONTINUOUS
 10
8.5412466707
 20
30.8410635408
 11
7.6220078552
 21
30.3103065695
  0
LINE
  5
24E
100
AcDbEntity
  8
0
100
AcDbLine
 62
7
  6
CONTINUOUS
 10
6.2077942928
 20
29.4937573828
 11
3.6763520162
 21
28.0321343387
  0
LINE
  5
24F
100
AcDbEntity
  8
0
100
AcDbLine
 62
7
  6
CONTINUOUS
 10
2.8990710301
 20
27.4201647702
 11
2.7712553362
 21
27.3463655905
  0
LINE
  5
250
100
AcDbEntity
  8
0
100
AcDbLine
 62
7
  6
CONTINUOUS
 10
5.8471698344
 20
29.0324757439
 11
5.0723984541
 21
28.5851324591
  0
LINE
  5
251
100
AcDbEntity
  8
0
100
AcDbLine
 62
7
  6
CONTINUOUS
 10
5.8754541057
 20
28.8528349229
 11
5.9815201228
 21
28.9140761119
  0
LINE
  5
252
100
AcDbEntity
  8
0
100
AcDbLine
 62
7
  6
CONTINUOUS
 10
3.3372061229
 20
27.0195926993
 11
3.1957847667
 21
26.9379377806
  0
LINE
  5
253
100
AcDbEntity
  8
0
100
AcDbLine
 62
7
  6
CONTINUOUS
 10
3.7607697242
 20
27.2154617614
 11
5.0723984541
 21
27.9727797515
  0
LINE
  5
254
100
AcDbEntity
  8
0
100
AcDbLine
 62
7
  6
CONTINUOUS
 10
7.6220078552
 20
29.4448922656
 11
8.3569638019
 21
29.869246618
  0
LWPOLYLINE
  5
255
100
AcDbEntity
  8
RACCORDO
100
AcDbPolyline
 62
253
  6
CONTINUOUS
 90
9
 70
0
 10
-6.3930292176
 20
18.4320952336
 10
-6.392414487
 20
18.4119962431
 10
-6.3869373142
 20
18.3819939633
 10
-6.3760362947
 20
18.3525055495
 10
-6.3598262412
 20
18.3238707863
 10
-6.3385060902
 20
18.2964256822
 10
-6.3123312209
 20
18.2704797034
 10
-6.2815908545
 20
18.2463158009
 10
-6.2466301649
 20
18.2242035163
  0
LINE
  5
256
100
AcDbEntity
  8
0
100
AcDbLine
 62
7
  6
CONTINUOUS
 10
-6.4458815565
 20
32.8762196694
 11
-6.4458815565
 21
31.6760083626
  0
LINE
  5
257
100
AcDbEntity
  8
0
100
AcDbLine
 62
7
  6
CONTINUOUS
 10
-6.4458815565
 20
30.8023851664
 11
-6.4458815565
 21
29.6021738595
  0
LINE
  5
258
100
AcDbEntity
  8
0
100
AcDbLine
 62
7
  6
CONTINUOUS
 10
-5.9509068097
 20
32.5904550726
 11
-5.9509068097
 21
31.9617729594
  0
LINE
  5
259
100
AcDbEntity
  8
0
100
AcDbLine
 62
7
  6
CONTINUOUS
 10
-5.9509068097
 20
30.5166205695
 11
-5.9509068097
 21
29.8879384564
  0
LINE
  5
25A
100
AcDbEntity
  8
0
100
AcDbLine
 62
7
  6
CONTINUOUS
 10
-5.7387747753
 20
30.0104208344
 11
-5.7387747753
 21
30.3941105731
  0
LINE
  5
25B
100
AcDbEntity
  8
0
100
AcDbLine
 62
7
  6
CONTINUOUS
 10
-5.7387747753
 20
32.0842553374
 11
-5.7387747753
 21
32.4679450761
  0
LWPOLYLINE
  5
25C
100
AcDbEntity
  8
RACCORDO
100
AcDbPolyline
 62
253
  6
CONTINUOUS
 90
8
 70
0
 10
-6.3358247474
 20
20.3241513449
 10
-6.335900845
 20
20.3191155314
 10
-6.3316262352
 20
20.2813545474
 10
-6.3188755147
 20
20.2440671071
 10
-6.2978667675
 20
20.207890962
 10
-6.2689593202
 20
20.1734448562
 10
-6.2326475959
 20
20.1413179439
 10
-6.1895526577
 20
20.1120597127
  0
LINE
  5
25D
100
AcDbEntity
  8
RACCORDO
100
AcDbLine
 62
7
  6
CONTINUOUS
 10
-6.3930292176
 20
18.4320952336
 11
-6.3358247474
 21
20.3241513449
  0
LINE
  5
25E
100
AcDbEntity
  8
RACCORDO
100
AcDbLine
 62
253
  6
CONTINUOUS
 10
-6.2466301649
 20
18.2242035163
 11
-6.1895526577
 21
20.1120597127
  0
LWPOLYLINE
  5
25F
100
AcDbEntity
  8
RACCORDO
100
AcDbPolyline
 62
7
  6
CONTINUOUS
 90
9
 70
0
 10
-6.3358247474
 20
20.3241513449
 10
-6.3300138624
 20
20.3865093652
 10
-6.3162151229
 20
20.4484811501
 10
-6.294411339
 20
20.5088104459
 10
-6.2647860137
 20
20.5663115743
 10
-6.2278493505
 20
20.6196787551
 10
-6.1843785705
 20
20.6677463722
 10
-6.134743708
 20
20.7100197238
 10
-6.0859757297
 20
20.7420985791
  0
LWPOLYLINE
  5
260
100
AcDbEntity
  8
RACCORDO
100
AcDbPolyline
 62
253
  6
CONTINUOUS
 90
15
 70
0
 10
-6.437474335
 20
18.5217702142
 10
-6.4802274186
 20
18.4878458625
 10
-6.5162892328
 20
18.4518411736
 10
-6.5459461346
 20
18.4132910527
 10
-6.5689117671
 20
18.3726605944
 10
-6.584327059
 20
18.3313450833
 10
-6.5919085034
 20
18.2893564456
 10
-6.5919396071
 20
18.2466827549
 10
-6.5844118198
 20
18.2046835165
 10
-6.5690430801
 20
18.1633472225
 10
-6.5461154493
 20
18.1226853807
 10
-6.5164665607
 20
18.08409202
 10
-6.4803756255
 20
18.0480318166
 10
-6.4375634326
 20
18.0140400942
 10
-6.388029982
 20
17.9821168529
  0
LWPOLYLINE
  5
261
100
AcDbEntity
  8
RACCORDO
100
AcDbPolyline
 62
253
  6
CONTINUOUS
 90
10
 70
0
 10
-7.4699012047
 20
18.1454018174
 10
-7.4941886339
 20
18.128952443
 10
-7.5177543695
 20
18.1081396228
 10
-7.5398981625
 20
18.0835818033
 10
-7.5599620168
 20
18.056008713
 10
-7.5773497409
 20
18.026239678
 10
-7.5915446637
 20
17.9951592762
 10
-7.6021249875
 20
17.9636910526
 10
-7.608776321
 20
17.932770076
 10
-7.6113010218
 20
17.903315154
  0
LWPOLYLINE
  5
262
100
AcDbEntity
  8
RACCORDO
100
AcDbPolyline
 62
253
  6
CONTINUOUS
 90
13
 70
0
 10
-5.836053115
 20
20.7172763711
 10
-5.8818743681
 20
20.6873767336
 10
-5.9269382968
 20
20.6510816166
 10
-5.9704830272
 20
20.6089972895
 10
-6.0117768602
 20
20.5618217075
 10
-6.0501123457
 20
20.5103533727
 10
-6.0848230619
 20
20.455483761
 10
-6.1153808445
 20
20.3980220804
 10
-6.1411925747
 20
20.3390543821
 10
-6.1617029973
 20
20.2799739055
 10
-6.1766476077
 20
20.2218991751
 10
-6.1859429359
 20
20.1656360381
 10
-6.1895526577
 20
20.1120597127
  0
LWPOLYLINE
  5
263
100
AcDbEntity
  8
0
100
AcDbPolyline
 62
7
  6
CONTINUOUS
 90
9
 70
0
 10
3.3372061229
 20
27.0195926993
 10
3.3514545102
 20
27.0288183065
 10
3.3637456113
 20
27.0385970498
 10
3.3740794264
 20
27.0489289292
 10
3.3825168432
 20
27.059935336
 10
3.3889969739
 20
27.0714948789
 10
3.3933371552
 20
27.0832433841
 10
3.3954764274
 20
27.0951855334
 10
3.3957435692
 20
27.1012476178
  0
LWPOLYLINE
  5
264
100
AcDbEntity
  8
RACCORDO
100
AcDbPolyline
 62
253
  6
CONTINUOUS
 90
6
 70
0
 10
-7.4699012047
 20
18.390329264
 10
-7.4909695186
 20
18.3768184577
 10
-7.5092188847
 20
18.3623642964
 10
-7.5246493029
 20
18.3469667802
 10
-7.5374108749
 20
18.3304139421
 10
-7.547353499
 20
18.312917749
  0
LWPOLYLINE
  5
265
100
AcDbEntity
  8
RACCORDO
100
AcDbPolyline
 62
7
  6
CONTINUOUS
 90
10
 70
0
 10
-7.5699275858
 20
18.4001832858
 10
-7.6052478171
 20
18.3776187303
 10
-7.6405584237
 20
18.3498536306
 10
-7.6714428276
 20
18.3195379331
 10
-7.6978379102
 20
18.2868612277
 10
-7.7195773483
 20
18.2521915408
 10
-7.7363825843
 20
18.2162692196
 10
-7.7482171917
 20
18.1797678259
 10
-7.7552517522
 20
18.1431099349
 10
-7.7575833343
 20
18.1136471716
  0
LINE
  5
266
100
AcDbEntity
  8
0
100
AcDbLine
 62
7
  6
CONTINUOUS
 10
5.8754541057
 20
28.2404822153
 11
5.9815201228
 21
28.3017234043
  0
LINE
  5
267
100
AcDbEntity
  8
0
100
AcDbLine
 62
7
  6
CONTINUOUS
 10
8.5412466707
 20
29.4693934758
 11
7.6220078552
 21
28.9386365044
  0
LINE
  5
268
100
AcDbEntity
  8
0
100
AcDbLine
 62
7
  6
CONTINUOUS
 10
6.2077942928
 20
28.1220873178
 11
3.6763520162
 21
26.6604642737
  0
LINE
  5
269
100
AcDbEntity
  8
0
100
AcDbLine
 62
7
  6
CONTINUOUS
 10
8.5412466707
 20
29.3959553404
 11
8.7458725315
 21
29.5141037479
  0
LINE
  5
26A
100
AcDbEntity
  8
RACCORDO
100
AcDbLine
 62
7
  6
CONTINUOUS
 10
-2.2077635973
 20
22.981329696
 11
-6.0860651951
 21
20.7420469599
  0
LINE
  5
26B
100
AcDbEntity
  8
RACCORDO
100
AcDbLine
 62
253
  6
CONTINUOUS
 10
-2.2077635973
 20
22.8122052655
 11
-5.836053115
 21
20.7172763711
  0
LINE
  5
26C
100
AcDbEntity
  8
0
100
AcDbLine
 62
7
  6
CONTINUOUS
 10
4.1006160849
 20
26.3747233498
 11
8.5412466707
 21
28.9386877959
  0
LINE
  5
26D
100
AcDbEntity
  8
0
100
AcDbLine
 62
7
  6
CONTINUOUS
 10
0.9327777052
 20
24.4886170389
 11
5.5289717829
 21
27.1424018955
  0
LINE
  5
26E
100
AcDbEntity
  8
RACCORDO
100
AcDbLine
 62
253
  6
CONTINUOUS
 10
-4.7008477829
 20
21.0030250589
 11
-2.2077635973
 21
22.442500622
  0
LINE
  5
26F
100
AcDbEntity
  8
RACCORDO
100
AcDbLine
 62
253
  6
CONTINUOUS
 10
-4.5594479658
 20
20.7552386471
 11
-2.2077635973
 21
22.113071728
  0
LINE
  5
270
100
AcDbEntity
  8
RACCORDO
100
AcDbLine
 62
253
  6
CONTINUOUS
 10
-6.0859757297
 20
20.7420985791
 11
-6.0860651951
 21
20.7420469599
  0
LWPOLYLINE
  5
271
100
AcDbEntity
  8
0
100
AcDbPolyline
 62
7
  6
CONTINUOUS
 90
12
 70
0
 10
4.1006160849
 20
26.3747233498
 10
4.0684142245
 20
26.3576045209
 10
4.0367929086
 20
26.3434812078
 10
4.0057521373
 20
26.3323534104
 10
3.9751346158
 20
26.3242053292
 10
3.9450976388
 20
26.3190527636
 10
3.9161130905
 20
26.3169431125
 10
3.8881982525
 20
26.3179193516
 10
3.8613358432
 20
26.3219385051
 10
3.835945902
 20
26.3289190441
 10
3.8120497941
 20
26.3389022848
 10
3.8006171739
 20
26.3450256357
  0
LINE
  5
272
100
AcDbEntity
  8
0
100
AcDbLine
 62
7
  6
CONTINUOUS
 10
-5.3498660457
 20
28.9693482398
 11
-5.3498660457
 21
30.1695595467
  0
LINE
  5
273
100
AcDbEntity
  8
0
100
AcDbLine
 62
7
  6
CONTINUOUS
 10
-5.3498660457
 20
31.0431827429
 11
-5.3498660457
 21
32.2433940498
  0
LINE
  5
274
100
AcDbEntity
  8
0
100
AcDbLine
 62
7
  6
CONTINUOUS
 10
-4.6498303323
 20
31.8392022024
 11
-4.6498303323
 21
30.6389908955
  0
LINE
  5
275
100
AcDbEntity
  8
0
100
AcDbLine
 62
7
  6
CONTINUOUS
 10
-4.6498303323
 20
29.7653676993
 11
-4.6498303323
 21
28.5651563924
  0
LINE
  5
276
100
AcDbEntity
  8
0
100
AcDbLine
 62
7
  6
CONTINUOUS
 10
-4.4978023744
 20
32.6046346041
 11
-4.4978023744
 21
33.3394578532
  0
LINE
  5
277
100
AcDbEntity
  8
0
100
AcDbLine
 62
7
  6
CONTINUOUS
 10
-4.1548555855
 20
31.5534376055
 11
-4.1548555855
 21
30.9247554924
  0
LINE
  5
278
100
AcDbEntity
  8
0
100
AcDbLine
 62
7
  6
CONTINUOUS
 10
-4.1548555855
 20
29.4796031025
 11
-4.1548555855
 21
28.8509209893
  0
LINE
  5
279
100
AcDbEntity
  8
0
100
AcDbLine
 62
7
  6
CONTINUOUS
 10
-3.9427235511
 20
28.9734033673
 11
-3.9427235511
 21
29.357093106
  0
LINE
  5
27A
100
AcDbEntity
  8
0
100
AcDbLine
 62
7
  6
CONTINUOUS
 10
-3.9427235511
 20
31.0472378704
 11
-3.9427235511
 21
31.4309276091
  0
LINE
  5
27B
100
AcDbEntity
  8
0
100
AcDbLine
 62
7
  6
CONTINUOUS
 10
-3.7906955932
 20
32.9311832599
 11
-3.7906955932
 21
32.1963600107
  0
LINE
  5
27C
100
AcDbEntity
  8
RACCORDO
100
AcDbLine
 62
253
  6
CONTINUOUS
 10
-4.5594479658
 20
20.7552386471
 11
-4.5694829321
 21
20.423329037
  0
LINE
  5
27D
100
AcDbEntity
  8
RACCORDO
100
AcDbLine
 62
253
  6
CONTINUOUS
 10
-4.7058447381
 20
20.5549939535
 11
-4.7057694516
 21
20.5570603057
  0
LWPOLYLINE
  5
27E
100
AcDbEntity
  8
RACCORDO
100
AcDbPolyline
 62
253
  6
CONTINUOUS
 90
9
 70
0
 10
-4.7057694516
 20
20.5570603057
 10
-4.705232288
 20
20.565103408
 10
-4.6997551152
 20
20.5951885855
 10
-4.6888540957
 20
20.6248551129
 10
-4.6726440422
 20
20.6537573925
 10
-4.6513238911
 20
20.6815364391
 10
-4.6251490219
 20
20.7078827486
 10
-4.5944086555
 20
20.7325353606
 10
-4.5594479658
 20
20.7552386471
  0
LINE
  5
27F
100
AcDbEntity
  8
0
100
AcDbLine
 62
7
  6
CONTINUOUS
 10
2.7166762923
 20
28.2579934491
 11
3.0295221107
 21
28.7298653983
  0
LWPOLYLINE
  5
280
100
AcDbEntity
  8
RACCORDO
100
AcDbPolyline
 62
253
  6
CONTINUOUS
 90
10
 70
0
 10
-6.388029982
 20
17.9821168529
 10
-6.3637425527
 20
17.9985662273
 10
-6.3401768172
 20
18.0193790475
 10
-6.3180330241
 20
18.043936867
 10
-6.2979691699
 20
18.0715099573
 10
-6.2805814458
 20
18.1012789923
 10
-6.2663865229
 20
18.1323593941
 10
-6.2558061991
 20
18.1638276177
 10
-6.2491548657
 20
18.1947485943
 10
-6.2466301649
 20
18.2242035163
  0
LINE
  5
281
100
AcDbEntity
  8
RACCORDO
100
AcDbLine
 62
253
  6
CONTINUOUS
 10
-6.388029982
 20
18.5536142285
 11
-6.437474335
 21
18.5217702142
  0
LINE
  5
282
100
AcDbEntity
  8
RACCORDO
100
AcDbLine
 62
7
  6
CONTINUOUS
 10
-6.373100078
 20
19.0912582606
 11
-7.5699060452
 21
18.4002374947
  0
LINE
  5
283
100
AcDbEntity
  8
RACCORDO
100
AcDbLine
 62
253
  6
CONTINUOUS
 10
-6.3751817425
 20
19.0224065614
 11
-7.4699012047
 21
18.390329264
  0
LWPOLYLINE
  5
284
100
AcDbEntity
  8
RACCORDO
100
AcDbPolyline
 62
253
  6
CONTINUOUS
 90
6
 70
0
 10
-4.7008477829
 20
20.4315276833
 10
-4.6760165734
 20
20.4433280737
 10
-4.6519578362
 20
20.4496879966
 10
-4.6294188969
 20
20.4504105281
 10
-4.6090998139
 20
20.4454739421
 10
-4.6010082094
 20
20.4415310221
  0
LWPOLYLINE
  5
285
100
AcDbEntity
  8
RACCORDO
100
AcDbPolyline
 62
253
  6
CONTINUOUS
 90
8
 70
0
 10
-7.5657914705
 20
16.294176528
 10
-7.5890658307
 20
16.3150002942
 10
-7.6089628709
 20
16.3402654875
 10
-7.625320959
 20
16.3696603313
 10
-7.6379724429
 20
16.4027394049
 10
-7.6468350225
 20
16.4390476922
 10
-7.6518862083
 20
16.4781548812
 10
-7.6531366039
 20
16.5195904977
  0
LWPOLYLINE
  5
286
100
AcDbEntity
  8
RACCORDO
100
AcDbPolyline
 62
7
  6
CONTINUOUS
 90
4
 70
0
 10
-7.7024067644
 20
16.4203010205
 10
-7.6589367535
 20
16.3688598813
 10
-7.6085496036
 20
16.3234145313
 10
-7.5495964939
 20
16.2835359051
  0
LINE
  5
287
100
AcDbEntity
  8
0
100
AcDbLine
 62
7
  6
CONTINUOUS
 10
-3.5538148215
 20
27.9323307728
 11
-3.5538148215
 21
29.1325420797
  0
LINE
  5
288
100
AcDbEntity
  8
0
100
AcDbLine
 62
7
  6
CONTINUOUS
 10
-3.5538148215
 20
30.0061652758
 11
-3.5538148215
 21
31.2063765827
  0
LINE
  5
289
100
AcDbEntity
  8
0
100
AcDbLine
 62
7
  6
CONTINUOUS
 10
-2.8537791081
 20
30.8021847353
 11
-2.8537791081
 21
29.6019734284
  0
LINE
  5
28A
100
AcDbEntity
  8
0
100
AcDbLine
 62
7
  6
CONTINUOUS
 10
-2.8537791081
 20
28.7283502323
 11
-2.8537791081
 21
27.5281389254
  0
LINE
  5
28B
100
AcDbEntity
  8
0
100
AcDbLine
 62
7
  6
CONTINUOUS
 10
-2.5886140652
 20
31.5022932021
 11
-2.5886140652
 21
32.2371164512
  0
LINE
  5
28C
100
AcDbEntity
  8
0
100
AcDbLine
 62
7
  6
CONTINUOUS
 10
-2.3588043613
 20
30.5164201385
 11
-2.3588043613
 21
29.8877380253
  0
LINE
  5
28D
100
AcDbEntity
  8
0
100
AcDbLine
 62
7
  6
CONTINUOUS
 10
-2.3588043613
 20
28.4425856354
 11
-2.3588043613
 21
27.8139035223
  0
LINE
  5
28E
100
AcDbEntity
  8
ASSI
100
AcDbLine
 62
7
  6
CONTINUOUS
 10
-2.2077635973
 20
26.3019262267
 11
-2.2077635973
 21
19.0597018924
  0
LINE
  5
28F
100
AcDbEntity
  8
ASSI
100
AcDbLine
 62
7
  6
CONTINUOUS
 10
-2.2077635973
 20
13.1992285267
 11
-2.2077635973
 21
-1.8022134382
  0
LINE
  5
290
100
AcDbEntity
  8
0
100
AcDbLine
 62
7
  6
CONTINUOUS
 10
-2.1466723269
 20
27.9363859003
 11
-2.1466723269
 21
28.3200756389
  0
LINE
  5
291
100
AcDbEntity
  8
0
100
AcDbLine
 62
7
  6
CONTINUOUS
 10
-2.1466723269
 20
30.0102204033
 11
-2.1466723269
 21
30.393910142
  0
LINE
  5
292
100
AcDbEntity
  8
0
100
AcDbLine
 62
7
  6
CONTINUOUS
 10
-2.1181763043
 20
36.334120479
 11
-2.1181763043
 21
36.5382380482
  0
LWPOLYLINE
  5
293
100
AcDbEntity
  8
0
100
AcDbPolyline
 62
7
  6
CONTINUOUS
 90
13
 70
0
 10
3.3372061229
 20
28.8135522918
 10
3.3156064814
 20
28.7770951038
 10
3.2956830345
 20
28.7401904993
 10
3.2774357821
 20
28.7028384783
 10
3.2607915378
 20
28.6648513508
 10
3.2458234881
 20
28.6264168067
 10
3.2327511926
 20
28.5880979156
 10
3.2216027493
 20
28.5498963917
 10
3.2123500602
 20
28.5118105207
 10
3.2051283909
 20
28.4743982299
 10
3.1999828297
 20
28.4378454948
 10
3.1968682884
 20
28.4019663399
 10
3.1957847667
 20
28.366760765
  0
LINE
  5
294
100
AcDbEntity
  8
RACCORDO
100
AcDbLine
 62
253
  6
CONTINUOUS
 10
-2.6373492356
 20
19.307739256
 11
-2.2077635973
 21
19.5557766196
  0
LINE
  5
295
100
AcDbEntity
  8
RACCORDO
100
AcDbLine
 62
7
  6
CONTINUOUS
 10
5.872929399
 20
8.5335376655
 11
-7.5496491366
 21
16.2835662876
  0
LINE
  5
296
100
AcDbEntity
  8
RACCORDO
100
AcDbLine
 62
253
  6
CONTINUOUS
 10
5.7694419364
 20
8.7695618728
 11
-7.6531365992
 21
16.5195904948
  0
LINE
  5
297
100
AcDbEntity
  8
RACCORDO
100
AcDbLine
 62
253
  6
CONTINUOUS
 10
-7.5496491366
 20
16.2835662876
 11
-7.5657914705
 21
16.294176528
  0
LWPOLYLINE
  5
298
100
AcDbEntity
  8
RACCORDO
100
AcDbPolyline
 62
253
  6
CONTINUOUS
 90
9
 70
0
 10
5.872929399
 20
8.5335376655
 10
5.856786528
 20
8.5441483051
 10
5.8335124405
 20
8.5649719547
 10
5.8136157237
 20
8.5902367764
 10
5.7972578971
 20
8.6196310177
 10
5.7846064431
 20
8.6527096509
 10
5.7757437264
 20
8.689017917
 10
5.7706923919
 20
8.7281254628
 10
5.7694419364
 20
8.7695618728
  0
LWPOLYLINE
  5
299
100
AcDbEntity
  8
RACCORDO
100
AcDbPolyline
 62
253
  6
CONTINUOUS
 90
8
 70
0
 10
-7.6531365992
 20
16.5195904948
 10
-7.6962315374
 20
16.548848726
 10
-7.7325432617
 20
16.5809756383
 10
-7.761450709
 20
16.6154217441
 10
-7.7824594561
 20
16.6515978892
 10
-7.7952101767
 20
16.6888853295
 10
-7.7994847864
 20
16.7266463135
 10
-7.7994086889
 20
16.731682127
  0
LWPOLYLINE
  5
29A
100
AcDbEntity
  8
RACCORDO
100
AcDbPolyline
 62
7
  6
CONTINUOUS
 90
4
 70
0
 10
-4.6990814475
 20
20.5304865373
 10
-4.7035013001
 20
20.5408405758
 10
-4.7055986362
 20
20.5498867384
 10
-4.7057685748
 20
20.5570828788
  0
LINE
  5
29B
100
AcDbEntity
  8
0
100
AcDbLine
 62
7
  6
CONTINUOUS
 10
-1.881507284
 20
31.8288418579
 11
-1.881507284
 21
31.0940186088
  0
LINE
  5
29C
100
AcDbEntity
  8
ASSI
100
AcDbLine
 62
253
  6
CONTINUOUS
 10
-1.7960512242
 20
26.0642086624
 11
-1.7960512242
 21
18.8219843281
  0
LINE
  5
29D
100
AcDbEntity
  8
ASSI
100
AcDbLine
 62
253
  6
CONTINUOUS
 10
-1.7960512242
 20
12.9615109625
 11
-1.7960512242
 21
-1.9870859506
  0
LINE
  5
29E
100
AcDbEntity
  8
0
100
AcDbLine
 62
7
  6
CONTINUOUS
 10
-1.7577635973
 20
26.8953133057
 11
-1.7577635973
 21
28.0955246126
  0
LINE
  5
29F
100
AcDbEntity
  8
0
100
AcDbLine
 62
7
  6
CONTINUOUS
 10
-1.7577635973
 20
28.9691478088
 11
-1.7577635973
 21
30.1693591157
  0
LINE
  5
2A0
100
AcDbEntity
  8
ASSI
100
AcDbLine
 62
253
  6
CONTINUOUS
 10
-1.5472419579
 20
25.9205493104
 11
-1.5472419579
 21
18.6783249761
  0
LINE
  5
2A1
100
AcDbEntity
  8
ASSI
100
AcDbLine
 62
253
  6
CONTINUOUS
 10
-1.5472419579
 20
12.8178516104
 11
-1.5472419579
 21
-2.1689612008
  0
LINE
  5
2A2
100
AcDbEntity
  8
ASSI
100
AcDbLine
 62
253
  6
CONTINUOUS
 10
-1.4238130151
 20
25.8492829857
 11
-1.4238130151
 21
18.6070586514
  0
LINE
  5
2A3
100
AcDbEntity
  8
ASSI
100
AcDbLine
 62
253
  6
CONTINUOUS
 10
-1.4238130151
 20
12.7465852858
 11
-1.4238130151
 21
-2.2591856132
  0
LINE
  5
2A4
100
AcDbEntity
  8
ASSI
100
AcDbLine
 62
253
  6
CONTINUOUS
 10
-1.3081062017
 20
25.7824753218
 11
-1.3081062017
 21
18.5402509875
  0
LINE
  5
2A5
100
AcDbEntity
  8
ASSI
100
AcDbLine
 62
253
  6
CONTINUOUS
 10
-1.3081062017
 20
12.6797776219
 11
-1.3081062017
 21
-2.3437652832
  0
LINE
  5
2A6
100
AcDbEntity
  8
0
100
AcDbLine
 62
7
  6
CONTINUOUS
 10
-1.0577278839
 20
29.7651672683
 11
-1.0577278839
 21
28.5649559614
  0
LINE
  5
2A7
100
AcDbEntity
  8
0
100
AcDbLine
 62
7
  6
CONTINUOUS
 10
-1.0577278839
 20
27.6913327652
 11
-1.0577278839
 21
26.4911214583
  0
LINE
  5
2A8
100
AcDbEntity
  8
ASSI
100
AcDbLine
 62
253
  6
CONTINUOUS
 10
-0.8980256121
 20
25.5456999289
 11
-0.8980256121
 21
18.3034755946
  0
LINE
  5
2A9
100
AcDbEntity
  8
ASSI
100
AcDbLine
 62
253
  6
CONTINUOUS
 10
-0.8980256121
 20
12.443002229
 11
-0.8980256121
 21
-2.6673253905
  0
LINE
  5
2AA
100
AcDbEntity
  8
ASSI
100
AcDbLine
 62
253
  6
CONTINUOUS
 10
-0.6492163458
 20
25.4020405769
 11
-0.6492163458
 21
18.1598162426
  0
LINE
  5
2AB
100
AcDbEntity
  8
ASSI
100
AcDbLine
 62
253
  6
CONTINUOUS
 10
-0.6492163458
 20
12.2993428769
 11
-0.6492163458
 21
-2.8934976275
  0
LINE
  5
2AC
100
AcDbEntity
  8
0
100
AcDbLine
 62
7
  6
CONTINUOUS
 10
-0.5627531371
 20
29.4794026714
 11
-0.5627531371
 21
28.8507205583
  0
LINE
  5
2AD
100
AcDbEntity
  8
0
100
AcDbLine
 62
7
  6
CONTINUOUS
 10
-0.5627531371
 20
27.4055681683
 11
-0.5627531371
 21
26.7768860552
  0
LINE
  5
2AE
100
AcDbEntity
  8
ASSI
100
AcDbLine
 62
253
  6
CONTINUOUS
 10
-0.525787403
 20
25.3307742522
 11
-0.525787403
 21
18.0885499179
  0
LINE
  5
2AF
100
AcDbEntity
  8
ASSI
100
AcDbLine
 62
253
  6
CONTINUOUS
 10
-0.525787403
 20
12.2280765522
 11
-0.525787403
 21
-3.0056968254
  0
LINE
  5
2B0
100
AcDbEntity
  8
ASSI
100
AcDbLine
 62
253
  6
CONTINUOUS
 10
-0.4100805896
 20
25.2639665883
 11
-0.4100805896
 21
18.021742254
  0
LINE
  5
2B1
100
AcDbEntity
  8
ASSI
100
AcDbLine
 62
253
  6
CONTINUOUS
 10
-0.4100805896
 20
12.1612688884
 11
-0.4100805896
 21
-3.1108764644
  0
LINE
  5
2B2
100
AcDbEntity
  8
0
100
AcDbLine
 62
7
  6
CONTINUOUS
 10
-0.3506211027
 20
26.8993684332
 11
-0.3506211027
 21
27.2830581719
  0
LINE
  5
2B3
100
AcDbEntity
  8
0
100
AcDbLine
 62
7
  6
CONTINUOUS
 10
-0.3506211027
 20
28.9732029363
 11
-0.3506211027
 21
29.356892675
  0
LINE
  5
2B4
100
AcDbEntity
  8
0
100
AcDbLine
 62
7
  6
CONTINUOUS
 10
-0.2551616872
 20
34.9725562265
 11
-0.2551616872
 21
34.2377329774
  0
LWPOLYLINE
  5
2B5
100
AcDbEntity
  8
RACCORDO
100
AcDbPolyline
 62
253
  6
CONTINUOUS
 90
10
 70
0
 10
6.4415761785
 20
14.3937007302
 10
6.3748097312
 20
14.3765771135
 10
6.3044402589
 20
14.3633169302
 10
6.2328842924
 20
14.3544162556
 10
6.1601624666
 20
14.3500388076
 10
6.0862541466
 20
14.3500208682
 10
6.0135139591
 20
14.3543673595
 10
5.9419219926
 20
14.3632411473
 10
5.8714981585
 20
14.3764793658
 10
5.804656818
 20
14.3935983384
  0
LWPOLYLINE
  5
2B6
100
AcDbEntity
  8
RACCORDO
100
AcDbPolyline
 62
253
  6
CONTINUOUS
 90
6
 70
0
 10
-7.4699012047
 20
18.390329264
 10
-7.4941852019
 20
18.4019251064
 10
-7.517748696
 20
18.4083257757
 10
-7.5398915277
 20
18.4093405085
 10
-7.5599556837
 20
18.4049385087
 10
-7.5699060452
 20
18.4002374947
  0
LWPOLYLINE
  5
2B7
100
AcDbEntity
  8
RACCORDO
100
AcDbPolyline
 62
253
  6
CONTINUOUS
 90
16
 70
0
 10
5.7694419364
 20
10.1774418701
 10
5.8083515132
 20
10.1574955023
 10
5.8507013159
 20
10.1399850045
 10
5.8960254438
 20
10.1250967209
 10
5.9438191186
 20
10.1129880474
 10
5.9935639558
 20
10.1037870617
 10
6.044736077
 20
10.0975951662
 10
6.0967902798
 20
10.0944824692
 10
6.1491427559
 20
10.0944842362
 10
6.2011987343
 20
10.0976004786
 10
6.2523784108
 20
10.103796762
 10
6.3021318633
 20
10.113003343
 10
6.3499231667
 20
10.1251159671
 10
6.3952316812
 20
10.1400035676
 10
6.4375587258
 20
10.1575080656
 10
6.4764410218
 20
10.1774418701
  0
LWPOLYLINE
  5
2B8
100
AcDbEntity
  8
RACCORDO
100
AcDbPolyline
 62
253
  6
CONTINUOUS
 90
16
 70
0
 10
5.6280421193
 20
11.0441874184
 10
5.6831940167
 20
11.0156388687
 10
5.7419489318
 20
10.990953774
 10
5.8043068647
 20
10.9701321345
 10
5.8710733311
 20
10.953008611
 10
5.9414428153
 20
10.9397485426
 10
6.0129987696
 20
10.9308479463
 10
6.0857205381
 20
10.9264705153
 10
6.1596287766
 20
10.9264525564
 10
6.2323689048
 20
10.9307990065
 10
6.3039608537
 20
10.9396727242
 10
6.3743846923
 20
10.9529108509
 10
6.4412260475
 20
10.9700297475
 10
6.5036801281
 20
10.9908682012
 10
6.5625517252
 20
11.0155874248
 10
6.6178408388
 20
11.0441874184
  0
LWPOLYLINE
  5
2B9
100
AcDbEntity
  8
RACCORDO
100
AcDbPolyline
 62
253
  6
CONTINUOUS
 90
16
 70
0
 10
5.9108417534
 20
10.4195285334
 10
5.9342416488
 20
10.407363953
 10
5.9592753777
 20
10.3968269978
 10
5.98594294
 20
10.3879176677
 10
6.0146114495
 20
10.380549296
 10
6.0449137925
 20
10.3748085494
 10
6.0757486278
 20
10.3709554284
 10
6.1071156433
 20
10.3690806011
 10
6.1390151511
 20
10.3690933992
 10
6.1703467462
 20
10.3709818182
 10
6.2010831874
 20
10.3748214057
 10
6.2312517159
 20
10.3805366139
 10
6.25983365
 20
10.3878887956
 10
6.2864894292
 20
10.3967984015
 10
6.3115586141
 20
10.4073449808
 10
6.3350412047
 20
10.4195285334
  0
LWPOLYLINE
  5
2BA
100
AcDbEntity
  8
RACCORDO
100
AcDbPolyline
 62
253
  6
CONTINUOUS
 90
16
 70
0
 10
5.7694419364
 20
11.2862740818
 10
5.8083479565
 20
11.2657471825
 10
5.8507011545
 20
11.2477325226
 10
5.896037162
 20
11.2324177579
 10
5.9438618754
 20
11.219956863
 10
5.9936483813
 20
11.2104855321
 10
6.0448416976
 20
11.2041180336
 10
6.0968667605
 20
11.2009242503
 10
6.1491668883
 20
11.2009287852
 10
6.2012008004
 20
11.2041326849
 10
6.2524271817
 20
11.2105158538
 10
6.3022525123
 20
11.2200090937
 10
6.3500749486
 20
11.2324860529
 10
6.3953584811
 20
11.2477992598
 10
6.4376320991
 20
11.2657927168
 10
6.4764410218
 20
11.2862740818
  0
LINE
  5
2BB
100
AcDbEntity
  8
RACCORDO
100
AcDbLine
 62
253
  6
CONTINUOUS
 10
-7.6113010218
 20
17.903315154
 11
5.7694419364
 21
10.1774418701
  0
LINE
  5
2BC
100
AcDbEntity
  8
RACCORDO
100
AcDbLine
 62
253
  6
CONTINUOUS
 10
-7.4699012047
 20
18.1454018174
 11
5.9108417534
 21
10.4195285334
  0
LINE
  5
2BD
100
AcDbEntity
  8
RACCORDO
100
AcDbLine
 62
253
  6
CONTINUOUS
 10
-6.388029982
 20
17.9821168529
 11
5.6280421193
 21
11.0441874184
  0
LINE
  5
2BE
100
AcDbEntity
  8
RACCORDO
100
AcDbLine
 62
253
  6
CONTINUOUS
 10
-6.2466301649
 20
18.2242035163
 11
5.7694419364
 21
11.2862740818
  0
LWPOLYLINE
  5
2BF
100
AcDbEntity
  8
RACCORDO
100
AcDbPolyline
 62
253
  6
CONTINUOUS
 90
10
 70
0
 10
6.3350412047
 20
10.4195285334
 10
6.3593286339
 20
10.4030791591
 10
6.3828943695
 20
10.3822663388
 10
6.4050381625
 20
10.3577085194
 10
6.4251020168
 20
10.3301354291
 10
6.4424897409
 20
10.300366394
 10
6.4566846637
 20
10.2692859923
 10
6.4672649875
 20
10.2378177686
 10
6.473916321
 20
10.206896792
 10
6.4764410218
 20
10.1774418701
  0
LINE
  5
2C0
100
AcDbEntity
  8
ASSI
100
AcDbLine
 62
253
  6
CONTINUOUS
 10
-0.0
 20
25.0271911954
 11
-0.0
 21
17.7849668611
  0
LINE
  5
2C1
100
AcDbEntity
  8
ASSI
100
AcDbLine
 62
253
  6
CONTINUOUS
 10
-0.0
 20
11.9244934954
 11
-0.0
 21
-3.4870864216
  0
LINE
  5
2C2
100
AcDbEntity
  8
0
100
AcDbLine
 62
7
  6
CONTINUOUS
 10
0.038287627
 20
25.8582958387
 11
0.038287627
 21
27.0585071456
  0
LINE
  5
2C3
100
AcDbEntity
  8
0
100
AcDbLine
 62
7
  6
CONTINUOUS
 10
0.038287627
 20
27.9321303417
 11
0.038287627
 21
29.1323416486
  0
LINE
  5
2C4
100
AcDbEntity
  8
ASSI
100
AcDbLine
 62
253
  6
CONTINUOUS
 10
0.2488092663
 20
24.8835318433
 11
0.2488092663
 21
17.641307509
  0
LINE
  5
2C5
100
AcDbEntity
  8
ASSI
100
AcDbLine
 62
253
  6
CONTINUOUS
 10
0.2488092663
 20
11.7808341434
 11
0.2488092663
 21
-3.7228396051
  0
LINE
  5
2C6
100
AcDbEntity
  8
ASSI
100
AcDbLine
 62
253
  6
CONTINUOUS
 10
0.3722382091
 20
24.8122655187
 11
0.3722382091
 21
17.5700411844
  0
LINE
  5
2C7
100
AcDbEntity
  8
ASSI
100
AcDbLine
 62
253
  6
CONTINUOUS
 10
0.3722382091
 20
11.7095678187
 11
0.3722382091
 21
-3.8397917052
  0
LINE
  5
2C8
100
AcDbEntity
  8
ASSI
100
AcDbLine
 62
253
  6
CONTINUOUS
 10
0.4879450225
 20
24.7454578548
 11
0.4879450225
 21
17.5032335205
  0
LINE
  5
2C9
100
AcDbEntity
  8
ASSI
100
AcDbLine
 62
253
  6
CONTINUOUS
 10
0.4879450225
 20
11.6427601548
 11
0.4879450225
 21
-3.9494268889
  0
LINE
  5
2CA
100
AcDbEntity
  8
0
100
AcDbLine
 62
7
  6
CONTINUOUS
 10
0.862067027
 20
34.2294964666
 11
0.862067027
 21
34.8174828999
  0
LINE
  5
2CB
100
AcDbEntity
  8
ASSI
100
AcDbLine
 62
253
  6
CONTINUOUS
 10
0.8980256121
 20
24.5086824619
 11
0.8980256121
 21
17.2664581276
  0
LINE
  5
2CC
100
AcDbEntity
  8
ASSI
100
AcDbLine
 62
253
  6
CONTINUOUS
 10
0.8980256121
 20
11.4059847619
 11
0.8980256121
 21
-4.3324269035
  0
LINE
  5
2CD
100
AcDbEntity
  8
0
100
AcDbLine
 62
7
  6
CONTINUOUS
 10
0.9327777052
 20
24.4886170389
 11
0.9327777052
 21
29.4690857273
  0
LINE
  5
2CE
100
AcDbEntity
  8
ASSI
100
AcDbLine
 62
253
  6
CONTINUOUS
 10
1.1468348784
 20
24.6122109679
 11
1.1468348784
 21
17.1227987755
  0
LINE
  5
2CF
100
AcDbEntity
  8
ASSI
100
AcDbLine
 62
253
  6
CONTINUOUS
 10
1.1468348784
 20
11.2623254099
 11
1.1468348784
 21
-4.5063761559
  0
LINE
  5
2D0
100
AcDbEntity
  8
ASSI
100
AcDbLine
 62
253
  6
CONTINUOUS
 10
1.2702638212
 20
24.6834772926
 11
1.2702638212
 21
17.0515324508
  0
LINE
  5
2D1
100
AcDbEntity
  8
ASSI
100
AcDbLine
 62
253
  6
CONTINUOUS
 10
1.2702638212
 20
11.1910590852
 11
1.2702638212
 21
-4.5926686508
  0
LINE
  5
2D2
100
AcDbEntity
  8
ASSI
100
AcDbLine
 62
253
  6
CONTINUOUS
 10
1.3859706346
 20
24.7502849565
 11
1.3859706346
 21
16.984724787
  0
LINE
  5
2D3
100
AcDbEntity
  8
ASSI
100
AcDbLine
 62
253
  6
CONTINUOUS
 10
1.3859706346
 20
11.1242514213
 11
1.3859706346
 21
-4.6735623971
  0
LWPOLYLINE
  5
2D4
100
AcDbEntity
  8
RACCORDO
100
AcDbPolyline
 62
253
  6
CONTINUOUS
 90
3
 70
0
 10
5.804656818
 20
14.3935983384
 10
5.7422027582
 20
14.4144368398
 10
5.6833311919
 20
14.4391560954
  0
LWPOLYLINE
  5
2D5
100
AcDbEntity
  8
RACCORDO
100
AcDbPolyline
 62
253
  6
CONTINUOUS
 90
13
 70
0
 10
5.7694419364
 20
13.2070861155
 10
5.8186111015
 20
13.1830722085
 10
5.8729854288
 20
13.1628381283
 10
5.9316349196
 20
13.1467299519
 10
5.9935564554
 20
13.1350231886
 10
6.057690951
 20
13.1279180677
 10
6.1229414688
 20
13.1255361136
 10
6.1881919852
 20
13.1279180661
 10
6.2523264793
 20
13.1350231851
 10
6.3142480167
 20
13.1467299469
 10
6.3728975131
 20
13.1628381231
 10
6.427271848
 20
13.1830722048
 10
6.4764410218
 20
13.2070861155
  0
LINE
  5
2D6
100
AcDbEntity
  8
RACCORDO
100
AcDbLine
 62
253
  6
CONTINUOUS
 10
-6.1895526577
 20
20.1120597127
 11
5.7694419364
 21
13.2070861155
  0
LWPOLYLINE
  5
2D7
100
AcDbEntity
  8
RACCORDO
100
AcDbPolyline
 62
253
  6
CONTINUOUS
 90
10
 70
0
 10
6.6178408388
 20
11.0441874184
 10
6.5935534096
 20
11.0606367928
 10
6.569987674
 20
11.081449613
 10
6.547843881
 20
11.1060074325
 10
6.5277800268
 20
11.1335805228
 10
6.5103923027
 20
11.1633495578
 10
6.4961973798
 20
11.1944299596
 10
6.485617056
 20
11.2258981832
 10
6.4789657226
 20
11.2568191598
 10
6.4764410218
 20
11.2862740818
  0
LWPOLYLINE
  5
2D8
100
AcDbEntity
  8
RACCORDO
100
AcDbPolyline
 62
253
  6
CONTINUOUS
 90
15
 70
0
 10
-4.7502921509
 20
20.463371677
 10
-4.793045287
 20
20.4972960123
 10
-4.8291071913
 20
20.5333006891
 10
-4.8587642547
 20
20.5718507989
 10
-4.8817300862
 20
20.6124812503
 10
-4.8971455136
 20
20.6537967686
 10
-4.9047269876
 20
20.6957854394
 10
-4.9047580574
 20
20.738459177
 10
-4.8972301988
 20
20.7804584497
 10
-4.8818613376
 20
20.8217947539
 10
-4.8589335478
 20
20.8624565931
 10
-4.8292845277
 20
20.9010499453
 10
-4.7931935099
 20
20.9371101367
 10
-4.7503812616
 20
20.9711018413
 10
-4.7008477829
 20
21.0030250589
  0
LINE
  5
2D9
100
AcDbEntity
  8
0
100
AcDbLine
 62
7
  6
CONTINUOUS
 10
1.654026622
 20
33.8702148245
 11
1.654026622
 21
33.1353915754
  0
LINE
  5
2DA
100
AcDbEntity
  8
ASSI
100
AcDbLine
 62
253
  6
CONTINUOUS
 10
1.7960512242
 20
33.3848704376
 11
1.7960512242
 21
32.0252329882
  0
LINE
  5
2DB
100
AcDbEntity
  8
ASSI
100
AcDbLine
 62
253
  6
CONTINUOUS
 10
1.7960512242
 20
24.9870603494
 11
1.7960512242
 21
16.747949394
  0
LINE
  5
2DC
100
AcDbEntity
  8
ASSI
100
AcDbLine
 62
253
  6
CONTINUOUS
 10
1.7960512242
 20
10.8874760284
 11
1.7960512242
 21
-4.9602607707
  0
LINE
  5
2DD
100
AcDbEntity
  8
ASSI
100
AcDbLine
 62
253
  6
CONTINUOUS
 10
2.0448604905
 20
33.3180627737
 11
2.0448604905
 21
32.1688923403
  0
LINE
  5
2DE
100
AcDbEntity
  8
ASSI
100
AcDbLine
 62
253
  6
CONTINUOUS
 10
2.0448604905
 20
25.1307197015
 11
2.0448604905
 21
16.604290042
  0
LINE
  5
2DF
100
AcDbEntity
  8
ASSI
100
AcDbLine
 62
253
  6
CONTINUOUS
 10
2.0448604905
 20
10.7438166763
 11
2.0448604905
 21
-5.1342100231
  0
LINE
  5
2E0
100
AcDbEntity
  8
ASSI
100
AcDbLine
 62
253
  6
CONTINUOUS
 10
2.1682894333
 20
33.2467964491
 11
2.1682894333
 21
32.2401586649
  0
LINE
  5
2E1
100
AcDbEntity
  8
ASSI
100
AcDbLine
 62
253
  6
CONTINUOUS
 10
2.1682894333
 20
25.2019860261
 11
2.1682894333
 21
16.5330237173
  0
LINE
  5
2E2
100
AcDbEntity
  8
ASSI
100
AcDbLine
 62
253
  6
CONTINUOUS
 10
2.1682894333
 20
10.6725503517
 11
2.1682894333
 21
-5.220502518
  0
LINE
  5
2E3
100
AcDbEntity
  8
ASSI
100
AcDbLine
 62
253
  6
CONTINUOUS
 10
2.2839962467
 20
33.103137097
 11
2.2839962467
 21
32.3069663288
  0
LINE
  5
2E4
100
AcDbEntity
  8
ASSI
100
AcDbLine
 62
253
  6
CONTINUOUS
 10
2.2839962467
 20
25.26879369
 11
2.2839962467
 21
16.4662160534
  0
LINE
  5
2E5
100
AcDbEntity
  8
ASSI
100
AcDbLine
 62
253
  6
CONTINUOUS
 10
2.2839962467
 20
10.6057426878
 11
2.2839962467
 21
-5.3013962643
  0
LINE
  5
2E6
100
AcDbEntity
  8
0
100
AcDbLine
 62
7
  6
CONTINUOUS
 10
2.6864025225
 20
32.9476641723
 11
2.6864025225
 21
33.7641344491
  0
LINE
  5
2E7
100
AcDbEntity
  8
ASSI
100
AcDbLine
 62
253
  6
CONTINUOUS
 10
2.6940768363
 20
32.8663617041
 11
2.6940768363
 21
32.5437417217
  0
LINE
  5
2E8
100
AcDbEntity
  8
ASSI
100
AcDbLine
 62
253
  6
CONTINUOUS
 10
2.6940768363
 20
25.5055690829
 11
2.6940768363
 21
16.2294406605
  0
LINE
  5
2E9
100
AcDbEntity
  8
ASSI
100
AcDbLine
 62
253
  6
CONTINUOUS
 10
2.6940768363
 20
10.3689672949
 11
2.6940768363
 21
-5.5880946379
  0
LINE
  5
2EA
100
AcDbEntity
  8
0
100
AcDbLine
 62
7
  6
CONTINUOUS
 10
2.7166762769
 20
28.2579934259
 11
2.7166762769
 21
27.5254772148
  0
LINE
  5
2EB
100
AcDbEntity
  8
0
100
AcDbLine
 62
253
  6
CONTINUOUS
 10
2.7712553362
 20
26.9404054685
 11
2.7712553362
 21
27.3463655905
  0
LINE
  5
2EC
100
AcDbEntity
  8
0
100
AcDbLine
 62
253
  6
CONTINUOUS
 10
2.7712553362
 20
28.7180356555
 11
2.7712553362
 21
29.140325183
  0
LINE
  5
2ED
100
AcDbEntity
  8
ASSI
100
AcDbLine
 62
253
  6
CONTINUOUS
 10
2.9428861026
 20
32.7995540402
 11
2.9428861026
 21
32.6874010738
  0
LINE
  5
2EE
100
AcDbEntity
  8
ASSI
100
AcDbLine
 62
253
  6
CONTINUOUS
 10
2.9428861026
 20
25.649228435
 11
2.9428861026
 21
16.0857813085
  0
LINE
  5
2EF
100
AcDbEntity
  8
ASSI
100
AcDbLine
 62
253
  6
CONTINUOUS
 10
2.9428861026
 20
10.2253079428
 11
2.9428861026
 21
-5.7620438903
  0
LINE
  5
2F0
100
AcDbEntity
  8
0
100
AcDbLine
 62
253
  6
CONTINUOUS
 10
3.0540980487
 20
29.2370539103
 11
3.0540980487
 21
28.7180356555
  0
LINE
  5
2F1
100
AcDbEntity
  8
0
100
AcDbLine
 62
253
  6
CONTINUOUS
 10
3.0540980487
 20
27.3306541126
 11
3.0540980487
 21
26.8436767411
  0
LINE
  5
2F2
100
AcDbEntity
  8
ASSI
100
AcDbLine
 62
253
  6
CONTINUOUS
 10
3.0663150455
 20
25.7204947597
 11
3.0663150455
 21
16.0145149838
  0
LINE
  5
2F3
100
AcDbEntity
  8
ASSI
100
AcDbLine
 62
253
  6
CONTINUOUS
 10
3.0663150455
 20
10.1540416181
 11
3.0663150455
 21
-5.8483363852
  0
LINE
  5
2F4
100
AcDbEntity
  8
ASSI
100
AcDbLine
 62
253
  6
CONTINUOUS
 10
3.1820218588
 20
25.7873024235
 11
3.1820218588
 21
15.9477073199
  0
LINE
  5
2F5
100
AcDbEntity
  8
ASSI
100
AcDbLine
 62
253
  6
CONTINUOUS
 10
3.1820218588
 20
10.0872339542
 11
3.1820218588
 21
-5.9292301315
  0
LINE
  5
2F6
100
AcDbEntity
  8
0
100
AcDbLine
 62
7
  6
CONTINUOUS
 10
3.1957847667
 20
26.8971142668
 11
3.1957847667
 21
26.9379377806
  0
LINE
  5
2F7
100
AcDbEntity
  8
0
100
AcDbLine
 62
7
  6
CONTINUOUS
 10
3.1957847667
 20
28.3096078456
 11
3.1957847667
 21
28.366760765
  0
LINE
  5
2F8
100
AcDbEntity
  8
0
100
AcDbLine
 62
7
  6
CONTINUOUS
 10
3.265795034
 20
27.20842296
 11
3.265794899
 21
27.9409392155
  0
LINE
  5
2F9
100
AcDbEntity
  8
0
100
AcDbLine
 62
253
  6
CONTINUOUS
 10
3.3372061229
 20
27.0195926993
 11
3.3372061229
 21
27.1829025366
  0
LINE
  5
2FA
100
AcDbEntity
  8
0
100
AcDbLine
 62
253
  6
CONTINUOUS
 10
3.3372061229
 20
28.8135522918
 11
3.3372061229
 21
29.0735908565
  0
LWPOLYLINE
  5
2FB
100
AcDbEntity
  8
0
100
AcDbPolyline
 62
7
  6
CONTINUOUS
 90
16
 70
0
 10
3.3957847667
 20
28.9721240792
 10
3.3955821344
 20
28.9643491172
 10
3.3948577392
 20
28.9552743441
 10
3.393607093
 20
28.9459422281
 10
3.3918312066
 20
28.9363721318
 10
3.3895321324
 20
28.9265761588
 10
3.3867050626
 20
28.9165089516
 10
3.3833515954
 20
28.9061920602
 10
3.3794736589
 20
28.8956370536
 10
3.3750600271
 20
28.8847855523
 10
3.3701125792
 20
28.8736617709
 10
3.36463324
 20
28.862278309
 10
3.3586030906
 20
28.8505629201
 10
3.3520151229
 20
28.8385068335
 10
3.3448805995
 20
28.8261625296
 10
3.3372061229
 20
28.8135522918
  0
LWPOLYLINE
  5
2FC
100
AcDbEntity
  8
0
100
AcDbPolyline
 62
7
  6
CONTINUOUS
 90
22
 70
0
 10
3.6763520162
 20
28.0892872581
 10
3.6776286842
 20
28.1272066979
 10
3.6812093282
 20
28.165786091
 10
3.6870939482
 20
28.2050254375
 10
3.6953475158
 20
28.2451438736
 10
3.7059050593
 20
28.285922263
 10
3.7185716638
 20
28.3267031969
 10
3.7333759069
 20
28.3674832214
 10
3.7502892108
 20
28.4082657904
 10
3.7690309272
 20
28.4484038568
 10
3.7896261545
 20
28.4878872426
 10
3.8120497941
 20
28.5267261257
 10
3.835945902
 20
28.5643039928
 10
3.8613358432
 20
28.6006041994
 10
3.8881982525
 20
28.6356433899
 10
3.9161130905
 20
28.6688549843
 10
3.9450976388
 20
28.700215963
 10
3.9751346158
 20
28.7297493455
 10
4.0057521373
 20
28.7569576106
 10
4.0367929086
 20
28.7816749179
 10
4.0684142245
 20
28.8040671077
 10
4.1006160849
 20
28.8241341801
  0
LWPOLYLINE
  5
2FD
100
AcDbEntity
  8
RACCORDO
100
AcDbPolyline
 62
253
  6
CONTINUOUS
 90
6
 70
0
 10
6.6178408388
 20
14.4677561051
 10
6.5930096304
 20
14.4795564962
 10
6.5689508941
 20
14.4859164196
 10
6.5464119557
 20
14.4866389516
 10
6.5260928734
 20
14.481702366
 10
6.5178360088
 20
14.4776643418
  0
LWPOLYLINE
  5
2FE
100
AcDbEntity
  8
RACCORDO
100
AcDbPolyline
 62
253
  6
CONTINUOUS
 90
7
 70
0
 10
-5.836053115
 20
20.7172763711
 10
-5.8818745433
 20
20.7402900428
 10
-5.926938509
 20
20.7560336037
 10
-5.9704831462
 20
20.7642335947
 10
-6.011776648
 20
20.7647431015
 10
-6.0501117476
 20
20.7575437867
 10
-6.0859757297
 20
20.7420985791
  0
LINE
  5
2FF
100
AcDbEntity
  8
RACCORDO
100
AcDbLine
 62
253
  6
CONTINUOUS
 10
5.6833311919
 20
14.4391560954
 11
5.6280421193
 21
14.4677561051
  0
LINE
  5
300
100
AcDbEntity
  8
RACCORDO
100
AcDbLine
 62
253
  6
CONTINUOUS
 10
-5.836053115
 20
20.7172763711
 11
6.1229414791
 21
13.8123027739
  0
LINE
  5
301
100
AcDbEntity
  8
RACCORDO
100
AcDbLine
 62
253
  6
CONTINUOUS
 10
5.6280421193
 20
14.4677561051
 11
-4.7008477829
 21
20.4315276833
  0
LINE
  5
302
100
AcDbEntity
  8
RACCORDO
100
AcDbLine
 62
7
  6
CONTINUOUS
 10
5.7280469513
 20
14.4776643407
 11
-4.6008429489
 21
20.4414359177
  0
LWPOLYLINE
  5
303
100
AcDbEntity
  8
RACCORDO
100
AcDbPolyline
 62
7
  6
CONTINUOUS
 90
7
 70
0
 10
-4.6010010203
 20
20.4415432852
 10
-4.6140971011
 20
20.4494140402
 10
-4.640964225
 20
20.4677950109
 10
-4.6624152373
 20
20.4854871852
 10
-4.6789373498
 20
20.5021017433
 10
-4.6911627275
 20
20.5174670086
 10
-4.6990814475
 20
20.5304865373
  0
LINE
  5
304
100
AcDbEntity
  8
RACCORDO
100
AcDbLine
 62
253
  6
CONTINUOUS
 10
-4.7008477829
 20
20.4315276833
 11
-4.7502921509
 21
20.463371677
  0
LWPOLYLINE
  5
305
100
AcDbEntity
  8
RACCORDO
100
AcDbPolyline
 62
253
  6
CONTINUOUS
 90
13
 70
0
 10
6.1229414791
 20
13.8123027739
 10
6.1687627321
 20
13.7824031364
 10
6.2138266609
 20
13.7461080193
 10
6.2573713912
 20
13.7040236922
 10
6.2986652242
 20
13.6568481102
 10
6.3370007097
 20
13.6053797755
 10
6.371711426
 20
13.5505101638
 10
6.4022692085
 20
13.4930484832
 10
6.4280809387
 20
13.4340807849
 10
6.4485913614
 20
13.3750003083
 10
6.4635359717
 20
13.3169255779
 10
6.4728313
 20
13.2606624408
 10
6.4764410218
 20
13.2070861155
  0
LWPOLYLINE
  5
306
100
AcDbEntity
  8
RACCORDO
100
AcDbPolyline
 62
253
  6
CONTINUOUS
 90
10
 70
0
 10
-4.7008477829
 20
21.0030250589
 10
-4.676020183
 20
20.9861538189
 10
-4.6519637703
 20
20.9647344383
 10
-4.6294257778
 20
20.9394322394
 10
-4.6091062737
 20
20.9110331513
 10
-4.5916364163
 20
20.8804192978
 10
-4.5775588488
 20
20.8485415969
 10
-4.5673108444
 20
20.8163902241
 10
-4.5612107234
 20
20.7849638554
 10
-4.5594479658
 20
20.7552386471
  0
LWPOLYLINE
  5
307
100
AcDbEntity
  8
0
100
AcDbPolyline
 62
7
  6
CONTINUOUS
 90
9
 70
0
 10
3.3957435692
 20
27.1012476178
 10
3.3954757502
 20
27.107316645
 10
3.3933353387
 20
27.1192584994
 10
3.3889942556
 20
27.1310063659
 10
3.3825134381
 20
27.1425649752
 10
3.3740759134
 20
27.1535702997
 10
3.3637426905
 20
27.1639009968
 10
3.3514527603
 20
27.1736784091
 10
3.3372061229
 20
27.1829025366
  0
LWPOLYLINE
  5
308
100
AcDbEntity
  8
0
100
AcDbPolyline
 62
7
  6
CONTINUOUS
 90
13
 70
0
 10
3.1957847667
 20
26.8971142668
 10
3.1968682884
 20
26.8631599155
 10
3.1999828297
 20
26.8308773549
 10
3.2051283909
 20
26.8002665848
 10
3.2123500602
 20
26.7711936968
 10
3.2216027493
 20
26.7437925993
 10
3.2327511926
 20
26.7184650182
 10
3.2458234881
 20
26.6952416863
 10
3.2607915378
 20
26.6740918708
 10
3.2774357821
 20
26.6553250995
 10
3.2956830345
 20
26.639044548
 10
3.3156064814
 20
26.6251470406
 10
3.3200522132
 20
26.6225031006
  0
LINE
  5
309
100
AcDbEntity
  8
ASSI
100
AcDbLine
 62
253
  6
CONTINUOUS
 10
3.5921024484
 20
26.0240778165
 11
3.5921024484
 21
15.710931927
  0
LINE
  5
30A
100
AcDbEntity
  8
ASSI
100
AcDbLine
 62
253
  6
CONTINUOUS
 10
3.5921024484
 20
9.8504585613
 11
3.5921024484
 21
-6.0162312133
  0
LINE
  5
30B
100
AcDbEntity
  8
0
100
AcDbLine
 62
7
  6
CONTINUOUS
 10
3.6763520162
 20
26.6604642737
 11
3.6763520162
 21
26.6196407598
  0
LINE
  5
30C
100
AcDbEntity
  8
0
100
AcDbLine
 62
7
  6
CONTINUOUS
 10
3.6763520162
 20
28.0321343387
 11
3.6763520162
 21
28.0892872581
  0
LINE
  5
30D
100
AcDbEntity
  8
ASSI
100
AcDbLine
 62
253
  6
CONTINUOUS
 10
3.8409117147
 20
26.1677371685
 11
3.8409117147
 21
15.5672725749
  0
LINE
  5
30E
100
AcDbEntity
  8
ASSI
100
AcDbLine
 62
253
  6
CONTINUOUS
 10
3.8409117147
 20
9.7067992093
 11
3.8409117147
 21
-5.999745385
  0
LINE
  5
30F
100
AcDbEntity
  8
0
100
AcDbLine
 62
7
  6
CONTINUOUS
 10
3.9238418326
 20
28.1750318569
 11
3.9238418326
 21
27.7994787487
  0
LINE
  5
310
100
AcDbEntity
  8
ASSI
100
AcDbLine
 62
253
  6
CONTINUOUS
 10
3.9643406576
 20
26.2390034932
 11
3.9643406576
 21
15.4960062503
  0
LINE
  5
311
100
AcDbEntity
  8
ASSI
100
AcDbLine
 62
253
  6
CONTINUOUS
 10
3.9643406576
 20
9.6355328846
 11
3.9643406576
 21
-5.991567119
  0
LINE
  5
312
100
AcDbEntity
  8
ASSI
100
AcDbLine
 62
253
  6
CONTINUOUS
 10
4.0800474709
 20
26.3058111571
 11
4.0800474709
 21
15.4291985864
  0
LINE
  5
313
100
AcDbEntity
  8
ASSI
100
AcDbLine
 62
253
  6
CONTINUOUS
 10
4.0800474709
 20
9.5687252207
 11
4.0800474709
 21
-5.9839005128
  0
LINE
  5
314
100
AcDbEntity
  8
ASSI
100
AcDbLine
 62
7
  6
CONTINUOUS
 10
4.9784156875
 20
26.8245177061
 11
4.9784156875
 21
14.9104920373
  0
LINE
  5
315
100
AcDbEntity
  8
ASSI
100
AcDbLine
 62
7
  6
CONTINUOUS
 10
4.9784156875
 20
9.0500186717
 11
4.9784156875
 21
-5.9243756229
  0
LINE
  5
316
100
AcDbEntity
  8
0
100
AcDbLine
 62
7
  6
CONTINUOUS
 10
5.0723984541
 20
27.9727797515
 11
5.0723984541
 21
28.5851324591
  0
LWPOLYLINE
  5
317
100
AcDbEntity
  8
RACCORDO
100
AcDbPolyline
 62
7
  6
CONTINUOUS
 90
16
 70
0
 10
6.5177983431
 20
14.4776590942
 10
6.4809942885
 20
14.4584240735
 10
6.4369817344
 20
14.439719958
 10
6.3878018802
 20
14.4230684168
 10
6.3339720821
 20
14.4089776744
 10
6.2763736088
 20
14.3979591138
 10
6.2162195725
 20
14.3904233639
 10
6.1544803378
 20
14.3865838027
 10
6.0921047481
 20
14.3865608022
 10
6.0303376123
 20
14.3903602577
 10
5.9701214935
 20
14.3978643626
 10
5.9124290832
 20
14.4088604731
 10
5.8585074012
 20
14.4229413642
 10
5.8092354228
 20
14.4395936398
 10
5.765121437
 20
14.4583066661
 10
5.7280912548
 20
14.4776514305
  0
LINE
  5
318
100
AcDbEntity
  8
RACCORDO
100
AcDbLine
 62
253
  6
CONTINUOUS
 10
6.6178408388
 20
14.4677561051
 11
6.5626889771
 21
14.4392075468
  0
LWPOLYLINE
  5
319
100
AcDbEntity
  8
RACCORDO
100
AcDbPolyline
 62
253
  6
CONTINUOUS
 90
7
 70
0
 10
13.9807167423
 20
18.3492837298
 10
14.0265379953
 20
18.3722973268
 10
14.0716019241
 20
18.3880409051
 10
14.1151466545
 20
18.3962409411
 10
14.1564404874
 20
18.3967504424
 10
14.1947759729
 20
18.3895509654
 10
14.230639357
 20
18.3741059378
  0
LWPOLYLINE
  5
31A
100
AcDbEntity
  8
RACCORDO
100
AcDbPolyline
 62
253
  6
CONTINUOUS
 90
6
 70
0
 10
5.6280421193
 20
14.4677561051
 10
5.6528697193
 20
14.4795551553
 10
5.6769261319
 20
14.4859155171
 10
5.6994641244
 20
14.486639627
 10
5.7197836285
 20
14.4817049928
 10
5.7280469513
 20
14.4776643407
  0
LWPOLYLINE
  5
31B
100
AcDbEntity
  8
RACCORDO
100
AcDbPolyline
 62
253
  6
CONTINUOUS
 90
3
 70
0
 10
6.5626889771
 20
14.4392075468
 10
6.5039340904
 20
14.4145224218
 10
6.4415761785
 20
14.3937007302
  0
LINE
  5
31C
100
AcDbEntity
  8
0
100
AcDbLine
 62
7
  6
CONTINUOUS
 10
-3.7341270507
 20
32.1636980433
 11
-3.4866396773
 21
31.6125667972
  0
LINE
  5
31D
100
AcDbEntity
  8
0
100
AcDbLine
 62
7
  6
CONTINUOUS
 10
-1.9097915552
 20
31.1103495925
 11
-1.6623041818
 21
30.5592183464
  0
LINE
  5
31E
100
AcDbEntity
  8
0
100
AcDbLine
 62
7
  6
CONTINUOUS
 10
5.231551829
 20
31.8286734886
 11
5.231551829
 21
30.6856151011
  0
LINE
  5
31F
100
AcDbEntity
  8
0
100
AcDbLine
 62
7
  6
CONTINUOUS
 10
5.2456939647
 20
31.8205079968
 11
5.2456939647
 21
30.6774496093
  0
LINE
  5
320
100
AcDbEntity
  8
0
100
AcDbLine
 62
7
  6
CONTINUOUS
 10
5.5289717829
 20
27.1424018955
 11
5.5289717829
 21
27.1994380283
  0
LINE
  5
321
100
AcDbEntity
  8
0
100
AcDbLine
 62
7
  6
CONTINUOUS
 10
5.5289717829
 20
32.0004000424
 11
5.5289717829
 21
32.1228705839
  0
LINE
  5
322
100
AcDbEntity
  8
RACCORDO
100
AcDbLine
 62
253
  6
CONTINUOUS
 10
5.7694419364
 20
8.7695618728
 11
5.7694419364
 21
10.1774418701
  0
LINE
  5
323
100
AcDbEntity
  8
RACCORDO
100
AcDbLine
 62
253
  6
CONTINUOUS
 10
5.7694419364
 20
11.2862740818
 11
5.7694419364
 21
13.2070861155
  0
LINE
  5
324
100
AcDbEntity
  8
0
100
AcDbLine
 62
7
  6
CONTINUOUS
 10
5.8754541057
 20
28.2404822153
 11
5.8754541057
 21
28.8528349229
  0
LINE
  5
325
100
AcDbEntity
  8
0
100
AcDbLine
 62
7
  6
CONTINUOUS
 10
5.8895962413
 20
28.967151809
 11
5.8895962413
 21
29.3100338158
  0
LINE
  5
326
100
AcDbEntity
  8
0
100
AcDbLine
 62
7
  6
CONTINUOUS
 10
5.9815201228
 20
28.3017234043
 11
5.9815201228
 21
28.9140761119
  0
LINE
  5
327
100
AcDbEntity
  8
0
100
AcDbLine
 62
7
  6
CONTINUOUS
 10
6.2077942928
 20
28.1220873178
 11
6.2077942928
 21
29.4937573828
  0
LINE
  5
328
100
AcDbEntity
  8
RACCORDO
100
AcDbLine
 62
253
  6
CONTINUOUS
 10
6.4764410218
 20
8.7695618728
 11
6.4764410218
 21
10.1774418701
  0
LINE
  5
329
100
AcDbEntity
  8
RACCORDO
100
AcDbLine
 62
253
  6
CONTINUOUS
 10
6.4764410218
 20
11.2862740818
 11
6.4764410218
 21
13.2070861155
  0
LWPOLYLINE
  5
32A
100
AcDbEntity
  8
RACCORDO
100
AcDbPolyline
 62
253
  6
CONTINUOUS
 90
10
 70
0
 10
12.8455114102
 20
18.6350324176
 10
12.8206802007
 20
18.6181583509
 10
12.7966214634
 20
18.5967358482
 10
12.7740825242
 20
18.5714309786
 10
12.7537634411
 20
18.5430304256
 10
12.7362949638
 20
18.5124165992
 10
12.7222191132
 20
18.4805401113
 10
12.7119727533
 20
18.4483909107
 10
12.705873885
 20
18.4169676127
 10
12.7041115909
 20
18.3872460069
  0
LWPOLYLINE
  5
32B
100
AcDbEntity
  8
RACCORDO
100
AcDbPolyline
 62
253
  6
CONTINUOUS
 90
13
 70
0
 10
6.1229414791
 20
13.8123027739
 10
6.0771200508
 20
13.7824030088
 10
6.0320560851
 20
13.7461078316
 10
5.9885114479
 20
13.7040235671
 10
5.9472179461
 20
13.656848373
 10
5.9088828465
 20
13.6053806462
 10
5.8741722052
 20
13.550511322
 10
5.8436140487
 20
13.4930490993
 10
5.8178018769
 20
13.4340804174
 10
5.7972912938
 20
13.3749993058
 10
5.7823467687
 20
13.3169245703
 10
5.7730515711
 20
13.2606617878
 10
5.7694419186
 20
13.2070861259
  0
LINE
  5
32C
100
AcDbEntity
  8
RACCORDO
100
AcDbLine
 62
253
  6
CONTINUOUS
 10
12.8950448888
 20
18.0954582596
 11
12.8455114102
 21
18.063535042
  0
LINE
  5
32D
100
AcDbEntity
  8
RACCORDO
100
AcDbLine
 62
7
  6
CONTINUOUS
 10
12.7455065781
 20
18.0734432775
 11
6.5178360088
 21
14.4776643418
  0
LINE
  5
32E
100
AcDbEntity
  8
RACCORDO
100
AcDbLine
 62
253
  6
CONTINUOUS
 10
12.8455114102
 20
18.063535042
 11
6.6178408388
 21
14.4677561051
  0
LINE
  5
32F
100
AcDbEntity
  8
RACCORDO
100
AcDbLine
 62
253
  6
CONTINUOUS
 10
6.1229414791
 20
13.8123027739
 11
13.9807167423
 21
18.3492837298
  0
LINE
  5
330
100
AcDbEntity
  8
RACCORDO
100
AcDbLine
 62
253
  6
CONTINUOUS
 10
6.4764410218
 20
13.2070861155
 11
14.334216285
 21
17.7440670714
  0
LINE
  5
331
100
AcDbEntity
  8
RACCORDO
100
AcDbLine
 62
253
  6
CONTINUOUS
 10
4.9784156875
 20
19.4670986525
 11
10.0688243352
 21
16.5279604971
  0
LINE
  5
332
100
AcDbEntity
  8
0
100
AcDbLine
 62
7
  6
CONTINUOUS
 10
-0.5546049636
 20
33.4115278143
 11
-0.7642785697
 21
33.8784513352
  0
LWPOLYLINE
  5
333
100
AcDbEntity
  8
ASSI
100
AcDbPolyline
 62
7
  6
CONTINUOUS
 90
10
 70
0
 10
2.2839962467
 20
33.103137097
 10
2.2800590761
 20
33.1211367142
 10
2.2738329501
 20
33.1387004288
 10
2.2653178686
 20
33.1558282411
 10
2.2544349383
 20
33.1726181032
 10
2.2412630527
 20
33.1889720629
 10
2.2260388914
 20
33.204596263
 10
2.2088413477
 20
33.2193927512
 10
2.1895915283
 20
33.2334594799
 10
2.1682894333
 20
33.2467964491
  0
LINE
  5
334
100
AcDbEntity
  8
0
100
AcDbLine
 62
7
  6
CONTINUOUS
 10
7.6220078552
 20
30.3103065695
 11
7.6220078552
 21
28.9386365044
  0
LINE
  5
335
100
AcDbEntity
  8
0
100
AcDbLine
 62
7
  6
CONTINUOUS
 10
7.7205676988
 20
32.1064106859
 11
7.7205676988
 21
31.8619483791
  0
LINE
  5
336
100
AcDbEntity
  8
0
100
AcDbLine
 62
7
  6
CONTINUOUS
 10
8.1094764285
 20
32.3309617122
 11
8.1094764285
 21
33.0657849613
  0
LINE
  5
337
100
AcDbEntity
  8
0
100
AcDbLine
 62
7
  6
CONTINUOUS
 10
8.3569638019
 20
29.869246618
 11
8.3569638019
 21
29.5757960946
  0
LINE
  5
338
100
AcDbEntity
  8
0
100
AcDbLine
 62
7
  6
CONTINUOUS
 10
8.3569638019
 20
31.4945012451
 11
8.3569638019
 21
31.7389635519
  0
LINE
  5
339
100
AcDbEntity
  8
0
100
AcDbLine
 62
7
  6
CONTINUOUS
 10
8.5412466707
 20
31.3880986262
 11
8.5412466707
 21
30.8410635408
  0
LINE
  5
33A
100
AcDbEntity
  8
0
100
AcDbLine
 62
7
  6
CONTINUOUS
 10
8.5412466707
 20
29.4693934758
 11
8.5412466707
 21
28.9386877959
  0
LWPOLYLINE
  5
33B
100
AcDbEntity
  8
RACCORDO
100
AcDbPolyline
 62
253
  6
CONTINUOUS
 90
8
 70
0
 10
14.334216285
 20
17.7440670714
 10
14.3773112165
 20
17.7733252975
 10
14.4136229381
 20
17.8054522053
 10
14.4425303857
 20
17.8398983079
 10
14.4635391356
 20
17.8760744521
 10
14.4762898596
 20
17.9133618935
 10
14.4805644722
 20
17.9511228783
 10
14.4804883746
 20
17.9561587036
  0
LWPOLYLINE
  5
33C
100
AcDbEntity
  8
RACCORDO
100
AcDbPolyline
 62
253
  6
CONTINUOUS
 90
10
 70
0
 10
5.6280421193
 20
11.0441874184
 10
5.6523330584
 20
11.060639527
 10
5.6759010692
 20
11.0814553578
 10
5.6980458153
 20
11.1060157591
 10
5.7181093057
 20
11.1335902889
 10
5.7354957283
 20
11.1633593406
 10
5.7496889991
 20
11.1944386071
 10
5.7602677104
 20
11.2259047431
 10
5.7669177756
 20
11.2568227257
 10
5.7694419364
 20
11.2862740818
  0
LWPOLYLINE
  5
33D
100
AcDbEntity
  8
RACCORDO
100
AcDbPolyline
 62
253
  6
CONTINUOUS
 90
10
 70
0
 10
5.9108417534
 20
10.4195285334
 10
5.8865577708
 20
10.403081833
 10
5.8629942854
 20
10.3822719749
 10
5.8408514567
 20
10.3577167225
 10
5.8207872965
 20
10.3301451358
 10
5.8033983369
 20
10.3003762425
 10
5.7892017796
 20
10.2692947907
 10
5.7786198177
 20
10.2378244813
 10
5.7719671805
 20
10.2069004615
 10
5.7694419152
 20
10.1774418826
  0
LWPOLYLINE
  5
33E
100
AcDbEntity
  8
RACCORDO
100
AcDbPolyline
 62
253
  6
CONTINUOUS
 90
9
 70
0
 10
14.3912937921
 20
15.856210875
 10
14.4263331299
 20
15.8783790987
 10
14.4571096381
 20
15.9025886145
 10
14.4832865526
 20
15.9285645148
 10
14.5045787668
 20
15.9560108676
 10
14.5207515529
 20
15.9846236053
 10
14.5316262072
 20
16.014093375
 10
14.5370860079
 20
16.0440906315
 10
14.5376932905
 20
16.064087602
  0
LINE
  5
33F
100
AcDbEntity
  8
RACCORDO
100
AcDbLine
 62
253
  6
CONTINUOUS
 10
6.4764410218
 20
11.2862740818
 11
14.3912937921
 21
15.856210875
  0
LINE
  5
340
100
AcDbEntity
  8
RACCORDO
100
AcDbLine
 62
253
  6
CONTINUOUS
 10
6.6178408388
 20
11.0441874184
 11
14.5326936092
 21
15.6141242116
  0
LINE
  5
341
100
AcDbEntity
  8
RACCORDO
100
AcDbLine
 62
253
  6
CONTINUOUS
 10
6.3350412047
 20
10.4195285334
 11
15.6145648319
 21
15.7774091761
  0
LWPOLYLINE
  5
342
100
AcDbEntity
  8
RACCORDO
100
AcDbPolyline
 62
253
  6
CONTINUOUS
 90
6
 70
0
 10
15.6145648319
 20
16.0223366227
 10
15.6388522612
 20
16.0339337629
 10
15.6624179967
 20
16.0403340634
 10
15.6845617897
 20
16.041347341
 10
15.704625644
 20
16.0369434867
 10
15.714569664
 20
16.0322448583
  0
LWPOLYLINE
  5
343
100
AcDbEntity
  8
RACCORDO
100
AcDbPolyline
 62
253
  6
CONTINUOUS
 90
6
 70
0
 10
12.8455114102
 20
18.063535042
 10
12.8206838102
 20
18.0753340921
 10
12.7966273975
 20
18.0816944539
 10
12.774089405
 20
18.0824185638
 10
12.753769901
 20
18.0774839297
 10
12.745730255
 20
18.0735718493
  0
LINE
  5
344
100
AcDbEntity
  8
RACCORDO
100
AcDbLine
 62
253
  6
CONTINUOUS
 10
4.9784156875
 20
20.2906708876
 11
10.7820128629
 21
16.9397466147
  0
LINE
  5
345
100
AcDbEntity
  8
0
100
AcDbLine
 62
7
  6
CONTINUOUS
 10
-7.3120873635
 20
29.2490987971
 11
0.9327777052
 21
24.4886170389
  0
LINE
  5
346
100
AcDbEntity
  8
RACCORDO
100
AcDbLine
 62
253
  6
CONTINUOUS
 10
15.6145648319
 20
16.0223366227
 11
14.5198453698
 21
16.6544139201
  0
LWPOLYLINE
  5
347
100
AcDbEntity
  8
RACCORDO
100
AcDbPolyline
 62
253
  6
CONTINUOUS
 90
10
 70
0
 10
14.5326936092
 20
15.6141242116
 10
14.5084026685
 20
15.6305763192
 10
14.4848346563
 20
15.6513921492
 10
14.4626899089
 20
15.6759525498
 10
14.442626417
 20
15.7035270788
 10
14.4252399932
 20
15.7332961298
 10
14.4110467223
 20
15.7643753962
 10
14.4004680122
 20
15.7958415329
 10
14.3938179494
 20
15.8267595168
 10
14.3912937921
 20
15.856210875
  0
LINE
  5
348
100
AcDbEntity
  8
0
100
AcDbLine
 62
7
  6
CONTINUOUS
 10
1.3075442992
 20
32.2739716384
 11
1.0717040525
 21
32.799165822
  0
LINE
  5
349
100
AcDbEntity
  8
0
100
AcDbLine
 62
7
  6
CONTINUOUS
 10
8.7458725315
 20
29.5141037479
 11
8.7458725315
 21
31.9635145782
  0
LWPOLYLINE
  5
34A
100
AcDbEntity
  8
RACCORDO
100
AcDbPolyline
 62
7
  6
CONTINUOUS
 90
7
 70
0
 10
12.843580327
 20
18.1621909365
 10
12.8355263989
 20
18.1490423078
 10
12.8230310925
 20
18.1334746151
 10
12.8062092339
 20
18.1167094933
 10
12.7849247197
 20
18.0992671139
 10
12.7590345297
 20
18.0815839985
 10
12.7457247445
 20
18.0735812523
  0
LWPOLYLINE
  5
34B
100
AcDbEntity
  8
RACCORDO
100
AcDbPolyline
 62
253
  6
CONTINUOUS
 90
9
 70
0
 10
6.3729535631
 20
8.5335376678
 10
6.389095893
 20
8.544147906
 10
6.4123702532
 20
8.5649716721
 10
6.4322672938
 20
8.5902368657
 10
6.4486253822
 20
8.6196317097
 10
6.4612768655
 20
8.6527107828
 10
6.470139443
 20
8.689019069
 10
6.4751906256
 20
8.7281262562
 10
6.4764410171
 20
8.7695618702
  0
LWPOLYLINE
  5
34C
100
AcDbEntity
  8
RACCORDO
100
AcDbPolyline
 62
253
  6
CONTINUOUS
 90
9
 70
0
 10
15.755964649
 20
15.5353225127
 10
15.7909895667
 20
15.5580649954
 10
15.821748366
 20
15.5827664881
 10
15.8479066371
 20
15.6091512459
 10
15.8691781248
 20
15.6369199316
 10
15.8853367783
 20
15.6657707954
 10
15.8962120085
 20
15.695404263
 10
15.9016819001
 20
15.7255052572
 10
15.9023017146
 20
15.7452493197
  0
LWPOLYLINE
  5
34D
100
AcDbEntity
  8
RACCORDO
100
AcDbPolyline
 62
253
  6
CONTINUOUS
 90
15
 70
0
 10
14.5326936092
 20
15.6141242116
 10
14.5821379622
 20
15.645968226
 10
14.6248910458
 20
15.6798925776
 10
14.66095286
 20
15.7158972665
 10
14.6906097619
 20
15.7544473874
 10
14.7135753944
 20
15.7950778457
 10
14.7289906862
 20
15.8363933568
 10
14.7365721306
 20
15.8783819946
 10
14.7366032344
 20
15.9210556852
 10
14.729075447
 20
15.9630549236
 10
14.7137067073
 20
16.0043912176
 10
14.6907790765
 20
16.0450530594
 10
14.661130188
 20
16.0836464201
 10
14.6250392528
 20
16.1197066236
 10
14.5822270599
 20
16.1536983459
  0
LWPOLYLINE
  5
34E
100
AcDbEntity
  8
RACCORDO
100
AcDbPolyline
 62
253
  6
CONTINUOUS
 90
11
 70
0
 10
15.6145648319
 20
15.7774091761
 10
15.6356331459
 20
15.7909199824
 10
15.653882512
 20
15.8053741437
 10
15.6693129302
 20
15.8207716599
 10
15.6820745021
 20
15.837324498
 10
15.6920171262
 20
15.8548206911
 10
15.6986904977
 20
15.8726243385
 10
15.7019375846
 20
15.8907352602
 10
15.701915419
 20
15.9091536362
 10
15.6986447921
 20
15.9272441065
 10
15.69199486
 20
15.9449909424
  0
LINE
  5
34F
100
AcDbEntity
  8
RACCORDO
100
AcDbLine
 62
253
  6
CONTINUOUS
 10
6.4764410218
 20
10.1774418701
 11
15.755964649
 21
15.5353225127
  0
LINE
  5
350
100
AcDbEntity
  8
RACCORDO
100
AcDbLine
 62
253
  6
CONTINUOUS
 10
15.7978002265
 20
14.1515978535
 11
6.4764410218
 21
8.7695618728
  0
LINE
  5
351
100
AcDbEntity
  8
RACCORDO
100
AcDbLine
 62
7
  6
CONTINUOUS
 10
15.6943127638
 20
13.9155736463
 11
6.3729535591
 21
8.5335376655
  0
LWPOLYLINE
  5
352
100
AcDbEntity
  8
RACCORDO
100
AcDbPolyline
 62
253
  6
CONTINUOUS
 90
13
 70
0
 10
6.4764410218
 20
8.7695618728
 10
6.427271848
 20
8.7455479622
 10
6.3728975131
 20
8.7253138804
 10
6.3142480167
 20
8.7092057042
 10
6.2523264793
 20
8.6974989424
 10
6.1881919852
 20
8.6903938234
 10
6.1229414688
 20
8.6880118709
 10
6.057690951
 20
8.690393825
 10
5.9935564554
 20
8.6974989459
 10
5.9316349196
 20
8.7092057093
 10
5.8729854288
 20
8.7253138856
 10
5.8186111015
 20
8.7455479658
 10
5.7694419364
 20
8.7695618728
  0
LINE
  5
353
100
AcDbEntity
  8
RACCORDO
100
AcDbLine
 62
253
  6
CONTINUOUS
 10
14.230639357
 20
18.3741059378
 11
14.2307288223
 21
18.3740543186
  0
LINE
  5
354
100
AcDbEntity
  8
RACCORDO
100
AcDbLine
 62
7
  6
CONTINUOUS
 10
15.714569664
 20
16.0322448583
 11
14.5177637052
 21
16.7232656193
  0
LINE
  5
355
100
AcDbEntity
  8
RACCORDO
100
AcDbLine
 62
253
  6
CONTINUOUS
 10
4.9784156875
 20
22.8479659959
 11
12.7041115931
 21
18.3872460058
  0
LINE
  5
356
100
AcDbEntity
  8
0
100
AcDbLine
 62
7
  6
CONTINUOUS
 10
-6.4458815565
 20
29.6021738595
 11
-5.3498660457
 21
28.9693482398
  0
LINE
  5
357
100
AcDbEntity
  8
0
100
AcDbLine
 62
7
  6
CONTINUOUS
 10
-4.6498303323
 20
28.5651563924
 11
-3.5538148215
 21
27.9323307728
  0
LINE
  5
358
100
AcDbEntity
  8
0
100
AcDbLine
 62
7
  6
CONTINUOUS
 10
-2.8537791081
 20
27.5281389254
 11
-1.7577635973
 21
26.8953133057
  0
LINE
  5
359
100
AcDbEntity
  8
0
100
AcDbLine
 62
7
  6
CONTINUOUS
 10
-1.0577278839
 20
26.4911214583
 11
0.038287627
 21
25.8582958387
  0
LINE
  5
35A
100
AcDbEntity
  8
RACCORDO
100
AcDbLine
 62
253
  6
CONTINUOUS
 10
4.9784156875
 20
23.17739489
 11
12.8455114102
 21
18.6350324176
  0
LINE
  5
35B
100
AcDbEntity
  8
RACCORDO
100
AcDbLine
 62
253
  6
CONTINUOUS
 10
13.9807167423
 20
18.3492837298
 11
4.9784156875
 21
23.5470995335
  0
LINE
  5
35C
100
AcDbEntity
  8
0
100
AcDbLine
 62
7
  6
CONTINUOUS
 10
-5.9509068097
 20
29.8879384564
 11
-5.3498660457
 21
29.540905052
  0
LINE
  5
35D
100
AcDbEntity
  8
0
100
AcDbLine
 62
7
  6
CONTINUOUS
 10
-4.1548555855
 20
28.8509209893
 11
-3.5538148215
 21
28.503887585
  0
LINE
  5
35E
100
AcDbEntity
  8
0
100
AcDbLine
 62
7
  6
CONTINUOUS
 10
-2.3588043613
 20
27.8139035223
 11
-1.7577635973
 21
27.4668701179
  0
LINE
  5
35F
100
AcDbEntity
  8
0
100
AcDbLine
 62
7
  6
CONTINUOUS
 10
-0.5627531371
 20
26.7768860552
 11
0.038287627
 21
26.4298526509
  0
LINE
  5
360
100
AcDbEntity
  8
RACCORDO
100
AcDbLine
 62
7
  6
CONTINUOUS
 10
14.2307288223
 20
18.3740543186
 11
4.9784156875
 21
23.716223964
  0
LINE
  5
361
100
AcDbEntity
  8
0
100
AcDbLine
 62
7
  6
CONTINUOUS
 10
-5.7387747753
 20
30.0104208344
 11
-5.3498660457
 21
29.785869808
  0
LINE
  5
362
100
AcDbEntity
  8
0
100
AcDbLine
 62
7
  6
CONTINUOUS
 10
-3.9427235511
 20
28.9734033673
 11
-3.5538148215
 21
28.748852341
  0
LINE
  5
363
100
AcDbEntity
  8
0
100
AcDbLine
 62
7
  6
CONTINUOUS
 10
-2.1466723269
 20
27.9363859003
 11
-1.7577635973
 21
27.7118348739
  0
LINE
  5
364
100
AcDbEntity
  8
0
100
AcDbLine
 62
7
  6
CONTINUOUS
 10
-0.3506211027
 20
26.8993684332
 11
0.038287627
 21
26.6748174069
  0
LINE
  5
365
100
AcDbEntity
  8
0
100
AcDbLine
 62
7
  6
CONTINUOUS
 10
0.038287627
 20
27.0585071456
 11
-1.0577278839
 21
27.6913327652
  0
LINE
  5
366
100
AcDbEntity
  8
0
100
AcDbLine
 62
7
  6
CONTINUOUS
 10
-1.7577635973
 20
28.0955246126
 11
-2.8537791081
 21
28.7283502323
  0
LINE
  5
367
100
AcDbEntity
  8
0
100
AcDbLine
 62
7
  6
CONTINUOUS
 10
-3.5538148215
 20
29.1325420797
 11
-4.6498303323
 21
29.7653676993
  0
LINE
  5
368
100
AcDbEntity
  8
0
100
AcDbLine
 62
7
  6
CONTINUOUS
 10
-5.3498660457
 20
30.1695595467
 11
-6.4458815565
 21
30.8023851664
  0
LWPOLYLINE
  5
369
100
AcDbEntity
  8
RACCORDO
100
AcDbPolyline
 62
253
  6
CONTINUOUS
 90
15
 70
0
 10
12.8455114102
 20
18.6350324176
 10
12.8949557781
 20
18.6031884238
 10
12.9377089143
 20
18.5692640886
 10
12.9737708186
 20
18.5332594118
 10
13.0034278819
 20
18.4947093019
 10
13.0263937134
 20
18.4540788505
 10
13.0418091408
 20
18.4127633323
 10
13.0493906148
 20
18.3707746615
 10
13.0494216847
 20
18.3281009238
 10
13.0418938261
 20
18.2861016512
 10
13.0265249648
 20
18.244765347
 10
13.0035971751
 20
18.2041035078
 10
12.973948155
 20
18.1655101555
 10
12.9378571371
 20
18.1294499641
 10
12.8950448888
 20
18.0954582596
  0
LINE
  5
36A
100
AcDbEntity
  8
RACCORDO
100
AcDbLine
 62
253
  6
CONTINUOUS
 10
14.5822270599
 20
16.1536983459
 11
14.5326936092
 21
16.1856215872
  0
LWPOLYLINE
  5
36B
100
AcDbEntity
  8
RACCORDO
100
AcDbPolyline
 62
253
  6
CONTINUOUS
 90
9
 70
0
 10
12.7041115931
 20
18.3872460058
 10
12.7391509309
 20
18.3644865326
 10
12.7699274391
 20
18.3397876371
 10
12.7961043536
 20
18.3134106522
 10
12.8173965678
 20
18.2856302248
 10
12.8335693539
 20
18.2567507534
 10
12.8444440082
 20
18.2271037647
 10
12.8499038089
 20
18.1970237826
 10
12.8504250552
 20
18.1892534414
  0
LWPOLYLINE
  5
36C
100
AcDbEntity
  8
RACCORDO
100
AcDbPolyline
 62
253
  6
CONTINUOUS
 90
13
 70
0
 10
13.9807167423
 20
18.3492837298
 10
14.0265381705
 20
18.3193839647
 10
14.0716021363
 20
18.2830887876
 10
14.1151467734
 20
18.241004523
 10
14.1564402753
 20
18.193829329
 10
14.1947753748
 20
18.1423616021
 10
14.2294860161
 20
18.0874922779
 10
14.2600441739
 20
18.0300300559
 10
14.2858563471
 20
17.9710613748
 10
14.3063669276
 20
17.9119802617
 10
14.3213114447
 20
17.8539055217
 10
14.3306066305
 20
17.7976427323
 10
14.3342162672
 20
17.7440670612
  0
LWPOLYLINE
  5
36D
100
AcDbEntity
  8
RACCORDO
100
AcDbPolyline
 62
253
  6
CONTINUOUS
 90
10
 70
0
 10
15.6145648319
 20
15.7774091761
 10
15.6388488291
 20
15.760962484
 10
15.6624123233
 20
15.740152631
 10
15.6845551549
 20
15.7155973802
 10
15.7046193109
 20
15.6880257912
 10
15.7220082605
 20
15.658256892
 10
15.7362048059
 20
15.6271754334
 10
15.7467867555
 20
15.5957051169
 10
15.7534393785
 20
15.5647810889
 10
15.7559646278
 20
15.5353225008
  0
LINE
  5
36E
100
AcDbEntity
  8
RACCORDO
100
AcDbLine
 62
253
  6
CONTINUOUS
 10
15.6943127638
 20
13.9155736463
 11
15.7104556348
 21
13.9261842858
  0
LWPOLYLINE
  5
36F
100
AcDbEntity
  8
0
100
AcDbPolyline
 62
7
  6
CONTINUOUS
 90
17
 70
0
 10
3.0540980487
 20
26.8436767411
 10
3.04648273
 20
26.8479254103
 10
3.0385114692
 20
26.8520940968
 10
3.0302078269
 20
26.8561731354
 10
3.0215981504
 20
26.8601489398
 10
3.012705476
 20
26.86401822
 10
3.0035487857
 20
26.8677873685
 10
2.994145729
 20
26.8714502686
 10
2.9845299122
 20
26.8749991825
 10
2.9747455693
 20
26.8784402413
 10
2.964831893
 20
26.8817653689
 10
2.9548056251
 20
26.8849780313
 10
2.9446778559
 20
26.8881030514
 10
2.9344712
 20
26.891138096
 10
2.9242174647
 20
26.8940820664
 10
2.9139409624
 20
26.8969611401
 10
2.9036760331
 20
26.8997722712
  0
LINE
  5
370
100
AcDbEntity
  8
0
100
AcDbLine
 62
7
  6
CONTINUOUS
 10
-6.4458815565
 20
31.6760083626
 11
-5.3498660457
 21
31.0431827429
  0
LINE
  5
371
100
AcDbEntity
  8
0
100
AcDbLine
 62
7
  6
CONTINUOUS
 10
-4.6498303323
 20
30.6389908955
 11
-3.5538148215
 21
30.0061652758
  0
LINE
  5
372
100
AcDbEntity
  8
0
100
AcDbLine
 62
7
  6
CONTINUOUS
 10
-2.8537791081
 20
29.6019734284
 11
-1.7577635973
 21
28.9691478088
  0
LINE
  5
373
100
AcDbEntity
  8
0
100
AcDbLine
 62
7
  6
CONTINUOUS
 10
-1.0577278839
 20
28.5649559614
 11
0.038287627
 21
27.9321303417
  0
LINE
  5
374
100
AcDbEntity
  8
0
100
AcDbLine
 62
7
  6
CONTINUOUS
 10
-5.9509068097
 20
31.9617729594
 11
-5.3498660457
 21
31.6147395551
  0
LINE
  5
375
100
AcDbEntity
  8
0
100
AcDbLine
 62
7
  6
CONTINUOUS
 10
-4.1548555855
 20
30.9247554924
 11
-3.5538148215
 21
30.577722088
  0
LINE
  5
376
100
AcDbEntity
  8
0
100
AcDbLine
 62
7
  6
CONTINUOUS
 10
-2.3588043613
 20
29.8877380253
 11
-1.7577635973
 21
29.540704621
  0
LINE
  5
377
100
AcDbEntity
  8
0
100
AcDbLine
 62
7
  6
CONTINUOUS
 10
-0.5627531371
 20
28.8507205583
 11
0.038287627
 21
28.5036871539
  0
LINE
  5
378
100
AcDbEntity
  8
0
100
AcDbLine
 62
7
  6
CONTINUOUS
 10
3.8006015888
 20
26.3449986432
 11
3.3200343393
 21
26.6224721501
  0
LINE
  5
379
100
AcDbEntity
  8
0
100
AcDbLine
 62
7
  6
CONTINUOUS
 10
3.0540980487
 20
26.8436767411
 11
3.2202734775
 21
26.7477291312
  0
LINE
  5
37A
100
AcDbEntity
  8
0
100
AcDbLine
 62
253
  6
CONTINUOUS
 10
3.1957847667
 20
26.8971142668
 11
3.6763520162
 21
26.6196407598
  0
LINE
  5
37B
100
AcDbEntity
  8
0
100
AcDbLine
 62
7
  6
CONTINUOUS
 10
0.038287627
 20
28.7486519099
 11
-0.3506211027
 21
28.9732029363
  0
LINE
  5
37C
100
AcDbEntity
  8
0
100
AcDbLine
 62
7
  6
CONTINUOUS
 10
-1.7577635973
 20
29.785669377
 11
-2.1466723269
 21
30.0102204033
  0
LINE
  5
37D
100
AcDbEntity
  8
0
100
AcDbLine
 62
7
  6
CONTINUOUS
 10
-3.5538148215
 20
30.822686844
 11
-3.9427235511
 21
31.0472378704
  0
LINE
  5
37E
100
AcDbEntity
  8
0
100
AcDbLine
 62
7
  6
CONTINUOUS
 10
-5.3498660457
 20
31.8597043111
 11
-5.7387747753
 21
32.0842553374
  0
LINE
  5
37F
100
AcDbEntity
  8
0
100
AcDbLine
 62
7
  6
CONTINUOUS
 10
3.1957847667
 20
26.9379377806
 11
3.6763520162
 21
26.6604642737
  0
LINE
  5
380
100
AcDbEntity
  8
0
100
AcDbLine
 62
7
  6
CONTINUOUS
 10
2.7166762769
 20
27.5254772148
 11
3.2657949773
 21
27.2084229592
  0
LINE
  5
381
100
AcDbEntity
  8
0
100
AcDbLine
 62
7
  6
CONTINUOUS
 10
3.3372061229
 20
27.1829025366
 11
3.2923522213
 21
27.2088006172
  0
LWPOLYLINE
  5
382
100
AcDbEntity
  8
0
100
AcDbPolyline
 62
7
  6
CONTINUOUS
 90
12
 70
0
 10
3.8006171739
 20
26.3450256357
 10
3.7896261545
 20
26.3518469109
 10
3.7690309272
 20
26.3675474445
 10
3.7502892108
 20
26.3860430466
 10
3.7333759069
 20
26.4072945561
 10
3.7185716638
 20
26.4309790118
 10
3.7059050593
 20
26.4571328684
 10
3.6953475158
 20
26.4857196712
 10
3.6870939482
 20
26.5163070943
 10
3.6812093282
 20
26.5487510291
 10
3.6776286842
 20
26.5831955843
 10
3.6763520162
 20
26.6196407598
  0
LINE
  5
383
100
AcDbEntity
  8
0
100
AcDbLine
 62
7
  6
CONTINUOUS
 10
2.8631792178
 20
32.6414779548
 11
2.6864025225
 21
32.9476641723
  0
LINE
  5
384
100
AcDbEntity
  8
RACCORDO
100
AcDbLine
 62
253
  6
CONTINUOUS
 10
12.8504250552
 20
18.1892534414
 11
12.8505083645
 21
18.1870013411
  0
LINE
  5
385
100
AcDbEntity
  8
RACCORDO
100
AcDbLine
 62
253
  6
CONTINUOUS
 10
12.7041115931
 20
18.3872460058
 11
12.7141465593
 21
18.0553363957
  0
LWPOLYLINE
  5
386
100
AcDbEntity
  8
RACCORDO
100
AcDbPolyline
 62
7
  6
CONTINUOUS
 90
4
 70
0
 10
12.850422234
 20
18.1891518013
 10
12.8502634725
 20
18.1818200335
 10
12.8481088241
 20
18.1726841485
 10
12.843580327
 20
18.1621909365
  0
LWPOLYLINE
  5
387
100
AcDbEntity
  8
RACCORDO
100
AcDbPolyline
 62
7
  6
CONTINUOUS
 90
4
 70
0
 10
15.8470703879
 20
14.0523083741
 10
15.8036003753
 20
14.0008672345
 10
15.7532132234
 20
13.9554218842
 10
15.6942601211
 20
13.9155432638
  0
LWPOLYLINE
  5
388
100
AcDbEntity
  8
RACCORDO
100
AcDbPolyline
 62
253
  6
CONTINUOUS
 90
8
 70
0
 10
15.7104556348
 20
13.9261842858
 10
15.7337297223
 20
13.9470079354
 10
15.7536264391
 20
13.9722727571
 10
15.7699842657
 20
14.0016669984
 10
15.7826357197
 20
14.0347456317
 10
15.7914984364
 20
14.0710538977
 10
15.796549771
 20
14.1101614435
 10
15.7978002265
 20
14.1515978535
  0
LWPOLYLINE
  5
389
100
AcDbEntity
  8
0
100
AcDbPolyline
 62
7
  6
CONTINUOUS
 90
13
 70
0
 10
3.2657950998
 20
27.6073399791
 10
3.3331272641
 20
27.6101239185
 10
3.3981415032
 20
27.6153142641
 10
3.4608378172
 20
27.6229110158
 10
3.5211662425
 20
27.6329085968
 10
3.5791767427
 20
27.645312584
 10
3.6350192081
 20
27.6601397076
 10
3.6887808606
 20
27.6774156066
 10
3.7403744782
 20
27.697114642
 10
3.7896882854
 20
27.7191766264
 10
3.8366850234
 20
27.7435814974
 10
3.881401951
 20
27.7703493174
 10
3.923839068
 20
27.7994800864
  0
LINE
  5
38A
100
AcDbEntity
  8
0
100
AcDbLine
 62
7
  6
CONTINUOUS
 10
3.7607697242
 20
27.2154617614
 11
3.265795034
 21
27.20842296
  0
LWPOLYLINE
  5
38B
100
AcDbEntity
  8
0
100
AcDbPolyline
 62
7
  6
CONTINUOUS
 90
12
 70
0
 10
2.980307261
 20
27.3732599886
 10
2.9642066281
 20
27.3762689787
 10
2.9438589312
 20
27.378774945
 10
2.9231758544
 20
27.380010134
 10
2.9021655064
 20
27.380009743
 10
2.8814829405
 20
27.3787738962
 10
2.8611363497
 20
27.3762674092
 10
2.8411175409
 20
27.3725254664
 10
2.8220569878
 20
27.3676537454
 10
2.8041648482
 20
27.361687472
 10
2.7872309644
 20
27.3545914203
 10
2.7712553362
 20
27.3463655905
  0
LWPOLYLINE
  5
38C
100
AcDbEntity
  8
0
100
AcDbPolyline
 62
7
  6
CONTINUOUS
 90
11
 70
0
 10
2.9036760331
 20
26.8997722712
 10
2.8530995106
 20
26.9132846766
 10
2.8432599455
 20
26.9159840765
 10
2.8335667002
 20
26.9187032528
 10
2.8240179026
 20
26.9214930224
 10
2.8146470347
 20
26.9243495877
 10
2.8054843744
 20
26.9272789425
 10
2.7965294006
 20
26.9303421092
 10
2.7878084587
 20
26.9335590232
 10
2.7793709062
 20
26.9369122056
 10
2.7712553362
 20
26.9404054685
  0
LINE
  5
38D
100
AcDbEntity
  8
0
100
AcDbLine
 62
7
  6
CONTINUOUS
 10
0.038287627
 20
29.1323416486
 11
-1.0577278839
 21
29.7651672683
  0
LINE
  5
38E
100
AcDbEntity
  8
0
100
AcDbLine
 62
7
  6
CONTINUOUS
 10
-1.7577635973
 20
30.1693591157
 11
-2.8537791081
 21
30.8021847353
  0
LINE
  5
38F
100
AcDbEntity
  8
0
100
AcDbLine
 62
7
  6
CONTINUOUS
 10
-3.5538148215
 20
31.2063765827
 11
-4.6498303323
 21
31.8392022024
  0
LINE
  5
390
100
AcDbEntity
  8
0
100
AcDbLine
 62
7
  6
CONTINUOUS
 10
-5.3498660457
 20
32.2433940498
 11
-6.4458815565
 21
32.8762196694
  0
LINE
  5
391
100
AcDbEntity
  8
0
100
AcDbLine
 62
7
  6
CONTINUOUS
 10
-3.4866396773
 20
31.6125667972
 11
-2.9209542523
 21
31.2859471225
  0
LINE
  5
392
100
AcDbEntity
  8
0
100
AcDbLine
 62
7
  6
CONTINUOUS
 10
-1.6623041818
 20
30.5592183464
 11
-1.0966187568
 21
30.2325986718
  0
LINE
  5
393
100
AcDbEntity
  8
0
100
AcDbLine
 62
7
  6
CONTINUOUS
 10
3.2657948817
 20
27.9409392577
 11
2.7166762923
 21
28.2579934491
  0
LINE
  5
394
100
AcDbEntity
  8
0
100
AcDbLine
 62
7
  6
CONTINUOUS
 10
-1.881507284
 20
31.0940186088
 11
-1.9097915552
 21
31.1103495925
  0
LINE
  5
395
100
AcDbEntity
  8
0
100
AcDbLine
 62
7
  6
CONTINUOUS
 10
-7.3120873635
 20
34.2295674855
 11
-4.4978023744
 21
32.6046346041
  0
LINE
  5
396
100
AcDbEntity
  8
0
100
AcDbLine
 62
7
  6
CONTINUOUS
 10
-3.7906955932
 20
32.1963600107
 11
-3.7341270507
 21
32.1636980433
  0
LINE
  5
397
100
AcDbEntity
  8
0
100
AcDbLine
 62
7
  6
CONTINUOUS
 10
-2.6734668789
 20
31.5512861533
 11
-2.5886140652
 21
31.5022932021
  0
LINE
  5
398
100
AcDbEntity
  8
0
100
AcDbLine
 62
7
  6
CONTINUOUS
 10
-0.8491313834
 20
30.4979377025
 11
0.9327777052
 21
29.4690857273
  0
LINE
  5
399
100
AcDbEntity
  8
0
100
AcDbLine
 62
7
  6
CONTINUOUS
 10
3.6763520162
 20
28.0321343387
 11
3.1957847667
 21
28.3096078456
  0
LINE
  5
39A
100
AcDbEntity
  8
0
100
AcDbLine
 62
253
  6
CONTINUOUS
 10
3.6763520162
 20
28.0892872581
 11
3.1957847667
 21
28.366760765
  0
LINE
  5
39B
100
AcDbEntity
  8
0
100
AcDbLine
 62
7
  6
CONTINUOUS
 10
3.0540980487
 20
28.7180356555
 11
3.2403852758
 21
28.6104757453
  0
LINE
  5
39C
100
AcDbEntity
  8
0
100
AcDbLine
 62
7
  6
CONTINUOUS
 10
-4.4978023744
 20
33.3394578532
 11
-3.7906955932
 21
32.9311832599
  0
LINE
  5
39D
100
AcDbEntity
  8
0
100
AcDbLine
 62
7
  6
CONTINUOUS
 10
-2.5886140652
 20
32.2371164512
 11
-1.881507284
 21
31.8288418579
  0
LINE
  5
39E
100
AcDbEntity
  8
0
100
AcDbLine
 62
7
  6
CONTINUOUS
 10
3.3372061229
 20
29.0735908565
 11
3.0540980487
 21
29.2370539103
  0
LWPOLYLINE
  5
39F
100
AcDbEntity
  8
0
100
AcDbPolyline
 62
7
  6
CONTINUOUS
 90
17
 70
0
 10
3.3372061229
 20
29.0735908565
 10
3.3444318129
 20
29.0691172205
 10
3.3512376823
 20
29.0642756517
 10
3.3576069915
 20
29.0590797533
 10
3.3635230032
 20
29.0535486607
 10
3.3689732261
 20
29.0476917521
 10
3.3739483507
 20
29.04150822
 10
3.3784396218
 20
29.0350093164
 10
3.3824317994
 20
29.0282133837
 10
3.385909606
 20
29.02113101
 10
3.3888646338
 20
29.0137880458
 10
3.391297306
 20
29.0061909366
 10
3.393207981
 20
28.9983214692
 10
3.3945937188
 20
28.9901933371
 10
3.3954515155
 20
28.9818242695
 10
3.3957807707
 20
28.9732017799
 10
3.3957847667
 20
28.9721240792
  0
LWPOLYLINE
  5
3A0
100
AcDbEntity
  8
RACCORDO
100
AcDbPolyline
 62
253
  6
CONTINUOUS
 90
6
 70
0
 10
15.69199486
 20
15.9449909424
 10
15.6820964666
 20
15.9624098727
 10
15.6693629348
 20
15.9789127232
 10
15.6539320389
 20
15.9943034361
 10
15.6356660046
 20
16.0087780693
 10
15.6145648319
 20
16.0223366227
  0
LWPOLYLINE
  5
3A1
100
AcDbEntity
  8
RACCORDO
100
AcDbPolyline
 62
7
  6
CONTINUOUS
 90
9
 70
0
 10
14.4804883746
 20
17.9561587036
 10
14.4746774899
 20
18.0185167227
 10
14.4608787508
 20
18.0804885063
 10
14.4390749678
 20
18.140817801
 10
14.4094496437
 20
18.1983189285
 10
14.3725129817
 20
18.2516861088
 10
14.3290422034
 20
18.2997537253
 10
14.2794073429
 20
18.3420270768
 10
14.230639357
 20
18.3741059378
  0
LINE
  5
3A2
100
AcDbEntity
  8
RACCORDO
100
AcDbLine
 62
253
  6
CONTINUOUS
 10
14.3912937921
 20
15.856210875
 11
14.334216285
 21
17.7440670714
  0
LINE
  5
3A3
100
AcDbEntity
  8
RACCORDO
100
AcDbLine
 62
7
  6
CONTINUOUS
 10
14.5376906666
 20
16.0641752113
 11
14.4804883746
 21
17.9561587036
  0
LWPOLYLINE
  5
3A4
100
AcDbEntity
  8
RACCORDO
100
AcDbPolyline
 62
7
  6
CONTINUOUS
 90
3
 70
0
 10
15.9113688107
 20
14.1701210735
 10
15.8832426576
 20
14.1091428198
 10
15.8470703879
 20
14.0523083741
  0
LWPOLYLINE
  5
3A5
100
AcDbEntity
  8
0
100
AcDbPolyline
 62
7
  6
CONTINUOUS
 90
30
 70
0
 10
3.0540980487
 20
29.2370539103
 10
3.0464438215
 20
29.2411598324
 10
3.0384800785
 20
29.2448477479
 10
3.0302074127
 20
29.2481160779
 10
3.0216054475
 20
29.250968521
 10
3.0126969624
 20
29.2533951252
 10
3.0035478499
 20
29.2553724635
 10
2.9941521487
 20
29.2568931603
 10
2.9845207076
 20
29.2579528658
 10
2.9747450668
 20
29.2585319887
 10
2.9648403065
 20
29.2586203072
 10
2.9547986464
 20
29.2582126934
 10
2.9446776856
 20
29.2572971224
 10
2.9344795219
 20
29.2558640202
 10
2.9242121713
 20
29.2539050428
 10
2.9139424224
 20
29.2514104394
 10
2.903684922
 20
29.2483734973
 10
2.8934379777
 20
29.2447824048
 10
2.88324431
 20
29.2406203728
 10
2.8731145584
 20
29.2358818348
 10
2.8630547828
 20
29.2305535874
 10
2.8531018127
 20
29.2246075635
 10
2.8432678768
 20
29.2180396327
 10
2.8335622979
 20
29.2108355084
 10
2.8240193133
 20
29.202951594
 10
2.8146533861
 20
29.194385443
 10
2.8054782055
 20
29.1851219743
 10
2.796529878
 20
29.1750977859
 10
2.7878333987
 20
29.1642859433
 10
2.7794015867
 20
29.1526972609
  0
LINE
  5
3A6
100
AcDbEntity
  8
0
100
AcDbLine
 62
253
  6
CONTINUOUS
 10
3.0540980487
 20
29.4283805783
 11
4.1006160849
 21
28.8241341801
  0
LINE
  5
3A7
100
AcDbEntity
  8
0
100
AcDbLine
 62
7
  6
CONTINUOUS
 10
5.939097816
 20
28.277229296
 11
6.2077942928
 21
28.1220873178
  0
LINE
  5
3A8
100
AcDbEntity
  8
0
100
AcDbLine
 62
7
  6
CONTINUOUS
 10
5.9815201228
 20
28.9140761119
 11
5.8895962413
 21
28.967151809
  0
LINE
  5
3A9
100
AcDbEntity
  8
0
100
AcDbLine
 62
7
  6
CONTINUOUS
 10
5.8471698344
 20
29.0324757439
 11
5.8895962413
 21
29.0079792683
  0
LINE
  5
3AA
100
AcDbEntity
  8
0
100
AcDbLine
 62
7
  6
CONTINUOUS
 10
1.3075442992
 20
32.2739716384
 11
1.7671978737
 21
32.0085734253
  0
LWPOLYLINE
  5
3AB
100
AcDbEntity
  8
RACCORDO
100
AcDbPolyline
 62
7
  6
CONTINUOUS
 90
10
 70
0
 10
15.9022554514
 20
15.7452098142
 10
15.8999298254
 20
15.774868376
 10
15.8929374078
 20
15.8114722614
 10
15.8811697697
 20
15.8479570155
 10
15.8644094495
 20
15.8838996005
 10
15.8426849473
 20
15.918608738
 10
15.8163072671
 20
15.9513162209
 10
15.7854771361
 20
15.9816524069
 10
15.7502147536
 20
16.0094341167
 10
15.7145498447
 20
16.0322107474
  0
LINE
  5
3AC
100
AcDbEntity
  8
RACCORDO
100
AcDbLine
 62
253
  6
CONTINUOUS
 10
15.7978002265
 20
14.1515978535
 11
15.755964649
 21
15.5353225127
  0
LINE
  5
3AD
100
AcDbEntity
  8
RACCORDO
100
AcDbLine
 62
7
  6
CONTINUOUS
 10
15.9440723161
 20
14.3636894857
 11
15.9022901779
 21
15.7456466263
  0
LINE
  5
3AE
100
AcDbEntity
  8
RACCORDO
100
AcDbLine
 62
253
  6
CONTINUOUS
 10
15.9440723161
 20
14.3636894857
 11
15.9441484137
 21
14.3586536604
  0
LWPOLYLINE
  5
3AF
100
AcDbEntity
  8
RACCORDO
100
AcDbPolyline
 62
7
  6
CONTINUOUS
 90
4
 70
0
 10
15.9440723161
 20
14.3636894857
 10
15.9418139355
 20
14.2987920418
 10
15.930946647
 20
14.2337989742
 10
15.9113688107
 20
14.1701210735
  0
LWPOLYLINE
  5
3B0
100
AcDbEntity
  8
RACCORDO
100
AcDbPolyline
 62
253
  6
CONTINUOUS
 90
7
 70
0
 10
15.9441484137
 20
14.3586536604
 10
15.939873801
 20
14.3208926756
 10
15.9271230771
 20
14.2836052342
 10
15.9061143272
 20
14.24742909
 10
15.8772068796
 20
14.2129829874
 10
15.840895158
 20
14.1808560796
 10
15.7978002265
 20
14.1515978535
  0
LINE
  5
3B1
100
AcDbEntity
  8
0
100
AcDbLine
 62
7
  6
CONTINUOUS
 10
5.6032179949
 20
30.8144728226
 11
5.8153500292
 21
30.8144728226
  0
LWPOLYLINE
  5
3B2
100
AcDbEntity
  8
ASSI
100
AcDbPolyline
 62
7
  6
CONTINUOUS
 90
10
 70
0
 10
2.9428861026
 20
32.7995540402
 10
2.9197872827
 20
32.8118536029
 10
2.8954245636
 20
32.8229682073
 10
2.8697979453
 20
32.8328978535
 10
2.8427377803
 20
32.8416880934
 10
2.8144137161
 20
32.8492933751
 10
2.7853346953
 20
32.8555770426
 10
2.7556703656
 20
32.860493544
 10
2.7252510792
 20
32.8640884311
 10
2.6940768363
 20
32.8663617041
  0
LINE
  5
3B3
100
AcDbEntity
  8
0
100
AcDbLine
 62
7
  6
CONTINUOUS
 10
5.2456939647
 20
30.6774496093
 11
5.231551829
 21
30.6856151011
  0
LINE
  5
3B4
100
AcDbEntity
  8
0
100
AcDbLine
 62
7
  6
CONTINUOUS
 10
5.5431139185
 20
30.849176163
 11
5.6032179949
 21
30.8144728226
  0
LINE
  5
3B5
100
AcDbEntity
  8
0
100
AcDbLine
 62
7
  6
CONTINUOUS
 10
8.1028445664
 20
29.7225213563
 11
8.5412466707
 21
29.4693934758
  0
LINE
  5
3B6
100
AcDbEntity
  8
ASSI
100
AcDbLine
 62
7
  6
CONTINUOUS
 10
3.0400071632
 20
32.743477557
 11
2.9428861026
 21
32.7995540402
  0
LINE
  5
3B7
100
AcDbEntity
  8
ASSI
100
AcDbLine
 62
7
  6
CONTINUOUS
 10
2.1682894333
 20
33.2467964491
 11
2.0448604905
 21
33.3180627737
  0
LINE
  5
3B8
100
AcDbEntity
  8
0
100
AcDbLine
 62
7
  6
CONTINUOUS
 10
-0.9622684684
 20
35.3808308198
 11
-0.2551616872
 21
34.9725562265
  0
LINE
  5
3B9
100
AcDbEntity
  8
0
100
AcDbLine
 62
7
  6
CONTINUOUS
 10
0.9469198408
 20
34.2784894178
 11
1.654026622
 21
33.8702148245
  0
LINE
  5
3BA
100
AcDbEntity
  8
0
100
AcDbLine
 62
7
  6
CONTINUOUS
 10
5.2456939647
 20
31.8205079968
 11
5.231551829
 21
31.8286734886
  0
LINE
  5
3BB
100
AcDbEntity
  8
ASSI
100
AcDbLine
 62
7
  6
CONTINUOUS
 10
1.500388269
 20
34.0407088039
 11
1.5692250584
 21
34.0009633044
  0
LINE
  5
3BC
100
AcDbEntity
  8
ASSI
100
AcDbLine
 62
7
  6
CONTINUOUS
 10
3.2964394932
 20
33.0036913369
 11
3.3935605538
 21
32.9476148537
  0
LINE
  5
3BD
100
AcDbEntity
  8
0
100
AcDbLine
 62
7
  6
CONTINUOUS
 10
0.862067027
 20
34.5475705105
 11
1.6889912721
 21
34.0701148152
  0
LINE
  5
3BE
100
AcDbEntity
  8
0
100
AcDbLine
 62
7
  6
CONTINUOUS
 10
2.6864025225
 20
33.4942220597
 11
3.5133267676
 21
33.0167663644
  0
LINE
  5
3BF
100
AcDbEntity
  8
0
100
AcDbLine
 62
7
  6
CONTINUOUS
 10
-0.7639949639
 20
35.5522331449
 11
-2.1181763043
 21
36.334120479
  0
LWPOLYLINE
  5
3C0
100
AcDbEntity
  8
ASSI
100
AcDbPolyline
 62
7
  6
CONTINUOUS
 90
10
 70
0
 10
2.6940768363
 20
32.8663617041
 10
2.6225709837
 20
32.8736506295
 10
2.5566755679
 20
32.8861995734
 10
2.4963905887
 20
32.904008536
 10
2.4405495143
 20
32.9277510581
 10
2.3903188767
 20
32.9567535987
 10
2.3491982715
 20
32.9889955352
 10
2.3183542307
 20
33.0238033267
 10
2.2966202225
 20
33.0618505139
 10
2.2839962467
 20
33.103137097
  0
LINE
  5
3C1
100
AcDbEntity
  8
0
100
AcDbLine
 62
7
  6
CONTINUOUS
 10
5.5289717829
 20
32.1228705839
 11
3.7470626943
 21
33.1517225591
  0
LINE
  5
3C2
100
AcDbEntity
  8
0
100
AcDbLine
 62
7
  6
CONTINUOUS
 10
2.6864025225
 20
33.7641344491
 11
1.9227271988
 21
34.2050710099
  0
LINE
  5
3C3
100
AcDbEntity
  8
0
100
AcDbLine
 62
7
  6
CONTINUOUS
 10
0.862067027
 20
34.8174828999
 11
-0.4851831425
 21
35.5953682628
  0
LINE
  5
3C4
100
AcDbEntity
  8
0
100
AcDbLine
 62
7
  6
CONTINUOUS
 10
-2.1181763043
 20
36.5382380482
 11
-2.7158932858
 21
36.8833523421
  0
LINE
  5
3C5
100
AcDbEntity
  8
0
100
AcDbLine
 62
7
  6
CONTINUOUS
 10
7.6750408638
 20
31.8882350031
 11
8.5412466707
 21
31.3880986262
  0
LINE
  5
3C6
100
AcDbEntity
  8
0
100
AcDbLine
 62
7
  6
CONTINUOUS
 10
6.3487805433
 20
32.8166980045
 11
7.0134609176
 21
32.4329593417
  0
LINE
  5
3C7
100
AcDbEntity
  8
0
100
AcDbLine
 62
7
  6
CONTINUOUS
 10
-1.5566732703
 20
37.3812079579
 11
-0.891992896
 21
36.9974692951
  0
LINE
  5
3C8
100
AcDbEntity
  8
0
100
AcDbLine
 62
7
  6
CONTINUOUS
 10
8.3569638019
 20
31.7389635519
 11
7.7205676988
 21
32.1064106859
  0
LINE
  5
3C9
100
AcDbEntity
  8
0
100
AcDbLine
 62
7
  6
CONTINUOUS
 10
8.7458725315
 20
31.9635145782
 11
8.1094764285
 21
32.3309617122
  0
LINE
  5
3CA
100
AcDbEntity
  8
0
100
AcDbLine
 62
7
  6
CONTINUOUS
 10
8.1094764285
 20
33.0657849613
 11
-0.1071043689
 21
37.8099357358
  0
LINE
  5
3CB
100
AcDbEntity
  8
0
100
AcDbLine
 62
7
  6
CONTINUOUS
 10
-2.7158932858
 20
35.2502539688
 11
-0.4851831425
 21
35.5953682628
  0
LINE
  5
3CC
100
AcDbEntity
  8
0
100
AcDbLine
 62
7
  6
CONTINUOUS
 10
2.9767514085
 20
-64.0958788812
 11
-5.2398293889
 21
-59.3517281067
  0
LINE
  5
3CD
100
AcDbEntity
  8
0
100
AcDbLine
 62
7
  6
CONTINUOUS
 10
3.6131475116
 20
-63.728502766
 11
2.9767514085
 21
-63.3610556321
  0
LINE
  5
3CE
100
AcDbEntity
  8
0
100
AcDbLine
 62
7
  6
CONTINUOUS
 10
-5.2398293889
 20
-58.6169048576
 11
-5.8762254919
 21
-58.2494577236
  0
LINE
  5
3CF
100
AcDbEntity
  8
0
100
AcDbLine
 62
7
  6
CONTINUOUS
 10
4.4263203099
 20
-63.6671511032
 11
4.0727669194
 21
-63.4630532615
  0
LINE
  5
3D0
100
AcDbEntity
  8
0
100
AcDbLine
 62
7
  6
CONTINUOUS
 10
4.0020562412
 20
-63.2594894329
 11
4.6097329673
 21
-63.6103543586
  0
LINE
  5
3D1
100
AcDbEntity
  8
0
100
AcDbLine
 62
7
  6
CONTINUOUS
 10
4.6097329673
 20
-63.0633192731
 11
4.1854716369
 21
-62.8183560982
  0
LINE
  5
3D2
100
AcDbEntity
  8
0
100
AcDbLine
 62
7
  6
CONTINUOUS
 10
5.5289717829
 20
-63.13663352
 11
5.4795802252
 21
-63.1081154536
  0
LINE
  5
3D3
100
AcDbEntity
  8
0
100
AcDbLine
 62
7
  6
CONTINUOUS
 10
5.2924233894
 20
-62.3959822241
 11
5.5289717829
 21
-62.5325623018
  0
LINE
  5
3D4
100
AcDbEntity
  8
0
100
AcDbLine
 62
7
  6
CONTINUOUS
 10
-5.2398293889
 20
-56.1674940272
 11
-5.8762254919
 21
-55.8000468932
  0
LINE
  5
3D5
100
AcDbEntity
  8
0
100
AcDbLine
 62
7
  6
CONTINUOUS
 10
2.9767514085
 20
-60.9116448017
 11
3.6131475116
 21
-61.2790919357
  0
LWPOLYLINE
  5
3D6
100
AcDbEntity
  8
RACCORDO
100
AcDbPolyline
 62
7
  6
CONTINUOUS
 90
6
 70
0
 10
-13.1315948713
 20
-41.9744392326
 10
-13.1292632893
 20
-42.0039019959
 10
-13.1222287287
 20
-42.0405598869
 10
-13.1103941213
 20
-42.0770612805
 10
-13.0935888854
 20
-42.1129836018
 10
-13.0718494472
 20
-42.1476532886
  0
LINE
  5
3D7
100
AcDbEntity
  8
RACCORDO
100
AcDbLine
 62
7
  6
CONTINUOUS
 10
-13.1734202259
 20
-40.592474188
 11
-13.1316380905
 21
-41.9744312335
  0
LINE
  5
3D8
100
AcDbEntity
  8
RACCORDO
100
AcDbLine
 62
253
  6
CONTINUOUS
 10
-13.0271481362
 20
-40.7885949669
 11
-12.9853125588
 21
-42.1723196261
  0
LWPOLYLINE
  5
3D9
100
AcDbEntity
  8
RACCORDO
100
AcDbPolyline
 62
7
  6
CONTINUOUS
 90
9
 70
0
 10
-13.1734202259
 20
-40.592474188
 10
-13.1711618454
 20
-40.5275767453
 10
-13.1602945573
 20
-40.4625836789
 10
-13.1407167218
 20
-40.3989057794
 10
-13.1125905698
 20
-40.3379275266
 10
-13.0764183014
 20
-40.2810930814
 10
-13.0329482905
 20
-40.2296519423
 10
-12.9825611406
 20
-40.1842065923
 10
-12.9236080309
 20
-40.1443279661
  0
LWPOLYLINE
  5
3DA
100
AcDbEntity
  8
0
100
AcDbPolyline
 62
7
  6
CONTINUOUS
 90
9
 70
0
 10
8.2598257908
 20
-57.9442111906
 10
8.2316640422
 20
-57.9378360768
 10
8.2022029837
 20
-57.9350430633
 10
8.1712317117
 20
-57.9358609058
 10
8.1389611298
 20
-57.9402608485
 10
8.1060239483
 20
-57.9481566244
 10
8.0726310707
 20
-57.9595194778
 10
8.0385715937
 20
-57.9743781643
 10
8.003845517
 20
-57.992732684
  0
LINE
  5
3DB
100
AcDbEntity
  8
0
100
AcDbLine
 62
7
  6
CONTINUOUS
 10
4.0020562412
 20
-61.3407842824
 11
4.6097329673
 21
-61.6916492081
  0
LINE
  5
3DC
100
AcDbEntity
  8
0
100
AcDbLine
 62
7
  6
CONTINUOUS
 10
-5.2398293889
 20
-55.7183919745
 11
-5.4873167623
 21
-55.5754958669
  0
LINE
  5
3DD
100
AcDbEntity
  8
0
100
AcDbLine
 62
7
  6
CONTINUOUS
 10
3.3656601382
 20
-60.6870937753
 11
4.0020562412
 21
-61.0545409093
  0
LINE
  5
3DE
100
AcDbEntity
  8
0
100
AcDbLine
 62
7
  6
CONTINUOUS
 10
4.6097329673
 20
-61.1609435282
 11
3.7435271604
 21
-60.6608071514
  0
LINE
  5
3DF
100
AcDbEntity
  8
0
100
AcDbLine
 62
7
  6
CONTINUOUS
 10
2.9767514085
 20
-60.1768215526
 11
-5.2398293889
 21
-55.4326707781
  0
LINE
  5
3E0
100
AcDbEntity
  8
0
100
AcDbLine
 62
7
  6
CONTINUOUS
 10
-4.3563195179
 20
-54.9225432516
 11
-4.8089293581
 21
-54.6612120024
  0
LINE
  5
3E1
100
AcDbEntity
  8
0
100
AcDbLine
 62
7
  6
CONTINUOUS
 10
4.0727669194
 20
-59.5439959329
 11
3.7616399356
 21
-59.3643551118
  0
LINE
  5
3E2
100
AcDbEntity
  8
0
100
AcDbLine
 62
7
  6
CONTINUOUS
 10
-3.8326868943
 20
-54.9794859795
 11
-4.143813878
 21
-54.7998451584
  0
LWPOLYLINE
  5
3E3
100
AcDbEntity
  8
RACCORDO
100
AcDbPolyline
 62
253
  6
CONTINUOUS
 90
3
 70
0
 10
-13.1255599183
 20
-42.0144986034
 10
-13.1310298099
 20
-41.9844887089
 10
-13.1316380723
 20
-41.9744318375
  0
LWPOLYLINE
  5
3E4
100
AcDbEntity
  8
RACCORDO
100
AcDbPolyline
 62
253
  6
CONTINUOUS
 90
7
 70
0
 10
-13.1734202259
 20
-40.592474188
 10
-13.1692217108
 20
-40.6250270521
 10
-13.1564709869
 20
-40.6618005188
 10
-13.135462237
 20
-40.6971298119
 10
-13.1065547893
 20
-40.7304106712
 10
-13.0702430678
 20
-40.7610738736
 10
-13.0271481362
 20
-40.7885949669
  0
LWPOLYLINE
  5
3E5
100
AcDbEntity
  8
RACCORDO
100
AcDbPolyline
 62
7
  6
CONTINUOUS
 90
6
 70
0
 10
-11.7098362844
 20
-44.1849434059
 10
-11.7040253995
 20
-44.2473014262
 10
-11.6902266599
 20
-44.3092732111
 10
-11.668422876
 20
-44.3696025069
 10
-11.6387975508
 20
-44.4271036352
 10
-11.6018608875
 20
-44.4804708161
  0
LINE
  5
3E6
100
AcDbEntity
  8
RACCORDO
100
AcDbLine
 62
7
  6
CONTINUOUS
 10
-11.747111615
 20
-42.9520503216
 11
-11.7098362844
 21
-44.1849434059
  0
LINE
  5
3E7
100
AcDbEntity
  8
RACCORDO
100
AcDbLine
 62
253
  6
CONTINUOUS
 10
-11.6042755945
 20
-43.0345220497
 11
-11.5635641947
 21
-44.3810641848
  0
LWPOLYLINE
  5
3E8
100
AcDbEntity
  8
0
100
AcDbPolyline
 62
7
  6
CONTINUOUS
 90
10
 70
0
 10
8.7707925398
 20
-58.2538198797
 10
8.7806264757
 20
-58.2565143185
 10
8.7903320545
 20
-58.2592485261
 10
8.7998750391
 20
-58.26202843
 10
8.8092409664
 20
-58.2648795038
 10
8.818416147
 20
-58.267826311
 10
8.8273644744
 20
-58.270877768
 10
8.8360609538
 20
-58.2740576126
 10
8.8444927657
 20
-58.277401894
 10
8.8526390162
 20
-58.2809412958
  0
LINE
  5
3E9
100
AcDbEntity
  8
0
100
AcDbLine
 62
7
  6
CONTINUOUS
 10
8.2866882295
 20
-57.9541684046
 11
8.2598257908
 21
-57.9442111906
  0
LINE
  5
3EA
100
AcDbEntity
  8
0
100
AcDbLine
 62
7
  6
CONTINUOUS
 10
4.4263203099
 20
-58.9316234978
 11
4.1151933262
 21
-58.7519826768
  0
LINE
  5
3EB
100
AcDbEntity
  8
0
100
AcDbLine
 62
7
  6
CONTINUOUS
 10
-3.4791335037
 20
-54.3671135444
 11
-3.7902604874
 21
-54.1874727234
  0
LINE
  5
3EC
100
AcDbEntity
  8
0
100
AcDbLine
 62
7
  6
CONTINUOUS
 10
5.6032179949
 20
-59.4645625929
 11
5.5431139185
 21
-59.4298592525
  0
LINE
  5
3ED
100
AcDbEntity
  8
0
100
AcDbLine
 62
7
  6
CONTINUOUS
 10
-2.5881789594
 20
-54.2609226952
 11
4.6526286467
 21
-58.4416742584
  0
LINE
  5
3EE
100
AcDbEntity
  8
0
100
AcDbLine
 62
7
  6
CONTINUOUS
 10
5.5289717829
 20
-58.2786353731
 11
5.2319869348
 21
-58.1071600439
  0
LINE
  5
3EF
100
AcDbEntity
  8
0
100
AcDbLine
 62
7
  6
CONTINUOUS
 10
-2.3623398952
 20
-53.7222909116
 11
-2.6734668789
 21
-53.5426500905
  0
LINE
  5
3F0
100
AcDbEntity
  8
0
100
AcDbLine
 62
7
  6
CONTINUOUS
 10
8.597932588
 20
-60.2708353932
 11
8.7604556888
 21
-60.3648742121
  0
LINE
  5
3F1
100
AcDbEntity
  8
0
100
AcDbLine
 62
7
  6
CONTINUOUS
 10
8.8697929259
 20
-58.2898118191
 11
8.8526390162
 21
-58.2809412958
  0
LWPOLYLINE
  5
3F2
100
AcDbEntity
  8
0
100
AcDbPolyline
 62
7
  6
CONTINUOUS
 90
18
 70
0
 10
8.5697963037
 20
-58.1842125684
 10
8.577450531
 20
-58.1884823673
 10
8.5854142739
 20
-58.1926471434
 10
8.5936869398
 20
-58.1967091599
 10
8.6022889049
 20
-58.2006816769
 10
8.6111973901
 20
-58.2045604627
 10
8.6203465026
 20
-58.2083235702
 10
8.6297422037
 20
-58.2119806467
 10
8.6393736448
 20
-58.2155394142
 10
8.6491492856
 20
-58.218976241
 10
8.659054046
 20
-58.2222973254
 10
8.6690957061
 20
-58.2255202486
 10
8.6792166668
 20
-58.2286389302
 10
8.6894148305
 20
-58.2316682029
 10
8.6996821812
 20
-58.2346228309
 10
8.70995193
 20
-58.2374965638
 10
8.7202094304
 20
-58.2403033763
 10
8.7707925398
 20
-58.2538198797
  0
LINE
  5
3F3
100
AcDbEntity
  8
0
100
AcDbLine
 62
7
  6
CONTINUOUS
 10
5.5289717829
 20
-58.1561648316
 11
-2.7158932858
 21
-53.3956830734
  0
LINE
  5
3F4
100
AcDbEntity
  8
0
100
AcDbLine
 62
7
  6
CONTINUOUS
 10
9.4746276219
 20
-60.254390071
 11
9.026516407
 21
-59.9956562717
  0
LINE
  5
3F5
100
AcDbEntity
  8
0
100
AcDbLine
 62
7
  6
CONTINUOUS
 10
5.8263917367
 20
-58.1069088193
 11
5.8405338723
 21
-58.1150743112
  0
LINE
  5
3F6
100
AcDbEntity
  8
0
100
AcDbLine
 62
7
  6
CONTINUOUS
 10
8.5978152182
 20
-59.6583715064
 11
8.7604522159
 21
-59.7522760706
  0
LINE
  5
3F7
100
AcDbEntity
  8
0
100
AcDbLine
 62
253
  6
CONTINUOUS
 10
9.0503635532
 20
-58.5969790821
 11
8.003845517
 21
-57.992732684
  0
LINE
  5
3F8
100
AcDbEntity
  8
0
100
AcDbLine
 62
7
  6
CONTINUOUS
 10
8.2866882295
 20
-58.0207495146
 11
8.5697963037
 21
-58.1842125684
  0
LINE
  5
3F9
100
AcDbEntity
  8
0
100
AcDbLine
 62
7
  6
CONTINUOUS
 10
9.3503780493
 20
-58.5672543755
 11
8.8698107998
 21
-58.2897808686
  0
LWPOLYLINE
  5
3FA
100
AcDbEntity
  8
RACCORDO
100
AcDbPolyline
 62
7
  6
CONTINUOUS
 90
4
 70
0
 10
-11.6018608875
 20
-44.4804708161
 10
-11.5583901075
 20
-44.5285384332
 10
-11.508755245
 20
-44.5708117848
 10
-11.4599872668
 20
-44.6028906401
  0
LWPOLYLINE
  5
3FB
100
AcDbEntity
  8
RACCORDO
100
AcDbPolyline
 62
7
  6
CONTINUOUS
 90
5
 70
0
 10
-13.0718494472
 20
-42.1476532886
 10
-13.0454543646
 20
-42.1803299941
 10
-13.0145699607
 20
-42.2106456916
 10
-12.9792593541
 20
-42.2384107913
 10
-12.9439391229
 20
-42.2609753468
  0
LWPOLYLINE
  5
3FC
100
AcDbEntity
  8
RACCORDO
100
AcDbPolyline
 62
253
  6
CONTINUOUS
 90
16
 70
0
 10
-12.6736485935
 20
-40.1691289374
 10
-12.7112097131
 20
-40.1931266088
 10
-12.7483379776
 20
-40.2214669837
 10
-12.7846137168
 20
-40.2538267906
 10
-12.8196050941
 20
-40.2898131652
 10
-12.8529418455
 20
-40.3290374003
 10
-12.8843077634
 20
-40.3711393246
 10
-12.9134029506
 20
-40.4157652426
 10
-12.9398035446
 20
-40.4623180541
 10
-12.9630776321
 20
-40.5100180366
 10
-12.9829743489
 20
-40.5582590881
 10
-12.9993321755
 20
-40.6065429376
 10
-13.0119836295
 20
-40.6542311528
 10
-13.0208463462
 20
-40.700773862
 10
-13.0258976807
 20
-40.7457145622
 10
-13.0271481362
 20
-40.7885949669
  0
LINE
  5
3FD
100
AcDbEntity
  8
RACCORDO
100
AcDbLine
 62
7
  6
CONTINUOUS
 10
0.498917862
 20
-51.5078126181
 11
-11.4600767321
 21
-44.6028390209
  0
LINE
  5
3FE
100
AcDbEntity
  8
RACCORDO
100
AcDbLine
 62
253
  6
CONTINUOUS
 10
0.3954303993
 20
-51.286037782
 11
-11.5635641947
 21
-44.3810641848
  0
LWPOLYLINE
  5
3FF
100
AcDbEntity
  8
0
100
AcDbPolyline
 62
7
  6
CONTINUOUS
 90
6
 70
0
 10
8.2866882295
 20
-58.0207495146
 10
8.2794625396
 20
-58.0164291713
 10
8.2726566701
 20
-58.012065728
 10
8.266287361
 20
-58.0076727884
 10
8.2603713492
 20
-58.0032616424
 10
8.2549211263
 20
-57.9988495135
  0
LWPOLYLINE
  5
400
100
AcDbEntity
  8
0
100
AcDbPolyline
 62
7
  6
CONTINUOUS
 90
12
 70
0
 10
9.3503624641
 20
-58.567281368
 10
9.3613534836
 20
-58.5741026433
 10
9.3819487109
 20
-58.5898031769
 10
9.4006904272
 20
-58.6082987789
 10
9.4176037312
 20
-58.6295502885
 10
9.4324079743
 20
-58.6532347441
 10
9.4450745787
 20
-58.6793886007
 10
9.4556321223
 20
-58.7079754035
 10
9.4638856899
 20
-58.7385628266
 10
9.4697703098
 20
-58.7710067615
 10
9.4733509538
 20
-58.8054513167
 10
9.4746276219
 20
-58.8418964922
  0
LWPOLYLINE
  5
401
100
AcDbEntity
  8
RACCORDO
100
AcDbPolyline
 62
253
  6
CONTINUOUS
 90
7
 70
0
 10
-11.5635641947
 20
-44.3810641848
 10
-11.6066591263
 20
-44.3535430915
 10
-11.6429708479
 20
-44.3228798891
 10
-11.6718782955
 20
-44.2895990298
 10
-11.6928870454
 20
-44.2542697367
 10
-11.7056377693
 20
-44.21749627
 10
-11.7098362844
 20
-44.1849434059
  0
LWPOLYLINE
  5
402
100
AcDbEntity
  8
RACCORDO
100
AcDbPolyline
 62
253
  6
CONTINUOUS
 90
7
 70
0
 10
-11.4600767321
 20
-44.6028390209
 10
-11.4893920837
 20
-44.5813750732
 10
-11.5152042569
 20
-44.5522136411
 10
-11.5357148373
 20
-44.5168176352
 10
-11.5506593545
 20
-44.4760004582
 10
-11.5599545402
 20
-44.43047153
 10
-11.563564177
 20
-44.3810641952
  0
LINE
  5
403
100
AcDbEntity
  8
0
100
AcDbLine
 62
7
  6
CONTINUOUS
 10
-5.8762254919
 20
-55.8000468932
 11
-5.8762254919
 21
-58.2494577236
  0
LINE
  5
404
100
AcDbEntity
  8
RACCORDO
100
AcDbLine
 62
7
  6
CONTINUOUS
 10
-3.6023014689
 20
-34.7623223678
 11
-12.9236606736
 21
-40.1443583485
  0
LINE
  5
405
100
AcDbEntity
  8
RACCORDO
100
AcDbLine
 62
253
  6
CONTINUOUS
 10
-3.3522893888
 20
-34.7870929567
 11
-12.6736485935
 21
-40.1691289374
  0
LWPOLYLINE
  5
406
100
AcDbEntity
  8
RACCORDO
100
AcDbPolyline
 62
253
  6
CONTINUOUS
 90
7
 70
0
 10
-3.3522893888
 20
-34.7870929567
 10
-3.3147278791
 20
-34.7677158115
 10
-3.2775994596
 20
-34.7531813956
 10
-3.2413237944
 20
-34.7436509747
 10
-3.2063328399
 20
-34.7392302735
 10
-3.1729966687
 20
-34.7399580121
 10
-3.1416310621
 20
-34.7458391793
  0
LWPOLYLINE
  5
407
100
AcDbEntity
  8
RACCORDO
100
AcDbPolyline
 62
253
  6
CONTINUOUS
 90
10
 70
0
 10
0.9758459773
 20
-49.9520200641
 10
0.9280523025
 20
-49.9644751713
 10
0.8783074653
 20
-49.9739337937
 10
0.8271353442
 20
-49.9803003415
 10
0.7750811413
 20
-49.9835041382
 10
0.7227286652
 20
-49.983502864
 10
0.6706726868
 20
-49.9802961459
 10
0.6194930103
 20
-49.9739250891
 10
0.5697395578
 20
-49.9644603023
 10
0.5219482544
 20
-49.9520006819
  0
LWPOLYLINE
  5
408
100
AcDbEntity
  8
RACCORDO
100
AcDbPolyline
 62
253
  6
CONTINUOUS
 90
4
 70
0
 10
0.5219482544
 20
-49.9520006819
 10
0.4766397399
 20
-49.9366824759
 10
0.4343126953
 20
-49.9186794982
 10
0.3954303993
 20
-49.89819291
  0
LWPOLYLINE
  5
409
100
AcDbEntity
  8
RACCORDO
100
AcDbPolyline
 62
7
  6
CONTINUOUS
 90
14
 70
0
 10
0.4366503827
 20
-49.9867556942
 10
0.4644524311
 20
-50.0016774586
 10
0.5123703113
 20
-50.0226335743
 10
0.5632181243
 20
-50.0394086468
 10
0.6164208646
 20
-50.0519650244
 10
0.6706488639
 20
-50.0601364578
 10
0.7250598396
 20
-50.0640123724
 10
0.7796157445
 20
-50.063763056
 10
0.8340260686
 20
-50.059356029
 10
0.8883591428
 20
-50.0505939748
 10
0.9416838466
 20
-50.0373850896
 10
0.9924091106
 20
-50.0199275346
 10
1.0399135421
 20
-49.9983736521
 10
1.0612344692
 20
-49.9867449866
  0
LINE
  5
40A
100
AcDbEntity
  8
RACCORDO
100
AcDbLine
 62
7
  6
CONTINUOUS
 10
0.4368253844
 20
-49.9869028445
 11
-12.9439175822
 21
-42.2610295557
  0
LINE
  5
40B
100
AcDbEntity
  8
RACCORDO
100
AcDbLine
 62
253
  6
CONTINUOUS
 10
0.3954303993
 20
-49.89819291
 11
-12.9853125588
 21
-42.1723196261
  0
LINE
  5
40C
100
AcDbEntity
  8
0
100
AcDbLine
 62
7
  6
CONTINUOUS
 10
4.9784156875
 20
-52.530710929
 11
10.1251658606
 21
-55.502379975
  0
LWPOLYLINE
  5
40D
100
AcDbEntity
  8
RACCORDO
100
AcDbPolyline
 62
253
  6
CONTINUOUS
 90
7
 70
0
 10
-12.9853125588
 20
-42.1723196261
 10
-13.0203374764
 20
-42.1501303048
 10
-13.0510962758
 20
-42.125927307
 10
-13.0772545469
 20
-42.0999728978
 10
-13.0985260345
 20
-42.0725506458
 10
-13.114684688
 20
-42.0439574186
 10
-13.1255599183
 20
-42.0144986034
  0
LWPOLYLINE
  5
40E
100
AcDbEntity
  8
RACCORDO
100
AcDbPolyline
 62
253
  6
CONTINUOUS
 90
6
 70
0
 10
-12.9439573581
 20
-42.2610065713
 10
-12.9513561702
 20
-42.2560420053
 10
-12.9655527157
 20
-42.2413543751
 10
-12.9761346653
 20
-42.2221038431
 10
-12.9827872882
 20
-42.1988621136
 10
-12.9853125376
 20
-42.1723196387
  0
LWPOLYLINE
  5
40F
100
AcDbEntity
  8
RACCORDO
100
AcDbPolyline
 62
253
  6
CONTINUOUS
 90
6
 70
0
 10
0.4366304003
 20
-49.9867898232
 10
0.4293816802
 20
-49.9819113458
 10
0.4151867574
 20
-49.9672228852
 10
0.4046064336
 20
-49.9479725542
 10
0.3979551001
 20
-49.9247323708
 10
0.3954303993
 20
-49.89819291
  0
LWPOLYLINE
  5
410
100
AcDbEntity
  8
RACCORDO
100
AcDbPolyline
 62
253
  6
CONTINUOUS
 90
7
 70
0
 10
0.498917858
 20
-51.5078126158
 10
0.4696022126
 20
-51.486348399
 10
0.4437904824
 20
-51.4571874398
 10
0.4232800598
 20
-51.4217918851
 10
0.4083354494
 20
-51.3809748161
 10
0.3990401211
 20
-51.3354456912
 10
0.3954303993
 20
-51.286037782
  0
LWPOLYLINE
  5
411
100
AcDbEntity
  8
0
100
AcDbPolyline
 62
7
  6
CONTINUOUS
 90
4
 70
0
 10
8.2549211263
 20
-57.9988495135
 10
8.2499460017
 20
-57.9944591291
 10
8.2454547306
 20
-57.9900996186
 10
8.241462553
 20
-57.9857914471
  0
LINE
  5
412
100
AcDbEntity
  8
0
100
AcDbLine
 62
7
  6
CONTINUOUS
 10
-5.2398293889
 20
-59.3517281067
 11
-5.2398293889
 21
-58.6169048576
  0
LINE
  5
413
100
AcDbEntity
  8
0
100
AcDbLine
 62
7
  6
CONTINUOUS
 10
-5.2398293889
 20
-55.4326707781
 11
-5.2398293889
 21
-56.1674940272
  0
LINE
  5
414
100
AcDbEntity
  8
0
100
AcDbLine
 62
7
  6
CONTINUOUS
 10
-4.8089293581
 20
-55.1838745008
 11
-4.8089293581
 21
-54.6612120024
  0
LWPOLYLINE
  5
415
100
AcDbEntity
  8
RACCORDO
100
AcDbPolyline
 62
253
  6
CONTINUOUS
 90
13
 70
0
 10
0.3954303993
 20
-48.5386235889
 10
0.4445995731
 20
-48.5643746327
 10
0.498973908
 20
-48.58607242
 10
0.5576234044
 20
-48.6033458394
 10
0.6195449419
 20
-48.6158994522
 10
0.6836794359
 20
-48.6235185456
 10
0.7489299523
 20
-48.6260728053
 10
0.8141804701
 20
-48.6235185439
 10
0.8783149658
 20
-48.6158994484
 10
0.9402365016
 20
-48.603345834
 10
0.9988859924
 20
-48.5860724144
 10
1.0532603196
 20
-48.5643746287
 10
1.1024294847
 20
-48.5386235889
  0
LINE
  5
416
100
AcDbEntity
  8
RACCORDO
100
AcDbLine
 62
253
  6
CONTINUOUS
 10
-13.0271481362
 20
-40.7885949669
 11
0.3954303993
 21
-48.5386235889
  0
LINE
  5
417
100
AcDbEntity
  8
RACCORDO
100
AcDbLine
 62
253
  6
CONTINUOUS
 10
-12.6736485935
 20
-40.1691289374
 11
0.748929942
 21
-47.9191575594
  0
LWPOLYLINE
  5
418
100
AcDbEntity
  8
RACCORDO
100
AcDbPolyline
 62
253
  6
CONTINUOUS
 90
16
 70
0
 10
0.748929942
 20
-47.9191575594
 10
0.7864910617
 20
-47.9431552308
 10
0.8236193261
 20
-47.9714956057
 10
0.8598950653
 20
-48.0038554126
 10
0.8948864426
 20
-48.0398417872
 10
0.928223194
 20
-48.0790660223
 10
0.959589112
 20
-48.1211679466
 10
0.9886842992
 20
-48.1657938647
 10
1.0150848931
 20
-48.2123466761
 10
1.0383589806
 20
-48.2600466587
 10
1.0582556974
 20
-48.3082877102
 10
1.074613524
 20
-48.3565715596
 10
1.087264978
 20
-48.4042597748
 10
1.0961276947
 20
-48.450802484
 10
1.1011790293
 20
-48.4957431843
 10
1.1024294847
 20
-48.5386235889
  0
LINE
  5
419
100
AcDbEntity
  8
0
100
AcDbLine
 62
7
  6
CONTINUOUS
 10
-2.7158932858
 20
-53.3956830734
 11
-2.7158932858
 21
-53.5671465661
  0
LINE
  5
41A
100
AcDbEntity
  8
0
100
AcDbLine
 62
7
  6
CONTINUOUS
 10
-2.3623398952
 20
-54.3913193405
 11
-2.3623398952
 21
-53.7222909116
  0
LINE
  5
41B
100
AcDbEntity
  8
ASSI
100
AcDbLine
 62
7
  6
CONTINUOUS
 10
-2.2077635973
 20
-19.8063014486
 11
-2.2077635973
 21
-48.459950311
  0
LINE
  5
41C
100
AcDbEntity
  8
ASSI
100
AcDbLine
 62
7
  6
CONTINUOUS
 10
-2.2077635973
 20
-49.9450086663
 11
-2.2077635973
 21
-54.4805697576
  0
LWPOLYLINE
  5
41D
100
AcDbEntity
  8
RACCORDO
100
AcDbPolyline
 62
253
  6
CONTINUOUS
 90
9
 70
0
 10
-12.6736485935
 20
-40.1691289374
 10
-12.7112101033
 20
-40.1497517922
 10
-12.7483385228
 20
-40.1352173763
 10
-12.784614188
 20
-40.1256869554
 10
-12.8196051425
 20
-40.1212662542
 10
-12.8529413137
 20
-40.1219939928
 10
-12.8843069203
 20
-40.12787516
 10
-12.9134021778
 20
-40.1389025436
 10
-12.9236080309
 20
-40.1443279661
  0
LWPOLYLINE
  5
41E
100
AcDbEntity
  8
0
100
AcDbPolyline
 62
7
  6
CONTINUOUS
 90
9
 70
0
 10
8.241462553
 20
-57.9857914471
 10
8.2379847464
 20
-57.9815751069
 10
8.2350297187
 20
-57.9774700061
 10
8.2325970464
 20
-57.9734890325
 10
8.2306863714
 20
-57.9696632058
 10
8.2293006336
 20
-57.9660049476
 10
8.2284428369
 20
-57.9625332587
 10
8.2281135817
 20
-57.959288701
 10
8.2281095857
 20
-57.9589070645
  0
LINE
  5
41F
100
AcDbEntity
  8
ASSI
100
AcDbLine
 62
253
  6
CONTINUOUS
 10
-1.7960512242
 20
-19.991173961
 11
-1.7960512242
 21
-48.6976678752
  0
LINE
  5
420
100
AcDbEntity
  8
ASSI
100
AcDbLine
 62
253
  6
CONTINUOUS
 10
-1.7960512242
 20
-50.1827262305
 11
-1.7960512242
 21
-54.7182873219
  0
LINE
  5
421
100
AcDbEntity
  8
ASSI
100
AcDbLine
 62
253
  6
CONTINUOUS
 10
-1.5472419579
 20
-20.1730492112
 11
-1.5472419579
 21
-48.8413272272
  0
LINE
  5
422
100
AcDbEntity
  8
ASSI
100
AcDbLine
 62
253
  6
CONTINUOUS
 10
-1.5472419579
 20
-50.3263855825
 11
-1.5472419579
 21
-54.8619466739
  0
LINE
  5
423
100
AcDbEntity
  8
ASSI
100
AcDbLine
 62
253
  6
CONTINUOUS
 10
-1.4238130151
 20
-20.2632736236
 11
-1.4238130151
 21
-48.9125935519
  0
LINE
  5
424
100
AcDbEntity
  8
ASSI
100
AcDbLine
 62
253
  6
CONTINUOUS
 10
-1.4238130151
 20
-50.3976519072
 11
-1.4238130151
 21
-54.9332129986
  0
LINE
  5
425
100
AcDbEntity
  8
ASSI
100
AcDbLine
 62
253
  6
CONTINUOUS
 10
-1.3081062017
 20
-20.3478532936
 11
-1.3081062017
 21
-48.9794012158
  0
LINE
  5
426
100
AcDbEntity
  8
ASSI
100
AcDbLine
 62
253
  6
CONTINUOUS
 10
-1.3081062017
 20
-50.4644595711
 11
-1.3081062017
 21
-55.0000206625
  0
LINE
  5
427
100
AcDbEntity
  8
ASSI
100
AcDbLine
 62
253
  6
CONTINUOUS
 10
-0.8980256121
 20
-20.6714134008
 11
-0.8980256121
 21
-49.2161766087
  0
LINE
  5
428
100
AcDbEntity
  8
ASSI
100
AcDbLine
 62
253
  6
CONTINUOUS
 10
-0.8980256121
 20
-50.701234964
 11
-0.8980256121
 21
-55.2367960554
  0
LINE
  5
429
100
AcDbEntity
  8
ASSI
100
AcDbLine
 62
253
  6
CONTINUOUS
 10
-0.6492163458
 20
-20.8975856378
 11
-0.6492163458
 21
-49.3598359608
  0
LINE
  5
42A
100
AcDbEntity
  8
ASSI
100
AcDbLine
 62
253
  6
CONTINUOUS
 10
-0.6492163458
 20
-50.844894316
 11
-0.6492163458
 21
-55.3804554074
  0
LINE
  5
42B
100
AcDbEntity
  8
ASSI
100
AcDbLine
 62
253
  6
CONTINUOUS
 10
-0.525787403
 20
-21.0097848357
 11
-0.525787403
 21
-49.4311022854
  0
LINE
  5
42C
100
AcDbEntity
  8
ASSI
100
AcDbLine
 62
253
  6
CONTINUOUS
 10
-0.525787403
 20
-50.9161606407
 11
-0.525787403
 21
-55.4517217321
  0
LINE
  5
42D
100
AcDbEntity
  8
ASSI
100
AcDbLine
 62
253
  6
CONTINUOUS
 10
-0.4100805896
 20
-21.1149644748
 11
-0.4100805896
 21
-49.4979099493
  0
LINE
  5
42E
100
AcDbEntity
  8
ASSI
100
AcDbLine
 62
253
  6
CONTINUOUS
 10
-0.4100805896
 20
-50.9829683046
 11
-0.4100805896
 21
-55.518529396
  0
LINE
  5
42F
100
AcDbEntity
  8
ASSI
100
AcDbLine
 62
253
  6
CONTINUOUS
 10
0.0
 20
-21.491174432
 11
0.0
 21
-49.7346853422
  0
LINE
  5
430
100
AcDbEntity
  8
ASSI
100
AcDbLine
 62
253
  6
CONTINUOUS
 10
0.0
 20
-51.2197436975
 11
0.0
 21
-55.7553047889
  0
LINE
  5
431
100
AcDbEntity
  8
ASSI
100
AcDbLine
 62
253
  6
CONTINUOUS
 10
0.2488092663
 20
-21.7269276155
 11
0.2488092663
 21
-49.8783446943
  0
LINE
  5
432
100
AcDbEntity
  8
ASSI
100
AcDbLine
 62
253
  6
CONTINUOUS
 10
0.2488092663
 20
-51.3634030496
 11
0.2488092663
 21
-55.898964141
  0
LINE
  5
433
100
AcDbEntity
  8
ASSI
100
AcDbLine
 62
253
  6
CONTINUOUS
 10
0.3722382091
 20
-21.8438797156
 11
0.3722382091
 21
-49.949611019
  0
LINE
  5
434
100
AcDbEntity
  8
ASSI
100
AcDbLine
 62
253
  6
CONTINUOUS
 10
0.3722382091
 20
-51.4346693743
 11
0.3722382091
 21
-55.9702304656
  0
LINE
  5
435
100
AcDbEntity
  8
RACCORDO
100
AcDbLine
 62
253
  6
CONTINUOUS
 10
0.3954303993
 20
-48.5386235889
 11
0.3954303993
 21
-49.89819291
  0
LINE
  5
436
100
AcDbEntity
  8
RACCORDO
100
AcDbLine
 62
253
  6
CONTINUOUS
 10
0.3954303993
 20
-49.9630018989
 11
0.3954303993
 21
-51.286037782
  0
LINE
  5
437
100
AcDbEntity
  8
ASSI
100
AcDbLine
 62
253
  6
CONTINUOUS
 10
0.4879450225
 20
-21.9535148992
 11
0.4879450225
 21
-50.0119515663
  0
LINE
  5
438
100
AcDbEntity
  8
ASSI
100
AcDbLine
 62
253
  6
CONTINUOUS
 10
0.4879450225
 20
-51.5014770381
 11
0.4879450225
 21
-56.0370381295
  0
LINE
  5
439
100
AcDbEntity
  8
ASSI
100
AcDbLine
 62
253
  6
CONTINUOUS
 10
0.8980256121
 20
-22.3365149139
 11
0.8980256121
 21
-50.0481995258
  0
LINE
  5
43A
100
AcDbEntity
  8
ASSI
100
AcDbLine
 62
253
  6
CONTINUOUS
 10
0.8980256121
 20
-51.5510868988
 11
0.8980256121
 21
-56.2738135224
  0
LINE
  5
43B
100
AcDbEntity
  8
RACCORDO
100
AcDbLine
 62
253
  6
CONTINUOUS
 10
1.1024294847
 20
-48.5386235889
 11
1.1024294847
 21
-49.89819291
  0
LINE
  5
43C
100
AcDbEntity
  8
RACCORDO
100
AcDbLine
 62
253
  6
CONTINUOUS
 10
1.1024294847
 20
-49.9630018989
 11
1.1024294847
 21
-51.286037782
  0
LINE
  5
43D
100
AcDbEntity
  8
ASSI
100
AcDbLine
 62
253
  6
CONTINUOUS
 10
1.1468348784
 20
-22.5104641663
 11
1.1468348784
 21
-49.9373627812
  0
LINE
  5
43E
100
AcDbEntity
  8
ASSI
100
AcDbLine
 62
253
  6
CONTINUOUS
 10
1.1468348784
 20
-51.4224211365
 11
1.1468348784
 21
-56.4174728745
  0
LINE
  5
43F
100
AcDbEntity
  8
ASSI
100
AcDbLine
 62
253
  6
CONTINUOUS
 10
1.2702638212
 20
-22.5967566611
 11
1.2702638212
 21
-49.8660964565
  0
LINE
  5
440
100
AcDbEntity
  8
ASSI
100
AcDbLine
 62
253
  6
CONTINUOUS
 10
1.2702638212
 20
-51.3511548118
 11
1.2702638212
 21
-56.4887391992
  0
LINE
  5
441
100
AcDbEntity
  8
ASSI
100
AcDbLine
 62
253
  6
CONTINUOUS
 10
1.3859706346
 20
-22.6776504075
 11
1.3859706346
 21
-49.7992887926
  0
LINE
  5
442
100
AcDbEntity
  8
ASSI
100
AcDbLine
 62
253
  6
CONTINUOUS
 10
1.3859706346
 20
-51.2843471479
 11
1.3859706346
 21
-56.555546863
  0
LINE
  5
443
100
AcDbEntity
  8
ASSI
100
AcDbLine
 62
253
  6
CONTINUOUS
 10
1.7960512242
 20
-22.9643487811
 11
1.7960512242
 21
-49.5625133997
  0
LINE
  5
444
100
AcDbEntity
  8
ASSI
100
AcDbLine
 62
253
  6
CONTINUOUS
 10
1.7960512242
 20
-51.047571755
 11
1.7960512242
 21
-56.792322256
  0
LINE
  5
445
100
AcDbEntity
  8
ASSI
100
AcDbLine
 62
253
  6
CONTINUOUS
 10
2.0448604905
 20
-23.1382980335
 11
2.0448604905
 21
-49.4188540476
  0
LINE
  5
446
100
AcDbEntity
  8
ASSI
100
AcDbLine
 62
253
  6
CONTINUOUS
 10
2.0448604905
 20
-50.9039124029
 11
2.0448604905
 21
-56.935981608
  0
LINE
  5
447
100
AcDbEntity
  8
ASSI
100
AcDbLine
 62
253
  6
CONTINUOUS
 10
2.1682894333
 20
-23.2245905283
 11
2.1682894333
 21
-49.347587723
  0
LINE
  5
448
100
AcDbEntity
  8
ASSI
100
AcDbLine
 62
253
  6
CONTINUOUS
 10
2.1682894333
 20
-50.8326460783
 11
2.1682894333
 21
-57.0072479327
  0
LINE
  5
449
100
AcDbEntity
  8
ASSI
100
AcDbLine
 62
253
  6
CONTINUOUS
 10
2.2839962467
 20
-23.3054842747
 11
2.2839962467
 21
-49.2807800591
  0
LINE
  5
44A
100
AcDbEntity
  8
ASSI
100
AcDbLine
 62
253
  6
CONTINUOUS
 10
2.2839962467
 20
-50.7658384144
 11
2.2839962467
 21
-57.0740555966
  0
LINE
  5
44B
100
AcDbEntity
  8
ASSI
100
AcDbLine
 62
253
  6
CONTINUOUS
 10
2.6940768363
 20
-23.5921826483
 11
2.6940768363
 21
-49.0440046662
  0
LINE
  5
44C
100
AcDbEntity
  8
ASSI
100
AcDbLine
 62
253
  6
CONTINUOUS
 10
2.6940768363
 20
-50.5290630214
 11
2.6940768363
 21
-57.3108309895
  0
LINE
  5
44D
100
AcDbEntity
  8
ASSI
100
AcDbLine
 62
253
  6
CONTINUOUS
 10
2.9428861026
 20
-23.7661319007
 11
2.9428861026
 21
-48.9003453141
  0
LINE
  5
44E
100
AcDbEntity
  8
ASSI
100
AcDbLine
 62
253
  6
CONTINUOUS
 10
2.9428861026
 20
-50.3854036694
 11
2.9428861026
 21
-57.4544903415
  0
LINE
  5
44F
100
AcDbEntity
  8
0
100
AcDbLine
 62
7
  6
CONTINUOUS
 10
2.9767514085
 20
-60.9116448017
 11
2.9767514085
 21
-60.1768215526
  0
LINE
  5
450
100
AcDbEntity
  8
0
100
AcDbLine
 62
7
  6
CONTINUOUS
 10
2.9767514085
 20
-63.3610556321
 11
2.9767514085
 21
-64.0958788812
  0
LINE
  5
451
100
AcDbEntity
  8
ASSI
100
AcDbLine
 62
253
  6
CONTINUOUS
 10
3.0663150455
 20
-23.8524243955
 11
3.0663150455
 21
-48.8290789894
  0
LINE
  5
452
100
AcDbEntity
  8
ASSI
100
AcDbLine
 62
253
  6
CONTINUOUS
 10
3.0663150455
 20
-50.3141373447
 11
3.0663150455
 21
-57.5257566662
  0
LINE
  5
453
100
AcDbEntity
  8
ASSI
100
AcDbLine
 62
253
  6
CONTINUOUS
 10
3.1820218588
 20
-23.9333181419
 11
3.1820218588
 21
-48.7622713256
  0
LINE
  5
454
100
AcDbEntity
  8
ASSI
100
AcDbLine
 62
253
  6
CONTINUOUS
 10
3.1820218588
 20
-50.2473296808
 11
3.1820218588
 21
-57.5925643301
  0
LINE
  5
455
100
AcDbEntity
  8
0
100
AcDbLine
 62
7
  6
CONTINUOUS
 10
-3.7902604874
 20
-54.1874727234
 11
-4.143813878
 21
-54.7998451584
  0
LINE
  5
456
100
AcDbEntity
  8
ASSI
100
AcDbLine
 62
253
  6
CONTINUOUS
 10
3.5921024484
 20
-24.0203192237
 11
3.5921024484
 21
-48.5254959326
  0
LINE
  5
457
100
AcDbEntity
  8
ASSI
100
AcDbLine
 62
253
  6
CONTINUOUS
 10
3.5921024484
 20
-50.0105542879
 11
3.5921024484
 21
-57.829339723
  0
LINE
  5
458
100
AcDbEntity
  8
0
100
AcDbLine
 62
7
  6
CONTINUOUS
 10
3.6131475116
 20
-61.2790919357
 11
3.6131475116
 21
-63.728502766
  0
LINE
  5
459
100
AcDbEntity
  8
0
100
AcDbLine
 62
7
  6
CONTINUOUS
 10
3.7435271604
 20
-60.9052694582
 11
3.7435271604
 21
-60.6608071514
  0
LINE
  5
45A
100
AcDbEntity
  8
ASSI
100
AcDbLine
 62
253
  6
CONTINUOUS
 10
3.8409117147
 20
-24.0038333954
 11
3.8409117147
 21
-48.3818365806
  0
LINE
  5
45B
100
AcDbEntity
  8
ASSI
100
AcDbLine
 62
253
  6
CONTINUOUS
 10
3.8409117147
 20
-49.8668949359
 11
3.8409117147
 21
-57.9729990751
  0
LINE
  5
45C
100
AcDbEntity
  8
ASSI
100
AcDbLine
 62
253
  6
CONTINUOUS
 10
3.9643406576
 20
-23.9956551294
 11
3.9643406576
 21
-48.3105702559
  0
LINE
  5
45D
100
AcDbEntity
  8
ASSI
100
AcDbLine
 62
253
  6
CONTINUOUS
 10
3.9643406576
 20
-49.7956286112
 11
3.9643406576
 21
-58.0442653997
  0
LINE
  5
45E
100
AcDbEntity
  8
0
100
AcDbLine
 62
7
  6
CONTINUOUS
 10
4.0020562412
 20
-61.6342348059
 11
4.0020562412
 21
-61.0545409093
  0
LINE
  5
45F
100
AcDbEntity
  8
0
100
AcDbLine
 62
7
  6
CONTINUOUS
 10
4.0020562412
 20
-62.9242916409
 11
4.0020562412
 21
-63.5039517397
  0
LINE
  5
460
100
AcDbEntity
  8
ASSI
100
AcDbLine
 62
253
  6
CONTINUOUS
 10
4.0800474709
 20
-23.9879885232
 11
4.0800474709
 21
-48.243762592
  0
LINE
  5
461
100
AcDbEntity
  8
ASSI
100
AcDbLine
 62
253
  6
CONTINUOUS
 10
4.0800474709
 20
-49.7288209473
 11
4.0800474709
 21
-58.1110730636
  0
LINE
  5
462
100
AcDbEntity
  8
0
100
AcDbLine
 62
7
  6
CONTINUOUS
 10
4.6097329673
 20
-63.6103543586
 11
4.6097329673
 21
-63.0633192731
  0
LINE
  5
463
100
AcDbEntity
  8
0
100
AcDbLine
 62
7
  6
CONTINUOUS
 10
4.6097329673
 20
-61.6916492081
 11
4.6097329673
 21
-61.1609435282
  0
LINE
  5
464
100
AcDbEntity
  8
ASSI
100
AcDbLine
 62
7
  6
CONTINUOUS
 10
4.9784156875
 20
-23.9284636333
 11
4.9784156875
 21
-47.725056043
  0
LINE
  5
465
100
AcDbEntity
  8
ASSI
100
AcDbLine
 62
7
  6
CONTINUOUS
 10
4.9784156875
 20
-49.2101143983
 11
4.9784156875
 21
-58.2535689041
  0
LINE
  5
466
100
AcDbEntity
  8
0
100
AcDbLine
 62
7
  6
CONTINUOUS
 10
-3.8326868943
 20
-54.9794859795
 11
-3.4791335037
 21
-54.3671135444
  0
LINE
  5
467
100
AcDbEntity
  8
RACCORDO
100
AcDbLine
 62
253
  6
CONTINUOUS
 10
10.0702891467
 20
-42.5371215787
 11
4.9784156875
 21
-39.5971376595
  0
LINE
  5
468
100
AcDbEntity
  8
RACCORDO
100
AcDbLine
 62
253
  6
CONTINUOUS
 10
-2.2077635973
 20
-35.4479278044
 11
-3.3522893888
 21
-34.7870929567
  0
LINE
  5
469
100
AcDbEntity
  8
0
100
AcDbLine
 62
7
  6
CONTINUOUS
 10
5.2924233894
 20
-62.3959822241
 11
5.2924233894
 21
-61.2974723145
  0
LINE
  5
46A
100
AcDbEntity
  8
0
100
AcDbLine
 62
7
  6
CONTINUOUS
 10
5.5289717829
 20
-62.5325623018
 11
5.5289717829
 21
-61.1608922368
  0
LINE
  5
46B
100
AcDbEntity
  8
0
100
AcDbLine
 62
7
  6
CONTINUOUS
 10
5.5289717829
 20
-58.1561648316
 11
5.5289717829
 21
-58.2786353731
  0
LINE
  5
46C
100
AcDbEntity
  8
0
100
AcDbLine
 62
7
  6
CONTINUOUS
 10
5.5289717829
 20
-63.0795973873
 11
5.5289717829
 21
-63.13663352
  0
LINE
  5
46D
100
AcDbEntity
  8
0
100
AcDbLine
 62
7
  6
CONTINUOUS
 10
5.5431139185
 20
-59.4298592525
 11
5.5431139185
 21
-59.6217483114
  0
LINE
  5
46E
100
AcDbEntity
  8
0
100
AcDbLine
 62
7
  6
CONTINUOUS
 10
5.6032179949
 20
-59.5870449709
 11
5.6032179949
 21
-59.4645625929
  0
LINE
  5
46F
100
AcDbEntity
  8
0
100
AcDbLine
 62
7
  6
CONTINUOUS
 10
5.8405338723
 20
-59.2581326987
 11
5.8405338723
 21
-58.1150743112
  0
LINE
  5
470
100
AcDbEntity
  8
0
100
AcDbLine
 62
7
  6
CONTINUOUS
 10
6.9431853452
 20
-60.3443430501
 11
6.9431853452
 21
-61.7160131151
  0
LWPOLYLINE
  5
471
100
AcDbEntity
  8
RACCORDO
100
AcDbPolyline
 62
253
  6
CONTINUOUS
 90
16
 70
0
 10
0.748929942
 20
-47.9191575594
 10
0.7113684323
 20
-47.9431555042
 10
0.6742400128
 20
-47.9714960565
 10
0.6379643476
 20
-48.0038558645
 10
0.6029733931
 20
-48.0398418404
 10
0.5696372219
 20
-48.0790653539
 10
0.5382716153
 20
-48.1211667374
 10
0.5091763577
 20
-48.1657925951
 10
0.4827755281
 20
-48.2123456569
 10
0.4595011679
 20
-48.2600460708
 10
0.4396041273
 20
-48.3082878676
 10
0.4232460389
 20
-48.3565726218
 10
0.4105945557
 20
-48.4042613114
 10
0.4017319782
 20
-48.4508038823
 10
0.3966807955
 20
-48.4957440522
 10
0.3954304041
 20
-48.5386235918
  0
LINE
  5
472
100
AcDbEntity
  8
RACCORDO
100
AcDbLine
 62
253
  6
CONTINUOUS
 10
0.748929942
 20
-47.9191575594
 11
10.0702891467
 21
-42.5371215787
  0
LWPOLYLINE
  5
473
100
AcDbEntity
  8
RACCORDO
100
AcDbPolyline
 62
253
  6
CONTINUOUS
 90
9
 70
0
 10
10.0702891467
 20
-42.5371215787
 10
10.1078502663
 20
-42.5177446106
 10
10.1449785308
 20
-42.5032101964
 10
10.18125427
 20
-42.4936796889
 10
10.2162456473
 20
-42.4892588981
 10
10.2495823987
 20
-42.4899866884
 10
10.2809483167
 20
-42.4958680368
 10
10.3100435039
 20
-42.506895562
 10
10.3202485841
 20
-42.5123206074
  0
LWPOLYLINE
  5
474
100
AcDbEntity
  8
RACCORDO
100
AcDbPolyline
 62
253
  6
CONTINUOUS
 90
3
 70
0
 10
-3.1416310621
 20
-34.7458391793
 10
-3.1125358045
 20
-34.7568665628
 10
-3.1022773088
 20
-34.7623223678
  0
LWPOLYLINE
  5
475
100
AcDbEntity
  8
RACCORDO
100
AcDbPolyline
 62
253
  6
CONTINUOUS
 90
9
 70
0
 10
-3.3522893888
 20
-34.7870929567
 10
-3.3898505084
 20
-34.7677159886
 10
-3.4269787729
 20
-34.7531815744
 10
-3.4632545121
 20
-34.7436510669
 10
-3.4982458894
 20
-34.7392302761
 10
-3.5315826408
 20
-34.7399580663
 10
-3.5629485588
 20
-34.7458394148
 10
-3.5920437459
 20
-34.75686694
 10
-3.6023014649
 20
-34.7623223655
  0
LINE
  5
476
100
AcDbEntity
  8
RACCORDO
100
AcDbLine
 62
7
  6
CONTINUOUS
 10
10.3203012268
 20
-42.5123509898
 11
4.9784156875
 21
-39.428013229
  0
LINE
  5
477
100
AcDbEntity
  8
RACCORDO
100
AcDbLine
 62
7
  6
CONTINUOUS
 10
-2.2077635973
 20
-35.278803374
 11
-3.1022773088
 21
-34.7623223678
  0
LWPOLYLINE
  5
478
100
AcDbEntity
  8
RACCORDO
100
AcDbPolyline
 62
253
  6
CONTINUOUS
 90
16
 70
0
 10
10.0702891467
 20
-42.5371215787
 10
10.1078506565
 20
-42.5611195235
 10
10.144979076
 20
-42.5894600758
 10
10.1812547412
 20
-42.6218198838
 10
10.2162456957
 20
-42.6578058597
 10
10.2495818669
 20
-42.6970293732
 10
10.2809474735
 20
-42.7391307567
 10
10.310042731
 20
-42.7837566144
 10
10.3364435607
 20
-42.8303096762
 10
10.3597179209
 20
-42.8780100901
 10
10.3796149611
 20
-42.9262518871
 10
10.3959730492
 20
-42.9745366414
 10
10.4086245331
 20
-43.0222253307
 10
10.4174871127
 20
-43.0687679004
 10
10.4225382985
 20
-43.1137080685
 10
10.4237886941
 20
-43.1565876057
  0
LINE
  5
479
100
AcDbEntity
  8
0
100
AcDbLine
 62
7
  6
CONTINUOUS
 10
7.2866215891
 20
-60.1460472672
 11
7.2866215891
 21
-60.3501206469
  0
LINE
  5
47A
100
AcDbEntity
  8
0
100
AcDbLine
 62
253
  6
CONTINUOUS
 10
8.2866882295
 20
-57.9541684046
 11
8.2866882295
 21
-58.0207495146
  0
LINE
  5
47B
100
AcDbEntity
  8
0
100
AcDbLine
 62
7
  6
CONTINUOUS
 10
8.5978503792
 20
-59.6583511992
 11
8.5978503792
 21
-60.2707377044
  0
LWPOLYLINE
  5
47C
100
AcDbEntity
  8
RACCORDO
100
AcDbPolyline
 62
253
  6
CONTINUOUS
 90
6
 70
0
 10
1.0612527676
 20
-49.9867762679
 10
1.0684730842
 20
-49.9819152961
 10
1.0826696415
 20
-49.9672276591
 10
1.0932516035
 20
-49.9479771199
 10
1.0999042406
 20
-49.9247353823
 10
1.1024295059
 20
-49.8981928981
  0
LWPOLYLINE
  5
47D
100
AcDbEntity
  8
RACCORDO
100
AcDbPolyline
 62
253
  6
CONTINUOUS
 90
7
 70
0
 10
10.4237886894
 20
-43.1565876082
 10
10.4668836276
 20
-43.1290665101
 10
10.5031953519
 20
-43.0984033034
 10
10.5321027992
 20
-43.0651224408
 10
10.5531115464
 20
-43.0297931466
 10
10.5658622669
 20
-42.9930196808
 10
10.5700607791
 20
-42.9604668293
  0
LWPOLYLINE
  5
47E
100
AcDbEntity
  8
RACCORDO
100
AcDbPolyline
 62
7
  6
CONTINUOUS
 90
5
 70
0
 10
10.3405383077
 20
-44.6289880909
 10
10.3762032166
 20
-44.6062114603
 10
10.4114655991
 20
-44.5784297505
 10
10.44229573
 20
-44.5480935645
 10
10.4686734103
 20
-44.5153860816
  0
LINE
  5
47F
100
AcDbEntity
  8
RACCORDO
100
AcDbLine
 62
253
  6
CONTINUOUS
 10
1.1024294847
 20
-48.5386235889
 11
10.4237886894
 21
-43.1565876082
  0
LINE
  5
480
100
AcDbEntity
  8
RACCORDO
100
AcDbLine
 62
253
  6
CONTINUOUS
 10
10.381953112
 20
-44.5403122674
 11
1.1024294847
 21
-49.89819291
  0
LINE
  5
481
100
AcDbEntity
  8
RACCORDO
100
AcDbLine
 62
7
  6
CONTINUOUS
 10
10.3405581269
 20
-44.6290222019
 11
1.0610344912
 21
-49.9869028494
  0
LWPOLYLINE
  5
482
100
AcDbEntity
  8
RACCORDO
100
AcDbPolyline
 62
253
  6
CONTINUOUS
 90
4
 70
0
 10
1.1024294847
 20
-49.89819291
 10
1.063519908
 20
-49.9186924392
 10
1.0211701052
 20
-49.9367014319
 10
0.9758459773
 20
-49.9520200641
  0
LINE
  5
483
100
AcDbEntity
  8
0
100
AcDbLine
 62
7
  6
CONTINUOUS
 10
8.7604522159
 20
-60.3648728429
 11
8.7604522159
 21
-59.7522760706
  0
LINE
  5
484
100
AcDbEntity
  8
0
100
AcDbLine
 62
7
  6
CONTINUOUS
 10
9.0932250091
 20
-59.1029370945
 11
9.0932249875
 21
-59.7059273129
  0
LINE
  5
485
100
AcDbEntity
  8
0
100
AcDbLine
 62
7
  6
CONTINUOUS
 10
9.4746276219
 20
-58.882720006
 11
9.4746276219
 21
-58.8418964922
  0
LINE
  5
486
100
AcDbEntity
  8
0
100
AcDbLine
 62
7
  6
CONTINUOUS
 10
9.4746276219
 20
-60.254390071
 11
9.4746276219
 21
-60.3115429904
  0
LINE
  5
487
100
AcDbEntity
  8
0
100
AcDbLine
 62
7
  6
CONTINUOUS
 10
10.1251658606
 20
-55.502379975
 11
10.1251658606
 21
-60.4828486634
  0
LINE
  5
488
100
AcDbEntity
  8
RACCORDO
100
AcDbLine
 62
253
  6
CONTINUOUS
 10
9.0009161477
 20
-45.402514691
 11
8.960204748
 21
-46.7490568261
  0
LINE
  5
489
100
AcDbEntity
  8
RACCORDO
100
AcDbLine
 62
7
  6
CONTINUOUS
 10
9.1437521682
 20
-45.3200429629
 11
9.1064768376
 21
-46.5529360472
  0
LINE
  5
48A
100
AcDbEntity
  8
RACCORDO
100
AcDbLine
 62
253
  6
CONTINUOUS
 10
10.4237886894
 20
-43.1565876082
 11
10.381953112
 21
-44.5403122674
  0
LWPOLYLINE
  5
48B
100
AcDbEntity
  8
0
100
AcDbPolyline
 62
7
  6
CONTINUOUS
 90
22
 70
0
 10
9.4746276219
 20
-60.3115429904
 10
9.4733509538
 20
-60.3494624302
 10
9.4697703098
 20
-60.3880418233
 10
9.4638856899
 20
-60.4272811698
 10
9.4556321223
 20
-60.4673996059
 10
9.4450745787
 20
-60.5081779953
 10
9.4324079743
 20
-60.5489589293
 10
9.4176037312
 20
-60.5897389538
 10
9.4006904272
 20
-60.6305215227
 10
9.3819487109
 20
-60.6706595891
 10
9.3613534836
 20
-60.7101429749
 10
9.3389298439
 20
-60.7489818581
 10
9.315033736
 20
-60.7865597252
 10
9.2896437949
 20
-60.8228599317
 10
9.2627813856
 20
-60.8578991223
 10
9.2348665475
 20
-60.8911107166
 10
9.2058819993
 20
-60.9224716953
 10
9.1758450223
 20
-60.9520050778
 10
9.1452275008
 20
-60.979213343
 10
9.1141867295
 20
-61.0039306502
 10
9.0825654136
 20
-61.0263228401
 10
9.0503635532
 20
-61.0463899125
  0
LWPOLYLINE
  5
48C
100
AcDbEntity
  8
0
100
AcDbPolyline
 62
7
  6
CONTINUOUS
 90
16
 70
0
 10
8.2281095857
 20
-57.9589070645
 10
8.2283122181
 20
-57.9562876806
 10
8.2290366132
 20
-57.9535451029
 10
8.2302872594
 20
-57.9510993102
 10
8.2320631458
 20
-57.9489638336
 10
8.23436222
 20
-57.9471566083
 10
8.2371892898
 20
-57.9457233458
 10
8.240542757
 20
-57.944677754
 10
8.2444206935
 20
-57.944039244
 10
8.2488343254
 20
-57.9438640332
 10
8.2537817733
 20
-57.9441665712
 10
8.2592611124
 20
-57.9449692226
 10
8.2652912619
 20
-57.9463436323
 10
8.2718792296
 20
-57.9483289938
 10
8.279013753
 20
-57.9509298235
 10
8.2866882295
 20
-57.9541684046
  0
LWPOLYLINE
  5
48D
100
AcDbEntity
  8
RACCORDO
100
AcDbPolyline
 62
7
  6
CONTINUOUS
 90
4
 70
0
 10
9.1064768376
 20
-46.5529360472
 10
9.1006659529
 20
-46.6152940662
 10
9.0868672138
 20
-46.6772658499
 10
9.0650634308
 20
-46.7375951446
  0
LWPOLYLINE
  5
48E
100
AcDbEntity
  8
RACCORDO
100
AcDbPolyline
 62
253
  6
CONTINUOUS
 90
7
 70
0
 10
9.1064768376
 20
-46.5529360472
 10
9.1022783254
 20
-46.5854888987
 10
9.0895276049
 20
-46.6222623645
 10
9.0685188577
 20
-46.6575916587
 10
9.0396114105
 20
-46.6908725212
 10
9.0032996861
 20
-46.721535728
 10
8.960204748
 20
-46.7490568261
  0
LWPOLYLINE
  5
48F
100
AcDbEntity
  8
RACCORDO
100
AcDbPolyline
 62
7
  6
CONTINUOUS
 90
3
 70
0
 10
9.0650634308
 20
-46.7375951446
 10
9.0354381066
 20
-46.7950962721
 10
8.9985014447
 20
-46.8484634524
  0
LWPOLYLINE
  5
490
100
AcDbEntity
  8
RACCORDO
100
AcDbPolyline
 62
7
  6
CONTINUOUS
 90
4
 70
0
 10
8.9985014447
 20
-46.8484634524
 10
8.9550306664
 20
-46.8965310689
 10
8.9053958059
 20
-46.9388044204
 10
8.85662782
 20
-46.9708832814
  0
LWPOLYLINE
  5
491
100
AcDbEntity
  8
RACCORDO
100
AcDbPolyline
 62
253
  6
CONTINUOUS
 90
7
 70
0
 10
0.9989420221
 20
-51.5078126181
 10
1.0282573724
 20
-51.4863486712
 10
1.0540695442
 20
-51.4571872398
 10
1.0745801273
 20
-51.4217912325
 10
1.0895246524
 20
-51.3809740509
 10
1.09881985
 20
-51.3354451158
 10
1.1024295025
 20
-51.2860377719
  0
LWPOLYLINE
  5
492
100
AcDbEntity
  8
RACCORDO
100
AcDbPolyline
 62
253
  6
CONTINUOUS
 90
7
 70
0
 10
8.8567172853
 20
-46.9708316622
 10
8.8860329347
 20
-46.9493674431
 10
8.9118446649
 20
-46.9202064839
 10
8.9323550875
 20
-46.8848109292
 10
8.9472996979
 20
-46.8439938602
 10
8.9565950262
 20
-46.7984647352
 10
8.960204748
 20
-46.7490568261
  0
LWPOLYLINE
  5
493
100
AcDbEntity
  8
RACCORDO
100
AcDbPolyline
 62
253
  6
CONTINUOUS
 90
6
 70
0
 10
10.3405581937
 20
-44.6290221633
 10
10.3480018311
 20
-44.6240307032
 10
10.362196754
 20
-44.6093422426
 10
10.3727770777
 20
-44.5900919116
 10
10.3794284112
 20
-44.5668517282
 10
10.381953112
 20
-44.5403122674
  0
LINE
  5
494
100
AcDbEntity
  8
0
100
AcDbLine
 62
7
  6
CONTINUOUS
 10
-2.7158932858
 20
-53.3956830734
 11
-2.2077635973
 21
-53.1022953596
  0
LINE
  5
495
100
AcDbEntity
  8
0
100
AcDbLine
 62
7
  6
CONTINUOUS
 10
-4.8089293581
 20
-54.6612120024
 11
-2.7158932858
 21
-53.4527192062
  0
LINE
  5
496
100
AcDbEntity
  8
RACCORDO
100
AcDbLine
 62
253
  6
CONTINUOUS
 10
8.960204748
 20
-46.7490568261
 11
1.1024294847
 21
-51.286037782
  0
LINE
  5
497
100
AcDbEntity
  8
0
100
AcDbLine
 62
7
  6
CONTINUOUS
 10
-2.6734668789
 20
-53.5426500905
 11
-3.7902604874
 21
-54.1874727234
  0
LINE
  5
498
100
AcDbEntity
  8
RACCORDO
100
AcDbLine
 62
7
  6
CONTINUOUS
 10
8.8567172853
 20
-46.9708316622
 11
0.9989420221
 21
-51.5078126181
  0
LINE
  5
499
100
AcDbEntity
  8
0
100
AcDbLine
 62
7
  6
CONTINUOUS
 10
-2.3623398952
 20
-53.7222909116
 11
-3.4791335037
 21
-54.3671135444
  0
LINE
  5
49A
100
AcDbEntity
  8
0
100
AcDbLine
 62
7
  6
CONTINUOUS
 10
-5.4873167623
 20
-55.5754958669
 11
-5.8762254919
 21
-55.8000468932
  0
LINE
  5
49B
100
AcDbEntity
  8
0
100
AcDbLine
 62
7
  6
CONTINUOUS
 10
-4.143813878
 20
-54.7998451584
 11
-5.2398293889
 21
-55.4326707781
  0
LINE
  5
49C
100
AcDbEntity
  8
0
100
AcDbLine
 62
7
  6
CONTINUOUS
 10
-2.5881789594
 20
-54.2609226952
 11
-3.8326868943
 21
-54.9794859795
  0
LWPOLYLINE
  5
49D
100
AcDbEntity
  8
RACCORDO
100
AcDbPolyline
 62
253
  6
CONTINUOUS
 90
13
 70
0
 10
1.1024294847
 20
-51.286037782
 10
1.0532603196
 20
-51.3117888218
 10
0.9988859924
 20
-51.3334866075
 10
0.9402365016
 20
-51.350760027
 10
0.8783149658
 20
-51.3633136415
 10
0.8141804701
 20
-51.370932737
 10
0.7489299523
 20
-51.3734869984
 10
0.6836794359
 20
-51.3709327387
 10
0.6195449419
 20
-51.3633136453
 10
0.5576234044
 20
-51.3507600325
 10
0.498973908
 20
-51.3334866131
 10
0.4445995731
 20
-51.3117888258
 10
0.3954303993
 20
-51.286037782
  0
LWPOLYLINE
  5
49E
100
AcDbEntity
  8
RACCORDO
100
AcDbPolyline
 62
7
  6
CONTINUOUS
 90
9
 70
0
 10
10.5700607791
 20
-42.9604668293
 10
10.5678023985
 20
-42.8955693854
 10
10.55693511
 20
-42.8305763178
 10
10.5373572736
 20
-42.7668984171
 10
10.5092311206
 20
-42.7059201634
 10
10.4730588509
 20
-42.6490857177
 10
10.4295888383
 20
-42.597644578
 10
10.3792016864
 20
-42.5521992278
 10
10.3202485841
 20
-42.5123206074
  0
LINE
  5
49F
100
AcDbEntity
  8
RACCORDO
100
AcDbLine
 62
7
  6
CONTINUOUS
 10
10.5700607791
 20
-42.9604668293
 11
10.5282786409
 21
-44.3424239699
  0
LINE
  5
4A0
100
AcDbEntity
  8
RACCORDO
100
AcDbLine
 62
253
  6
CONTINUOUS
 10
10.5282786227
 20
-44.3424245704
 11
10.5276677296
 21
-44.3525105108
  0
LWPOLYLINE
  5
4A1
100
AcDbEntity
  8
0
100
AcDbPolyline
 62
7
  6
CONTINUOUS
 90
13
 70
0
 10
9.093224887
 20
-59.3723281343
 10
9.088403273
 20
-59.4112048821
 10
9.07941391
 20
-59.448743289
 10
9.0662567978
 20
-59.4849433549
 10
9.048941595
 20
-59.5197762316
 10
9.0274586431
 20
-59.5532707674
 10
9.0017789663
 20
-59.585513507
 10
8.9718581592
 20
-59.6165548114
 10
8.9377406271
 20
-59.6463443196
 10
8.899530611
 20
-59.6748174938
 10
8.8572628578
 20
-59.7019528213
 10
8.8109026205
 20
-59.7277718148
 10
8.7604498992
 20
-59.7522744743
  0
LWPOLYLINE
  5
4A2
100
AcDbEntity
  8
RACCORDO
100
AcDbPolyline
 62
253
  6
CONTINUOUS
 90
8
 70
0
 10
10.5276677296
 20
-44.3525105108
 10
10.5221922379
 20
-44.3825217425
 10
10.5113093032
 20
-44.4119848595
 10
10.495140466
 20
-44.4405827766
 10
10.473861649
 20
-44.468003378
 10
10.4477043386
 20
-44.4939486437
 10
10.4169559436
 20
-44.5181385089
 10
10.381953112
 20
-44.5403122674
  0
LINE
  5
4A3
100
AcDbEntity
  8
0
100
AcDbLine
 62
7
  6
CONTINUOUS
 10
4.1151933262
 20
-58.7519826768
 11
3.7616399356
 21
-59.3643551118
  0
LWPOLYLINE
  5
4A4
100
AcDbEntity
  8
RACCORDO
100
AcDbPolyline
 62
7
  6
CONTINUOUS
 90
6
 70
0
 10
10.4686734103
 20
-44.5153860816
 10
10.4903979124
 20
-44.4806769441
 10
10.5071582326
 20
-44.4447343591
 10
10.5189258707
 20
-44.408249605
 10
10.5259182883
 20
-44.3716457196
 10
10.5282439144
 20
-44.3419871578
  0
LINE
  5
4A5
100
AcDbEntity
  8
0
100
AcDbLine
 62
7
  6
CONTINUOUS
 10
4.0727669194
 20
-59.5439959329
 11
4.4263203099
 21
-58.9316234978
  0
LWPOLYLINE
  5
4A6
100
AcDbEntity
  8
0
100
AcDbPolyline
 62
7
  6
CONTINUOUS
 90
6
 70
0
 10
9.02742299
 20
-59.9937038259
 10
9.0488419245
 20
-59.9380648356
 10
9.066142933
 20
-59.8814742151
 10
9.0792881922
 20
-59.8239102114
 10
9.0883155254
 20
-59.7653945775
 10
9.0932249326
 20
-59.7059273134
  0
LINE
  5
4A7
100
AcDbEntity
  8
0
100
AcDbLine
 62
7
  6
CONTINUOUS
 10
-0.0893104995
 20
-21.4065504351
 11
-1.0316970756
 21
-20.5499035617
  0
LINE
  5
4A8
100
AcDbEntity
  8
0
100
AcDbLine
 62
7
  6
CONTINUOUS
 10
0.8756346113
 20
-22.3208607628
 11
-0.0893104995
 21
-21.4065504351
  0
LINE
  5
4A9
100
AcDbEntity
  8
0
100
AcDbLine
 62
7
  6
CONTINUOUS
 10
4.1151933262
 20
-58.7519826768
 11
5.2319869348
 21
-58.1071600439
  0
LINE
  5
4AA
100
AcDbEntity
  8
0
100
AcDbLine
 62
7
  6
CONTINUOUS
 10
3.3311918196
 20
-24.037606875
 11
0.8756346113
 21
-22.3208607628
  0
LINE
  5
4AB
100
AcDbEntity
  8
0
100
AcDbLine
 62
7
  6
CONTINUOUS
 10
-1.0316970756
 20
-20.5499035617
 11
-1.9643221075
 21
-19.8681708693
  0
LINE
  5
4AC
100
AcDbEntity
  8
0
100
AcDbLine
 62
7
  6
CONTINUOUS
 10
6.9431853452
 20
-60.6935790178
 11
7.2866215891
 21
-60.3501206469
  0
LINE
  5
4AD
100
AcDbEntity
  8
0
100
AcDbLine
 62
7
  6
CONTINUOUS
 10
10.1251658606
 20
-55.502379975
 11
5.5289717829
 21
-58.1561648316
  0
LINE
  5
4AE
100
AcDbEntity
  8
0
100
AcDbLine
 62
7
  6
CONTINUOUS
 10
5.5289717829
 20
-58.2786353731
 11
5.8263917367
 21
-58.1069088193
  0
LINE
  5
4AF
100
AcDbEntity
  8
0
100
AcDbLine
 62
7
  6
CONTINUOUS
 10
5.8405338723
 20
-58.1150743112
 11
4.4263203099
 21
-58.9316234978
  0
LINE
  5
4B0
100
AcDbEntity
  8
0
100
AcDbLine
 62
7
  6
CONTINUOUS
 10
2.9767514085
 20
-60.1768215526
 11
4.0727669194
 21
-59.5439959329
  0
LINE
  5
4B1
100
AcDbEntity
  8
0
100
AcDbLine
 62
7
  6
CONTINUOUS
 10
8.003845517
 20
-57.992732684
 11
5.8405338723
 21
-59.241801715
  0
LINE
  5
4B2
100
AcDbEntity
  8
0
100
AcDbLine
 62
7
  6
CONTINUOUS
 10
3.3656601382
 20
-60.6870937753
 11
2.9767514085
 21
-60.9116448017
  0
LINE
  5
4B3
100
AcDbEntity
  8
0
100
AcDbLine
 62
7
  6
CONTINUOUS
 10
5.5431139185
 20
-59.4298592525
 11
5.8405338723
 21
-59.2581326987
  0
LINE
  5
4B4
100
AcDbEntity
  8
0
100
AcDbLine
 62
7
  6
CONTINUOUS
 10
3.7435271604
 20
-60.6608071514
 11
5.6032179949
 21
-59.5870449709
  0
LINE
  5
4B5
100
AcDbEntity
  8
0
100
AcDbLine
 62
7
  6
CONTINUOUS
 10
4.9784156875
 20
-23.9284636333
 11
3.3311918196
 21
-24.037606875
  0
LWPOLYLINE
  5
4B6
100
AcDbEntity
  8
0
100
AcDbPolyline
 62
7
  6
CONTINUOUS
 90
8
 70
0
 10
8.7604556888
 20
-60.3648742121
 10
8.8121510715
 20
-60.3125801419
 10
8.8592712285
 20
-60.260109182
 10
8.9018161598
 20
-60.2074613324
 10
8.9395956088
 20
-60.1548730868
 10
8.9727998321
 20
-60.1021079515
 10
9.0019995993
 20
-60.0484564449
 10
9.02742299
 20
-59.9937038259
  0
LINE
  5
4B7
100
AcDbEntity
  8
0
100
AcDbLine
 62
7
  6
CONTINUOUS
 10
4.0020562412
 20
-61.0545409093
 11
3.6131475116
 21
-61.2790919357
  0
LINE
  5
4B8
100
AcDbEntity
  8
0
100
AcDbLine
 62
7
  6
CONTINUOUS
 10
9.0503635532
 20
-58.5969790821
 11
4.6097329673
 21
-61.1609435282
  0
LINE
  5
4B9
100
AcDbEntity
  8
0
100
AcDbLine
 62
7
  6
CONTINUOUS
 10
4.2561754767
 20
-61.4875095442
 11
4.0020562412
 21
-61.6342348059
  0
LINE
  5
4BA
100
AcDbEntity
  8
0
100
AcDbLine
 62
7
  6
CONTINUOUS
 10
4.6097329673
 20
-61.6916492081
 11
5.5289717829
 21
-61.1608922368
  0
LINE
  5
4BB
100
AcDbEntity
  8
0
100
AcDbLine
 62
7
  6
CONTINUOUS
 10
6.9431853452
 20
-60.3443430501
 11
9.4746276219
 21
-58.882720006
  0
LINE
  5
4BC
100
AcDbEntity
  8
0
100
AcDbLine
 62
7
  6
CONTINUOUS
 10
9.0932250091
 20
-59.3723280964
 11
8.5978503792
 21
-59.6583511992
  0
LINE
  5
4BD
100
AcDbEntity
  8
0
100
AcDbLine
 62
7
  6
CONTINUOUS
 10
4.0020562462
 20
-62.9242578461
 11
5.2924233894
 21
-62.1792160296
  0
LINE
  5
4BE
100
AcDbEntity
  8
0
100
AcDbLine
 62
7
  6
CONTINUOUS
 10
6.9431853452
 20
-61.2260867653
 11
8.598067937
 21
-60.2705782973
  0
LWPOLYLINE
  5
4BF
100
AcDbEntity
  8
0
100
AcDbPolyline
 62
7
  6
CONTINUOUS
 90
12
 70
0
 10
9.0503635532
 20
-58.5969790821
 10
9.0825654136
 20
-58.5798602533
 10
9.1141867295
 20
-58.5657369402
 10
9.1452275008
 20
-58.5546091428
 10
9.1758450223
 20
-58.5464610615
 10
9.2058819993
 20
-58.5413084959
 10
9.2348665475
 20
-58.5391988448
 10
9.2627813856
 20
-58.5401750839
 10
9.2896437949
 20
-58.5441942375
 10
9.315033736
 20
-58.5511747764
 10
9.3389298439
 20
-58.5611580172
 10
9.3503624641
 20
-58.567281368
  0
LINE
  5
4C0
100
AcDbEntity
  8
0
100
AcDbLine
 62
7
  6
CONTINUOUS
 10
4.6097329673
 20
-63.0633192731
 11
5.5289717829
 21
-62.5325623018
  0
LINE
  5
4C1
100
AcDbEntity
  8
0
100
AcDbLine
 62
7
  6
CONTINUOUS
 10
6.9431853452
 20
-61.7160131151
 11
9.4746276219
 21
-60.254390071
  0
LINE
  5
4C2
100
AcDbEntity
  8
0
100
AcDbLine
 62
7
  6
CONTINUOUS
 10
2.9767514085
 20
-64.0958788812
 11
4.0727669194
 21
-63.4630532615
  0
LINE
  5
4C3
100
AcDbEntity
  8
0
100
AcDbLine
 62
7
  6
CONTINUOUS
 10
4.4263203099
 20
-63.6671511032
 11
4.5672108935
 21
-63.5858026461
  0
LINE
  5
4C4
100
AcDbEntity
  8
0
100
AcDbLine
 62
7
  6
CONTINUOUS
 10
4.6097329673
 20
-63.6103543586
 11
9.0503635532
 21
-61.0463899125
  0
LINE
  5
4C5
100
AcDbEntity
  8
0
100
AcDbLine
 62
7
  6
CONTINUOUS
 10
10.1251658606
 20
-60.4828486634
 11
5.5289717829
 21
-63.13663352
  0
LINE
  5
4C6
100
AcDbEntity
  8
0
100
AcDbLine
 62
7
  6
CONTINUOUS
 10
-1.9643221075
 20
-19.8681708693
 11
-2.2077635973
 21
-19.8063014486
  0
ARC
  5
4C7
100
AcDbEntity
  8
RACCORDO
100
AcDbCircle
 62
7
  6
CONTINUOUS
 10
6.1229414791
 20
8.9665433928
 40
0.5
100
AcDbArc
 50
239.9984020922
 51
300.0015989619
  0
ARC
  5
4C8
100
AcDbEntity
  8
RACCORDO
100
AcDbCircle
 62
7
  6
CONTINUOUS
 10
0.748929942
 20
-51.0748068909
 40
0.5
100
AcDbArc
 50
239.9984010398
 51
300.0015979095
  0
ARC
  5
4C9
100
AcDbEntity
  8
RACCORDO
100
AcDbCircle
 62
7
  6
CONTINUOUS
 10
-3.3522893888
 20
-35.1953280951
 40
0.5
100
AcDbArc
 50
59.9984010381
 51
120.0015979078
  0
ENDSEC
  0
SECTION
  2
OBJECTS
  0
DICTIONARY
  5
C
100
AcDbDictionary
280
0
281
1
  3
ACAD_GROUP
350
D
  3
ACAD_MLINESTYLE
350
17
  3
ACAD_LAYOUT
350
1A
  3
ACAD_PLOTSETTINGS
350
19
  3
ACAD_PLOTSTYLENAME
350
E
  0
DICTIONARY
  5
D
102
{ACAD_REACTORS
330
C
102
}
100
AcDbDictionary
280
0
281
1
  0
ACDBDICTIONARYWDFLT
  5
E
102
{ACAD_REACTORS
330
C
102
}
100
AcDbDictionary
281
1
  3
Normal
350
F
100
AcDbDictionaryWithDefault
340
F
  0
DICTIONARY
  5
17
102
{ACAD_REACTORS
330
C
102
}
100
AcDbDictionary
280
0
281
1
  3
Standard
350
18
  0
DICTIONARY
  5
19
102
{ACAD_REACTORS
330
C
102
}
100
AcDbDictionary
281
1
  0
DICTIONARY
  5
1A
102
{ACAD_REACTORS
330
C
102
}
100
AcDbDictionary
281
1
  3
Model
350
4CA
  3
Layout1
350
4CB
  0
ACDBPLACEHOLDER
  5
F
102
{ACAD_REACTORS
330
E
102
}
  0
MLINESTYLE
  5
18
102
{ACAD_REACTORS
330
17
102
}
100
AcDbMlineStyle
  2
STANDARD
 70
0
  3

 62
256
 51
90.0
 52
90.0
 71
2
 49
0.5
 62
256
  6
BYLAYER
 49
-0.5
 62
256
  6
BYLAYER
  0
LAYOUT
  5
4CA
102
{ACAD_REACTORS
330
1A
102
}
100
AcDbPlotSettings
  1

  2
none_device
  4

  6

 40
0.0
 41
0.0
 42
0.0
 43
0.0
 44
210.0
 45
297.0
 46
0.0
 47
0.0
 48
0.0
 49
0.0
140
0.0
141
0.0
142
1.0
143
1.0
 70
1024
 72
1
 73
0
 74
0
  7

 75
0
147
1.0
148
0.0
149
0.0
100
AcDbLayout
  1
Model
 70
0
 71
0
 10
0.0
 20
0.0
 11
210.0
 21
297.0
 12
0.0
 22
0.0
 32
0.0
 14
0.0
 24
0.0
 34
0.0
 15
0.0
 25
0.0
 35
0.0
146
0.0
 13
0.0
 23
0.0
 33
0.0
 16
1.0
 26
0.0
 36
0.0
 17
0.0
 27
1.0
 37
0.0
 76
0
330
20F
345
0
346
0
  0
LAYOUT
  5
4CB
102
{ACAD_REACTORS
330
1A
102
}
100
AcDbPlotSettings
  1

  2
none_device
  4

  6

 40
0.0
 41
0.0
 42
0.0
 43
0.0
 44
210.0
 45
297.0
 46
0.0
 47
0.0
 48
0.0
 49
0.0
140
0.0
141
0.0
142
1.0
143
1.0
 70
0
 72
1
 73
0
 74
0
  7

 75
0
147
1.0
148
0.0
149
0.0
100
AcDbLayout
  1
Layout1
 70
0
 71
1
 10
0.0
 20
0.0
 11
210.0
 21
297.0
 12
0.0
 22
0.0
 32
0.0
 14
0.0
 24
0.0
 34
0.0
 15
0.0
 25
0.0
 35
0.0
146
0.0
 13
0.0
 23
0.0
 33
0.0
 16
1.0
 26
0.0
 36
0.0
 17
0.0
 27
1.0
 37
0.0
 76
0
330
210
345
0
346
0
  0
ENDSEC
  0
EOF
