  0
SECTION
  2
HEADER
  9
$ACADVER
  1
AC1021
  9
$DWGCODEPAGE
  3
ANSI_1252
  9
$EXTMAX
 10
297.0
 20
210.0
 30
0.0
  9
$EXTMIN
 10
0.0
 20
0.0
 30
0.0
  9
$LIMMIN
 10
0.0
 20
0.0
  9
$LIMMAX
 10
297.0
 20
210.0
  9
$VIEWCTR
 10
148.5
 20
105.0
  9
$VIEWSIZE
 40
210.0
  9
$CLAYER
  8
0
  9
$LTSCALE
 40
16.335
  9
$CELTYPE
  6
BYLAYER
  9
$DIMSCALE
 40
1.0
  9
$DIMASZ
 40
3.0
  9
$DIMEXO
 40
0.5
  9
$DIMDLI
 40
11.286
  9
$DIMEXE
 40
1.5
  9
$DIMCEN
 40
2.673
  9
$DIMLFAC
 40
1.0
  9
$DIMBLK
  1
_FILLED
  9
$DIMALT
 70
0
  9
$DIMALTF
 40
0.0393700787
  9
$DIMTXT
 40
3.0
  9
$DIMTOL
 70
1
  9
$DIMLIM
 70
0
  9
$DIMTFAC
 40
1.0
  9
$DIMTP
 40
0.01
  9
$DIMTM
 40
0.01
  9
$DIMGAP
 40
0.625
  9
$DIMDSEP
 70
44
  9
$AUNITS
 70
0
  9
$PDMODE
 70
3
  9
$PDSIZE
 40
3.0
  9
$HANDSEED
  5
591
  9
$TILEMODE
 70
1
  9
$MEASUREMENT
 70
1
  9
$INSUNITS
 70
4
  0
ENDSEC
  0
SECTION
  2
CLASSES
  0
CLASS
  1
ACDBDICTIONARYWDFLT
  2
AcDbDictionaryWithDefault
  3
AutoCAD 2000
 90
0
 91
1
280
0
281
0
  0
CLASS
  1
ACDBPLACEHOLDER
  2
AcDbPlaceHolder
  3
AutoCAD 2000
 90
0
 91
1
280
0
281
0
  0
CLASS
  1
LAYOUT
  2
AcDbLayout
  3
AutoCAD 2000
 90
0
 91
0
280
0
281
0
  0
ENDSEC
  0
SECTION
  2
TABLES
  0
TABLE
  2
VPORT
  5
8
100
AcDbSymbolTable
 70
2
  0
VPORT
  5
1F4
100
AcDbSymbolTableRecord
100
AcDbViewportTableRecord
  2
*ACTIVE
 70
0
 10
0.0
 20
0.0
 11
1.0
 21
1.0
 12
148.5
 22
105.0
 13
0.0
 23
0.0
 14
1.0
 24
1.0
 15
0.0
 25
0.0
 16
0.0
 26
0.0
 36
1.0
 17
0.0
 27
0.0
 37
0.0
 40
210.0
 41
1.4142857143
 42
50.0
 43
0.0
 44
0.0
 50
0.0
 51
0.0
 71
0
 72
100
 73
1
 74
1
 75
0
 76
0
 77
0
 78
0
  0
ENDTAB
  0
TABLE
  2
LTYPE
  5
5
100
AcDbSymbolTable
 70
6
  0
LTYPE
  5
14
100
AcDbSymbolTableRecord
100
AcDbLinetypeTableRecord
  2
BYBLOCK
 70
0
  3

 72
65
 73
0
 40
0.0
  0
LTYPE
  5
15
100
AcDbSymbolTableRecord
100
AcDbLinetypeTableRecord
  2
BYLAYER
 70
0
  3

 72
65
 73
0
 40
0.0
  0
LTYPE
  5
16
100
AcDbSymbolTableRecord
100
AcDbLinetypeTableRecord
  2
CONTINUOUS
 70
64
  3
Solid line
 72
65
 73
0
 40
0.0
  0
LTYPE
  5
1F5
100
AcDbSymbolTableRecord
100
AcDbLinetypeTableRecord
  2
CENTER
 70
64
  3
____ _ ____ _ ____ _ ____ _ ____ _ ____ _ ____
 72
65
 73
4
 40
0.6
 49
0.375
 74
0
 49
-0.075
 74
0
 49
0.075
 74
0
 49
-0.075
 74
0
  0
LTYPE
  5
1F6
100
AcDbSymbolTableRecord
100
AcDbLinetypeTableRecord
  2
HIDDEN
 70
64
  3
- - - - - - - - - - - - - - - - - - - -
 72
65
 73
2
 40
0.2
 49
0.1
 74
0
 49
-0.1
 74
0
  0
LTYPE
  5
1F7
100
AcDbSymbolTableRecord
100
AcDbLinetypeTableRecord
  2
PHANTOM
 70
64
  3
_____ _ _ _____ _ _ _____ _ _ _____
 72
65
 73
6
 40
0.8
 49
0.45
 74
0
 49
-0.05
 74
0
 49
0.1
 74
0
 49
-0.05
 74
0
 49
0.1
 74
0
 49
-0.05
 74
0
  0
LTYPE
  5
1F8
100
AcDbSymbolTableRecord
100
AcDbLinetypeTableRecord
  2
DOT
 70
64
  3
. . . . . . . . . . . . . . . . . . . .
 72
65
 73
2
 40
0.2
 49
0.1
 74
0
 49
-0.1
 74
0
  0
LTYPE
  5
1F9
100
AcDbSymbolTableRecord
100
AcDbLinetypeTableRecord
  2
DASHED
 70
64
  3
- - - - - - - - - - - - - - - - - - - -
 72
65
 73
2
 40
0.2
 49
0.1
 74
0
 49
-0.1
 74
0
  0
ENDTAB
  0
TABLE
  2
LAYER
  5
2
100
AcDbSymbolTable
 70
36
  0
LAYER
  5
10
100
AcDbSymbolTableRecord
100
AcDbLayerTableRecord
  2
0
 70
0
 62
7
  6
CONTINUOUS
370
-3
390
F
  0
LAYER
  5
1FA
100
AcDbSymbolTableRecord
100
AcDbLayerTableRecord
  2
DEFAULT_1
 70
0
 62
7
  6
CENTER
370
-3
390
F
  0
LAYER
  5
1FB
100
AcDbSymbolTableRecord
100
AcDbLayerTableRecord
  2
DEFAULT_2
 70
0
 62
7
  6
HIDDEN
370
-3
390
F
  0
LAYER
  5
1FC
100
AcDbSymbolTableRecord
100
AcDbLayerTableRecord
  2
DEFAULT_3
 70
0
 62
7
  6
PHANTOM
370
-3
390
F
  0
LAYER
  5
1FD
100
AcDbSymbolTableRecord
100
AcDbLayerTableRecord
  2
ASSI
 70
0
 62
7
  6
CONTINUOUS
370
-3
390
F
  0
LAYER
  5
1FE
100
AcDbSymbolTableRecord
100
AcDbLayerTableRecord
  2
COORDINATE
 70
0
 62
7
  6
CONTINUOUS
370
-3
390
F
  0
LAYER
  5
1FF
100
AcDbSymbolTableRecord
100
AcDbLayerTableRecord
  2
COPY_PUBLISH
 70
0
 62
7
  6
CONTINUOUS
370
-3
390
F
  0
LAYER
  5
200
100
AcDbSymbolTableRecord
100
AcDbLayerTableRecord
  2
COSMETICI
 70
0
 62
7
  6
CONTINUOUS
370
-3
390
F
  0
LAYER
  5
201
100
AcDbSymbolTableRecord
100
AcDbLayerTableRecord
  2
CURVE
 70
0
 62
7
  6
CONTINUOUS
370
-3
390
F
  0
LAYER
  5
202
100
AcDbSymbolTableRecord
100
AcDbLayerTableRecord
  2
DRAFT
 70
0
 62
7
  6
CONTINUOUS
370
-3
390
F
  0
LAYER
  5
203
100
AcDbSymbolTableRecord
100
AcDbLayerTableRecord
  2
IMPORT_IGES
 70
0
 62
7
  6
CONTINUOUS
370
-3
390
F
  0
LAYER
  5
204
100
AcDbSymbolTableRecord
100
AcDbLayerTableRecord
  2
INTF_11
 70
0
 62
7
  6
CONTINUOUS
370
-3
390
F
  0
LAYER
  5
205
100
AcDbSymbolTableRecord
100
AcDbLayerTableRecord
  2
INTF_2
 70
0
 62
7
  6
CONTINUOUS
370
-3
390
F
  0
LAYER
  5
206
100
AcDbSymbolTableRecord
100
AcDbLayerTableRecord
  2
NOTE
 70
0
 62
7
  6
CONTINUOUS
370
-3
390
F
  0
LAYER
  5
207
100
AcDbSymbolTableRecord
100
AcDbLayerTableRecord
  2
PIANI
 70
0
 62
7
  6
CONTINUOUS
370
-3
390
F
  0
LAYER
  5
208
100
AcDbSymbolTableRecord
100
AcDbLayerTableRecord
  2
PUNTI
 70
0
 62
7
  6
CONTINUOUS
370
-3
390
F
  0
LAYER
  5
209
100
AcDbSymbolTableRecord
100
AcDbLayerTableRecord
  2
RACCORDO
 70
0
 62
7
  6
CONTINUOUS
370
-3
390
F
  0
LAYER
  5
20A
100
AcDbSymbolTableRecord
100
AcDbLayerTableRecord
  2
SIMBOLI
 70
0
 62
7
  6
CONTINUOUS
370
-3
390
F
  0
LAYER
  5
20B
100
AcDbSymbolTableRecord
100
AcDbLayerTableRecord
  2
SMUSSO
 70
0
 62
7
  6
CONTINUOUS
370
-3
390
F
  0
LAYER
  5
20C
100
AcDbSymbolTableRecord
100
AcDbLayerTableRecord
  2
SNAPLINE
 70
0
 62
7
  6
CONTINUOUS
370
-3
390
F
  0
LAYER
  5
20D
100
AcDbSymbolTableRecord
100
AcDbLayerTableRecord
  2
SUPERFICI
 70
0
 62
7
  6
CONTINUOUS
370
-3
390
F
  0
LAYER
  5
20E
100
AcDbSymbolTableRecord
100
AcDbLayerTableRecord
  2
TRASH
 70
0
 62
7
  6
CONTINUOUS
370
-3
390
F
  0
ENDTAB
  0
TABLE
  2
STYLE
  5
3
100
AcDbSymbolTable
 70
1
  0
STYLE
  5
11
100
AcDbSymbolTableRecord
100
AcDbTextStyleTableRecord
  2
STANDARD
 70
0
 40
0.0
 41
0.8
 50
0.0
 71
0
 42
0.2
  3
txt
  4

  0
STYLE
  5
20F
100
AcDbSymbolTableRecord
100
AcDbTextStyleTableRecord
  2
TEXTSTYLE_1
 70
0
 40
0.0
 41
0.8
 50
0.0
 71
0
 42
0.2
  3
gdt
  4

  0
ENDTAB
  0
TABLE
  2
VIEW
  5
6
100
AcDbSymbolTable
 70
0
  0
ENDTAB
  0
TABLE
  2
UCS
  5
7
100
AcDbSymbolTable
 70
0
  0
ENDTAB
  0
TABLE
  2
APPID
  5
9
100
AcDbSymbolTable
 70
1
  0
APPID
  5
210
100
AcDbSymbolTableRecord
100
AcDbRegAppTableRecord
  2
ACAD
 70
0
  0
ENDTAB
  0
TABLE
  2
BLOCK_RECORD
  5
1
100
AcDbSymbolTable
 70
0
  0
BLOCK_RECORD
  5
211
100
AcDbSymbolTableRecord
100
AcDbBlockTableRecord
  2
*Model_Space
  0
BLOCK_RECORD
  5
212
100
AcDbSymbolTableRecord
100
AcDbBlockTableRecord
  2
*Paper_Space
  0
ENDTAB
  0
TABLE
  2
DIMSTYLE
  5
A
100
AcDbSymbolTable
 70
1
100
AcDbDimStyleTable
 71
0
  0
DIMSTYLE
105
213
100
AcDbSymbolTableRecord
100
AcDbDimStyleTableRecord
  2
STANDARD
 70
0
  3

  4

 40
1.0
 41
3.0
 42
0.5
 43
0.38
 44
1.5
 45
0.0
 46
0.0
 47
0.01
 48
0.01
140
3.0
141
0.09
142
0.0
143
25.4
144
1.0
145
0.0
146
1.0
147
0.625
 71
1.0
 72
0.0
 73
0
 74
0
 75
0
 76
0
 77
1
 78
8
170
0
171
2
172
0
173
0
174
0
175
0
176
0
177
0
178
0
270
2
271
2
272
2
273
2
274
2
275
0
280
0
281
0
282
0
283
1
284
8
285
0
286
0
287
3
288
0
340
11
278
44
  0
ENDTAB
  0
ENDSEC
  0
SECTION
  2
BLOCKS
  0
BLOCK
  5
20
100
AcDbEntity
  8
0
100
AcDbBlockBegin
  2
*Model_Space
 70
0
 10
0.0
 20
0.0
 30
0.0
  3
*Model_Space
  1

  0
ENDBLK
  5
21
100
AcDbEntity
  8
0
100
AcDbBlockEnd
  0
BLOCK
  5
1C
100
AcDbEntity
  8
0
100
AcDbBlockBegin
  2
*Paper_Space
 70
0
 10
0.0
 20
0.0
 30
0.0
  3
*Paper_Space
  1

  0
ENDBLK
  5
1D
100
AcDbEntity
  8
0
100
AcDbBlockEnd
  0
ENDSEC
  0
SECTION
  2
ENTITIES
  0
LINE
  5
214
100
AcDbEntity
  8
RACCORDO
100
AcDbLine
 62
7
  6
CONTINUOUS
 10
-25.3798491771
 20
64.1382143893
 11
-23.4334544216
 21
65.2228092789
  0
LWPOLYLINE
  5
215
100
AcDbEntity
  8
RACCORDO
100
AcDbPolyline
 62
7
  6
CONTINUOUS
 90
9
 70
0
 10
-23.4334544216
 20
65.2228092789
 10
-23.4223140253
 20
65.228303181
 10
-23.4115372481
 20
65.23235381
 10
-23.4011240901
 20
65.234961166
 10
-23.3909715133
 20
65.2361222788
 10
-23.3811825556
 20
65.2358401186
 10
-23.372066331
 20
65.2341235953
 10
-23.3636443089
 20
65.230926933
 10
-23.3603180536
 20
65.229162345
  0
LWPOLYLINE
  5
216
100
AcDbEntity
  8
ASSI
100
AcDbPolyline
 62
253
  6
CONTINUOUS
 90
18
 70
0
 10
-27.0115622927
 20
61.882524269
 10
-27.0413216121
 20
61.8596940894
 10
-27.0705558286
 20
61.8342591877
 10
-27.0990522247
 20
61.8064046363
 10
-27.1266034518
 20
61.7763331136
 10
-27.1530090384
 20
61.7442634297
 10
-27.178076849
 20
61.7104289336
 10
-27.2016244824
 20
61.6750758159
 10
-27.2234805986
 20
61.6384613169
 10
-27.2434861655
 20
61.6008518554
 10
-27.2614956163
 20
61.5625210897
 10
-27.2773779085
 20
61.5237479266
 10
-27.2910174776
 20
61.4848144918
 10
-27.3023150778
 20
61.4460040773
 10
-27.3111885041
 20
61.40759908
 10
-27.3175731908
 20
61.3698789467
 10
-27.3214226807
 20
61.3331181412
 10
-27.3227089638
 20
61.2975841465
  0
LWPOLYLINE
  5
217
100
AcDbEntity
  8
ASSI
100
AcDbPolyline
 62
7
  6
CONTINUOUS
 90
16
 70
0
 10
-27.5029678008
 20
61.9385671605
 10
-27.5186505068
 20
61.9278903237
 10
-27.556670303
 20
61.8991330551
 10
-27.5931800632
 20
61.8671622431
 10
-27.6279078161
 20
61.8319971457
 10
-27.6605397742
 20
61.7937282437
 10
-27.6907584034
 20
61.7525181373
 10
-27.7183407774
 20
61.7084803853
 10
-27.7430537704
 20
61.6617873552
 10
-27.7646595763
 20
61.6127005468
 10
-27.7830217583
 20
61.5613400405
 10
-27.7980047384
 20
61.507901986
 10
-27.8094775111
 20
61.4527043687
 10
-27.8173760638
 20
61.395905318
 10
-27.8216603881
 20
61.3375699093
 10
-27.8224878701
 20
61.2978187509
  0
LWPOLYLINE
  5
218
100
AcDbEntity
  8
ASSI
100
AcDbPolyline
 62
7
  6
CONTINUOUS
 90
17
 70
0
 10
-31.7241219144
 20
56.6276156701
 10
-31.7512247764
 20
56.609220144
 10
-31.8285110828
 20
56.5509372143
 10
-31.901997882
 20
56.4864486722
 10
-31.9713670974
 20
56.415858083
 10
-32.0362474201
 20
56.3393545498
 10
-32.0963008238
 20
56.2571686305
 10
-32.1513172199
 20
56.1693835209
 10
-32.2010364608
 20
56.0761443184
 10
-32.2452029644
 20
55.977657784
 10
-32.283660465
 20
55.8739485951
 10
-32.3161891776
 20
55.7651503594
 10
-32.3426069611
 20
55.6512990284
 10
-32.3627743161
 20
55.5320951297
 10
-32.3764351692
 20
55.4073912837
 10
-32.3832926128
 20
55.2773516031
 10
-32.384084659
 20
55.2146734502
  0
LINE
  5
219
100
AcDbEntity
  8
ASSI
100
AcDbLine
 62
7
  6
CONTINUOUS
 10
-26.4628596991
 20
62.6260321481
 11
-27.5033007401
 21
61.9383495193
  0
LINE
  5
21A
100
AcDbEntity
  8
ASSI
100
AcDbLine
 62
253
  6
CONTINUOUS
 10
-25.9459653524
 20
62.5870196445
 11
-27.0115622927
 21
61.882524269
  0
LINE
  5
21B
100
AcDbEntity
  8
ASSI
100
AcDbLine
 62
7
  6
CONTINUOUS
 10
-27.4629678876
 20
59.4436205032
 11
-31.7244993108
 21
56.6273690131
  0
LINE
  5
21C
100
AcDbEntity
  8
ASSI
100
AcDbLine
 62
253
  6
CONTINUOUS
 10
-26.1798583407
 20
59.3452376806
 11
-30.4869059601
 21
56.4988726973
  0
LWPOLYLINE
  5
21D
100
AcDbEntity
  8
ASSI
100
AcDbPolyline
 62
253
  6
CONTINUOUS
 90
17
 70
0
 10
-31.7241708234
 20
56.6275859707
 10
-31.6858707609
 20
56.6512633904
 10
-31.6220624935
 20
56.6841831406
 10
-31.5550859732
 20
56.7110514285
 10
-31.4851003822
 20
56.7318066457
 10
-31.4123080153
 20
56.7463811649
 10
-31.3369145491
 20
56.7547267482
 10
-31.2590966092
 20
56.756834334
 10
-31.179075592
 20
56.7526848588
 10
-31.097083718
 20
56.7422785968
 10
-31.0133245609
 20
56.7256618147
 10
-30.9280512607
 20
56.7028709503
 10
-30.8415014117
 20
56.6739565483
 10
-30.7538623483
 20
56.6390092488
 10
-30.6653671841
 20
56.5981166215
 10
-30.5762950246
 20
56.5513669912
 10
-30.4869059601
 20
56.4988726973
  0
LWPOLYLINE
  5
21E
100
AcDbEntity
  8
ASSI
100
AcDbPolyline
 62
253
  6
CONTINUOUS
 90
14
 70
0
 10
-27.5030050307
 20
61.9385447434
 10
-27.48616401
 20
61.9489456971
 10
-27.4523841733
 20
61.9659778468
 10
-27.4165366793
 20
61.9792780071
 10
-27.3787731635
 20
61.9887900564
 10
-27.339255964
 20
61.9944720634
 10
-27.298154708
 20
61.9962992437
 10
-27.255643699
 20
61.994265567
 10
-27.2119086964
 20
61.9883785635
 10
-27.1671364638
 20
61.9786628076
 10
-27.1215110085
 20
61.9651618119
 10
-27.0752265115
 20
61.947932084
 10
-27.0284867133
 20
61.9270437498
 10
-26.9814944086
 20
61.9025836068
  0
LINE
  5
21F
100
AcDbEntity
  8
RACCORDO
100
AcDbLine
 62
7
  6
CONTINUOUS
 10
-26.797764954
 20
63.2909498899
 11
-25.3798491771
 21
64.1382143893
  0
LWPOLYLINE
  5
220
100
AcDbEntity
  8
ASSI
100
AcDbPolyline
 62
253
  6
CONTINUOUS
 90
22
 70
0
 10
-30.4869059601
 20
56.4988726964
 10
-30.5308469724
 20
56.4732965146
 10
-30.5744404097
 20
56.4444240431
 10
-30.6174532139
 20
56.4124096391
 10
-30.6596554311
 20
56.3774244574
 10
-30.7008214409
 20
56.3396555347
 10
-30.7407311624
 20
56.2993047903
 10
-30.7791712316
 20
56.2565879463
 10
-30.8159361409
 20
56.2117333745
 10
-30.8508293388
 20
56.1649808752
 10
-30.8836642802
 20
56.1165803953
 10
-30.9142654238
 20
56.0667906925
 10
-30.9424691704
 20
56.015877951
 10
-30.968124738
 20
55.9641143592
 10
-30.9910949673
 20
55.9117766544
 10
-31.0112570556
 20
55.8591446431
 10
-31.0285032129
 20
55.8064997052
 10
-31.042741238
 20
55.7541232897
 10
-31.0538950121
 20
55.70229541
 10
-31.0619049051
 20
55.6512931471
 10
-31.0667280949
 20
55.601389168
 10
-31.0683387956
 20
55.552850268
  0
LWPOLYLINE
  5
221
100
AcDbEntity
  8
RACCORDO
100
AcDbPolyline
 62
253
  6
CONTINUOUS
 90
3
 70
0
 10
29.733935242
 20
-51.530908933
 10
29.7283389047
 20
-51.532411085
 10
29.7036307971
 20
-51.536995605
  0
LINE
  5
222
100
AcDbEntity
  8
RACCORDO
100
AcDbLine
 62
7
  6
CONTINUOUS
 10
29.6402005554
 20
-53.1843867685
 11
29.4705892483
 21
-53.2151270789
  0
LWPOLYLINE
  5
223
100
AcDbEntity
  8
RACCORDO
100
AcDbPolyline
 62
7
  6
CONTINUOUS
 90
5
 70
0
 10
29.4008432561
 20
-53.239401006
 10
29.4199065316
 20
-53.2361575192
 10
29.4489368993
 20
-53.2292276805
 10
29.4772240646
 20
-53.220017457
 10
29.5045795086
 20
-53.208600898
  0
LINE
  5
224
100
AcDbEntity
  8
RACCORDO
100
AcDbLine
 62
7
  6
CONTINUOUS
 10
29.4009208386
 20
-53.2393947366
 11
29.400843943
 21
-53.2394058027
  0
LINE
  5
225
100
AcDbEntity
  8
RACCORDO
100
AcDbLine
 62
253
  6
CONTINUOUS
 10
29.400843943
 20
-53.2394058027
 11
29.3961785939
 21
-53.2400173303
  0
LWPOLYLINE
  5
226
100
AcDbEntity
  8
RACCORDO
100
AcDbPolyline
 62
253
  6
CONTINUOUS
 90
15
 70
0
 10
29.1459949869
 20
-53.0649449858
 10
29.0047409775
 20
-53.0810081502
 10
28.8606280121
 20
-53.0889110741
 10
28.7136560906
 20
-53.0886537575
 10
28.5635417533
 20
-53.0802148054
 10
28.4105684599
 20
-53.0636156128
 10
28.2555865902
 20
-53.038920365
 10
28.0986657707
 20
-53.0060952524
 10
27.9397363748
 20
-52.9651740846
 10
27.7794399033
 20
-52.9163224752
 10
27.6176877909
 20
-52.8594672751
 10
27.4545686028
 20
-52.7946816334
 10
27.2909895348
 20
-52.7223506106
 10
27.1272529853
 20
-52.6426025601
 10
26.9630565559
 20
-52.5553091286
  0
LWPOLYLINE
  5
227
100
AcDbEntity
  8
RACCORDO
100
AcDbPolyline
 62
253
  6
CONTINUOUS
 90
13
 70
0
 10
29.3961785939
 20
-53.2400173303
 10
29.3714713861
 20
-53.2413268539
 10
29.3466212152
 20
-53.2394342265
 10
29.3218943467
 20
-53.2343597346
 10
29.2975557139
 20
-53.2261577583
 10
29.2738660867
 20
-53.2149161854
 10
29.2510792882
 20
-53.2007554758
 10
29.2294394602
 20
-53.1838273638
 10
29.2091784514
 20
-53.1643132317
 10
29.19051334
 20
-53.142422172
 10
29.1736441013
 20
-53.1183887412
 10
29.158751466
 20
-53.0924704458
 10
29.1459949869
 20
-53.0649449858
  0
LINE
  5
228
100
AcDbEntity
  8
RACCORDO
100
AcDbLine
 62
253
  6
CONTINUOUS
 10
26.8913542897
 20
-47.4458013451
 11
26.9537380111
 21
-47.4339521219
  0
LINE
  5
229
100
AcDbEntity
  8
0
100
AcDbLine
 62
7
  6
CONTINUOUS
 10
26.9460526307
 20
-45.6190326171
 11
26.7548522447
 21
-45.6544985928
  0
LWPOLYLINE
  5
22A
100
AcDbEntity
  8
RACCORDO
100
AcDbPolyline
 62
7
  6
CONTINUOUS
 90
6
 70
0
 10
26.9204712131
 20
-47.4225883727
 10
26.9203594988
 20
-47.4226028083
 10
26.9208606593
 20
-47.4226074131
 10
26.9220554582
 20
-47.4227288443
 10
26.9237870378
 20
-47.4230570701
 10
26.9259585967
 20
-47.4236428506
  0
LINE
  5
22B
100
AcDbEntity
  8
RACCORDO
100
AcDbLine
 62
253
  6
CONTINUOUS
 10
26.9500377905
 20
-47.7026094623
 11
27.5032939425
 21
-47.6393701756
  0
LINE
  5
22C
100
AcDbEntity
  8
RACCORDO
100
AcDbLine
 62
253
  6
CONTINUOUS
 10
26.8913542926
 20
-47.6479425729
 11
27.3798318133
 21
-47.5932213692
  0
LWPOLYLINE
  5
22D
100
AcDbEntity
  8
RACCORDO
100
AcDbPolyline
 62
253
  6
CONTINUOUS
 90
3
 70
0
 10
27.8318242251
 20
-47.6027751248
 10
28.1278804819
 20
-47.5708767685
 10
28.1489496815
 20
-47.5686689606
  0
LINE
  5
22E
100
AcDbEntity
  8
RACCORDO
100
AcDbLine
 62
253
  6
CONTINUOUS
 10
27.9873287879
 20
-47.5285322811
 11
28.141170713
 21
-47.5132375191
  0
LWPOLYLINE
  5
22F
100
AcDbEntity
  8
RACCORDO
100
AcDbPolyline
 62
253
  6
CONTINUOUS
 90
13
 70
0
 10
29.7036307971
 20
-51.536995605
 10
29.6783681191
 20
-51.5384232568
 10
29.6528215342
 20
-51.5366787372
 10
29.6272647404
 20
-51.5317807259
 10
29.6019715583
 20
-51.5237816882
 10
29.5772129881
 20
-51.5127673155
 10
29.5532542942
 20
-51.4988556013
 10
29.5303521813
 20
-51.4821955843
 10
29.5087520381
 20
-51.462965753
 10
29.4886853005
 20
-51.441372126
 10
29.4703669806
 20
-51.4176460519
 10
29.4539933617
 20
-51.3920417332
 10
29.439739891
 20
-51.3648334977
  0
LWPOLYLINE
  5
230
100
AcDbEntity
  8
RACCORDO
100
AcDbPolyline
 62
7
  6
CONTINUOUS
 90
3
 70
0
 10
27.638974082
 20
-47.6822372723
 10
27.6533217241
 20
-47.6815563162
 10
27.6669393296
 20
-47.6791274465
  0
LWPOLYLINE
  5
231
100
AcDbEntity
  8
ASSI
100
AcDbPolyline
 62
253
  6
CONTINUOUS
 90
13
 70
0
 10
24.0374711789
 20
-57.9709489339
 10
23.993030325
 20
-57.9621442204
 10
23.9473543125
 20
-57.9557869154
 10
23.9008464658
 20
-57.9519331547
 10
23.8539174546
 20
-57.9506169675
 10
23.8069816673
 20
-57.9518499759
 10
23.7604535522
 20
-57.9556212922
 10
23.714743958
 20
-57.9618976153
 10
23.6702565055
 20
-57.9706235245
 10
23.627384024
 20
-57.9817219691
 10
23.5865050824
 20
-57.9950949485
 10
23.5479806465
 20
-58.0106243778
 10
23.5121508913
 20
-58.0281731304
  0
LWPOLYLINE
  5
232
100
AcDbEntity
  8
ASSI
100
AcDbPolyline
 62
253
  6
CONTINUOUS
 90
21
 70
0
 10
22.4056406607
 20
-59.4680972496
 10
22.4844954119
 20
-59.4956229182
 10
22.5746457223
 20
-59.5222902453
 10
22.6640335417
 20
-59.5438106053
 10
22.7526797511
 20
-59.5602708336
 10
22.8398239844
 20
-59.5714306199
 10
22.9254423056
 20
-59.5772067004
 10
23.0095586507
 20
-59.577682339
 10
23.0914844608
 20
-59.5728670175
 10
23.1711355344
 20
-59.5627063282
 10
23.248596073
 20
-59.5472546787
 10
23.3234301226
 20
-59.5266847739
 10
23.395577261
 20
-59.500998659
 10
23.4650979105
 20
-59.4701942888
 10
23.5317373841
 20
-59.4344382313
 10
23.5954967589
 20
-59.3937397985
 10
23.6563749579
 20
-59.3480896785
 10
23.7141140629
 20
-59.2976265043
 10
23.7686281012
 20
-59.2423964869
 10
23.8200030455
 20
-59.1823534153
 10
23.8682388958
 20
-59.1174972896
  0
LWPOLYLINE
  5
233
100
AcDbEntity
  8
RACCORDO
100
AcDbPolyline
 62
253
  6
CONTINUOUS
 90
9
 70
0
 10
26.8056157304
 20
-42.1604488926
 10
26.827663217
 20
-42.1567328748
 10
26.8507235981
 20
-42.1554876007
 10
26.8746686461
 20
-42.1567199214
 10
26.899368677
 20
-42.1604228761
 10
26.9246935781
 20
-42.1665763844
 10
26.9505063622
 20
-42.1751482013
 10
26.9766635832
 20
-42.186092901
 10
27.0030215284
 20
-42.1993519934
  0
LWPOLYLINE
  5
234
100
AcDbEntity
  8
RACCORDO
100
AcDbPolyline
 62
253
  6
CONTINUOUS
 90
6
 70
0
 10
27.595681475
 20
-47.6521253728
 10
27.6050301634
 20
-47.652664372
 10
27.6144244078
 20
-47.6518857406
 10
27.6236574997
 20
-47.6497527919
 10
27.6321093136
 20
-47.6461554662
 10
27.6396751377
 20
-47.6409168454
  0
LINE
  5
235
100
AcDbEntity
  8
RACCORDO
100
AcDbLine
 62
253
  6
CONTINUOUS
 10
27.8481458668
 20
-46.9038905879
 11
27.9129326734
 21
-46.9085469161
  0
LINE
  5
236
100
AcDbEntity
  8
RACCORDO
100
AcDbLine
 62
7
  6
CONTINUOUS
 10
27.6240730215
 20
-47.6810638266
 11
27.638974082
 21
-47.6822372723
  0
LWPOLYLINE
  5
237
100
AcDbEntity
  8
RACCORDO
100
AcDbPolyline
 62
7
  6
CONTINUOUS
 90
5
 70
0
 10
27.8573649744
 20
-46.8802981366
 10
27.8571857554
 20
-46.8802805702
 10
27.8574242325
 20
-46.8803501492
 10
27.858817337
 20
-46.8808659616
 10
27.8596359278
 20
-46.8812413457
  0
LWPOLYLINE
  5
238
100
AcDbEntity
  8
ASSI
100
AcDbPolyline
 62
7
  6
CONTINUOUS
 90
16
 70
0
 10
16.7289768008
 20
-61.4370922718
 10
16.7836173304
 20
-61.463801725
 10
16.9002290168
 20
-61.5152154657
 10
17.0169595413
 20
-61.5591558407
 10
17.1335993291
 20
-61.5956019553
 10
17.2499167576
 20
-61.6245435089
 10
17.3655945788
 20
-61.645947326
 10
17.4804177902
 20
-61.6598166056
 10
17.5940827756
 20
-61.6661590856
 10
17.7060563426
 20
-61.664997782
 10
17.8159909122
 20
-61.6564152276
 10
17.9235682296
 20
-61.6405350184
 10
18.0282189086
 20
-61.61755897
 10
18.129583493
 20
-61.5877113565
 10
18.2273169751
 20
-61.5512689138
 10
18.3218083932
 20
-61.5081869251
  0
LWPOLYLINE
  5
239
100
AcDbEntity
  8
ASSI
100
AcDbPolyline
 62
253
  6
CONTINUOUS
 90
16
 70
0
 10
16.5629370237
 20
-61.0706807098
 10
13.1919516196
 20
-59.3550130886
 10
9.8476916048
 20
-57.6218638696
 10
6.5304299203
 20
-55.8713712471
 10
3.2404122225
 20
-54.10366093
 10
-0.0220672614
 20
-52.3188876035
 10
-3.256667888
 20
-50.5172362173
 10
-6.463127373
 20
-48.6988520089
 10
-9.6411856174
 20
-46.8638810673
 10
-12.7905125403
 20
-45.0125139708
 10
-15.9108546401
 20
-43.1449011642
 10
-19.0019608362
 20
-41.261193808
 10
-22.0635122155
 20
-39.3615877597
 10
-25.0952413353
 20
-37.4462526238
 10
-28.09692999
 20
-35.5153305066
 10
-31.0683388236
 20
-33.5689789956
  0
LWPOLYLINE
  5
23A
100
AcDbEntity
  8
ASSI
100
AcDbPolyline
 62
253
  6
CONTINUOUS
 90
13
 70
0
 10
16.7289731074
 20
-61.43709354
 10
16.7242493574
 20
-61.4346423646
 10
16.6975191263
 20
-61.417955079
 10
16.6728830637
 20
-61.397551381
 10
16.6504728784
 20
-61.3735403526
 10
16.6304083792
 20
-61.3460503608
 10
16.6127968343
 20
-61.3152283719
 10
16.5977323981
 20
-61.2812391656
 10
16.5852956078
 20
-61.2442644542
 10
16.5755529526
 20
-61.2045019109
 10
16.5685565185
 20
-61.1621641133
 10
16.5643437095
 20
-61.1174774065
 10
16.5629370481
 20
-61.0706806936
  0
LWPOLYLINE
  5
23B
100
AcDbEntity
  8
ASSI
100
AcDbPolyline
 62
7
  6
CONTINUOUS
 90
16
 70
0
 10
-30.9069675546
 20
-33.9324858349
 10
-27.9768192898
 20
-35.8520551261
 10
-24.9677154965
 20
-37.7881987626
 10
-21.9285973208
 20
-39.7085688001
 10
-18.8597412788
 20
-41.6129907506
 10
-15.7613894081
 20
-43.5013181903
 10
-12.6337664548
 20
-45.3734163371
 10
-9.4771107224
 20
-47.2291429681
 10
-6.2916892264
 20
-49.0683437587
 10
-3.077769445
 20
-50.890865489
 10
0.1643791469
 20
-52.6965551651
 10
3.4345077093
 20
-54.4852761854
 10
6.7323800268
 20
-56.2568996264
 10
10.0577396308
 20
-58.0112865463
 10
13.4102812813
 20
-59.7482779983
 10
16.7289731074
 20
-61.43709354
  0
LWPOLYLINE
  5
23C
100
AcDbEntity
  8
ASSI
100
AcDbPolyline
 62
253
  6
CONTINUOUS
 90
31
 70
0
 10
-31.0683388236
 20
-33.5689789956
 10
-31.1273968995
 20
-33.5280045157
 10
-31.1859741883
 20
-33.4835866554
 10
-31.2440709751
 20
-33.4357255604
 10
-31.301852175
 20
-33.3842651494
 10
-31.3591533706
 20
-33.3293617587
 10
-31.4154811406
 20
-33.2714843079
 10
-31.4708208893
 20
-33.2106125684
 10
-31.5251883403
 20
-33.1467673403
 10
-31.5781360875
 20
-33.0804793558
 10
-31.6296506457
 20
-33.0117319191
 10
-31.6797470474
 20
-32.9405425069
 10
-31.7280210995
 20
-32.8674933294
 10
-31.7744591487
 20
-32.7925697515
 10
-31.8190766559
 20
-32.7157873185
 10
-31.86151343
 20
-32.637773677
 10
-31.9017524674
 20
-32.5585199872
 10
-31.9398126664
 20
-32.4780360413
 10
-31.9753879065
 20
-32.3969775437
 10
-32.0084586575
 20
-32.3153418769
 10
-32.0390462467
 20
-32.2331325606
 10
-32.0669059446
 20
-32.1510145562
 10
-32.0920171901
 20
-32.068986048
 10
-32.1144020693
 20
-31.9870496166
 10
-32.1338798287
 20
-31.9058768197
 10
-32.1504267812
 20
-31.8254679085
 10
-32.1640677209
 20
-31.7458231867
 10
-32.1746945404
 20
-31.667614252
 10
-32.1822714035
 20
-31.5910650702
 10
-32.1868347276
 20
-31.5159519667
 10
-32.1883846579
 20
-31.4422750142
  0
LWPOLYLINE
  5
23D
100
AcDbEntity
  8
ASSI
100
AcDbPolyline
 62
253
  6
CONTINUOUS
 90
11
 70
0
 10
-30.9145771115
 20
-33.9272559757
 10
-30.9424683019
 20
-33.9050414932
 10
-30.9681238939
 20
-33.8791568414
 10
-30.9910941657
 20
-33.8499893506
 10
-31.0112563147
 20
-33.8176949544
 10
-31.0285025513
 20
-33.7824463034
 10
-31.0427406745
 20
-33.7444318422
 10
-31.0538945652
 20
-33.7038548016
 10
-31.061904593
 20
-33.6609321126
 10
-31.0667279351
 20
-33.615893246
 10
-31.0683388053
 20
-33.5689789864
  0
LWPOLYLINE
  5
23E
100
AcDbEntity
  8
ASSI
100
AcDbPolyline
 62
253
  6
CONTINUOUS
 90
10
 70
0
 10
-27.6760469792
 20
59.7763233733
 10
-27.6900309066
 20
59.7257187039
 10
-27.7030780038
 20
59.6721711384
 10
-27.7152140394
 20
59.6156439816
 10
-27.7265380512
 20
59.5563131378
 10
-27.7370030621
 20
59.4939389407
 10
-27.7464513336
 20
59.4278516899
 10
-27.7550013913
 20
59.3578092875
 10
-27.7626595269
 20
59.2839819778
 10
-27.7660767014
 20
59.2433097313
  0
LWPOLYLINE
  5
23F
100
AcDbEntity
  8
RACCORDO
100
AcDbPolyline
 62
7
  6
CONTINUOUS
 90
5
 70
0
 10
27.0724344086
 20
-42.1563300849
 10
27.0535354083
 20
-42.1567480009
 10
27.0343554138
 20
-42.1569736208
 10
27.0149770057
 20
-42.1569745231
 10
26.995493578
 20
-42.1566360127
  0
LWPOLYLINE
  5
240
100
AcDbEntity
  8
RACCORDO
100
AcDbPolyline
 62
7
  6
CONTINUOUS
 90
8
 70
0
 10
26.995493578
 20
-42.1566360127
 10
26.9565893212
 20
-42.1553506184
 10
26.9372770348
 20
-42.1546312151
 10
26.9182874596
 20
-42.1538228609
 10
26.9000137163
 20
-42.153151846
 10
26.8826335421
 20
-42.1527302552
 10
26.8661424736
 20
-42.1525173162
 10
26.8506244494
 20
-42.1525502704
  0
LWPOLYLINE
  5
241
100
AcDbEntity
  8
RACCORDO
100
AcDbPolyline
 62
253
  6
CONTINUOUS
 90
10
 70
0
 10
27.7798703845
 20
-49.2645267755
 10
27.7862189146
 20
-49.2664222976
 10
27.7933911611
 20
-49.2676842961
 10
27.8011834514
 20
-49.2682769336
 10
27.809374505
 20
-49.2681833807
 10
27.8177317176
 20
-49.2674062941
 10
27.8260177667
 20
-49.265967741
 10
27.8339973504
 20
-49.2639085725
 10
27.8414438696
 20
-49.2612872635
 10
27.8481458629
 20
-49.2581782522
  0
LWPOLYLINE
  5
242
100
AcDbEntity
  8
RACCORDO
100
AcDbPolyline
 62
253
  6
CONTINUOUS
 90
16
 70
0
 10
26.8506244494
 20
-60.9461656404
 10
26.8736892191
 20
-60.9581706356
 10
26.8987797136
 20
-60.9687346918
 10
26.9256271056
 20
-60.9777446225
 10
26.9539437438
 20
-60.9851038925
 10
26.9834262351
 20
-60.9907336523
 10
27.013758695
 20
-60.9945735829
 10
27.0446161323
 20
-60.9965825422
 10
27.0756679309
 20
-60.9967390056
 10
27.1065813923
 20
-60.9950412966
 10
27.1370253001
 20
-60.991507605
 10
27.1666734691
 20
-60.9861757919
 10
27.1952082396
 20
-60.9791029839
 10
27.2223238812
 20
-60.9703649613
 10
27.2477298689
 20
-60.9600553458
 10
27.2711539949
 20
-60.948284598
  0
LWPOLYLINE
  5
243
100
AcDbEntity
  8
RACCORDO
100
AcDbPolyline
 62
7
  6
CONTINUOUS
 90
13
 70
0
 10
26.7713836495
 20
-61.1651274267
 10
26.8007740205
 20
-61.1807691938
 10
26.8353343854
 20
-61.1959052581
 10
26.8703717693
 20
-61.2078627818
 10
26.9057445821
 20
-61.2166292543
 10
26.9412370314
 20
-61.2221745754
 10
26.9764806612
 20
-61.2244979157
 10
27.0111452723
 20
-61.2236703558
 10
27.0450226042
 20
-61.2197963644
 10
27.0778408362
 20
-61.2130114486
 10
27.1093422692
 20
-61.2035008343
 10
27.1393158451
 20
-61.191477503
 10
27.1618578058
 20
-61.1803204842
  0
LWPOLYLINE
  5
244
100
AcDbEntity
  8
RACCORDO
100
AcDbPolyline
 62
253
  6
CONTINUOUS
 90
22
 70
0
 10
26.7092246323
 20
-61.0277923431
 10
26.7198540951
 20
-61.0334592701
 10
26.7303177998
 20
-61.0381430386
 10
26.7406157463
 20
-61.0418436487
 10
26.7508065636
 20
-61.0445724349
 10
26.7608316229
 20
-61.0463180626
 10
26.7705150371
 20
-61.0470465282
 10
26.7798479973
 20
-61.0467393231
 10
26.7888393126
 20
-61.0454149559
 10
26.7973395227
 20
-61.0430949481
 10
26.8053404268
 20
-61.0397625936
 10
26.8128502257
 20
-61.0354345984
 10
26.819744062
 20
-61.0301826026
 10
26.8260116759
 20
-61.0239911847
 10
26.8316633272
 20
-61.0168757661
 10
26.8366049372
 20
-61.0089542509
 10
26.8408248177
 20
-61.0002128772
 10
26.8443346571
 20
-60.9906654069
 10
26.8470754413
 20
-60.9804710291
 10
26.8490274991
 20
-60.969682807
 10
26.8502105018
 20
-60.9582476774
 10
26.8506244494
 20
-60.9461656404
  0
LWPOLYLINE
  5
245
100
AcDbEntity
  8
ASSI
100
AcDbPolyline
 62
7
  6
CONTINUOUS
 90
16
 70
0
 10
23.618503358
 20
-60.8676546924
 10
23.6547986
 20
-60.8875758574
 10
23.7074868223
 20
-60.9129330083
 10
23.7606287376
 20
-60.9343812036
 10
23.814149513
 20
-60.9519303004
 10
23.8678785482
 20
-60.9655593271
 10
23.9214724626
 20
-60.9752258526
 10
23.974687109
 20
-60.9809548849
 10
24.0273557576
 20
-60.9828113083
 10
24.0791497748
 20
-60.9808735607
 10
24.1298129477
 20
-60.9752570151
 10
24.1791294197
 20
-60.9660997208
 10
24.226794417
 20
-60.9536002598
 10
24.2725728565
 20
-60.9379878614
 10
24.316317762
 20
-60.9194890482
 10
24.3332322455
 20
-60.9113256793
  0
LINE
  5
246
100
AcDbEntity
  8
ASSI
100
AcDbLine
 62
7
  6
CONTINUOUS
 10
23.6185002833
 20
-60.8676600196
 11
21.7563265818
 21
-59.7924642785
  0
LINE
  5
247
100
AcDbEntity
  8
ASSI
100
AcDbLine
 62
253
  6
CONTINUOUS
 10
23.5149008803
 20
-60.6387580628
 11
21.9133314715
 21
-59.7140319585
  0
LINE
  5
248
100
AcDbEntity
  8
RACCORDO
100
AcDbLine
 62
7
  6
CONTINUOUS
 10
25.4048332413
 20
-60.3761040871
 11
26.771349407
 21
-61.1651133947
  0
LINE
  5
249
100
AcDbEntity
  8
RACCORDO
100
AcDbLine
 62
253
  6
CONTINUOUS
 10
25.49433516
 20
-60.3263303879
 11
26.7092246323
 21
-61.0277923431
  0
LWPOLYLINE
  5
24A
100
AcDbEntity
  8
ASSI
100
AcDbPolyline
 62
253
  6
CONTINUOUS
 90
11
 70
0
 10
23.6184421909
 20
-60.8676264934
 10
23.6141292455
 20
-60.8650488044
 10
23.5941236787
 20
-60.8505412701
 10
23.5761142279
 20
-60.8330073667
 10
23.5602319356
 20
-60.8125746766
 10
23.5465923665
 20
-60.7893918743
 10
23.5352947663
 20
-60.7636276453
 10
23.52642134
 20
-60.7354694583
 10
23.5200366534
 20
-60.7051222011
 10
23.5161871635
 20
-60.67280669
 10
23.5149008803
 20
-60.6387580628
  0
LWPOLYLINE
  5
24B
100
AcDbEntity
  8
ASSI
100
AcDbPolyline
 62
253
  6
CONTINUOUS
 90
10
 70
0
 10
-32.3840869903
 20
-31.1395871974
 10
-32.3824779777
 20
-31.1688683787
 10
-32.3757117436
 20
-31.2062504501
 10
-32.3637040883
 20
-31.243191138
 10
-32.3465345157
 20
-31.2794458545
 10
-32.324316707
 20
-31.3147745538
 10
-32.2971977684
 20
-31.3489433214
 10
-32.2653572571
 20
-31.3817259225
 10
-32.2290059918
 20
-31.4129053006
 10
-32.1883846579
 20
-31.4422750142
  0
LINE
  5
24C
100
AcDbEntity
  8
RACCORDO
100
AcDbLine
 62
7
  6
CONTINUOUS
 10
28.1531796523
 20
-45.7043137871
 11
28.1021093788
 21
-45.6912072844
  0
LWPOLYLINE
  5
24D
100
AcDbEntity
  8
RACCORDO
100
AcDbPolyline
 62
253
  6
CONTINUOUS
 90
10
 70
0
 10
27.6624191963
 20
-48.4275920804
 10
27.6687677101
 20
-48.4294875925
 10
27.6759399416
 20
-48.4307495861
 10
27.6837322203
 20
-48.4313422227
 10
27.6919232676
 20
-48.431248672
 10
27.7002804801
 20
-48.4304715892
 10
27.7085665351
 20
-48.4290330403
 10
27.7165461301
 20
-48.4269738754
 10
27.7239926645
 20
-48.4243525684
 10
27.7306946747
 20
-48.4212435571
  0
LWPOLYLINE
  5
24E
100
AcDbEntity
  8
RACCORDO
100
AcDbPolyline
 62
253
  6
CONTINUOUS
 90
8
 70
0
 10
28.3228776151
 20
-48.6308865569
 10
28.3102133288
 20
-48.6269382336
 10
28.2974192146
 20
-48.6244156164
 10
28.2846597228
 20
-48.623502869
 10
28.2720255604
 20
-48.6243893717
 10
28.2598344329
 20
-48.6272600416
 10
28.2485508575
 20
-48.6321369525
 10
28.2428280331
 20
-48.6356433919
  0
LWPOLYLINE
  5
24F
100
AcDbEntity
  8
RACCORDO
100
AcDbPolyline
 62
7
  6
CONTINUOUS
 90
3
 70
0
 10
27.5943706432
 20
-47.6734134843
 10
27.6088498717
 20
-47.6780062654
 10
27.6240730215
 20
-47.6810638266
  0
LWPOLYLINE
  5
250
100
AcDbEntity
  8
RACCORDO
100
AcDbPolyline
 62
7
  6
CONTINUOUS
 90
3
 70
0
 10
28.2563294678
 20
-45.7368340521
 10
28.2045863486
 20
-45.7195227097
 10
28.1531796523
 20
-45.7043137871
  0
LWPOLYLINE
  5
251
100
AcDbEntity
  8
RACCORDO
100
AcDbPolyline
 62
253
  6
CONTINUOUS
 90
12
 70
0
 10
28.2955036079
 20
-48.6939200791
 10
28.2858326145
 20
-48.6906724456
 10
28.2763227737
 20
-48.6887791292
 10
28.2669740853
 20
-48.68824013
 10
28.2575798409
 20
-48.6890187614
 10
28.248346749
 20
-48.69115171
 10
28.2398949351
 20
-48.6947490358
 10
28.232329111
 20
-48.6999876566
 10
28.2255445649
 20
-48.7066906545
 10
28.2198472869
 20
-48.7144373359
 10
28.2153392739
 20
-48.7230874698
 10
28.2119185291
 20
-48.7327812872
  0
LWPOLYLINE
  5
252
100
AcDbEntity
  8
RACCORDO
100
AcDbPolyline
 62
253
  6
CONTINUOUS
 90
3
 70
0
 10
27.5765006408
 20
-47.6469844228
 10
27.5861716342
 20
-47.6502320564
 10
27.595681475
 20
-47.6521253728
  0
LINE
  5
253
100
AcDbEntity
  8
RACCORDO
100
AcDbLine
 62
7
  6
CONTINUOUS
 10
26.9259585967
 20
-47.4236428506
 11
26.9281852638
 21
-47.4244006808
  0
LINE
  5
254
100
AcDbEntity
  8
RACCORDO
100
AcDbLine
 62
253
  6
CONTINUOUS
 10
28.9616023964
 20
-48.9429005903
 11
28.2955036079
 21
-48.6939200791
  0
LINE
  5
255
100
AcDbEntity
  8
RACCORDO
100
AcDbLine
 62
253
  6
CONTINUOUS
 10
28.9889764035
 20
-48.879867068
 11
28.3228776151
 21
-48.6308865569
  0
LINE
  5
256
100
AcDbEntity
  8
RACCORDO
100
AcDbLine
 62
7
  6
CONTINUOUS
 10
26.9282507233
 20
-47.4244252498
 11
27.5943495481
 21
-47.6734057745
  0
LINE
  5
257
100
AcDbEntity
  8
RACCORDO
100
AcDbLine
 62
253
  6
CONTINUOUS
 10
26.9104018285
 20
-47.3980039028
 11
27.5765006408
 21
-47.6469844228
  0
LWPOLYLINE
  5
258
100
AcDbEntity
  8
ASSI
100
AcDbPolyline
 62
253
  6
CONTINUOUS
 90
10
 70
0
 10
-32.3840869903
 20
55.2146333849
 10
-32.3824779308
 20
55.1853517776
 10
-32.3757116392
 20
55.1479697185
 10
-32.3637039345
 20
55.1110290572
 10
-32.3465343258
 20
55.0747743807
 10
-32.3243164996
 20
55.0394457331
 10
-32.2971975672
 20
55.0052770277
 10
-32.2653570901
 20
54.9724944967
 10
-32.229005891
 20
54.9413151939
 10
-32.1883846579
 20
54.9119455576
  0
LWPOLYLINE
  5
259
100
AcDbEntity
  8
ASSI
100
AcDbPolyline
 62
7
  6
CONTINUOUS
 90
28
 70
0
 10
-32.3840846218
 20
-31.1394409652
 10
-32.383506432
 20
-31.1937265219
 10
-32.3781538327
 20
-31.3150835087
 10
-32.3673833105
 20
-31.4368869866
 10
-32.3514167914
 20
-31.5588751165
 10
-32.3304588618
 20
-31.6809179214
 10
-32.3046690744
 20
-31.8029140968
 10
-32.2742100266
 20
-31.9246595654
 10
-32.2392382232
 20
-32.0459410388
 10
-32.1998863096
 20
-32.1665485115
 10
-32.1562997887
 20
-32.2862470623
 10
-32.1086091093
 20
-32.4048177419
 10
-32.0569380082
 20
-32.5220237801
 10
-32.0014185841
 20
-32.6376289859
 10
-31.9421689412
 20
-32.751394227
 10
-31.8793097553
 20
-32.8630701346
 10
-31.812959131
 20
-32.9724212459
 10
-31.743224173
 20
-33.0791988935
 10
-31.6702079196
 20
-33.1831665499
 10
-31.5940016683
 20
-33.2840926576
 10
-31.5146976865
 20
-33.3817166992
 10
-31.4323648937
 20
-33.4758147312
 10
-31.3470702105
 20
-33.5661342683
 10
-31.2588699448
 20
-33.6524088054
 10
-31.1677242842
 20
-33.7344489382
 10
-31.073593319
 20
-33.8120029605
 10
-30.9765360922
 20
-33.8847149394
 10
-30.9068886171
 20
-33.932534896
  0
LINE
  5
25A
100
AcDbEntity
  8
ASSI
100
AcDbLine
 62
7
  6
CONTINUOUS
 10
-32.3840869903
 20
-31.1395871974
 11
-32.3840869903
 21
55.2146333849
  0
LINE
  5
25B
100
AcDbEntity
  8
ASSI
100
AcDbLine
 62
253
  6
CONTINUOUS
 10
-32.1883846579
 20
-31.4422750142
 11
-32.1883846579
 21
54.9119455576
  0
LWPOLYLINE
  5
25C
100
AcDbEntity
  8
ASSI
100
AcDbPolyline
 62
253
  6
CONTINUOUS
 90
31
 70
0
 10
-32.1883846579
 20
54.9119455576
 10
-32.1868347276
 20
54.9835593602
 10
-32.1822714034
 20
55.0525982267
 10
-32.1746945403
 20
55.1190622296
 10
-32.1640677209
 20
55.1831271367
 10
-32.1504267812
 20
55.2446174715
 10
-32.1338798287
 20
55.3030065044
 10
-32.1144020694
 20
55.358262126
 10
-32.0920171901
 20
55.4104170005
 10
-32.0669059446
 20
55.4590415969
 10
-32.0390462467
 20
55.5041056444
 10
-32.0084586574
 20
55.5456401786
 10
-31.9753879065
 20
55.5833076259
 10
-31.9398126664
 20
55.6170781355
 10
-31.9017524674
 20
55.6469824604
 10
-31.86151343
 20
55.6727738803
 10
-31.8190766559
 20
55.6944196498
 10
-31.7744591487
 20
55.7119534667
 10
-31.7280210995
 20
55.7252281661
 10
-31.6797470474
 20
55.7342097496
 10
-31.6296506457
 20
55.738933126
 10
-31.5781360875
 20
55.7393543247
 10
-31.5251883403
 20
55.7354377166
 10
-31.4708208893
 20
55.7272197118
 10
-31.4154811406
 20
55.71476418
 10
-31.3591533706
 20
55.6980307977
 10
-31.301852175
 20
55.6770604598
 10
-31.2440709751
 20
55.6520385937
 10
-31.1859741883
 20
55.6230270384
 10
-31.1273968995
 20
55.5899642098
 10
-31.0683388236
 20
55.5528502539
  0
LWPOLYLINE
  5
25D
100
AcDbEntity
  8
ASSI
100
AcDbPolyline
 62
253
  6
CONTINUOUS
 90
25
 70
0
 10
-27.6760469792
 20
61.0936106356
 10
-27.6752802043
 20
61.1199361605
 10
-27.6730315726
 20
61.1450986774
 10
-27.669301084
 20
61.1690981862
 10
-27.6640604906
 20
61.1920378165
 10
-27.6573380403
 20
61.2138144388
 10
-27.6492184777
 20
61.2341186648
 10
-27.6396839886
 20
61.2529217575
 10
-27.6287523872
 20
61.2702524538
 10
-27.6165618609
 20
61.2858875761
 10
-27.6030952521
 20
61.2998053795
 10
-27.5883697184
 20
61.3120276089
 10
-27.5725749202
 20
61.3223963215
 10
-27.5556972479
 20
61.3308868993
 10
-27.5377503111
 20
61.3375239602
 10
-27.5189645986
 20
61.3422234158
 10
-27.4993295475
 20
61.34495994
 10
-27.4788557208
 20
61.3457588587
 10
-27.4578052965
 20
61.3446120616
 10
-27.4361623186
 20
61.3414898404
 10
-27.4139427431
 20
61.3364219033
 10
-27.3914566153
 20
61.329489264
 10
-27.3688072837
 20
61.320718927
 10
-27.3458913999
 20
61.3100838879
 10
-27.3227089638
 20
61.2975841465
  0
LWPOLYLINE
  5
25E
100
AcDbEntity
  8
RACCORDO
100
AcDbPolyline
 62
7
  6
CONTINUOUS
 90
19
 70
0
 10
-27.0061947738
 20
62.9257013469
 10
-27.0053569336
 20
62.9475517981
 10
-27.0030004729
 20
62.9698146967
 10
-26.9991253916
 20
62.9924900428
 10
-26.9936804997
 20
63.0157518707
 10
-26.9867169872
 20
63.0394261461
 10
-26.9783884248
 20
63.0629907658
 10
-26.9686644852
 20
63.0864432937
 10
-26.9575754956
 20
63.1097861659
 10
-26.9453660083
 20
63.132504588
 10
-26.9320111291
 20
63.1545846867
 10
-26.9175357522
 20
63.1760403353
 10
-26.9022591117
 20
63.1963983594
 10
-26.886163406
 20
63.2156343733
 10
-26.8692664368
 20
63.2337727626
 10
-26.851940843
 20
63.2504135106
 10
-26.8343108378
 20
63.2654232784
 10
-26.8162522081
 20
63.2789354048
 10
-26.797764954
 20
63.2909498899
  0
LWPOLYLINE
  5
25F
100
AcDbEntity
  8
RACCORDO
100
AcDbPolyline
 62
253
  6
CONTINUOUS
 90
13
 70
0
 10
24.0725283868
 20
-37.3951099798
 10
23.9930312398
 20
-37.3795184422
 10
23.9473554256
 20
-37.3731611154
 10
23.9008476922
 20
-37.3693072476
 10
23.8539186743
 20
-37.3679908799
 10
23.8069827879
 20
-37.3692236529
 10
23.7604545704
 20
-37.3729946882
 10
23.7147449014
 20
-37.3792706779
 10
23.6702573732
 20
-37.3879962039
 10
23.627384813
 20
-37.3990942246
 10
23.58650579
 20
-37.4124667425
 10
23.5479812723
 20
-37.4279956694
 10
23.5121514362
 20
-37.4455438784
  0
LWPOLYLINE
  5
260
100
AcDbEntity
  8
RACCORDO
100
AcDbPolyline
 62
253
  6
CONTINUOUS
 90
13
 70
0
 10
23.9774465087
 20
-36.5938287256
 10
24.0218875626
 20
-36.6026339129
 10
24.0675637765
 20
-36.608991671
 10
24.1140718212
 20
-36.6128458642
 10
24.161001022
 20
-36.6141624635
 10
24.2079369855
 20
-36.6129298474
 10
24.2544652587
 20
-36.6091589043
 10
24.3001749883
 20
-36.6028829366
 10
24.3446625491
 20
-36.5941573666
 10
24.3875351078
 20
-36.583059247
 10
24.4284140919
 20
-36.5696865803
 10
24.4669385324
 20
-36.554157454
 10
24.5027682515
 20
-36.5366089975
  0
LWPOLYLINE
  5
261
100
AcDbEntity
  8
RACCORDO
100
AcDbPolyline
 62
253
  6
CONTINUOUS
 90
16
 70
0
 10
23.9774465087
 20
-36.5938229176
 10
23.9420056028
 20
-36.5865853688
 10
23.9057230897
 20
-36.5809056946
 10
23.8688040622
 20
-36.5768160031
 10
23.831457203
 20
-36.5743394144
 10
23.7938936322
 20
-36.5734899318
 10
23.7563257148
 20
-36.5742723585
 10
23.7189658215
 20
-36.5766822699
 10
23.682025129
 20
-36.5807060424
 10
23.6457124532
 20
-36.5863209298
 10
23.6102330604
 20
-36.5934951916
 10
23.5757875061
 20
-36.6021882725
 10
23.5425705023
 20
-36.6123510319
 10
23.5107698159
 20
-36.6239260215
 10
23.4805652079
 20
-36.6368478098
 10
23.4521274172
 20
-36.6510433523
  0
LINE
  5
262
100
AcDbEntity
  8
RACCORDO
100
AcDbLine
 62
7
  6
CONTINUOUS
 10
28.3026533029
 20
-45.7541026016
 11
28.2563294678
 21
-45.7368340521
  0
LWPOLYLINE
  5
263
100
AcDbEntity
  8
RACCORDO
100
AcDbPolyline
 62
253
  6
CONTINUOUS
 90
10
 70
0
 10
26.843161395
 20
-47.6434335702
 10
26.8474910851
 20
-47.6452682358
 10
26.8522403458
 20
-47.6468020323
 10
26.8573449524
 20
-47.6480142172
 10
26.8627358749
 20
-47.6488883971
 10
26.8683402107
 20
-47.6494127496
 10
26.8740821701
 20
-47.6495801829
 10
26.8798841027
 20
-47.6493884321
 10
26.8856675474
 20
-47.6488400899
 10
26.8913542925
 20
-47.6479425711
  0
LWPOLYLINE
  5
264
100
AcDbEntity
  8
RACCORDO
100
AcDbPolyline
 62
253
  6
CONTINUOUS
 90
19
 70
0
 10
26.950037791
 20
-47.7026094628
 10
26.9441276485
 20
-47.700041991
 10
26.9385031086
 20
-47.6972792032
 10
26.9331685082
 20
-47.694358813
 10
26.9281165046
 20
-47.6913210181
 10
26.9233597938
 20
-47.6881952956
 10
26.9189316507
 20
-47.6849990723
 10
26.9148343281
 20
-47.6817509426
 10
26.9110668041
 20
-47.6784858423
 10
26.9076559046
 20
-47.6752421002
 10
26.9046236257
 20
-47.6720607301
 10
26.9019426077
 20
-47.6689404819
 10
26.8995663588
 20
-47.6658529506
 10
26.8974895802
 20
-47.6628270566
 10
26.8957146975
 20
-47.659860439
 10
26.8942132645
 20
-47.6568798796
 10
26.8929796349
 20
-47.6538740172
 10
26.8920258552
 20
-47.6508888835
 10
26.8913542921
 20
-47.6479425443
  0
LWPOLYLINE
  5
265
100
AcDbEntity
  8
0
100
AcDbPolyline
 62
7
  6
CONTINUOUS
 90
8
 70
0
 10
28.0683686099
 20
-45.6788377582
 10
27.8396836467
 20
-45.5776614295
 10
27.6156480678
 20
-45.509615724
 10
27.3992915701
 20
-45.4756208432
 10
27.1935400041
 20
-45.4761365095
 10
27.0011758068
 20
-45.5111557494
 10
26.8248003739
 20
-45.5802049879
 10
26.7834218494
 20
-45.6027240708
  0
LWPOLYLINE
  5
266
100
AcDbEntity
  8
RACCORDO
100
AcDbPolyline
 62
253
  6
CONTINUOUS
 90
6
 70
0
 10
28.2095850524
 20
-47.9133124216
 10
28.204240532
 20
-47.9108372163
 10
28.2000517722
 20
-47.9078526035
 10
28.1971377245
 20
-47.9044433374
 10
28.1955811421
 20
-47.9007062313
 10
28.1954255864
 20
-47.8998473661
  0
LWPOLYLINE
  5
267
100
AcDbEntity
  8
RACCORDO
100
AcDbPolyline
 62
253
  6
CONTINUOUS
 90
6
 70
0
 10
28.09213386
 20
-47.0763776966
 10
28.0867893278
 20
-47.0739024787
 10
28.0826005641
 20
-47.0709178546
 10
28.0796865186
 20
-47.0675085797
 10
28.0781299426
 20
-47.0637714685
 10
28.0779743917
 20
-47.0629126249
  0
LINE
  5
268
100
AcDbEntity
  8
RACCORDO
100
AcDbLine
 62
7
  6
CONTINUOUS
 10
27.8595918109
 20
-46.8812200732
 11
27.8596359531
 21
-46.881241292
  0
LWPOLYLINE
  5
269
100
AcDbEntity
  8
RACCORDO
100
AcDbPolyline
 62
253
  6
CONTINUOUS
 90
10
 70
0
 10
28.0260490277
 20
-49.4843073343
 10
28.0060484741
 20
-49.4744487799
 10
27.9860429336
 20
-49.4641649651
 10
27.9660324063
 20
-49.4534558897
 10
27.9460135325
 20
-49.4423196106
 10
27.9259896718
 20
-49.430758071
 10
27.9059709026
 20
-49.4187771005
 10
27.8859605844
 20
-49.4063786421
 10
27.8659553577
 20
-49.3935607528
 10
27.8459552225
 20
-49.3803234325
  0
LWPOLYLINE
  5
26A
100
AcDbEntity
  8
RACCORDO
100
AcDbPolyline
 62
253
  6
CONTINUOUS
 90
10
 70
0
 10
28.0412123275
 20
-49.437413892
 10
28.0217909695
 20
-49.4278419189
 10
28.0023468787
 20
-49.417846881
 10
27.9828865447
 20
-49.4074321141
 10
27.9634164626
 20
-49.3966010939
 10
27.9439431304
 20
-49.3853574355
 10
27.9244730464
 20
-49.3737048924
 10
27.9050127086
 20
-49.3616473541
 10
27.8855686121
 20
-49.3491888443
 10
27.8661472464
 20
-49.3363335212
  0
LWPOLYLINE
  5
26B
100
AcDbEntity
  8
RACCORDO
100
AcDbPolyline
 62
253
  6
CONTINUOUS
 90
4
 70
0
 10
27.8459552194
 20
-46.8565971714
 10
27.8659557733
 20
-46.8664557239
 10
27.8859613142
 20
-46.8767395374
 10
27.9059718419
 20
-46.887448612
  0
LWPOLYLINE
  5
26C
100
AcDbEntity
  8
RACCORDO
100
AcDbPolyline
 62
7
  6
CONTINUOUS
 90
16
 70
0
 10
26.8565387905
 20
-52.5954486224
 10
27.0334226584
 20
-52.6972397989
 10
27.2104768245
 20
-52.7911116008
 10
27.3874706803
 20
-52.8769216914
 10
27.5642487091
 20
-52.9545662244
 10
27.7405008937
 20
-53.0238776489
 10
27.9157726693
 20
-53.084663737
 10
28.0898776225
 20
-53.1368563101
 10
28.2625535175
 20
-53.180370199
 10
28.4332524719
 20
-53.2150843908
 10
28.6017569419
 20
-53.2409935578
 10
28.7678614677
 20
-53.2581028878
 10
28.9310579925
 20
-53.2664179291
 10
29.0910487161
 20
-53.2660119092
 10
29.2477353129
 20
-53.2569734963
 10
29.4009208386
 20
-53.2393947366
  0
LINE
  5
26D
100
AcDbEntity
  8
RACCORDO
100
AcDbLine
 62
253
  6
CONTINUOUS
 10
26.9630565559
 20
-52.5553091286
 11
26.7984002465
 21
-52.4604703159
  0
LWPOLYLINE
  5
26E
100
AcDbEntity
  8
RACCORDO
100
AcDbPolyline
 62
253
  6
CONTINUOUS
 90
40
 70
0
 10
27.9981341587
 20
-50.7163648104
 10
27.9521738577
 20
-50.6892824372
 10
27.9045433306
 20
-50.6600639896
 10
27.8552676268
 20
-50.6285999448
 10
27.8045122081
 20
-50.5948718373
 10
27.7521762153
 20
-50.5586841991
 10
27.6978960249
 20
-50.5196300758
 10
27.6415863746
 20
-50.4774629022
 10
27.5834449315
 20
-50.4321375713
 10
27.5235479179
 20
-50.3835190131
 10
27.4619937388
 20
-50.3314860245
 10
27.3988520134
 20
-50.2758882593
 10
27.3341725255
 20
-50.216548038
 10
27.2680714023
 20
-50.1533385324
 10
27.2006726629
 20
-50.0861352441
 10
27.1320602558
 20
-50.0147647381
 10
27.062287283
 20
-49.9390030629
 10
26.9916321572
 20
-49.858860787
 10
26.9205286616
 20
-49.7745517184
 10
26.8490089367
 20
-49.68583012
 10
26.7774393329
 20
-49.5928537195
 10
26.7067132444
 20
-49.4965510026
 10
26.6368406317
 20
-49.3967432503
 10
26.5681759382
 20
-49.2937364701
 10
26.5019823246
 20
-49.1893610052
 10
26.4383023057
 20
-49.0837429548
 10
26.3772389766
 20
-48.9771142515
 10
26.3199006718
 20
-48.8716277325
 10
26.2664857259
 20
-48.7680673674
 10
26.2166008999
 20
-48.6660973343
 10
26.1702985794
 20
-48.5662413585
 10
26.127881485
 20
-48.4696840558
 10
26.0887373376
 20
-48.3755724669
 10
26.0516896032
 20
-48.2813236251
 10
26.0168848666
 20
-48.1873592114
 10
25.9842229946
 20
-48.0934604393
 10
25.952578983
 20
-47.9960552644
 10
25.9218895751
 20
-47.8940451804
 10
25.8928753512
 20
-47.7888082179
 10
25.8658582611
 20
-47.6805256171
  0
LWPOLYLINE
  5
26F
100
AcDbEntity
  8
RACCORDO
100
AcDbPolyline
 62
253
  6
CONTINUOUS
 90
22
 70
0
 10
26.7984002465
 20
-52.4604703159
 10
26.7878866768
 20
-52.4537198191
 10
26.7775499828
 20
-52.4462065146
 10
26.7673901645
 20
-52.4379304025
 10
26.7573516974
 20
-52.4288366979
 10
26.7474901059
 20
-52.4189801857
 10
26.7379719638
 20
-52.4085252205
 10
26.7288049699
 20
-52.3974634467
 10
26.7199814254
 20
-52.38580322
 10
26.7116448075
 20
-52.3737339619
 10
26.7038030918
 20
-52.361248944
 10
26.6964483026
 20
-52.3483548948
 10
26.6896999903
 20
-52.3352614211
 10
26.6835681264
 20
-52.3219652737
 10
26.6780427393
 20
-52.3084697018
 10
26.6732134647
 20
-52.29499406
 10
26.6690915143
 20
-52.2815354102
 10
26.6656656763
 20
-52.2680966904
 10
26.6629919511
 20
-52.25490607
 10
26.6610890057
 20
-52.2420396055
 10
26.6599381731
 20
-52.2294212404
 10
26.6595394534
 20
-52.2170509746
  0
LWPOLYLINE
  5
270
100
AcDbEntity
  8
RACCORDO
100
AcDbPolyline
 62
253
  6
CONTINUOUS
 90
9
 70
0
 10
26.8565387905
 20
-52.5954486224
 10
26.8492103584
 20
-52.5905992704
 10
26.8358297041
 20
-52.5788604978
 10
26.8243208802
 20
-52.5645409727
 10
26.8148071852
 20
-52.5477941294
 10
26.8073905416
 20
-52.5287994093
 10
26.8021504023
 20
-52.507760336
 10
26.7991429
 20
-52.4849023344
 10
26.7984002465
 20
-52.4604703159
  0
LWPOLYLINE
  5
271
100
AcDbEntity
  8
ASSI
100
AcDbPolyline
 62
253
  6
CONTINUOUS
 90
11
 70
0
 10
-27.8224935886
 20
61.2977479474
 10
-27.8224174039
 20
61.2927084779
 10
-27.8198547645
 20
61.2681270098
 10
-27.8136731765
 20
61.2437610996
 10
-27.8039176323
 20
61.2197880429
 10
-27.7906591294
 20
61.1963822731
 10
-27.7739941529
 20
61.1737140939
 10
-27.7540439743
 20
61.1519484421
 10
-27.730953768
 20
61.1312436861
 10
-27.7048915548
 20
61.1117504735
 10
-27.6760469792
 20
61.0936106356
  0
LINE
  5
272
100
AcDbEntity
  8
ASSI
100
AcDbLine
 62
7
  6
CONTINUOUS
 10
-27.8224935886
 20
59.2060263872
 11
-27.8224935886
 21
61.2977479474
  0
LINE
  5
273
100
AcDbEntity
  8
ASSI
100
AcDbLine
 62
253
  6
CONTINUOUS
 10
-27.6760469792
 20
59.7763233733
 11
-27.6760469792
 21
61.0936106356
  0
LINE
  5
274
100
AcDbEntity
  8
RACCORDO
100
AcDbLine
 62
7
  6
CONTINUOUS
 10
-27.0061947738
 20
62.9257013469
 11
-27.0061947738
 21
62.2669131997
  0
LWPOLYLINE
  5
275
100
AcDbEntity
  8
ASSI
100
AcDbPolyline
 62
253
  6
CONTINUOUS
 90
19
 70
0
 10
-25.8394816343
 20
59.9507189426
 10
-25.8406962982
 20
59.9151438184
 10
-25.8444747106
 20
59.8783421495
 10
-25.8507893783
 20
59.8405817192
 10
-25.8595943534
 20
59.8021372872
 10
-25.8708255674
 20
59.7632885901
 10
-25.8844012976
 20
59.7243183062
 10
-25.9002227617
 20
59.6855099984
 10
-25.9181748367
 20
59.6471460512
 10
-25.9381268961
 20
59.6095056156
 10
-25.959933761
 20
59.5728625781
 10
-25.9834367562
 20
59.5374835677
 10
-26.0084648647
 20
59.5036260159
 10
-26.0348359722
 20
59.4715362835
 10
-26.0623581922
 20
59.4414478679
 10
-26.0908312625
 20
59.413579704
 10
-26.1200480017
 20
59.3881345716
 10
-26.1497958175
 20
59.3652976194
 10
-26.1798582531
 20
59.3452350179
  0
LWPOLYLINE
  5
276
100
AcDbEntity
  8
RACCORDO
100
AcDbPolyline
 62
253
  6
CONTINUOUS
 90
13
 70
0
 10
23.9774457819
 20
-33.3373209887
 10
24.0218880734
 20
-33.3461257941
 10
24.0675653165
 20
-33.3524830296
 10
24.1140741368
 20
-33.3563365999
 10
24.1610038269
 20
-33.3576525196
 10
24.2079399785
 20
-33.3564192136
 10
24.2544681416
 20
-33.3526476178
 10
24.300177469
 20
-33.3463710818
 10
24.34466437
 20
-33.3376450696
 10
24.3875360757
 20
-33.3265466659
 10
24.4284140709
 20
-33.313173902
 10
24.4669374385
 20
-33.2976448941
 10
24.5027660693
 20
-33.2800967924
  0
LINE
  5
277
100
AcDbEntity
  8
0
100
AcDbLine
 62
7
  6
CONTINUOUS
 10
28.1832981546
 20
-45.7413288998
 11
28.0683686099
 21
-45.6788377582
  0
LWPOLYLINE
  5
278
100
AcDbEntity
  8
RACCORDO
100
AcDbPolyline
 62
253
  6
CONTINUOUS
 90
8
 70
0
 10
29.0288428577
 20
-48.6974709359
 10
29.0249912808
 20
-48.6953602139
 10
29.0216699055
 20
-48.6930019744
 10
29.0189236488
 20
-48.6904281078
 10
29.0167896501
 20
-48.6876734207
 10
29.0152967696
 20
-48.6847751654
 10
29.0144651973
 20
-48.681772536
 10
29.014315191
 20
-48.6804759941
  0
LWPOLYLINE
  5
279
100
AcDbEntity
  8
RACCORDO
100
AcDbPolyline
 62
7
  6
CONTINUOUS
 90
5
 70
0
 10
27.9366995835
 20
-46.9216748699
 10
27.9173744463
 20
-46.910924135
 10
27.8980765652
 20
-46.900595987
 10
27.8788133361
 20
-46.8906936728
 10
27.8595918109
 20
-46.8812200732
  0
LWPOLYLINE
  5
27A
100
AcDbEntity
  8
RACCORDO
100
AcDbPolyline
 62
253
  6
CONTINUOUS
 90
3
 70
0
 10
27.9059718419
 20
-46.887448612
 10
27.9259907161
 20
-46.8985848908
 10
27.9460145773
 20
-46.9101464306
  0
LINE
  5
27B
100
AcDbEntity
  8
0
100
AcDbLine
 62
7
  6
CONTINUOUS
 10
28.5477986129
 20
-45.9517462216
 11
28.1832981546
 21
-45.7413288998
  0
LWPOLYLINE
  5
27C
100
AcDbEntity
  8
RACCORDO
100
AcDbPolyline
 62
253
  6
CONTINUOUS
 90
5
 70
0
 10
27.9460145773
 20
-46.9101464306
 10
27.9660333469
 20
-46.9221274019
 10
27.9860436655
 20
-46.9345258617
 10
28.0060488925
 20
-46.947343753
 10
28.026049028
 20
-46.9605810758
  0
LWPOLYLINE
  5
27D
100
AcDbEntity
  8
RACCORDO
100
AcDbPolyline
 62
253
  6
CONTINUOUS
 90
10
 70
0
 10
26.8431613919
 20
-47.4354858502
 10
26.847491093
 20
-47.4380988945
 10
26.8522403638
 20
-47.4404005414
 10
26.8573449785
 20
-47.442359665
 10
26.8627359061
 20
-47.4439497714
 10
26.8683402434
 20
-47.4451493569
 10
26.8740822012
 20
-47.445942199
 10
26.8798841294
 20
-47.4463175759
 10
26.8856675666
 20
-47.4462704111
 10
26.8913543016
 20
-47.4458013423
  0
LWPOLYLINE
  5
27E
100
AcDbEntity
  8
RACCORDO
100
AcDbPolyline
 62
7
  6
CONTINUOUS
 90
4
 70
0
 10
27.9947726578
 20
-46.9564322483
 10
27.9754051189
 20
-46.9444319945
 10
27.9560451821
 20
-46.9328450997
 10
27.9366995835
 20
-46.9216748699
  0
LWPOLYLINE
  5
27F
100
AcDbEntity
  8
RACCORDO
100
AcDbPolyline
 62
253
  6
CONTINUOUS
 90
10
 70
0
 10
27.6624191963
 20
-47.5973857138
 10
27.6687677263
 20
-47.6016619235
 10
27.6759399729
 20
-47.6052370044
 10
27.6837322632
 20
-47.6080094336
 10
27.6919233167
 20
-47.6099004815
 10
27.7002805294
 20
-47.6108564474
 10
27.7085665785
 20
-47.6108501844
 10
27.7165461621
 20
-47.6098818703
 10
27.7239926813
 20
-47.6079790026
 10
27.7306946747
 20
-47.6051956178
  0
LWPOLYLINE
  5
280
100
AcDbEntity
  8
RACCORDO
100
AcDbPolyline
 62
253
  6
CONTINUOUS
 90
22
 70
0
 10
27.8459552225
 20
-49.3803234325
 10
27.8424481984
 20
-49.3778739082
 10
27.8389019302
 20
-49.3751275635
 10
27.8353164179
 20
-49.3720843984
 10
27.831678683
 20
-49.3687497125
 10
27.828001704
 20
-49.3651182062
 10
27.8243244166
 20
-49.3611739806
 10
27.8206438884
 20
-49.3569142448
 10
27.8169630517
 20
-49.3523417896
 10
27.8133296394
 20
-49.3474490893
 10
27.8097435023
 20
-49.3422418158
 10
27.8062047895
 20
-49.3367142972
 10
27.802761681
 20
-49.3308419915
 10
27.7993985667
 20
-49.3246038161
 10
27.7961310567
 20
-49.3180208536
 10
27.793054161
 20
-49.31113181
 10
27.7901593762
 20
-49.3039096052
 10
27.7874552056
 20
-49.2963813194
 10
27.7850621692
 20
-49.2886668989
 10
27.7830204402
 20
-49.2808063258
 10
27.7812898453
 20
-49.272759618
 10
27.7798703845
 20
-49.2645267755
  0
LWPOLYLINE
  5
281
100
AcDbEntity
  8
RACCORDO
100
AcDbPolyline
 62
7
  6
CONTINUOUS
 90
3
 70
0
 10
26.7921151272
 20
-52.5498198743
 10
26.8256286049
 20
-52.5753851582
 10
26.8565529298
 20
-52.5954528838
  0
LWPOLYLINE
  5
282
100
AcDbEntity
  8
RACCORDO
100
AcDbPolyline
 62
253
  6
CONTINUOUS
 90
16
 70
0
 10
26.7984002465
 20
-42.5667600526
 10
26.9630575914
 20
-42.6620629121
 10
27.127254734
 20
-42.7643798936
 10
27.2909916744
 20
-42.873710997
 10
27.4545706964
 20
-42.9902770042
 10
27.6176895161
 20
-43.1138571333
 10
27.7794412824
 20
-43.2437890383
 10
27.9397375226
 20
-43.3800436341
 10
28.0986667094
 20
-43.5226500058
 10
28.2555874094
 20
-43.6710330623
 10
28.4105693496
 20
-43.8253071311
 10
28.563542803
 20
-43.9853578848
 10
28.7136571549
 20
-44.1502672503
 10
28.8606288671
 20
-44.3197292031
 10
29.0047414777
 20
-44.4940497678
 10
29.1459949869
 20
-44.6732289442
  0
LWPOLYLINE
  5
283
100
AcDbEntity
  8
RACCORDO
100
AcDbPolyline
 62
253
  6
CONTINUOUS
 90
16
 70
0
 10
27.0030215294
 20
-42.199351996
 10
27.1758342537
 20
-42.2993829144
 10
27.3485110261
 20
-42.4070017206
 10
27.5207968498
 20
-42.5220494908
 10
27.6924373044
 20
-42.6443563297
 10
27.8631789249
 20
-42.7737416243
 10
28.0327695769
 20
-42.9100143109
 10
28.2009588241
 20
-43.0529731549
 10
28.3674982935
 20
-43.2024070431
 10
28.5321420468
 20
-43.358095298
 10
28.6946469479
 20
-43.5198080081
 10
28.8547730236
 20
-43.6873063696
 10
29.0122838125
 20
-43.8603430342
 10
29.1669467146
 20
-44.0386624744
 10
29.3185333343
 20
-44.2220013605
 10
29.4668198197
 20
-44.4100889509
  0
LWPOLYLINE
  5
284
100
AcDbEntity
  8
RACCORDO
100
AcDbPolyline
 62
253
  6
CONTINUOUS
 90
58
 70
0
 10
29.7925228686
 20
-40.6483317996
 10
29.9190803852
 20
-40.7228353119
 10
30.0521314322
 20
-40.8055916476
 10
30.1915368907
 20
-40.8971888138
 10
30.3371855188
 20
-40.9982664137
 10
30.4887928971
 20
-41.1093754537
 10
30.6459001412
 20
-41.2309488919
 10
30.8086856181
 20
-41.3639504372
 10
30.9762878988
 20
-41.5085417397
 10
31.1466590785
 20
-41.6637103795
 10
31.3194975411
 20
-41.8298553227
 10
31.4942225643
 20
-42.0071185619
 10
31.6684405143
 20
-42.1936301886
 10
31.841616297
 20
-42.3892228074
 10
32.0133927875
 20
-42.5939119854
 10
32.1818082086
 20
-42.8056547109
 10
32.346299824
 20
-43.0238758691
 10
32.506692778
 20
-43.2484800436
 10
32.6617932146
 20
-43.477859239
 10
32.811060855
 20
-43.7111454623
 10
32.9545070817
 20
-43.9482851403
 10
33.0918654343
 20
-44.1887977684
 10
33.222838763
 20
-44.4321102854
 10
33.3472619653
 20
-44.6778607961
 10
33.4650636151
 20
-44.9258890512
 10
33.5760592116
 20
-45.1758258783
 10
33.6799891151
 20
-45.427107119
 10
33.776661834
 20
-45.6792836735
 10
33.8659013478
 20
-45.93191852
 10
33.9475176438
 20
-46.184497739
 10
34.0213250804
 20
-46.4364553253
 10
34.0871794139
 20
-46.6872904731
 10
34.1449657094
 20
-46.9365559915
 10
34.1945741723
 20
-47.1837702471
 10
34.235911513
 20
-47.428452605
 10
34.2689057566
 20
-47.6701581438
 10
34.2935001767
 20
-47.9084652021
 10
34.3096477826
 20
-48.1429288788
 10
34.3173166832
 20
-48.3731019811
 10
34.316491141
 20
-48.5985677633
 10
34.3071686049
 20
-48.8189188584
 10
34.2893634619
 20
-49.0337173968
 10
34.2631121828
 20
-49.2425172362
 10
34.2284650859
 20
-49.4449315756
 10
34.1854900516
 20
-49.6405740149
 10
34.1342852248
 20
-49.8290262963
 10
34.0749737383
 20
-50.0098905946
 10
34.0076623593
 20
-50.1828890654
 10
33.9324403785
 20
-50.3477975197
 10
33.8494586501
 20
-50.5042743738
 10
33.7588561303
 20
-50.6520477478
 10
33.6606882363
 20
-50.7909785626
 10
33.5549970198
 20
-50.9208996445
 10
33.4420539476
 20
-51.0413768945
 10
33.3223003117
 20
-51.1519255375
 10
33.1957642718
 20
-51.2525162164
 10
33.0628940154
 20
-51.3427894573
 10
33.0373721941
 20
-51.3585092197
  0
LWPOLYLINE
  5
285
100
AcDbEntity
  8
RACCORDO
100
AcDbPolyline
 62
7
  6
CONTINUOUS
 90
3
 70
0
 10
28.033501214
 20
-46.9816573007
 10
28.0141403877
 20
-46.9688419743
 10
27.9947726578
 20
-46.9564322483
  0
LINE
  5
286
100
AcDbEntity
  8
RACCORDO
100
AcDbLine
 62
253
  6
CONTINUOUS
 10
28.068167525
 20
-45.4960306913
 11
28.192678844
 21
-45.5796831262
  0
LWPOLYLINE
  5
287
100
AcDbEntity
  8
RACCORDO
100
AcDbPolyline
 62
253
  6
CONTINUOUS
 90
10
 70
0
 10
27.7798703882
 20
-46.8960806845
 10
27.7862188834
 20
-46.9003568738
 10
27.793391098
 20
-46.9039319464
 10
27.8011833646
 20
-46.9067043776
 10
27.8093744078
 20
-46.9085954345
 10
27.8177316242
 20
-46.9095514123
 10
27.8260176878
 20
-46.9095451597
 10
27.8339972941
 20
-46.9085768519
 10
27.8414438423
 20
-46.9066739835
 10
27.8481458667
 20
-46.9038905885
  0
LINE
  5
288
100
AcDbEntity
  8
RACCORDO
100
AcDbLine
 62
253
  6
CONTINUOUS
 10
28.026049028
 20
-46.9605810758
 11
28.0295560515
 21
-46.9630306015
  0
LWPOLYLINE
  5
289
100
AcDbEntity
  8
RACCORDO
100
AcDbPolyline
 62
7
  6
CONTINUOUS
 90
5
 70
0
 10
28.033598439
 20
-46.9817220433
 10
28.0360143334
 20
-46.9834716842
 10
28.0416510787
 20
-46.9883767339
 10
28.0479640378
 20
-46.9951724421
 10
28.054435907
 20
-47.0036521902
  0
LWPOLYLINE
  5
28A
100
AcDbEntity
  8
RACCORDO
100
AcDbPolyline
 62
253
  6
CONTINUOUS
 90
4
 70
0
 10
28.192678844
 20
-45.5796831262
 10
28.3161498875
 20
-45.6701508915
 10
28.4385815139
 20
-45.7674906009
 10
28.5599728649
 20
-45.8716456408
  0
LWPOLYLINE
  5
28B
100
AcDbEntity
  8
RACCORDO
100
AcDbPolyline
 62
253
  6
CONTINUOUS
 90
9
 70
0
 10
29.0288428613
 20
-48.9054186524
 10
29.0249912768
 20
-48.902529552
 10
29.0216698977
 20
-48.8994034604
 10
29.0189236404
 20
-48.8960826525
 10
29.0167896434
 20
-48.8926120364
 10
29.0152967656
 20
-48.8890385464
 10
29.014465196
 20
-48.8854105077
 10
29.0143061803
 20
-48.8817769835
 10
29.0143360835
 20
-48.8812938265
  0
LWPOLYLINE
  5
28C
100
AcDbEntity
  8
RACCORDO
100
AcDbPolyline
 62
253
  6
CONTINUOUS
 90
15
 70
0
 10
28.0295560515
 20
-46.9630306015
 10
28.0331023191
 20
-46.9657769469
 10
28.0366878308
 20
-46.968820112
 10
28.0403255651
 20
-46.972154797
 10
28.0440025436
 20
-46.9757863017
 10
28.0476798307
 20
-46.9797305257
 10
28.0513603587
 20
-46.9839902601
 10
28.0550411953
 20
-46.9885627137
 10
28.0586746076
 20
-46.9934554124
 10
28.0622607447
 20
-46.9986626842
 10
28.0657994574
 20
-47.0041902011
 10
28.0692425659
 20
-47.0100625048
 10
28.07260568
 20
-47.0163006778
 10
28.0758731897
 20
-47.0228836377
 10
28.0789500852
 20
-47.0297726786
  0
LINE
  5
28D
100
AcDbEntity
  8
RACCORDO
100
AcDbLine
 62
253
  6
CONTINUOUS
 10
27.5765006408
 20
-48.2787767772
 11
26.9104018311
 21
-47.7585630871
  0
LINE
  5
28E
100
AcDbEntity
  8
RACCORDO
100
AcDbLine
 62
253
  6
CONTINUOUS
 10
27.6161366008
 20
-48.2228231528
 11
26.9500377905
 21
-47.7026094623
  0
LINE
  5
28F
100
AcDbEntity
  8
RACCORDO
100
AcDbLine
 62
7
  6
CONTINUOUS
 10
28.3000832112
 20
-48.0811202648
 11
28.9661820154
 21
-48.6013339505
  0
LINE
  5
290
100
AcDbEntity
  8
RACCORDO
100
AcDbLine
 62
253
  6
CONTINUOUS
 10
28.2955036079
 20
-48.0621277248
 11
28.9616024118
 21
-48.5823414103
  0
LWPOLYLINE
  5
291
100
AcDbEntity
  8
RACCORDO
100
AcDbPolyline
 62
7
  6
CONTINUOUS
 90
4
 70
0
 10
28.9663880382
 20
-48.6014910316
 10
28.9691980434
 20
-48.6037715078
 10
28.9791543003
 20
-48.6130754912
 10
28.988190409
 20
-48.6233754504
  0
LINE
  5
292
100
AcDbEntity
  8
RACCORDO
100
AcDbLine
 62
7
  6
CONTINUOUS
 10
28.2925766472
 20
-48.0750023485
 11
28.3001291764
 21
-48.0811541751
  0
LWPOLYLINE
  5
293
100
AcDbEntity
  8
RACCORDO
100
AcDbPolyline
 62
253
  6
CONTINUOUS
 90
19
 70
0
 10
26.9104018311
 20
-47.7585630871
 10
26.9034483378
 20
-47.7527458404
 10
26.896853959
 20
-47.7467083366
 10
26.8906186946
 20
-47.7404505758
 10
26.8847294354
 20
-47.7339186176
 10
26.8791992907
 20
-47.7271664024
 10
26.874067588
 20
-47.7203557508
 10
26.8693391714
 20
-47.7134829051
 10
26.8650091969
 20
-47.7065516231
 10
26.86110246
 20
-47.6997349974
 10
26.8576473898
 20
-47.6930888248
 10
26.8546155573
 20
-47.6865573085
 10
26.8519464713
 20
-47.6801461522
 10
26.8496298664
 20
-47.6738863164
 10
26.847676008
 20
-47.6677468405
 10
26.8460552011
 20
-47.6616405458
 10
26.8447575475
 20
-47.6555383727
 10
26.8437929455
 20
-47.6494693809
 10
26.843161395
 20
-47.6434335702
  0
LWPOLYLINE
  5
294
100
AcDbEntity
  8
ASSI
100
AcDbPolyline
 62
253
  6
CONTINUOUS
 90
19
 70
0
 10
23.868238744
 20
-59.1174973772
 10
23.8410144819
 20
-59.0861460859
 10
23.8114546855
 20
-59.0564801861
 10
23.7797709138
 20
-59.0287119967
 10
23.7461899275
 20
-59.0030402546
 10
23.7109520652
 20
-58.9796486927
 10
23.6743095242
 20
-58.9587047243
 10
23.6365245547
 20
-58.9403582456
 10
23.5978675834
 20
-58.9247405624
 10
23.5586152779
 20
-58.9119634507
 10
23.5190485667
 20
-58.9021183564
 10
23.4794506284
 20
-58.8952757409
 10
23.440104865
 20
-58.8914845771
 10
23.4012928739
 20
-58.8907719985
 10
23.3632924321
 20
-58.8931431052
 10
23.3263755085
 20
-58.8985809274
 10
23.2908063172
 20
-58.907046547
 10
23.2568394266
 20
-58.9184793756
 10
23.2247179373
 20
-58.9327975889
  0
LINE
  5
295
100
AcDbEntity
  8
ASSI
100
AcDbLine
 62
253
  6
CONTINUOUS
 10
23.8561154356
 20
32.5495848277
 11
24.9665843937
 21
33.1907515052
  0
LINE
  5
296
100
AcDbEntity
  8
ASSI
100
AcDbLine
 62
253
  6
CONTINUOUS
 10
24.5627914664
 20
31.3255860391
 11
25.6732604246
 21
31.9667527166
  0
LINE
  5
297
100
AcDbEntity
  8
RACCORDO
100
AcDbLine
 62
253
  6
CONTINUOUS
 10
26.9176544522
 20
32.2763399372
 11
29.4390233259
 21
33.7321461013
  0
LINE
  5
298
100
AcDbEntity
  8
ASSI
100
AcDbLine
 62
253
  6
CONTINUOUS
 10
17.0708211432
 20
29.0396371062
 11
21.6896210777
 21
31.7060002099
  0
LWPOLYLINE
  5
299
100
AcDbEntity
  8
ASSI
100
AcDbPolyline
 62
253
  6
CONTINUOUS
 90
19
 70
0
 10
18.9194296417
 20
26.0317381042
 10
18.8700545718
 20
26.0072443367
 10
18.8173939591
 20
25.9851494795
 10
18.7617964744
 20
25.9655998247
 10
18.703630234
 20
25.9487248125
 10
18.6432803618
 20
25.9346361738
 10
18.58114644
 20
25.9234271908
 10
18.5176398631
 20
25.9151720793
 10
18.4531811139
 20
25.9099254971
 10
18.38819698
 20
25.9077221823
 10
18.3231177273
 20
25.9085767233
 10
18.2583742516
 20
25.9124834621
 10
18.1943952255
 20
25.9194165317
 10
18.13160426
 20
25.9293300278
 10
18.0704171
 20
25.9421583121
 10
18.0112388713
 20
25.9578164473
 10
17.9544613986
 20
25.9762007595
 10
17.9004606108
 20
25.9971895245
 10
17.849594052
 20
26.0206437736
  0
LWPOLYLINE
  5
29A
100
AcDbEntity
  8
ASSI
100
AcDbPolyline
 62
253
  6
CONTINUOUS
 90
19
 70
0
 10
24.5627914664
 20
31.3255860391
 10
24.5303865215
 20
31.3095746093
 10
24.4957361474
 20
31.2952159849
 10
24.4590924712
 20
31.2826146438
 10
24.4207221239
 20
31.2718622775
 10
24.3809043002
 20
31.2630371234
 10
24.3399287272
 20
31.2562033962
 10
24.2980935561
 20
31.2514108203
 10
24.2557031929
 20
31.248694268
 10
24.2130660831
 20
31.2480735056
 10
24.170492468
 20
31.2495530503
 10
24.1282921266
 20
31.2531221361
 10
24.0867721219
 20
31.2587547935
 10
24.0462345666
 20
31.2664100373
 10
24.0069744248
 20
31.2760321657
 10
23.9692773656
 20
31.2875511649
 10
23.9334176847
 20
31.3008832191
 10
23.8996563087
 20
31.3159313201
 10
23.8682388958
 20
31.3325859731
  0
LWPOLYLINE
  5
29B
100
AcDbEntity
  8
RACCORDO
100
AcDbPolyline
 62
253
  6
CONTINUOUS
 90
7
 70
0
 10
29.4390233259
 20
33.7321461013
 10
29.4526971858
 20
33.7387408365
 10
29.4661112711
 20
33.7431583907
 10
29.4790411281
 20
33.7453248463
 10
29.4912704055
 20
33.7452039527
 10
29.5025944747
 20
33.7427977328
 10
29.5120956171
 20
33.7385733469
  0
LWPOLYLINE
  5
29C
100
AcDbEntity
  8
RACCORDO
100
AcDbPolyline
 62
253
  6
CONTINUOUS
 90
19
 70
0
 10
25.4592291534
 20
-31.8163256838
 10
25.4906479524
 20
-31.8329810109
 10
25.524411007
 20
-31.8480296869
 10
25.560272644
 20
-31.8613621881
 10
25.5979719406
 20
-31.872881485
 10
25.6372345482
 20
-31.8825037248
 10
25.6777746796
 20
-31.890158855
 10
25.7192974089
 20
-31.8957911719
 10
25.7615004878
 20
-31.8993596642
 10
25.8040764495
 20
-31.9008383536
 10
25.8467153677
 20
-31.9002165283
 10
25.8891070556
 20
-31.8974987641
 10
25.9309429753
 20
-31.8927048921
 10
25.971919526
 20
-31.8858696938
 10
26.0117377103
 20
-31.8770430368
 10
26.0501055017
 20
-31.8662899228
 10
26.0867433489
 20
-31.8536892643
 10
26.1213859301
 20
-31.8393329029
 10
26.1537817241
 20
-31.8233256178
  0
LWPOLYLINE
  5
29D
100
AcDbEntity
  8
RACCORDO
100
AcDbPolyline
 62
253
  6
CONTINUOUS
 90
11
 70
0
 10
28.9616024118
 20
-48.5823414103
 10
28.9685559059
 20
-48.5881586576
 10
28.9751502856
 20
-48.5941961619
 10
28.9813855509
 20
-48.6004539233
 10
28.987274811
 20
-48.6069858819
 10
28.9928049567
 20
-48.6137380975
 10
28.9979366604
 20
-48.6205487498
 10
29.0026650783
 20
-48.6274215963
 10
29.0069950541
 20
-48.6343528796
 10
29.0109017922
 20
-48.6411695065
 10
29.0143568637
 20
-48.6478156809
  0
LWPOLYLINE
  5
29E
100
AcDbEntity
  8
RACCORDO
100
AcDbPolyline
 62
253
  6
CONTINUOUS
 90
22
 70
0
 10
27.8661472671
 20
-49.3363335535
 10
27.8645374094
 20
-49.3349229534
 10
27.8629505592
 20
-49.3332979961
 10
27.8613896263
 20
-49.331457801
 10
27.8598549119
 20
-49.3294079997
 10
27.8583541538
 20
-49.3271426804
 10
27.8569024984
 20
-49.3246442402
 10
27.8555074407
 20
-49.3219137948
 10
27.854174393
 20
-49.3189531462
 10
27.8529166894
 20
-49.3157462426
 10
27.8517460672
 20
-49.3123024899
 10
27.8506696083
 20
-49.3086195385
 10
27.849696035
 20
-49.3046639386
 10
27.8488390124
 20
-49.3004307606
 10
27.8481135963
 20
-49.2959369902
 10
27.8475342043
 20
-49.291183301
 10
27.8471247718
 20
-49.2861654871
 10
27.8469016102
 20
-49.2809094023
 10
27.8468700214
 20
-49.2754632418
 10
27.8470474418
 20
-49.2698536448
 10
27.8474641572
 20
-49.2640858327
 10
27.8481458629
 20
-49.2581782522
  0
LWPOLYLINE
  5
29F
100
AcDbEntity
  8
RACCORDO
100
AcDbPolyline
 62
253
  6
CONTINUOUS
 90
7
 70
0
 10
28.0921338615
 20
-49.4448238114
 10
28.0867893539
 20
-49.4399679322
 10
28.0826005973
 20
-49.4346702483
 10
28.0796865454
 20
-49.4290811972
 10
28.0781299544
 20
-49.4233594907
 10
28.0779750335
 20
-49.4176676103
 10
28.0781642318
 20
-49.4162222198
  0
LWPOLYLINE
  5
2A0
100
AcDbEntity
  8
RACCORDO
100
AcDbPolyline
 62
253
  6
CONTINUOUS
 90
7
 70
0
 10
28.2095850524
 20
-48.7435187881
 10
28.2042405203
 20
-48.7386628826
 10
28.2000517565
 20
-48.7333651762
 10
28.1971377111
 20
-48.7277761096
 10
28.195581135
 20
-48.7220543975
 10
28.195426231
 20
-48.7163625214
 10
28.1956271761
 20
-48.7148463184
  0
LWPOLYLINE
  5
2A1
100
AcDbEntity
  8
RACCORDO
100
AcDbPolyline
 62
253
  6
CONTINUOUS
 90
4
 70
0
 10
28.5599728649
 20
-45.8716456408
 10
28.6793450106
 20
-45.9817774206
 10
28.7966893796
 20
-46.0979425263
 10
28.9120145435
 20
-46.2200843718
  0
LWPOLYLINE
  5
2A2
100
AcDbEntity
  8
RACCORDO
100
AcDbPolyline
 62
253
  6
CONTINUOUS
 90
8
 70
0
 10
29.5411815359
 20
34.5220039469
 10
29.5501404157
 20
34.5288270257
 10
29.5578886791
 20
34.5361275225
 10
29.5643505974
 20
34.5438340849
 10
29.5694630142
 20
34.5518713918
 10
29.5731759627
 20
34.5601608896
 10
29.5754531537
 20
34.5686215597
 10
29.5762748694
 20
34.5776745734
  0
LWPOLYLINE
  5
2A3
100
AcDbEntity
  8
ASSI
100
AcDbPolyline
 62
253
  6
CONTINUOUS
 90
22
 70
0
 10
17.0708212365
 20
29.0396338513
 10
17.0324383778
 20
29.0108486061
 10
16.9943591491
 20
28.9787924621
 10
16.9567871278
 20
28.9436367962
 10
16.9199231792
 20
28.9055695558
 10
16.8839643836
 20
28.8647942539
 10
16.849102982
 20
28.8215288813
 10
16.8155253485
 20
28.7760047411
 10
16.7834109941
 20
28.728465212
 10
16.7529316069
 20
28.6791644475
 10
16.7242501342
 20
28.6283660166
 10
16.6975199115
 20
28.5763414952
 10
16.6728838423
 20
28.5233690142
 10
16.6504736348
 20
28.4697317722
 10
16.6304090973
 20
28.4157165218
 10
16.6127974977
 20
28.3616120365
 10
16.5977329902
 20
28.3077075668
 10
16.585296112
 20
28.2542912941
 10
16.5755533524
 20
28.2016487896
 10
16.5685567977
 20
28.1500614879
 10
16.5643438524
 20
28.0998051822
 10
16.5629370397
 20
28.0511485503
  0
LWPOLYLINE
  5
2A4
100
AcDbEntity
  8
RACCORDO
100
AcDbPolyline
 62
253
  6
CONTINUOUS
 90
7
 70
0
 10
29.7925228686
 20
33.1198669335
 10
29.8050708732
 20
33.1284125671
 10
29.8156032818
 20
33.1378219077
 10
29.8239438775
 20
33.1479374933
 10
29.8299531274
 20
33.1585900568
 10
29.8335305002
 20
33.1696013321
 10
29.8346218243
 20
33.1799437671
  0
LWPOLYLINE
  5
2A5
100
AcDbEntity
  8
ASSI
100
AcDbPolyline
 62
253
  6
CONTINUOUS
 90
19
 70
0
 10
23.8561154356
 20
32.5495848277
 10
23.8260473005
 20
32.5295253071
 10
23.7962877589
 20
32.5066949174
 10
23.7670533532
 20
32.4812597882
 10
23.7385568011
 20
32.4534049991
 10
23.7110054561
 20
32.4233332403
 10
23.6845997968
 20
32.3912633393
 10
23.6595319579
 20
32.3574286556
 10
23.6359843371
 20
32.3220753869
 10
23.6141282747
 20
32.2854607878
 10
23.5941227967
 20
32.2478512834
 10
23.5761134619
 20
32.2095205346
 10
23.5602313057
 20
32.1707474543
 10
23.5465918829
 20
32.1318141685
 10
23.5352944278
 20
32.093003965
 10
23.5264211342
 20
32.0545992363
 10
23.5200365561
 20
32.0168794221
 10
23.5161871386
 20
31.9801189754
 10
23.5149008803
 20
31.9445853674
  0
LINE
  5
2A6
100
AcDbEntity
  8
RACCORDO
100
AcDbLine
 62
253
  6
CONTINUOUS
 10
29.4280322295
 20
34.7012493966
 11
28.6538344319
 21
34.185504328
  0
LINE
  5
2A7
100
AcDbEntity
  8
RACCORDO
100
AcDbLine
 62
253
  6
CONTINUOUS
 10
29.5411815359
 20
34.5220039469
 11
28.89760602
 21
34.093372038
  0
LINE
  5
2A8
100
AcDbEntity
  8
RACCORDO
100
AcDbLine
 62
253
  6
CONTINUOUS
 10
27.2711539949
 20
31.6640607694
 11
29.7925228686
 21
33.1198669335
  0
LINE
  5
2A9
100
AcDbEntity
  8
ASSI
100
AcDbLine
 62
253
  6
CONTINUOUS
 10
18.9194296417
 20
26.0317381042
 11
23.5121508913
 21
28.6830778977
  0
LINE
  5
2AA
100
AcDbEntity
  8
RACCORDO
100
AcDbLine
 62
7
  6
CONTINUOUS
 10
26.5174631855
 20
20.7336216068
 11
26.5389096702
 21
20.7413143972
  0
LWPOLYLINE
  5
2AB
100
AcDbEntity
  8
RACCORDO
100
AcDbPolyline
 62
253
  6
CONTINUOUS
 90
16
 70
0
 10
26.4322643575
 20
20.341551139
 10
26.4598519111
 20
20.3510127267
 10
26.4858458753
 20
20.3630929379
 10
26.5102462501
 20
20.3777917726
 10
26.5331373347
 20
20.3951908642
 10
26.5544348298
 20
20.4152085793
 10
26.5738858382
 20
20.4376000175
 10
26.5914613757
 20
20.4623792392
 10
26.6071904264
 20
20.489532184
 10
26.6209070449
 20
20.5187717707
 10
26.6325957065
 20
20.5501420598
 10
26.6422719359
 20
20.5835989909
 10
26.6498163624
 20
20.6187233016
 10
26.6551891957
 20
20.6553752378
 10
26.658430226
 20
20.6936945536
 10
26.6595394534
 20
20.733681249
  0
LWPOLYLINE
  5
2AC
100
AcDbEntity
  8
RACCORDO
100
AcDbPolyline
 62
253
  6
CONTINUOUS
 90
4
 70
0
 10
26.513822613
 20
20.7314084195
 10
26.5308700335
 20
20.7372031308
 10
26.5470512281
 20
20.744711327
 10
26.5549635111
 20
20.7491990777
  0
LWPOLYLINE
  5
2AD
100
AcDbEntity
  8
RACCORDO
100
AcDbPolyline
 62
7
  6
CONTINUOUS
 90
4
 70
0
 10
26.786205748
 20
23.1527998331
 10
26.8064118417
 20
23.1591988183
 10
26.8278847421
 20
23.1632894983
 10
26.8506244494
 20
23.165071873
  0
LINE
  5
2AE
100
AcDbEntity
  8
RACCORDO
100
AcDbLine
 62
7
  6
CONTINUOUS
 10
26.7537085703
 20
23.1360255459
 11
26.7309000232
 21
23.1207250596
  0
LWPOLYLINE
  5
2AF
100
AcDbEntity
  8
RACCORDO
100
AcDbPolyline
 62
253
  6
CONTINUOUS
 90
16
 70
0
 10
27.0030215293
 20
23.1182701474
 10
26.9811435868
 20
23.1038529979
 10
26.9595805289
 20
23.0869661024
 10
26.9385633895
 20
23.0677903942
 10
26.9183173521
 20
23.0465313286
 10
26.8990593402
 20
23.0234166843
 10
26.8809956926
 20
22.9986941242
 10
26.8643199482
 20
22.9726285359
 10
26.8492107746
 20
22.9454991952
 10
26.8358300559
 20
22.9175967786
 10
26.8243211551
 20
22.8892202424
 10
26.814807379
 20
22.8606736213
 10
26.8073906588
 20
22.8322627738
 10
26.802150456
 20
22.8042921016
 10
26.7991429118
 20
22.7770612885
 10
26.7984002465
 20
22.7508620909
  0
LINE
  5
2B0
100
AcDbEntity
  8
RACCORDO
100
AcDbLine
 62
253
  6
CONTINUOUS
 10
27.0724344087
 20
23.1612920564
 11
27.0030215294
 21
23.1182701474
  0
LINE
  5
2B1
100
AcDbEntity
  8
RACCORDO
100
AcDbLine
 62
7
  6
CONTINUOUS
 10
26.7587403647
 20
23.1391354691
 11
26.753642498
 21
23.1359847345
  0
LWPOLYLINE
  5
2B2
100
AcDbEntity
  8
RACCORDO
100
AcDbPolyline
 62
253
  6
CONTINUOUS
 90
5
 70
0
 10
26.1931241121
 20
20.5921247731
 10
26.2324394613
 20
20.6150180322
 10
26.322557575
 20
20.660832225
 10
26.4164167745
 20
20.6996548867
 10
26.5138226128
 20
20.7314084195
  0
LWPOLYLINE
  5
2B3
100
AcDbEntity
  8
RACCORDO
100
AcDbPolyline
 62
7
  6
CONTINUOUS
 90
3
 70
0
 10
26.758729252
 20
23.1391542787
 10
26.7672160924
 20
23.1440595416
 10
26.786205748
 20
23.1527998331
  0
LINE
  5
2B4
100
AcDbEntity
  8
RACCORDO
100
AcDbLine
 62
7
  6
CONTINUOUS
 10
29.7925228686
 20
24.6692903438
 11
27.2711539949
 21
23.2134526525
  0
LWPOLYLINE
  5
2B5
100
AcDbEntity
  8
RACCORDO
100
AcDbPolyline
 62
253
  6
CONTINUOUS
 90
4
 70
0
 10
26.7537063896
 20
23.1360242026
 10
26.7650361923
 20
23.142422919
 10
26.7847018893
 20
23.1510064984
 10
26.8056157304
 20
23.1571732508
  0
LWPOLYLINE
  5
2B6
100
AcDbEntity
  8
RACCORDO
100
AcDbPolyline
 62
7
  6
CONTINUOUS
 90
6
 70
0
 10
26.2066166089
 20
20.600240299
 10
26.2655089453
 20
20.6331668193
 10
26.3260562466
 20
20.6629764976
 10
26.3882035946
 20
20.6896417093
 10
26.4520059076
 20
20.713190079
 10
26.5174631855
 20
20.7336216068
  0
LWPOLYLINE
  5
2B7
100
AcDbEntity
  8
RACCORDO
100
AcDbPolyline
 62
7
  6
CONTINUOUS
 90
10
 70
0
 10
29.7925228686
 20
24.6692903438
 10
29.8020944669
 20
24.6746062096
 10
29.8103013149
 20
24.6793780818
 10
29.8171812688
 20
24.6835025138
 10
29.8227770143
 20
24.6867695728
 10
29.8271790495
 20
24.6892112976
 10
29.8304946018
 20
24.6911078057
 10
29.8327899476
 20
24.692434107
 10
29.8341386888
 20
24.6931046418
 10
29.834619475
 20
24.6933274167
  0
LWPOLYLINE
  5
2B8
100
AcDbEntity
  8
RACCORDO
100
AcDbPolyline
 62
7
  6
CONTINUOUS
 90
10
 70
0
 10
27.2711539949
 20
23.2134526525
 10
27.2529364646
 20
23.2037398751
 10
27.2334028149
 20
23.1948776104
 10
27.2126723158
 20
23.1869304786
 10
27.19082576
 20
23.1799474195
 10
27.1680465331
 20
23.1739968055
 10
27.1446369928
 20
23.1691425072
 10
27.1208143845
 20
23.1654056577
 10
27.0966925153
 20
23.1627881676
 10
27.0724344086
 20
23.1612920585
  0
LINE
  5
2B9
100
AcDbEntity
  8
RACCORDO
100
AcDbLine
 62
7
  6
CONTINUOUS
 10
26.5389096702
 20
20.7413143972
 11
26.5592454075
 21
20.7518153979
  0
LWPOLYLINE
  5
2BA
100
AcDbEntity
  8
RACCORDO
100
AcDbPolyline
 62
253
  6
CONTINUOUS
 90
16
 70
0
 10
29.6329943408
 20
20.465434941
 10
29.6095702148
 20
20.4536641933
 10
29.5841642272
 20
20.443354578
 10
29.5570485855
 20
20.4346165554
 10
29.528513815
 20
20.4275437474
 10
29.498865646
 20
20.4222119342
 10
29.4684217382
 20
20.4186782426
 10
29.4375082768
 20
20.4169805336
 10
29.4064564782
 20
20.4171369969
 10
29.3755990409
 20
20.4191459561
 10
29.345266581
 20
20.4229858868
 10
29.3157840897
 20
20.4286156465
 10
29.2874674515
 20
20.4359749165
 10
29.2606200596
 20
20.4449848472
 10
29.2355295651
 20
20.4555489034
 10
29.2124647953
 20
20.4675538986
  0
LWPOLYLINE
  5
2BB
100
AcDbEntity
  8
0
100
AcDbPolyline
 62
7
  6
CONTINUOUS
 90
3
 70
0
 10
26.7548522447
 20
19.6631235507
 10
26.5769188052
 20
19.5934643681
 10
26.5362068118
 20
19.5715284356
  0
LWPOLYLINE
  5
2BC
100
AcDbEntity
  8
RACCORDO
100
AcDbPolyline
 62
7
  6
CONTINUOUS
 90
3
 70
0
 10
27.6669393296
 20
17.6384946969
 10
27.6797366108
 20
17.6425482319
 10
27.6868894861
 20
17.645664603
  0
LINE
  5
2BD
100
AcDbEntity
  8
RACCORDO
100
AcDbLine
 62
7
  6
CONTINUOUS
 10
29.7339622027
 20
13.7867208785
 11
29.7706947101
 21
13.7976623239
  0
LWPOLYLINE
  5
2BE
100
AcDbEntity
  8
RACCORDO
100
AcDbPolyline
 62
253
  6
CONTINUOUS
 90
14
 70
0
 10
28.9120145435
 20
-46.2200843718
 10
29.0243672868
 20
-46.3471946086
 10
29.1337173882
 20
-46.479307907
 10
29.2400950691
 20
-46.6163895966
 10
29.3426377783
 20
-46.7573273174
 10
29.4413166097
 20
-46.902155567
 10
29.5361604696
 20
-47.0508398478
 10
29.6263935249
 20
-47.2021643079
 10
29.7119772143
 20
-47.3561493597
 10
29.7929500993
 20
-47.5127745907
 10
29.8686520311
 20
-47.6707629109
 10
29.9390401296
 20
-47.8301258999
 10
30.004157275
 20
-47.9908519781
 10
30.0634719598
 20
-48.1516293162
  0
LWPOLYLINE
  5
2BF
100
AcDbEntity
  8
0
100
AcDbPolyline
 62
7
  6
CONTINUOUS
 90
6
 70
0
 10
29.13775585
 20
-46.5780099424
 10
28.9676874254
 20
-46.3811929534
 10
28.7513309278
 20
-46.1653447739
 10
28.5272953489
 20
-45.9746798085
 10
28.2986103856
 20
-45.8117764739
 10
28.1832981546
 20
-45.7413288998
  0
LWPOLYLINE
  5
2C0
100
AcDbEntity
  8
RACCORDO
100
AcDbPolyline
 62
7
  6
CONTINUOUS
 90
3
 70
0
 10
28.988190409
 20
-48.6233754504
 10
28.9960146006
 20
-48.6341370182
 10
29.002680856
 20
-48.6452892167
  0
LWPOLYLINE
  5
2C1
100
AcDbEntity
  8
RACCORDO
100
AcDbPolyline
 62
7
  6
CONTINUOUS
 90
4
 70
0
 10
28.2380367085
 20
-48.0116452467
 10
28.2544904837
 20
-48.0349683285
 10
28.2727414422
 20
-48.0561991626
 10
28.2925766472
 20
-48.0750023485
  0
LWPOLYLINE
  5
2C2
100
AcDbEntity
  8
RACCORDO
100
AcDbPolyline
 62
7
  6
CONTINUOUS
 90
3
 70
0
 10
26.3980278516
 20
-49.6770523844
 10
26.4019171048
 20
-49.6826888884
 10
26.4251890589
 20
-49.7181386963
  0
LINE
  5
2C3
100
AcDbEntity
  8
RACCORDO
100
AcDbLine
 62
7
  6
CONTINUOUS
 10
26.3140272104
 20
-49.5530592416
 11
26.3980262218
 21
-49.6770499471
  0
LWPOLYLINE
  5
2C4
100
AcDbEntity
  8
RACCORDO
100
AcDbPolyline
 62
253
  6
CONTINUOUS
 90
10
 70
0
 10
26.4322643577
 20
-49.6283548174
 10
26.3500295451
 20
-49.5064918671
 10
26.2714816743
 20
-49.3843319363
 10
26.1966207454
 20
-49.2618750249
 10
26.1258245053
 20
-49.1397757541
 10
26.0587152069
 20
-49.0173795028
 10
25.9941596094
 20
-48.892722407
 10
25.9317799657
 20
-48.7651498455
 10
25.8719540229
 20
-48.6353164395
 10
25.8146817808
 20
-48.5032221892
  0
LINE
  5
2C5
100
AcDbEntity
  8
RACCORDO
100
AcDbLine
 62
253
  6
CONTINUOUS
 10
26.4598377555
 20
-49.6696514904
 11
26.4322643577
 21
-49.6283548174
  0
LINE
  5
2C6
100
AcDbEntity
  8
RACCORDO
100
AcDbLine
 62
7
  6
CONTINUOUS
 10
26.7309000232
 20
23.1207250596
 11
26.7057877708
 21
23.1007512944
  0
LWPOLYLINE
  5
2C7
100
AcDbEntity
  8
RACCORDO
100
AcDbPolyline
 62
253
  6
CONTINUOUS
 90
16
 70
0
 10
26.5138226129
 20
20.7314084195
 10
26.4928262626
 20
20.7168307145
 10
26.4734538233
 20
20.6995445038
 10
26.4559128588
 20
20.6797349844
 10
26.4403913154
 20
20.657614396
 10
26.4270554949
 20
20.633419729
 10
26.4160482789
 20
20.60741018
 10
26.4074876136
 20
20.5798644065
 10
26.4014652364
 20
20.5510775362
 10
26.398045687
 20
20.521357982
 10
26.3972656217
 20
20.4910241587
 10
26.3991334177
 20
20.4604010762
 10
26.4036290803
 20
20.429816846
 10
26.4107044577
 20
20.3995991647
 10
26.4202837574
 20
20.3700718029
 10
26.4322643577
 20
20.3415511391
  0
LWPOLYLINE
  5
2C8
100
AcDbEntity
  8
RACCORDO
100
AcDbPolyline
 62
7
  6
CONTINUOUS
 90
5
 70
0
 10
26.1439643361
 20
20.5609897317
 10
26.0959051563
 20
20.5278485681
 10
26.0489910378
 20
20.4927158327
 10
26.003285726
 20
20.4556251742
 10
25.9588115889
 20
20.4165809794
  0
LWPOLYLINE
  5
2C9
100
AcDbEntity
  8
0
100
AcDbPolyline
 62
7
  6
CONTINUOUS
 90
8
 70
0
 10
26.5362068118
 20
19.5715284356
 10
26.4193115072
 20
19.4923755835
 10
26.2828475614
 20
19.3585935723
 10
26.1667097569
 20
19.1933819591
 10
26.0755056561
 20
19.0032952228
 10
26.0107711128
 20
18.7905181896
 10
25.9709702731
 20
18.5528660332
 10
25.956103137
 20
18.2903387538
  0
LINE
  5
2CA
100
AcDbEntity
  8
RACCORDO
100
AcDbLine
 62
7
  6
CONTINUOUS
 10
26.1931241121
 20
20.5921247731
 11
26.1439643361
 21
20.5609897317
  0
LINE
  5
2CB
100
AcDbEntity
  8
RACCORDO
100
AcDbLine
 62
253
  6
CONTINUOUS
 10
26.5174631856
 20
20.7336216068
 11
26.5138226128
 21
20.7314084195
  0
LINE
  5
2CC
100
AcDbEntity
  8
DRAFT
100
AcDbLine
 62
7
  6
CONTINUOUS
 10
26.196780069
 20
20.5943411984
 11
26.1931241121
 21
20.5921247731
  0
LINE
  5
2CD
100
AcDbEntity
  8
RACCORDO
100
AcDbLine
 62
7
  6
CONTINUOUS
 10
26.5549635111
 20
20.7491990777
 11
26.5553720764
 21
20.749446753
  0
LWPOLYLINE
  5
2CE
100
AcDbEntity
  8
RACCORDO
100
AcDbPolyline
 62
253
  6
CONTINUOUS
 90
16
 70
0
 10
29.4668198197
 20
20.9075331925
 10
29.4441095801
 20
20.8938627023
 10
29.4204781035
 20
20.8788316273
 10
29.3961785893
 20
20.8626010197
 10
29.3714713918
 20
20.8453447822
 10
29.3466212363
 20
20.8272478082
 10
29.3218943825
 20
20.8085040016
 10
29.2975557629
 20
20.7893141923
 10
29.2738661473
 20
20.769883987
 10
29.2510793545
 20
20.7504215702
 10
29.2294395264
 20
20.7311354683
 10
29.2091785126
 20
20.7122323161
 10
29.1905133901
 20
20.6939146456
 10
29.1736441356
 20
20.6763787141
 10
29.1587514828
 20
20.6598124018
 10
29.1459949869
 20
20.6443931992
  0
LINE
  5
2CF
100
AcDbEntity
  8
RACCORDO
100
AcDbLine
 62
7
  6
CONTINUOUS
 10
26.196781451
 20
20.5943388436
 11
26.2066166089
 21
20.600240299
  0
LWPOLYLINE
  5
2D0
100
AcDbEntity
  8
RACCORDO
100
AcDbPolyline
 62
253
  6
CONTINUOUS
 90
16
 70
0
 10
29.7750412753
 20
18.8484216364
 10
29.7522273926
 20
18.8348928959
 10
29.7283382712
 20
18.8202140979
 10
29.70362987
 20
18.8045425185
 10
29.6783669225
 20
18.7880460685
 10
29.6528201092
 20
18.7709015001
 10
29.627263158
 20
18.753292514
 10
29.601969896
 20
18.7354077808
 10
29.5772113216
 20
18.7174389235
 10
29.5532527103
 20
18.6995784704
 10
29.5303507599
 20
18.6820177839
 10
29.5087508433
 20
18.6649450119
 10
29.4886843845
 20
18.6485430761
 10
29.470366375
 20
18.6329877082
 10
29.4539930707
 20
18.618445568
 10
29.4397398911
 20
18.6050724588
  0
LINE
  5
2D1
100
AcDbEntity
  8
0
100
AcDbLine
 62
7
  6
CONTINUOUS
 10
26.7834218494
 20
19.7148980726
 11
26.535934476
 21
19.572001965
  0
LINE
  5
2D2
100
AcDbEntity
  8
RACCORDO
100
AcDbLine
 62
253
  6
CONTINUOUS
 10
28.1904476993
 20
17.4263962472
 11
27.6161366008
 21
17.0947989906
  0
LINE
  5
2D3
100
AcDbEntity
  8
RACCORDO
100
AcDbLine
 62
253
  6
CONTINUOUS
 10
28.3050257294
 20
17.2279873652
 11
27.7306946747
 21
16.8963785863
  0
LINE
  5
2D4
100
AcDbEntity
  8
RACCORDO
100
AcDbLine
 62
253
  6
CONTINUOUS
 10
29.7750412754
 20
18.8484216363
 11
29.7788051318
 21
18.8505636413
  0
LINE
  5
2D5
100
AcDbEntity
  8
RACCORDO
100
AcDbLine
 62
253
  6
CONTINUOUS
 10
29.6329943408
 20
20.465434941
 11
29.6367611776
 21
20.4675766016
  0
LINE
  5
2D6
100
AcDbEntity
  8
RACCORDO
100
AcDbLine
 62
253
  6
CONTINUOUS
 10
29.6329943409
 20
19.2575351955
 11
29.6367611776
 21
19.2596729099
  0
LINE
  5
2D7
100
AcDbEntity
  8
RACCORDO
100
AcDbLine
 62
253
  6
CONTINUOUS
 10
29.4668198197
 20
20.9075331925
 11
29.4705892483
 21
20.9096714874
  0
LWPOLYLINE
  5
2D8
100
AcDbEntity
  8
RACCORDO
100
AcDbPolyline
 62
253
  6
CONTINUOUS
 90
8
 70
0
 10
27.6868357717
 20
17.6456264046
 10
27.6896489185
 20
17.6470750618
 10
27.6998933983
 20
17.6539606576
 10
27.7089899299
 20
17.662840023
 10
27.7166382627
 20
17.6733746902
 10
27.7227699491
 20
17.6852505425
 10
27.7274497125
 20
17.6983373475
 10
27.7306946747
 20
17.7124265256
  0
LWPOLYLINE
  5
2D9
100
AcDbEntity
  8
RACCORDO
100
AcDbPolyline
 62
253
  6
CONTINUOUS
 90
16
 70
0
 10
29.6329943409
 20
19.2575351955
 10
29.609570489
 20
19.2457645716
 10
29.5841647874
 20
19.2354550353
 10
29.557049429
 20
19.2267170492
 10
29.5285149318
 20
19.2196442397
 10
29.4988670085
 20
19.2143123894
 10
29.4684232883
 20
19.210778629
 10
29.4375099461
 20
19.2090808293
 10
29.4064581948
 20
19.2092371911
 10
29.3756007169
 20
19.2112460502
 10
29.3452681294
 20
19.2150858959
 10
29.3157854339
 20
19.2207155987
 10
29.2874685199
 20
19.2280748537
 10
29.2606207956
 20
19.237084824
 10
29.2355299366
 20
19.2476489834
 10
29.2124647952
 20
19.2596541527
  0
LINE
  5
2DA
100
AcDbEntity
  8
RACCORDO
100
AcDbLine
 62
253
  6
CONTINUOUS
 10
28.1274901951
 20
17.9018693771
 11
27.7306946747
 21
17.7124265256
  0
LINE
  5
2DB
100
AcDbEntity
  8
RACCORDO
100
AcDbLine
 62
7
  6
CONTINUOUS
 10
28.1335220947
 20
17.8588872151
 11
27.6864518442
 21
17.6454416021
  0
LWPOLYLINE
  5
2DC
100
AcDbEntity
  8
RACCORDO
100
AcDbPolyline
 62
253
  6
CONTINUOUS
 90
16
 70
0
 10
29.4397398912
 20
13.9527886459
 10
29.4121523376
 20
13.9433270581
 10
29.3861583734
 20
13.9312468469
 10
29.3617579986
 20
13.9165480122
 10
29.338866914
 20
13.8991489206
 10
29.3175694189
 20
13.8791312056
 10
29.2981184105
 20
13.8567397673
 10
29.280542873
 20
13.8319605457
 10
29.2648138224
 20
13.8048076009
 10
29.2510972038
 20
13.7755680142
 10
29.2394085422
 20
13.744197725
 10
29.2297323128
 20
13.7107407939
 10
29.2221878863
 20
13.6756164832
 10
29.216815053
 20
13.6389645471
 10
29.2135740227
 20
13.6006452313
 10
29.2124647953
 20
13.5606585359
  0
LWPOLYLINE
  5
2DD
100
AcDbEntity
  8
RACCORDO
100
AcDbPolyline
 62
7
  6
CONTINUOUS
 90
7
 70
0
 10
29.7706947101
 20
13.7976623239
 10
29.806988405
 20
13.8094587844
 10
29.8428335822
 20
13.8221030048
 10
29.8782127158
 20
13.8355842494
 10
29.9131245781
 20
13.8498973786
 10
29.9475831684
 20
13.8650447251
 10
29.9815860732
 20
13.8810231038
  0
LWPOLYLINE
  5
2DE
100
AcDbEntity
  8
RACCORDO
100
AcDbPolyline
 62
253
  6
CONTINUOUS
 90
9
 70
0
 10
29.7596237107
 20
-16.1848054366
 10
29.7559605314
 20
-16.1828877649
 10
29.7474019786
 20
-16.1797467805
 10
29.738200576
 20
-16.1780762152
 10
29.7284538311
 20
-16.1778764393
 10
29.7182914369
 20
-16.1791316448
 10
29.7078344449
 20
-16.1818038936
 10
29.6971905503
 20
-16.1858435748
 10
29.6864730058
 20
-16.1911875061
  0
LWPOLYLINE
  5
2DF
100
AcDbEntity
  8
RACCORDO
100
AcDbPolyline
 62
7
  6
CONTINUOUS
 90
42
 70
0
 10
29.4705892483
 20
-44.4079506561
 10
29.6402360681
 20
-44.6346064557
 10
29.8040731577
 20
-44.8659786201
 10
29.9621005172
 20
-45.1020671494
 10
30.1146140708
 20
-45.3433682675
 10
30.2613178943
 20
-45.5893857505
 10
30.4013242152
 20
-45.8386309264
 10
30.534592419
 20
-46.0911233612
 10
30.6611631201
 20
-46.3468434891
 10
30.7802703893
 20
-46.6042439405
 10
30.891868975
 20
-46.8633349092
 10
30.9960041287
 20
-47.1241062016
 10
31.092045676
 20
-47.3849798674
 10
31.1799445434
 20
-47.6459565315
 10
31.2597498045
 20
-47.9070355692
 10
31.3309785056
 20
-48.1666371554
 10
31.3935786445
 20
-48.4247523365
 10
31.4476022234
 20
-48.6813900663
 10
31.4927222959
 20
-48.9349973809
 10
31.5288848765
 20
-49.1855559089
 10
31.5561439508
 20
-49.4330840218
 10
31.5743345293
 20
-49.6760838701
 10
31.5834016255
 20
-49.9145280007
 10
31.5834002259
 20
-50.1484438667
 10
31.5743303009
 20
-50.3764159778
 10
31.5561368631
 20
-50.5984082966
 10
31.5288748998
 20
-50.8144568605
 10
31.4927093432
 20
-51.0232542916
 10
31.4475862055
 20
-51.2247566255
 10
31.3935594745
 20
-51.4190078265
 10
31.3309560457
 20
-51.6048324099
 10
31.2597239133
 20
-51.7821792825
 10
31.1799150831
 20
-51.9510995375
 10
31.0920124684
 20
-52.1105709704
 10
30.9959669907
 20
-52.2605362896
 10
30.8918277285
 20
-52.4010527866
 10
30.7802248297
 20
-52.5312701315
 10
30.661113037
 20
-52.6511258758
 10
30.5345376077
 20
-52.760682468
 10
30.4012644618
 20
-52.8592769238
 10
30.2612495031
 20
-52.9468432764
 10
30.228043696
 20
-52.9654621076
  0
LWPOLYLINE
  5
2E0
100
AcDbEntity
  8
RACCORDO
100
AcDbPolyline
 62
253
  6
CONTINUOUS
 90
16
 70
0
 10
29.1459949869
 20
-44.6732289442
 10
29.1539578863
 20
-44.6840239
 10
29.1614809851
 20
-44.6951047975
 10
29.1685642834
 20
-44.7064716366
 10
29.1752370876
 20
-44.7181802236
 10
29.1814700912
 20
-44.7301747522
 10
29.1871753748
 20
-44.7422878044
 10
29.1923445697
 20
-44.7545193308
 10
29.1969860446
 20
-44.7668693807
 10
29.2010369866
 20
-44.7791706841
 10
29.2044894591
 20
-44.7914249673
 10
29.2073513987
 20
-44.803630504
 10
29.2095838025
 20
-44.815614845
 10
29.2111736693
 20
-44.8273205073
 10
29.2121340002
 20
-44.8388049739
 10
29.2124647953
 20
-44.8500682449
  0
LWPOLYLINE
  5
2E1
100
AcDbEntity
  8
RACCORDO
100
AcDbPolyline
 62
7
  6
CONTINUOUS
 90
16
 70
0
 10
29.4705892483
 20
-44.4079506561
 10
29.4904899007
 20
-44.4349272571
 10
29.5092938915
 20
-44.4626233017
 10
29.5270012207
 20
-44.4910387899
 10
29.5436882539
 20
-44.520320805
 10
29.5592786255
 20
-44.5503222637
 10
29.573543239
 20
-44.5806019159
 10
29.5864528621
 20
-44.6111359016
 10
29.5980367271
 20
-44.6419480809
 10
29.6081534341
 20
-44.6726687831
 10
29.6167928641
 20
-44.7033335663
 10
29.6239651361
 20
-44.7339068725
 10
29.6295592077
 20
-44.7639123575
 10
29.6335380647
 20
-44.7931912401
 10
29.6359387214
 20
-44.8219023015
 10
29.6367611776
 20
-44.8500455418
  0
LWPOLYLINE
  5
2E2
100
AcDbEntity
  8
RACCORDO
100
AcDbPolyline
 62
253
  6
CONTINUOUS
 90
16
 70
0
 10
29.4668198197
 20
-44.4100889508
 10
29.4864824851
 20
-44.4369707246
 10
29.5052171869
 20
-44.4648018806
 10
29.5229392339
 20
-44.4934552959
 10
29.5395680485
 20
-44.5227989029
 10
29.5550290492
 20
-44.5527001165
 10
29.5692535108
 20
-44.5830266406
 10
29.5821773161
 20
-44.6136425178
 10
29.5937407996
 20
-44.6444063868
 10
29.6038905281
 20
-44.6751760664
 10
29.6125796838
 20
-44.7058095258
 10
29.6197697067
 20
-44.7361695454
 10
29.6254290703
 20
-44.7661220007
 10
29.629531642
 20
-44.7955318365
 10
29.6320575088
 20
-44.8242638514
 10
29.6329943408
 20
-44.8521872024
  0
LWPOLYLINE
  5
2E3
100
AcDbEntity
  8
RACCORDO
100
AcDbPolyline
 62
7
  6
CONTINUOUS
 90
37
 70
0
 10
29.7788051308
 20
-46.4670585003
 10
29.8812246125
 20
-46.6189722953
 10
29.9793346101
 20
-46.7735105193
 10
30.0731351238
 20
-46.9306731723
 10
30.1628463341
 20
-47.0908756029
 10
30.2482480604
 20
-47.2537024626
 10
30.3286797603
 20
-47.4179077053
 10
30.4040611223
 20
-47.5834008188
 10
30.4744724579
 20
-47.7502723154
 10
30.5394941595
 20
-47.9175476859
 10
30.5991347575
 20
-48.0853690349
 10
30.6533857215
 20
-48.253594258
 10
30.7018018518
 20
-48.4208225326
 10
30.7442948653
 20
-48.5868473922
 10
30.7809530451
 20
-48.7518753034
 10
30.811596041
 20
-48.9151248435
 10
30.8362200648
 20
-49.0768253371
 10
30.8548289045
 20
-49.2367474596
 10
30.867253574
 20
-49.3934218143
 10
30.8734377443
 20
-49.5465738653
 10
30.8734377443
 20
-49.6964781486
 10
30.867253574
 20
-49.8424888748
 10
30.8548289046
 20
-49.9848155327
 10
30.8362200648
 20
-50.1232486334
 10
30.8115960411
 20
-50.2565139216
 10
30.7809530453
 20
-50.3843776982
 10
30.7442948654
 20
-50.5070736623
 10
30.7018018519
 20
-50.624028655
 10
30.6533857217
 20
-50.735347196
 10
30.5991347577
 20
-50.8409247657
 10
30.5394941597
 20
-50.939874647
 10
30.4744724582
 20
-51.0320645865
 10
30.4040611226
 20
-51.1176268376
 10
30.3286797606
 20
-51.1960714438
 10
30.2482480606
 20
-51.2673961756
 10
30.1628463343
 20
-51.3316032625
 10
30.0731351241
 20
-51.3882094361
  0
LWPOLYLINE
  5
2E4
100
AcDbEntity
  8
RACCORDO
100
AcDbPolyline
 62
253
  6
CONTINUOUS
 90
31
 70
0
 10
29.8772878981
 20
-46.6208228351
 10
29.9755973382
 20
-46.7756926076
 10
30.069746229
 20
-46.9334579482
 10
30.1595206575
 20
-47.0937604031
 10
30.2447166487
 20
-47.2562357516
 10
30.3251406294
 20
-47.4205148339
 10
30.400609869
 20
-47.586224392
 10
30.4709528975
 20
-47.7529879242
 10
30.5360098929
 20
-47.9204265367
 10
30.5956330411
 20
-48.0881597984
 10
30.6496868727
 20
-48.2558066043
 10
30.698048573
 20
-48.4229860478
 10
30.7406082596
 20
-48.5893182815
 10
30.7772692344
 20
-48.7544253886
 10
30.807948202
 20
-48.9179322415
 10
30.832575458
 20
-49.0794673515
 10
30.8510950436
 20
-49.2386636859
 10
30.8634648781
 20
-49.3951595111
 10
30.8696568582
 20
-49.548599253
 10
30.8696569177
 20
-49.6986342903
 10
30.8634650592
 20
-49.8449237209
 10
30.8510953573
 20
-49.9871351427
 10
30.8325759198
 20
-50.1249454684
 10
30.8079488159
 20
-50.2580416412
 10
30.777269996
 20
-50.386121253
 10
30.7406091604
 20
-50.508893294
 10
30.6980495813
 20
-50.6260788625
 10
30.6496879255
 20
-50.7374117348
 10
30.5956340787
 20
-50.842638894
 10
30.536010891
 20
-50.9415211713
 10
30.4709538505
 20
-51.0338338752
  0
LWPOLYLINE
  5
2E5
100
AcDbEntity
  8
RACCORDO
100
AcDbPolyline
 62
7
  6
CONTINUOUS
 90
3
 70
0
 10
28.054435907
 20
-47.0036521902
 10
28.0606110651
 20
-47.0134445973
 10
28.0660950195
 20
-47.0240075076
  0
LWPOLYLINE
  5
2E6
100
AcDbEntity
  8
RACCORDO
100
AcDbPolyline
 62
253
  6
CONTINUOUS
 90
8
 70
0
 10
29.5417066377
 20
-46.8641312265
 10
29.6390296898
 20
-47.0185728818
 10
29.7317090474
 20
-47.1758746502
 10
29.8200194157
 20
-47.3365524878
 10
29.9036860895
 20
-47.5000904386
 10
29.9818849531
 20
-47.6649406346
 10
30.0545115408
 20
-47.8310132872
 10
30.1216703183
 20
-47.998398185
  0
LINE
  5
2E7
100
AcDbEntity
  8
RACCORDO
100
AcDbLine
 62
253
  6
CONTINUOUS
 10
26.4858197374
 20
-49.7117269879
 11
26.4598377555
 21
-49.6696514904
  0
LWPOLYLINE
  5
2E8
100
AcDbEntity
  8
RACCORDO
100
AcDbPolyline
 62
253
  6
CONTINUOUS
 90
7
 70
0
 10
28.2381099967
 20
-47.9939916627
 10
28.2464301992
 20
-48.0075316231
 10
28.2556279536
 20
-48.0206761579
 10
28.265185907
 20
-48.0327732384
 10
28.2749316083
 20
-48.0436055215
 10
28.2850375086
 20
-48.0533903504
 10
28.2955036079
 20
-48.0621277248
  0
LWPOLYLINE
  5
2E9
100
AcDbEntity
  8
RACCORDO
100
AcDbPolyline
 62
7
  6
CONTINUOUS
 90
14
 70
0
 10
26.4251890589
 20
-49.7181386963
 10
26.4471527936
 20
-49.754655367
 10
26.4676396459
 20
-49.7919590357
 10
26.4864824652
 20
-49.829716162
 10
26.5035752898
 20
-49.8676569819
 10
26.5188250916
 20
-49.9054922802
 10
26.532132035
 20
-49.9428394669
 10
26.5434716027
 20
-49.9794358708
 10
26.552832702
 20
-50.0149910728
 10
26.5602031267
 20
-50.049068717
 10
26.5656571832
 20
-50.0814354779
 10
26.5692928262
 20
-50.1118613033
 10
26.571225985
 20
-50.1399281483
 10
26.5716703086
 20
-50.1604105788
  0
LINE
  5
2EA
100
AcDbEntity
  8
RACCORDO
100
AcDbLine
 62
7
  6
CONTINUOUS
 10
28.2237284748
 20
-47.9866744562
 11
28.2380367085
 21
-48.0116452467
  0
LWPOLYLINE
  5
2EB
100
AcDbEntity
  8
RACCORDO
100
AcDbPolyline
 62
7
  6
CONTINUOUS
 90
11
 70
0
 10
26.7057877708
 20
23.1007512944
 10
26.6820803562
 20
23.0782370718
 10
26.660060245
 20
23.0532607599
 10
26.6400112549
 20
23.0259500315
 10
26.6221841176
 20
22.9964642581
 10
26.6067681342
 20
22.9649304484
 10
26.5939828263
 20
22.9315959382
 10
26.584010183
 20
22.8967711096
 10
26.5769334592
 20
22.860652119
 10
26.5728103968
 20
22.8233680796
 10
26.5716751814
 20
22.790311993
  0
LWPOLYLINE
  5
2EC
100
AcDbEntity
  8
RACCORDO
100
AcDbPolyline
 62
7
  6
CONTINUOUS
 90
3
 70
0
 10
28.2427964298
 20
16.6819554294
 10
28.2368905958
 20
16.6775807652
 10
28.2271325341
 20
16.6686776455
  0
LINE
  5
2ED
100
AcDbEntity
  8
RACCORDO
100
AcDbLine
 62
7
  6
CONTINUOUS
 10
28.6510839357
 20
16.9623753085
 11
28.242732889
 21
16.6819135327
  0
LINE
  5
2EE
100
AcDbEntity
  8
RACCORDO
100
AcDbLine
 62
253
  6
CONTINUOUS
 10
28.6853001348
 20
16.935652944
 11
28.3228776151
 21
16.6867355865
  0
LINE
  5
2EF
100
AcDbEntity
  8
RACCORDO
100
AcDbLine
 62
253
  6
CONTINUOUS
 10
30.0731351241
 20
13.9294127073
 11
30.0697466846
 21
13.9275607067
  0
LINE
  5
2F0
100
AcDbEntity
  8
RACCORDO
100
AcDbLine
 62
253
  6
CONTINUOUS
 10
29.5298371271
 20
12.1219579715
 11
29.5257148979
 21
12.1197016173
  0
LWPOLYLINE
  5
2F1
100
AcDbEntity
  8
RACCORDO
100
AcDbPolyline
 62
253
  6
CONTINUOUS
 90
5
 70
0
 10
29.7395845888
 20
13.7891002959
 10
29.7260014961
 20
13.7808039404
 10
29.7116113046
 20
13.7698932134
 10
29.6982935562
 20
13.7573956674
 10
29.6861025118
 20
13.7433641557
  0
LINE
  5
2F2
100
AcDbEntity
  8
DRAFT
100
AcDbLine
 62
7
  6
CONTINUOUS
 10
33.0373721941
 20
13.9591129237
 11
31.9532229539
 21
13.3018470276
  0
LINE
  5
2F3
100
AcDbEntity
  8
0
100
AcDbLine
 62
7
  6
CONTINUOUS
 10
29.5835571462
 20
14.8652339276
 11
29.3360697727
 21
14.7223378199
  0
LINE
  5
2F4
100
AcDbEntity
  8
DRAFT
100
AcDbLine
 62
7
  6
CONTINUOUS
 10
31.8742379814
 20
13.2562420943
 11
31.9532229539
 21
13.3018470276
  0
LINE
  5
2F5
100
AcDbEntity
  8
RACCORDO
100
AcDbLine
 62
253
  6
CONTINUOUS
 10
30.0519112447
 20
13.9174882546
 11
30.0481618807
 21
13.9154336626
  0
LINE
  5
2F6
100
AcDbEntity
  8
RACCORDO
100
AcDbLine
 62
7
  6
CONTINUOUS
 10
30.0731351241
 20
13.9294127073
 11
30.0519112447
 21
13.9174882546
  0
LINE
  5
2F7
100
AcDbEntity
  8
ASSI
100
AcDbLine
 62
253
  6
CONTINUOUS
 10
25.6732604246
 20
8.830721931
 11
24.5627914664
 21
8.2148994084
  0
LINE
  5
2F8
100
AcDbEntity
  8
ASSI
100
AcDbLine
 62
253
  6
CONTINUOUS
 10
25.8802410419
 20
8.1342339421
 11
24.7697843413
 21
7.5183901887
  0
LINE
  5
2F9
100
AcDbEntity
  8
DRAFT
100
AcDbLine
 62
7
  6
CONTINUOUS
 10
30.0519092249
 20
13.9174918106
 11
30.0481618807
 21
13.9154336626
  0
LINE
  5
2FA
100
AcDbEntity
  8
DRAFT
100
AcDbLine
 62
7
  6
CONTINUOUS
 10
31.8742379814
 20
13.2562420943
 11
30.228067352
 21
12.3521183777
  0
LINE
  5
2FB
100
AcDbEntity
  8
RACCORDO
100
AcDbLine
 62
253
  6
CONTINUOUS
 10
29.6367611776
 20
13.5606024633
 11
29.6329943408
 21
13.5585395783
  0
LINE
  5
2FC
100
AcDbEntity
  8
RACCORDO
100
AcDbLine
 62
253
  6
CONTINUOUS
 10
29.6329943408
 20
12.350639832
 11
29.6367611776
 21
12.3526987716
  0
LINE
  5
2FD
100
AcDbEntity
  8
RACCORDO
100
AcDbLine
 62
7
  6
CONTINUOUS
 10
29.5257149783
 20
12.1197016613
 11
29.5298384954
 21
12.1219555606
  0
LWPOLYLINE
  5
2FE
100
AcDbEntity
  8
0
100
AcDbPolyline
 62
7
  6
CONTINUOUS
 90
22
 70
0
 10
29.3357974369
 20
14.7228113493
 10
29.2950854435
 20
14.7008754168
 10
29.117152004
 20
14.6312162342
 10
28.925951618
 20
14.5957502586
 10
28.7209508889
 20
14.5958522251
 10
28.5026832133
 20
14.6301473985
 10
28.2798079755
 20
14.6972751786
 10
28.0521399288
 20
14.7985555975
 10
27.8198643199
 20
14.9326686229
 10
27.5921962732
 20
15.0942935576
 10
27.3693210354
 20
15.2845365157
 10
27.1510533598
 20
15.502291383
 10
26.9460526307
 20
15.7389191199
 10
26.7548522447
 20
15.9951785087
 10
26.5769188052
 20
16.2703107671
 10
26.4193115072
 20
16.5534005089
 10
26.2828475614
 20
16.8447676641
 10
26.1667097569
 20
17.1440923028
 10
26.0755056561
 20
17.4394992487
 10
26.0107711128
 20
17.7270301098
 10
25.9709702731
 20
18.0106432781
 10
25.956103137
 20
18.2903387538
  0
LWPOLYLINE
  5
2FF
100
AcDbEntity
  8
RACCORDO
100
AcDbPolyline
 62
7
  6
CONTINUOUS
 90
5
 70
0
 10
30.228043696
 20
12.3521600359
 10
30.1145368277
 20
12.2941746508
 10
29.9620246437
 20
12.2289976542
 10
29.8040123538
 20
12.1754029047
 10
29.6402005554
 20
12.1332353749
  0
LINE
  5
300
100
AcDbEntity
  8
RACCORDO
100
AcDbLine
 62
7
  6
CONTINUOUS
 10
29.5045795086
 20
12.1090212454
 11
29.5257010214
 21
12.1196949732
  0
LWPOLYLINE
  5
301
100
AcDbEntity
  8
RACCORDO
100
AcDbPolyline
 62
253
  6
CONTINUOUS
 90
16
 70
0
 10
29.6329943408
 20
13.5585395783
 10
29.6095702148
 20
13.5467688306
 10
29.5841642271
 20
13.5364592152
 10
29.5570485854
 20
13.5277211926
 10
29.528513815
 20
13.5206483847
 10
29.498865646
 20
13.5153165715
 10
29.4684217382
 20
13.5117828799
 10
29.4375082768
 20
13.5100851708
 10
29.4064564782
 20
13.5102416341
 10
29.3755990409
 20
13.5122505934
 10
29.345266581
 20
13.516090524
 10
29.3157840897
 20
13.5217202838
 10
29.2874674515
 20
13.5290795538
 10
29.2606200596
 20
13.5380894844
 10
29.2355295651
 20
13.5486535406
 10
29.2124647953
 20
13.5606585359
  0
LWPOLYLINE
  5
302
100
AcDbEntity
  8
RACCORDO
100
AcDbPolyline
 62
253
  6
CONTINUOUS
 90
16
 70
0
 10
29.6329943408
 20
12.350639832
 10
29.6095700579
 20
12.3388690157
 10
29.5841639096
 20
12.3285593582
 10
29.5570481125
 20
12.3198213182
 10
29.5285131975
 20
12.3127485145
 10
29.498864904
 20
12.3074167248
 10
29.4684209046
 20
12.3038830725
 10
29.4375073899
 20
12.3021854129
 10
29.406455578
 20
12.3023419299
 10
29.3755981718
 20
12.3043509404
 10
29.3452657865
 20
12.3081909129
 10
29.3157834081
 20
12.313820699
 10
29.2874669152
 20
12.3211799734
 10
29.2606196927
 20
12.3301898813
 10
29.2355293809
 20
12.3407538833
 10
29.2124647953
 20
12.3527587896
  0
LWPOLYLINE
  5
303
100
AcDbEntity
  8
RACCORDO
100
AcDbPolyline
 62
7
  6
CONTINUOUS
 90
3
 70
0
 10
29.9815860732
 20
13.8810231038
 10
30.0151155473
 20
13.8978219409
 10
30.0481618807
 20
13.9154336626
  0
LWPOLYLINE
  5
304
100
AcDbEntity
  8
ASSI
100
AcDbPolyline
 62
253
  6
CONTINUOUS
 90
16
 70
0
 10
24.5627914664
 20
8.2148994084
 10
24.5343540035
 20
8.2007037009
 10
24.5041497163
 20
8.1877817172
 10
24.4723493365
 20
8.1762065035
 10
24.4391326224
 20
8.166043494
 10
24.4046873317
 20
8.1573501384
 10
24.3692081598
 20
8.150175578
 10
24.3328956567
 20
8.1445603727
 10
24.2959550849
 20
8.140536268
 10
24.2585952471
 20
8.1381260148
 10
24.2210273778
 20
8.1373432435
 10
24.1834637879
 20
8.1381923803
 10
24.1461166546
 20
8.1406686451
 10
24.1091970467
 20
8.144758074
 10
24.0729137292
 20
8.1504375739
 10
24.037471822
 20
8.1576750648
  0
LWPOLYLINE
  5
305
100
AcDbEntity
  8
RACCORDO
100
AcDbPolyline
 62
7
  6
CONTINUOUS
 90
3
 70
0
 10
29.138919744
 20
-10.4632255259
 10
29.1397652746
 20
-10.4636547121
 10
29.139882521
 20
-10.4637188231
  0
LWPOLYLINE
  5
306
100
AcDbEntity
  8
RACCORDO
100
AcDbPolyline
 62
7
  6
CONTINUOUS
 90
3
 70
0
 10
29.1322617438
 20
-10.4595212126
 10
29.1351645935
 20
-10.4611054854
 10
29.138919744
 20
-10.4632255259
  0
LWPOLYLINE
  5
307
100
AcDbEntity
  8
RACCORDO
100
AcDbPolyline
 62
7
  6
CONTINUOUS
 90
7
 70
0
 10
29.0977586822
 20
-10.4402938431
 10
29.1039587463
 20
-10.4436922992
 10
29.1097706668
 20
-10.4469401874
 10
29.1151759154
 20
-10.4499964642
 10
29.1201901137
 20
-10.4527979074
 10
29.1247656397
 20
-10.4553204785
 10
29.1322617438
 20
-10.4595212126
  0
LINE
  5
308
100
AcDbEntity
  8
RACCORDO
100
AcDbLine
 62
253
  6
CONTINUOUS
 10
29.1398577122
 20
-15.8755786862
 11
29.6864730058
 21
-16.1911875061
  0
LINE
  5
309
100
AcDbEntity
  8
RACCORDO
100
AcDbLine
 62
7
  6
CONTINUOUS
 10
29.1398577122
 20
-15.8269603165
 11
29.7596255226
 21
-16.1848064827
  0
LWPOLYLINE
  5
30A
100
AcDbEntity
  8
RACCORDO
100
AcDbPolyline
 62
253
  6
CONTINUOUS
 90
5
 70
0
 10
29.6864730058
 20
-16.1911875061
 10
29.6977393544
 20
-16.1981553722
 10
29.708862041
 20
-16.2063997207
 10
29.7197192504
 20
-16.2158302599
 10
29.7301920749
 20
-16.2263437068
  0
LWPOLYLINE
  5
30B
100
AcDbEntity
  8
RACCORDO
100
AcDbPolyline
 62
253
  6
CONTINUOUS
 90
19
 70
0
 10
24.146678065
 20
-32.575682238
 10
24.1701710068
 20
-32.6112565008
 10
24.1960637055
 20
-32.6450879001
 10
24.2241679035
 20
-32.6769304594
 10
24.2542792646
 20
-32.7065526627
 10
24.2861788588
 20
-32.7337391372
 10
24.3196347547
 20
-32.7582922197
 10
24.3544037057
 20
-32.7800333935
 10
24.3902329184
 20
-32.7988045866
 10
24.426861891
 20
-32.8144693204
 10
24.4640243065
 20
-32.8269137026
 10
24.5014499698
 20
-32.8360472549
 10
24.5388667723
 20
-32.841803571
 10
24.5760026692
 20
-32.8441407989
 10
24.6125876584
 20
-32.8430419461
 10
24.6483557439
 20
-32.8385150021
 10
24.6830468685
 20
-32.830592881
 10
24.716408805
 20
-32.8193331819
 10
24.7481989904
 20
-32.8048177705
  0
LWPOLYLINE
  5
30C
100
AcDbEntity
  8
RACCORDO
100
AcDbPolyline
 62
253
  6
CONTINUOUS
 90
19
 70
0
 10
24.1787098218
 20
-32.5555385971
 10
24.2013020311
 20
-32.59169886
 10
24.2263024185
 20
-32.6261106419
 10
24.2535290734
 20
-32.6585235519
 10
24.282783886
 20
-32.6887017432
 10
24.313853989
 20
-32.7164256299
 10
24.3465133066
 20
-32.7414934843
 10
24.3805241992
 20
-32.7637229046
 10
24.4156391928
 20
-32.7829521426
 10
24.4516027796
 20
-32.7990412803
 10
24.4881532772
 20
-32.811873248
 10
24.5250247326
 20
-32.8213546763
 10
24.5619488576
 20
-32.8274165753
 10
24.5986569803
 20
-32.8300148367
 10
24.6348820011
 20
-32.8291305547
 10
24.6703603351
 20
-32.8247701638
 10
24.7048338308
 20
-32.8169653913
 10
24.7380516481
 20
-32.8057730274
 10
24.7697720837
 20
-32.7912745112
  0
LWPOLYLINE
  5
30D
100
AcDbEntity
  8
RACCORDO
100
AcDbPolyline
 62
253
  6
CONTINUOUS
 90
19
 70
0
 10
25.4592291534
 20
-31.8163256838
 10
25.481737202
 20
-31.8523611168
 10
25.5066629186
 20
-31.8866944134
 10
25.5338327125
 20
-31.9190714837
 10
25.5630649616
 20
-31.9492600121
 10
25.5941448458
 20
-31.9770233521
 10
25.6268205694
 20
-32.002130048
 10
25.6608446626
 20
-32.0243906583
 10
25.6959784664
 20
-32.0436497142
 10
25.7319636306
 20
-32.0597651261
 10
25.7685376397
 20
-32.0726192934
 10
25.8054343304
 20
-32.0821186349
 10
25.8423832229
 20
-32.0881936596
 10
25.8791157049
 20
-32.0908004942
 10
25.9153635973
 20
-32.0899203995
 10
25.9508596487
 20
-32.0855607311
 10
25.9853446226
 20
-32.0777548745
 10
26.0185689817
 20
-32.0665609045
 10
26.0502914154
 20
-32.0520615978
  0
LWPOLYLINE
  5
30E
100
AcDbEntity
  8
RACCORDO
100
AcDbPolyline
 62
7
  6
CONTINUOUS
 90
4
 70
0
 10
29.002680856
 20
-48.6452892167
 10
29.0080253236
 20
-48.6565185062
 10
29.0117479462
 20
-48.6670199474
 10
29.013789072
 20
-48.6759526975
  0
LWPOLYLINE
  5
30F
100
AcDbEntity
  8
RACCORDO
100
AcDbPolyline
 62
7
  6
CONTINUOUS
 90
8
 70
0
 10
25.8473115175
 20
-48.7171392063
 10
25.8715305995
 20
-48.768725957
 10
25.9374192017
 20
-48.9033290152
 10
26.0065876457
 20
-49.0366233924
 10
26.0789342068
 20
-49.1684217401
 10
26.1543627961
 20
-49.2985526044
 10
26.2327667215
 20
-49.4268308903
 10
26.3140272104
 20
-49.5530592416
  0
LWPOLYLINE
  5
310
100
AcDbEntity
  8
RACCORDO
100
AcDbPolyline
 62
7
  6
CONTINUOUS
 90
11
 70
0
 10
25.847301443
 20
-48.7171543469
 10
25.842648316
 20
-48.7062522523
 10
25.8369701319
 20
-48.6902984875
 10
25.8318758118
 20
-48.6726324074
 10
25.8274176865
 20
-48.6532763701
 10
25.8235928998
 20
-48.632181294
 10
25.8204043078
 20
-48.6093962607
 10
25.81791281
 20
-48.5850908733
 10
25.8161387062
 20
-48.559321666
 10
25.8150616964
 20
-48.5320321047
 10
25.8146817808
 20
-48.5032221892
  0
LWPOLYLINE
  5
311
100
AcDbEntity
  8
RACCORDO
100
AcDbPolyline
 62
253
  6
CONTINUOUS
 90
10
 70
0
 10
25.8146817808
 20
19.9295873906
 10
25.8709229016
 20
19.9947973887
 10
25.9303419023
 20
20.0552083047
 10
25.9929387828
 20
20.1108201386
 10
26.0588243276
 20
20.1617128635
 10
26.1278877523
 20
20.2078065063
 10
26.199796703
 20
20.2488611472
 10
26.2744403951
 20
20.284796813
 10
26.3519296133
 20
20.315693477
 10
26.4322643575
 20
20.341551139
  0
LWPOLYLINE
  5
312
100
AcDbEntity
  8
RACCORDO
100
AcDbPolyline
 62
253
  6
CONTINUOUS
 90
3
 70
0
 10
27.6396751377
 20
17.676705298
 10
27.6464596839
 20
17.6834082959
 10
27.6521569618
 20
17.6911549774
  0
LWPOLYLINE
  5
313
100
AcDbEntity
  8
0
100
AcDbPolyline
 62
7
  6
CONTINUOUS
 90
3
 70
0
 10
29.5891566873
 20
14.9357462126
 10
29.4526927415
 20
14.8019642014
 10
29.3357974369
 20
14.7228113493
  0
LINE
  5
314
100
AcDbEntity
  8
RACCORDO
100
AcDbLine
 62
253
  6
CONTINUOUS
 10
30.2482480606
 20
14.0502259678
 11
30.2447173539
 21
14.0482873702
  0
LINE
  5
315
100
AcDbEntity
  8
RACCORDO
100
AcDbLine
 62
253
  6
CONTINUOUS
 10
29.5436807643
 20
12.1304525781
 11
29.539570022
 21
12.1281848391
  0
LINE
  5
316
100
AcDbEntity
  8
RACCORDO
100
AcDbLine
 62
253
  6
CONTINUOUS
 10
30.1628463343
 20
13.986018881
 11
30.1595212445
 21
13.9841940451
  0
LWPOLYLINE
  5
317
100
AcDbEntity
  8
RACCORDO
100
AcDbPolyline
 62
7
  6
CONTINUOUS
 90
3
 70
0
 10
29.737498276
 20
13.7877741622
 10
29.7192945161
 20
13.7750841344
 10
29.7025841414
 20
13.7597671357
  0
LWPOLYLINE
  5
318
100
AcDbEntity
  8
RACCORDO
100
AcDbPolyline
 62
7
  6
CONTINUOUS
 90
29
 70
0
 10
33.0373721941
 20
13.9591129237
 10
33.1735696157
 20
14.0486512708
 10
33.3037518497
 20
14.1485326125
 10
33.4276030097
 20
14.2586209996
 10
33.5448485765
 20
14.3787878283
 10
33.6551729632
 20
14.5088294604
 10
33.7582421192
 20
14.6484533
 10
33.8538165849
 20
14.7974209827
 10
33.9416892247
 20
14.955503496
 10
34.0216303987
 20
15.1223808877
 10
34.0934848627
 20
15.2978306553
 10
34.1570688262
 20
15.4815224689
 10
34.2121728518
 20
15.6729194051
 10
34.2586877028
 20
15.8716519102
 10
34.2965335874
 20
16.0774014643
 10
34.32561514
 20
16.2896409402
 10
34.3458901853
 20
16.5079912333
 10
34.3573281763
 20
16.7320454975
 10
34.3599153281
 20
16.9611787267
 10
34.3536781854
 20
17.1948823283
 10
34.3386563267
 20
17.4327865908
 10
34.3149019645
 20
17.6744380529
 10
34.2824820596
 20
17.9193784147
 10
34.2414776045
 20
18.1671475787
 10
34.1919855753
 20
18.4172721368
 10
34.1341165162
 20
18.6692811717
 10
34.0679959091
 20
18.9226979214
 10
33.9937680405
 20
19.1770288682
 10
33.9115952983
 20
19.4317726388
  0
LWPOLYLINE
  5
319
100
AcDbEntity
  8
DRAFT
100
AcDbPolyline
 62
7
  6
CONTINUOUS
 90
53
 70
0
 10
31.9532229539
 20
13.3018470276
 10
32.0214566905
 20
13.3449980994
 10
32.158488459
 20
13.4432440246
 10
32.2883069079
 20
13.5525383061
 10
32.4108285559
 20
13.6728123103
 10
32.5258932825
 20
13.8039766576
 10
32.6331192196
 20
13.9456684512
 10
32.732118541
 20
14.0973734524
 10
32.8226135838
 20
14.2585758242
 10
32.904547082
 20
14.4290750132
 10
32.9778839869
 20
14.6087996519
 10
33.042517716
 20
14.7976161046
 10
33.098204568
 20
14.9949576381
 10
33.144734203
 20
15.2000771682
 10
33.1819961174
 20
15.4122792647
 10
33.2099961718
 20
15.6313380576
 10
33.2287254038
 20
15.8571849589
 10
33.238125908
 20
16.0896452669
 10
33.238125908
 20
16.3279906457
 10
33.2287254038
 20
16.5713064203
 10
33.2099961718
 20
16.8187813692
 10
33.1819961174
 20
17.0701739231
 10
33.144734203
 20
17.3254051444
 10
33.098204568
 20
17.5842559306
 10
33.042517716
 20
17.845903245
 10
32.9778839869
 20
18.1093571081
 10
32.904547082
 20
18.3737693661
 10
32.8226135838
 20
18.6388833052
 10
32.732118541
 20
18.9045870841
 10
32.6331192196
 20
19.1706140201
 10
32.5258932825
 20
19.4361276382
 10
32.4108285559
 20
19.7001658475
 10
32.2883069079
 20
19.9619247797
 10
32.158488459
 20
20.221130152
 10
32.0214566905
 20
20.4776169287
 10
31.8773476787
 20
20.7310751065
 10
31.7265675403
 20
20.9807376856
 10
31.5696213415
 20
21.2257665061
 10
31.4069776676
 20
21.4654725437
 10
31.2388611104
 20
21.6995657536
 10
31.0654340277
 20
21.9278218457
 10
30.8869263998
 20
22.1499056006
 10
30.7038161437
 20
22.3651907701
 10
30.5166480884
 20
22.5730347415
 10
30.3259169374
 20
22.7729118021
 10
30.1319242813
 20
22.9645290622
 10
29.9349408384
 20
23.147621108
 10
29.7352985927
 20
23.3218635991
 10
29.5334813152
 20
23.4868187383
 10
29.3299923299
 20
23.6420728116
 10
29.125283214
 20
23.7872882445
 10
28.9197502307
 20
23.9221908547
 10
28.7138195837
 20
24.0465054966
  0
LINE
  5
31A
100
AcDbEntity
  8
ASSI
100
AcDbLine
 62
253
  6
CONTINUOUS
 10
24.7697720837
 20
7.5184114195
 11
24.1787098218
 21
7.1771673591
  0
LINE
  5
31B
100
AcDbEntity
  8
ASSI
100
AcDbLine
 62
253
  6
CONTINUOUS
 10
25.9468011067
 20
5.4797373518
 11
25.3557388448
 21
5.1384932914
  0
LINE
  5
31C
100
AcDbEntity
  8
ASSI
100
AcDbLine
 62
253
  6
CONTINUOUS
 10
25.9467894424
 20
5.479757555
 11
27.0572700649
 21
6.0955598744
  0
LINE
  5
31D
100
AcDbEntity
  8
ASSI
100
AcDbLine
 62
253
  6
CONTINUOUS
 10
26.1537817241
 20
4.7832493629
 11
27.2642506822
 21
5.3990718856
  0
LWPOLYLINE
  5
31E
100
AcDbEntity
  8
ASSI
100
AcDbPolyline
 62
253
  6
CONTINUOUS
 90
19
 70
0
 10
26.1537817241
 20
4.7832493629
 10
26.1213767792
 20
4.7672379331
 10
26.0867264051
 20
4.7528793088
 10
26.0500827289
 20
4.7402779677
 10
26.0117123816
 20
4.7295256014
 10
25.9718945579
 20
4.7207004473
 10
25.9309189849
 20
4.7138667201
 10
25.8890838138
 20
4.7090741442
 10
25.8466934505
 20
4.7063575918
 10
25.8040563408
 20
4.7057368295
 10
25.7614827257
 20
4.7072163741
 10
25.7192823843
 20
4.71078546
 10
25.6777623796
 20
4.7164181174
 10
25.6372248243
 20
4.7240733612
 10
25.5979646824
 20
4.7336954896
 10
25.5602676232
 20
4.7452144888
 10
25.5244079424
 20
4.758546543
 10
25.4906465663
 20
4.773594644
 10
25.4592291534
 20
4.7902492969
  0
LWPOLYLINE
  5
31F
100
AcDbEntity
  8
RACCORDO
100
AcDbPolyline
 62
253
  6
CONTINUOUS
 90
3
 70
0
 10
29.733935242
 20
13.7867132104
 10
29.7283389047
 20
13.7852110584
 10
29.7036307971
 20
13.7806265385
  0
LINE
  5
320
100
AcDbEntity
  8
RACCORDO
100
AcDbLine
 62
7
  6
CONTINUOUS
 10
29.6402005554
 20
12.1332353749
 11
29.4705892483
 21
12.1024950645
  0
LWPOLYLINE
  5
321
100
AcDbEntity
  8
RACCORDO
100
AcDbPolyline
 62
7
  6
CONTINUOUS
 90
5
 70
0
 10
29.4008432561
 20
12.0782211374
 10
29.4199065316
 20
12.0814646242
 10
29.4489368993
 20
12.088394463
 10
29.4772240646
 20
12.0976046864
 10
29.5045795086
 20
12.1090212454
  0
LINE
  5
322
100
AcDbEntity
  8
RACCORDO
100
AcDbLine
 62
7
  6
CONTINUOUS
 10
29.4009208386
 20
12.0782274068
 11
29.400843943
 21
12.0782163407
  0
LINE
  5
323
100
AcDbEntity
  8
RACCORDO
100
AcDbLine
 62
253
  6
CONTINUOUS
 10
29.400843943
 20
12.0782163407
 11
29.3961785939
 21
12.0776048131
  0
LWPOLYLINE
  5
324
100
AcDbEntity
  8
RACCORDO
100
AcDbPolyline
 62
253
  6
CONTINUOUS
 90
15
 70
0
 10
29.1459949869
 20
12.2526771576
 10
29.0047409775
 20
12.2366139932
 10
28.8606280121
 20
12.2287110693
 10
28.7136560906
 20
12.2289683859
 10
28.5635417533
 20
12.237407338
 10
28.4105684599
 20
12.2540065306
 10
28.2555865902
 20
12.2787017785
 10
28.0986657707
 20
12.311526891
 10
27.9397363748
 20
12.3524480588
 10
27.7794399033
 20
12.4012996683
 10
27.6176877909
 20
12.4581548683
 10
27.4545686028
 20
12.52294051
 10
27.2909895348
 20
12.5952715328
 10
27.1272529853
 20
12.6750195833
 10
26.9630565559
 20
12.7623130148
  0
LWPOLYLINE
  5
325
100
AcDbEntity
  8
RACCORDO
100
AcDbPolyline
 62
253
  6
CONTINUOUS
 90
8
 70
0
 10
29.0143568637
 20
-48.6478156809
 10
29.0173886974
 20
-48.6543471989
 10
29.0200577843
 20
-48.6607583567
 10
29.0223743899
 20
-48.6670181934
 10
29.0243282487
 20
-48.6731576698
 10
29.0259490554
 20
-48.6792639645
 10
29.0272467083
 20
-48.6853661368
 10
29.0282113091
 20
-48.6914351273
  0
LINE
  5
326
100
AcDbEntity
  8
RACCORDO
100
AcDbLine
 62
7
  6
CONTINUOUS
 10
28.2119189172
 20
-47.9607326688
 11
28.2237284748
 21
-47.9866744562
  0
LWPOLYLINE
  5
327
100
AcDbEntity
  8
RACCORDO
100
AcDbPolyline
 62
7
  6
CONTINUOUS
 90
5
 70
0
 10
28.0660950195
 20
-47.0240075076
 10
28.0707885057
 20
-47.0351797741
 10
28.0746446981
 20
-47.0470589232
 10
28.0774009927
 20
-47.0592562916
 10
28.077946541
 20
-47.062699301
  0
LWPOLYLINE
  5
328
100
AcDbEntity
  8
RACCORDO
100
AcDbPolyline
 62
253
  6
CONTINUOUS
 90
6
 70
0
 10
28.0789500852
 20
-47.0297726786
 10
28.0818448697
 20
-47.0369948807
 10
28.0845490401
 20
-47.0445231638
 10
28.0869420763
 20
-47.0522375816
 10
28.088983805
 20
-47.0600981519
 10
28.0907143996
 20
-47.0681448569
  0
LWPOLYLINE
  5
329
100
AcDbEntity
  8
RACCORDO
100
AcDbPolyline
 62
253
  6
CONTINUOUS
 90
23
 70
0
 10
25.8146817808
 20
19.6330789975
 10
25.8748320895
 20
19.7249272302
 10
25.940279356
 20
19.8093577656
 10
26.0110235801
 20
19.8863706038
 10
26.0873005568
 20
19.9561572934
 10
26.1688744912
 20
20.0185262857
 10
26.2550379984
 20
20.0729029349
 10
26.3458123422
 20
20.1191995082
 10
26.4411762588
 20
20.1575037384
 10
26.5403585724
 20
20.1875041774
 10
26.6433927596
 20
20.2091347966
 10
26.7502453437
 20
20.2224616246
 10
26.8600447188
 20
20.2273712991
 10
26.9728159415
 20
20.2237945792
 10
27.0885339552
 20
20.2118007058
 10
27.2062519843
 20
20.1914840394
 10
27.3259905352
 20
20.1627736003
 10
27.4477291015
 20
20.1257403681
 10
27.5704593888
 20
20.0806916429
 10
27.6941971797
 20
20.0275527202
 10
27.8189266915
 20
19.9663983044
 10
27.9435922822
 20
19.8977598086
 10
28.0681675224
 20
19.8215914538
  0
LWPOLYLINE
  5
32A
100
AcDbEntity
  8
RACCORDO
100
AcDbPolyline
 62
253
  6
CONTINUOUS
 90
15
 70
0
 10
28.0836278756
 20
15.8480666036
 10
28.0805454371
 20
15.8434609085
 10
28.077213149
 20
15.8394595397
 10
28.0736253349
 20
15.8360713678
 10
28.0697876713
 20
15.8332875223
 10
28.0658376669
 20
15.8310572381
 10
28.0618094283
 20
15.8293936482
 10
28.0576688489
 20
15.8282836196
 10
28.053451117
 20
15.8276369883
 10
28.0491881795
 20
15.8274234555
 10
28.0448480894
 20
15.82767332
 10
28.0403701945
 20
15.8283873143
 10
28.0357342771
 20
15.8295656827
 10
28.0309605548
 20
15.831208181
 10
28.0260490277
 20
15.8333148091
  0
LINE
  5
32B
100
AcDbEntity
  8
RACCORDO
100
AcDbLine
 62
253
  6
CONTINUOUS
 10
29.0212261472
 20
16.3873752168
 11
29.0191067535
 21
16.384348801
  0
LINE
  5
32C
100
AcDbEntity
  8
RACCORDO
100
AcDbLine
 62
253
  6
CONTINUOUS
 10
28.5174079097
 20
16.8705645591
 11
28.6076684516
 21
16.9962821836
  0
LWPOLYLINE
  5
32D
100
AcDbEntity
  8
RACCORDO
100
AcDbPolyline
 62
253
  6
CONTINUOUS
 90
3
 70
0
 10
28.3753453085
 20
16.7729937808
 10
28.3977830551
 20
16.8035861108
 10
28.5635533824
 20
17.0307354248
  0
LINE
  5
32E
100
AcDbEntity
  8
RACCORDO
100
AcDbLine
 62
253
  6
CONTINUOUS
 10
27.8661472464
 20
15.9812886223
 11
28.1578217885
 21
16.3770385801
  0
LINE
  5
32F
100
AcDbEntity
  8
RACCORDO
100
AcDbLine
 62
253
  6
CONTINUOUS
 10
27.8481458629
 20
16.0594438914
 11
28.1795950035
 21
16.5070471816
  0
LWPOLYLINE
  5
330
100
AcDbEntity
  8
RACCORDO
100
AcDbPolyline
 62
253
  6
CONTINUOUS
 90
42
 70
0
 10
30.0024798055
 20
14.5769228241
 10
29.9372126793
 20
14.4915852061
 10
29.8666798539
 20
14.4137028062
 10
29.7908382471
 20
14.3433366264
 10
29.7097309411
 20
14.2804256647
 10
29.6240197577
 20
14.2254832648
 10
29.5336670229
 20
14.1785746247
 10
29.4387104107
 20
14.1396345465
 10
29.339924765
 20
14.1089807805
 10
29.2372787584
 20
14.0866811285
 10
29.1308037184
 20
14.0726677886
 10
29.021368471
 20
14.0670551055
 10
28.9089488069
 20
14.0699118101
 10
28.7935689355
 20
14.0811691714
 10
28.6761703114
 20
14.1007353413
 10
28.5567363871
 20
14.1286783127
 10
28.43528371
 20
14.1649300927
 10
28.3128033772
 20
14.2091948547
 10
28.1892869605
 20
14.2615381906
 10
28.0647428882
 20
14.3218945085
 10
27.940187542
 20
14.3897712054
 10
27.8156209752
 20
14.4652297051
 10
27.6910431346
 20
14.5482085838
 10
27.5674702418
 20
14.6380309664
 10
27.4449100779
 20
14.7347532752
 10
27.3233548618
 20
14.8383190879
 10
27.2037974717
 20
14.9478822631
 10
27.0862559737
 20
15.0634897665
 10
26.9707123017
 20
15.1850946324
 10
26.8581051355
 20
15.3117098226
 10
26.7484521322
 20
15.4433856912
 10
26.6417356346
 20
15.5800718842
 10
26.5388413511
 20
15.720630301
 10
26.4398156885
 20
15.8650678403
 10
26.34461224
 20
16.0133776035
 10
26.2539774932
 20
16.1644007938
 10
26.1678981645
 20
16.3182806257
 10
26.0863875376
 20
16.4748738848
 10
26.0102319519
 20
16.6325921305
 10
25.9396935204
 20
16.7909058827
 10
25.87451013
 20
16.9503446217
 10
25.8146817808
 20
17.1109083473
  0
LINE
  5
331
100
AcDbEntity
  8
RACCORDO
100
AcDbLine
 62
7
  6
CONTINUOUS
 10
28.0758108682
 20
15.8937311434
 11
28.0759883516
 21
15.8939520928
  0
LINE
  5
332
100
AcDbEntity
  8
RACCORDO
100
AcDbLine
 62
253
  6
CONTINUOUS
 10
30.4040611225
 20
14.1999953058
 11
30.4006107583
 21
14.1982548514
  0
LWPOLYLINE
  5
333
100
AcDbEntity
  8
RACCORDO
100
AcDbPolyline
 62
7
  6
CONTINUOUS
 90
6
 70
0
 10
28.2271325341
 20
16.6686776455
 10
28.218356766
 20
16.6583099023
 10
28.2106930519
 20
16.6465171203
 10
28.2042962906
 20
16.6334009224
 10
28.1993062938
 20
16.6191123979
 10
28.1956333462
 20
16.6028019807
  0
LINE
  5
334
100
AcDbEntity
  8
RACCORDO
100
AcDbLine
 62
7
  6
CONTINUOUS
 10
29.7025841414
 20
13.7597671357
 11
29.6874833795
 21
13.7419433275
  0
LINE
  5
335
100
AcDbEntity
  8
RACCORDO
100
AcDbLine
 62
253
  6
CONTINUOUS
 10
28.0412123275
 20
15.8802082515
 11
28.0826722689
 21
15.928318264
  0
LWPOLYLINE
  5
336
100
AcDbEntity
  8
RACCORDO
100
AcDbPolyline
 62
253
  6
CONTINUOUS
 90
14
 70
0
 10
29.0191067535
 20
16.384348801
 10
29.016686296
 20
16.3815509748
 10
29.0139697614
 20
16.3789786868
 10
29.010952163
 20
16.3766349884
 10
29.0075881539
 20
16.3746016939
 10
29.0038672811
 20
16.3728668144
 10
28.9997999976
 20
16.371442339
 10
28.9953723152
 20
16.3704460486
 10
28.9905650332
 20
16.3698792111
 10
28.9853973523
 20
16.3697405587
 10
28.9799128868
 20
16.3701440689
 10
28.9741261746
 20
16.3711277344
 10
28.9680226779
 20
16.3726535624
 10
28.9616023964
 20
16.3747215531
  0
LWPOLYLINE
  5
337
100
AcDbEntity
  8
RACCORDO
100
AcDbPolyline
 62
253
  6
CONTINUOUS
 90
14
 70
0
 10
28.0759861817
 20
15.8939498212
 10
28.0748312486
 20
15.892640526
 10
28.0718853547
 20
15.8896102959
 10
28.0689168456
 20
15.8869739387
 10
28.0659656249
 20
15.8847393909
 10
28.0630744486
 20
15.8829073644
 10
28.0602433388
 20
15.8814462547
 10
28.0574437389
 20
15.8803188665
 10
28.0546919633
 20
15.8795096607
 10
28.0519982067
 20
15.8790155526
 10
28.0493074403
 20
15.87883547
 10
28.0465991179
 20
15.8789747556
 10
28.0438989297
 20
15.8794324853
 10
28.0412123563
 20
15.8802082268
  0
LINE
  5
338
100
AcDbEntity
  8
RACCORDO
100
AcDbLine
 62
253
  6
CONTINUOUS
 10
30.3286797606
 20
14.1215506996
 11
30.3251414361
 21
14.1196950547
  0
LINE
  5
339
100
AcDbEntity
  8
RACCORDO
100
AcDbLine
 62
253
  6
CONTINUOUS
 10
29.5592923136
 20
12.1424676623
 11
29.5550306416
 21
12.1400997589
  0
LINE
  5
33A
100
AcDbEntity
  8
RACCORDO
100
AcDbLine
 62
253
  6
CONTINUOUS
 10
26.8913542897
 20
17.8718207983
 11
26.9537380111
 21
17.8836700216
  0
LINE
  5
33B
100
AcDbEntity
  8
0
100
AcDbLine
 62
7
  6
CONTINUOUS
 10
26.9460526307
 20
19.6985895263
 11
26.7548522447
 21
19.6631235507
  0
LWPOLYLINE
  5
33C
100
AcDbEntity
  8
RACCORDO
100
AcDbPolyline
 62
7
  6
CONTINUOUS
 90
6
 70
0
 10
26.9204712131
 20
17.8950337707
 10
26.9203594988
 20
17.8950193351
 10
26.9208606593
 20
17.8950147303
 10
26.9220554582
 20
17.8948932991
 10
26.9237870378
 20
17.8945650733
 10
26.9259585967
 20
17.8939792928
  0
LINE
  5
33D
100
AcDbEntity
  8
RACCORDO
100
AcDbLine
 62
253
  6
CONTINUOUS
 10
26.9500377905
 20
17.6150126811
 11
27.5032939425
 21
17.6782519679
  0
LINE
  5
33E
100
AcDbEntity
  8
RACCORDO
100
AcDbLine
 62
253
  6
CONTINUOUS
 10
26.8913542926
 20
17.6696795706
 11
27.3798318133
 21
17.7244007742
  0
LWPOLYLINE
  5
33F
100
AcDbEntity
  8
RACCORDO
100
AcDbPolyline
 62
253
  6
CONTINUOUS
 90
3
 70
0
 10
27.8318242251
 20
17.7148470186
 10
28.1278804819
 20
17.7467453749
 10
28.1489496815
 20
17.7489531828
  0
LINE
  5
340
100
AcDbEntity
  8
RACCORDO
100
AcDbLine
 62
253
  6
CONTINUOUS
 10
27.9873287879
 20
17.7890898623
 11
28.141170713
 21
17.8043846243
  0
LWPOLYLINE
  5
341
100
AcDbEntity
  8
RACCORDO
100
AcDbPolyline
 62
253
  6
CONTINUOUS
 90
13
 70
0
 10
29.7036307971
 20
13.7806265385
 10
29.6783681191
 20
13.7791988867
 10
29.6528215342
 20
13.7809434063
 10
29.6272647404
 20
13.7858414175
 10
29.6019715583
 20
13.7938404552
 10
29.5772129881
 20
13.8048548279
 10
29.5532542942
 20
13.8187665422
 10
29.5303521813
 20
13.8354265591
 10
29.5087520381
 20
13.8546563904
 10
29.4886853005
 20
13.8762500175
 10
29.4703669806
 20
13.8999760915
 10
29.4539933617
 20
13.9255804102
 10
29.439739891
 20
13.9527886457
  0
LWPOLYLINE
  5
342
100
AcDbEntity
  8
RACCORDO
100
AcDbPolyline
 62
253
  6
CONTINUOUS
 90
13
 70
0
 10
29.3961785939
 20
12.0776048131
 10
29.3714713861
 20
12.0762952895
 10
29.3466212152
 20
12.0781879169
 10
29.3218943467
 20
12.0832624088
 10
29.2975557139
 20
12.0914643851
 10
29.2738660867
 20
12.102705958
 10
29.2510792882
 20
12.1168666676
 10
29.2294394602
 20
12.1337947796
 10
29.2091784514
 20
12.1533089117
 10
29.19051334
 20
12.1751999714
 10
29.1736441013
 20
12.1992334022
 10
29.158751466
 20
12.2251516976
 10
29.1459949869
 20
12.2526771576
  0
LWPOLYLINE
  5
343
100
AcDbEntity
  8
ASSI
100
AcDbPolyline
 62
253
  6
CONTINUOUS
 90
13
 70
0
 10
24.037471822
 20
8.1576740207
 10
23.9930309943
 20
8.166478682
 10
23.9473550024
 20
8.1728359363
 10
23.9008471704
 20
8.1766896474
 10
23.8539181676
 20
8.178005786
 10
23.8069823825
 20
8.1767727295
 10
23.7604542632
 20
8.1730013654
 10
23.7147446583
 20
8.1667249944
 10
23.6702571887
 20
8.1579990367
 10
23.6273846837
 20
8.1469005428
 10
23.5865057124
 20
8.1335275128
 10
23.5479812406
 20
8.1179980314
 10
23.5121514437
 20
8.1004492247
  0
LINE
  5
344
100
AcDbEntity
  8
RACCORDO
100
AcDbLine
 62
253
  6
CONTINUOUS
 10
29.7301920749
 20
-16.2263437068
 11
29.7401658165
 21
-16.2378249185
  0
LWPOLYLINE
  5
345
100
AcDbEntity
  8
RACCORDO
100
AcDbPolyline
 62
253
  6
CONTINUOUS
 90
4
 70
0
 10
29.7401658165
 20
-16.2378249185
 10
29.749531243
 20
-16.2501481532
 10
29.7581857847
 20
-16.2631784473
 10
29.7660346572
 20
-16.2767730934
  0
LWPOLYLINE
  5
346
100
AcDbEntity
  8
ASSI
100
AcDbPolyline
 62
253
  6
CONTINUOUS
 90
13
 70
0
 10
-27.6760471309
 20
59.7763232857
 10
-27.6513533098
 20
59.7435109495
 10
-27.6293666087
 20
59.7094724393
 10
-27.6102443862
 20
59.6744513688
 10
-27.5941234999
 20
59.6386983838
 10
-27.5811193268
 20
59.6024693685
 10
-27.5713249374
 20
59.5660236138
 10
-27.56481043
 20
59.5296219622
 10
-27.5616224288
 20
59.4935249402
 10
-27.5617837502
 20
59.4579908943
 10
-27.5652932394
 20
59.4232741417
 10
-27.5721257789
 20
59.3896231503
 10
-27.5792691275
 20
59.3667623253
  0
LINE
  5
347
100
AcDbEntity
  8
RACCORDO
100
AcDbLine
 62
253
  6
CONTINUOUS
 10
30.1216703183
 20
-47.998398185
 11
30.1828505668
 21
-48.1658168264
  0
LWPOLYLINE
  5
348
100
AcDbEntity
  8
RACCORDO
100
AcDbPolyline
 62
253
  6
CONTINUOUS
 90
20
 70
0
 10
30.0634719598
 20
-48.1516293162
 10
30.1169366416
 20
-48.312458193
 10
30.1645988627
 20
-48.4733383298
 10
30.2060697428
 20
-48.6329570611
 10
30.2412986392
 20
-48.7913041093
 10
30.2703361945
 20
-48.9483897519
 10
30.2929454572
 20
-49.1029321565
 10
30.3090738267
 20
-49.2549105014
 10
30.3187739035
 20
-49.4043456083
 10
30.3219665373
 20
-49.5500181099
 10
30.3185984839
 20
-49.6918972232
 10
30.3087229874
 20
-49.8300137313
 10
30.2924206309
 20
-49.9632406154
 10
30.2696388286
 20
-50.0915378673
 10
30.2404301663
 20
-50.2149454952
 10
30.2050329838
 20
-50.3324565052
 10
30.1633966463
 20
-50.4440226496
 10
30.1155717887
 20
-50.549692176
 10
30.061948656
 20
-50.6486028331
 10
30.0024798048
 20
-50.7406993203
  0
LWPOLYLINE
  5
349
100
AcDbEntity
  8
RACCORDO
100
AcDbPolyline
 62
253
  6
CONTINUOUS
 90
28
 70
0
 10
30.1828505668
 20
-48.1658168264
 10
30.2380163395
 20
-48.3332978755
 10
30.2872035833
 20
-48.5008126681
 10
30.3300094197
 20
-48.6669967109
 10
30.3663783512
 20
-48.8318263336
 10
30.3963658755
 20
-48.9953252064
 10
30.4197356069
 20
-49.1561998467
 10
30.4364357359
 20
-49.3144335129
 10
30.4465180721
 20
-49.4700429465
 10
30.4499016585
 20
-49.6217848896
 10
30.4465325862
 20
-49.7696279841
 10
30.4364647641
 20
-49.9136035882
 10
30.4197789611
 20
-50.0525625175
 10
30.3964230991
 20
-50.1864624757
 10
30.3664492561
 20
-50.3153457593
 10
30.3300944354
 20
-50.4381900735
 10
30.2873041471
 20
-50.5549531545
 10
30.2381328809
 20
-50.6656772661
 10
30.1829811091
 20
-50.7694669053
 10
30.1218119164
 20
-50.8662541809
 10
30.0546622179
 20
-50.9561069841
 10
29.9820432312
 20
-51.0383334851
 10
29.9038570955
 20
-51.112900222
 10
29.8202016714
 20
-51.1798406568
 10
29.731881759
 20
-51.2385633462
 10
29.6391656248
 20
-51.2888711421
 10
29.5417850022
 20
-51.3309611926
 10
29.4397398912
 20
-51.3648334976
  0
LWPOLYLINE
  5
34A
100
AcDbEntity
  8
RACCORDO
100
AcDbPolyline
 62
253
  6
CONTINUOUS
 90
5
 70
0
 10
28.2147240597
 20
-47.9384270261
 10
28.2189320537
 20
-47.9516512568
 10
28.2243039662
 20
-47.9656001213
 10
28.2307682055
 20
-47.9799936048
 10
28.2381099967
 20
-47.9939916627
  0
LWPOLYLINE
  5
34B
100
AcDbEntity
  8
RACCORDO
100
AcDbPolyline
 62
253
  6
CONTINUOUS
 90
9
 70
0
 10
26.632567338
 20
-50.0681619083
 10
26.6208723853
 20
-50.0232930759
 10
26.6071485305
 20
-49.9782089658
 10
26.5914123682
 20
-49.9328886523
 10
26.5738335037
 20
-49.8878172212
 10
26.5543847103
 20
-49.8429797209
 10
26.5330932147
 20
-49.7983911031
 10
26.5102103031
 20
-49.7545813097
 10
26.4858197374
 20
-49.7117269879
  0
LWPOLYLINE
  5
34C
100
AcDbEntity
  8
RACCORDO
100
AcDbPolyline
 62
253
  6
CONTINUOUS
 90
11
 70
0
 10
23.9957824412
 20
-36.8665903945
 10
23.9926141899
 20
-36.8377465858
 10
23.9896774103
 20
-36.8093012663
 10
23.9869474895
 20
-36.7812128734
 10
23.9845335243
 20
-36.7534899391
 10
23.9824433586
 20
-36.7260866679
 10
23.9806660433
 20
-36.6989795779
 10
23.9792784181
 20
-36.6722159213
 10
23.9782990459
 20
-36.6457949407
 10
23.9776913158
 20
-36.6196678656
 10
23.9774495776
 20
-36.593820271
  0
LINE
  5
34D
100
AcDbEntity
  8
ASSI
100
AcDbLine
 62
253
  6
CONTINUOUS
 10
17.849594052
 20
26.0206437736
 11
17.849594052
 21
-60.3335767981
  0
LINE
  5
34E
100
AcDbEntity
  8
ASSI
100
AcDbLine
 62
253
  6
CONTINUOUS
 10
18.9194296417
 20
26.0317381042
 11
18.9194296417
 21
-60.3224824675
  0
LWPOLYLINE
  5
34F
100
AcDbEntity
  8
ASSI
100
AcDbPolyline
 62
253
  6
CONTINUOUS
 90
31
 70
0
 10
17.849594052
 20
-60.3335767981
 10
17.847807427
 20
-60.4053272654
 10
17.8425473223
 20
-60.4747684442
 10
17.8338138639
 20
-60.5419002508
 10
17.8215655658
 20
-60.6069013793
 10
17.8058444183
 20
-60.6695928
 10
17.7867758729
 20
-60.729437769
 10
17.7643323866
 20
-60.7864057641
 10
17.7385424635
 20
-60.8405266684
 10
17.709615691
 20
-60.8913543023
 10
17.6775280903
 20
-60.9388594878
 10
17.6423049651
 20
-60.9830705224
 10
17.6042298232
 20
-61.0236274422
 10
17.5632798626
 20
-61.0605012481
 10
17.519479448
 20
-61.0937199016
 10
17.4731827468
 20
-61.1230089406
 10
17.4243698827
 20
-61.1483361846
 10
17.3730623818
 20
-61.16973272
 10
17.3196763263
 20
-61.1870191111
 10
17.264195737
 20
-61.200161659
 10
17.2066381698
 20
-61.2091930188
 10
17.1474697241
 20
-61.2140334762
 10
17.0866746804
 20
-61.2146477987
 10
17.0242701108
 20
-61.2110703255
 10
16.9607709223
 20
-61.203325952
 10
16.8961602081
 20
-61.1913750379
 10
16.8304558647
 20
-61.1752565721
 10
16.7642245369
 20
-61.155113704
 10
16.6976551579
 20
-61.1309941172
 10
16.6305592359
 20
-61.1028498407
 10
16.5629370237
 20
-61.0706807098
  0
LWPOLYLINE
  5
350
100
AcDbEntity
  8
RACCORDO
100
AcDbPolyline
 62
253
  6
CONTINUOUS
 90
40
 70
0
 10
25.8658582611
 20
19.1912905336
 10
25.8929080308
 20
19.2684610588
 10
25.9229535173
 20
19.3425599545
 10
25.9559425791
 20
19.4134900396
 10
25.9914815553
 20
19.4805615252
 10
26.0297968513
 20
19.544345046
 10
26.0719906923
 20
19.6063720363
 10
26.1189032953
 20
19.6671054283
 10
26.1700890309
 20
19.7252237486
 10
26.2247874041
 20
19.7794922334
 10
26.2830605915
 20
19.8297801225
 10
26.3448050703
 20
19.87581422
 10
26.4086720946
 20
19.9166322265
 10
26.4742447282
 20
19.9522319131
 10
26.5415060943
 20
19.982854243
 10
26.6094563805
 20
20.008349779
 10
26.6776245701
 20
20.0289434297
 10
26.7459527813
 20
20.0449972951
 10
26.813985618
 20
20.056764274
 10
26.8813757725
 20
20.0645548729
 10
26.9480190363
 20
20.0687084938
 10
27.01384122
 20
20.0695363242
 10
27.0786592072
 20
20.0673286801
 10
27.142321776
 20
20.0623698384
 10
27.2048377594
 20
20.0549155641
 10
27.2660745766
 20
20.0452181131
 10
27.3259230683
 20
20.0335212485
 10
27.3844559578
 20
20.0200181947
 10
27.4416463947
 20
20.004902137
 10
27.497352803
 20
19.9883902846
 10
27.5514941375
 20
19.9706828822
 10
27.603746703
 20
19.9520668316
 10
27.6543123045
 20
19.9326437956
 10
27.7039182517
 20
19.9122591722
 10
27.7521640897
 20
19.891181876
 10
27.7993802858
 20
19.8693689368
 10
27.8474167569
 20
19.8459813703
 10
27.8968818468
 20
19.8206443256
 10
27.9471288909
 20
19.7936089594
 10
27.9979180686
 20
19.7649557234
  0
LINE
  5
351
100
AcDbEntity
  8
RACCORDO
100
AcDbLine
 62
253
  6
CONTINUOUS
 10
28.9889764035
 20
16.4377550754
 11
29.0173436805
 21
16.4962171571
  0
LINE
  5
352
100
AcDbEntity
  8
RACCORDO
100
AcDbLine
 62
7
  6
CONTINUOUS
 10
29.0140309735
 20
16.4339599617
 11
29.0139916987
 21
16.4338799312
  0
LWPOLYLINE
  5
353
100
AcDbEntity
  8
RACCORDO
100
AcDbPolyline
 62
253
  6
CONTINUOUS
 90
17
 70
0
 10
29.0139916987
 20
16.4338799312
 10
29.0138098668
 20
16.433525929
 10
29.0130833725
 20
16.4323346282
 10
29.0122405417
 20
16.4312821057
 10
29.0112781763
 20
16.4303856054
 10
29.0101942178
 20
16.4296598682
 10
29.0089831048
 20
16.4291162823
 10
29.0076334383
 20
16.4287715022
 10
29.0061386393
 20
16.4286451051
 10
29.0044975634
 20
16.4287551357
 10
29.0027051905
 20
16.4291211401
 10
29.0007617954
 20
16.429770598
 10
28.9986707182
 20
16.4307204144
 10
28.9964353501
 20
16.4319747511
 10
28.9940647551
 20
16.4335485074
 10
28.991572982
 20
16.4354685432
 10
28.9889764036
 20
16.4377550753
  0
LINE
  5
354
100
AcDbEntity
  8
RACCORDO
100
AcDbLine
 62
7
  6
CONTINUOUS
 10
28.0763035538
 20
15.8946822769
 11
28.0758108682
 21
15.8937311434
  0
LINE
  5
355
100
AcDbEntity
  8
RACCORDO
100
AcDbLine
 62
253
  6
CONTINUOUS
 10
28.0863399853
 20
15.8533007782
 11
28.0836278756
 21
15.8480666036
  0
LWPOLYLINE
  5
356
100
AcDbEntity
  8
RACCORDO
100
AcDbPolyline
 62
253
  6
CONTINUOUS
 90
3
 70
0
 10
27.6521569618
 20
17.6911549774
 10
27.6566649748
 20
17.6998051112
 10
27.6600857196
 20
17.7094989286
  0
LWPOLYLINE
  5
357
100
AcDbEntity
  8
RACCORDO
100
AcDbPolyline
 62
7
  6
CONTINUOUS
 90
8
 70
0
 10
29.6874833795
 20
13.7419433275
 10
29.6742704156
 20
13.721924049
 10
29.6629798888
 20
13.6996546994
 10
29.6535771599
 20
13.6751898796
 10
29.6462364976
 20
13.6490047318
 10
29.6410159911
 20
13.6212576369
 10
29.6378575512
 20
13.5917902141
 10
29.6367611776
 20
13.5606024633
  0
LWPOLYLINE
  5
358
100
AcDbEntity
  8
RACCORDO
100
AcDbPolyline
 62
253
  6
CONTINUOUS
 90
10
 70
0
 10
29.6861025118
 20
13.7433641557
 10
29.67508741
 20
13.7278602588
 10
29.6652839197
 20
13.7109401834
 10
29.6567215058
 20
13.692654806
 10
29.6494319746
 20
13.6730633906
 10
29.6434490007
 20
13.6522477417
 10
29.6387985678
 20
13.6302989396
 10
29.6354985762
 20
13.6073065088
 10
29.6335612608
 20
13.5833557594
 10
29.6329943408
 20
13.5585395783
  0
LWPOLYLINE
  5
359
100
AcDbEntity
  8
RACCORDO
100
AcDbPolyline
 62
253
  6
CONTINUOUS
 90
9
 70
0
 10
26.8056157304
 20
23.1571732508
 10
26.827663217
 20
23.1608892686
 10
26.8507235981
 20
23.1621345428
 10
26.8746686461
 20
23.160902222
 10
26.899368677
 20
23.1571992674
 10
26.9246935781
 20
23.151045759
 10
26.9505063622
 20
23.1424739422
 10
26.9766635832
 20
23.1315292425
 10
27.0030215284
 20
23.11827015
  0
LWPOLYLINE
  5
35A
100
AcDbEntity
  8
RACCORDO
100
AcDbPolyline
 62
7
  6
CONTINUOUS
 90
3
 70
0
 10
27.638974082
 20
17.6353848712
 10
27.6533217241
 20
17.6360658272
 10
27.6669393296
 20
17.6384946969
  0
LWPOLYLINE
  5
35B
100
AcDbEntity
  8
RACCORDO
100
AcDbPolyline
 62
253
  6
CONTINUOUS
 90
6
 70
0
 10
27.595681475
 20
17.6654967706
 10
27.6050301634
 20
17.6649577715
 10
27.6144244078
 20
17.6657364029
 10
27.6236574997
 20
17.6678693515
 10
27.6321093136
 20
17.6714666773
 10
27.6396751377
 20
17.676705298
  0
LINE
  5
35C
100
AcDbEntity
  8
RACCORDO
100
AcDbLine
 62
7
  6
CONTINUOUS
 10
27.6240730215
 20
17.6365583168
 11
27.638974082
 21
17.6353848712
  0
LWPOLYLINE
  5
35D
100
AcDbEntity
  8
ASSI
100
AcDbPolyline
 62
253
  6
CONTINUOUS
 90
19
 70
0
 10
24.1466753603
 20
7.2343162241
 10
24.115257003
 20
7.2509726725
 10
24.0814949508
 20
7.2660218993
 10
24.045634939
 20
7.2793544564
 10
24.007938091
 20
7.2908732213
 10
23.9686786235
 20
7.300494618
 10
23.9281417991
 20
7.3081491576
 10
23.8866224194
 20
7.313781283
 10
23.8444227177
 20
7.317349851
 10
23.8018497305
 20
7.318828898
 10
23.7592132216
 20
7.3182076529
 10
23.7168234203
 20
7.3154906283
 10
23.6749887523
 20
7.310697594
 10
23.6340136138
 20
7.3038634136
 10
23.5941961506
 20
7.295037804
 10
23.5558260802
 20
7.2842849824
 10
23.5191825946
 20
7.2716831809
 10
23.4845323279
 20
7.2573240777
 10
23.4521274106
 20
7.241312142
  0
LWPOLYLINE
  5
35E
100
AcDbEntity
  8
RACCORDO
100
AcDbPolyline
 62
253
  6
CONTINUOUS
 90
7
 70
0
 10
29.7660346572
 20
-16.2767730934
 10
29.7729919002
 20
-16.2907832034
 10
29.778981318
 20
-16.3050553392
 10
29.7839373148
 20
-16.3194331928
 10
29.7878056126
 20
-16.3337592984
 10
29.7905438461
 20
-16.3478767571
 10
29.7921220262
 20
-16.3616309549
  0
LWPOLYLINE
  5
35F
100
AcDbEntity
  8
RACCORDO
100
AcDbPolyline
 62
7
  6
CONTINUOUS
 90
27
 70
0
 10
33.9115952983
 20
-45.8858495046
 10
33.8216407731
 20
-45.6311520391
 10
33.7240691056
 20
-45.3769360471
 10
33.6190656233
 20
-45.1236655376
 10
33.5068412411
 20
-44.8718339362
 10
33.3876158309
 20
-44.6219203021
 10
33.2616260873
 20
-44.3744076124
 10
33.1291093927
 20
-44.129751466
 10
32.9903031143
 20
-43.8883851684
 10
32.8454646658
 20
-43.6507565146
 10
32.6948733186
 20
-43.4173253235
 10
32.5388129014
 20
-43.1885338093
 10
32.3775848971
 20
-42.9648266591
 10
32.2114849772
 20
-42.7466180879
 10
32.0407989193
 20
-42.5342921953
 10
31.865833915
 20
-42.3282444739
 10
31.6869246535
 20
-42.1288834712
 10
31.5044056897
 20
-41.9365962554
 10
31.3186131881
 20
-41.7517523227
 10
31.1298926425
 20
-41.574711942
 10
30.9385980774
 20
-41.4058243986
 10
30.7450948721
 20
-41.2454293058
 10
30.5497261856
 20
-41.093829605
 10
30.3528120833
 20
-40.951297712
 10
30.1546974222
 20
-40.818113065
 10
29.9557567435
 20
-40.694559165
 10
29.8346194739
 20
-40.6242950433
  0
LWPOLYLINE
  5
360
100
AcDbEntity
  8
RACCORDO
100
AcDbPolyline
 62
253
  6
CONTINUOUS
 90
7
 70
0
 10
26.9104018285
 20
-47.3980039028
 10
26.9119347286
 20
-47.4050600594
 10
26.9144280964
 20
-47.4113361442
 10
26.9178111267
 20
-47.4166539328
 10
26.9219877505
 20
-47.4208624141
 10
26.9268393627
 20
-47.4238420786
 10
26.9281852697
 20
-47.4244006673
  0
LWPOLYLINE
  5
361
100
AcDbEntity
  8
RACCORDO
100
AcDbPolyline
 62
253
  6
CONTINUOUS
 90
7
 70
0
 10
27.5765006408
 20
-47.6469844228
 10
27.5780335415
 20
-47.6540405663
 10
27.5805269059
 20
-47.6603166445
 10
27.5839099312
 20
-47.6656344328
 10
27.5880865499
 20
-47.6698429186
 10
27.5929381588
 20
-47.6728225903
 10
27.5943495481
 20
-47.6734057745
  0
LWPOLYLINE
  5
362
100
AcDbEntity
  8
RACCORDO
100
AcDbPolyline
 62
7
  6
CONTINUOUS
 90
10
 70
0
 10
25.8658582611
 20
-46.1263316099
 10
25.8554096284
 20
-46.0758850556
 10
25.8461295191
 20
-46.0257859896
 10
25.8380179333
 20
-45.9760344118
 10
25.8310454499
 20
-45.9266406574
 10
25.8252414899
 20
-45.8775943912
 10
25.8206943167
 20
-45.8288646075
 10
25.8174333513
 20
-45.7804409711
 10
25.8154291727
 20
-45.7323338173
 10
25.8146817808
 20
-45.6845431459
  0
LWPOLYLINE
  5
363
100
AcDbEntity
  8
RACCORDO
100
AcDbPolyline
 62
7
  6
CONTINUOUS
 90
10
 70
0
 10
25.8658582611
 20
-46.1263316099
 10
25.883916382
 20
-46.216200184
 10
25.8993974983
 20
-46.3078074653
 10
25.9123016101
 20
-46.4011534538
 10
25.9226310001
 20
-46.49613916
 10
25.9303833855
 20
-46.5928635732
 10
25.9355519182
 20
-46.6916236622
 10
25.9381341363
 20
-46.7924568183
 10
25.9381325016
 20
-46.8953256501
 10
25.935547551
 20
-47.000414952
  0
LWPOLYLINE
  5
364
100
AcDbEntity
  8
RACCORDO
100
AcDbPolyline
 62
253
  6
CONTINUOUS
 90
7
 70
0
 10
26.3980455412
 20
-49.6770775123
 10
26.3972656564
 20
-49.6731904209
 10
26.3991336006
 20
-49.6675106397
 10
26.403629355
 20
-49.6600990272
 10
26.4107047454
 20
-49.6510349971
 10
26.4202839593
 20
-49.6404156668
 10
26.4322643577
 20
-49.6283548174
  0
LWPOLYLINE
  5
365
100
AcDbEntity
  8
RACCORDO
100
AcDbPolyline
 62
253
  6
CONTINUOUS
 90
15
 70
0
 10
27.8481458667
 20
-46.9038905885
 10
27.8474142272
 20
-46.9002277417
 10
27.8469945486
 20
-46.8968758743
 10
27.8468563384
 20
-46.8938423454
 10
27.8469611129
 20
-46.8911319959
 10
27.8472896918
 20
-46.8887423578
 10
27.8478436197
 20
-46.8866663076
 10
27.8486079193
 20
-46.8848957043
 10
27.849551824
 20
-46.8834283297
 10
27.8506555524
 20
-46.882260502
 10
27.8518945823
 20
-46.881382405
 10
27.853256316
 20
-46.8807696954
 10
27.8547421069
 20
-46.8804008845
 10
27.8563242592
 20
-46.880267005
 10
27.8573556977
 20
-46.8802971459
  0
LWPOLYLINE
  5
366
100
AcDbEntity
  8
RACCORDO
100
AcDbPolyline
 62
253
  6
CONTINUOUS
 90
13
 70
0
 10
27.7306946747
 20
-48.4212435571
 10
27.7277813873
 20
-48.4051602915
 10
27.7235684426
 20
-48.3881846838
 10
27.7179785768
 20
-48.3704367538
 10
27.7108931332
 20
-48.3519165463
 10
27.7023108308
 20
-48.3329711442
 10
27.6924448343
 20
-48.3142766458
 10
27.6813682508
 20
-48.2960522396
 10
27.66919723
 20
-48.2785214093
 10
27.6563802107
 20
-48.2622897662
 10
27.6432079791
 20
-48.2476042413
 10
27.6297417892
 20
-48.2344254692
 10
27.6161366008
 20
-48.2228231528
  0
LINE
  5
367
100
AcDbEntity
  8
RACCORDO
100
AcDbLine
 62
253
  6
CONTINUOUS
 10
28.0907143996
 20
-47.0681448569
 11
28.09213386
 21
-47.0763776966
  0
LWPOLYLINE
  5
368
100
AcDbEntity
  8
RACCORDO
100
AcDbPolyline
 62
253
  6
CONTINUOUS
 90
13
 70
0
 10
27.6624191963
 20
-48.4275920804
 10
27.660395856
 20
-48.4152570876
 10
27.657280189
 20
-48.4024774759
 10
27.653072195
 20
-48.3892532452
 10
27.6477002826
 20
-48.3753043806
 10
27.6412360432
 20
-48.3609108972
 10
27.633894252
 20
-48.3469128393
 10
27.6255740495
 20
-48.3333728789
 10
27.6163762951
 20
-48.3202283441
 10
27.6068183417
 20
-48.3081312636
 10
27.5970726404
 20
-48.2972989804
 10
27.5869667401
 20
-48.2875141516
 10
27.5765006408
 20
-48.2787767772
  0
LWPOLYLINE
  5
369
100
AcDbEntity
  8
RACCORDO
100
AcDbPolyline
 62
253
  6
CONTINUOUS
 90
3
 70
0
 10
28.2095850524
 20
-47.9133124216
 10
28.2116083927
 20
-47.9256474144
 10
28.2147240597
 20
-47.9384270261
  0
LWPOLYLINE
  5
36A
100
AcDbEntity
  8
RACCORDO
100
AcDbPolyline
 62
7
  6
CONTINUOUS
 90
12
 70
0
 10
26.5735747204
 20
-52.1380865697
 10
26.5788880503
 20
-52.1798874645
 10
26.5875733385
 20
-52.2218975192
 10
26.5994195748
 20
-52.2633613828
 10
26.6143570736
 20
-52.3043064796
 10
26.6323758621
 20
-52.3446615459
 10
26.6530507932
 20
-52.3835401124
 10
26.6763312909
 20
-52.4209177148
 10
26.7022214506
 20
-52.4567392202
 10
26.730167491
 20
-52.4901933603
 10
26.7601125016
 20
-52.5212357414
 10
26.7921151272
 20
-52.5498198743
  0
LWPOLYLINE
  5
36B
100
AcDbEntity
  8
RACCORDO
100
AcDbPolyline
 62
253
  6
CONTINUOUS
 90
11
 70
0
 10
24.5350529761
 20
-36.9054809447
 10
24.5192048777
 20
-36.7705693673
 10
24.5158633762
 20
-36.7401147113
 10
24.5128122121
 20
-36.7109171356
 10
24.5101490258
 20
-36.6828303394
 10
24.5078969
 20
-36.6558327531
 10
24.506032752
 20
-36.6299459463
 10
24.5045849739
 20
-36.6050883265
 10
24.5035630299
 20
-36.5812326964
 10
24.5029574557
 20
-36.5584062534
 10
24.5027682515
 20
-36.5366089975
  0
LINE
  5
36C
100
AcDbEntity
  8
RACCORDO
100
AcDbLine
 62
253
  6
CONTINUOUS
 10
29.0282113091
 20
-48.6914351273
 11
29.0288428577
 21
-48.6974709359
  0
LWPOLYLINE
  5
36D
100
AcDbEntity
  8
RACCORDO
100
AcDbPolyline
 62
253
  6
CONTINUOUS
 90
10
 70
0
 10
28.2955036079
 20
-48.6939200791
 10
28.2949747006
 20
-48.6862842425
 10
28.2954648079
 20
-48.6782855451
 10
28.2969600137
 20
-48.6701511274
 10
28.2994178597
 20
-48.6621119847
 10
28.3027685514
 20
-48.6543964075
 10
28.3069169393
 20
-48.6472234986
 10
28.3117452213
 20
-48.6407969508
 10
28.3171162878
 20
-48.6352992629
 10
28.3228776151
 20
-48.6308865569
  0
LWPOLYLINE
  5
36E
100
AcDbEntity
  8
RACCORDO
100
AcDbPolyline
 62
253
  6
CONTINUOUS
 90
10
 70
0
 10
26.843161395
 20
-47.6434335702
 10
26.8416981835
 20
-47.6194948239
 10
26.840600777
 20
-47.5957615306
 10
26.8398691756
 20
-47.5722336903
 10
26.8395033821
 20
-47.5489074256
 10
26.8395033937
 20
-47.525786614
 10
26.8398692014
 20
-47.5028828874
 10
26.8406008021
 20
-47.4802001232
 10
26.841698199
 20
-47.4577344441
 10
26.8431613919
 20
-47.4354858502
  0
LWPOLYLINE
  5
36F
100
AcDbEntity
  8
RACCORDO
100
AcDbPolyline
 62
253
  6
CONTINUOUS
 90
7
 70
0
 10
26.8913542926
 20
-47.6479425729
 10
26.889932511
 20
-47.6246965199
 10
26.8888657593
 20
-47.6016292088
 10
26.8881543937
 20
-47.5787483385
 10
26.8877986516
 20
-47.5560615456
 10
26.8877986517
 20
-47.5335764018
 10
26.8881543936
 20
-47.5113004116
  0
LWPOLYLINE
  5
370
100
AcDbEntity
  8
RACCORDO
100
AcDbPolyline
 62
253
  6
CONTINUOUS
 90
9
 70
0
 10
26.5716714935
 20
-44.4614923532
 10
26.572220444
 20
-44.4719325239
 10
26.5756998394
 20
-44.4897492215
 10
26.582350366
 20
-44.5072628038
 10
26.5921007678
 20
-44.5242856247
 10
26.6048465762
 20
-44.5406352968
 10
26.6204512286
 20
-44.5561366444
 10
26.638747532
 20
-44.5706235815
 10
26.6595394542
 20
-44.5839408905
  0
LWPOLYLINE
  5
371
100
AcDbEntity
  8
RACCORDO
100
AcDbPolyline
 62
253
  6
CONTINUOUS
 90
9
 70
0
 10
26.5716714878
 20
-52.0945685966
 10
26.572220444
 20
-52.1050426082
 10
26.5756998393
 20
-52.1228593057
 10
26.5823503658
 20
-52.1403728879
 10
26.5921007675
 20
-52.1573957089
 10
26.6048465758
 20
-52.1737453809
 10
26.6204512281
 20
-52.1892467286
 10
26.6387475314
 20
-52.2037336656
 10
26.6595394534
 20
-52.2170509746
  0
LWPOLYLINE
  5
372
100
AcDbEntity
  8
RACCORDO
100
AcDbPolyline
 62
253
  6
CONTINUOUS
 90
9
 70
0
 10
26.5716714878
 20
-50.1604541334
 10
26.57222034
 20
-50.1709271538
 10
26.5756995619
 20
-50.1887438748
 10
26.5823499412
 20
-50.2062575307
 10
26.5921002443
 20
-50.2232804695
 10
26.6048460268
 20
-50.2396303008
 10
26.6204507477
 20
-50.2551318403
 10
26.6387472298
 20
-50.2696189878
 10
26.6595394535
 20
-50.2829365113
  0
LWPOLYLINE
  5
373
100
AcDbEntity
  8
RACCORDO
100
AcDbPolyline
 62
253
  6
CONTINUOUS
 90
9
 70
0
 10
26.5716714878
 20
-42.5273440642
 10
26.572220521
 20
-42.5378188098
 10
26.5757000425
 20
-42.5556354817
 10
26.5823506734
 20
-42.5731490022
 10
26.5921011422
 20
-42.5901717299
 10
26.6048469651
 20
-42.6065212818
 10
26.6204515663
 20
-42.6220224892
 10
26.6387477424
 20
-42.6365092747
 10
26.6595394534
 20
-42.6498264307
  0
LWPOLYLINE
  5
374
100
AcDbEntity
  8
RACCORDO
100
AcDbPolyline
 62
253
  6
CONTINUOUS
 90
9
 70
0
 10
26.7092246323
 20
-61.0277923431
 10
26.7103610006
 20
-61.0524554881
 10
26.7137579507
 20
-61.0755422109
 10
26.7193791084
 20
-61.0968051478
 10
26.7271642659
 20
-61.1160164658
 10
26.7370300335
 20
-61.1329703223
 10
26.748870739
 20
-61.1474850639
 10
26.7625595478
 20
-61.159405152
 10
26.771349407
 20
-61.1651133947
  0
LINE
  5
375
100
AcDbEntity
  8
RACCORDO
100
AcDbLine
 62
7
  6
CONTINUOUS
 10
26.5716756676
 20
-52.0945556102
 11
26.5735747204
 21
-52.1380865697
  0
LWPOLYLINE
  5
376
100
AcDbEntity
  8
ASSI
100
AcDbPolyline
 62
253
  6
CONTINUOUS
 90
13
 70
0
 10
23.5121508913
 20
28.6830778977
 10
23.5100242013
 20
28.7665996131
 10
23.5039792394
 20
28.8495659528
 10
23.4941680561
 20
28.9317671952
 10
23.4804252407
 20
29.0130789972
 10
23.4632070551
 20
29.0932500838
 10
23.4436601122
 20
29.1718736783
 10
23.4220589376
 20
29.2486289477
 10
23.3985492048
 20
29.3234949956
 10
23.3741570468
 20
29.3965118765
 10
23.3492525415
 20
29.467395014
 10
23.3238795811
 20
29.5361886744
 10
23.2735457941
 20
29.6693220301
  0
LWPOLYLINE
  5
377
100
AcDbEntity
  8
RACCORDO
100
AcDbPolyline
 62
253
  6
CONTINUOUS
 90
13
 70
0
 10
24.037413426
 20
-37.3607911884
 10
24.0369468074
 20
-37.3323091163
 10
24.0360957251
 20
-37.3029474492
 10
24.0349282249
 20
-37.2727302301
 10
24.0334424284
 20
-37.241788114
 10
24.0315607453
 20
-37.2103493073
 10
24.0292539816
 20
-37.1783770443
 10
24.0266084397
 20
-37.1460153945
 10
24.0236994741
 20
-37.113722378
 10
24.020498137
 20
-37.0815159325
 10
24.0170556215
 20
-37.0493948548
 10
24.0135384744
 20
-37.0177377868
 10
23.9957824412
 20
-36.8665903945
  0
LWPOLYLINE
  5
378
100
AcDbEntity
  8
ASSI
100
AcDbPolyline
 62
253
  6
CONTINUOUS
 90
16
 70
0
 10
24.5627914664
 20
8.2148994084
 10
24.5634505149
 20
8.1726202869
 10
24.5660189827
 20
8.1290223972
 10
24.5705362241
 20
8.084194772
 10
24.5770481963
 20
8.0381441689
 10
24.5855793233
 20
7.9910647538
 10
24.5960968717
 20
7.943349987
 10
24.6085918163
 20
7.8951258012
 10
24.6230395229
 20
7.8465289594
 10
24.6393115661
 20
7.7979892963
 10
24.6573475543
 20
7.7496526851
 10
24.6770798768
 20
7.7016475251
 10
24.6983037908
 20
7.6543746647
 10
24.7208734412
 20
7.6080446906
 10
24.7447330105
 20
7.5626813059
 10
24.7697843973
 20
7.5183902198
  0
LWPOLYLINE
  5
379
100
AcDbEntity
  8
ASSI
100
AcDbPolyline
 62
253
  6
CONTINUOUS
 90
16
 70
0
 10
24.0374711789
 20
28.7403020941
 10
24.0359262592
 20
28.8403410196
 10
24.0322695544
 20
28.9387604007
 10
24.0265216854
 20
29.0355890673
 10
24.0184958188
 20
29.1312863278
 10
24.008465977
 20
29.2255046673
 10
23.997147476
 20
29.3170613922
 10
23.9846131433
 20
29.4057552844
 10
23.9709198098
 20
29.491910665
 10
23.9567265786
 20
29.5750847572
 10
23.9421820292
 20
29.6550251616
 10
23.9272620285
 20
29.7320563455
 10
23.9123239541
 20
29.8065505885
 10
23.8975153921
 20
29.8786352183
 10
23.8827991881
 20
29.9482129662
 10
23.8682388958
 20
30.0152987107
  0
LWPOLYLINE
  5
37A
100
AcDbEntity
  8
ASSI
100
AcDbPolyline
 62
253
  6
CONTINUOUS
 90
16
 70
0
 10
23.5121514362
 20
-37.4455438784
 10
23.5117188415
 20
-37.4001573588
 10
23.5102756659
 20
-37.3533482424
 10
23.5078219095
 20
-37.3051165292
 10
23.504243188
 20
-37.2554832827
 10
23.4996538858
 20
-37.2044274393
 10
23.4943971557
 20
-37.1518858087
 10
23.4882567526
 20
-37.0974343837
 10
23.4814489216
 20
-37.0414971715
 10
23.4749655513
 20
-36.9852830033
 10
23.4688682107
 20
-36.9289561648
 10
23.4630953309
 20
-36.8723523703
 10
23.4584540934
 20
-36.8161875943
 10
23.4552135589
 20
-36.7607004951
 10
23.4531046669
 20
-36.7056524144
 10
23.4521274172
 20
-36.6510433523
  0
LWPOLYLINE
  5
37B
100
AcDbEntity
  8
RACCORDO
100
AcDbPolyline
 62
253
  6
CONTINUOUS
 90
12
 70
0
 10
24.5627895377
 20
-37.3310953561
 10
24.5626305363
 20
-37.2951687612
 10
24.561963156
 20
-37.2582778374
 10
24.5607873967
 20
-37.2204225847
 10
24.5590901353
 20
-37.181311772
 10
24.5568844949
 20
-37.1412366304
 10
24.554209845
 20
-37.1010708532
 10
24.5509873725
 20
-37.0607463423
 10
24.5472958906
 20
-37.0203311959
 10
24.543411208
 20
-36.9809034015
 10
24.5393286924
 20
-36.9426984971
 10
24.5350529761
 20
-36.9054809447
  0
LINE
  5
37C
100
AcDbEntity
  8
ASSI
100
AcDbLine
 62
253
  6
CONTINUOUS
 10
23.4521274172
 20
-36.6510433523
 11
23.4521274106
 21
7.241312142
  0
LINE
  5
37D
100
AcDbEntity
  8
ASSI
100
AcDbLine
 62
253
  6
CONTINUOUS
 10
23.5121508913
 20
-58.0281731304
 11
23.5121514362
 21
-37.4455438784
  0
LINE
  5
37E
100
AcDbEntity
  8
ASSI
100
AcDbLine
 62
253
  6
CONTINUOUS
 10
23.5121514437
 20
8.1004492247
 11
23.5121508913
 21
28.6830778977
  0
LINE
  5
37F
100
AcDbEntity
  8
ASSI
100
AcDbLine
 62
253
  6
CONTINUOUS
 10
23.8682388958
 20
31.3325859731
 11
23.8682388958
 21
30.0152987107
  0
LINE
  5
380
100
AcDbEntity
  8
ASSI
100
AcDbLine
 62
253
  6
CONTINUOUS
 10
23.8682388958
 20
-59.1174972896
 11
23.8682388958
 21
-60.434784552
  0
LINE
  5
381
100
AcDbEntity
  8
RACCORDO
100
AcDbLine
 62
253
  6
CONTINUOUS
 10
23.9774465087
 20
-36.5938229176
 11
23.9774457819
 21
-33.3373209887
  0
LINE
  5
382
100
AcDbEntity
  8
RACCORDO
100
AcDbLine
 62
253
  6
CONTINUOUS
 10
24.0374711789
 20
-57.9709489339
 11
24.037413426
 21
-37.3607911884
  0
LINE
  5
383
100
AcDbEntity
  8
ASSI
100
AcDbLine
 62
253
  6
CONTINUOUS
 10
24.037471822
 20
8.1576750648
 11
24.0374711789
 21
28.7403020941
  0
LINE
  5
384
100
AcDbEntity
  8
RACCORDO
100
AcDbLine
 62
253
  6
CONTINUOUS
 10
24.146678065
 20
-32.575682238
 11
24.1466753603
 21
7.2343162623
  0
LINE
  5
385
100
AcDbEntity
  8
RACCORDO
100
AcDbLine
 62
253
  6
CONTINUOUS
 10
24.5027682515
 20
-36.5366089975
 11
24.5027660694
 21
-33.2800967923
  0
LINE
  5
386
100
AcDbEntity
  8
RACCORDO
100
AcDbLine
 62
253
  6
CONTINUOUS
 10
24.5627895377
 20
-37.3310953561
 11
24.5627914664
 21
-60.441784486
  0
LINE
  5
387
100
AcDbEntity
  8
ASSI
100
AcDbLine
 62
253
  6
CONTINUOUS
 10
24.5627914664
 20
31.3255860391
 11
24.5627914664
 21
8.2148994084
  0
LWPOLYLINE
  5
388
100
AcDbEntity
  8
ASSI
100
AcDbPolyline
 62
253
  6
CONTINUOUS
 90
16
 70
0
 10
23.4521274106
 20
7.241312142
 10
23.4530625894
 20
7.2961035416
 10
23.4551175873
 20
7.3526207057
 10
23.4582924043
 20
7.410863634
 10
23.4628381801
 20
7.4712825182
 10
23.468503775
 20
7.5334271667
 10
23.4745357703
 20
7.5959470054
 10
23.4810196553
 20
7.6591626459
 10
23.4878699406
 20
7.7227534766
 10
23.4940767392
 20
7.7844070886
 10
23.4994379812
 20
7.8436702022
 10
23.5041557367
 20
7.900996097
 10
23.5078263283
 20
7.9554322036
 10
23.5103151972
 20
8.0066609989
 10
23.5117569023
 20
8.0550000059
 10
23.5121514437
 20
8.1004492247
  0
LWPOLYLINE
  5
389
100
AcDbEntity
  8
RACCORDO
100
AcDbPolyline
 62
253
  6
CONTINUOUS
 90
19
 70
0
 10
23.9774457819
 20
-33.3373209887
 10
23.9786604853
 20
-33.2774458504
 10
23.9812657099
 20
-33.2199478911
 10
23.9852518842
 20
-33.164840633
 10
23.9907563025
 20
-33.1121757653
 10
23.9976033964
 20
-33.0619524815
 10
24.0053138841
 20
-33.0141043147
 10
24.0138258434
 20
-32.9687016675
 10
24.0231506055
 20
-32.9257282743
 10
24.0329316142
 20
-32.8849681039
 10
24.0429498529
 20
-32.8468178174
 10
24.0533778512
 20
-32.8109159059
 10
24.0644412318
 20
-32.7759091607
 10
24.0759559346
 20
-32.7416992272
 10
24.0880121944
 20
-32.7084473011
 10
24.1011848534
 20
-32.6752360089
 10
24.1155600831
 20
-32.641825539
 10
24.1307794909
 20
-32.60861463
 10
24.146678065
 20
-32.575682238
  0
LWPOLYLINE
  5
38A
100
AcDbEntity
  8
ASSI
100
AcDbPolyline
 62
253
  6
CONTINUOUS
 90
17
 70
0
 10
18.9194296417
 20
-60.3224824675
 10
18.9158694294
 20
-60.428249659
 10
18.9073077268
 20
-60.531016891
 10
18.8937749289
 20
-60.6305035795
 10
18.8753170703
 20
-60.7264293353
 10
18.8519871107
 20
-60.8185439344
 10
18.823840534
 20
-60.9066241242
 10
18.790945842
 20
-60.9904397014
 10
18.7533969539
 20
-61.0697488231
 10
18.7113024696
 20
-61.144326349
 10
18.664773161
 20
-61.2139683388
 10
18.613933194
 20
-61.278488259
 10
18.5589280425
 20
-61.3377079082
 10
18.499897459
 20
-61.3914689389
 10
18.4369982306
 20
-61.4396242524
 10
18.3704153354
 20
-61.4820337233
 10
18.3217630608
 20
-61.5082120051
  0
LWPOLYLINE
  5
38B
100
AcDbEntity
  8
ASSI
100
AcDbPolyline
 62
253
  6
CONTINUOUS
 90
19
 70
0
 10
22.0316728079
 20
32.3105151921
 10
22.0303151369
 20
32.2750225112
 10
22.0263947783
 20
32.2383027185
 10
22.0199402577
 20
32.2006229991
 10
22.0109985403
 20
32.1622575223
 10
21.9996346889
 20
32.1234854477
 10
21.9859313905
 20
32.0845888932
 10
21.9699883546
 20
32.0458508823
 10
21.9519215878
 20
32.0075532851
 10
21.9318625496
 20
31.9699747672
 10
21.9099571959
 20
31.9333887616
 10
21.8863649171
 20
31.8980614798
 10
21.861257378
 20
31.8642499743
 10
21.8348172691
 20
31.8322002683
 10
21.8072369769
 20
31.8021455656
 10
21.7787171844
 20
31.7743045538
 10
21.7494654107
 20
31.7488798129
 10
21.7196945009
 20
31.7260563413
 10
21.6896210777
 20
31.7060002099
  0
LINE
  5
38C
100
AcDbEntity
  8
RACCORDO
100
AcDbLine
 62
7
  6
CONTINUOUS
 10
25.935547551
 20
18.3172071914
 11
25.9303769091
 21
18.2099312062
  0
LWPOLYLINE
  5
38D
100
AcDbEntity
  8
RACCORDO
100
AcDbPolyline
 62
7
  6
CONTINUOUS
 90
5
 70
0
 10
25.9303769091
 20
18.2099312062
 10
25.9226229513
 20
18.1004347509
 10
25.9122933412
 20
17.9884316708
 10
25.8993906335
 20
17.8738265808
 10
25.8839122734
 20
17.756714866
  0
LWPOLYLINE
  5
38E
100
AcDbEntity
  8
RACCORDO
100
AcDbPolyline
 62
253
  6
CONTINUOUS
 90
22
 70
0
 10
26.8431613919
 20
17.8821362933
 10
26.8435291305
 20
17.885973397
 10
26.8441343069
 20
17.8897187209
 10
26.844976921
 20
17.893372265
 10
26.846045893
 20
17.8969554125
 10
26.8473523027
 20
17.9004467802
 10
26.8489293896
 20
17.9037822185
 10
26.8507781048
 20
17.9069645643
 10
26.8528974972
 20
17.9099909807
 10
26.8553179534
 20
17.9127888076
 10
26.8580344865
 20
17.9153610965
 10
26.8610520834
 20
17.9177047958
 10
26.8644160908
 20
17.9197380912
 10
26.8681369616
 20
17.9214729715
 10
26.872204243
 20
17.9228974479
 10
26.8766319232
 20
17.9238937393
 10
26.881439203
 20
17.9244605778
 10
26.8866068816
 20
17.9245992312
 10
26.8920913449
 20
17.924195722
 10
26.8978780548
 20
17.9232120576
 10
26.9039815493
 20
17.9216862305
 10
26.9104018285
 20
17.9196182407
  0
LINE
  5
38F
100
AcDbEntity
  8
RACCORDO
100
AcDbLine
 62
253
  6
CONTINUOUS
 10
27.6624191963
 20
17.7202364296
 11
27.7798703882
 21
18.4215414589
  0
LINE
  5
390
100
AcDbEntity
  8
RACCORDO
100
AcDbLine
 62
253
  6
CONTINUOUS
 10
27.7306946747
 20
17.7124265256
 11
27.8481458668
 21
18.4137315555
  0
LINE
  5
391
100
AcDbEntity
  8
RACCORDO
100
AcDbLine
 62
7
  6
CONTINUOUS
 10
28.1956271761
 20
16.602775825
 11
28.0781759851
 21
15.9014708015
  0
LINE
  5
392
100
AcDbEntity
  8
RACCORDO
100
AcDbLine
 62
253
  6
CONTINUOUS
 10
28.2095850524
 20
16.5741033553
 11
28.0921338615
 21
15.8727983321
  0
LWPOLYLINE
  5
393
100
AcDbEntity
  8
RACCORDO
100
AcDbPolyline
 62
7
  6
CONTINUOUS
 90
5
 70
0
 10
28.0781642492
 20
15.9013999191
 10
28.0777502152
 20
15.8992836572
 10
28.0771670189
 20
15.8970477637
 10
28.0765757372
 20
15.8953303837
 10
28.0763035538
 20
15.8946822769
  0
LWPOLYLINE
  5
394
100
AcDbEntity
  8
RACCORDO
100
AcDbPolyline
 62
253
  6
CONTINUOUS
 90
16
 70
0
 10
26.8913542868
 20
17.8718208368
 10
26.8917709271
 20
17.8737643881
 10
26.8923847096
 20
17.8756991521
 10
26.8931978523
 20
17.8776147826
 10
26.8942056287
 20
17.8794985061
 10
26.8954170282
 20
17.8813409793
 10
26.8968548705
 20
17.8831359184
 10
26.8985219378
 20
17.8848702958
 10
26.9004193757
 20
17.8865317371
 10
26.9025677526
 20
17.8881130276
 10
26.904964792
 20
17.8895969234
 10
26.90761607
 20
17.8909720449
 10
26.9105549164
 20
17.8922344002
 10
26.9137924332
 20
17.8933670235
 10
26.9173214391
 20
17.8943470631
 10
26.9206419106
 20
17.8950626279
  0
LINE
  5
395
100
AcDbEntity
  8
RACCORDO
100
AcDbLine
 62
253
  6
CONTINUOUS
 10
27.6600857196
 20
17.7094989286
 11
27.6624191963
 21
17.7202364296
  0
LINE
  5
396
100
AcDbEntity
  8
RACCORDO
100
AcDbLine
 62
253
  6
CONTINUOUS
 10
28.2119185291
 20
16.5848408563
 11
28.2095850524
 21
16.5741033553
  0
LWPOLYLINE
  5
397
100
AcDbEntity
  8
RACCORDO
100
AcDbPolyline
 62
253
  6
CONTINUOUS
 90
19
 70
0
 10
27.7798703882
 20
18.4215414589
 10
27.7814313513
 20
18.4286691221
 10
27.7833626434
 20
18.4351683057
 10
27.7856642644
 20
18.4410390098
 10
27.7883763741
 20
18.4462731834
 10
27.7914588128
 20
18.4508788773
 10
27.7947911008
 20
18.4548802449
 10
27.7983789147
 20
18.4582684154
 10
27.8022165779
 20
18.4610522596
 10
27.8061665819
 20
18.4632825426
 10
27.8101948196
 20
18.4649461315
 10
27.8143353981
 20
18.4660561593
 10
27.8185531292
 20
18.46670279
 10
27.8228160663
 20
18.4669163223
 10
27.827156156
 20
18.4666664575
 10
27.831634051
 20
18.4659524634
 10
27.8362699686
 20
18.4647740957
 10
27.8410436914
 20
18.4631315986
 10
27.8459552194
 20
18.4610249721
  0
LWPOLYLINE
  5
398
100
AcDbEntity
  8
RACCORDO
100
AcDbPolyline
 62
253
  6
CONTINUOUS
 90
4
 70
0
 10
28.0921338615
 20
15.8727983321
 10
28.0905728983
 20
15.865670668
 10
28.0886416062
 20
15.8591714833
 10
28.0863399853
 20
15.8533007782
  0
LWPOLYLINE
  5
399
100
AcDbEntity
  8
RACCORDO
100
AcDbPolyline
 62
253
  6
CONTINUOUS
 90
10
 70
0
 10
26.9104018311
 20
17.5590590563
 10
26.9119347207
 20
17.5655044157
 10
26.9144280724
 20
17.5723464453
 10
26.9178110861
 20
17.5793908524
 10
26.9219876977
 20
17.5864375967
 10
26.9268393052
 20
17.5932865684
 10
26.932228136
 20
17.599743271
 10
26.9380011619
 20
17.6056243487
 10
26.9439944449
 20
17.6107627924
 10
26.950037791
 20
17.6150126807
  0
LWPOLYLINE
  5
39A
100
AcDbEntity
  8
RACCORDO
100
AcDbPolyline
 62
253
  6
CONTINUOUS
 90
10
 70
0
 10
27.5765006408
 20
17.0388453663
 10
27.5780335409
 20
17.0452907599
 10
27.5805269087
 20
17.0521328173
 10
27.583909939
 20
17.059177242
 10
27.5880865628
 20
17.0662239912
 10
27.592938175
 20
17.0730729559
 10
27.5983270028
 20
17.0795296435
 10
27.6041000176
 20
17.0854107014
 10
27.6100932812
 20
17.0905491229
 10
27.6161366008
 20
17.0947989906
  0
LINE
  5
39B
100
AcDbEntity
  8
RACCORDO
100
AcDbLine
 62
7
  6
CONTINUOUS
 10
29.7683341833
 20
-10.074946074
 11
29.7635184839
 21
-10.07805299
  0
LINE
  5
39C
100
AcDbEntity
  8
RACCORDO
100
AcDbLine
 62
253
  6
CONTINUOUS
 10
29.0977586822
 20
-10.4402938431
 11
29.7925228686
 21
-10.0106181869
  0
LINE
  5
39D
100
AcDbEntity
  8
RACCORDO
100
AcDbLine
 62
7
  6
CONTINUOUS
 10
29.1398577093
 20
-10.4637341681
 11
29.7635167354
 21
-10.0780540713
  0
LWPOLYLINE
  5
39E
100
AcDbEntity
  8
RACCORDO
100
AcDbPolyline
 62
7
  6
CONTINUOUS
 90
5
 70
0
 10
27.0724344086
 20
23.1612920585
 10
27.0535354083
 20
23.1608741425
 10
27.0343554138
 20
23.1606485226
 10
27.0149770057
 20
23.1606476203
 10
26.995493578
 20
23.1609861307
  0
LWPOLYLINE
  5
39F
100
AcDbEntity
  8
RACCORDO
100
AcDbPolyline
 62
7
  6
CONTINUOUS
 90
8
 70
0
 10
26.995493578
 20
23.1609861307
 10
26.9565893212
 20
23.1622715251
 10
26.9372770348
 20
23.1629909284
 10
26.9182874596
 20
23.1637992825
 10
26.9000137163
 20
23.1644702974
 10
26.8826335421
 20
23.1648918883
 10
26.8661424736
 20
23.1651048272
 10
26.8506244494
 20
23.165071873
  0
LINE
  5
3A0
100
AcDbEntity
  8
RACCORDO
100
AcDbLine
 62
253
  6
CONTINUOUS
 10
27.8481458668
 20
18.4137315555
 11
27.9129326734
 21
18.4090752273
  0
LWPOLYLINE
  5
3A1
100
AcDbEntity
  8
RACCORDO
100
AcDbPolyline
 62
7
  6
CONTINUOUS
 90
5
 70
0
 10
27.8573649744
 20
18.4373240068
 10
27.8571857554
 20
18.4373415733
 10
27.8574242325
 20
18.4372719943
 10
27.858817337
 20
18.4367561819
 10
27.8596359278
 20
18.4363807977
  0
LWPOLYLINE
  5
3A2
100
AcDbEntity
  8
RACCORDO
100
AcDbPolyline
 62
253
  6
CONTINUOUS
 90
10
 70
0
 10
27.7798703845
 20
16.0530953679
 10
27.7862189146
 20
16.0511998458
 10
27.7933911611
 20
16.0499378473
 10
27.8011834514
 20
16.0493452099
 10
27.809374505
 20
16.0494387628
 10
27.8177317176
 20
16.0502158494
 10
27.8260177667
 20
16.0516544025
 10
27.8339973504
 20
16.053713571
 10
27.8414438696
 20
16.05633488
 10
27.8481458629
 20
16.0594438912
  0
LWPOLYLINE
  5
3A3
100
AcDbEntity
  8
RACCORDO
100
AcDbPolyline
 62
253
  6
CONTINUOUS
 90
10
 70
0
 10
27.6624191963
 20
16.890030063
 10
27.6687677101
 20
16.8881345509
 10
27.6759399416
 20
16.8868725574
 10
27.6837322203
 20
16.8862799207
 10
27.6919232676
 20
16.8863734714
 10
27.7002804801
 20
16.8871505542
 10
27.7085665351
 20
16.8885891031
 10
27.7165461301
 20
16.890648268
 10
27.7239926645
 20
16.893269575
 10
27.7306946747
 20
16.8963785863
  0
LWPOLYLINE
  5
3A4
100
AcDbEntity
  8
RACCORDO
100
AcDbPolyline
 62
253
  6
CONTINUOUS
 90
8
 70
0
 10
28.3228776151
 20
16.6867355865
 10
28.3102133288
 20
16.6906839098
 10
28.2974192146
 20
16.6932065271
 10
28.2846597228
 20
16.6941192744
 10
28.2720255604
 20
16.6932327717
 10
28.2598344329
 20
16.6903621018
 10
28.2485508575
 20
16.685485191
 10
28.2428280331
 20
16.6819787515
  0
LWPOLYLINE
  5
3A5
100
AcDbEntity
  8
RACCORDO
100
AcDbPolyline
 62
7
  6
CONTINUOUS
 90
3
 70
0
 10
27.5943706432
 20
17.6442086591
 10
27.6088498717
 20
17.6396158781
 10
27.6240730215
 20
17.6365583168
  0
LWPOLYLINE
  5
3A6
100
AcDbEntity
  8
RACCORDO
100
AcDbPolyline
 62
253
  6
CONTINUOUS
 90
12
 70
0
 10
28.2955036079
 20
16.6237020643
 10
28.2858326145
 20
16.6269496979
 10
28.2763227737
 20
16.6288430143
 10
28.2669740853
 20
16.6293820134
 10
28.2575798409
 20
16.628603382
 10
28.248346749
 20
16.6264704334
 10
28.2398949351
 20
16.6228731076
 10
28.232329111
 20
16.6176344869
 10
28.2255445649
 20
16.610931489
 10
28.2198472869
 20
16.6031848075
 10
28.2153392739
 20
16.5945346737
 10
28.2119185291
 20
16.5848408563
  0
LWPOLYLINE
  5
3A7
100
AcDbEntity
  8
RACCORDO
100
AcDbPolyline
 62
7
  6
CONTINUOUS
 90
16
 70
0
 10
26.8565387905
 20
12.722173521
 10
27.0334226584
 20
12.6203823445
 10
27.2104768245
 20
12.5265105426
 10
27.3874706803
 20
12.440700452
 10
27.5642487091
 20
12.3630559191
 10
27.7405008937
 20
12.2937444946
 10
27.9157726693
 20
12.2329584064
 10
28.0898776225
 20
12.1807658333
 10
28.2625535175
 20
12.1372519445
 10
28.4332524719
 20
12.1025377526
 10
28.6017569419
 20
12.0766285856
 10
28.7678614677
 20
12.0595192556
 10
28.9310579925
 20
12.0512042143
 10
29.0910487161
 20
12.0516102342
 10
29.2477353129
 20
12.0606486471
 10
29.4009208386
 20
12.0782274068
  0
LINE
  5
3A8
100
AcDbEntity
  8
RACCORDO
100
AcDbLine
 62
253
  6
CONTINUOUS
 10
26.9630565559
 20
12.7623130148
 11
26.7984002465
 21
12.8571518275
  0
LINE
  5
3A9
100
AcDbEntity
  8
ASSI
100
AcDbLine
 62
253
  6
CONTINUOUS
 10
24.7697843413
 20
7.5183901887
 11
25.9467894424
 21
5.479757555
  0
LINE
  5
3AA
100
AcDbEntity
  8
ASSI
100
AcDbLine
 62
253
  6
CONTINUOUS
 10
24.1732757506
 20
7.1866304207
 11
25.3557388448
 21
5.1384932914
  0
LINE
  5
3AB
100
AcDbEntity
  8
ASSI
100
AcDbLine
 62
253
  6
CONTINUOUS
 10
24.1625216014
 20
7.2056306506
 11
24.1732757506
 21
7.1866304207
  0
LWPOLYLINE
  5
3AC
100
AcDbEntity
  8
ASSI
100
AcDbPolyline
 62
253
  6
CONTINUOUS
 90
16
 70
0
 10
25.3557388448
 20
5.1384932914
 10
25.3684878209
 20
5.1156169392
 10
25.3804673688
 20
5.0925105488
 10
25.3916774882
 20
5.0691741201
 10
25.4021488389
 20
5.0455365813
 10
25.4118507612
 20
5.0216690043
 10
25.4206912765
 20
4.9977846044
 10
25.4286605499
 20
4.9738846647
 10
25.4357684163
 20
4.9499679021
 10
25.4419524028
 20
4.9262436825
 10
25.4472028237
 20
4.9027118388
 10
25.4515293647
 20
4.8793725381
 10
25.4548986098
 20
4.8564356468
 10
25.4572994203
 20
4.8339711207
 10
25.4587429348
 20
4.811909004
 10
25.4592291534
 20
4.7902492969
  0
LWPOLYLINE
  5
3AD
100
AcDbEntity
  8
ASSI
100
AcDbPolyline
 62
253
  6
CONTINUOUS
 90
3
 70
0
 10
24.1466753603
 20
7.2343162623
 10
24.151919443
 20
7.2247296895
 10
24.1625216014
 20
7.2056306506
  0
LWPOLYLINE
  5
3AE
100
AcDbEntity
  8
ASSI
100
AcDbPolyline
 62
253
  6
CONTINUOUS
 90
16
 70
0
 10
24.1466763043
 20
7.2343234018
 10
24.1355749648
 20
7.283568349
 10
24.1242158707
 20
7.3363495235
 10
24.1128601861
 20
7.3925289023
 10
24.1019014588
 20
7.4521874399
 10
24.0915553439
 20
7.5149175031
 10
24.081688767
 20
7.5799060691
 10
24.0722380181
 20
7.6477825365
 10
24.06377688
 20
7.7176380376
 10
24.0566157594
 20
7.7865978512
 10
24.0504145879
 20
7.8546559136
 10
24.045355902
 20
7.9218838275
 10
24.0418291516
 20
7.9858506804
 10
24.0396148522
 20
8.0459281397
 10
24.0382530896
 20
8.103139643
 10
24.037476229
 20
8.1576749034
  0
LWPOLYLINE
  5
3AF
100
AcDbEntity
  8
RACCORDO
100
AcDbPolyline
 62
7
  6
CONTINUOUS
 90
4
 70
0
 10
28.1954168315
 20
-47.8997827772
 10
28.1966870786
 20
-47.9078191041
 10
28.2028509536
 20
-47.9343402333
 10
28.2119189172
 20
-47.9607326688
  0
LINE
  5
3B0
100
AcDbEntity
  8
RACCORDO
100
AcDbLine
 62
253
  6
CONTINUOUS
 10
27.7798703845
 20
-49.2645267755
 11
27.6624191963
 21
-48.4275920804
  0
LINE
  5
3B1
100
AcDbEntity
  8
RACCORDO
100
AcDbLine
 62
253
  6
CONTINUOUS
 10
27.8481458629
 20
-49.2581782521
 11
27.7306946747
 21
-48.4212435571
  0
LINE
  5
3B2
100
AcDbEntity
  8
RACCORDO
100
AcDbLine
 62
7
  6
CONTINUOUS
 10
28.0779743917
 20
-47.0629126249
 11
28.1954255864
 21
-47.8998473661
  0
LINE
  5
3B3
100
AcDbEntity
  8
RACCORDO
100
AcDbLine
 62
253
  6
CONTINUOUS
 10
28.09213386
 20
-47.0763776966
 11
28.2095850524
 21
-47.9133124216
  0
LWPOLYLINE
  5
3B4
100
AcDbEntity
  8
RACCORDO
100
AcDbPolyline
 62
253
  6
CONTINUOUS
 90
9
 70
0
 10
27.8459552194
 20
-46.8565971714
 10
27.8465313324
 20
-46.8613770594
 10
27.8475777737
 20
-46.8658162516
 10
27.849080393
 20
-46.8698547149
 10
27.851018871
 20
-46.8734378354
 10
27.8533669938
 20
-46.8765171563
 10
27.8560930076
 20
-46.8790510337
 10
27.8591600479
 20
-46.8810052003
 10
27.8595918109
 20
-46.8812200732
  0
LINE
  5
3B5
100
AcDbEntity
  8
RACCORDO
100
AcDbLine
 62
7
  6
CONTINUOUS
 10
29.013789072
 20
-48.6759526975
 11
29.0143073964
 21
-48.6803547769
  0
LWPOLYLINE
  5
3B6
100
AcDbEntity
  8
0
100
AcDbPolyline
 62
7
  6
CONTINUOUS
 90
8
 70
0
 10
33.9464097644
 20
-45.6799772317
 10
33.929078789
 20
-45.4729615686
 10
33.8766222502
 20
-45.2505714578
 10
33.7929551854
 20
-45.0294047469
 10
33.6787391078
 20
-44.8112100888
 10
33.5399729595
 20
-44.6090270875
 10
33.3853102836
 20
-44.4341640054
 10
33.2142097012
 20
-44.2867006463
  0
LWPOLYLINE
  5
3B7
100
AcDbEntity
  8
RACCORDO
100
AcDbPolyline
 62
253
  6
CONTINUOUS
 90
10
 70
0
 10
28.9616023964
 20
-48.9429005903
 10
28.9610734942
 20
-48.9352647378
 10
28.9615636093
 20
-48.9272660275
 10
28.9630588238
 20
-48.9191316015
 10
28.9655166775
 20
-48.911092456
 10
28.9688673739
 20
-48.9033768814
 10
28.9730157621
 20
-48.8962039795
 10
28.9778440388
 20
-48.8897774417
 10
28.9832150939
 20
-48.8842797648
 10
28.9889764036
 20
-48.8798670681
  0
LWPOLYLINE
  5
3B8
100
AcDbEntity
  8
RACCORDO
100
AcDbPolyline
 62
253
  6
CONTINUOUS
 90
10
 70
0
 10
28.2955036079
 20
16.6237020643
 10
28.2949747006
 20
16.6313379009
 10
28.2954648079
 20
16.6393365983
 10
28.2969600137
 20
16.6474710161
 10
28.2994178597
 20
16.6555101587
 10
28.3027685514
 20
16.6632257359
 10
28.3069169393
 20
16.6703986449
 10
28.3117452213
 20
16.6768251926
 10
28.3171162878
 20
16.6823228805
 10
28.3228776151
 20
16.6867355865
  0
LWPOLYLINE
  5
3B9
100
AcDbEntity
  8
RACCORDO
100
AcDbPolyline
 62
253
  6
CONTINUOUS
 90
10
 70
0
 10
28.9616023964
 20
16.3747215531
 10
28.9610734942
 20
16.3823574056
 10
28.9615636093
 20
16.3903561159
 10
28.9630588238
 20
16.3984905419
 10
28.9655166775
 20
16.4065296874
 10
28.9688673739
 20
16.4142452621
 10
28.9730157621
 20
16.421418164
 10
28.9778440388
 20
16.4278447017
 10
28.9832150939
 20
16.4333423786
 10
28.9889764036
 20
16.4377550753
  0
LINE
  5
3BA
100
AcDbEntity
  8
RACCORDO
100
AcDbLine
 62
7
  6
CONTINUOUS
 10
29.0157326271
 20
-48.7036501764
 11
29.014315191
 21
-48.6804759941
  0
LINE
  5
3BB
100
AcDbEntity
  8
RACCORDO
100
AcDbLine
 62
253
  6
CONTINUOUS
 10
29.0288428577
 20
-48.6974709359
 11
29.0303060674
 21
-48.7214096808
  0
LWPOLYLINE
  5
3BC
100
AcDbEntity
  8
RACCORDO
100
AcDbPolyline
 62
253
  6
CONTINUOUS
 90
10
 70
0
 10
26.843161395
 20
17.6741885732
 10
26.8416981835
 20
17.6981273195
 10
26.840600777
 20
17.7218606128
 10
26.8398691756
 20
17.7453884531
 10
26.8395033821
 20
17.7687147178
 10
26.8395033937
 20
17.7918355295
 10
26.8398692014
 20
17.8147392561
 10
26.8406008021
 20
17.8374220202
 10
26.841698199
 20
17.8598876993
 10
26.8431613919
 20
17.8821362933
  0
LWPOLYLINE
  5
3BD
100
AcDbEntity
  8
RACCORDO
100
AcDbPolyline
 62
253
  6
CONTINUOUS
 90
7
 70
0
 10
26.8913542926
 20
17.6696795706
 10
26.889932511
 20
17.6929256235
 10
26.8888657593
 20
17.7159929346
 10
26.8881543937
 20
17.7388738049
 10
26.8877986516
 20
17.7615605978
 10
26.8877986517
 20
17.7840457416
 10
26.8881543936
 20
17.8063217319
  0
LINE
  5
3BE
100
AcDbEntity
  8
RACCORDO
100
AcDbLine
 62
7
  6
CONTINUOUS
 10
29.0157326271
 20
16.613971967
 11
29.014315191
 21
16.6371461493
  0
LINE
  5
3BF
100
AcDbEntity
  8
RACCORDO
100
AcDbLine
 62
253
  6
CONTINUOUS
 10
29.0288428577
 20
16.6201512075
 11
29.0303060674
 21
16.5962124626
  0
LWPOLYLINE
  5
3C0
100
AcDbEntity
  8
0
100
AcDbPolyline
 62
7
  6
CONTINUOUS
 90
19
 70
0
 10
29.9159011117
 20
-49.3136211123
 10
29.9010339756
 20
-49.0339256367
 10
29.8612331359
 20
-48.7503124683
 10
29.7964985926
 20
-48.4627816072
 10
29.7052944918
 20
-48.1673746613
 10
29.5891566873
 20
-47.8680500227
 10
29.4526927415
 20
-47.5766828675
 10
29.2950854435
 20
-47.2935931256
 10
29.117152004
 20
-47.0184608672
 10
28.925951618
 20
-46.7622014785
 10
28.7209508889
 20
-46.5255737415
 10
28.5026832133
 20
-46.3078188742
 10
28.2798079755
 20
-46.1175759162
 10
28.0521399288
 20
-45.9559509815
 10
27.8198643199
 20
-45.821837956
 10
27.5921962732
 20
-45.7205575371
 10
27.3693210354
 20
-45.6534297571
 10
27.1510533598
 20
-45.6191345836
 10
26.9460526307
 20
-45.6190326171
  0
LWPOLYLINE
  5
3C1
100
AcDbEntity
  8
RACCORDO
100
AcDbPolyline
 62
253
  6
CONTINUOUS
 90
9
 70
0
 10
26.5716714935
 20
20.8561298594
 10
26.572220444
 20
20.8456896155
 10
26.5756998393
 20
20.8278729179
 10
26.5823503658
 20
20.8103593357
 10
26.5921007675
 20
20.7933365147
 10
26.6048465758
 20
20.7769868427
 10
26.6204512281
 20
20.7614854951
 10
26.6387475314
 20
20.746998558
 10
26.6595394534
 20
20.733681249
  0
LWPOLYLINE
  5
3C2
100
AcDbEntity
  8
RACCORDO
100
AcDbPolyline
 62
253
  6
CONTINUOUS
 90
9
 70
0
 10
26.5716714878
 20
13.2230535468
 10
26.572220444
 20
13.2125795353
 10
26.5756998393
 20
13.1947628377
 10
26.5823503658
 20
13.1772492555
 10
26.5921007675
 20
13.1602264345
 10
26.6048465758
 20
13.1438767625
 10
26.6204512281
 20
13.1283754149
 10
26.6387475314
 20
13.1138884778
 10
26.6595394534
 20
13.1005711688
  0
LWPOLYLINE
  5
3C3
100
AcDbEntity
  8
RACCORDO
100
AcDbPolyline
 62
253
  6
CONTINUOUS
 90
9
 70
0
 10
26.5716714878
 20
15.15716801
 10
26.57222034
 20
15.1466949896
 10
26.5756995619
 20
15.1288782686
 10
26.5823499412
 20
15.1113646128
 10
26.5921002443
 20
15.0943416739
 10
26.6048460268
 20
15.0779918426
 10
26.6204507477
 20
15.0624903032
 10
26.6387472298
 20
15.0480031557
 10
26.6595394535
 20
15.0346856322
  0
LWPOLYLINE
  5
3C4
100
AcDbEntity
  8
RACCORDO
100
AcDbPolyline
 62
253
  6
CONTINUOUS
 90
9
 70
0
 10
26.5716714878
 20
22.7902780792
 10
26.572220521
 20
22.7798033336
 10
26.5757000425
 20
22.7619866618
 10
26.5823506734
 20
22.7444731412
 10
26.5921011422
 20
22.7274504135
 10
26.6048469651
 20
22.7111008617
 10
26.6204515663
 20
22.6955996543
 10
26.6387477424
 20
22.6811128687
 10
26.6595394534
 20
22.6677957127
  0
LWPOLYLINE
  5
3C5
100
AcDbEntity
  8
0
100
AcDbPolyline
 62
7
  6
CONTINUOUS
 90
6
 70
0
 10
30.1633884851
 20
-49.1707250046
 10
30.1500011164
 20
-48.8975933473
 10
30.1100200516
 20
-48.6126959293
 10
30.0439859661
 20
-48.3198854996
 10
29.9527918574
 20
-48.0231218167
 10
29.8947191555
 20
-47.8734497044
  0
LWPOLYLINE
  5
3C6
100
AcDbEntity
  8
RACCORDO
100
AcDbPolyline
 62
253
  6
CONTINUOUS
 90
3
 70
0
 10
29.0303060674
 20
-48.7214096808
 10
29.0314034726
 20
-48.7451429729
 10
29.0321350731
 20
-48.7686708123
  0
LWPOLYLINE
  5
3C7
100
AcDbEntity
  8
RACCORDO
100
AcDbPolyline
 62
253
  6
CONTINUOUS
 90
3
 70
0
 10
29.0303060674
 20
16.5962124626
 10
29.0314034726
 20
16.5724791705
 10
29.0321350731
 20
16.5489513312
  0
LINE
  5
3C8
100
AcDbEntity
  8
RACCORDO
100
AcDbLine
 62
7
  6
CONTINUOUS
 10
26.5716756676
 20
13.2230665332
 11
26.5735747204
 21
13.1795355738
  0
LWPOLYLINE
  5
3C9
100
AcDbEntity
  8
RACCORDO
100
AcDbPolyline
 62
253
  6
CONTINUOUS
 90
22
 70
0
 10
27.2711539949
 20
31.6640607694
 10
27.2698961878
 20
31.6949821515
 10
27.2666879808
 20
31.726882446
 10
27.2615482479
 20
31.759583845
 10
27.2545072077
 20
31.7929043825
 10
27.2456043358
 20
31.8266578377
 10
27.2348881425
 20
31.8606547739
 10
27.2224187794
 20
31.8947052493
 10
27.208266716
 20
31.9286193692
 10
27.1925104193
 20
31.9622072316
 10
27.1752378884
 20
31.9952809968
 10
27.1565461056
 20
32.027656053
 10
27.13653949
 20
32.0591515316
 10
27.1153294011
 20
32.0895911447
 10
27.0930345373
 20
32.1188047464
 10
27.0697802021
 20
32.1466293952
 10
27.045695659
 20
32.1729091116
 10
27.0209152935
 20
32.1974968397
 10
26.9955788718
 20
32.2202558374
 10
26.9698279182
 20
32.2410588022
 10
26.9438049276
 20
32.2597885855
 10
26.9176544522
 20
32.2763399372
  0
LWPOLYLINE
  5
3CA
100
AcDbEntity
  8
RACCORDO
100
AcDbPolyline
 62
7
  6
CONTINUOUS
 90
13
 70
0
 10
29.6367611776
 20
-46.0579492329
 10
29.6378579088
 20
-46.0904047585
 10
29.6410165066
 20
-46.1235203311
 10
29.646236971
 20
-46.1572959508
 10
29.653577202
 20
-46.1919564361
 10
29.6629792995
 20
-46.2272769685
 10
29.6742695632
 20
-46.262583092
 10
29.6874830597
 20
-46.2978614634
 10
29.7025847223
 20
-46.3331254259
 10
29.7192956508
 20
-46.3677405535
 10
29.7375228783
 20
-46.4014953708
 10
29.7573593716
 20
-46.434601353
 10
29.7788051308
 20
-46.4670585003
  0
LWPOLYLINE
  5
3CB
100
AcDbEntity
  8
RACCORDO
100
AcDbPolyline
 62
253
  6
CONTINUOUS
 90
22
 70
0
 10
26.8506244494
 20
31.666179727
 10
26.8502105018
 20
31.6787397803
 10
26.8490274991
 20
31.6915410117
 10
26.8470754413
 20
31.7045834213
 10
26.8443346571
 20
31.7179427879
 10
26.8408248177
 20
31.7315433327
 10
26.8366049372
 20
31.7451577187
 10
26.8316633272
 20
31.7587856813
 10
26.8260116759
 20
31.7724274851
 10
26.819744062
 20
31.7858565865
 10
26.8128502257
 20
31.7990694116
 10
26.8053404268
 20
31.8120695344
 10
26.7973395227
 20
31.8246411324
 10
26.7888393126
 20
31.8367769698
 10
26.7798479973
 20
31.8484842824
 10
26.7705150371
 20
31.859568956
 10
26.7608316229
 20
31.8700226545
 10
26.7508065636
 20
31.8798537139
 10
26.7406157463
 20
31.8888930281
 10
26.7303177998
 20
31.8970842285
 10
26.7198540951
 20
31.9044836839
 10
26.7092246323
 20
31.9110913941
  0
LWPOLYLINE
  5
3CC
100
AcDbEntity
  8
RACCORDO
100
AcDbPolyline
 62
7
  6
CONTINUOUS
 90
22
 70
0
 10
28.7138195837
 20
32.4970350375
 10
28.7128393589
 20
32.5280434657
 10
28.7098866806
 20
32.5600566717
 10
28.7049724494
 20
32.5929010167
 10
28.6981095082
 20
32.626442749
 10
28.6893345582
 20
32.660452228
 10
28.6787325331
 20
32.6946002469
 10
28.6664205398
 20
32.728583503
 10
28.6524503725
 20
32.7623251719
 10
28.6368160227
 20
32.7958317234
 10
28.6195184281
 20
32.829043608
 10
28.6007020259
 20
32.8616345727
 10
28.5805883965
 20
32.8932208286
 10
28.5593878673
 20
32.9235141591
 10
28.5371515421
 20
32.9524839745
 10
28.5138768225
 20
32.9801387132
 10
28.4896043429
 20
33.0063951085
 10
28.4645382203
 20
33.0310000864
 10
28.4389210943
 20
33.0537154806
 10
28.4129334936
 20
33.0743946785
 10
28.3866848325
 20
33.0929596759
 10
28.360320041
 20
33.1093142053
  0
LINE
  5
3CD
100
AcDbEntity
  8
RACCORDO
100
AcDbLine
 62
253
  6
CONTINUOUS
 10
29.7921220262
 20
-16.3616309549
 11
29.7925228686
 21
-16.3748712564
  0
LWPOLYLINE
  5
3CE
100
AcDbEntity
  8
RACCORDO
100
AcDbPolyline
 62
253
  6
CONTINUOUS
 90
6
 70
0
 10
26.6595394535
 20
-50.2829365116
 10
26.6584252644
 20
-50.2416227749
 10
26.6551789463
 20
-50.1995249705
 10
26.6498004994
 20
-50.1566430984
 10
26.6422499831
 20
-50.1127945372
 10
26.632567338
 20
-50.0681619083
  0
LWPOLYLINE
  5
3CF
100
AcDbEntity
  8
RACCORDO
100
AcDbPolyline
 62
253
  6
CONTINUOUS
 90
6
 70
0
 10
26.6595394535
 20
15.0346856318
 10
26.6584252644
 20
15.0759993685
 10
26.6551789463
 20
15.1180971729
 10
26.6498004994
 20
15.160979045
 10
26.6422499831
 20
15.2048276062
 10
26.632567338
 20
15.2494602351
  0
LWPOLYLINE
  5
3D0
100
AcDbEntity
  8
RACCORDO
100
AcDbPolyline
 62
253
  6
CONTINUOUS
 90
16
 70
0
 10
29.2124647951
 20
-46.05796799
 10
29.2135789843
 20
-46.0992817267
 10
29.2168253023
 20
-46.1413795311
 10
29.2222037492
 20
-46.1842614033
 10
29.2297542655
 20
-46.2281099645
 10
29.2394369106
 20
-46.2727425934
 10
29.2511318633
 20
-46.3176114258
 10
29.2648557181
 20
-46.3626955359
 10
29.2805918804
 20
-46.4080158495
 10
29.2981707449
 20
-46.4530872805
 10
29.3176195383
 20
-46.4979247808
 10
29.3389110339
 20
-46.5425133986
 10
29.3617939456
 20
-46.5863231921
 10
29.3861845113
 20
-46.6291775139
 10
29.4121664931
 20
-46.6712530113
 10
29.5417066377
 20
-46.8641312265
  0
LWPOLYLINE
  5
3D1
100
AcDbEntity
  8
RACCORDO
100
AcDbPolyline
 62
253
  6
CONTINUOUS
 90
16
 70
0
 10
29.2124647952
 20
19.2596541531
 10
29.2135789844
 20
19.2183404164
 10
29.2168253024
 20
19.176242612
 10
29.2222037493
 20
19.1333607398
 10
29.2297542656
 20
19.0895121787
 10
29.2394369107
 20
19.0448795498
 10
29.2511318634
 20
19.0000107173
 10
29.2648557182
 20
18.9549266073
 10
29.2805918805
 20
18.9096062937
 10
29.298170745
 20
18.8645348627
 10
29.3176195384
 20
18.8196973623
 10
29.338911034
 20
18.7751087445
 10
29.3617939456
 20
18.7312989511
 10
29.3861845114
 20
18.6884446293
 10
29.4121664932
 20
18.6463691319
 10
29.5417066376
 20
18.453490917
  0
LWPOLYLINE
  5
3D2
100
AcDbEntity
  8
RACCORDO
100
AcDbPolyline
 62
7
  6
CONTINUOUS
 90
31
 70
0
 10
30.2340991632
 20
-49.4255961634
 10
30.2311523205
 20
-49.2934596359
 10
30.2222663385
 20
-49.1573385519
 10
30.2073919477
 20
-49.0176453409
 10
30.1865096312
 20
-48.8748350857
 10
30.1596208062
 20
-48.7293347875
 10
30.1267344902
 20
-48.5815195219
 10
30.0878776448
 20
-48.4317901696
 10
30.0431266958
 20
-48.2806625849
 10
29.9925938437
 20
-48.1286724585
 10
29.9363963887
 20
-47.9762894653
 10
29.8746744727
 20
-47.8239888782
 10
29.8076169723
 20
-47.6723060555
 10
29.7354094722
 20
-47.5217091527
 10
29.6582586806
 20
-47.3726669921
 10
29.5764240435
 20
-47.2257021759
 10
29.490153165
 20
-47.0812666398
 10
29.3997095409
 20
-46.9398024902
 10
29.3054120329
 20
-46.8017978845
 10
29.207560038
 20
-46.6676696116
 10
29.1064644567
 20
-46.5378178557
 10
29.002493665
 20
-46.4126801609
 10
28.8959901331
 20
-46.2926233195
 10
28.7872997595
 20
-46.177987648
 10
28.6768257254
 20
-46.0691401353
 10
28.5649496436
 20
-45.9663881691
 10
28.452033766
 20
-45.8699911428
 10
28.338480283
 20
-45.7802132177
 10
28.2246889015
 20
-45.6972823351
 10
28.1110401592
 20
-45.6213812107
 10
27.9979180686
 20
-45.55266642
  0
LWPOLYLINE
  5
3D3
100
AcDbEntity
  8
RACCORDO
100
AcDbPolyline
 62
253
  6
CONTINUOUS
 90
16
 70
0
 10
29.6329943407
 20
-46.0600869474
 10
29.6335627324
 20
-46.0858393921
 10
29.6355038576
 20
-46.1122656462
 10
29.6388089135
 20
-46.139264533
 10
29.6434641505
 20
-46.1667359109
 10
29.6494508204
 20
-46.1945713119
 10
29.6567438555
 20
-46.2226539789
 10
29.6653107342
 20
-46.2508662681
 10
29.6751187088
 20
-46.2791096437
 10
29.6861365501
 20
-46.307295106
 10
29.6983269438
 20
-46.3353217365
 10
29.7116410771
 20
-46.3630744021
 10
29.7260259527
 20
-46.3904435293
 10
29.7414263062
 20
-46.4173227019
 10
29.7577852431
 20
-46.4436089396
 10
29.8772878981
 20
-46.6208228351
  0
LWPOLYLINE
  5
3D4
100
AcDbEntity
  8
RACCORDO
100
AcDbPolyline
 62
253
  6
CONTINUOUS
 90
16
 70
0
 10
29.6329943408
 20
19.2575351956
 10
29.6335627325
 20
19.231782751
 10
29.6355038576
 20
19.2053564969
 10
29.6388089136
 20
19.1783576101
 10
29.6434641506
 20
19.1508862322
 10
29.6494508205
 20
19.1230508312
 10
29.6567438556
 20
19.0949681642
 10
29.6653107343
 20
19.0667558751
 10
29.6751187089
 20
19.0385124995
 10
29.6861365502
 20
19.0103270371
 10
29.6983269439
 20
18.9823004066
 10
29.7116410772
 20
18.9545477411
 10
29.7260259528
 20
18.9271786139
 10
29.7414263063
 20
18.9002994413
 10
29.7577852432
 20
18.8740132037
 10
29.8772878982
 20
18.6967993082
  0
LWPOLYLINE
  5
3D5
100
AcDbEntity
  8
RACCORDO
100
AcDbPolyline
 62
253
  6
CONTINUOUS
 90
10
 70
0
 10
28.0260490277
 20
-49.4843073343
 10
28.0259510277
 20
-49.4792513899
 10
28.0263324717
 20
-49.4739877546
 10
28.0271882024
 20
-49.4685876095
 10
28.0285066483
 20
-49.4631239818
 10
28.0302699809
 20
-49.4576707579
 10
28.0324543544
 20
-49.4523016841
 10
28.0350302295
 20
-49.4470893685
 10
28.0379627725
 20
-49.4421042992
 10
28.0412123261
 20
-49.4374138913
  0
LWPOLYLINE
  5
3D6
100
AcDbEntity
  8
RACCORDO
100
AcDbPolyline
 62
253
  6
CONTINUOUS
 90
10
 70
0
 10
28.0260490277
 20
15.8333148091
 10
28.0259510277
 20
15.8383707535
 10
28.0263324717
 20
15.8436343888
 10
28.0271882024
 20
15.8490345339
 10
28.0285066483
 20
15.8544981616
 10
28.0302699809
 20
15.8599513855
 10
28.0324543544
 20
15.8653204593
 10
28.0350302295
 20
15.8705327749
 10
28.0379627725
 20
15.8755178442
 10
28.0412123261
 20
15.8802082522
  0
LINE
  5
3D7
100
AcDbEntity
  8
RACCORDO
100
AcDbLine
 62
253
  6
CONTINUOUS
 10
29.0321350731
 20
-48.7686708123
 11
29.0325008661
 21
-48.7919970762
  0
LINE
  5
3D8
100
AcDbEntity
  8
RACCORDO
100
AcDbLine
 62
253
  6
CONTINUOUS
 10
29.0321350731
 20
16.5489513312
 11
29.0325008661
 21
16.5256250672
  0
LINE
  5
3D9
100
AcDbEntity
  8
RACCORDO
100
AcDbLine
 62
253
  6
CONTINUOUS
 10
25.4592291534
 20
4.7902492969
 11
25.4592291534
 21
-31.8163256838
  0
LINE
  5
3DA
100
AcDbEntity
  8
ASSI
100
AcDbLine
 62
7
  6
CONTINUOUS
 10
25.6732604246
 20
31.9667527166
 11
25.6732604246
 21
8.830721931
  0
LINE
  5
3DB
100
AcDbEntity
  8
RACCORDO
100
AcDbLine
 62
7
  6
CONTINUOUS
 10
25.6732604246
 20
-32.6687659963
 11
25.6732604246
 21
-59.8871481659
  0
LINE
  5
3DC
100
AcDbEntity
  8
RACCORDO
100
AcDbLine
 62
7
  6
CONTINUOUS
 10
25.8146817808
 20
-48.5032221892
 11
25.8146817808
 21
-48.2067137961
  0
LINE
  5
3DD
100
AcDbEntity
  8
RACCORDO
100
AcDbLine
 62
7
  6
CONTINUOUS
 10
25.8146817808
 20
-45.6845431459
 11
25.8146817808
 21
-45.3880347528
  0
LINE
  5
3DE
100
AcDbEntity
  8
RACCORDO
100
AcDbLine
 62
7
  6
CONTINUOUS
 10
25.8146817808
 20
16.8143999542
 11
25.8146817808
 21
17.1109083473
  0
LINE
  5
3DF
100
AcDbEntity
  8
RACCORDO
100
AcDbLine
 62
7
  6
CONTINUOUS
 10
25.8146817808
 20
19.6330789975
 11
25.8146817808
 21
19.9295873906
  0
LINE
  5
3E0
100
AcDbEntity
  8
RACCORDO
100
AcDbLine
 62
253
  6
CONTINUOUS
 10
26.1537817241
 20
4.7832493629
 11
26.1537817241
 21
-31.8233256178
  0
LINE
  5
3E1
100
AcDbEntity
  8
RACCORDO
100
AcDbLine
 62
7
  6
CONTINUOUS
 10
26.5716714878
 20
-52.0945685966
 11
26.5716714878
 21
-50.1604541334
  0
LINE
  5
3E2
100
AcDbEntity
  8
RACCORDO
100
AcDbLine
 62
7
  6
CONTINUOUS
 10
26.5716714935
 20
-44.4614923532
 11
26.5716714878
 21
-42.5273440642
  0
LINE
  5
3E3
100
AcDbEntity
  8
RACCORDO
100
AcDbLine
 62
7
  6
CONTINUOUS
 10
26.5716714878
 20
13.2230535468
 11
26.5716714878
 21
15.15716801
  0
LINE
  5
3E4
100
AcDbEntity
  8
RACCORDO
100
AcDbLine
 62
7
  6
CONTINUOUS
 10
26.5716714935
 20
20.8561298594
 11
26.5716714878
 21
22.7902780792
  0
LINE
  5
3E5
100
AcDbEntity
  8
RACCORDO
100
AcDbLine
 62
253
  6
CONTINUOUS
 10
26.6595394534
 20
-52.2170509746
 11
26.6595394535
 21
-50.2829365116
  0
LINE
  5
3E6
100
AcDbEntity
  8
RACCORDO
100
AcDbLine
 62
253
  6
CONTINUOUS
 10
26.6595394542
 20
-44.5839408905
 11
26.6595394534
 21
-42.6498264307
  0
LINE
  5
3E7
100
AcDbEntity
  8
RACCORDO
100
AcDbLine
 62
253
  6
CONTINUOUS
 10
26.6595394534
 20
13.1005711688
 11
26.6595394535
 21
15.0346856318
  0
LINE
  5
3E8
100
AcDbEntity
  8
RACCORDO
100
AcDbLine
 62
253
  6
CONTINUOUS
 10
26.6595394534
 20
20.733681249
 11
26.6595394534
 21
22.6677957127
  0
LINE
  5
3E9
100
AcDbEntity
  8
RACCORDO
100
AcDbLine
 62
253
  6
CONTINUOUS
 10
26.8506244494
 20
-60.9461656404
 11
26.8506244494
 21
-52.5954486224
  0
LINE
  5
3EA
100
AcDbEntity
  8
RACCORDO
100
AcDbLine
 62
253
  6
CONTINUOUS
 10
26.8506244494
 20
-42.1525502704
 11
26.8506244494
 21
-31.6511151088
  0
LINE
  5
3EB
100
AcDbEntity
  8
RACCORDO
100
AcDbLine
 62
253
  6
CONTINUOUS
 10
26.8506244494
 20
6.4534805793
 11
26.8506244494
 21
12.722173521
  0
LINE
  5
3EC
100
AcDbEntity
  8
RACCORDO
100
AcDbLine
 62
253
  6
CONTINUOUS
 10
26.8506244494
 20
23.165071873
 11
26.8506244494
 21
31.666179727
  0
LINE
  5
3ED
100
AcDbEntity
  8
RACCORDO
100
AcDbLine
 62
7
  6
CONTINUOUS
 10
27.2642506822
 20
-31.2433451427
 11
27.2642506822
 21
5.3990718856
  0
LINE
  5
3EE
100
AcDbEntity
  8
RACCORDO
100
AcDbLine
 62
253
  6
CONTINUOUS
 10
27.2711539949
 20
-60.948284598
 11
27.2711539949
 21
-52.8205290823
  0
LINE
  5
3EF
100
AcDbEntity
  8
RACCORDO
100
AcDbLine
 62
253
  6
CONTINUOUS
 10
27.2711539949
 20
-42.1041694909
 11
27.2711539949
 21
12.4970930611
  0
LINE
  5
3F0
100
AcDbEntity
  8
RACCORDO
100
AcDbLine
 62
253
  6
CONTINUOUS
 10
27.2711539949
 20
23.2134526525
 11
27.2711539949
 21
31.6640607694
  0
LINE
  5
3F1
100
AcDbEntity
  8
RACCORDO
100
AcDbLine
 62
7
  6
CONTINUOUS
 10
28.7138195837
 20
32.4970350375
 11
28.7138195837
 21
24.0465054966
  0
LINE
  5
3F2
100
AcDbEntity
  8
DRAFT
100
AcDbLine
 62
7
  6
CONTINUOUS
 10
28.7138195837
 20
12.0650857531
 11
28.7138195837
 21
-41.2711166469
  0
LINE
  5
3F3
100
AcDbEntity
  8
RACCORDO
100
AcDbLine
 62
7
  6
CONTINUOUS
 10
28.7138195837
 20
-53.2525363903
 11
28.7138195837
 21
-60.1724657308
  0
LWPOLYLINE
  5
3F4
100
AcDbEntity
  8
RACCORDO
100
AcDbPolyline
 62
7
  6
CONTINUOUS
 90
5
 70
0
 10
29.0178576606
 20
-48.7942946314
 10
29.0178573917
 20
-48.7719573962
 10
29.017503449
 20
-48.7493991492
 10
29.016795311
 20
-48.7266272528
 10
29.0157326271
 20
-48.7036501764
  0
LWPOLYLINE
  5
3F5
100
AcDbEntity
  8
RACCORDO
100
AcDbPolyline
 62
7
  6
CONTINUOUS
 90
5
 70
0
 10
29.0178576606
 20
16.523327512
 10
29.0178573917
 20
16.5456647473
 10
29.017503449
 20
16.5682229942
 10
29.016795311
 20
16.5909948906
 10
29.0157326271
 20
16.613971967
  0
LWPOLYLINE
  5
3F6
100
AcDbEntity
  8
RACCORDO
100
AcDbPolyline
 62
253
  6
CONTINUOUS
 90
5
 70
0
 10
29.0325008661
 20
16.5256250672
 10
29.0325008545
 20
16.5025042561
 10
29.0321350474
 20
16.4796005297
 10
29.0314034476
 20
16.4569177654
 10
29.0303060523
 20
16.4344520858
  0
LWPOLYLINE
  5
3F7
100
AcDbEntity
  8
RACCORDO
100
AcDbPolyline
 62
253
  6
CONTINUOUS
 90
5
 70
0
 10
29.0325008661
 20
-48.7919970762
 10
29.0325008545
 20
-48.8151178874
 10
29.0321350474
 20
-48.8380216138
 10
29.0314034476
 20
-48.8607043781
 10
29.0303060523
 20
-48.8831700576
  0
LINE
  5
3F8
100
AcDbEntity
  8
RACCORDO
100
AcDbLine
 62
253
  6
CONTINUOUS
 10
29.0977586822
 20
-16.7760207676
 11
29.0977586822
 21
-10.4402938431
  0
LINE
  5
3F9
100
AcDbEntity
  8
RACCORDO
100
AcDbLine
 62
7
  6
CONTINUOUS
 10
29.1398577122
 20
-16.6322543366
 11
29.1398577122
 21
-10.463734163
  0
LINE
  5
3FA
100
AcDbEntity
  8
RACCORDO
100
AcDbLine
 62
253
  6
CONTINUOUS
 10
29.2124647953
 20
20.4675538986
 11
29.2124647952
 21
19.2596541531
  0
LINE
  5
3FB
100
AcDbEntity
  8
RACCORDO
100
AcDbLine
 62
253
  6
CONTINUOUS
 10
29.2124647953
 20
13.5606585359
 11
29.2124647953
 21
12.3527587896
  0
LINE
  5
3FC
100
AcDbEntity
  8
RACCORDO
100
AcDbLine
 62
253
  6
CONTINUOUS
 10
29.2124647953
 20
-44.8500682449
 11
29.2124647951
 21
-46.05796799
  0
LINE
  5
3FD
100
AcDbEntity
  8
RACCORDO
100
AcDbLine
 62
253
  6
CONTINUOUS
 10
29.2124647953
 20
-51.7569636076
 11
29.2124647953
 21
-52.9648633538
  0
LINE
  5
3FE
100
AcDbEntity
  8
RACCORDO
100
AcDbLine
 62
253
  6
CONTINUOUS
 10
29.5411815359
 20
34.5220039469
 11
29.5411815359
 21
33.7201120265
  0
LINE
  5
3FF
100
AcDbEntity
  8
RACCORDO
100
AcDbLine
 62
253
  6
CONTINUOUS
 10
29.5411815359
 20
-10.2155494938
 11
29.5411815359
 21
-16.0586796625
  0
LINE
  5
400
100
AcDbEntity
  8
RACCORDO
100
AcDbLine
 62
7
  6
CONTINUOUS
 10
29.5762748694
 20
34.5776745734
 11
29.5762748694
 21
33.6945604376
  0
LINE
  5
401
100
AcDbEntity
  8
RACCORDO
100
AcDbLine
 62
7
  6
CONTINUOUS
 10
29.5762748694
 20
-10.1938472499
 11
29.5762748694
 21
-16.0789421135
  0
LINE
  5
402
100
AcDbEntity
  8
RACCORDO
100
AcDbLine
 62
253
  6
CONTINUOUS
 10
29.6329943408
 20
20.465434941
 11
29.6329943409
 21
19.2575351955
  0
LINE
  5
403
100
AcDbEntity
  8
RACCORDO
100
AcDbLine
 62
253
  6
CONTINUOUS
 10
29.6329943408
 20
13.5585395783
 11
29.6329943408
 21
12.350639832
  0
LINE
  5
404
100
AcDbEntity
  8
RACCORDO
100
AcDbLine
 62
253
  6
CONTINUOUS
 10
29.6329943408
 20
-44.8521872024
 11
29.6329943409
 21
-46.0600869476
  0
LINE
  5
405
100
AcDbEntity
  8
RACCORDO
100
AcDbLine
 62
253
  6
CONTINUOUS
 10
29.6329943408
 20
-51.7590825652
 11
29.6329943408
 21
-52.9669823114
  0
LINE
  5
406
100
AcDbEntity
  8
RACCORDO
100
AcDbLine
 62
7
  6
CONTINUOUS
 10
29.6367611776
 20
-52.9649233718
 11
29.6367611776
 21
-51.7570196801
  0
LINE
  5
407
100
AcDbEntity
  8
RACCORDO
100
AcDbLine
 62
7
  6
CONTINUOUS
 10
29.6367611776
 20
-46.0579492329
 11
29.6367611776
 21
-44.8500455418
  0
LINE
  5
408
100
AcDbEntity
  8
RACCORDO
100
AcDbLine
 62
7
  6
CONTINUOUS
 10
29.6367611776
 20
12.3526987716
 11
29.6367611776
 21
13.5606024633
  0
LINE
  5
409
100
AcDbEntity
  8
RACCORDO
100
AcDbLine
 62
7
  6
CONTINUOUS
 10
29.6367611776
 20
19.2596729103
 11
29.6367611776
 21
20.4675766016
  0
LINE
  5
40A
100
AcDbEntity
  8
RACCORDO
100
AcDbLine
 62
253
  6
CONTINUOUS
 10
29.7925228686
 20
-59.5053794385
 11
29.7925228686
 21
-53.1451767986
  0
LINE
  5
40B
100
AcDbEntity
  8
RACCORDO
100
AcDbLine
 62
253
  6
CONTINUOUS
 10
29.7925228686
 20
-40.6483317996
 11
29.7925228686
 21
-16.3748942814
  0
LINE
  5
40C
100
AcDbEntity
  8
RACCORDO
100
AcDbLine
 62
253
  6
CONTINUOUS
 10
29.7925228686
 20
-10.0106181869
 11
29.7925228686
 21
12.1724453448
  0
LINE
  5
40D
100
AcDbEntity
  8
RACCORDO
100
AcDbLine
 62
253
  6
CONTINUOUS
 10
29.7925228686
 20
24.6692903438
 11
29.7925228686
 21
33.1198669335
  0
LINE
  5
40E
100
AcDbEntity
  8
RACCORDO
100
AcDbLine
 62
7
  6
CONTINUOUS
 10
29.8346218986
 20
-59.4452163833
 11
29.8346218986
 21
-53.131837066
  0
LINE
  5
40F
100
AcDbEntity
  8
RACCORDO
100
AcDbLine
 62
7
  6
CONTINUOUS
 10
29.8346218986
 20
-40.6242991122
 11
29.8346218986
 21
-16.3147082009
  0
LINE
  5
410
100
AcDbEntity
  8
RACCORDO
100
AcDbLine
 62
7
  6
CONTINUOUS
 10
29.8346218986
 20
-9.950478193
 11
29.8346218986
 21
12.1857850774
  0
LINE
  5
411
100
AcDbEntity
  8
RACCORDO
100
AcDbLine
 62
7
  6
CONTINUOUS
 10
29.8346218986
 20
24.6933230312
 11
29.8346218986
 21
33.1800299847
  0
LWPOLYLINE
  5
412
100
AcDbEntity
  8
RACCORDO
100
AcDbPolyline
 62
7
  6
CONTINUOUS
 90
23
 70
0
 10
25.8146817808
 20
19.9295873906
 10
25.815059079
 20
19.9589294546
 10
25.8161293279
 20
19.9879046921
 10
25.8178925275
 20
20.0165131031
 10
25.8203683755
 20
20.0448426603
 10
25.8235371742
 20
20.072805391
 10
25.8273398305
 20
20.1001373771
 10
25.8317730517
 20
20.1267854326
 10
25.8368401305
 20
20.1528027435
 10
25.8424918524
 20
20.17808495
 10
25.8487067527
 20
20.2025991096
 10
25.8555062961
 20
20.2263781647
 10
25.8629056621
 20
20.2494165822
 10
25.8709506167
 20
20.2718467201
 10
25.8795953939
 20
20.2935362204
 10
25.8887178746
 20
20.3140824755
 10
25.8983230816
 20
20.3334437873
 10
25.9084059923
 20
20.3516618539
 10
25.9188294188
 20
20.3684591621
 10
25.9296175076
 20
20.3838259579
 10
25.9407461124
 20
20.3977719953
 10
25.9520056067
 20
20.410049023
 10
25.958811137
 20
20.4165909014
  0
LWPOLYLINE
  5
413
100
AcDbEntity
  8
RACCORDO
100
AcDbPolyline
 62
7
  6
CONTINUOUS
 90
23
 70
0
 10
25.8146817808
 20
-45.3880347528
 10
25.815059079
 20
-45.3586926888
 10
25.8161293279
 20
-45.3297174513
 10
25.8178925275
 20
-45.3011090403
 10
25.8203683755
 20
-45.2727794831
 10
25.8235371742
 20
-45.2448167524
 10
25.8273398305
 20
-45.2174847664
 10
25.8317730517
 20
-45.1908367108
 10
25.8368401305
 20
-45.1648193999
 10
25.8424918524
 20
-45.1395371935
 10
25.8487067527
 20
-45.1150230338
 10
25.8555062961
 20
-45.0912439787
 10
25.8629056621
 20
-45.0682055612
 10
25.8709506167
 20
-45.0457754233
 10
25.8795953939
 20
-45.0240859231
 10
25.8887178746
 20
-45.003539668
 10
25.8983230816
 20
-44.9841783562
 10
25.9084059922
 20
-44.9659602895
 10
25.9188294188
 20
-44.9491629813
 10
25.9296175076
 20
-44.9337961855
 10
25.9407461124
 20
-44.9198501481
 10
25.9520056067
 20
-44.9075731204
 10
25.958811137
 20
-44.901031242
  0
LWPOLYLINE
  5
414
100
AcDbEntity
  8
RACCORDO
100
AcDbPolyline
 62
7
  6
CONTINUOUS
 90
10
 70
0
 10
25.8146817808
 20
17.1109083473
 10
25.8154291727
 20
17.1599316096
 10
25.8174333513
 20
17.2113440339
 10
25.8206943167
 20
17.2651456202
 10
25.8252414899
 20
17.3213745543
 10
25.8310454499
 20
17.3799926504
 10
25.8380179333
 20
17.4408853514
 10
25.8461295191
 20
17.5040144715
 10
25.8554096284
 20
17.5694181965
 10
25.8839122734
 20
17.756714866
  0
LWPOLYLINE
  5
415
100
AcDbEntity
  8
RACCORDO
100
AcDbPolyline
 62
7
  6
CONTINUOUS
 90
10
 70
0
 10
25.8146817808
 20
-48.2067137961
 10
25.8154291727
 20
-48.1576905339
 10
25.8174333513
 20
-48.1062781096
 10
25.8206943167
 20
-48.0524765232
 10
25.8252414899
 20
-47.9962475892
 10
25.8310454499
 20
-47.937629493
 10
25.8380179333
 20
-47.8767367921
 10
25.8461295191
 20
-47.8136076719
 10
25.8554096284
 20
-47.7482039469
 10
25.8839122734
 20
-47.5609072774
  0
LINE
  5
416
100
AcDbEntity
  8
RACCORDO
100
AcDbLine
 62
7
  6
CONTINUOUS
 10
29.0175048703
 20
16.5012176603
 11
29.0178576606
 21
16.523327512
  0
LINE
  5
417
100
AcDbEntity
  8
RACCORDO
100
AcDbLine
 62
7
  6
CONTINUOUS
 10
29.0175048703
 20
-48.8164044832
 11
29.0178576606
 21
-48.7942946314
  0
LWPOLYLINE
  5
418
100
AcDbEntity
  8
RACCORDO
100
AcDbPolyline
 62
7
  6
CONTINUOUS
 90
13
 70
0
 10
29.13988246
 20
-16.632259379
 10
29.1397652746
 20
-16.6391542597
 10
29.138919744
 20
-16.6520236312
 10
29.1373824378
 20
-16.6649656895
 10
29.1351645935
 20
-16.6779331396
 10
29.1322617438
 20
-16.6908706556
 10
29.1287917274
 20
-16.7037058744
 10
29.1247656397
 20
-16.7164074445
 10
29.1201901137
 20
-16.7289296642
 10
29.1151759154
 20
-16.7411846374
 10
29.1097706668
 20
-16.7531250775
 10
29.1039587463
 20
-16.7647442722
 10
29.0977586822
 20
-16.7760207676
  0
LWPOLYLINE
  5
419
100
AcDbEntity
  8
RACCORDO
100
AcDbPolyline
 62
7
  6
CONTINUOUS
 90
9
 70
0
 10
26.5716703527
 20
20.8561298618
 10
26.5713360143
 20
20.8390421381
 10
26.5701330326
 20
20.8203584199
 10
26.5681551918
 20
20.803398534
 10
26.5655128081
 20
20.7881963345
 10
26.5623776201
 20
20.7750039556
 10
26.5590553195
 20
20.7642598664
 10
26.5558666723
 20
20.7560623067
 10
26.5544022779
 20
20.7528591691
  0
LWPOLYLINE
  5
41A
100
AcDbEntity
  8
RACCORDO
100
AcDbPolyline
 62
7
  6
CONTINUOUS
 90
9
 70
0
 10
26.5716703657
 20
-44.4614923509
 10
26.5713360278
 20
-44.4785800105
 10
26.5701330425
 20
-44.4972636035
 10
26.5681552125
 20
-44.5142234559
 10
26.5655128364
 20
-44.5294256926
 10
26.5623776339
 20
-44.542618116
 10
26.5590553204
 20
-44.5533622389
 10
26.5558666927
 20
-44.5615598084
 10
26.5544023169
 20
-44.5647629307
  0
LWPOLYLINE
  5
41B
100
AcDbEntity
  8
RACCORDO
100
AcDbPolyline
 62
253
  6
CONTINUOUS
 90
8
 70
0
 10
28.026049028
 20
18.3570410676
 10
28.025951029
 20
18.3526503926
 10
28.026332476
 20
18.3485951543
 10
28.0271882106
 20
18.3449301929
 10
28.0285066606
 20
18.3417050709
 10
28.0302699964
 20
18.3389634028
 10
28.032454372
 20
18.3367422651
 10
28.033501214
 20
18.3359648427
  0
LWPOLYLINE
  5
41C
100
AcDbEntity
  8
RACCORDO
100
AcDbPolyline
 62
253
  6
CONTINUOUS
 90
8
 70
0
 10
28.026049028
 20
-46.9605810758
 10
28.025951029
 20
-46.9649717508
 10
28.026332476
 20
-46.9690269891
 10
28.0271882106
 20
-46.9726919505
 10
28.0285066606
 20
-46.9759170725
 10
28.0302699964
 20
-46.9786587406
 10
28.032454372
 20
-46.9808798783
 10
28.033501214
 20
-46.9816573007
  0
LWPOLYLINE
  5
41D
100
AcDbEntity
  8
RACCORDO
100
AcDbPolyline
 62
253
  6
CONTINUOUS
 90
31
 70
0
 10
30.2340991632
 20
15.89202598
 10
30.2310348716
 20
15.7586754391
 10
30.2218503863
 20
15.629228867
 10
30.2065708794
 20
15.5040411618
 10
30.1852382529
 20
15.3834555687
 10
30.1579109643
 20
15.2678024794
 10
30.1246638043
 20
15.1573985646
 10
30.0855877686
 20
15.0525462956
 10
30.040789965
 20
14.95353333
 10
29.9903932642
 20
14.8606313413
 10
29.9345357904
 20
14.7740949801
 10
29.8733706399
 20
14.6941614556
 10
29.8070656364
 20
14.6210500587
 10
29.735802658
 20
14.5549612348
 10
29.6597769698
 20
14.4960759755
 10
29.5791968368
 20
14.4445555538
 10
29.4942830268
 20
14.4005411313
 10
29.4052683784
 20
14.3641534074
 10
29.3123970435
 20
14.3354921556
 10
29.2159237275
 20
14.3146359099
 10
29.1161127571
 20
14.3016417458
 10
29.013237494
 20
14.296545229
 10
28.9075798234
 20
14.2993603388
 10
28.799429422
 20
14.3100793709
 10
28.6890827377
 20
14.3286729464
 10
28.5768422134
 20
14.3550901045
 10
28.4630154976
 20
14.389258438
 10
28.3479146212
 20
14.4310842785
 10
28.2318550808
 20
14.4804529711
 10
28.1151549718
 20
14.5372291978
 10
27.9981341587
 20
14.601257333
  0
LWPOLYLINE
  5
41E
100
AcDbEntity
  8
RACCORDO
100
AcDbPolyline
 62
7
  6
CONTINUOUS
 90
9
 70
0
 10
29.8346218985
 20
-9.9504758704
 10
29.8344572085
 20
-9.9575052773
 10
29.8329612484
 20
-9.9727366133
 10
29.8299124394
 20
-9.9877697303
 10
29.825324002
 20
-10.0024677889
 10
29.8192238546
 20
-10.0166772371
 10
29.8116621123
 20
-10.030232717
 10
29.8027029571
 20
-10.0429815099
 10
29.7924225476
 20
-10.0547807341
  0
LWPOLYLINE
  5
41F
100
AcDbEntity
  8
ASSI
100
AcDbPolyline
 62
253
  6
CONTINUOUS
 90
25
 70
0
 10
23.8682388958
 20
-60.434784552
 10
23.8674721208
 20
-60.4611100768
 10
23.8652234891
 20
-60.4862725937
 10
23.8614930006
 20
-60.5102721026
 10
23.8562524071
 20
-60.5332117329
 10
23.8495299569
 20
-60.5549883552
 10
23.8414103943
 20
-60.5752925811
 10
23.8318759052
 20
-60.5940956738
 10
23.8209443037
 20
-60.6114263701
 10
23.8087537774
 20
-60.6270614924
 10
23.7952871686
 20
-60.6409792958
 10
23.780561635
 20
-60.6532015252
 10
23.7647668368
 20
-60.6635702378
 10
23.7478891645
 20
-60.6720608156
 10
23.7299422276
 20
-60.6786978765
 10
23.7111565152
 20
-60.6833973321
 10
23.6915214641
 20
-60.6861338563
 10
23.6710476374
 20
-60.686932775
 10
23.649997213
 20
-60.6857859779
 10
23.6283542352
 20
-60.6826637567
 10
23.6061346596
 20
-60.6775958196
 10
23.5836485318
 20
-60.6706631803
 10
23.5609992003
 20
-60.6618928434
 10
23.5380833164
 20
-60.6512578042
 10
23.5149008803
 20
-60.6387580628
  0
LWPOLYLINE
  5
420
100
AcDbEntity
  8
RACCORDO
100
AcDbPolyline
 62
7
  6
CONTINUOUS
 90
13
 70
0
 10
29.6367611776
 20
12.3526987716
 10
29.6359332813
 20
12.3254841787
 10
29.6335306655
 20
12.2995354337
 10
29.6295533301
 20
12.2748525365
 10
29.6239660366
 20
12.2513262103
 10
29.6168040235
 20
12.229065732
 10
29.6081730065
 20
12.2083989326
 10
29.598062628
 20
12.189364418
 10
29.5864832454
 20
12.1719235823
 10
29.5735716474
 20
12.156288439
 10
29.5592923136
 20
12.1424676623
 10
29.5436807643
 20
12.1304525781
 10
29.5298371271
 20
12.1219579715
  0
LWPOLYLINE
  5
421
100
AcDbEntity
  8
RACCORDO
100
AcDbPolyline
 62
253
  6
CONTINUOUS
 90
16
 70
0
 10
29.2124647953
 20
12.3527587896
 10
29.2121328766
 20
12.3418693875
 10
29.211171385
 20
12.3314879707
 10
29.2095803205
 20
12.3216145392
 10
29.207346654
 20
12.3122072845
 10
29.2044834146
 20
12.3033080151
 10
29.2010296893
 20
12.2950421567
 10
29.1969775321
 20
12.2874199869
 10
29.1923348888
 20
12.2804312281
 10
29.1871646846
 20
12.2741704741
 10
29.1814580995
 20
12.2686472591
 10
29.1752239534
 20
12.2638520488
 10
29.1685516306
 20
12.2598508344
 10
29.161470926
 20
12.2566656129
 10
29.1539520448
 20
12.2542743873
 10
29.1459949869
 20
12.2526771576
  0
LWPOLYLINE
  5
422
100
AcDbEntity
  8
RACCORDO
100
AcDbPolyline
 62
253
  6
CONTINUOUS
 90
4
 70
0
 10
26.8881543936
 20
17.8063217319
 10
26.8888657586
 20
17.8283811339
 10
26.8899325093
 20
17.8502165853
 10
26.8913542897
 20
17.8718207983
  0
LWPOLYLINE
  5
423
100
AcDbEntity
  8
RACCORDO
100
AcDbPolyline
 62
253
  6
CONTINUOUS
 90
4
 70
0
 10
26.8881543936
 20
-47.5113004116
 10
26.8888657586
 20
-47.4892410095
 10
26.8899325093
 20
-47.4674055581
 10
26.8913542897
 20
-47.4458013451
  0
LINE
  5
424
100
AcDbEntity
  8
RACCORDO
100
AcDbLine
 62
7
  6
CONTINUOUS
 10
29.0167997314
 20
16.4793425132
 11
29.0175048703
 21
16.5012176603
  0
LWPOLYLINE
  5
425
100
AcDbEntity
  8
RACCORDO
100
AcDbPolyline
 62
253
  6
CONTINUOUS
 90
9
 70
0
 10
29.7925228686
 20
-10.0106412486
 10
29.7921189033
 20
-10.0230330797
 10
29.7905302336
 20
-10.0346252538
 10
29.78777438
 20
-10.0452900245
 10
29.7838811916
 20
-10.0549109567
 10
29.7788938572
 20
-10.0633806681
 10
29.7728697145
 20
-10.0706034388
 10
29.7658779301
 20
-10.0764999077
 10
29.7635184839
 20
-10.07805299
  0
LWPOLYLINE
  5
426
100
AcDbEntity
  8
RACCORDO
100
AcDbPolyline
 62
253
  6
CONTINUOUS
 90
22
 70
0
 10
26.6595394534
 20
22.6677957127
 10
26.6599394886
 20
22.6797140432
 10
26.661091656
 20
22.6910095821
 10
26.6629959555
 20
22.7016823293
 10
26.6656710678
 20
22.7117860542
 10
26.6690983123
 20
22.7212669874
 10
26.6732216471
 20
22.7299638213
 10
26.678052294
 20
22.7378613737
 10
26.6835790312
 20
22.7449748267
 10
26.6897121515
 20
22.751188419
 10
26.6964616127
 20
22.7564873969
 10
26.7038174569
 20
22.760886514
 10
26.7116601032
 20
22.7643142703
 10
26.7199975299
 20
22.76675471
 10
26.7288217587
 20
22.7682237889
 10
26.737989273
 20
22.7686978737
 10
26.747508385
 20
22.7681593887
 10
26.7573707825
 20
22.7666259097
 10
26.7674080127
 20
22.764126531
 10
26.7775639246
 20
22.7606709507
 10
26.7878946692
 20
22.7562494706
 10
26.7984002465
 20
22.7508620909
  0
LWPOLYLINE
  5
427
100
AcDbEntity
  8
RACCORDO
100
AcDbPolyline
 62
253
  6
CONTINUOUS
 90
22
 70
0
 10
26.6595394534
 20
-42.6498264307
 10
26.6599394886
 20
-42.6379081002
 10
26.661091656
 20
-42.6266125614
 10
26.6629959555
 20
-42.6159398141
 10
26.6656710678
 20
-42.6058360893
 10
26.6690983123
 20
-42.596355156
 10
26.6732216471
 20
-42.5876583221
 10
26.678052294
 20
-42.5797607698
 10
26.6835790312
 20
-42.5726473167
 10
26.6897121515
 20
-42.5664337244
 10
26.6964616127
 20
-42.5611347465
 10
26.7038174569
 20
-42.5567356294
 10
26.7116601032
 20
-42.5533078732
 10
26.7199975299
 20
-42.5508674334
 10
26.7288217587
 20
-42.5493983545
 10
26.737989273
 20
-42.5489242697
 10
26.747508385
 20
-42.5494627547
 10
26.7573707825
 20
-42.5509962337
 10
26.7674080127
 20
-42.5534956124
 10
26.7775639246
 20
-42.5569511927
 10
26.7878946692
 20
-42.5613726728
 10
26.7984002465
 20
-42.5667600526
  0
LWPOLYLINE
  5
428
100
AcDbEntity
  8
RACCORDO
100
AcDbPolyline
 62
253
  6
CONTINUOUS
 90
10
 70
0
 10
29.6329943408
 20
12.350639832
 10
29.632057615
 20
12.3235008096
 10
29.6295319773
 20
12.2974265132
 10
29.6254296778
 20
12.2725355395
 10
29.6197705079
 20
12.2489420267
 10
29.6125805445
 20
12.2267519999
 10
29.6038914255
 20
12.2060634702
 10
29.5937417963
 20
12.1869695385
 10
29.5821784374
 20
12.1695587517
 10
29.5692547949
 20
12.1539115629
  0
LWPOLYLINE
  5
429
100
AcDbEntity
  8
RACCORDO
100
AcDbPolyline
 62
253
  6
CONTINUOUS
 90
19
 70
0
 10
24.5027660694
 20
-33.2800967923
 10
24.5042273611
 20
-33.2402588975
 10
24.508068266
 20
-33.2021702178
 10
24.5141469942
 20
-33.1658203035
 10
24.5224836161
 20
-33.1311270515
 10
24.5327792209
 20
-33.0981097413
 10
24.5444278953
 20
-33.0669004608
 10
24.5572731722
 20
-33.0374793454
 10
24.5712352802
 20
-33.0097629272
 10
24.585851569
 20
-32.9837980783
 10
24.6008222815
 20
-32.9598133254
 10
24.6162408236
 20
-32.9374449322
 10
24.6323461699
 20
-32.915970845
 10
24.6491843735
 20
-32.89543824
 10
24.6667149265
 20
-32.875897655
 10
24.6852404609
 20
-32.8568866133
 10
24.7049750865
 20
-32.8384577039
 10
24.7259294946
 20
-32.8210220223
 10
24.7481989904
 20
-32.8048177705
  0
LWPOLYLINE
  5
42A
100
AcDbEntity
  8
RACCORDO
100
AcDbPolyline
 62
253
  6
CONTINUOUS
 90
13
 70
0
 10
26.1537817241
 20
-31.8233256178
 10
26.1527132716
 20
-31.8496509503
 10
26.1501974082
 20
-31.8749954562
 10
26.146240008
 20
-31.8992476768
 10
26.1408505929
 20
-31.922309654
 10
26.1340488583
 20
-31.9440679455
 10
26.1258705045
 20
-31.9643998998
 10
26.116356127
 20
-31.9832102536
 10
26.1055434261
 20
-32.0004293336
 10
26.0934768469
 20
-32.0159869382
 10
26.0802070181
 20
-32.0298170623
 10
26.065791342
 20
-32.041859217
 10
26.0502914154
 20
-32.0520615978
  0
LWPOLYLINE
  5
42B
100
AcDbEntity
  8
RACCORDO
100
AcDbPolyline
 62
253
  6
CONTINUOUS
 90
16
 70
0
 10
26.7092246323
 20
31.9110913941
 10
26.7103610562
 20
31.9370674081
 10
26.7137581518
 20
31.9640774209
 10
26.7193795216
 20
31.9918320389
 10
26.7271649366
 20
32.0200338907
 10
26.7370309814
 20
32.0483808129
 10
26.7488719482
 20
32.0765690879
 10
26.7625609692
 20
32.1042966979
 10
26.7779513761
 20
32.1312665608
 10
26.7948782713
 20
32.1571897131
 10
26.8131602949
 20
32.1817884063
 10
26.8326015676
 20
32.2047990824
 10
26.8529937896
 20
32.225975198
 10
26.8741184724
 20
32.2450898657
 10
26.8957492796
 20
32.2619382852
 10
26.9176544522
 20
32.2763399372
  0
LWPOLYLINE
  5
42C
100
AcDbEntity
  8
ASSI
100
AcDbPolyline
 62
253
  6
CONTINUOUS
 90
14
 70
0
 10
24.5627914664
 20
-60.441784486
 10
24.560476877
 20
-60.4947089512
 10
24.5551951365
 20
-60.5456284829
 10
24.5469725074
 20
-60.5943240844
 10
24.5358501792
 20
-60.6405842206
 10
24.52187633
 20
-60.6842125755
 10
24.5051052424
 20
-60.7250282356
 10
24.4856089847
 20
-60.7628572367
 10
24.4634739388
 20
-60.7975348802
 10
24.4387924975
 20
-60.8289132128
 10
24.4116709493
 20
-60.8568577358
 10
24.382226784
 20
-60.8812488463
 10
24.3505844428
 20
-60.9019832931
 10
24.3331964391
 20
-60.9113450475
  0
LINE
  5
42D
100
AcDbEntity
  8
RACCORDO
100
AcDbLine
 62
7
  6
CONTINUOUS
 10
25.935547551
 20
-47.000414952
 11
25.9303769091
 21
-47.1076909372
  0
LINE
  5
42E
100
AcDbEntity
  8
RACCORDO
100
AcDbLine
 62
7
  6
CONTINUOUS
 10
29.015743127
 20
16.4577102153
 11
29.0167997314
 21
16.4793425132
  0
LWPOLYLINE
  5
42F
100
AcDbEntity
  8
0
100
AcDbPolyline
 62
7
  6
CONTINUOUS
 90
8
 70
0
 10
30.1633884851
 20
16.1468971388
 10
30.1500011164
 20
15.8892248792
 10
30.1100200516
 20
15.6504965927
 10
30.0439859661
 20
15.4339406698
 10
29.9527918574
 20
15.2424856578
 10
29.8376709695
 20
15.0787206573
 10
29.7001801149
 20
14.9448603091
 10
29.5835571462
 20
14.8652339276
  0
LWPOLYLINE
  5
430
100
AcDbEntity
  8
0
100
AcDbPolyline
 62
7
  6
CONTINUOUS
 90
6
 70
0
 10
29.9159011117
 20
16.0040010311
 10
29.9010339756
 20
15.7414737516
 10
29.8612331359
 20
15.5038215953
 10
29.7964985926
 20
15.2910445621
 10
29.7052944918
 20
15.1009578258
 10
29.5891566873
 20
14.9357462126
  0
LINE
  5
431
100
AcDbEntity
  8
RACCORDO
100
AcDbLine
 62
253
  6
CONTINUOUS
 10
29.0303060523
 20
16.4344520858
 11
29.0288428614
 21
16.4122034911
  0
LINE
  5
432
100
AcDbEntity
  8
RACCORDO
100
AcDbLine
 62
7
  6
CONTINUOUS
 10
29.0143360835
 20
16.4363283167
 11
29.015743127
 21
16.4577102153
  0
LWPOLYLINE
  5
433
100
AcDbEntity
  8
RACCORDO
100
AcDbPolyline
 62
7
  6
CONTINUOUS
 90
5
 70
0
 10
25.9303769091
 20
-47.1076909372
 10
25.9226229513
 20
-47.2171873925
 10
25.9122933412
 20
-47.3291904727
 10
25.8993906335
 20
-47.4437955626
 10
25.8839122734
 20
-47.5609072774
  0
LINE
  5
434
100
AcDbEntity
  8
RACCORDO
100
AcDbLine
 62
7
  6
CONTINUOUS
 10
29.0143360835
 20
16.436328317
 11
29.0143411012
 21
16.4363942173
  0
LWPOLYLINE
  5
435
100
AcDbEntity
  8
RACCORDO
100
AcDbPolyline
 62
253
  6
CONTINUOUS
 90
6
 70
0
 10
28.2955036079
 20
17.2554944186
 10
28.2949747057
 20
17.2496287208
 10
28.2954648208
 20
17.244509289
 10
28.2969600352
 20
17.2402815016
 10
28.2994178889
 20
17.2370654166
 10
28.3000832112
 20
17.2365018786
  0
LWPOLYLINE
  5
436
100
AcDbEntity
  8
RACCORDO
100
AcDbPolyline
 62
253
  6
CONTINUOUS
 90
6
 70
0
 10
28.9616024118
 20
16.7352807331
 10
28.9610735098
 20
16.7294150636
 10
28.961563616
 20
16.7242956452
 10
28.963058817
 20
16.7200678581
 10
28.9655166577
 20
16.7168517634
 10
28.9661820155
 20
16.7162881929
  0
LWPOLYLINE
  5
437
100
AcDbEntity
  8
RACCORDO
100
AcDbPolyline
 62
253
  6
CONTINUOUS
 90
8
 70
0
 10
29.0288428614
 20
16.4122034911
 10
29.0284751243
 20
16.4083663856
 10
29.0278699489
 20
16.4046210605
 10
29.0270273351
 20
16.4009675155
 10
29.0259583626
 20
16.3973843677
 10
29.0246519517
 20
16.3938930002
 10
29.0230748635
 20
16.3905575622
 10
29.0212261472
 20
16.3873752168
  0
LINE
  5
438
100
AcDbEntity
  8
RACCORDO
100
AcDbLine
 62
7
  6
CONTINUOUS
 10
29.0143411578
 20
16.4363942132
 11
29.0141652602
 21
16.43482359
  0
LWPOLYLINE
  5
439
100
AcDbEntity
  8
RACCORDO
100
AcDbPolyline
 62
253
  6
CONTINUOUS
 90
10
 70
0
 10
27.8459552225
 20
15.937298711
 10
27.8465313359
 20
15.9419654408
 10
27.8475777788
 20
15.9468451228
 10
27.8490804002
 20
15.9518717675
 10
27.8510188797
 20
15.9569773984
 10
27.8533670028
 20
15.9620929705
 10
27.8560930154
 20
15.9671493043
 10
27.8591600528
 20
15.9720780214
 10
27.8625266388
 20
15.9768124693
 10
27.8661472459
 20
15.9812886225
  0
LWPOLYLINE
  5
43A
100
AcDbEntity
  8
RACCORDO
100
AcDbPolyline
 62
7
  6
CONTINUOUS
 90
4
 70
0
 10
29.0141652602
 20
16.43482359
 10
29.0140329301
 20
16.4341320848
 10
29.0139318908
 20
16.4337404486
 10
29.0140221496
 20
16.4339423044
  0
LWPOLYLINE
  5
43B
100
AcDbEntity
  8
0
100
AcDbPolyline
 62
7
  6
CONTINUOUS
 90
7
 70
0
 10
33.9193484348
 20
19.4078059459
 10
33.927529995
 20
19.4430171239
 10
33.93425607
 20
19.4794292481
 10
33.9395148601
 20
19.5169784391
 10
33.9432971394
 20
19.555598823
 10
33.9455962727
 20
19.5952226464
 10
33.9464097644
 20
19.6376449136
  0
LWPOLYLINE
  5
43C
100
AcDbEntity
  8
RACCORDO
100
AcDbPolyline
 62
7
  6
CONTINUOUS
 90
3
 70
0
 10
29.7924225476
 20
-10.0547807341
 10
29.7809226822
 20
-10.0654832323
 10
29.7683341833
 20
-10.074946074
  0
LWPOLYLINE
  5
43D
100
AcDbEntity
  8
RACCORDO
100
AcDbPolyline
 62
253
  6
CONTINUOUS
 90
9
 70
0
 10
29.7925228686
 20
-16.3748712564
 10
29.8025092523
 20
-16.3682609175
 10
29.8113292646
 20
-16.3610621793
 10
29.8188715651
 20
-16.3533415369
 10
29.825039346
 20
-16.3451674582
 10
29.8297392308
 20
-16.3366258161
 10
29.8328926889
 20
-16.3278210342
 10
29.8344512918
 20
-16.3188377498
 10
29.8346218986
 20
-16.3147082009
  0
LINE
  5
43E
100
AcDbEntity
  8
RACCORDO
100
AcDbLine
 62
253
  6
CONTINUOUS
 10
29.6864730058
 20
-16.1911875061
 11
29.1398577122
 21
-16.5067974096
  0
LINE
  5
43F
100
AcDbEntity
  8
RACCORDO
100
AcDbLine
 62
253
  6
CONTINUOUS
 10
29.7925228686
 20
-16.3748942814
 11
29.0977586822
 21
-16.7760207676
  0
LWPOLYLINE
  5
440
100
AcDbEntity
  8
ASSI
100
AcDbPolyline
 62
253
  6
CONTINUOUS
 90
19
 70
0
 10
23.8682384528
 20
30.0152984549
 10
23.8410142554
 20
30.0124630035
 10
23.8114544986
 20
30.0081868258
 10
23.7797707429
 20
30.0025005267
 10
23.7461897508
 20
29.9954448033
 10
23.7109518629
 20
29.9870701537
 10
23.6743092787
 20
29.9774365157
 10
23.6365242509
 20
29.9666128378
 10
23.5978672089
 20
29.9546765856
 10
23.5586148232
 20
29.9417131874
 10
23.5190480249
 20
29.9278154229
 10
23.4794499957
 20
29.9130827592
 10
23.4401041407
 20
29.8976206386
 10
23.4012920601
 20
29.8815397243
 10
23.3632915339
 20
29.8649551083
 10
23.3263745338
 20
29.8479854874
 10
23.2908052766
 20
29.8307523141
 10
23.2568383334
 20
29.8133789271
 10
23.2247168071
 20
29.7959896686
  0
LINE
  5
441
100
AcDbEntity
  8
RACCORDO
100
AcDbLine
 62
7
  6
CONTINUOUS
 10
28.1531796523
 20
19.6133083563
 11
28.1021093788
 21
19.626414859
  0
LWPOLYLINE
  5
442
100
AcDbEntity
  8
RACCORDO
100
AcDbPolyline
 62
7
  6
CONTINUOUS
 90
3
 70
0
 10
28.2563294678
 20
19.5807880913
 10
28.2045863486
 20
19.5980994338
 10
28.1531796523
 20
19.6133083563
  0
LWPOLYLINE
  5
443
100
AcDbEntity
  8
RACCORDO
100
AcDbPolyline
 62
253
  6
CONTINUOUS
 90
3
 70
0
 10
27.5765006408
 20
17.6706377206
 10
27.5861716342
 20
17.667390087
 10
27.595681475
 20
17.6654967706
  0
LINE
  5
444
100
AcDbEntity
  8
RACCORDO
100
AcDbLine
 62
7
  6
CONTINUOUS
 10
26.9259585967
 20
17.8939792928
 11
26.9281852638
 21
17.8932214626
  0
LINE
  5
445
100
AcDbEntity
  8
RACCORDO
100
AcDbLine
 62
7
  6
CONTINUOUS
 10
28.3026533029
 20
19.5635195419
 11
28.2563294678
 21
19.5807880913
  0
LINE
  5
446
100
AcDbEntity
  8
RACCORDO
100
AcDbLine
 62
253
  6
CONTINUOUS
 10
28.9616023964
 20
16.3747215531
 11
28.2955036079
 21
16.6237020643
  0
LINE
  5
447
100
AcDbEntity
  8
RACCORDO
100
AcDbLine
 62
253
  6
CONTINUOUS
 10
28.9889764035
 20
16.4377550754
 11
28.3228776151
 21
16.6867355865
  0
LINE
  5
448
100
AcDbEntity
  8
RACCORDO
100
AcDbLine
 62
7
  6
CONTINUOUS
 10
26.9282507233
 20
17.8931968936
 11
27.5943495481
 21
17.6442163689
  0
LINE
  5
449
100
AcDbEntity
  8
RACCORDO
100
AcDbLine
 62
253
  6
CONTINUOUS
 10
26.9104018285
 20
17.9196182407
 11
27.5765006408
 21
17.6706377206
  0
LWPOLYLINE
  5
44A
100
AcDbEntity
  8
RACCORDO
100
AcDbPolyline
 62
253
  6
CONTINUOUS
 90
10
 70
0
 10
26.843161395
 20
17.6741885732
 10
26.8474910851
 20
17.6723539076
 10
26.8522403458
 20
17.6708201111
 10
26.8573449524
 20
17.6696079262
 10
26.8627358749
 20
17.6687337463
 10
26.8683402107
 20
17.6682093938
 10
26.8740821701
 20
17.6680419606
 10
26.8798841027
 20
17.6682337113
 10
26.8856675474
 20
17.6687820535
 10
26.8913542925
 20
17.6696795723
  0
LWPOLYLINE
  5
44B
100
AcDbEntity
  8
RACCORDO
100
AcDbPolyline
 62
253
  6
CONTINUOUS
 90
19
 70
0
 10
26.950037791
 20
17.6150126807
 10
26.9441276485
 20
17.6175801524
 10
26.9385031086
 20
17.6203429402
 10
26.9331685082
 20
17.6232633305
 10
26.9281165046
 20
17.6263011253
 10
26.9233597938
 20
17.6294268478
 10
26.9189316507
 20
17.6326230711
 10
26.9148343281
 20
17.6358712008
 10
26.9110668041
 20
17.6391363011
 10
26.9076559046
 20
17.6423800432
 10
26.9046236257
 20
17.6455614134
 10
26.9019426077
 20
17.6486816615
 10
26.8995663588
 20
17.6517691928
 10
26.8974895802
 20
17.6547950868
 10
26.8957146975
 20
17.6577617045
 10
26.8942132645
 20
17.6607422639
 10
26.8929796349
 20
17.6637481262
 10
26.8920258552
 20
17.6667332599
 10
26.8913542921
 20
17.6696795991
  0
LWPOLYLINE
  5
44C
100
AcDbEntity
  8
0
100
AcDbPolyline
 62
7
  6
CONTINUOUS
 90
8
 70
0
 10
28.0683686099
 20
19.6387843852
 10
27.8396836467
 20
19.739960714
 10
27.6156480678
 20
19.8080064195
 10
27.3992915701
 20
19.8420013003
 10
27.1935400041
 20
19.8414856339
 10
27.0011758068
 20
19.806466394
 10
26.8248003739
 20
19.7374171556
 10
26.7834218494
 20
19.7148980726
  0
LWPOLYLINE
  5
44D
100
AcDbEntity
  8
RACCORDO
100
AcDbPolyline
 62
253
  6
CONTINUOUS
 90
6
 70
0
 10
28.2095850524
 20
17.4043097218
 10
28.204240532
 20
17.4067849271
 10
28.2000517722
 20
17.4097695399
 10
28.1971377245
 20
17.413178806
 10
28.1955811421
 20
17.4169159121
 10
28.1954255864
 20
17.4177747774
  0
LWPOLYLINE
  5
44E
100
AcDbEntity
  8
RACCORDO
100
AcDbPolyline
 62
253
  6
CONTINUOUS
 90
6
 70
0
 10
28.09213386
 20
18.2412444469
 10
28.0867893278
 20
18.2437196648
 10
28.0826005641
 20
18.2467042888
 10
28.0796865186
 20
18.2501135637
 10
28.0781299426
 20
18.253850675
 10
28.0779743917
 20
18.2547095185
  0
LINE
  5
44F
100
AcDbEntity
  8
RACCORDO
100
AcDbLine
 62
7
  6
CONTINUOUS
 10
27.8595918109
 20
18.4364020702
 11
27.8596359531
 21
18.4363808515
  0
LWPOLYLINE
  5
450
100
AcDbEntity
  8
RACCORDO
100
AcDbPolyline
 62
253
  6
CONTINUOUS
 90
10
 70
0
 10
28.0260490277
 20
15.8333148091
 10
28.0060484741
 20
15.8431733635
 10
27.9860429336
 20
15.8534571784
 10
27.9660324063
 20
15.8641662537
 10
27.9460135325
 20
15.8753025328
 10
27.9259896718
 20
15.8868640724
 10
27.9059709026
 20
15.8988450429
 10
27.8859605844
 20
15.9112435013
 10
27.8659553577
 20
15.9240613906
 10
27.8459552225
 20
15.937298711
  0
LWPOLYLINE
  5
451
100
AcDbEntity
  8
RACCORDO
100
AcDbPolyline
 62
253
  6
CONTINUOUS
 90
10
 70
0
 10
28.0412123275
 20
15.8802082515
 10
28.0217909695
 20
15.8897802245
 10
28.0023468787
 20
15.8997752624
 10
27.9828865447
 20
15.9101900293
 10
27.9634164626
 20
15.9210210496
 10
27.9439431304
 20
15.9322647079
 10
27.9244730464
 20
15.943917251
 10
27.9050127086
 20
15.9559747894
 10
27.8855686121
 20
15.9684332991
 10
27.8661472464
 20
15.9812886223
  0
LWPOLYLINE
  5
452
100
AcDbEntity
  8
RACCORDO
100
AcDbPolyline
 62
253
  6
CONTINUOUS
 90
4
 70
0
 10
27.8459552194
 20
18.4610249721
 10
27.8659557733
 20
18.4511664196
 10
27.8859613142
 20
18.440882606
 10
27.9059718419
 20
18.4301735314
  0
LWPOLYLINE
  5
453
100
AcDbEntity
  8
RACCORDO
100
AcDbPolyline
 62
253
  6
CONTINUOUS
 90
8
 70
0
 10
29.0288428577
 20
16.6201512075
 10
29.0249912808
 20
16.6222619295
 10
29.0216699055
 20
16.6246201691
 10
29.0189236488
 20
16.6271940357
 10
29.0167896501
 20
16.6299487227
 10
29.0152967696
 20
16.632846978
 10
29.0144651973
 20
16.6358496075
 10
29.014315191
 20
16.6371461493
  0
LWPOLYLINE
  5
454
100
AcDbEntity
  8
RACCORDO
100
AcDbPolyline
 62
7
  6
CONTINUOUS
 90
5
 70
0
 10
27.9366995835
 20
18.3959472736
 10
27.9173744463
 20
18.4066980084
 10
27.8980765652
 20
18.4170261564
 10
27.8788133361
 20
18.4269284706
 10
27.8595918109
 20
18.4364020702
  0
LWPOLYLINE
  5
455
100
AcDbEntity
  8
RACCORDO
100
AcDbPolyline
 62
253
  6
CONTINUOUS
 90
3
 70
0
 10
27.9059718419
 20
18.4301735314
 10
27.9259907161
 20
18.4190372526
 10
27.9460145773
 20
18.4074757128
  0
LWPOLYLINE
  5
456
100
AcDbEntity
  8
RACCORDO
100
AcDbPolyline
 62
253
  6
CONTINUOUS
 90
40
 70
0
 10
27.9981341587
 20
14.601257333
 10
27.9521737858
 20
14.6283397495
 10
27.904543192
 20
14.6575582406
 10
27.8552674267
 20
14.6890223289
 10
27.8045119542
 20
14.7227504782
 10
27.7521759129
 20
14.7589381575
 10
27.6978956735
 20
14.7979923255
 10
27.6415859734
 20
14.8401595477
 10
27.5834444801
 20
14.8854849311
 10
27.5235474118
 20
14.9341035495
 10
27.461993172
 20
14.9861366079
 10
27.3988513819
 20
15.0417344517
 10
27.3341718265
 20
15.1010747601
 10
27.2680706325
 20
15.1642843626
 10
27.2006718203
 20
15.2314877572
 10
27.1320593426
 20
15.3028583755
 10
27.0622863004
 20
15.3786201708
 10
26.9916311082
 20
15.4587625727
 10
26.9205275579
 20
15.5430717632
 10
26.8490077927
 20
15.6317934753
 10
26.7774381603
 20
15.7247699833
 10
26.7067120547
 20
15.8210727997
 10
26.6368394403
 20
15.9208806368
 10
26.5681747559
 20
16.0238874916
 10
26.5019811496
 20
16.1282630381
 10
26.4383011364
 20
16.2338811782
 10
26.3772378126
 20
16.3405099784
 10
26.3198995037
 20
16.4459966172
 10
26.2664845254
 20
16.549557166
 10
26.2165996627
 20
16.6515274071
 10
26.1702973506
 20
16.7513835082
 10
26.1278803245
 20
16.8479408028
 10
26.0887362772
 20
16.942052298
 10
26.0516886555
 20
17.0363010012
 10
26.0168840251
 20
17.130265275
 10
25.984222268
 20
17.224163863
 10
25.9525784069
 20
17.3215687186
 10
25.9218891838
 20
17.4235783191
 10
25.8928751563
 20
17.5288146671
 10
25.8658582611
 20
17.6370965263
  0
LWPOLYLINE
  5
457
100
AcDbEntity
  8
RACCORDO
100
AcDbPolyline
 62
253
  6
CONTINUOUS
 90
5
 70
0
 10
27.9460145773
 20
18.4074757128
 10
27.9660333469
 20
18.3954947415
 10
27.9860436655
 20
18.3830962817
 10
28.0060488925
 20
18.3702783905
 10
28.026049028
 20
18.3570410676
  0
LWPOLYLINE
  5
458
100
AcDbEntity
  8
RACCORDO
100
AcDbPolyline
 62
253
  6
CONTINUOUS
 90
10
 70
0
 10
26.8431613919
 20
17.8821362933
 10
26.847491093
 20
17.879523249
 10
26.8522403638
 20
17.877221602
 10
26.8573449785
 20
17.8752624784
 10
26.8627359061
 20
17.8736723721
 10
26.8683402434
 20
17.8724727866
 10
26.8740822012
 20
17.8716799444
 10
26.8798841294
 20
17.8713045675
 10
26.8856675666
 20
17.8713517323
 10
26.8913543016
 20
17.8718208012
  0
LWPOLYLINE
  5
459
100
AcDbEntity
  8
RACCORDO
100
AcDbPolyline
 62
253
  6
CONTINUOUS
 90
22
 70
0
 10
26.7984002465
 20
12.8571518275
 10
26.7878866768
 20
12.8639023244
 10
26.7775499828
 20
12.8714156288
 10
26.7673901645
 20
12.8796917409
 10
26.7573516974
 20
12.8887854455
 10
26.7474901059
 20
12.8986419578
 10
26.7379719638
 20
12.909096923
 10
26.7288049699
 20
12.9201586967
 10
26.7199814254
 20
12.9318189235
 10
26.7116448075
 20
12.9438881816
 10
26.7038030918
 20
12.9563731994
 10
26.6964483026
 20
12.9692672487
 10
26.6896999903
 20
12.9823607224
 10
26.6835681264
 20
12.9956568698
 10
26.6780427393
 20
13.0091524416
 10
26.6732134647
 20
13.0226280834
 10
26.6690915143
 20
13.0360867333
 10
26.6656656763
 20
13.049525453
 10
26.6629919511
 20
13.0627160734
 10
26.6610890057
 20
13.0755825379
 10
26.6599381731
 20
13.0882009031
 10
26.6595394534
 20
13.1005711688
  0
LWPOLYLINE
  5
45A
100
AcDbEntity
  8
ASSI
100
AcDbPolyline
 62
253
  6
CONTINUOUS
 90
16
 70
0
 10
-31.0683388236
 20
55.5528502539
 10
-28.0969297842
 20
53.6064687786
 10
-25.0952409526
 20
51.6755202742
 10
-22.0635116859
 20
49.7601623274
 10
-19.0019601931
 20
47.8605364954
 10
-15.9108539156
 20
45.9768129308
 10
-12.7905117592
 20
44.1091891375
 10
-9.6411848027
 20
42.2578168244
 10
-6.4631265509
 20
40.4228458871
 10
-3.2566670857
 20
38.6044669035
 10
-0.0220665038
 20
36.8028265109
 10
3.240412907
 20
35.0180693977
 10
6.5304304943
 20
33.2503788661
 10
9.847692027
 20
31.4999090516
 10
13.1919518508
 20
29.7667862115
 10
16.5629370237
 20
28.0511485397
  0
LWPOLYLINE
  5
45B
100
AcDbEntity
  8
RACCORDO
100
AcDbPolyline
 62
253
  6
CONTINUOUS
 90
9
 70
0
 10
26.8565387905
 20
12.722173521
 10
26.8492103584
 20
12.727022873
 10
26.8358297041
 20
12.7387616456
 10
26.8243208802
 20
12.7530811707
 10
26.8148071852
 20
12.769828014
 10
26.8073905416
 20
12.7888227341
 10
26.8021504023
 20
12.8098618074
 10
26.7991429
 20
12.832719809
 10
26.7984002465
 20
12.8571518275
  0
LWPOLYLINE
  5
45C
100
AcDbEntity
  8
RACCORDO
100
AcDbPolyline
 62
253
  6
CONTINUOUS
 90
10
 70
0
 10
27.6624191963
 20
17.7202364296
 10
27.6687677263
 20
17.7159602199
 10
27.6759399729
 20
17.712385139
 10
27.6837322632
 20
17.7096127098
 10
27.6919233167
 20
17.7077216619
 10
27.7002805294
 20
17.706765696
 10
27.7085665785
 20
17.706771959
 10
27.7165461621
 20
17.7077402732
 10
27.7239926813
 20
17.7096431408
 10
27.7306946747
 20
17.7124265256
  0
LWPOLYLINE
  5
45D
100
AcDbEntity
  8
RACCORDO
100
AcDbPolyline
 62
253
  6
CONTINUOUS
 90
22
 70
0
 10
27.8459552225
 20
15.937298711
 10
27.8424481984
 20
15.9397482352
 10
27.8389019302
 20
15.9424945799
 10
27.8353164179
 20
15.945537745
 10
27.831678683
 20
15.9488724309
 10
27.828001704
 20
15.9525039372
 10
27.8243244166
 20
15.9564481628
 10
27.8206438884
 20
15.9607078986
 10
27.8169630517
 20
15.9652803538
 10
27.8133296394
 20
15.9701730541
 10
27.8097435023
 20
15.9753803276
 10
27.8062047895
 20
15.9809078462
 10
27.802761681
 20
15.9867801519
 10
27.7993985667
 20
15.9930183274
 10
27.7961310567
 20
15.9996012899
 10
27.793054161
 20
16.0064903334
 10
27.7901593762
 20
16.0137125382
 10
27.7874552056
 20
16.021240824
 10
27.7850621692
 20
16.0289552446
 10
27.7830204402
 20
16.0368158176
 10
27.7812898453
 20
16.0448625254
 10
27.7798703845
 20
16.0530953679
  0
LWPOLYLINE
  5
45E
100
AcDbEntity
  8
RACCORDO
100
AcDbPolyline
 62
7
  6
CONTINUOUS
 90
3
 70
0
 10
26.7921151272
 20
12.7678022691
 10
26.8256286049
 20
12.7422369852
 10
26.8565529298
 20
12.7221692596
  0
LINE
  5
45F
100
AcDbEntity
  8
ASSI
100
AcDbLine
 62
7
  6
CONTINUOUS
 10
27.0572700649
 20
6.0955598744
 11
25.8802410419
 21
8.1342339421
  0
LWPOLYLINE
  5
460
100
AcDbEntity
  8
ASSI
100
AcDbPolyline
 62
253
  6
CONTINUOUS
 90
16
 70
0
 10
25.9467895894
 20
5.4797576365
 10
25.9720087119
 20
5.4339053604
 10
25.9958191317
 20
5.3874125873
 10
26.0181567066
 20
5.3404071616
 10
26.0389604048
 20
5.2930211298
 10
26.0581752172
 20
5.2453816363
 10
26.0757513945
 20
5.1976104671
 10
26.0916419639
 20
5.1498334132
 10
26.10580161
 20
5.1021864143
 10
26.1181896723
 20
5.0548062829
 10
26.1287713182
 20
5.0078265792
 10
26.137519226
 20
4.9613716235
 10
26.1444112314
 20
4.9155627452
 10
26.1494281983
 20
4.8705234358
 10
26.1525548727
 20
4.8263787381
 10
26.1537817241
 20
4.7832493629
  0
LWPOLYLINE
  5
461
100
AcDbEntity
  8
RACCORDO
100
AcDbPolyline
 62
253
  6
CONTINUOUS
 90
9
 70
0
 10
26.632567338
 20
15.2494602351
 10
26.6208723853
 20
15.2943290676
 10
26.6071485305
 20
15.3394131776
 10
26.5914123682
 20
15.3847334912
 10
26.5738335037
 20
15.4298049222
 10
26.5543847103
 20
15.4746424225
 10
26.5330932147
 20
15.5192310403
 10
26.5102103031
 20
15.5630408338
 10
26.4858197374
 20
15.6058951556
  0
LWPOLYLINE
  5
462
100
AcDbEntity
  8
RACCORDO
100
AcDbPolyline
 62
253
  6
CONTINUOUS
 90
7
 70
0
 10
26.9104018285
 20
17.9196182407
 10
26.9119347286
 20
17.912562084
 10
26.9144280964
 20
17.9062859993
 10
26.9178111267
 20
17.9009682107
 10
26.9219877505
 20
17.8967597293
 10
26.9268393627
 20
17.8937800649
 10
26.9281852697
 20
17.8932214761
  0
LWPOLYLINE
  5
463
100
AcDbEntity
  8
RACCORDO
100
AcDbPolyline
 62
7
  6
CONTINUOUS
 90
10
 70
0
 10
25.8658582611
 20
19.1912905336
 10
25.8554096284
 20
19.2417370878
 10
25.8461295191
 20
19.2918361538
 10
25.8380179333
 20
19.3415877316
 10
25.8310454499
 20
19.390981486
 10
25.8252414899
 20
19.4400277522
 10
25.8206943167
 20
19.4887575359
 10
25.8174333513
 20
19.5371811723
 10
25.8154291727
 20
19.5852883262
 10
25.8146817808
 20
19.6330789975
  0
LWPOLYLINE
  5
464
100
AcDbEntity
  8
RACCORDO
100
AcDbPolyline
 62
7
  6
CONTINUOUS
 90
10
 70
0
 10
25.8658582611
 20
19.1912905336
 10
25.883916382
 20
19.1014219594
 10
25.8993974983
 20
19.0098146781
 10
25.9123016101
 20
18.9164686896
 10
25.9226310001
 20
18.8214829835
 10
25.9303833855
 20
18.7247585702
 10
25.9355519182
 20
18.6259984812
 10
25.9381341363
 20
18.5251653251
 10
25.9381325016
 20
18.4222964933
 10
25.935547551
 20
18.3172071914
  0
LWPOLYLINE
  5
465
100
AcDbEntity
  8
RACCORDO
100
AcDbPolyline
 62
253
  6
CONTINUOUS
 90
7
 70
0
 10
26.3980262218
 20
15.6405721964
 10
26.3972656564
 20
15.6444317225
 10
26.3991336006
 20
15.6501115037
 10
26.403629355
 20
15.6575231162
 10
26.4107047454
 20
15.6665871463
 10
26.4202839593
 20
15.6772064766
 10
26.4322643577
 20
15.6892673261
  0
LWPOLYLINE
  5
466
100
AcDbEntity
  8
RACCORDO
100
AcDbPolyline
 62
253
  6
CONTINUOUS
 90
13
 70
0
 10
27.6624191963
 20
16.890030063
 10
27.660395856
 20
16.9023650558
 10
27.657280189
 20
16.9151446676
 10
27.653072195
 20
16.9283688983
 10
27.6477002826
 20
16.9423177628
 10
27.6412360432
 20
16.9567112462
 10
27.633894252
 20
16.9707093041
 10
27.6255740495
 20
16.9842492645
 10
27.6163762951
 20
16.9973937994
 10
27.6068183417
 20
17.0094908798
 10
27.5970726404
 20
17.020323163
 10
27.5869667401
 20
17.0301079918
 10
27.5765006408
 20
17.0388453663
  0
LINE
  5
467
100
AcDbEntity
  8
RACCORDO
100
AcDbLine
 62
253
  6
CONTINUOUS
 10
27.7798703845
 20
16.0530953679
 11
27.6624191963
 21
16.890030063
  0
LINE
  5
468
100
AcDbEntity
  8
RACCORDO
100
AcDbLine
 62
253
  6
CONTINUOUS
 10
27.8481458629
 20
16.0594438914
 11
27.7306946747
 21
16.8963785863
  0
LWPOLYLINE
  5
469
100
AcDbEntity
  8
RACCORDO
100
AcDbPolyline
 62
7
  6
CONTINUOUS
 90
12
 70
0
 10
26.5735747204
 20
13.1795355738
 10
26.5788880503
 20
13.1377346789
 10
26.5875733385
 20
13.0957246243
 10
26.5994195748
 20
13.0542607606
 10
26.6143570736
 20
13.0133156639
 10
26.6323758621
 20
12.9729605975
 10
26.6530507932
 20
12.934082031
 10
26.6763312909
 20
12.8967044286
 10
26.7022214506
 20
12.8608829233
 10
26.730167491
 20
12.8274287831
 10
26.7601125016
 20
12.796386402
 10
26.7921151272
 20
12.7678022691
  0
LWPOLYLINE
  5
46A
100
AcDbEntity
  8
RACCORDO
100
AcDbPolyline
 62
253
  6
CONTINUOUS
 90
9
 70
0
 10
27.8459552194
 20
18.4610249721
 10
27.8465313324
 20
18.456245084
 10
27.8475777737
 20
18.4518058918
 10
27.849080393
 20
18.4477674285
 10
27.851018871
 20
18.4441843081
 10
27.8533669938
 20
18.4411049871
 10
27.8560930076
 20
18.4385711097
 10
27.8591600479
 20
18.4366169432
 10
27.8595918109
 20
18.4364020702
  0
LINE
  5
46B
100
AcDbEntity
  8
RACCORDO
100
AcDbLine
 62
253
  6
CONTINUOUS
 10
29.0282113091
 20
16.6261870162
 11
29.0288428577
 21
16.6201512075
  0
LWPOLYLINE
  5
46C
100
AcDbEntity
  8
0
100
AcDbPolyline
 62
7
  6
CONTINUOUS
 90
13
 70
0
 10
34.1585417988
 20
-45.8024596097
 10
34.144559297
 20
-45.605565669
 10
34.1095465044
 20
-45.4082231332
 10
34.0535034212
 20
-45.2104320021
 10
33.974271088
 20
-45.0078197581
 10
33.874008464
 20
-44.8047589188
 10
33.7591924274
 20
-44.6143670373
 10
33.6288621507
 20
-44.4374805276
 10
33.4839784613
 20
-44.2732629757
 10
33.3339007191
 20
-44.132322692
 10
33.1782860086
 20
-44.0161964592
 10
33.0174772454
 20
-43.9233474947
 10
33.0082389973
 20
-43.9195733661
  0
LWPOLYLINE
  5
46D
100
AcDbEntity
  8
0
100
AcDbPolyline
 62
7
  6
CONTINUOUS
 90
19
 70
0
 10
29.9159011117
 20
16.0040010311
 10
29.9010339756
 20
16.2836965067
 10
29.8612331359
 20
16.5673096751
 10
29.7964985926
 20
16.8548405362
 10
29.7052944918
 20
17.1502474821
 10
29.5891566873
 20
17.4495721207
 10
29.4526927415
 20
17.740939276
 10
29.2950854435
 20
18.0240290178
 10
29.117152004
 20
18.2991612762
 10
28.925951618
 20
18.555420665
 10
28.7209508889
 20
18.7920484019
 10
28.5026832133
 20
19.0098032692
 10
28.2798079755
 20
19.2000462272
 10
28.0521399288
 20
19.3616711619
 10
27.8198643199
 20
19.4957841874
 10
27.5921962732
 20
19.5970646063
 10
27.3693210354
 20
19.6641923863
 10
27.1510533598
 20
19.6984875598
 10
26.9460526307
 20
19.6985895263
  0
LWPOLYLINE
  5
46E
100
AcDbEntity
  8
RACCORDO
100
AcDbPolyline
 62
7
  6
CONTINUOUS
 90
11
 70
0
 10
29.5762748694
 20
34.5776745734
 10
29.5754793448
 20
34.59310146
 10
29.5730690574
 20
34.608520045
 10
29.5690325173
 20
34.6237207889
 10
29.5634026779
 20
34.6384690066
 10
29.5562317848
 20
34.6525825018
 10
29.5475593924
 20
34.6659359153
 10
29.5374367378
 20
34.6783872155
 10
29.526016632
 20
34.6897084083
 10
29.5134956153
 20
34.6997095744
 10
29.5012396501
 20
34.707598696
  0
LWPOLYLINE
  5
46F
100
AcDbEntity
  8
0
100
AcDbPolyline
 62
7
  6
CONTINUOUS
 90
6
 70
0
 10
30.1633884851
 20
16.1468971388
 10
30.1500011164
 20
16.4200287961
 10
30.1100200516
 20
16.7049262141
 10
30.0439859661
 20
16.9977366439
 10
29.9527918574
 20
17.2945003267
 10
29.8947191555
 20
17.444172439
  0
LWPOLYLINE
  5
470
100
AcDbEntity
  8
RACCORDO
100
AcDbPolyline
 62
7
  6
CONTINUOUS
 90
19
 70
0
 10
29.8346166749
 20
33.1799437698
 10
29.8332622312
 20
33.2166744814
 10
29.8291796112
 20
33.2542696353
 10
29.8224890032
 20
33.2920911956
 10
29.8132991591
 20
33.3299524218
 10
29.8017066775
 20
33.3676991739
 10
29.7878082821
 20
33.4051594186
 10
29.7717330585
 20
33.4420480405
 10
29.7535949707
 20
33.4781776919
 10
29.7334909064
 20
33.5133721216
 10
29.7115795056
 20
33.5473528366
 10
29.6879760508
 20
33.5799439254
 10
29.6627816319
 20
33.6109619779
 10
29.6361595249
 20
33.6401715434
 10
29.6082128624
 20
33.6674052223
 10
29.5790282463
 20
33.6924934858
 10
29.5486959644
 20
33.7152638395
 10
29.5172628017
 20
33.7355440044
 10
29.5120933368
 20
33.7385693917
  0
LWPOLYLINE
  5
471
100
AcDbEntity
  8
RACCORDO
100
AcDbPolyline
 62
7
  6
CONTINUOUS
 90
13
 70
0
 10
29.6367611776
 20
19.2596729103
 10
29.6378579089
 20
19.2272173848
 10
29.6410165067
 20
19.1941018122
 10
29.646236971
 20
19.1603261926
 10
29.653577202
 20
19.1256657073
 10
29.6629792995
 20
19.0903451749
 10
29.6742695632
 20
19.0550390514
 10
29.6874830597
 20
19.01976068
 10
29.7025847223
 20
18.9844967175
 10
29.7192956508
 20
18.9498815899
 10
29.7375228783
 20
18.9161267726
 10
29.7573593717
 20
18.8830207901
 10
29.778805131
 20
18.8505636426
  0
LINE
  5
472
100
AcDbEntity
  8
RACCORDO
100
AcDbLine
 62
253
  6
CONTINUOUS
 10
29.5407414701
 20
34.5350513843
 11
29.5411815359
 21
34.5220039469
  0
LWPOLYLINE
  5
473
100
AcDbEntity
  8
RACCORDO
100
AcDbPolyline
 62
253
  6
CONTINUOUS
 90
3
 70
0
 10
29.7925228686
 20
33.1198669335
 10
29.7916628429
 20
33.1510187571
 10
29.7888234583
 20
33.1831326805
  0
LWPOLYLINE
  5
474
100
AcDbEntity
  8
RACCORDO
100
AcDbPolyline
 62
7
  6
CONTINUOUS
 90
31
 70
0
 10
30.2340991632
 20
15.89202598
 10
30.2311523205
 20
16.0241625075
 10
30.2222663385
 20
16.1602835915
 10
30.2073919477
 20
16.2999768025
 10
30.1865096312
 20
16.4427870577
 10
30.1596208062
 20
16.5882873559
 10
30.1267344902
 20
16.7361026215
 10
30.0878776448
 20
16.8858319739
 10
30.0431266958
 20
17.0369595585
 10
29.9925938437
 20
17.188949685
 10
29.9363963887
 20
17.3413326782
 10
29.8746744727
 20
17.4936332652
 10
29.8076169723
 20
17.6453160879
 10
29.7354094722
 20
17.7959129908
 10
29.6582586806
 20
17.9449551513
 10
29.5764240435
 20
18.0919199675
 10
29.490153165
 20
18.2363555036
 10
29.3997095409
 20
18.3778196532
 10
29.3054120329
 20
18.515824259
 10
29.207560038
 20
18.6499525319
 10
29.1064644567
 20
18.7798042877
 10
29.002493665
 20
18.9049419825
 10
28.8959901331
 20
19.0249988239
 10
28.7872997595
 20
19.1396344954
 10
28.6768257254
 20
19.2484820081
 10
28.5649496436
 20
19.3512339743
 10
28.452033766
 20
19.4476310006
 10
28.338480283
 20
19.5374089257
 10
28.2246889015
 20
19.6203398084
 10
28.1110401592
 20
19.6962409327
 10
27.9979180686
 20
19.7649557234
  0
LINE
  5
475
100
AcDbEntity
  8
0
100
AcDbLine
 62
7
  6
CONTINUOUS
 10
30.1633884851
 20
16.5678997637
 11
30.1633884851
 21
16.1468971388
  0
LINE
  5
476
100
AcDbEntity
  8
0
100
AcDbLine
 62
7
  6
CONTINUOUS
 10
30.1633884851
 20
-48.7497223797
 11
30.1633884851
 21
-49.1707250046
  0
LWPOLYLINE
  5
477
100
AcDbEntity
  8
RACCORDO
100
AcDbPolyline
 62
253
  6
CONTINUOUS
 90
31
 70
0
 10
30.2340991632
 20
-49.4255961634
 10
30.2310348716
 20
-49.5589467043
 10
30.2218503863
 20
-49.6883932764
 10
30.2065708794
 20
-49.8135809817
 10
30.1852382529
 20
-49.9341665747
 10
30.1579109643
 20
-50.049819664
 10
30.1246638043
 20
-50.1602235788
 10
30.0855877686
 20
-50.2650758478
 10
30.040789965
 20
-50.3640888134
 10
29.9903932642
 20
-50.4569908021
 10
29.9345357904
 20
-50.5435271634
 10
29.8733706399
 20
-50.6234606878
 10
29.8070656364
 20
-50.6965720847
 10
29.735802658
 20
-50.7626609086
 10
29.6597769698
 20
-50.821546168
 10
29.5791968368
 20
-50.8730665896
 10
29.4942830268
 20
-50.9170810121
 10
29.4052683784
 20
-50.953468736
 10
29.3123970435
 20
-50.9821299878
 10
29.2159237275
 20
-51.0029862335
 10
29.1161127571
 20
-51.0159803977
 10
29.013237494
 20
-51.0210769144
 10
28.9075798234
 20
-51.0182618046
 10
28.799429422
 20
-51.0075427725
 10
28.6890827377
 20
-50.988949197
 10
28.5768422134
 20
-50.9625320389
 10
28.4630154976
 20
-50.9283637054
 10
28.3479146212
 20
-50.8865378649
 10
28.2318550808
 20
-50.8371691724
 10
28.1151549718
 20
-50.7803929456
 10
27.9981341587
 20
-50.7163648104
  0
LWPOLYLINE
  5
478
100
AcDbEntity
  8
RACCORDO
100
AcDbPolyline
 62
7
  6
CONTINUOUS
 90
13
 70
0
 10
29.6367611776
 20
-52.9649233718
 10
29.6359332813
 20
-52.9921379648
 10
29.6335306655
 20
-53.0180867098
 10
29.6295533301
 20
-53.0427696069
 10
29.6239660366
 20
-53.0662959331
 10
29.6168040235
 20
-53.0885564114
 10
29.6081730065
 20
-53.1092232108
 10
29.598062628
 20
-53.1282577255
 10
29.5864832454
 20
-53.1456985612
 10
29.5735716474
 20
-53.1613337044
 10
29.5592923136
 20
-53.1751544811
 10
29.5436807643
 20
-53.1871695653
 10
29.5298371271
 20
-53.1956641719
  0
LWPOLYLINE
  5
479
100
AcDbEntity
  8
RACCORDO
100
AcDbPolyline
 62
253
  6
CONTINUOUS
 90
16
 70
0
 10
29.2124647953
 20
-52.9648633538
 10
29.2121328766
 20
-52.9757527559
 10
29.211171385
 20
-52.9861341727
 10
29.2095803205
 20
-52.9960076042
 10
29.207346654
 20
-53.0054148589
 10
29.2044834146
 20
-53.0143141284
 10
29.2010296893
 20
-53.0225799867
 10
29.1969775321
 20
-53.0302021565
 10
29.1923348888
 20
-53.0371909153
 10
29.1871646846
 20
-53.0434516693
 10
29.1814580995
 20
-53.0489748843
 10
29.1752239534
 20
-53.0537700946
 10
29.1685516306
 20
-53.057771309
 10
29.161470926
 20
-53.0609565305
 10
29.1539520448
 20
-53.0633477561
 10
29.1459949869
 20
-53.0649449858
  0
LINE
  5
47A
100
AcDbEntity
  8
RACCORDO
100
AcDbLine
 62
7
  6
CONTINUOUS
 10
29.8337071072
 20
-59.474460592
 11
29.8346167554
 21
-59.4452143756
  0
LINE
  5
47B
100
AcDbEntity
  8
RACCORDO
100
AcDbLine
 62
7
  6
CONTINUOUS
 10
29.0167997314
 20
-48.8382796302
 11
29.0175048703
 21
-48.8164044832
  0
LWPOLYLINE
  5
47C
100
AcDbEntity
  8
RACCORDO
100
AcDbPolyline
 62
7
  6
CONTINUOUS
 90
12
 70
0
 10
28.7138195837
 20
-60.1724657308
 10
28.7128319685
 20
-60.2023379528
 10
28.7098809063
 20
-60.2309424131
 10
28.7049724494
 20
-60.2581152611
 10
28.6981120855
 20
-60.283733329
 10
28.6893351751
 20
-60.3076085838
 10
28.6787325331
 20
-60.3295132936
 10
28.6664208097
 20
-60.3492791243
 10
28.6524495122
 20
-60.3668877417
 10
28.6368160227
 20
-60.3823406346
 10
28.6195206357
 20
-60.3955789652
 10
28.6146250737
 20
-60.3987257532
  0
LWPOLYLINE
  5
47D
100
AcDbEntity
  8
RACCORDO
100
AcDbPolyline
 62
253
  6
CONTINUOUS
 90
9
 70
0
 10
29.8346218986
 20
-9.950478193
 10
29.8345052069
 20
-9.9538937652
 10
29.8330716204
 20
-9.9628977974
 10
29.83003415
 20
-9.9717341864
 10
29.8254316045
 20
-9.9803276549
 10
29.819308407
 20
-9.9886012666
 10
29.8117245266
 20
-9.9964700023
 10
29.8027640534
 20
-10.0038433878
 10
29.7925228686
 20
-10.0106412486
  0
LWPOLYLINE
  5
47E
100
AcDbEntity
  8
RACCORDO
100
AcDbPolyline
 62
253
  6
CONTINUOUS
 90
10
 70
0
 10
29.6329943408
 20
-52.9669823114
 10
29.632057615
 20
-52.9941213338
 10
29.6295319773
 20
-53.0201956302
 10
29.6254296778
 20
-53.0450866039
 10
29.6197705079
 20
-53.0686801167
 10
29.6125805445
 20
-53.0908701435
 10
29.6038914255
 20
-53.1115586733
 10
29.5937417963
 20
-53.130652605
 10
29.5821784374
 20
-53.1480633917
 10
29.5692547949
 20
-53.1637105805
  0
LINE
  5
47F
100
AcDbEntity
  8
RACCORDO
100
AcDbLine
 62
7
  6
CONTINUOUS
 10
29.015743127
 20
-48.8599119281
 11
29.0167997314
 21
-48.8382796302
  0
LWPOLYLINE
  5
480
100
AcDbEntity
  8
0
100
AcDbPolyline
 62
7
  6
CONTINUOUS
 90
8
 70
0
 10
30.1633884851
 20
-49.1707250046
 10
30.1500011164
 20
-49.4283972642
 10
30.1100200516
 20
-49.6671255507
 10
30.0439859661
 20
-49.8836814737
 10
29.9527918574
 20
-50.0751364857
 10
29.8376709695
 20
-50.2389014861
 10
29.7001801149
 20
-50.3727618344
 10
29.5835571462
 20
-50.4523882158
  0
LWPOLYLINE
  5
481
100
AcDbEntity
  8
0
100
AcDbPolyline
 62
7
  6
CONTINUOUS
 90
6
 70
0
 10
29.9159011117
 20
-49.3136211123
 10
29.9010339756
 20
-49.5761483918
 10
29.8612331359
 20
-49.8138005481
 10
29.7964985926
 20
-50.0265775813
 10
29.7052944918
 20
-50.2166643177
 10
29.5891566873
 20
-50.3818759308
  0
LINE
  5
482
100
AcDbEntity
  8
RACCORDO
100
AcDbLine
 62
253
  6
CONTINUOUS
 10
29.0303060523
 20
-48.8831700576
 11
29.0288428614
 21
-48.9054186524
  0
LINE
  5
483
100
AcDbEntity
  8
RACCORDO
100
AcDbLine
 62
7
  6
CONTINUOUS
 10
29.0143360835
 20
-48.8812938267
 11
29.015743127
 21
-48.8599119281
  0
LINE
  5
484
100
AcDbEntity
  8
RACCORDO
100
AcDbLine
 62
7
  6
CONTINUOUS
 10
29.0143360835
 20
-48.8812938265
 11
29.0143411012
 21
-48.8812279261
  0
LWPOLYLINE
  5
485
100
AcDbEntity
  8
0
100
AcDbPolyline
 62
7
  6
CONTINUOUS
 90
5
 70
0
 10
34.1585417988
 20
19.5151625337
 10
34.144559297
 20
19.3344152357
 10
34.1095465044
 20
19.177504595
 10
34.0535034212
 20
19.0444306117
 10
34.0385769923
 20
19.0234975415
  0
LWPOLYLINE
  5
486
100
AcDbEntity
  8
RACCORDO
100
AcDbPolyline
 62
253
  6
CONTINUOUS
 90
6
 70
0
 10
28.2955036079
 20
-48.0621277248
 10
28.2949747057
 20
-48.0679934226
 10
28.2954648208
 20
-48.0731128544
 10
28.2969600352
 20
-48.0773406418
 10
28.2994178889
 20
-48.0805567268
 10
28.3000832112
 20
-48.0811202648
  0
LWPOLYLINE
  5
487
100
AcDbEntity
  8
RACCORDO
100
AcDbPolyline
 62
253
  6
CONTINUOUS
 90
6
 70
0
 10
28.9616024118
 20
-48.5823414103
 10
28.9610735098
 20
-48.5882070798
 10
28.961563616
 20
-48.5933264982
 10
28.963058817
 20
-48.5975542853
 10
28.9655166577
 20
-48.60077038
 10
28.9661820155
 20
-48.6013339505
  0
LWPOLYLINE
  5
488
100
AcDbEntity
  8
RACCORDO
100
AcDbPolyline
 62
253
  6
CONTINUOUS
 90
22
 70
0
 10
26.8431613919
 20
-47.4354858502
 10
26.8435291305
 20
-47.4316487464
 10
26.8441343069
 20
-47.4279034225
 10
26.844976921
 20
-47.4242498784
 10
26.846045893
 20
-47.4206667309
 10
26.8473523027
 20
-47.4171753632
 10
26.8489293896
 20
-47.4138399249
 10
26.8507781048
 20
-47.4106575791
 10
26.8528974972
 20
-47.4076311627
 10
26.8553179534
 20
-47.4048333358
 10
26.8580344865
 20
-47.402261047
 10
26.8610520834
 20
-47.3999173476
 10
26.8644160908
 20
-47.3978840523
 10
26.8681369616
 20
-47.3961491719
 10
26.872204243
 20
-47.3947246955
 10
26.8766319232
 20
-47.3937284042
 10
26.881439203
 20
-47.3931615657
 10
26.8866068816
 20
-47.3930229122
 10
26.8920913449
 20
-47.3934264214
 10
26.8978780548
 20
-47.3944100858
 10
26.9039815493
 20
-47.395935913
 10
26.9104018285
 20
-47.3980039028
  0
LWPOLYLINE
  5
489
100
AcDbEntity
  8
RACCORDO
100
AcDbPolyline
 62
253
  6
CONTINUOUS
 90
8
 70
0
 10
29.0288428614
 20
-48.9054186524
 10
29.0284751243
 20
-48.9092557578
 10
29.0278699489
 20
-48.913001083
 10
29.0270273351
 20
-48.9166546279
 10
29.0259583626
 20
-48.9202377757
 10
29.0246519517
 20
-48.9237291432
 10
29.0230748635
 20
-48.9270645812
 10
29.0212261472
 20
-48.9302469266
  0
LINE
  5
48A
100
AcDbEntity
  8
RACCORDO
100
AcDbLine
 62
7
  6
CONTINUOUS
 10
29.0143411578
 20
-48.8812279303
 11
29.0141652602
 21
-48.8827985534
  0
LWPOLYLINE
  5
48B
100
AcDbEntity
  8
RACCORDO
100
AcDbPolyline
 62
253
  6
CONTINUOUS
 90
10
 70
0
 10
27.8459552225
 20
-49.3803234325
 10
27.8465313359
 20
-49.3756567026
 10
27.8475777788
 20
-49.3707770206
 10
27.8490804002
 20
-49.3657503759
 10
27.8510188797
 20
-49.360644745
 10
27.8533670028
 20
-49.3555291729
 10
27.8560930154
 20
-49.3504728391
 10
27.8591600528
 20
-49.345544122
 10
27.8625266388
 20
-49.3408096741
 10
27.8661472459
 20
-49.3363335209
  0
LWPOLYLINE
  5
48C
100
AcDbEntity
  8
RACCORDO
100
AcDbPolyline
 62
7
  6
CONTINUOUS
 90
11
 70
0
 10
28.6538344319
 20
34.185504328
 10
28.6685981227
 20
34.1854423662
 10
28.6834656639
 20
34.1846590358
 10
28.6983870326
 20
34.1831470261
 10
28.7133533959
 20
34.1809379506
 10
28.7282598814
 20
34.1780049122
 10
28.7429053999
 20
34.1742620473
 10
28.7572135959
 20
34.1697444778
 10
28.7711228559
 20
34.1644673272
 10
28.7844422325
 20
34.1583195585
 10
28.7944998203
 20
34.1528784854
  0
LWPOLYLINE
  5
48D
100
AcDbEntity
  8
ASSI
100
AcDbPolyline
 62
253
  6
CONTINUOUS
 90
13
 70
0
 10
24.0374711789
 20
28.7403020941
 10
23.9930289609
 20
28.7491070241
 10
23.9473517688
 20
28.7554643711
 10
23.9008429738
 20
28.7593180357
 10
23.853913274
 20
28.760634029
 10
23.8069770852
 20
28.75940077
 10
23.7604488811
 20
28.7556291905
 10
23.7147395099
 20
28.7493526382
 10
23.670252564
 20
28.7406265779
 10
23.6273808344
 20
28.729528101
 10
23.5865028412
 20
28.7161552447
 10
23.5479794917
 20
28.7006261261
 10
23.5121508913
 20
28.6830778977
  0
LWPOLYLINE
  5
48E
100
AcDbEntity
  8
ASSI
100
AcDbPolyline
 62
253
  6
CONTINUOUS
 90
31
 70
0
 10
16.5629370237
 20
28.0511485397
 10
16.6305592359
 20
28.0151188848
 10
16.6976551579
 20
27.9756195765
 10
16.7642245369
 20
27.9326504501
 10
16.8304558647
 20
27.886069037
 10
16.8961602081
 20
27.8360175185
 10
16.9607709223
 20
27.7829225359
 10
17.0242701108
 20
27.7267619548
 10
17.0866746804
 20
27.6675572582
 10
17.1474697241
 20
27.6058002043
 10
17.2066381698
 20
27.5414720263
 10
17.264195737
 20
27.4745905976
 10
17.3196763264
 20
27.4057023844
 10
17.3730623818
 20
27.3347904982
 10
17.4243698827
 20
27.2618707837
 10
17.4731827468
 20
27.1875386167
 10
17.519479448
 20
27.111782546
 10
17.5632798626
 20
27.0346129287
 10
17.6042298232
 20
26.9566577273
 10
17.6423049651
 20
26.8779115332
 10
17.6775280903
 20
26.7983787173
 10
17.709615691
 20
26.7187018509
 10
17.7385424635
 20
26.6388763802
 10
17.7643323866
 20
26.5589059784
 10
17.7867758728
 20
26.479445555
 10
17.8058444182
 20
26.40049258
 10
17.8215655658
 20
26.3220489441
 10
17.8338138639
 20
26.2447762308
 10
17.8425473223
 20
26.1688948527
 10
17.847807427
 20
26.0941840616
 10
17.849594052
 20
26.0206437736
  0
LINE
  5
48F
100
AcDbEntity
  8
0
100
AcDbLine
 62
7
  6
CONTINUOUS
 10
28.1832981546
 20
19.5762932436
 11
28.0683686099
 21
19.6387843852
  0
LWPOLYLINE
  5
490
100
AcDbEntity
  8
ASSI
100
AcDbPolyline
 62
253
  6
CONTINUOUS
 90
31
 70
0
 10
17.0708211432
 20
29.0396371062
 10
17.1667923272
 20
28.9851067158
 10
17.2624882549
 20
28.9251735691
 10
17.3576647164
 20
28.8600165029
 10
17.4520891256
 20
28.7898426362
 10
17.5455103889
 20
28.7148439741
 10
17.6376589316
 20
28.6351936903
 10
17.7283070025
 20
28.5511099254
 10
17.8172140409
 20
28.4628412979
 10
17.9040966888
 20
28.3706226895
 10
17.988726324
 20
28.2747199103
 10
18.0708926931
 20
28.1754012533
 10
18.1503487395
 20
28.0729204089
 10
18.2268886461
 20
27.9675632062
 10
18.3003175453
 20
27.8596265891
 10
18.3704153268
 20
27.7493911649
 10
18.4369982227
 20
27.6371628014
 10
18.4998974516
 20
27.5232538343
 10
18.5589280357
 20
27.4079613488
 10
18.6139331878
 20
27.2916030089
 10
18.6647731554
 20
27.1744997334
 10
18.7113024646
 20
27.0569565399
 10
18.7533969496
 20
26.939288288
 10
18.7909458384
 20
26.8218241766
 10
18.8238405309
 20
26.7048900509
 10
18.8519871079
 20
26.5888162465
 10
18.8753170677
 20
26.4739057022
 10
18.893774927
 20
26.3604397379
 10
18.9073077258
 20
26.2487168742
 10
18.915869429
 20
26.1390505435
 10
18.9194296417
 20
26.0317381042
  0
LINE
  5
491
100
AcDbEntity
  8
0
100
AcDbLine
 62
7
  6
CONTINUOUS
 10
28.5477986129
 20
19.3658759219
 11
28.1832981546
 21
19.5762932436
  0
LWPOLYLINE
  5
492
100
AcDbEntity
  8
RACCORDO
100
AcDbPolyline
 62
253
  6
CONTINUOUS
 90
16
 70
0
 10
26.7984002465
 20
22.7508620909
 10
26.9630575914
 20
22.6555592313
 10
27.127254734
 20
22.5532422498
 10
27.2909916744
 20
22.4439111465
 10
27.4545706964
 20
22.3273451392
 10
27.6176895161
 20
22.2037650101
 10
27.7794412824
 20
22.0738331051
 10
27.9397375226
 20
21.9375785093
 10
28.0986667094
 20
21.7949721376
 10
28.2555874094
 20
21.6465890811
 10
28.4105693496
 20
21.4923150123
 10
28.563542803
 20
21.3322642586
 10
28.7136571549
 20
21.1673548932
 10
28.8606288671
 20
20.9978929403
 10
29.0047414777
 20
20.8235723756
 10
29.1459949869
 20
20.6443931992
  0
LWPOLYLINE
  5
493
100
AcDbEntity
  8
RACCORDO
100
AcDbPolyline
 62
253
  6
CONTINUOUS
 90
16
 70
0
 10
27.0030215294
 20
23.1182701474
 10
27.1758342537
 20
23.018239229
 10
27.3485110261
 20
22.9106204228
 10
27.5207968498
 20
22.7955726526
 10
27.6924373044
 20
22.6732658137
 10
27.8631789249
 20
22.5438805191
 10
28.0327695769
 20
22.4076078325
 10
28.2009588241
 20
22.2646489885
 10
28.3674982935
 20
22.1152151003
 10
28.5321420468
 20
21.9595268454
 10
28.6946469479
 20
21.7978141353
 10
28.8547730236
 20
21.6303157739
 10
29.0122838125
 20
21.4572791092
 10
29.1669467146
 20
21.278959669
 10
29.3185333343
 20
21.0956207829
 10
29.4668198197
 20
20.9075331925
  0
LWPOLYLINE
  5
494
100
AcDbEntity
  8
RACCORDO
100
AcDbPolyline
 62
7
  6
CONTINUOUS
 90
4
 70
0
 10
27.9947726578
 20
18.3611898952
 10
27.9754051189
 20
18.3731901489
 10
27.9560451821
 20
18.3847770437
 10
27.9366995835
 20
18.3959472736
  0
LWPOLYLINE
  5
495
100
AcDbEntity
  8
ASSI
100
AcDbPolyline
 62
253
  6
CONTINUOUS
 90
16
 70
0
 10
-30.4869059601
 20
56.4988726973
 10
-27.5200946137
 20
54.55548732
 10
-24.5230242769
 20
52.6275287568
 10
-21.4959501382
 20
50.7151442332
 10
-18.4391120929
 20
48.8184608067
 10
-15.3527807734
 20
46.9376459397
 10
-12.2372576121
 20
45.0729076222
 10
-9.0927880969
 20
43.2243989313
 10
-5.9196376225
 20
41.3922616879
 10
-2.7181375687
 20
39.5766872043
 10
0.5114657018
 20
37.7778291423
 10
3.7689076649
 20
35.9958289
 10
7.0538297753
 20
34.2308595071
 10
10.3659423568
 20
32.4830770026
 10
13.7050245444
 20
30.7526203809
 10
17.0708211432
 20
29.0396371062
  0
LWPOLYLINE
  5
496
100
AcDbEntity
  8
RACCORDO
100
AcDbPolyline
 62
7
  6
CONTINUOUS
 90
3
 70
0
 10
28.033501214
 20
18.3359648427
 10
28.0141403877
 20
18.3487801691
 10
27.9947726578
 20
18.3611898952
  0
LINE
  5
497
100
AcDbEntity
  8
RACCORDO
100
AcDbLine
 62
253
  6
CONTINUOUS
 10
28.0681675224
 20
19.8215914538
 11
28.1926788414
 21
19.7379390191
  0
LWPOLYLINE
  5
498
100
AcDbEntity
  8
RACCORDO
100
AcDbPolyline
 62
253
  6
CONTINUOUS
 90
10
 70
0
 10
27.7798703882
 20
18.4215414589
 10
27.7862188834
 20
18.4172652696
 10
27.793391098
 20
18.413690197
 10
27.8011833646
 20
18.4109177659
 10
27.8093744078
 20
18.4090267089
 10
27.8177316242
 20
18.4080707312
 10
27.8260176878
 20
18.4080769837
 10
27.8339972941
 20
18.4090452915
 10
27.8414438423
 20
18.41094816
 10
27.8481458667
 20
18.4137315549
  0
LINE
  5
499
100
AcDbEntity
  8
RACCORDO
100
AcDbLine
 62
253
  6
CONTINUOUS
 10
28.026049028
 20
18.3570410676
 11
28.0295560515
 21
18.3545915419
  0
LWPOLYLINE
  5
49A
100
AcDbEntity
  8
RACCORDO
100
AcDbPolyline
 62
7
  6
CONTINUOUS
 90
5
 70
0
 10
28.033598439
 20
18.3359001002
 10
28.0360143334
 20
18.3341504592
 10
28.0416510787
 20
18.3292454095
 10
28.0479640378
 20
18.3224497013
 10
28.054435907
 20
18.3139699532
  0
LWPOLYLINE
  5
49B
100
AcDbEntity
  8
RACCORDO
100
AcDbPolyline
 62
253
  6
CONTINUOUS
 90
4
 70
0
 10
28.1926788414
 20
19.7379390191
 10
28.3161498849
 20
19.6474712539
 10
28.4385815114
 20
19.5501315446
 10
28.5599728624
 20
19.4459765048
  0
LWPOLYLINE
  5
49C
100
AcDbEntity
  8
RACCORDO
100
AcDbPolyline
 62
253
  6
CONTINUOUS
 90
9
 70
0
 10
29.0288428613
 20
16.4122034911
 10
29.0249912768
 20
16.4150925914
 10
29.0216698977
 20
16.418218683
 10
29.0189236404
 20
16.421539491
 10
29.0167896434
 20
16.425010107
 10
29.0152967656
 20
16.4285835971
 10
29.014465196
 20
16.4322116357
 10
29.0143061803
 20
16.43584516
 10
29.0143360835
 20
16.436328317
  0
LWPOLYLINE
  5
49D
100
AcDbEntity
  8
RACCORDO
100
AcDbPolyline
 62
253
  6
CONTINUOUS
 90
15
 70
0
 10
28.0295560515
 20
18.3545915419
 10
28.0331023191
 20
18.3518451965
 10
28.0366878308
 20
18.3488020314
 10
28.0403255651
 20
18.3454673464
 10
28.0440025436
 20
18.3418358417
 10
28.0476798307
 20
18.3378916178
 10
28.0513603587
 20
18.3336318834
 10
28.0550411953
 20
18.3290594297
 10
28.0586746076
 20
18.324166731
 10
28.0622607447
 20
18.3189594592
 10
28.0657994574
 20
18.3134319423
 10
28.0692425659
 20
18.3075596386
 10
28.07260568
 20
18.3013214656
 10
28.0758731897
 20
18.2947385057
 10
28.0789500852
 20
18.2878494648
  0
LINE
  5
49E
100
AcDbEntity
  8
RACCORDO
100
AcDbLine
 62
253
  6
CONTINUOUS
 10
27.5765006408
 20
17.0388453663
 11
26.9104018311
 21
17.5590590563
  0
LINE
  5
49F
100
AcDbEntity
  8
RACCORDO
100
AcDbLine
 62
253
  6
CONTINUOUS
 10
27.6161366008
 20
17.0947989906
 11
26.9500377905
 21
17.6150126811
  0
LINE
  5
4A0
100
AcDbEntity
  8
RACCORDO
100
AcDbLine
 62
7
  6
CONTINUOUS
 10
28.3000832112
 20
17.2365018786
 11
28.9661820154
 21
16.7162881929
  0
LINE
  5
4A1
100
AcDbEntity
  8
RACCORDO
100
AcDbLine
 62
253
  6
CONTINUOUS
 10
28.2955036079
 20
17.2554944186
 11
28.9616024118
 21
16.7352807331
  0
LWPOLYLINE
  5
4A2
100
AcDbEntity
  8
RACCORDO
100
AcDbPolyline
 62
7
  6
CONTINUOUS
 90
4
 70
0
 10
28.9663880382
 20
16.7161311118
 10
28.9691980434
 20
16.7138506356
 10
28.9791543003
 20
16.7045466522
 10
28.988190409
 20
16.694246693
  0
LINE
  5
4A3
100
AcDbEntity
  8
RACCORDO
100
AcDbLine
 62
7
  6
CONTINUOUS
 10
28.2925766472
 20
17.242619795
 11
28.3001291764
 21
17.2364679684
  0
LWPOLYLINE
  5
4A4
100
AcDbEntity
  8
RACCORDO
100
AcDbPolyline
 62
253
  6
CONTINUOUS
 90
19
 70
0
 10
26.9104018311
 20
17.5590590563
 10
26.9034483378
 20
17.564876303
 10
26.896853959
 20
17.5709138068
 10
26.8906186946
 20
17.5771715677
 10
26.8847294354
 20
17.5837035258
 10
26.8791992907
 20
17.590455741
 10
26.874067588
 20
17.5972663927
 10
26.8693391714
 20
17.6041392383
 10
26.8650091969
 20
17.6110705204
 10
26.86110246
 20
17.617887146
 10
26.8576473898
 20
17.6245333187
 10
26.8546155573
 20
17.6310648349
 10
26.8519464713
 20
17.6374759912
 10
26.8496298664
 20
17.643735827
 10
26.847676008
 20
17.6498753029
 10
26.8460552011
 20
17.6559815976
 10
26.8447575475
 20
17.6620837707
 10
26.8437929455
 20
17.6681527625
 10
26.843161395
 20
17.6741885732
  0
LWPOLYLINE
  5
4A5
100
AcDbEntity
  8
RACCORDO
100
AcDbPolyline
 62
253
  6
CONTINUOUS
 90
11
 70
0
 10
28.9616024118
 20
16.7352807331
 10
28.9685559059
 20
16.7294634858
 10
28.9751502856
 20
16.7234259815
 10
28.9813855509
 20
16.7171682201
 10
28.987274811
 20
16.7106362615
 10
28.9928049567
 20
16.7038840459
 10
28.9979366604
 20
16.6970733936
 10
29.0026650783
 20
16.6902005471
 10
29.0069950541
 20
16.6832692638
 10
29.0109017922
 20
16.6764526369
 10
29.0143568637
 20
16.6698064626
  0
LWPOLYLINE
  5
4A6
100
AcDbEntity
  8
RACCORDO
100
AcDbPolyline
 62
253
  6
CONTINUOUS
 90
22
 70
0
 10
27.8661472671
 20
15.98128859
 10
27.8645374094
 20
15.98269919
 10
27.8629505592
 20
15.9843241474
 10
27.8613896263
 20
15.9861643425
 10
27.8598549119
 20
15.9882141438
 10
27.8583541538
 20
15.990479463
 10
27.8569024984
 20
15.9929779032
 10
27.8555074407
 20
15.9957083486
 10
27.854174393
 20
15.9986689972
 10
27.8529166894
 20
16.0018759008
 10
27.8517460672
 20
16.0053196535
 10
27.8506696083
 20
16.0090026049
 10
27.849696035
 20
16.0129582049
 10
27.8488390124
 20
16.0171913829
 10
27.8481135963
 20
16.0216851532
 10
27.8475342043
 20
16.0264388425
 10
27.8471247718
 20
16.0314566563
 10
27.8469016102
 20
16.0367127411
 10
27.8468700214
 20
16.0421589016
 10
27.8470474418
 20
16.0477684986
 10
27.8474641572
 20
16.0535363107
 10
27.8481458629
 20
16.0594438912
  0
LWPOLYLINE
  5
4A7
100
AcDbEntity
  8
RACCORDO
100
AcDbPolyline
 62
253
  6
CONTINUOUS
 90
7
 70
0
 10
28.0921338615
 20
15.8727983321
 10
28.0867893539
 20
15.8776542112
 10
28.0826005973
 20
15.8829518951
 10
28.0796865454
 20
15.8885409462
 10
28.0781299544
 20
15.8942626528
 10
28.0779750335
 20
15.8999545331
 10
28.0781642318
 20
15.9013999236
  0
LWPOLYLINE
  5
4A8
100
AcDbEntity
  8
RACCORDO
100
AcDbPolyline
 62
253
  6
CONTINUOUS
 90
7
 70
0
 10
28.2095850524
 20
16.5741033553
 10
28.2042405203
 20
16.5789592608
 10
28.2000517565
 20
16.5842569673
 10
28.1971377111
 20
16.5898460339
 10
28.195581135
 20
16.595567746
 10
28.195426231
 20
16.6012596221
 10
28.1956271761
 20
16.602775825
  0
LWPOLYLINE
  5
4A9
100
AcDbEntity
  8
RACCORDO
100
AcDbPolyline
 62
253
  6
CONTINUOUS
 90
4
 70
0
 10
28.5599728624
 20
19.4459765048
 10
28.6793450082
 20
19.3358447251
 10
28.7966893773
 20
19.2196796195
 10
28.9120145413
 20
19.097537774
  0
LWPOLYLINE
  5
4AA
100
AcDbEntity
  8
RACCORDO
100
AcDbPolyline
 62
253
  6
CONTINUOUS
 90
14
 70
0
 10
28.9120145413
 20
19.097537774
 10
29.0243672847
 20
18.9704275373
 10
29.1337173862
 20
18.838314239
 10
29.2400950671
 20
18.7012325495
 10
29.3426377764
 20
18.5602948287
 10
29.441316608
 20
18.4154665791
 10
29.5361604679
 20
18.2667822983
 10
29.6263935234
 20
18.1154578383
 10
29.7119772129
 20
17.9614727864
 10
29.7929500979
 20
17.8048475554
 10
29.8686520299
 20
17.6468592352
 10
29.9390401285
 20
17.4874962462
 10
30.004157274
 20
17.326770168
 10
30.0634719589
 20
17.1659928299
  0
LWPOLYLINE
  5
4AB
100
AcDbEntity
  8
0
100
AcDbPolyline
 62
7
  6
CONTINUOUS
 90
6
 70
0
 10
29.13775585
 20
18.7396122011
 10
28.9676874254
 20
18.93642919
 10
28.7513309278
 20
19.1522773695
 10
28.5272953489
 20
19.3429423349
 10
28.2986103856
 20
19.5058456695
 10
28.1832981546
 20
19.5762932436
  0
LWPOLYLINE
  5
4AC
100
AcDbEntity
  8
RACCORDO
100
AcDbPolyline
 62
7
  6
CONTINUOUS
 90
3
 70
0
 10
28.988190409
 20
16.694246693
 10
28.9960146006
 20
16.6834851252
 10
29.002680856
 20
16.6723329267
  0
LWPOLYLINE
  5
4AD
100
AcDbEntity
  8
RACCORDO
100
AcDbPolyline
 62
7
  6
CONTINUOUS
 90
4
 70
0
 10
28.2380367085
 20
17.3059768968
 10
28.2544904837
 20
17.282653815
 10
28.2727414422
 20
17.2614229809
 10
28.2925766472
 20
17.242619795
  0
LINE
  5
4AE
100
AcDbEntity
  8
RACCORDO
100
AcDbLine
 62
7
  6
CONTINUOUS
 10
26.3980455412
 20
15.6405446311
 11
26.3980262218
 21
15.6405721964
  0
LWPOLYLINE
  5
4AF
100
AcDbEntity
  8
RACCORDO
100
AcDbPolyline
 62
7
  6
CONTINUOUS
 90
3
 70
0
 10
26.3980278516
 20
15.6405697591
 10
26.4019171048
 20
15.6349332551
 10
26.4251890589
 20
15.5994834471
  0
LINE
  5
4B0
100
AcDbEntity
  8
RACCORDO
100
AcDbLine
 62
7
  6
CONTINUOUS
 10
26.3140272104
 20
15.7645629018
 11
26.3980262218
 21
15.6405721964
  0
LWPOLYLINE
  5
4B1
100
AcDbEntity
  8
RACCORDO
100
AcDbPolyline
 62
253
  6
CONTINUOUS
 90
10
 70
0
 10
26.4322643577
 20
15.6892673261
 10
26.3500335003
 20
15.8111241423
 10
26.2714890629
 20
15.9332782916
 10
26.1966310455
 20
16.0557297737
 10
26.1258378179
 20
16.1778223927
 10
26.0587310103
 20
16.3002123447
 10
25.9941755137
 20
16.424868218
 10
25.9317929584
 20
16.5524462087
 10
25.8719617141
 20
16.6822901208
 10
25.8146817808
 20
16.8143999542
  0
LINE
  5
4B2
100
AcDbEntity
  8
RACCORDO
100
AcDbLine
 62
253
  6
CONTINUOUS
 10
26.4598377555
 20
15.647970653
 11
26.4322643577
 21
15.6892673261
  0
LWPOLYLINE
  5
4B3
100
AcDbEntity
  8
RACCORDO
100
AcDbPolyline
 62
7
  6
CONTINUOUS
 90
3
 70
0
 10
28.054435907
 20
18.3139699532
 10
28.0606110651
 20
18.3041775461
 10
28.0660950195
 20
18.2936146358
  0
LWPOLYLINE
  5
4B4
100
AcDbEntity
  8
RACCORDO
100
AcDbPolyline
 62
253
  6
CONTINUOUS
 90
8
 70
0
 10
29.5417066376
 20
18.453490917
 10
29.6390296897
 20
18.2990492619
 10
29.7317090472
 20
18.1417474936
 10
29.8200194155
 20
17.981069656
 10
29.9036860893
 20
17.8175317053
 10
29.9818849529
 20
17.6526815092
 10
30.0545115406
 20
17.4866088567
 10
30.1216703181
 20
17.3192239588
  0
LINE
  5
4B5
100
AcDbEntity
  8
RACCORDO
100
AcDbLine
 62
253
  6
CONTINUOUS
 10
26.4858197374
 20
15.6058951556
 11
26.4598377555
 21
15.647970653
  0
LWPOLYLINE
  5
4B6
100
AcDbEntity
  8
RACCORDO
100
AcDbPolyline
 62
253
  6
CONTINUOUS
 90
7
 70
0
 10
28.2381099967
 20
17.3236304807
 10
28.2464301992
 20
17.3100905203
 10
28.2556279536
 20
17.2969459855
 10
28.265185907
 20
17.2848489051
 10
28.2749316083
 20
17.2740166219
 10
28.2850375086
 20
17.2642317931
 10
28.2955036079
 20
17.2554944186
  0
LWPOLYLINE
  5
4B7
100
AcDbEntity
  8
RACCORDO
100
AcDbPolyline
 62
7
  6
CONTINUOUS
 90
14
 70
0
 10
26.4251890589
 20
15.5994834471
 10
26.4471527936
 20
15.5629667764
 10
26.4676396459
 20
15.5256631077
 10
26.4864824652
 20
15.4879059815
 10
26.5035752898
 20
15.4499651615
 10
26.5188250916
 20
15.4121298632
 10
26.532132035
 20
15.3747826765
 10
26.5434716027
 20
15.3381862726
 10
26.552832702
 20
15.3026310706
 10
26.5602031267
 20
15.2685534264
 10
26.5656571832
 20
15.2361866655
 10
26.5692928262
 20
15.2057608402
 10
26.571225985
 20
15.1776939951
 10
26.5716703086
 20
15.1572115647
  0
LINE
  5
4B8
100
AcDbEntity
  8
RACCORDO
100
AcDbLine
 62
7
  6
CONTINUOUS
 10
28.2237284748
 20
17.3309476872
 11
28.2380367085
 21
17.3059768968
  0
LWPOLYLINE
  5
4B9
100
AcDbEntity
  8
RACCORDO
100
AcDbPolyline
 62
7
  6
CONTINUOUS
 90
4
 70
0
 10
29.002680856
 20
16.6723329267
 10
29.0080253236
 20
16.6611036372
 10
29.0117479462
 20
16.650602196
 10
29.013789072
 20
16.6416694459
  0
LWPOLYLINE
  5
4BA
100
AcDbEntity
  8
RACCORDO
100
AcDbPolyline
 62
7
  6
CONTINUOUS
 90
8
 70
0
 10
25.8473115175
 20
16.6004829371
 10
25.8715305995
 20
16.5488961865
 10
25.9374192017
 20
16.4142931282
 10
26.0065876457
 20
16.280998751
 10
26.0789342068
 20
16.1492004033
 10
26.1543627961
 20
16.019069539
 10
26.2327667215
 20
15.8907912531
 10
26.3140272104
 20
15.7645629018
  0
LWPOLYLINE
  5
4BB
100
AcDbEntity
  8
RACCORDO
100
AcDbPolyline
 62
253
  6
CONTINUOUS
 90
8
 70
0
 10
29.0143568637
 20
16.6698064626
 10
29.0173886974
 20
16.6632749445
 10
29.0200577843
 20
16.6568637868
 10
29.0223743899
 20
16.6506039501
 10
29.0243282487
 20
16.6444644736
 10
29.0259490554
 20
16.638358179
 10
29.0272467083
 20
16.6322560067
 10
29.0282113091
 20
16.6261870162
  0
LINE
  5
4BC
100
AcDbEntity
  8
RACCORDO
100
AcDbLine
 62
7
  6
CONTINUOUS
 10
28.2119189172
 20
17.3568894747
 11
28.2237284748
 21
17.3309476872
  0
LWPOLYLINE
  5
4BD
100
AcDbEntity
  8
RACCORDO
100
AcDbPolyline
 62
7
  6
CONTINUOUS
 90
11
 70
0
 10
25.847301443
 20
16.6004677966
 10
25.842648316
 20
16.6113698912
 10
25.8369701319
 20
16.627323656
 10
25.8318758118
 20
16.644989736
 10
25.8274176865
 20
16.6643457733
 10
25.8235928998
 20
16.6854408494
 10
25.8204043078
 20
16.7082258827
 10
25.81791281
 20
16.7325312702
 10
25.8161387062
 20
16.7583004774
 10
25.8150616964
 20
16.7855900388
 10
25.8146817808
 20
16.8143999542
  0
LWPOLYLINE
  5
4BE
100
AcDbEntity
  8
RACCORDO
100
AcDbPolyline
 62
7
  6
CONTINUOUS
 90
5
 70
0
 10
28.0660950195
 20
18.2936146358
 10
28.0707885057
 20
18.2824423693
 10
28.0746446981
 20
18.2705632202
 10
28.0774009927
 20
18.2583658518
 10
28.077946541
 20
18.2549228424
  0
LWPOLYLINE
  5
4BF
100
AcDbEntity
  8
RACCORDO
100
AcDbPolyline
 62
253
  6
CONTINUOUS
 90
6
 70
0
 10
28.0789500852
 20
18.2878494648
 10
28.0818448697
 20
18.2806272627
 10
28.0845490401
 20
18.2730989796
 10
28.0869420763
 20
18.2653845618
 10
28.088983805
 20
18.2575239915
 10
28.0907143996
 20
18.2494772865
  0
LWPOLYLINE
  5
4C0
100
AcDbEntity
  8
ASSI
100
AcDbPolyline
 62
253
  6
CONTINUOUS
 90
25
 70
0
 10
23.8682388958
 20
30.0152987107
 10
23.8200030453
 20
30.1358563872
 10
23.7686281008
 20
30.2552259567
 10
23.7141140625
 20
30.373407419
 10
23.6563749576
 20
30.4905462644
 10
23.5954967588
 20
30.6064970026
 10
23.5317373841
 20
30.7208231634
 10
23.4650979106
 20
30.8335328147
 10
23.3955772613
 20
30.9446178886
 10
23.3234301229
 20
31.0536177104
 10
23.248596073
 20
31.1606040996
 10
23.1711355339
 20
31.2655052368
 10
23.0914844602
 20
31.3676449892
 10
23.0095586504
 20
31.4670661834
 10
22.925442306
 20
31.5637259928
 10
22.8398239851
 20
31.6568198042
 10
22.7526797517
 20
31.7462919935
 10
22.6640335418
 20
31.8321981849
 10
22.5746457221
 20
31.9139006374
 10
22.4844954116
 20
31.9913366283
 10
22.3936034911
 20
32.0645688802
 10
22.3027929697
 20
32.1331478199
 10
22.2123381835
 20
32.1969235895
 10
22.1219647962
 20
32.256046047
 10
22.0316728079
 20
32.3105151921
  0
LWPOLYLINE
  5
4C1
100
AcDbEntity
  8
ASSI
100
AcDbPolyline
 62
253
  6
CONTINUOUS
 90
25
 70
0
 10
23.2247177033
 20
29.7959897155
 10
23.1848892656
 20
29.8962441547
 10
23.1422056254
 20
29.9958639523
 10
23.0967652316
 20
30.0946602253
 10
23.0487016878
 20
30.1923864514
 10
22.9980933646
 20
30.2889220849
 10
22.9449482678
 20
30.3842666833
 10
22.889364982
 20
30.4782427815
 10
22.8314509457
 20
30.5706659354
 10
22.7712097586
 20
30.6615151508
 10
22.7087006691
 20
30.7506671924
 10
22.6440743086
 20
30.8378761638
 10
22.5774697647
 20
30.9229335851
 10
22.5089544627
 20
31.0057211293
 10
22.4387026331
 20
31.0860045698
 10
22.3670318689
 20
31.1634278115
 10
22.2940799367
 20
31.2378443442
 10
22.2199906462
 20
31.3091188836
 10
22.1451101178
 20
31.3769637763
 10
22.0695888431
 20
31.4412740461
 10
21.993571502
 20
31.5019642462
 10
21.9174037958
 20
31.5588350558
 10
21.8412971686
 20
31.611801392
 10
21.7653245759
 20
31.6608661809
 10
21.6896210777
 20
31.7060002099
  0
LINE
  5
4C2
100
AcDbEntity
  8
ASSI
100
AcDbLine
 62
253
  6
CONTINUOUS
 10
23.2735457941
 20
29.6693220301
 11
23.2247177033
 21
29.7959897155
  0
LINE
  5
4C3
100
AcDbEntity
  8
RACCORDO
100
AcDbLine
 62
253
  6
CONTINUOUS
 10
30.1216703181
 20
17.3192239588
 11
30.1828505667
 21
17.1518053174
  0
LWPOLYLINE
  5
4C4
100
AcDbEntity
  8
RACCORDO
100
AcDbPolyline
 62
253
  6
CONTINUOUS
 90
20
 70
0
 10
30.0634719589
 20
17.1659928299
 10
30.1169366408
 20
17.005163953
 10
30.164598862
 20
16.8442838161
 10
30.2060697422
 20
16.6846650847
 10
30.2412986387
 20
16.5263180365
 10
30.2703361941
 20
16.3692323939
 10
30.2929454569
 20
16.2146899892
 10
30.3090738265
 20
16.0627116442
 10
30.3187739034
 20
15.9132765372
 10
30.3219665374
 20
15.7676040355
 10
30.3185984839
 20
15.6257249221
 10
30.3087229876
 20
15.4876084139
 10
30.2924206311
 20
15.3543815298
 10
30.2696388289
 20
15.2260842778
 10
30.2404301667
 20
15.1026766497
 10
30.2050329843
 20
14.9851656396
 10
30.1633966468
 20
14.8735994951
 10
30.1155717893
 20
14.7679299686
 10
30.0619486567
 20
14.6690193114
 10
30.0024798055
 20
14.5769228241
  0
LWPOLYLINE
  5
4C5
100
AcDbEntity
  8
RACCORDO
100
AcDbPolyline
 62
253
  6
CONTINUOUS
 90
28
 70
0
 10
30.1828505667
 20
17.1518053174
 10
30.2380163394
 20
16.9843242683
 10
30.2872035832
 20
16.8168094756
 10
30.3300094196
 20
16.6506254328
 10
30.3663783512
 20
16.4857958101
 10
30.3963658754
 20
16.3222969373
 10
30.4197356068
 20
16.161422297
 10
30.4364357359
 20
16.0031886308
 10
30.4465180721
 20
15.8475791972
 10
30.4499016585
 20
15.6958372541
 10
30.4465325862
 20
15.5479941595
 10
30.4364647641
 20
15.4040185555
 10
30.4197789611
 20
15.2650596261
 10
30.3964230991
 20
15.1311596679
 10
30.3664492562
 20
15.0022763843
 10
30.3300944354
 20
14.8794320701
 10
30.2873041471
 20
14.7626689891
 10
30.238132881
 20
14.6519448774
 10
30.1829811091
 20
14.5481552382
 10
30.1218119164
 20
14.4513679626
 10
30.054662218
 20
14.3615151594
 10
29.9820432313
 20
14.2792886584
 10
29.9038570955
 20
14.2047219214
 10
29.8202016714
 20
14.1377814866
 10
29.731881759
 20
14.0790587973
 10
29.6391656248
 20
14.0287510013
 10
29.5417850022
 20
13.9866609508
 10
29.4397398912
 20
13.9527886459
  0
LWPOLYLINE
  5
4C6
100
AcDbEntity
  8
RACCORDO
100
AcDbPolyline
 62
253
  6
CONTINUOUS
 90
5
 70
0
 10
28.2147240597
 20
17.3791951173
 10
28.2189320537
 20
17.3659708866
 10
28.2243039662
 20
17.3520220221
 10
28.2307682055
 20
17.3376285386
 10
28.2381099967
 20
17.3236304807
  0
LWPOLYLINE
  5
4C7
100
AcDbEntity
  8
RACCORDO
100
AcDbPolyline
 62
253
  6
CONTINUOUS
 90
7
 70
0
 10
27.5765006408
 20
17.6706377206
 10
27.5780335415
 20
17.6635815772
 10
27.5805269059
 20
17.6573054989
 10
27.5839099312
 20
17.6519877107
 10
27.5880865499
 20
17.6477792248
 10
27.5929381588
 20
17.6447995532
 10
27.5943495481
 20
17.6442163689
  0
LWPOLYLINE
  5
4C8
100
AcDbEntity
  8
RACCORDO
100
AcDbPolyline
 62
253
  6
CONTINUOUS
 90
15
 70
0
 10
27.8481458667
 20
18.4137315549
 10
27.8474142272
 20
18.4173944017
 10
27.8469945486
 20
18.4207462691
 10
27.8468563384
 20
18.423779798
 10
27.8469611129
 20
18.4264901475
 10
27.8472896918
 20
18.4288797856
 10
27.8478436197
 20
18.4309558358
 10
27.8486079193
 20
18.4327264392
 10
27.849551824
 20
18.4341938137
 10
27.8506555524
 20
18.4353616414
 10
27.8518945823
 20
18.4362397385
 10
27.853256316
 20
18.436852448
 10
27.8547421069
 20
18.4372212589
 10
27.8563242592
 20
18.4373551384
 10
27.8573556977
 20
18.4373249975
  0
LWPOLYLINE
  5
4C9
100
AcDbEntity
  8
RACCORDO
100
AcDbPolyline
 62
253
  6
CONTINUOUS
 90
13
 70
0
 10
27.7306946747
 20
16.8963785863
 10
27.7277813873
 20
16.9124618519
 10
27.7235684426
 20
16.9294374596
 10
27.7179785768
 20
16.9471853896
 10
27.7108931332
 20
16.9657055971
 10
27.7023108308
 20
16.9846509992
 10
27.6924448343
 20
17.0033454976
 10
27.6813682508
 20
17.0215699039
 10
27.66919723
 20
17.0391007341
 10
27.6563802107
 20
17.0553323772
 10
27.6432079791
 20
17.0700179021
 10
27.6297417892
 20
17.0831966742
 10
27.6161366008
 20
17.0947989906
  0
LINE
  5
4CA
100
AcDbEntity
  8
RACCORDO
100
AcDbLine
 62
253
  6
CONTINUOUS
 10
28.0907143996
 20
18.2494772865
 11
28.09213386
 21
18.2412444469
  0
LWPOLYLINE
  5
4CB
100
AcDbEntity
  8
RACCORDO
100
AcDbPolyline
 62
253
  6
CONTINUOUS
 90
3
 70
0
 10
28.2095850524
 20
17.4043097218
 10
28.2116083927
 20
17.3919747291
 10
28.2147240597
 20
17.3791951173
  0
LWPOLYLINE
  5
4CC
100
AcDbEntity
  8
RACCORDO
100
AcDbPolyline
 62
7
  6
CONTINUOUS
 90
4
 70
0
 10
28.1954168315
 20
17.4178393663
 10
28.1966870786
 20
17.4098030394
 10
28.2028509536
 20
17.3832819102
 10
28.2119189172
 20
17.3568894747
  0
LWPOLYLINE
  5
4CD
100
AcDbEntity
  8
RACCORDO
100
AcDbPolyline
 62
253
  6
CONTINUOUS
 90
3
 70
0
 10
29.7888234583
 20
33.1831326805
 10
29.7840190762
 20
33.2160282471
 10
29.7772741276
 20
33.2495201005
  0
LINE
  5
4CE
100
AcDbEntity
  8
RACCORDO
100
AcDbLine
 62
7
  6
CONTINUOUS
 10
28.0779743917
 20
18.2547095185
 11
28.1954255864
 21
17.4177747774
  0
LINE
  5
4CF
100
AcDbEntity
  8
RACCORDO
100
AcDbLine
 62
253
  6
CONTINUOUS
 10
28.09213386
 20
18.2412444469
 11
28.2095850524
 21
17.4043097218
  0
LINE
  5
4D0
100
AcDbEntity
  8
RACCORDO
100
AcDbLine
 62
7
  6
CONTINUOUS
 10
29.013789072
 20
16.6416694459
 11
29.0143073964
 21
16.6372673665
  0
LWPOLYLINE
  5
4D1
100
AcDbEntity
  8
0
100
AcDbPolyline
 62
7
  6
CONTINUOUS
 90
8
 70
0
 10
33.9464097644
 20
19.6376449117
 10
33.929078789
 20
19.8446605749
 10
33.8766222502
 20
20.0670506857
 10
33.7929551854
 20
20.2882173965
 10
33.6787391078
 20
20.5064120546
 10
33.5399729595
 20
20.7085950559
 10
33.3853102836
 20
20.883458138
 10
33.2142097012
 20
21.0309214972
  0
LWPOLYLINE
  5
4D2
100
AcDbEntity
  8
0
100
AcDbPolyline
 62
7
  6
CONTINUOUS
 90
13
 70
0
 10
34.1585417988
 20
19.5151625337
 10
34.144559297
 20
19.7120564744
 10
34.1095465044
 20
19.9093990103
 10
34.0535034212
 20
20.1071901414
 10
33.974271088
 20
20.3098023854
 10
33.874008464
 20
20.5128632246
 10
33.7591924274
 20
20.7032551061
 10
33.6288621507
 20
20.8801416158
 10
33.4839784613
 20
21.0443591677
 10
33.3339007191
 20
21.1852994515
 10
33.1782860086
 20
21.3014256842
 10
33.0174772454
 20
21.3942746487
 10
33.0082389973
 20
21.3980487773
  0
LWPOLYLINE
  5
4D3
100
AcDbEntity
  8
0
100
AcDbPolyline
 62
7
  6
CONTINUOUS
 90
5
 70
0
 10
34.1585417988
 20
-45.8024596097
 10
34.144559297
 20
-45.9832069077
 10
34.1095465044
 20
-46.1401175484
 10
34.0535034212
 20
-46.2731915318
 10
34.0385769923
 20
-46.2941246019
  0
LINE
  5
4D4
100
AcDbEntity
  8
RACCORDO
100
AcDbLine
 62
253
  6
CONTINUOUS
 10
27.6624191963
 20
-47.5973857138
 11
27.7798703882
 21
-46.8960806845
  0
LINE
  5
4D5
100
AcDbEntity
  8
RACCORDO
100
AcDbLine
 62
253
  6
CONTINUOUS
 10
27.7306946747
 20
-47.6051956178
 11
27.8481458668
 21
-46.9038905879
  0
LINE
  5
4D6
100
AcDbEntity
  8
RACCORDO
100
AcDbLine
 62
7
  6
CONTINUOUS
 10
28.1956271761
 20
-48.7148463184
 11
28.0781759851
 21
-49.4161513419
  0
LINE
  5
4D7
100
AcDbEntity
  8
RACCORDO
100
AcDbLine
 62
253
  6
CONTINUOUS
 10
28.2095850524
 20
-48.7435187881
 11
28.0921338615
 21
-49.4448238114
  0
LWPOLYLINE
  5
4D8
100
AcDbEntity
  8
RACCORDO
100
AcDbPolyline
 62
7
  6
CONTINUOUS
 90
4
 70
0
 10
29.0141652602
 20
-48.8827985534
 10
29.0140329301
 20
-48.8834900586
 10
29.0139318908
 20
-48.8838816949
 10
29.0140221496
 20
-48.883679839
  0
LWPOLYLINE
  5
4D9
100
AcDbEntity
  8
RACCORDO
100
AcDbPolyline
 62
7
  6
CONTINUOUS
 90
5
 70
0
 10
28.0781642492
 20
-49.4162222243
 10
28.0777502152
 20
-49.4183384862
 10
28.0771670189
 20
-49.4205743797
 10
28.0765757372
 20
-49.4222917597
 10
28.0763035538
 20
-49.4229398666
  0
LWPOLYLINE
  5
4DA
100
AcDbEntity
  8
RACCORDO
100
AcDbPolyline
 62
253
  6
CONTINUOUS
 90
16
 70
0
 10
26.8913542868
 20
-47.4458013066
 10
26.8917709271
 20
-47.4438577553
 10
26.8923847096
 20
-47.4419229914
 10
26.8931978523
 20
-47.4400073608
 10
26.8942056287
 20
-47.4381236373
 10
26.8954170282
 20
-47.4362811642
 10
26.8968548705
 20
-47.434486225
 10
26.8985219378
 20
-47.4327518476
 10
26.9004193757
 20
-47.4310904063
 10
26.9025677526
 20
-47.4295091159
 10
26.904964792
 20
-47.42802522
 10
26.90761607
 20
-47.4266500986
 10
26.9105549164
 20
-47.4253877433
 10
26.9137924332
 20
-47.4242551199
 10
26.9173214391
 20
-47.4232750803
 10
26.9206419106
 20
-47.4225595155
  0
LINE
  5
4DB
100
AcDbEntity
  8
RACCORDO
100
AcDbLine
 62
253
  6
CONTINUOUS
 10
27.6600857196
 20
-47.6081232148
 11
27.6624191963
 21
-47.5973857138
  0
LINE
  5
4DC
100
AcDbEntity
  8
RACCORDO
100
AcDbLine
 62
253
  6
CONTINUOUS
 10
28.2119185291
 20
-48.7327812872
 11
28.2095850524
 21
-48.7435187881
  0
LWPOLYLINE
  5
4DD
100
AcDbEntity
  8
RACCORDO
100
AcDbPolyline
 62
253
  6
CONTINUOUS
 90
19
 70
0
 10
27.7798703882
 20
-46.8960806845
 10
27.7814313513
 20
-46.8889530213
 10
27.7833626434
 20
-46.8824538377
 10
27.7856642644
 20
-46.8765831336
 10
27.7883763741
 20
-46.8713489601
 10
27.7914588128
 20
-46.8667432661
 10
27.7947911008
 20
-46.8627418985
 10
27.7983789147
 20
-46.859353728
 10
27.8022165779
 20
-46.8565698838
 10
27.8061665819
 20
-46.8543396008
 10
27.8101948196
 20
-46.8526760119
 10
27.8143353981
 20
-46.8515659841
 10
27.8185531292
 20
-46.8509193534
 10
27.8228160663
 20
-46.8507058211
 10
27.827156156
 20
-46.8509556859
 10
27.831634051
 20
-46.8516696801
 10
27.8362699686
 20
-46.8528480478
 10
27.8410436914
 20
-46.8544905449
 10
27.8459552194
 20
-46.8565971714
  0
LWPOLYLINE
  5
4DE
100
AcDbEntity
  8
RACCORDO
100
AcDbPolyline
 62
253
  6
CONTINUOUS
 90
4
 70
0
 10
28.0921338615
 20
-49.4448238114
 10
28.0905728983
 20
-49.4519514755
 10
28.0886416062
 20
-49.4584506601
 10
28.0863399853
 20
-49.4643213652
  0
LWPOLYLINE
  5
4DF
100
AcDbEntity
  8
RACCORDO
100
AcDbPolyline
 62
253
  6
CONTINUOUS
 90
10
 70
0
 10
26.9104018311
 20
-47.7585630871
 10
26.9119347207
 20
-47.7521177277
 10
26.9144280724
 20
-47.7452756981
 10
26.9178110861
 20
-47.738231291
 10
26.9219876977
 20
-47.7311845467
 10
26.9268393052
 20
-47.724335575
 10
26.932228136
 20
-47.7178788724
 10
26.9380011619
 20
-47.7119977947
 10
26.9439944449
 20
-47.706859351
 10
26.950037791
 20
-47.7026094628
  0
LWPOLYLINE
  5
4E0
100
AcDbEntity
  8
RACCORDO
100
AcDbPolyline
 62
253
  6
CONTINUOUS
 90
10
 70
0
 10
27.5765006408
 20
-48.2787767772
 10
27.5780335409
 20
-48.2723313835
 10
27.5805269087
 20
-48.2654893262
 10
27.583909939
 20
-48.2584449014
 10
27.5880865628
 20
-48.2513981522
 10
27.592938175
 20
-48.2445491875
 10
27.5983270028
 20
-48.2380924999
 10
27.6041000176
 20
-48.2322114421
 10
27.6100932812
 20
-48.2270730205
 10
27.6161366008
 20
-48.2228231528
  0
LWPOLYLINE
  5
4E1
100
AcDbEntity
  8
ASSI
100
AcDbPolyline
 62
253
  6
CONTINUOUS
 90
16
 70
0
 10
23.8682388958
 20
-59.1174972896
 10
23.8827991893
 20
-59.0665598336
 10
23.897515394
 20
-59.0120485464
 10
23.912323956
 20
-58.9539783064
 10
23.9272620294
 20
-58.8925607486
 10
23.9421820283
 20
-58.8276142973
 10
23.9567265766
 20
-58.7585845201
 10
23.9709198075
 20
-58.6852838203
 10
23.9846131414
 20
-58.6079718627
 10
23.9971474755
 20
-58.5268153515
 10
24.0084659799
 20
-58.4416268753
 10
24.0184958261
 20
-58.3527169486
 10
24.026521695
 20
-58.2610475566
 10
24.032269563
 20
-58.1669860774
 10
24.0359262647
 20
-58.0702769266
 10
24.0374711789
 20
-57.9709489339
  0
LWPOLYLINE
  5
4E2
100
AcDbEntity
  8
RACCORDO
100
AcDbPolyline
 62
253
  6
CONTINUOUS
 90
40
 70
0
 10
25.8658582611
 20
-46.1263316099
 10
25.8929080876
 20
-46.0491609343
 10
25.922953648
 20
-45.9750618883
 10
25.9559428021
 20
-45.904131655
 10
25.9914819002
 20
-45.8370600071
 10
26.02979734
 20
-45.7732763325
 10
26.0719913134
 20
-45.7112492492
 10
26.1189040169
 20
-45.6505158395
 10
26.1700898283
 20
-45.592397548
 10
26.2247882571
 20
-45.53812912
 10
26.2830614746
 20
-45.4878413117
 10
26.3448059557
 20
-45.4418073118
 10
26.408672968
 20
-45.4009894019
 10
26.4742455771
 20
-45.3653898076
 10
26.5415069032
 20
-45.3347675654
 10
26.6094571454
 20
-45.3092721062
 10
26.677625291
 20
-45.2886785208
 10
26.745953456
 20
-45.2726247113
 10
26.8139862478
 20
-45.2608577791
 10
26.8813763614
 20
-45.2530672185
 10
26.9480195874
 20
-45.2489136293
 10
27.0138417342
 20
-45.248085825
 10
27.0786596852
 20
-45.2502934904
 10
27.1423222194
 20
-45.2552523489
 10
27.2048381694
 20
-45.2627066364
 10
27.2660749543
 20
-45.2724040974
 10
27.3259234154
 20
-45.284100969
 10
27.3844562751
 20
-45.2976040274
 10
27.441646684
 20
-45.3127200876
 10
27.4973530654
 20
-45.3292319407
 10
27.5514943716
 20
-45.3469393413
 10
27.6037469051
 20
-45.3655553867
 10
27.6543124732
 20
-45.3849784149
 10
27.7039183893
 20
-45.4053630296
 10
27.7521642004
 20
-45.4264403173
 10
27.7993803723
 20
-45.4482532477
 10
27.8474168203
 20
-45.4716408047
 10
27.8968818879
 20
-45.4969778393
 10
27.9471289107
 20
-45.524013195
 10
27.9979180686
 20
-45.55266642
  0
LWPOLYLINE
  5
4E3
100
AcDbEntity
  8
ASSI
100
AcDbPolyline
 62
253
  6
CONTINUOUS
 90
20
 70
0
 10
-26.1798583407
 20
59.3452376806
 10
-26.2545128978
 20
59.3869185044
 10
-26.3295088831
 20
59.4250210706
 10
-26.404697933
 20
59.4594109499
 10
-26.4799791912
 20
59.4899848649
 10
-26.5551424402
 20
59.5165844392
 10
-26.6298745089
 20
59.5390285649
 10
-26.7040247487
 20
59.5572321671
 10
-26.7774277724
 20
59.5711178391
 10
-26.8497613611
 20
59.5805873434
 10
-26.9208804735
 20
59.5856091846
 10
-26.9906351673
 20
59.5861637538
 10
-27.0587208727
 20
59.5822479181
 10
-27.1249656961
 20
59.5738960576
 10
-27.1892955507
 20
59.5611447911
 10
-27.2515746355
 20
59.5440438805
 10
-27.3116535225
 20
59.522665971
 10
-27.3694720864
 20
59.4970653732
 10
-27.4250264886
 20
59.4672587873
 10
-27.4625470468
 20
59.4438984353
  0
LINE
  5
4E4
100
AcDbEntity
  8
ASSI
100
AcDbLine
 62
253
  6
CONTINUOUS
 10
-27.3227089638
 20
61.2975841465
 11
23.5149008803
 21
31.9445853674
  0
LWPOLYLINE
  5
4E5
100
AcDbEntity
  8
ASSI
100
AcDbPolyline
 62
253
  6
CONTINUOUS
 90
10
 70
0
 10
21.6896210777
 20
31.7060002099
 10
16.3739689893
 20
34.7881102606
 10
11.0553157504
 20
37.8687199478
 10
5.7348705163
 20
40.947133267
 10
0.4146548696
 20
44.0221848896
 10
-4.9049394827
 20
47.0936519839
 10
-10.2251505591
 20
50.1622493709
 10
-15.5455864505
 20
53.2277474409
 10
-20.8642254677
 20
56.288976996
 10
-26.1798583407
 20
59.3452376806
  0
LWPOLYLINE
  5
4E6
100
AcDbEntity
  8
ASSI
100
AcDbPolyline
 62
253
  6
CONTINUOUS
 90
10
 70
0
 10
22.0316728079
 20
32.3105151921
 10
16.7138217337
 20
35.3938917693
 10
11.3953852768
 20
38.4743773321
 10
6.0763634371
 20
41.5519718804
 10
0.7563643723
 20
44.6269016549
 10
-4.5642200752
 20
47.698940415
 10
-9.8842143781
 20
50.7674094389
 10
-15.2032266938
 20
53.832082486
 10
-20.5216488649
 20
56.8931857969
 10
-25.8394808913
 20
59.9507193716
  0
LWPOLYLINE
  5
4E7
100
AcDbEntity
  8
RACCORDO
100
AcDbPolyline
 62
253
  6
CONTINUOUS
 90
58
 70
0
 10
29.7925228686
 20
24.6692903438
 10
29.9190803852
 20
24.5947868315
 10
30.0521314322
 20
24.5120304958
 10
30.1915368907
 20
24.4204333297
 10
30.3371855188
 20
24.3193557297
 10
30.4887928971
 20
24.2082466898
 10
30.6459001412
 20
24.0866732515
 10
30.8086856181
 20
23.9536717062
 10
30.9762878988
 20
23.8090804038
 10
31.1466590785
 20
23.6539117639
 10
31.3194975411
 20
23.4877668207
 10
31.4942225643
 20
23.3105035815
 10
31.6684405144
 20
23.1239919548
 10
31.841616297
 20
22.928399336
 10
32.0133927875
 20
22.723710158
 10
32.1818082086
 20
22.5119674325
 10
32.346299824
 20
22.2937462743
 10
32.5066927781
 20
22.0691420998
 10
32.6617932147
 20
21.8397629044
 10
32.811060855
 20
21.6064766811
 10
32.9545070817
 20
21.3693370031
 10
33.0918654343
 20
21.128824375
 10
33.222838763
 20
20.885511858
 10
33.3472619653
 20
20.6397613473
 10
33.4650636151
 20
20.3917330922
 10
33.5760592116
 20
20.1417962651
 10
33.6799891151
 20
19.8905150244
 10
33.776661834
 20
19.6383384699
 10
33.8659013478
 20
19.3857036234
 10
33.9475176438
 20
19.1331244044
 10
34.0213250804
 20
18.8811668181
 10
34.0871794139
 20
18.6303316703
 10
34.1449657094
 20
18.3810661519
 10
34.1945741723
 20
18.1338518963
 10
34.235911513
 20
17.8891695384
 10
34.2689057566
 20
17.6474639996
 10
34.2935001767
 20
17.4091569413
 10
34.3096477826
 20
17.1746932646
 10
34.3173166832
 20
16.9445201623
 10
34.316491141
 20
16.7190543801
 10
34.3071686049
 20
16.498703285
 10
34.2893634619
 20
16.2839047466
 10
34.2631121828
 20
16.0751049073
 10
34.2284650859
 20
15.8726905678
 10
34.1854900516
 20
15.6770481285
 10
34.1342852248
 20
15.4885958471
 10
34.0749737383
 20
15.3077315489
 10
34.0076623593
 20
15.134733078
 10
33.9324403785
 20
14.9698246238
 10
33.8494586501
 20
14.8133477696
 10
33.7588561303
 20
14.6655743956
 10
33.6606882363
 20
14.5266435808
 10
33.5549970198
 20
14.3967224989
 10
33.4420539476
 20
14.276245249
 10
33.3223003117
 20
14.1656966059
 10
33.1957642718
 20
14.065105927
 10
33.0628940154
 20
13.9748326861
 10
33.0373721941
 20
13.9591129237
  0
LWPOLYLINE
  5
4E8
100
AcDbEntity
  8
ASSI
100
AcDbPolyline
 62
253
  6
CONTINUOUS
 90
25
 70
0
 10
23.5149008803
 20
31.9445853674
 10
23.5380833164
 20
31.9303146126
 10
23.5609992002
 20
31.9144869635
 10
23.5836485318
 20
31.8971024201
 10
23.6061346596
 20
31.8780686427
 10
23.6283542352
 20
31.857477971
 10
23.649997213
 20
31.8356074238
 10
23.6710476374
 20
31.8124457186
 10
23.6915214641
 20
31.7880041379
 10
23.7111565152
 20
31.7625935489
 10
23.7299422276
 20
31.7362008235
 10
23.7478891645
 20
31.7088390897
 10
23.7647668368
 20
31.680858599
 10
23.780561635
 20
31.6522504493
 10
23.7952871686
 20
31.6230235428
 10
23.8087537774
 20
31.5935548371
 10
23.8209443037
 20
31.5638424006
 10
23.8318759051
 20
31.533888165
 10
23.8414103943
 20
31.5040748832
 10
23.8495299569
 20
31.47439439
 10
23.8562524072
 20
31.4448548506
 10
23.8614930007
 20
31.4158635143
 10
23.8652234892
 20
31.3875561308
 10
23.8674721209
 20
31.3597969504
 10
23.8682388958
 20
31.3325859731
  0
LWPOLYLINE
  5
4E9
100
AcDbEntity
  8
RACCORDO
100
AcDbPolyline
 62
7
  6
CONTINUOUS
 90
42
 70
0
 10
29.4705892483
 20
20.9096714873
 10
29.6402360681
 20
20.6830156877
 10
29.8040731577
 20
20.4516435233
 10
29.9621005172
 20
20.215554994
 10
30.1146140708
 20
19.9742538759
 10
30.2613178943
 20
19.728236393
 10
30.4013242152
 20
19.478991217
 10
30.534592419
 20
19.2264987822
 10
30.6611631201
 20
18.9707786543
 10
30.7802703893
 20
18.7133782029
 10
30.891868975
 20
18.4542872342
 10
30.9960041287
 20
18.1935159419
 10
31.092045676
 20
17.9326422761
 10
31.1799445434
 20
17.6716656119
 10
31.2597498045
 20
17.4105865743
 10
31.3309785056
 20
17.150984988
 10
31.3935786445
 20
16.8928698069
 10
31.4476022234
 20
16.6362320772
 10
31.4927222959
 20
16.3826247626
 10
31.5288848765
 20
16.1320662345
 10
31.5561439508
 20
15.8845381216
 10
31.5743345293
 20
15.6415382733
 10
31.5834016255
 20
15.4030941427
 10
31.5834002259
 20
15.1691782768
 10
31.5743303009
 20
14.9412061657
 10
31.5561368631
 20
14.7192138468
 10
31.5288748998
 20
14.5031652829
 10
31.4927093432
 20
14.2943678518
 10
31.4475862055
 20
14.092865518
 10
31.3935594745
 20
13.898614317
 10
31.3309560457
 20
13.7127897335
 10
31.2597239133
 20
13.5354428609
 10
31.1799150831
 20
13.3665226059
 10
31.0920124684
 20
13.207051173
 10
30.9959669907
 20
13.0570858539
 10
30.8918277285
 20
12.9165693568
 10
30.7802248297
 20
12.7863520119
 10
30.661113037
 20
12.6664962676
 10
30.5345376077
 20
12.5569396754
 10
30.4012644618
 20
12.4583452196
 10
30.2612495031
 20
12.370778867
 10
30.228043696
 20
12.3521600359
  0
LWPOLYLINE
  5
4EA
100
AcDbEntity
  8
RACCORDO
100
AcDbPolyline
 62
253
  6
CONTINUOUS
 90
16
 70
0
 10
29.1459949869
 20
20.6443931992
 10
29.1539578863
 20
20.6335982434
 10
29.1614809851
 20
20.622517346
 10
29.1685642834
 20
20.6111505068
 10
29.1752370876
 20
20.5994419199
 10
29.1814700912
 20
20.5874473912
 10
29.1871753748
 20
20.575334339
 10
29.1923445697
 20
20.5631028126
 10
29.1969860446
 20
20.5507527627
 10
29.2010369866
 20
20.5384514593
 10
29.2044894591
 20
20.5261971761
 10
29.2073513987
 20
20.5139916394
 10
29.2095838025
 20
20.5020072984
 10
29.2111736693
 20
20.4903016361
 10
29.2121340002
 20
20.4788171695
 10
29.2124647953
 20
20.4675538986
  0
LWPOLYLINE
  5
4EB
100
AcDbEntity
  8
RACCORDO
100
AcDbPolyline
 62
7
  6
CONTINUOUS
 90
16
 70
0
 10
29.4705892483
 20
20.9096714873
 10
29.4904899007
 20
20.8826948863
 10
29.5092938915
 20
20.8549988417
 10
29.5270012207
 20
20.8265833535
 10
29.5436882539
 20
20.7973013384
 10
29.5592786255
 20
20.7672998797
 10
29.573543239
 20
20.7370202275
 10
29.5864528621
 20
20.7064862418
 10
29.5980367271
 20
20.6756740626
 10
29.6081534341
 20
20.6449533603
 10
29.6167928641
 20
20.6142885772
 10
29.6239651361
 20
20.583715271
 10
29.6295592077
 20
20.5537097859
 10
29.6335380647
 20
20.5244309034
 10
29.6359387214
 20
20.4957198419
 10
29.6367611776
 20
20.4675766016
  0
LWPOLYLINE
  5
4EC
100
AcDbEntity
  8
RACCORDO
100
AcDbPolyline
 62
253
  6
CONTINUOUS
 90
16
 70
0
 10
29.4668198197
 20
20.9075331926
 10
29.4864824851
 20
20.8806514189
 10
29.5052171869
 20
20.8528202628
 10
29.5229392339
 20
20.8241668475
 10
29.5395680485
 20
20.7948232406
 10
29.5550290492
 20
20.7649220269
 10
29.5692535108
 20
20.7345955028
 10
29.5821773161
 20
20.7039796256
 10
29.5937407996
 20
20.6732157566
 10
29.6038905281
 20
20.642446077
 10
29.6125796838
 20
20.6118126176
 10
29.6197697067
 20
20.581452598
 10
29.6254290703
 20
20.5515001427
 10
29.629531642
 20
20.5220903069
 10
29.6320575088
 20
20.493358292
 10
29.6329943408
 20
20.465434941
  0
LWPOLYLINE
  5
4ED
100
AcDbEntity
  8
RACCORDO
100
AcDbPolyline
 62
7
  6
CONTINUOUS
 90
37
 70
0
 10
29.778805131
 20
18.8505636426
 10
29.8812246127
 20
18.6986498478
 10
29.9793346103
 20
18.5441116239
 10
30.0731351238
 20
18.386948971
 10
30.1628463342
 20
18.2267465404
 10
30.2482480605
 20
18.0639196807
 10
30.3286797604
 20
17.899714438
 10
30.4040611224
 20
17.7342213245
 10
30.474472458
 20
17.5673498279
 10
30.5394941595
 20
17.4000744574
 10
30.5991347576
 20
17.2322531084
 10
30.6533857215
 20
17.0640278853
 10
30.7018018518
 20
16.8967996107
 10
30.7442948653
 20
16.7307747511
 10
30.7809530452
 20
16.5657468399
 10
30.811596041
 20
16.4024972998
 10
30.8362200648
 20
16.2407968062
 10
30.8548289045
 20
16.0808746838
 10
30.867253574
 20
15.9242003291
 10
30.8734377443
 20
15.771048278
 10
30.8734377443
 20
15.6211439947
 10
30.867253574
 20
15.4751332685
 10
30.8548289046
 20
15.3328066107
 10
30.8362200648
 20
15.1943735099
 10
30.811596041
 20
15.0611082218
 10
30.7809530453
 20
14.9332444451
 10
30.7442948654
 20
14.8105484811
 10
30.7018018519
 20
14.6935934884
 10
30.6533857217
 20
14.5822749474
 10
30.5991347577
 20
14.4766973777
 10
30.5394941597
 20
14.3777474964
 10
30.4744724582
 20
14.2855575569
 10
30.4040611225
 20
14.1999953058
 10
30.3286797606
 20
14.1215506996
 10
30.2482480606
 20
14.0502259678
 10
30.1628463343
 20
13.986018881
 10
30.0731351241
 20
13.9294127073
  0
LWPOLYLINE
  5
4EE
100
AcDbEntity
  8
RACCORDO
100
AcDbPolyline
 62
253
  6
CONTINUOUS
 90
31
 70
0
 10
29.8772878982
 20
18.6967993082
 10
29.9755973383
 20
18.5419295357
 10
30.0697462291
 20
18.384164195
 10
30.1595206575
 20
18.2238617402
 10
30.2447166488
 20
18.0613863917
 10
30.3251406294
 20
17.8971073094
 10
30.400609869
 20
17.7313977513
 10
30.4709528976
 20
17.5646342191
 10
30.5360098929
 20
17.3971956066
 10
30.5956330411
 20
17.2294623449
 10
30.6496868727
 20
17.061815539
 10
30.698048573
 20
16.8946360955
 10
30.7406082596
 20
16.7283038618
 10
30.7772692344
 20
16.5631967548
 10
30.807948202
 20
16.3996899019
 10
30.832575458
 20
16.2381547918
 10
30.8510950436
 20
16.0789584574
 10
30.8634648781
 20
15.9224626323
 10
30.8696568582
 20
15.7690228904
 10
30.8696569177
 20
15.6189878531
 10
30.8634650592
 20
15.4726984224
 10
30.8510953573
 20
15.3304870006
 10
30.8325759198
 20
15.192676675
 10
30.8079488159
 20
15.0595805021
 10
30.777269996
 20
14.9315008903
 10
30.7406091604
 20
14.8087288494
 10
30.6980495813
 20
14.6915432808
 10
30.6496879255
 20
14.5802104086
 10
30.5956340787
 20
14.4749832494
 10
30.5360108909
 20
14.3761009721
 10
30.4709538505
 20
14.2837882682
  0
LWPOLYLINE
  5
4EF
100
AcDbEntity
  8
RACCORDO
100
AcDbPolyline
 62
7
  6
CONTINUOUS
 90
27
 70
0
 10
33.9115952983
 20
19.4317726388
 10
33.8216407731
 20
19.6864701043
 10
33.7240691056
 20
19.9406860963
 10
33.6190656233
 20
20.1939566058
 10
33.5068412411
 20
20.4457882072
 10
33.3876158309
 20
20.6957018413
 10
33.2616260873
 20
20.943214531
 10
33.1291093927
 20
21.1878706774
 10
32.9903031143
 20
21.4292369751
 10
32.8454646658
 20
21.6668656288
 10
32.6948733186
 20
21.9002968199
 10
32.5388129014
 20
22.1290883341
 10
32.3775848971
 20
22.3527954844
 10
32.2114849772
 20
22.5710040555
 10
32.0407989193
 20
22.7833299481
 10
31.865833915
 20
22.9893776696
 10
31.6869246535
 20
23.1887386722
 10
31.5044056897
 20
23.381025888
 10
31.3186131881
 20
23.5658698208
 10
31.1298926425
 20
23.7429102014
 10
30.9385980774
 20
23.9117977449
 10
30.7450948721
 20
24.0721928376
 10
30.5497261856
 20
24.2237925384
 10
30.3528120833
 20
24.3663244314
 10
30.1546974222
 20
24.4995090784
 10
29.9557567435
 20
24.6230629784
 10
29.8346194739
 20
24.6933271002
  0
LWPOLYLINE
  5
4F0
100
AcDbEntity
  8
RACCORDO
100
AcDbPolyline
 62
253
  6
CONTINUOUS
 90
14
 70
0
 10
29.7772741276
 20
33.2495201005
 10
29.7686261902
 20
33.2834209037
 10
29.7581257793
 20
33.3175423906
 10
29.7458312438
 20
33.3516935622
 10
29.7318100923
 20
33.3856828082
 10
29.7161418152
 20
33.4193208619
 10
29.6989142463
 20
33.4524197263
 10
29.6802229305
 20
33.4847940384
 10
29.660172177
 20
33.5162631295
 10
29.63887475
 20
33.5466515637
 10
29.6164495395
 20
33.5757892875
 10
29.593020692
 20
33.6035128537
 10
29.5687203818
 20
33.6296679999
 10
29.5436848549
 20
33.6541086731
  0
LWPOLYLINE
  5
4F1
100
AcDbEntity
  8
0
100
AcDbPolyline
 62
7
  6
CONTINUOUS
 90
7
 70
0
 10
33.9193484348
 20
-45.9098161976
 10
33.927529995
 20
-45.8746050195
 10
33.93425607
 20
-45.8381928954
 10
33.9395148601
 20
-45.8006437043
 10
33.9432971394
 20
-45.7620233205
 10
33.9455962727
 20
-45.722399497
 10
33.9464097644
 20
-45.6799772299
  0
LWPOLYLINE
  5
4F2
100
AcDbEntity
  8
RACCORDO
100
AcDbPolyline
 62
253
  6
CONTINUOUS
 90
9
 70
0
 10
24.146678065
 20
-32.575682238
 10
24.1501649155
 20
-32.5733225622
 10
24.1536698361
 20
-32.5709932528
 10
24.1571928266
 20
-32.5686943099
 10
24.1607339025
 20
-32.5664257243
 10
24.1642930484
 20
-32.5641875051
 10
24.1678702179
 20
-32.56197968
 10
24.1714653956
 20
-32.5598022583
 10
24.1750785969
 20
-32.5576552306
  0
LWPOLYLINE
  5
4F3
100
AcDbEntity
  8
RACCORDO
100
AcDbPolyline
 62
253
  6
CONTINUOUS
 90
9
 70
0
 10
24.7481989904
 20
-32.8048177705
 10
24.7505465397
 20
-32.8032326577
 10
24.7529065496
 20
-32.8016675636
 10
24.755278965
 20
-32.8001225222
 10
24.7576636862
 20
-32.7985975954
 10
24.7600607015
 20
-32.7970927869
 10
24.7624700895
 20
-32.7956080467
 10
24.7648918412
 20
-32.7941433835
 10
24.7673258575
 20
-32.7926988601
  0
LINE
  5
4F4
100
AcDbEntity
  8
RACCORDO
100
AcDbLine
 62
253
  6
CONTINUOUS
 10
24.1750785969
 20
-32.5576552306
 11
25.4592291534
 21
-31.8163256838
  0
LINE
  5
4F5
100
AcDbEntity
  8
RACCORDO
100
AcDbLine
 62
253
  6
CONTINUOUS
 10
24.7673258575
 20
-32.7926988601
 11
26.0502914154
 21
-32.0520615978
  0
LINE
  5
4F6
100
AcDbEntity
  8
RACCORDO
100
AcDbLine
 62
7
  6
CONTINUOUS
 10
27.1607603736
 20
-31.4720811228
 11
25.8802410419
 21
-32.2112940362
  0
LINE
  5
4F7
100
AcDbEntity
  8
RACCORDO
100
AcDbLine
 62
253
  6
CONTINUOUS
 10
26.1537817241
 20
-31.8233256178
 11
27.2642506822
 21
-31.2433451427
  0
LINE
  5
4F8
100
AcDbEntity
  8
RACCORDO
100
AcDbLine
 62
253
  6
CONTINUOUS
 10
26.0502914154
 20
-32.0520615978
 11
27.1607603736
 21
-31.4720811228
  0
LINE
  5
4F9
100
AcDbEntity
  8
RACCORDO
100
AcDbLine
 62
253
  6
CONTINUOUS
 10
24.7697720837
 20
-32.7912745112
 11
25.8802410419
 21
-32.2112940362
  0
LINE
  5
4FA
100
AcDbEntity
  8
RACCORDO
100
AcDbLine
 62
253
  6
CONTINUOUS
 10
24.5027660694
 20
-33.2800967923
 11
25.6732604246
 21
-32.6687659963
  0
LWPOLYLINE
  5
4FB
100
AcDbEntity
  8
RACCORDO
100
AcDbPolyline
 62
253
  6
CONTINUOUS
 90
15
 70
0
 10
24.5627914664
 20
-37.3310912991
 10
24.5342836191
 20
-37.3453263772
 10
24.5040009152
 20
-37.3582733034
 10
24.4721153587
 20
-37.3698585383
 10
24.4388066775
 20
-37.3800146004
 10
24.4042653397
 20
-37.3886852097
 10
24.3686919401
 20
-37.3958262263
 10
24.3322876742
 20
-37.4014154076
 10
24.2952606171
 20
-37.405403514
 10
24.2578292904
 20
-37.4077208404
 10
24.2201766395
 20
-37.4082765613
 10
24.1825459206
 20
-37.4071444796
 10
24.145246651
 20
-37.4045294144
 10
24.1085179397
 20
-37.4005271445
 10
24.0725283868
 20
-37.3951099798
  0
LWPOLYLINE
  5
4FC
100
AcDbEntity
  8
RACCORDO
100
AcDbPolyline
 62
253
  6
CONTINUOUS
 90
16
 70
0
 10
26.8506244494
 20
31.666179727
 10
26.8736890783
 20
31.6541747957
 10
26.8987794296
 20
31.6436107788
 10
26.9256266846
 20
31.6346008646
 10
26.9539431974
 20
31.6272415914
 10
26.9834255834
 20
31.6216118112
 10
27.0137579706
 20
31.6177718461
 10
27.0446153749
 20
31.6157628439
 10
27.0756671792
 20
31.6156063355
 10
27.106580683
 20
31.6173040032
 10
27.1370246708
 20
31.6208376632
 10
27.1666729501
 20
31.6261694596
 10
27.1952078457
 20
31.6332422675
 10
27.2223236183
 20
31.641980308
 10
27.2477297396
 20
31.6522899618
 10
27.2711539949
 20
31.6640607697
  0
LWPOLYLINE
  5
4FD
100
AcDbEntity
  8
RACCORDO
100
AcDbPolyline
 62
253
  6
CONTINUOUS
 90
9
 70
0
 10
29.5012396501
 20
34.707598696
 10
29.4982361057
 20
34.7091958573
 10
29.4897317799
 20
34.7124480947
 10
29.4805672795
 20
34.714231958
 10
29.4708287123
 20
34.714541104
 10
29.4606054268
 20
34.7133744962
 10
29.4500010898
 20
34.7107408927
 10
29.4391355159
 20
34.7066670835
 10
29.4281259766
 20
34.7011952681
  0
LWPOLYLINE
  5
4FE
100
AcDbEntity
  8
RACCORDO
100
AcDbPolyline
 62
253
  6
CONTINUOUS
 90
5
 70
0
 10
29.4281259766
 20
34.7011952681
 10
29.440146713
 20
34.6946677091
 10
29.4520149255
 20
34.6868540476
 10
29.4636001476
 20
34.6778401892
 10
29.4747760846
 20
34.6677242009
  0
LWPOLYLINE
  5
4FF
100
AcDbEntity
  8
ASSI
100
AcDbPolyline
 62
253
  6
CONTINUOUS
 90
25
 70
0
 10
-25.8394808913
 20
59.9507193716
 10
-25.9297728798
 20
60.0005171526
 10
-26.0201462671
 20
60.0457556183
 10
-26.1106010534
 20
60.0864347688
 10
-26.2014115749
 20
60.1227215429
 10
-26.2923034953
 20
60.1544490018
 10
-26.3824538057
 20
60.181116329
 10
-26.4718416252
 20
60.202636689
 10
-26.5604878346
 20
60.2190969173
 10
-26.6476320678
 20
60.2302567036
 10
-26.7332503891
 20
60.2360327841
 10
-26.8173667341
 20
60.2365084227
 10
-26.8992925442
 20
60.2316931012
 10
-26.9789436178
 20
60.2215324119
 10
-27.0564041564
 20
60.2060807624
 10
-27.1312382061
 20
60.1855108576
 10
-27.2033853444
 20
60.1598247427
 10
-27.2729059939
 20
60.1290203725
 10
-27.3395454675
 20
60.093264315
 10
-27.4033048424
 20
60.0525658822
 10
-27.4641830413
 20
60.0069157622
 10
-27.5219221463
 20
59.956452588
 10
-27.5764361846
 20
59.9012225706
 10
-27.6278111289
 20
59.841179499
 10
-27.6760469792
 20
59.7763233733
  0
LINE
  5
500
100
AcDbEntity
  8
RACCORDO
100
AcDbLine
 62
253
  6
CONTINUOUS
 10
29.5012784934
 20
34.7075762915
 11
29.5012396501
 21
34.707598696
  0
LINE
  5
501
100
AcDbEntity
  8
ASSI
100
AcDbLine
 62
253
  6
CONTINUOUS
 10
-26.9814944086
 20
61.9025836068
 11
23.8561154356
 21
32.5495848277
  0
LINE
  5
502
100
AcDbEntity
  8
RACCORDO
100
AcDbLine
 62
253
  6
CONTINUOUS
 10
26.7092246323
 20
31.9110913941
 11
25.49433516
 21
32.6125533492
  0
LINE
  5
503
100
AcDbEntity
  8
RACCORDO
100
AcDbLine
 62
253
  6
CONTINUOUS
 10
-26.4742020271
 20
62.6185354024
 11
-27.0061947738
 21
62.9257013469
  0
LINE
  5
504
100
AcDbEntity
  8
ASSI
100
AcDbLine
 62
7
  6
CONTINUOUS
 10
-25.9459653524
 20
62.5870196445
 11
24.9665843937
 21
33.1907515052
  0
LINE
  5
505
100
AcDbEntity
  8
RACCORDO
100
AcDbLine
 62
253
  6
CONTINUOUS
 10
26.9176544522
 20
32.2763399372
 11
-26.797764954
 21
63.2909498899
  0
LINE
  5
506
100
AcDbEntity
  8
RACCORDO
100
AcDbLine
 62
7
  6
CONTINUOUS
 10
-25.3798491771
 20
64.1382143893
 11
28.360320041
 21
33.1093142053
  0
LINE
  5
507
100
AcDbEntity
  8
RACCORDO
100
AcDbLine
 62
253
  6
CONTINUOUS
 10
29.4390233259
 20
33.7321461013
 11
28.6538344319
 21
34.185504328
  0
LINE
  5
508
100
AcDbEntity
  8
RACCORDO
100
AcDbLine
 62
7
  6
CONTINUOUS
 10
29.5121758431
 20
33.7385271245
 11
28.7945061803
 21
34.1529005932
  0
LINE
  5
509
100
AcDbEntity
  8
RACCORDO
100
AcDbLine
 62
253
  6
CONTINUOUS
 10
-23.4334544216
 20
65.2228092789
 11
29.4280322295
 21
34.7012493966
  0
LINE
  5
50A
100
AcDbEntity
  8
RACCORDO
100
AcDbLine
 62
7
  6
CONTINUOUS
 10
-23.3603019048
 20
65.2291903023
 11
29.5012784934
 21
34.7075762915
  0
LINE
  5
50B
100
AcDbEntity
  8
RACCORDO
100
AcDbLine
 62
253
  6
CONTINUOUS
 10
29.4655724381
 20
33.7158239441
 11
29.4390233259
 21
33.7321461013
  0
LWPOLYLINE
  5
50C
100
AcDbEntity
  8
ASSI
100
AcDbPolyline
 62
253
  6
CONTINUOUS
 90
25
 70
0
 10
23.8561154356
 20
32.5495848277
 10
23.9015587682
 20
32.5206737922
 10
23.9468503836
 20
32.4884243415
 10
23.9917998184
 20
32.4529767406
 10
24.0362191811
 20
32.414486987
 10
24.0799199957
 20
32.3731195142
 10
24.1227138323
 20
32.3290458505
 10
24.1644203447
 20
32.2824533859
 10
24.2048623056
 20
32.233544174
 10
24.2438624241
 20
32.1825272517
 10
24.2812535354
 20
32.1296218627
 10
24.3168783952
 20
32.0750544611
 10
24.3505844428
 20
32.0190568075
 10
24.382226784
 20
31.9618678225
 10
24.4116709493
 20
31.9037324552
 10
24.4387924975
 20
31.8448987131
 10
24.4634739388
 20
31.7856159829
 10
24.4856089847
 20
31.7261386676
 10
24.5051052424
 20
31.6667248754
 10
24.52187633
 20
31.6076292063
 10
24.5358501792
 20
31.5491014314
 10
24.5469725074
 20
31.4913902585
 10
24.5551951366
 20
31.4347410548
 10
24.5604768771
 20
31.3793946195
 10
24.5627914664
 20
31.3255860391
  0
LWPOLYLINE
  5
50D
100
AcDbEntity
  8
RACCORDO
100
AcDbPolyline
 62
253
  6
CONTINUOUS
 90
4
 70
0
 10
29.5436848549
 20
33.6541086731
 10
29.5180519089
 20
33.6766969727
 10
29.4919650004
 20
33.6973066764
 10
29.4655724381
 20
33.7158239441
  0
LWPOLYLINE
  5
50E
100
AcDbEntity
  8
RACCORDO
100
AcDbPolyline
 62
253
  6
CONTINUOUS
 90
4
 70
0
 10
29.48541872
 20
34.6566181343
 10
29.4954082399
 20
34.6446477055
 10
29.5046338489
 20
34.6319475862
 10
29.5129969057
 20
34.6186556299
  0
LWPOLYLINE
  5
50F
100
AcDbEntity
  8
RACCORDO
100
AcDbPolyline
 62
253
  6
CONTINUOUS
 90
7
 70
0
 10
29.5129969057
 20
34.6186556299
 10
29.520408305
 20
34.6049143944
 10
29.5267940461
 20
34.5908571385
 10
29.5320741857
 20
34.5766552621
 10
29.5361786091
 20
34.5625136568
 10
29.5390721291
 20
34.5486018027
 10
29.5407414701
 20
34.5350513843
  0
LWPOLYLINE
  5
510
100
AcDbEntity
  8
RACCORDO
100
AcDbPolyline
 62
7
  6
CONTINUOUS
 90
5
 70
0
 10
29.8073101908
 20
-59.5942072428
 10
29.817213242
 20
-59.566516817
 10
29.8249533769
 20
-59.5372731777
 10
29.8304698185
 20
-59.5065783135
 10
29.8337071072
 20
-59.474460592
  0
LINE
  5
511
100
AcDbEntity
  8
RACCORDO
100
AcDbLine
 62
253
  6
CONTINUOUS
 10
28.9889764035
 20
-48.879867068
 11
29.0173436805
 21
-48.8214049863
  0
LINE
  5
512
100
AcDbEntity
  8
RACCORDO
100
AcDbLine
 62
7
  6
CONTINUOUS
 10
29.0140309735
 20
-48.8836621817
 11
29.0139916987
 21
-48.8837422123
  0
LWPOLYLINE
  5
513
100
AcDbEntity
  8
RACCORDO
100
AcDbPolyline
 62
253
  6
CONTINUOUS
 90
17
 70
0
 10
29.0139916987
 20
-48.8837422123
 10
29.0138098668
 20
-48.8840962145
 10
29.0130833725
 20
-48.8852875152
 10
29.0122405417
 20
-48.8863400378
 10
29.0112781763
 20
-48.887236538
 10
29.0101942178
 20
-48.8879622753
 10
29.0089831048
 20
-48.8885058611
 10
29.0076334383
 20
-48.8888506413
 10
29.0061386393
 20
-48.8889770384
 10
29.0044975634
 20
-48.8888670077
 10
29.0027051905
 20
-48.8885010033
 10
29.0007617954
 20
-48.8878515454
 10
28.9986707182
 20
-48.886901729
 10
28.9964353501
 20
-48.8856473924
 10
28.9940647551
 20
-48.884073636
 10
28.991572982
 20
-48.8821536002
 10
28.9889764036
 20
-48.8798670681
  0
LINE
  5
514
100
AcDbEntity
  8
RACCORDO
100
AcDbLine
 62
7
  6
CONTINUOUS
 10
28.0763035538
 20
-49.4229398666
 11
28.0758108682
 21
-49.4238910001
  0
LINE
  5
515
100
AcDbEntity
  8
RACCORDO
100
AcDbLine
 62
253
  6
CONTINUOUS
 10
28.0863399853
 20
-49.4643213652
 11
28.0836278756
 21
-49.4695555398
  0
LWPOLYLINE
  5
516
100
AcDbEntity
  8
RACCORDO
100
AcDbPolyline
 62
253
  6
CONTINUOUS
 90
3
 70
0
 10
27.6521569618
 20
-47.626467166
 10
27.6566649748
 20
-47.6178170322
 10
27.6600857196
 20
-47.6081232148
  0
LWPOLYLINE
  5
517
100
AcDbEntity
  8
RACCORDO
100
AcDbPolyline
 62
253
  6
CONTINUOUS
 90
23
 70
0
 10
25.8146817808
 20
-45.6845431459
 10
25.8748320906
 20
-45.592694912
 10
25.9402793579
 20
-45.5082643758
 10
26.0110235826
 20
-45.4312515372
 10
26.0873005595
 20
-45.3614648477
 10
26.1688744938
 20
-45.2990958558
 10
26.2550380009
 20
-45.2447192071
 10
26.3458123448
 20
-45.198422634
 10
26.4411762615
 20
-45.1601184041
 10
26.5403585751
 20
-45.1301179653
 10
26.6433927623
 20
-45.1084873464
 10
26.7502453465
 20
-45.0951605186
 10
26.8600447216
 20
-45.0902508443
 10
26.9728159443
 20
-45.0938275644
 10
27.088533958
 20
-45.105821438
 10
27.2062519872
 20
-45.1261381046
 10
27.325990538
 20
-45.1548485439
 10
27.4477291043
 20
-45.1918817762
 10
27.5704593916
 20
-45.2369305016
 10
27.6941971824
 20
-45.2900694245
 10
27.8189266942
 20
-45.3512238404
 10
27.9435922849
 20
-45.4198623364
 10
28.068167525
 20
-45.4960306913
  0
LWPOLYLINE
  5
518
100
AcDbEntity
  8
RACCORDO
100
AcDbPolyline
 62
253
  6
CONTINUOUS
 90
10
 70
0
 10
25.8146817808
 20
-45.3880347528
 10
25.8709301173
 20
-45.3228188563
 10
25.93035328
 20
-45.2624044892
 10
25.9929512688
 20
-45.2067916515
 10
26.0588332021
 20
-45.155901667
 10
26.1278899616
 20
-45.1098132118
 10
26.1997941924
 20
-45.068762315
 10
26.2744367764
 20
-45.0328276527
 10
26.3519268318
 20
-45.0019305487
 10
26.4322643585
 20
-44.976071003
  0
LWPOLYLINE
  5
519
100
AcDbEntity
  8
RACCORDO
100
AcDbPolyline
 62
7
  6
CONTINUOUS
 90
11
 70
0
 10
26.7057877708
 20
-42.216870849
 10
26.6820803562
 20
-42.2393850717
 10
26.660060245
 20
-42.2643613835
 10
26.6400112549
 20
-42.2916721119
 10
26.6221841176
 20
-42.3211578853
 10
26.6067681342
 20
-42.3526916951
 10
26.5939828263
 20
-42.3860262052
 10
26.584010183
 20
-42.4208510338
 10
26.5769334592
 20
-42.4569700244
 10
26.5728103968
 20
-42.4942540638
 10
26.5716751814
 20
-42.5273101505
  0
LINE
  5
51A
100
AcDbEntity
  8
RACCORDO
100
AcDbLine
 62
7
  6
CONTINUOUS
 10
26.7309000232
 20
-42.1968970838
 11
26.7057877708
 21
-42.216870849
  0
LWPOLYLINE
  5
51B
100
AcDbEntity
  8
RACCORDO
100
AcDbPolyline
 62
7
  6
CONTINUOUS
 90
4
 70
0
 10
26.786205748
 20
-42.1648223103
 10
26.8064118417
 20
-42.1584233251
 10
26.8278847421
 20
-42.1543326452
 10
26.8506244494
 20
-42.1525502704
  0
LINE
  5
51C
100
AcDbEntity
  8
RACCORDO
100
AcDbLine
 62
253
  6
CONTINUOUS
 10
29.4747760846
 20
34.6677242009
 11
29.48541872
 21
34.6566181343
  0
LWPOLYLINE
  5
51D
100
AcDbEntity
  8
RACCORDO
100
AcDbPolyline
 62
7
  6
CONTINUOUS
 90
8
 70
0
 10
29.6874833795
 20
-51.575678816
 10
29.6742704156
 20
-51.5956980944
 10
29.6629798888
 20
-51.617967444
 10
29.6535771599
 20
-51.6424322639
 10
29.6462364976
 20
-51.6686174116
 10
29.6410159911
 20
-51.6963645065
 10
29.6378575512
 20
-51.7258319294
 10
29.6367611776
 20
-51.7570196801
  0
LWPOLYLINE
  5
51E
100
AcDbEntity
  8
RACCORDO
100
AcDbPolyline
 62
253
  6
CONTINUOUS
 90
15
 70
0
 10
28.0836278756
 20
-49.4695555398
 10
28.0805454371
 20
-49.474161235
 10
28.077213149
 20
-49.4781626038
 10
28.0736253349
 20
-49.4815507756
 10
28.0697876713
 20
-49.4843346211
 10
28.0658376669
 20
-49.4865649053
 10
28.0618094283
 20
-49.4882284952
 10
28.0576688489
 20
-49.4893385238
 10
28.053451117
 20
-49.4899851551
 10
28.0491881795
 20
-49.4901986879
 10
28.0448480894
 20
-49.4899488235
 10
28.0403701945
 20
-49.4892348291
 10
28.0357342771
 20
-49.4880564607
 10
28.0309605548
 20
-49.4864139624
 10
28.0260490277
 20
-49.4843073343
  0
LWPOLYLINE
  5
51F
100
AcDbEntity
  8
ASSI
100
AcDbPolyline
 62
253
  6
CONTINUOUS
 90
16
 70
0
 10
23.2247177033
 20
-58.9327972751
 10
23.2488855071
 20
-58.8968434804
 10
23.2735457649
 20
-58.8576913517
 10
23.298556078
 20
-58.8152162301
 10
23.3238795337
 20
-58.7693043532
 10
23.3492524888
 20
-58.7198360117
 10
23.3741569907
 20
-58.6666553002
 10
23.3985491475
 20
-58.609419926
 10
23.4220588805
 20
-58.5481986544
 10
23.443660055
 20
-58.4834544774
 10
23.4632069956
 20
-58.4149538569
 10
23.4804251831
 20
-58.3427578221
 10
23.4941680114
 20
-58.2678614334
 10
23.5039792137
 20
-58.1906255769
 10
23.5100241926
 20
-58.1107194478
 10
23.5121508913
 20
-58.0281731304
  0
LINE
  5
520
100
AcDbEntity
  8
RACCORDO
100
AcDbLine
 62
253
  6
CONTINUOUS
 10
29.0212261472
 20
-48.9302469266
 11
29.0191067535
 21
-48.9332733424
  0
LWPOLYLINE
  5
521
100
AcDbEntity
  8
RACCORDO
100
AcDbPolyline
 62
253
  6
CONTINUOUS
 90
10
 70
0
 10
29.6861025118
 20
-51.5742579877
 10
29.67508741
 20
-51.5897618847
 10
29.6652839197
 20
-51.60668196
 10
29.6567215058
 20
-51.6249673374
 10
29.6494319746
 20
-51.6445587528
 10
29.6434490007
 20
-51.6653744017
 10
29.6387985678
 20
-51.6873232038
 10
29.6354985762
 20
-51.7103156346
 10
29.6335612608
 20
-51.734266384
 10
29.6329943408
 20
-51.7590825652
  0
LINE
  5
522
100
AcDbEntity
  8
RACCORDO
100
AcDbLine
 62
253
  6
CONTINUOUS
 10
28.5174079097
 20
-48.4470575843
 11
28.6076684516
 21
-48.3213399598
  0
LWPOLYLINE
  5
523
100
AcDbEntity
  8
RACCORDO
100
AcDbPolyline
 62
253
  6
CONTINUOUS
 90
3
 70
0
 10
28.3753453085
 20
-48.5446283626
 10
28.3977830551
 20
-48.5140360327
 10
28.5635533824
 20
-48.2868867187
  0
LINE
  5
524
100
AcDbEntity
  8
RACCORDO
100
AcDbLine
 62
253
  6
CONTINUOUS
 10
27.8661472464
 20
-49.3363335212
 11
28.1578217885
 21
-48.9405835634
  0
LINE
  5
525
100
AcDbEntity
  8
RACCORDO
100
AcDbLine
 62
253
  6
CONTINUOUS
 10
27.8481458629
 20
-49.2581782521
 11
28.1795950035
 21
-48.8105749618
  0
LWPOLYLINE
  5
526
100
AcDbEntity
  8
RACCORDO
100
AcDbPolyline
 62
253
  6
CONTINUOUS
 90
42
 70
0
 10
30.0024798048
 20
-50.7406993203
 10
29.9372126786
 20
-50.8260369382
 10
29.8666798531
 20
-50.903919338
 10
29.7908382463
 20
-50.9742855178
 10
29.7097309403
 20
-51.0371964794
 10
29.6240197568
 20
-51.0921388791
 10
29.533667022
 20
-51.1390475191
 10
29.4387104098
 20
-51.1779875972
 10
29.3399247641
 20
-51.2086413632
 10
29.2372787575
 20
-51.2309410151
 10
29.1308037175
 20
-51.2449543549
 10
29.0213684701
 20
-51.2505670379
 10
28.908948806
 20
-51.2477103333
 10
28.7935689347
 20
-51.2364529719
 10
28.6761703106
 20
-51.2168868019
 10
28.5567363862
 20
-51.1889438305
 10
28.4352837092
 20
-51.1526920504
 10
28.3128033764
 20
-51.1084272885
 10
28.1892869598
 20
-51.0560839524
 10
28.0647428874
 20
-50.9957276345
 10
27.9401875412
 20
-50.9278509376
 10
27.8156209746
 20
-50.8523924379
 10
27.691043134
 20
-50.7694135592
 10
27.5674702412
 20
-50.6795911765
 10
27.4449100773
 20
-50.5828688678
 10
27.3233548613
 20
-50.4793030551
 10
27.2037974712
 20
-50.3697398798
 10
27.0862559733
 20
-50.2541323765
 10
26.9707123013
 20
-50.1325275106
 10
26.8581051351
 20
-50.0059123204
 10
26.7484521318
 20
-49.8742364518
 10
26.6417356343
 20
-49.7375502589
 10
26.5388413508
 20
-49.5969918421
 10
26.4398156883
 20
-49.4525543028
 10
26.3446122398
 20
-49.3042445396
 10
26.2539774931
 20
-49.1532213493
 10
26.1678981644
 20
-48.9993415175
 10
26.0863875375
 20
-48.8427482585
 10
26.0102319518
 20
-48.6850300128
 10
25.9396935203
 20
-48.5267162606
 10
25.87451013
 20
-48.3672775217
 10
25.8146817808
 20
-48.2067137961
  0
LINE
  5
527
100
AcDbEntity
  8
RACCORDO
100
AcDbLine
 62
7
  6
CONTINUOUS
 10
28.0758108682
 20
-49.4238910001
 11
28.0759883516
 21
-49.4236700506
  0
LWPOLYLINE
  5
528
100
AcDbEntity
  8
RACCORDO
100
AcDbPolyline
 62
7
  6
CONTINUOUS
 90
6
 70
0
 10
28.2271325341
 20
-48.6489444979
 10
28.218356766
 20
-48.6593122411
 10
28.2106930519
 20
-48.6711050232
 10
28.2042962906
 20
-48.684221221
 10
28.1993062938
 20
-48.6985097456
 10
28.1956333462
 20
-48.7148201627
  0
LINE
  5
529
100
AcDbEntity
  8
RACCORDO
100
AcDbLine
 62
253
  6
CONTINUOUS
 10
28.0412123275
 20
-49.437413892
 11
28.0826722689
 21
-49.3893038794
  0
LWPOLYLINE
  5
52A
100
AcDbEntity
  8
RACCORDO
100
AcDbPolyline
 62
253
  6
CONTINUOUS
 90
14
 70
0
 10
29.0191067535
 20
-48.9332733424
 10
29.016686296
 20
-48.9360711686
 10
29.0139697614
 20
-48.9386434566
 10
29.010952163
 20
-48.9409871551
 10
29.0075881539
 20
-48.9430204495
 10
29.0038672811
 20
-48.944755329
 10
28.9997999976
 20
-48.9461798044
 10
28.9953723152
 20
-48.9471760948
 10
28.9905650332
 20
-48.9477429323
 10
28.9853973523
 20
-48.9478815847
 10
28.9799128868
 20
-48.9474780745
 10
28.9741261746
 20
-48.9464944091
 10
28.9680226779
 20
-48.944968581
 10
28.9616023964
 20
-48.9429005903
  0
LWPOLYLINE
  5
52B
100
AcDbEntity
  8
RACCORDO
100
AcDbPolyline
 62
253
  6
CONTINUOUS
 90
14
 70
0
 10
28.0759861817
 20
-49.4236723222
 10
28.0748312486
 20
-49.4249816175
 10
28.0718853547
 20
-49.4280118475
 10
28.0689168456
 20
-49.4306482047
 10
28.0659656249
 20
-49.4328827525
 10
28.0630744486
 20
-49.4347147791
 10
28.0602433388
 20
-49.4361758887
 10
28.0574437389
 20
-49.437303277
 10
28.0546919633
 20
-49.4381124828
 10
28.0519982067
 20
-49.4386065908
 10
28.0493074403
 20
-49.4387866734
 10
28.0465991179
 20
-49.4386473878
 10
28.0438989297
 20
-49.4381896582
 10
28.0412123563
 20
-49.4374139167
  0
LWPOLYLINE
  5
52C
100
AcDbEntity
  8
RACCORDO
100
AcDbPolyline
 62
253
  6
CONTINUOUS
 90
3
 70
0
 10
27.6396751377
 20
-47.6409168454
 10
27.6464596839
 20
-47.6342138475
 10
27.6521569618
 20
-47.626467166
  0
LWPOLYLINE
  5
52D
100
AcDbEntity
  8
RACCORDO
100
AcDbPolyline
 62
253
  6
CONTINUOUS
 90
16
 70
0
 10
26.5138226145
 20
-44.5862137235
 10
26.4928262676
 20
-44.6007914257
 10
26.4734538309
 20
-44.6180776332
 10
26.455912868
 20
-44.6378871489
 10
26.4403913255
 20
-44.6600077334
 10
26.427055505
 20
-44.6842023965
 10
26.4160482881
 20
-44.7102119422
 10
26.4074876212
 20
-44.7377577132
 10
26.401465242
 20
-44.766544582
 10
26.3980456903
 20
-44.796264136
 10
26.3972656228
 20
-44.8265979604
 10
26.399133417
 20
-44.8572210454
 10
26.4036290785
 20
-44.8878052793
 10
26.4107044556
 20
-44.9180229654
 10
26.4202837562
 20
-44.9475503329
 10
26.4322643587
 20
-44.9760710029
  0
LWPOLYLINE
  5
52E
100
AcDbEntity
  8
RACCORDO
100
AcDbPolyline
 62
7
  6
CONTINUOUS
 90
5
 70
0
 10
26.1439643361
 20
-44.7566324118
 10
26.0959051562
 20
-44.7897735754
 10
26.0489910377
 20
-44.8249063108
 10
26.003285726
 20
-44.8619969693
 10
25.9588115889
 20
-44.901041164
  0
LWPOLYLINE
  5
52F
100
AcDbEntity
  8
0
100
AcDbPolyline
 62
7
  6
CONTINUOUS
 90
8
 70
0
 10
26.5362068118
 20
-45.7460937078
 10
26.4193115072
 20
-45.82524656
 10
26.2828475614
 20
-45.9590285711
 10
26.1667097569
 20
-46.1242401843
 10
26.0755056561
 20
-46.3143269206
 10
26.0107711128
 20
-46.5271039538
 10
25.9709702731
 20
-46.7647561102
 10
25.956103137
 20
-47.0272833897
  0
LINE
  5
530
100
AcDbEntity
  8
RACCORDO
100
AcDbLine
 62
7
  6
CONTINUOUS
 10
26.7537085703
 20
-42.1815965975
 11
26.7309000232
 21
-42.1968970838
  0
LWPOLYLINE
  5
531
100
AcDbEntity
  8
RACCORDO
100
AcDbPolyline
 62
253
  6
CONTINUOUS
 90
16
 70
0
 10
27.0030215293
 20
-42.199351996
 10
26.9811435868
 20
-42.2137691455
 10
26.9595805289
 20
-42.230656041
 10
26.9385633895
 20
-42.2498317492
 10
26.9183173521
 20
-42.2710908148
 10
26.8990593402
 20
-42.2942054591
 10
26.8809956926
 20
-42.3189280192
 10
26.8643199482
 20
-42.3449936076
 10
26.8492107746
 20
-42.3721229483
 10
26.8358300559
 20
-42.4000253648
 10
26.8243211551
 20
-42.428401901
 10
26.814807379
 20
-42.4569485221
 10
26.8073906588
 20
-42.4853593697
 10
26.802150456
 20
-42.5133300418
 10
26.7991429118
 20
-42.5405608549
 10
26.7984002465
 20
-42.5667600526
  0
LINE
  5
532
100
AcDbEntity
  8
RACCORDO
100
AcDbLine
 62
7
  6
CONTINUOUS
 10
26.1931241121
 20
-44.7254973703
 11
26.1439643361
 21
-44.7566324118
  0
LINE
  5
533
100
AcDbEntity
  8
RACCORDO
100
AcDbLine
 62
253
  6
CONTINUOUS
 10
27.0724344087
 20
-42.1563300871
 11
27.0030215294
 21
-42.199351996
  0
LINE
  5
534
100
AcDbEntity
  8
RACCORDO
100
AcDbLine
 62
7
  6
CONTINUOUS
 10
26.7587403647
 20
-42.1784866743
 11
26.753642498
 21
-42.1816374089
  0
LINE
  5
535
100
AcDbEntity
  8
RACCORDO
100
AcDbLine
 62
253
  6
CONTINUOUS
 10
26.5174631856
 20
-44.5840005366
 11
26.5138226144
 21
-44.5862137235
  0
LINE
  5
536
100
AcDbEntity
  8
DRAFT
100
AcDbLine
 62
7
  6
CONTINUOUS
 10
26.196780069
 20
-44.7232809451
 11
26.1931241121
 21
-44.7254973703
  0
LINE
  5
537
100
AcDbEntity
  8
RACCORDO
100
AcDbLine
 62
7
  6
CONTINUOUS
 10
26.5549640761
 20
-44.5684227224
 11
26.5553720778
 21
-44.5681753877
  0
LWPOLYLINE
  5
538
100
AcDbEntity
  8
RACCORDO
100
AcDbPolyline
 62
253
  6
CONTINUOUS
 90
16
 70
0
 10
29.4668198197
 20
-44.4100889509
 10
29.4441095801
 20
-44.4237594411
 10
29.4204781035
 20
-44.4387905161
 10
29.3961785893
 20
-44.4550211237
 10
29.3714713918
 20
-44.4722773612
 10
29.3466212363
 20
-44.4903743352
 10
29.3218943825
 20
-44.5091181419
 10
29.2975557629
 20
-44.5283079511
 10
29.2738661473
 20
-44.5477381564
 10
29.2510793545
 20
-44.5672005732
 10
29.2294395264
 20
-44.5864866751
 10
29.2091785126
 20
-44.6053898273
 10
29.1905133901
 20
-44.6237074978
 10
29.1736441356
 20
-44.6412434293
 10
29.1587514828
 20
-44.6578097416
 10
29.1459949869
 20
-44.6732289442
  0
LINE
  5
539
100
AcDbEntity
  8
RACCORDO
100
AcDbLine
 62
7
  6
CONTINUOUS
 10
26.196781451
 20
-44.7232832999
 11
26.2066166095
 21
-44.7173818441
  0
LWPOLYLINE
  5
53A
100
AcDbEntity
  8
RACCORDO
100
AcDbPolyline
 62
253
  6
CONTINUOUS
 90
5
 70
0
 10
26.1931241121
 20
-44.7254973703
 10
26.2324290494
 20
-44.7026099298
 10
26.3225479168
 20
-44.6567943616
 10
26.4164104989
 20
-44.6179695724
 10
26.5138226144
 20
-44.5862137235
  0
LWPOLYLINE
  5
53B
100
AcDbEntity
  8
RACCORDO
100
AcDbPolyline
 62
7
  6
CONTINUOUS
 90
3
 70
0
 10
26.758729252
 20
-42.1784678647
 10
26.7672160925
 20
-42.1735626019
 10
26.786205748
 20
-42.1648223103
  0
LINE
  5
53C
100
AcDbEntity
  8
RACCORDO
100
AcDbLine
 62
7
  6
CONTINUOUS
 10
29.7925228686
 20
-40.6483317996
 11
27.2711539949
 21
-42.1041694909
  0
LINE
  5
53D
100
AcDbEntity
  8
0
100
AcDbLine
 62
7
  6
CONTINUOUS
 10
26.7834218494
 20
-45.6027240708
 11
26.535934476
 21
-45.7456201785
  0
LINE
  5
53E
100
AcDbEntity
  8
RACCORDO
100
AcDbLine
 62
253
  6
CONTINUOUS
 10
29.6329943408
 20
-44.8521872024
 11
29.6367611776
 21
-44.8500455418
  0
LINE
  5
53F
100
AcDbEntity
  8
RACCORDO
100
AcDbLine
 62
253
  6
CONTINUOUS
 10
29.6329943409
 20
-46.0600869476
 11
29.6367611776
 21
-46.0579492336
  0
LINE
  5
540
100
AcDbEntity
  8
RACCORDO
100
AcDbLine
 62
253
  6
CONTINUOUS
 10
29.4668198197
 20
-44.4100889509
 11
29.4705892483
 21
-44.4079506561
  0
LWPOLYLINE
  5
541
100
AcDbEntity
  8
RACCORDO
100
AcDbPolyline
 62
253
  6
CONTINUOUS
 90
4
 70
0
 10
26.7537063896
 20
-42.1815979408
 10
26.7650361923
 20
-42.1751992244
 10
26.7847018893
 20
-42.1666156451
 10
26.8056157304
 20
-42.1604488926
  0
LWPOLYLINE
  5
542
100
AcDbEntity
  8
RACCORDO
100
AcDbPolyline
 62
7
  6
CONTINUOUS
 90
6
 70
0
 10
26.2066166095
 20
-44.7173818441
 10
26.265508946
 20
-44.6844553238
 10
26.3260562476
 20
-44.6546456453
 10
26.3882035961
 20
-44.6279804334
 10
26.4520059098
 20
-44.6044320633
 10
26.5174631885
 20
-44.5840005351
  0
LWPOLYLINE
  5
543
100
AcDbEntity
  8
RACCORDO
100
AcDbPolyline
 62
7
  6
CONTINUOUS
 90
10
 70
0
 10
29.7925228686
 20
-40.6483317996
 10
29.8020944669
 20
-40.6430159338
 10
29.8103013149
 20
-40.6382440617
 10
29.8171812688
 20
-40.6341196296
 10
29.8227770143
 20
-40.6308525706
 10
29.8271790495
 20
-40.6284108458
 10
29.8304946018
 20
-40.6265143377
 10
29.8327899476
 20
-40.6251880364
 10
29.8341386888
 20
-40.6245175016
 10
29.834619475
 20
-40.6242947268
  0
LWPOLYLINE
  5
544
100
AcDbEntity
  8
RACCORDO
100
AcDbPolyline
 62
7
  6
CONTINUOUS
 90
10
 70
0
 10
27.2711539949
 20
-42.1041694909
 10
27.2529364646
 20
-42.1138822683
 10
27.2334028149
 20
-42.122744533
 10
27.2126723158
 20
-42.1306916648
 10
27.19082576
 20
-42.1376747239
 10
27.1680465331
 20
-42.1436253379
 10
27.1446369928
 20
-42.1484796362
 10
27.1208143845
 20
-42.1522164857
 10
27.0966925153
 20
-42.1548339758
 10
27.0724344086
 20
-42.1563300849
  0
LINE
  5
545
100
AcDbEntity
  8
RACCORDO
100
AcDbLine
 62
7
  6
CONTINUOUS
 10
26.5389089466
 20
-44.5763084129
 11
26.5592455396
 21
-44.5658069657
  0
LWPOLYLINE
  5
546
100
AcDbEntity
  8
RACCORDO
100
AcDbPolyline
 62
253
  6
CONTINUOUS
 90
16
 70
0
 10
29.6329943408
 20
-44.8521872024
 10
29.6095702148
 20
-44.8639579501
 10
29.5841642272
 20
-44.8742675655
 10
29.5570485855
 20
-44.8830055881
 10
29.528513815
 20
-44.8900783961
 10
29.498865646
 20
-44.8954102092
 10
29.4684217382
 20
-44.8989439008
 10
29.4375082768
 20
-44.9006416099
 10
29.4064564782
 20
-44.9004851466
 10
29.3755990409
 20
-44.8984761873
 10
29.345266581
 20
-44.8946362567
 10
29.3157840897
 20
-44.8890064969
 10
29.2874674515
 20
-44.8816472269
 10
29.2606200596
 20
-44.8726372963
 10
29.2355295651
 20
-44.8620732401
 10
29.2124647953
 20
-44.8500682449
  0
LWPOLYLINE
  5
547
100
AcDbEntity
  8
RACCORDO
100
AcDbPolyline
 62
253
  6
CONTINUOUS
 90
16
 70
0
 10
29.6329943409
 20
-46.0600869476
 10
29.609570489
 20
-46.0718575716
 10
29.5841647874
 20
-46.0821671078
 10
29.557049429
 20
-46.090905094
 10
29.5285149318
 20
-46.0979779035
 10
29.4988670085
 20
-46.1033097537
 10
29.4684232882
 20
-46.1068435141
 10
29.437509946
 20
-46.1085413138
 10
29.4064581948
 20
-46.108384952
 10
29.3756007168
 20
-46.1063760929
 10
29.3452681294
 20
-46.1025362472
 10
29.3157854339
 20
-46.0969065444
 10
29.2874685198
 20
-46.0895472894
 10
29.2606207955
 20
-46.0805373191
 10
29.2355299366
 20
-46.0699731597
 10
29.2124647952
 20
-46.0579679904
  0
LWPOLYLINE
  5
548
100
AcDbEntity
  8
0
100
AcDbPolyline
 62
7
  6
CONTINUOUS
 90
3
 70
0
 10
26.7548522447
 20
-45.6544985928
 10
26.5769188052
 20
-45.7241577754
 10
26.5362068118
 20
-45.7460937078
  0
LINE
  5
549
100
AcDbEntity
  8
RACCORDO
100
AcDbLine
 62
7
  6
CONTINUOUS
 10
26.5174631885
 20
-44.5840005351
 11
26.5389089466
 21
-44.5763084129
  0
LWPOLYLINE
  5
54A
100
AcDbEntity
  8
RACCORDO
100
AcDbPolyline
 62
253
  6
CONTINUOUS
 90
16
 70
0
 10
26.4322643585
 20
-44.976071003
 10
26.4598507438
 20
-44.9666100672
 10
26.48584387
 20
-44.9545304195
 10
26.5102437373
 20
-44.93983206
 10
26.5331347462
 20
-44.9224333338
 10
26.5544324961
 20
-44.9024158958
 10
26.5738837851
 20
-44.8800247105
 10
26.591459549
 20
-44.8552456667
 10
26.607188852
 20
-44.8280928757
 10
26.6209056845
 20
-44.7988536355
 10
26.6325944629
 20
-44.7674843218
 10
26.6422707708
 20
-44.7340285588
 10
26.6498153497
 20
-44.6989045172
 10
26.6551884469
 20
-44.662251587
 10
26.658429815
 20
-44.6239303781
 10
26.6595394542
 20
-44.5839408905
  0
LWPOLYLINE
  5
54B
100
AcDbEntity
  8
RACCORDO
100
AcDbPolyline
 62
253
  6
CONTINUOUS
 90
4
 70
0
 10
26.5138226136
 20
-44.5862137216
 10
26.5308698689
 20
-44.5804190765
 10
26.5470509609
 20
-44.5729109564
 10
26.5549640761
 20
-44.5684227224
  0
LWPOLYLINE
  5
54C
100
AcDbEntity
  8
RACCORDO
100
AcDbPolyline
 62
7
  6
CONTINUOUS
 90
3
 70
0
 10
27.6669393296
 20
-47.6791274465
 10
27.6797366108
 20
-47.6750739116
 10
27.6868894861
 20
-47.6719575404
  0
LINE
  5
54D
100
AcDbEntity
  8
RACCORDO
100
AcDbLine
 62
253
  6
CONTINUOUS
 10
30.4040611226
 20
-51.1176268376
 11
30.4006107583
 21
-51.119367292
  0
LINE
  5
54E
100
AcDbEntity
  8
RACCORDO
100
AcDbLine
 62
7
  6
CONTINUOUS
 10
29.7025841414
 20
-51.5578550078
 11
29.6874833795
 21
-51.575678816
  0
LINE
  5
54F
100
AcDbEntity
  8
RACCORDO
100
AcDbLine
 62
253
  6
CONTINUOUS
 10
30.3286797606
 20
-51.1960714438
 11
30.3251414361
 21
-51.1979270887
  0
LWPOLYLINE
  5
550
100
AcDbEntity
  8
0
100
AcDbPolyline
 62
7
  6
CONTINUOUS
 90
3
 70
0
 10
29.5891566873
 20
-50.3818759308
 10
29.4526927415
 20
-50.515657942
 10
29.3357974369
 20
-50.5948107941
  0
LINE
  5
551
100
AcDbEntity
  8
RACCORDO
100
AcDbLine
 62
253
  6
CONTINUOUS
 10
29.5592923136
 20
-53.1751544811
 11
29.5550306416
 21
-53.1775223845
  0
LINE
  5
552
100
AcDbEntity
  8
RACCORDO
100
AcDbLine
 62
253
  6
CONTINUOUS
 10
30.2482480606
 20
-51.2673961756
 11
30.2447173539
 21
-51.2693347732
  0
LINE
  5
553
100
AcDbEntity
  8
RACCORDO
100
AcDbLine
 62
253
  6
CONTINUOUS
 10
30.1628463343
 20
-51.3316032625
 11
30.1595212445
 21
-51.3334280984
  0
LWPOLYLINE
  5
554
100
AcDbEntity
  8
RACCORDO
100
AcDbPolyline
 62
7
  6
CONTINUOUS
 90
3
 70
0
 10
28.2427964298
 20
-48.635666714
 10
28.2368905958
 20
-48.6400413782
 10
28.2271325341
 20
-48.6489444979
  0
LWPOLYLINE
  5
555
100
AcDbEntity
  8
RACCORDO
100
AcDbPolyline
 62
7
  6
CONTINUOUS
 90
3
 70
0
 10
29.737498276
 20
-51.5298479812
 10
29.7192945161
 20
-51.5425380091
 10
29.7025841414
 20
-51.5578550078
  0
LINE
  5
556
100
AcDbEntity
  8
RACCORDO
100
AcDbLine
 62
7
  6
CONTINUOUS
 10
28.6510839357
 20
-48.3552468349
 11
28.242732889
 21
-48.6357086107
  0
LINE
  5
557
100
AcDbEntity
  8
RACCORDO
100
AcDbLine
 62
253
  6
CONTINUOUS
 10
28.6853001348
 20
-48.3819691995
 11
28.3228776151
 21
-48.6308865569
  0
LINE
  5
558
100
AcDbEntity
  8
RACCORDO
100
AcDbLine
 62
253
  6
CONTINUOUS
 10
30.0731351241
 20
-51.3882094361
 11
30.0697466846
 21
-51.3900614368
  0
LWPOLYLINE
  5
559
100
AcDbEntity
  8
RACCORDO
100
AcDbPolyline
 62
253
  6
CONTINUOUS
 90
5
 70
0
 10
29.7395845888
 20
-51.5285218475
 10
29.7260014961
 20
-51.536818203
 10
29.7116113046
 20
-51.5477289301
 10
29.6982935562
 20
-51.560226476
 10
29.6861025118
 20
-51.5742579877
  0
LWPOLYLINE
  5
55A
100
AcDbEntity
  8
RACCORDO
100
AcDbPolyline
 62
253
  6
CONTINUOUS
 90
16
 70
0
 10
29.7750412752
 20
-46.4692005069
 10
29.7522273925
 20
-46.4827292474
 10
29.7283382711
 20
-46.4974080454
 10
29.7036298699
 20
-46.5130796247
 10
29.6783669224
 20
-46.5295760748
 10
29.6528201091
 20
-46.5467206432
 10
29.6272631579
 20
-46.5643296293
 10
29.6019698959
 20
-46.5822143624
 10
29.5772113216
 20
-46.6001832197
 10
29.5532527102
 20
-46.6180436729
 10
29.5303507598
 20
-46.6356043594
 10
29.5087508432
 20
-46.6526771313
 10
29.4886843844
 20
-46.6690790672
 10
29.4703663749
 20
-46.684634435
 10
29.4539930706
 20
-46.6991765752
 10
29.439739891
 20
-46.7125496844
  0
LINE
  5
55B
100
AcDbEntity
  8
RACCORDO
100
AcDbLine
 62
253
  6
CONTINUOUS
 10
28.1904476993
 20
-47.8912258962
 11
27.6161366008
 21
-48.2228231528
  0
LINE
  5
55C
100
AcDbEntity
  8
RACCORDO
100
AcDbLine
 62
253
  6
CONTINUOUS
 10
28.3050257294
 20
-48.0896347782
 11
27.7306946747
 21
-48.4212435571
  0
LINE
  5
55D
100
AcDbEntity
  8
0
100
AcDbLine
 62
7
  6
CONTINUOUS
 10
29.5835571462
 20
-50.4523882158
 11
29.3360697727
 21
-50.5952843235
  0
LINE
  5
55E
100
AcDbEntity
  8
RACCORDO
100
AcDbLine
 62
253
  6
CONTINUOUS
 10
29.7750412752
 20
-46.4692005069
 11
29.7788051318
 21
-46.4670585022
  0
LINE
  5
55F
100
AcDbEntity
  8
RACCORDO
100
AcDbLine
 62
253
  6
CONTINUOUS
 10
30.0519112447
 20
-51.4001338888
 11
30.0481618807
 21
-51.4021884808
  0
LINE
  5
560
100
AcDbEntity
  8
RACCORDO
100
AcDbLine
 62
7
  6
CONTINUOUS
 10
30.0731351241
 20
-51.3882094361
 11
30.0519112447
 21
-51.4001338888
  0
LINE
  5
561
100
AcDbEntity
  8
DRAFT
100
AcDbLine
 62
7
  6
CONTINUOUS
 10
30.0519092249
 20
-51.4001303328
 11
30.0481618807
 21
-51.4021884808
  0
LINE
  5
562
100
AcDbEntity
  8
RACCORDO
100
AcDbLine
 62
253
  6
CONTINUOUS
 10
29.6367611776
 20
-51.7570196801
 11
29.6329943408
 21
-51.7590825652
  0
LWPOLYLINE
  5
563
100
AcDbEntity
  8
0
100
AcDbPolyline
 62
7
  6
CONTINUOUS
 90
22
 70
0
 10
29.3357974369
 20
-50.5948107941
 10
29.2950854435
 20
-50.6167467266
 10
29.117152004
 20
-50.6864059092
 10
28.925951618
 20
-50.7218718848
 10
28.7209508889
 20
-50.7217699183
 10
28.5026832133
 20
-50.6874747449
 10
28.2798079755
 20
-50.6203469649
 10
28.0521399288
 20
-50.519066546
 10
27.8198643199
 20
-50.3849535205
 10
27.5921962732
 20
-50.2233285858
 10
27.3693210354
 20
-50.0330856277
 10
27.1510533598
 20
-49.8153307604
 10
26.9460526307
 20
-49.5787030235
 10
26.7548522447
 20
-49.3224436347
 10
26.5769188052
 20
-49.0473113763
 10
26.4193115072
 20
-48.7642216345
 10
26.2828475614
 20
-48.4728544793
 10
26.1667097569
 20
-48.1735298406
 10
26.0755056561
 20
-47.8781228947
 10
26.0107711128
 20
-47.5905920336
 10
25.9709702731
 20
-47.3069788653
 10
25.956103137
 20
-47.0272833897
  0
LWPOLYLINE
  5
564
100
AcDbEntity
  8
RACCORDO
100
AcDbPolyline
 62
253
  6
CONTINUOUS
 90
8
 70
0
 10
27.6868357717
 20
-47.6719957388
 10
27.6896489185
 20
-47.6705470817
 10
27.6998933983
 20
-47.6636614858
 10
27.7089899299
 20
-47.6547821204
 10
27.7166382627
 20
-47.6442474532
 10
27.7227699491
 20
-47.6323716009
 10
27.7274497125
 20
-47.619284796
 10
27.7306946747
 20
-47.6051956178
  0
LWPOLYLINE
  5
565
100
AcDbEntity
  8
RACCORDO
100
AcDbPolyline
 62
253
  6
CONTINUOUS
 90
16
 70
0
 10
29.6329943408
 20
-51.7590825652
 10
29.6095702148
 20
-51.7708533129
 10
29.5841642271
 20
-51.7811629282
 10
29.5570485854
 20
-51.7899009508
 10
29.528513815
 20
-51.7969737588
 10
29.498865646
 20
-51.8023055719
 10
29.4684217382
 20
-51.8058392635
 10
29.4375082768
 20
-51.8075369726
 10
29.4064564782
 20
-51.8073805093
 10
29.3755990409
 20
-51.80537155
 10
29.345266581
 20
-51.8015316194
 10
29.3157840897
 20
-51.7959018596
 10
29.2874674515
 20
-51.7885425897
 10
29.2606200596
 20
-51.779532659
 10
29.2355295651
 20
-51.7689686028
 10
29.2124647953
 20
-51.7569636076
  0
LWPOLYLINE
  5
566
100
AcDbEntity
  8
RACCORDO
100
AcDbPolyline
 62
7
  6
CONTINUOUS
 90
3
 70
0
 10
29.9815860732
 20
-51.4365990396
 10
30.0151155473
 20
-51.4198002025
 10
30.0481618807
 20
-51.4021884808
  0
LINE
  5
567
100
AcDbEntity
  8
RACCORDO
100
AcDbLine
 62
253
  6
CONTINUOUS
 10
28.1274901951
 20
-47.4157527663
 11
27.7306946747
 21
-47.6051956178
  0
LINE
  5
568
100
AcDbEntity
  8
RACCORDO
100
AcDbLine
 62
7
  6
CONTINUOUS
 10
28.1335220947
 20
-47.4587349284
 11
27.6864518442
 21
-47.6721805413
  0
LWPOLYLINE
  5
569
100
AcDbEntity
  8
RACCORDO
100
AcDbPolyline
 62
253
  6
CONTINUOUS
 90
16
 70
0
 10
29.4397398912
 20
-51.3648334976
 10
29.4121523376
 20
-51.3742950853
 10
29.3861583734
 20
-51.3863752965
 10
29.3617579986
 20
-51.4010741312
 10
29.338866914
 20
-51.4184732228
 10
29.3175694189
 20
-51.4384909379
 10
29.2981184105
 20
-51.4608823761
 10
29.280542873
 20
-51.4856615977
 10
29.2648138224
 20
-51.5128145425
 10
29.2510972038
 20
-51.5420541293
 10
29.2394085422
 20
-51.5734244184
 10
29.2297323128
 20
-51.6068813495
 10
29.2221878863
 20
-51.6420056602
 10
29.216815053
 20
-51.6786575964
 10
29.2135740227
 20
-51.7169769122
 10
29.2124647953
 20
-51.7569636076
  0
LWPOLYLINE
  5
56A
100
AcDbEntity
  8
RACCORDO
100
AcDbPolyline
 62
7
  6
CONTINUOUS
 90
7
 70
0
 10
29.7706947101
 20
-51.5199598196
 10
29.806988405
 20
-51.5081633591
 10
29.8428335822
 20
-51.4955191386
 10
29.8782127158
 20
-51.4820378941
 10
29.9131245781
 20
-51.4677247648
 10
29.9475831684
 20
-51.4525774184
 10
29.9815860732
 20
-51.4365990396
  0
LINE
  5
56B
100
AcDbEntity
  8
RACCORDO
100
AcDbLine
 62
7
  6
CONTINUOUS
 10
29.7339622027
 20
-51.530901265
 11
29.7706947101
 21
-51.5199598196
  0
LINE
  5
56C
100
AcDbEntity
  8
RACCORDO
100
AcDbLine
 62
253
  6
CONTINUOUS
 10
29.5436807643
 20
-53.1871695653
 11
29.539570022
 21
-53.1894373043
  0
LWPOLYLINE
  5
56D
100
AcDbEntity
  8
RACCORDO
100
AcDbPolyline
 62
7
  6
CONTINUOUS
 90
29
 70
0
 10
33.0373721941
 20
-51.3585092197
 10
33.1735696157
 20
-51.2689708726
 10
33.3037518497
 20
-51.1690895309
 10
33.4276030097
 20
-51.0590011438
 10
33.5448485765
 20
-50.9388343151
 10
33.6551729632
 20
-50.808792683
 10
33.7582421192
 20
-50.6691688435
 10
33.8538165849
 20
-50.5202011608
 10
33.9416892247
 20
-50.3621186474
 10
34.0216303987
 20
-50.1952412558
 10
34.0934848627
 20
-50.0197914882
 10
34.1570688262
 20
-49.8360996745
 10
34.2121728518
 20
-49.6447027383
 10
34.2586877028
 20
-49.4459702332
 10
34.2965335874
 20
-49.2402206791
 10
34.32561514
 20
-49.0279812032
 10
34.3458901853
 20
-48.8096309102
 10
34.3573281763
 20
-48.585576646
 10
34.3599153281
 20
-48.3564434167
 10
34.3536781854
 20
-48.1227398151
 10
34.3386563267
 20
-47.8848355527
 10
34.3149019645
 20
-47.6431840906
 10
34.2824820596
 20
-47.3982437288
 10
34.2414776045
 20
-47.1504745648
 10
34.1919855753
 20
-46.9003500067
 10
34.1341165162
 20
-46.6483409718
 10
34.0679959091
 20
-46.394924222
 10
33.9937680405
 20
-46.1405932752
 10
33.9115952983
 20
-45.8858495046
  0
LWPOLYLINE
  5
56E
100
AcDbEntity
  8
DRAFT
100
AcDbPolyline
 62
7
  6
CONTINUOUS
 90
53
 70
0
 10
31.9532229539
 20
-52.0157751159
 10
32.0214566905
 20
-51.9726240441
 10
32.158488459
 20
-51.8743781188
 10
32.2883069079
 20
-51.7650838373
 10
32.4108285559
 20
-51.6448098331
 10
32.5258932825
 20
-51.5136454858
 10
32.6331192196
 20
-51.3719536923
 10
32.732118541
 20
-51.220248691
 10
32.8226135838
 20
-51.0590463192
 10
32.904547082
 20
-50.8885471302
 10
32.9778839869
 20
-50.7088224916
 10
33.042517716
 20
-50.5200060388
 10
33.098204568
 20
-50.3226645053
 10
33.144734203
 20
-50.1175449752
 10
33.1819961174
 20
-49.9053428787
 10
33.2099961718
 20
-49.6862840858
 10
33.2287254038
 20
-49.4604371845
 10
33.238125908
 20
-49.2279768765
 10
33.238125908
 20
-48.9896314977
 10
33.2287254038
 20
-48.7463157232
 10
33.2099961718
 20
-48.4988407742
 10
33.1819961174
 20
-48.2474482203
 10
33.144734203
 20
-47.992216999
 10
33.098204568
 20
-47.7333662128
 10
33.042517716
 20
-47.4717188984
 10
32.9778839869
 20
-47.2082650354
 10
32.904547082
 20
-46.9438527773
 10
32.8226135838
 20
-46.6787388382
 10
32.732118541
 20
-46.4130350593
 10
32.6331192196
 20
-46.1470081233
 10
32.5258932825
 20
-45.8814945053
 10
32.4108285559
 20
-45.6174562959
 10
32.2883069079
 20
-45.3556973637
 10
32.158488459
 20
-45.0964919915
 10
32.0214566905
 20
-44.8400052147
 10
31.8773476787
 20
-44.5865470369
 10
31.7265675403
 20
-44.3368844579
 10
31.5696213415
 20
-44.0918556374
 10
31.4069776676
 20
-43.8521495997
 10
31.2388611104
 20
-43.6180563898
 10
31.0654340277
 20
-43.3898002977
 10
30.8869263998
 20
-43.1677165428
 10
30.7038161437
 20
-42.9524313733
 10
30.5166480884
 20
-42.7445874019
 10
30.3259169374
 20
-42.5447103413
 10
30.1319242813
 20
-42.3530930812
 10
29.9349408384
 20
-42.1700010354
 10
29.7352985927
 20
-41.9957585444
 10
29.5334813152
 20
-41.8308034051
 10
29.3299923299
 20
-41.6755493318
 10
29.125283214
 20
-41.5303338989
 10
28.9197502307
 20
-41.3954312887
 10
28.7138195837
 20
-41.2711166469
  0
LINE
  5
56F
100
AcDbEntity
  8
RACCORDO
100
AcDbLine
 62
253
  6
CONTINUOUS
 10
29.5298371271
 20
-53.1956641719
 11
29.5257148979
 21
-53.1979205261
  0
LINE
  5
570
100
AcDbEntity
  8
DRAFT
100
AcDbLine
 62
7
  6
CONTINUOUS
 10
33.0373721941
 20
-51.3585092197
 11
31.9532229539
 21
-52.0157751159
  0
LINE
  5
571
100
AcDbEntity
  8
DRAFT
100
AcDbLine
 62
7
  6
CONTINUOUS
 10
31.8742379814
 20
-52.0613800491
 11
31.9532229539
 21
-52.0157751159
  0
LINE
  5
572
100
AcDbEntity
  8
DRAFT
100
AcDbLine
 62
7
  6
CONTINUOUS
 10
31.8742379814
 20
-52.0613800491
 11
30.228067352
 21
-52.9655037657
  0
LINE
  5
573
100
AcDbEntity
  8
RACCORDO
100
AcDbLine
 62
253
  6
CONTINUOUS
 10
29.6329943408
 20
-52.9669823114
 11
29.6367611776
 21
-52.9649233718
  0
LINE
  5
574
100
AcDbEntity
  8
RACCORDO
100
AcDbLine
 62
7
  6
CONTINUOUS
 10
29.5257149783
 20
-53.1979204821
 11
29.5298384954
 21
-53.1956665828
  0
LWPOLYLINE
  5
575
100
AcDbEntity
  8
ASSI
100
AcDbPolyline
 62
253
  6
CONTINUOUS
 90
8
 70
0
 10
22.8973376151
 20
-59.2224665024
 10
22.944948299
 20
-59.1965930374
 10
22.9980933891
 20
-59.1626617627
 10
23.0487017059
 20
-59.1246872833
 10
23.0967652439
 20
-59.0826605279
 10
23.142205633
 20
-59.0366106334
 10
23.1848892691
 20
-58.9866306985
 10
23.2247177033
 20
-58.9327972751
  0
LWPOLYLINE
  5
576
100
AcDbEntity
  8
RACCORDO
100
AcDbPolyline
 62
7
  6
CONTINUOUS
 90
5
 70
0
 10
30.228043696
 20
-52.9654621076
 10
30.1145368277
 20
-53.0234474926
 10
29.9620246437
 20
-53.0886244893
 10
29.8040123538
 20
-53.1422192387
 10
29.6402005554
 20
-53.1843867685
  0
LINE
  5
577
100
AcDbEntity
  8
RACCORDO
100
AcDbLine
 62
7
  6
CONTINUOUS
 10
29.5045795086
 20
-53.208600898
 11
29.5257010214
 21
-53.1979271702
  0
LWPOLYLINE
  5
578
100
AcDbEntity
  8
RACCORDO
100
AcDbPolyline
 62
253
  6
CONTINUOUS
 90
16
 70
0
 10
29.6329943408
 20
-52.9669823114
 10
29.6095700579
 20
-52.9787531277
 10
29.5841639096
 20
-52.9890627852
 10
29.5570481125
 20
-52.9978008252
 10
29.5285131975
 20
-53.0048736289
 10
29.498864904
 20
-53.0102054186
 10
29.4684209046
 20
-53.0137390709
 10
29.4375073899
 20
-53.0154367305
 10
29.406455578
 20
-53.0152802136
 10
29.3755981718
 20
-53.0132712031
 10
29.3452657865
 20
-53.0094312305
 10
29.3157834081
 20
-53.0038014444
 10
29.2874669152
 20
-52.99644217
 10
29.2606196927
 20
-52.9874322621
 10
29.2355293809
 20
-52.9768682601
 10
29.2124647953
 20
-52.9648633538
  0
LINE
  5
579
100
AcDbEntity
  8
ASSI
100
AcDbLine
 62
7
  6
CONTINUOUS
 10
18.3216189027
 20
-61.5082840355
 11
22.8973376151
 21
-59.2224665024
  0
LWPOLYLINE
  5
57A
100
AcDbEntity
  8
ASSI
100
AcDbPolyline
 62
253
  6
CONTINUOUS
 90
19
 70
0
 10
23.5121508913
 20
-58.0281731304
 10
18.8700544697
 20
-60.3469762837
 10
18.8173937517
 20
-60.369071176
 10
18.7617961619
 20
-60.3886208526
 10
18.7036298185
 20
-60.4054958748
 10
18.6432798498
 20
-60.419584512
 10
18.581145845
 20
-60.4307934824
 10
18.5176392013
 20
-60.4390485722
 10
18.4531804036
 20
-60.444295126
 10
18.388196244
 20
-60.4464984077
 10
18.3231169897
 20
-60.4456438319
 10
18.258373536
 20
-60.4417370595
 10
18.194394557
 20
-60.4348039606
 10
18.1316036624
 20
-60.4248904428
 10
18.0704165941
 20
-60.4120621472
 10
18.0112384756
 20
-60.396404014
 10
17.9544611275
 20
-60.3780197199
 10
17.9004604734
 20
-60.3570309912
 10
17.849594052
 20
-60.3335767981
  0
LWPOLYLINE
  5
57B
100
AcDbEntity
  8
RACCORDO
100
AcDbPolyline
 62
253
  6
CONTINUOUS
 90
11
 70
0
 10
29.6989142463
 20
-59.72806871
 10
29.7161418152
 20
-59.7148983033
 10
29.7318100923
 20
-59.6994206314
 10
29.7458312438
 20
-59.6817223228
 10
29.7581257793
 20
-59.6619029179
 10
29.7686261902
 20
-59.6400723762
 10
29.7772741276
 20
-59.6163524568
 10
29.7840190762
 20
-59.5908770211
 10
29.7888234583
 20
-59.5637883311
 10
29.7916628429
 20
-59.5352362623
 10
29.7925228686
 20
-59.5053794385
  0
LWPOLYLINE
  5
57C
100
AcDbEntity
  8
RACCORDO
100
AcDbPolyline
 62
253
  6
CONTINUOUS
 90
7
 70
0
 10
29.7925228686
 20
-59.5053794385
 10
29.80507053
 20
-59.496834071
 10
29.8156027619
 20
-59.4874250006
 10
29.8239433316
 20
-59.4773096665
 10
29.829952679
 20
-59.4666573253
 10
29.8335302516
 20
-59.4556462194
 10
29.8346218986
 20
-59.4452163833
  0
LWPOLYLINE
  5
57D
100
AcDbEntity
  8
RACCORDO
100
AcDbPolyline
 62
7
  6
CONTINUOUS
 90
8
 70
0
 10
29.6939062016
 20
-59.7312814066
 10
29.7103219504
 20
-59.7202852867
 10
29.7300166437
 20
-59.7045535732
 10
29.7485737905
 20
-59.6866363907
 10
29.7658128234
 20
-59.6665222691
 10
29.7814908565
 20
-59.644297905
 10
29.795364984
 20
-59.6201620222
 10
29.8073101908
 20
-59.5942072428
  0
LINE
  5
57E
100
AcDbEntity
  8
RACCORDO
100
AcDbLine
 62
253
  6
CONTINUOUS
 10
29.6940801516
 20
-59.7311745409
 11
29.6989142463
 21
-59.72806871
  0
LINE
  5
57F
100
AcDbEntity
  8
RACCORDO
100
AcDbLine
 62
253
  6
CONTINUOUS
 10
29.7925228686
 20
-59.5053794385
 11
28.7138195837
 21
-60.1724657308
  0
LINE
  5
580
100
AcDbEntity
  8
RACCORDO
100
AcDbLine
 62
7
  6
CONTINUOUS
 10
29.694079735
 20
-59.7311747986
 11
28.614623857
 21
-60.3987265057
  0
LWPOLYLINE
  5
581
100
AcDbEntity
  8
RACCORDO
100
AcDbPolyline
 62
253
  6
CONTINUOUS
 90
12
 70
0
 10
27.1618313429
 20
-61.180336792
 10
27.1752378884
 20
-61.1722753584
 10
27.1925104193
 20
-61.1590794602
 10
27.208266716
 20
-61.1435519419
 10
27.2224187794
 20
-61.1257795494
 10
27.2348881425
 20
-61.1058612516
 10
27.2456043358
 20
-61.0839087708
 10
27.2545072077
 20
-61.0600449396
 10
27.2615482479
 20
-61.034402466
 10
27.2666879808
 20
-61.00712474
 10
27.2698961878
 20
-60.9783650299
 10
27.2711539949
 20
-60.948284598
  0
LINE
  5
582
100
AcDbEntity
  8
RACCORDO
100
AcDbLine
 62
7
  6
CONTINUOUS
 10
28.6146250737
 20
-60.3987257532
 11
28.6059023711
 21
-60.4037621321
  0
LINE
  5
583
100
AcDbEntity
  8
RACCORDO
100
AcDbLine
 62
253
  6
CONTINUOUS
 10
28.7138195837
 20
-60.1724657308
 11
27.2711539949
 21
-60.948284598
  0
LINE
  5
584
100
AcDbEntity
  8
RACCORDO
100
AcDbLine
 62
7
  6
CONTINUOUS
 10
28.6059011533
 20
-60.4037628852
 11
27.1616768641
 21
-61.180419971
  0
LINE
  5
585
100
AcDbEntity
  8
ASSI
100
AcDbLine
 62
7
  6
CONTINUOUS
 10
25.4486250375
 20
-60.3542317776
 11
24.3328885842
 21
-60.9114990079
  0
LWPOLYLINE
  5
586
100
AcDbEntity
  8
ASSI
100
AcDbPolyline
 62
253
  6
CONTINUOUS
 90
19
 70
0
 10
25.6732604246
 20
-59.8871481659
 10
24.5303862593
 20
-60.4577960372
 10
24.4957356144
 20
-60.4721547469
 10
24.4590916685
 20
-60.4847561385
 10
24.4207210587
 20
-60.4955085238
 10
24.380902991
 20
-60.5043336668
 10
24.3399272103
 20
-60.5111673548
 10
24.2980918755
 20
-60.5159598687
 10
24.2557013969
 20
-60.5186763424
 10
24.2130642314
 20
-60.5192970159
 10
24.1704906228
 20
-60.5178173799
 10
24.1282903483
 20
-60.5142482079
 10
24.0867704727
 20
-60.508615478
 10
24.0462331044
 20
-60.5009601833
 10
24.0069731986
 20
-60.491338033
 10
23.9692764163
 20
-60.4798190478
 10
23.9334170415
 20
-60.4664870497
 10
23.8996559869
 20
-60.4514390516
 10
23.8682388958
 20
-60.434784552
  0
ARC
  5
587
100
AcDbEntity
  8
RACCORDO
100
AcDbCircle
 62
7
  6
CONTINUOUS
 10
29.6846218986
 20
-16.3147082009
 40
0.15
100
AcDbArc
 50
0.0007993011
 51
59.999200789
  0
ELLIPSE
  5
588
100
AcDbEntity
  8
ASSI
100
AcDbEllipse
 62
7
  6
CONTINUOUS
 10
26.5567128881
 20
5.8071831786
 30
0.0
 11
-0.5004554582
 21
0.8658832122
 31
0.0
 40
0.5776229793
 41
-2.356495724
 42
-1.5716021897
  0
ELLIPSE
  5
589
100
AcDbEntity
  8
ASSI
100
AcDbEllipse
 62
7
  6
CONTINUOUS
 10
24.9657226305
 20
32.3742811249
 30
0.0
 11
-0.5000242486
 21
0.8660114034
 31
0.0
 40
0.5780352736
 41
-2.355633942
 42
-0.7860555904
  0
ELLIPSE
  5
58A
100
AcDbEntity
  8
ASSI
100
AcDbEllipse
 62
7
  6
CONTINUOUS
 10
24.9657226305
 20
-59.4776296646
 30
0.0
 11
-0.5006334602
 21
0.8670669287
 31
0.0
 40
0.5766289216
 41
-3.176455094
 42
-2.3568516818
  0
ELLIPSE
  5
58B
100
AcDbEntity
  8
RACCORDO
100
AcDbEllipse
 62
7
  6
CONTINUOUS
 10
26.9104817852
 20
-31.0388773345
 30
0.0
 11
-0.2503536461
 21
0.4331604333
 31
0.0
 40
0.577040156
 41
-3.1418928982
 42
-2.3569993639
  0
ELLIPSE
  5
58C
100
AcDbEntity
  8
ASSI
100
AcDbEllipse
 62
7
  6
CONTINUOUS
 10
26.3807982187
 20
8.422610638
 30
0.0
 11
-0.5004554582
 21
0.8658832122
 31
0.0
 40
0.5776229793
 41
0.7850969296
 42
1.5699904639
  0
ELLIPSE
  5
58D
100
AcDbEntity
  8
RACCORDO
100
AcDbEllipse
 62
7
  6
CONTINUOUS
 10
26.3807982187
 20
-33.0777016128
 30
0.0
 11
-0.5007072922
 21
0.8663208665
 31
0.0
 40
0.577040156
 41
-0.0003002446
 42
0.7845932897
  0
ELLIPSE
  5
58E
100
AcDbEntity
  8
ASSI
100
AcDbEllipse
 62
7
  6
CONTINUOUS
 10
-25.9451035892
 20
61.7695541216
 30
0.0
 11
-0.5006334602
 21
0.8670669287
 31
0.0
 40
0.5766289216
 41
-0.7848373798
 42
0.0348624404
  0
ENDSEC
  0
SECTION
  2
OBJECTS
  0
DICTIONARY
  5
C
100
AcDbDictionary
280
0
281
1
  3
ACAD_GROUP
350
D
  3
ACAD_MLINESTYLE
350
17
  3
ACAD_LAYOUT
350
1A
  3
ACAD_PLOTSETTINGS
350
19
  3
ACAD_PLOTSTYLENAME
350
E
  0
DICTIONARY
  5
D
102
{ACAD_REACTORS
330
C
102
}
100
AcDbDictionary
280
0
281
1
  0
ACDBDICTIONARYWDFLT
  5
E
102
{ACAD_REACTORS
330
C
102
}
100
AcDbDictionary
281
1
  3
Normal
350
F
100
AcDbDictionaryWithDefault
340
F
  0
DICTIONARY
  5
17
102
{ACAD_REACTORS
330
C
102
}
100
AcDbDictionary
280
0
281
1
  3
Standard
350
18
  0
DICTIONARY
  5
19
102
{ACAD_REACTORS
330
C
102
}
100
AcDbDictionary
281
1
  0
DICTIONARY
  5
1A
102
{ACAD_REACTORS
330
C
102
}
100
AcDbDictionary
281
1
  3
Model
350
58F
  3
Layout1
350
590
  0
ACDBPLACEHOLDER
  5
F
102
{ACAD_REACTORS
330
E
102
}
  0
MLINESTYLE
  5
18
102
{ACAD_REACTORS
330
17
102
}
100
AcDbMlineStyle
  2
STANDARD
 70
0
  3

 62
256
 51
90.0
 52
90.0
 71
2
 49
0.5
 62
256
  6
BYLAYER
 49
-0.5
 62
256
  6
BYLAYER
  0
LAYOUT
  5
58F
102
{ACAD_REACTORS
330
1A
102
}
100
AcDbPlotSettings
  1

  2
none_device
  4
ISO_A4_(297.00_x_210.00_MM)
  6

 40
0.0
 41
0.0
 42
0.0
 43
0.0
 44
297.0
 45
210.0
 46
0.0
 47
0.0
 48
0.0
 49
0.0
140
0.0
141
0.0
142
1.0
143
1.0
 70
1024
 72
1
 73
0
 74
0
  7

 75
0
147
1.0
148
0.0
149
0.0
100
AcDbLayout
  1
Model
 70
0
 71
0
 10
0.0
 20
0.0
 11
297.0
 21
210.0
 12
0.0
 22
0.0
 32
0.0
 14
0.0
 24
0.0
 34
0.0
 15
0.0
 25
0.0
 35
0.0
146
0.0
 13
0.0
 23
0.0
 33
0.0
 16
1.0
 26
0.0
 36
0.0
 17
0.0
 27
1.0
 37
0.0
 76
0
330
211
345
0
346
0
  0
LAYOUT
  5
590
102
{ACAD_REACTORS
330
1A
102
}
100
AcDbPlotSettings
  1

  2
none_device
  4
ISO_A4_(297.00_x_210.00_MM)
  6

 40
0.0
 41
0.0
 42
0.0
 43
0.0
 44
297.0
 45
210.0
 46
0.0
 47
0.0
 48
0.0
 49
0.0
140
0.0
141
0.0
142
1.0
143
1.0
 70
0
 72
1
 73
0
 74
0
  7

 75
0
147
1.0
148
0.0
149
0.0
100
AcDbLayout
  1
Layout1
 70
0
 71
1
 10
0.0
 20
0.0
 11
297.0
 21
210.0
 12
0.0
 22
0.0
 32
0.0
 14
0.0
 24
0.0
 34
0.0
 15
0.0
 25
0.0
 35
0.0
146
0.0
 13
0.0
 23
0.0
 33
0.0
 16
1.0
 26
0.0
 36
0.0
 17
0.0
 27
1.0
 37
0.0
 76
0
330
212
345
0
346
0
  0
ENDSEC
  0
EOF
