  0
SECTION
  2
HEADER
  9
$ACADVER
  1
AC1024
  9
$DWGCODEPAGE
  3
ANSI_1252
  9
$EXTMAX
 10
210.0
 20
297.0
 30
0.0
  9
$EXTMIN
 10
0.0
 20
0.0
 30
0.0
  9
$LIMMIN
 10
0.0
 20
0.0
  9
$LIMMAX
 10
210.0
 20
297.0
  9
$VIEWCTR
 10
105.0
 20
148.5
  9
$VIEWSIZE
 40
297.0
  9
$CLAYER
  8
0
  9
$LTSCALE
 40
19.36
  9
$CELTYPE
  6
BYLAYER
  9
$DIMSCALE
 40
1.0
  9
$DIMASZ
 40
3.0
  9
$DIMEXO
 40
0.5
  9
$DIMDLI
 40
13.376
  9
$DIMEXE
 40
1.5
  9
$DIMCEN
 40
3.168
  9
$DIMLFAC
 40
1.0
  9
$DIMBLK
  1
_FILLED
  9
$DIMALT
 70
0
  9
$DIMALTF
 40
0.0393700787
  9
$DIMTXT
 40
3.0
  9
$DIMTOL
 70
1
  9
$DIMLIM
 70
0
  9
$DIMTFAC
 40
1.0
  9
$DIMTP
 40
0.01
  9
$DIMTM
 40
0.01
  9
$DIMGAP
 40
0.625
  9
$DIMDSEP
 70
44
  9
$AUNITS
 70
0
  9
$PDMODE
 70
3
  9
$PDSIZE
 40
3.0
  9
$HANDSEED
  5
24C
  9
$TILEMODE
 70
1
  9
$MEASUREMENT
 70
1
  9
$INSUNITS
 70
4
  0
ENDSEC
  0
SECTION
  2
CLASSES
  0
CLASS
  1
ACDBDICTIONARYWDFLT
  2
AcDbDictionaryWithDefault
  3
AutoCAD 2000
 90
0
 91
1
280
0
281
0
  0
CLASS
  1
ACDBPLACEHOLDER
  2
AcDbPlaceHolder
  3
AutoCAD 2000
 90
0
 91
1
280
0
281
0
  0
CLASS
  1
LAYOUT
  2
AcDbLayout
  3
AutoCAD 2000
 90
0
 91
0
280
0
281
0
  0
ENDSEC
  0
SECTION
  2
TABLES
  0
TABLE
  2
VPORT
  5
8
100
AcDbSymbolTable
 70
2
  0
VPORT
  5
1F4
100
AcDbSymbolTableRecord
100
AcDbViewportTableRecord
  2
*ACTIVE
 70
0
 10
0.0
 20
0.0
 11
1.0
 21
1.0
 12
105.0
 22
148.5
 13
0.0
 23
0.0
 14
1.0
 24
1.0
 15
0.0
 25
0.0
 16
0.0
 26
0.0
 36
1.0
 17
0.0
 27
0.0
 37
0.0
 40
297.0
 41
0.7070707071
 42
50.0
 43
0.0
 44
0.0
 50
0.0
 51
0.0
 71
0
 72
100
 73
1
 74
1
 75
0
 76
0
 77
0
 78
0
  0
ENDTAB
  0
TABLE
  2
LTYPE
  5
5
100
AcDbSymbolTable
 70
6
  0
LTYPE
  5
14
100
AcDbSymbolTableRecord
100
AcDbLinetypeTableRecord
  2
BYBLOCK
 70
0
  3

 72
65
 73
0
 40
0.0
  0
LTYPE
  5
15
100
AcDbSymbolTableRecord
100
AcDbLinetypeTableRecord
  2
BYLAYER
 70
0
  3

 72
65
 73
0
 40
0.0
  0
LTYPE
  5
16
100
AcDbSymbolTableRecord
100
AcDbLinetypeTableRecord
  2
CONTINUOUS
 70
64
  3
Solid line
 72
65
 73
0
 40
0.0
  0
LTYPE
  5
1F5
100
AcDbSymbolTableRecord
100
AcDbLinetypeTableRecord
  2
CENTER
 70
64
  3
____ _ ____ _ ____ _ ____ _ ____ _ ____ _ ____
 72
65
 73
4
 40
0.6
 49
0.375
 74
0
 49
-0.075
 74
0
 49
0.075
 74
0
 49
-0.075
 74
0
  0
LTYPE
  5
1F6
100
AcDbSymbolTableRecord
100
AcDbLinetypeTableRecord
  2
HIDDEN
 70
64
  3
- - - - - - - - - - - - - - - - - - - -
 72
65
 73
2
 40
0.2
 49
0.1
 74
0
 49
-0.1
 74
0
  0
LTYPE
  5
1F7
100
AcDbSymbolTableRecord
100
AcDbLinetypeTableRecord
  2
PHANTOM
 70
64
  3
_____ _ _ _____ _ _ _____ _ _ _____
 72
65
 73
6
 40
0.8
 49
0.45
 74
0
 49
-0.05
 74
0
 49
0.1
 74
0
 49
-0.05
 74
0
 49
0.1
 74
0
 49
-0.05
 74
0
  0
LTYPE
  5
1F8
100
AcDbSymbolTableRecord
100
AcDbLinetypeTableRecord
  2
DOT
 70
64
  3
. . . . . . . . . . . . . . . . . . . .
 72
65
 73
2
 40
0.2
 49
0.1
 74
0
 49
-0.1
 74
0
  0
LTYPE
  5
1F9
100
AcDbSymbolTableRecord
100
AcDbLinetypeTableRecord
  2
DASHED
 70
64
  3
- - - - - - - - - - - - - - - - - - - -
 72
65
 73
2
 40
0.2
 49
0.1
 74
0
 49
-0.1
 74
0
  0
ENDTAB
  0
TABLE
  2
LAYER
  5
2
100
AcDbSymbolTable
 70
36
  0
LAYER
  5
10
100
AcDbSymbolTableRecord
100
AcDbLayerTableRecord
  2
0
 70
0
 62
7
  6
CONTINUOUS
370
-3
390
F
  0
LAYER
  5
1FA
100
AcDbSymbolTableRecord
100
AcDbLayerTableRecord
  2
DEFAULT_1
 70
0
 62
7
  6
CENTER
370
-3
390
F
  0
LAYER
  5
1FB
100
AcDbSymbolTableRecord
100
AcDbLayerTableRecord
  2
DEFAULT_2
 70
0
 62
7
  6
HIDDEN
370
-3
390
F
  0
LAYER
  5
1FC
100
AcDbSymbolTableRecord
100
AcDbLayerTableRecord
  2
DEFAULT_3
 70
0
 62
7
  6
PHANTOM
370
-3
390
F
  0
LAYER
  5
1FD
100
AcDbSymbolTableRecord
100
AcDbLayerTableRecord
  2
ASSI
 70
0
 62
7
  6
CONTINUOUS
370
-3
390
F
  0
LAYER
  5
1FE
100
AcDbSymbolTableRecord
100
AcDbLayerTableRecord
  2
COORDINATE
 70
0
 62
7
  6
CONTINUOUS
370
-3
390
F
  0
LAYER
  5
1FF
100
AcDbSymbolTableRecord
100
AcDbLayerTableRecord
  2
COPY_PUBLISH
 70
0
 62
7
  6
CONTINUOUS
370
-3
390
F
  0
LAYER
  5
200
100
AcDbSymbolTableRecord
100
AcDbLayerTableRecord
  2
COSMETICI
 70
0
 62
7
  6
CONTINUOUS
370
-3
390
F
  0
LAYER
  5
201
100
AcDbSymbolTableRecord
100
AcDbLayerTableRecord
  2
CURVE
 70
0
 62
7
  6
CONTINUOUS
370
-3
390
F
  0
LAYER
  5
202
100
AcDbSymbolTableRecord
100
AcDbLayerTableRecord
  2
DRAFT
 70
0
 62
7
  6
CONTINUOUS
370
-3
390
F
  0
LAYER
  5
203
100
AcDbSymbolTableRecord
100
AcDbLayerTableRecord
  2
IMPORT_IGES
 70
0
 62
7
  6
CONTINUOUS
370
-3
390
F
  0
LAYER
  5
204
100
AcDbSymbolTableRecord
100
AcDbLayerTableRecord
  2
NOTE
 70
0
 62
7
  6
CONTINUOUS
370
-3
390
F
  0
LAYER
  5
205
100
AcDbSymbolTableRecord
100
AcDbLayerTableRecord
  2
PIANI
 70
0
 62
7
  6
CONTINUOUS
370
-3
390
F
  0
LAYER
  5
206
100
AcDbSymbolTableRecord
100
AcDbLayerTableRecord
  2
PUNTI
 70
0
 62
7
  6
CONTINUOUS
370
-3
390
F
  0
LAYER
  5
207
100
AcDbSymbolTableRecord
100
AcDbLayerTableRecord
  2
RACCORDO
 70
0
 62
7
  6
CONTINUOUS
370
-3
390
F
  0
LAYER
  5
208
100
AcDbSymbolTableRecord
100
AcDbLayerTableRecord
  2
SIMBOLI
 70
0
 62
7
  6
CONTINUOUS
370
-3
390
F
  0
LAYER
  5
209
100
AcDbSymbolTableRecord
100
AcDbLayerTableRecord
  2
SMUSSO
 70
0
 62
7
  6
CONTINUOUS
370
-3
390
F
  0
LAYER
  5
20A
100
AcDbSymbolTableRecord
100
AcDbLayerTableRecord
  2
SNAPLINE
 70
0
 62
7
  6
CONTINUOUS
370
-3
390
F
  0
LAYER
  5
20B
100
AcDbSymbolTableRecord
100
AcDbLayerTableRecord
  2
SUPERFICI
 70
0
 62
7
  6
CONTINUOUS
370
-3
390
F
  0
LAYER
  5
20C
100
AcDbSymbolTableRecord
100
AcDbLayerTableRecord
  2
TRASH
 70
0
 62
7
  6
CONTINUOUS
370
-3
390
F
  0
ENDTAB
  0
TABLE
  2
STYLE
  5
3
100
AcDbSymbolTable
 70
1
  0
STYLE
  5
11
100
AcDbSymbolTableRecord
100
AcDbTextStyleTableRecord
  2
STANDARD
 70
0
 40
0.0
 41
0.8
 50
0.0
 71
0
 42
0.2
  3
txt
  4

  0
STYLE
  5
20D
100
AcDbSymbolTableRecord
100
AcDbTextStyleTableRecord
  2
TEXTSTYLE_1
 70
0
 40
0.0
 41
0.8
 50
0.0
 71
0
 42
0.2
  3
gdt
  4

  0
ENDTAB
  0
TABLE
  2
VIEW
  5
6
100
AcDbSymbolTable
 70
0
  0
ENDTAB
  0
TABLE
  2
UCS
  5
7
100
AcDbSymbolTable
 70
0
  0
ENDTAB
  0
TABLE
  2
APPID
  5
9
100
AcDbSymbolTable
 70
1
  0
APPID
  5
20E
100
AcDbSymbolTableRecord
100
AcDbRegAppTableRecord
  2
ACAD
 70
0
  0
ENDTAB
  0
TABLE
  2
BLOCK_RECORD
  5
1
100
AcDbSymbolTable
 70
0
  0
BLOCK_RECORD
  5
20F
100
AcDbSymbolTableRecord
100
AcDbBlockTableRecord
  2
*Model_Space
  0
BLOCK_RECORD
  5
210
100
AcDbSymbolTableRecord
100
AcDbBlockTableRecord
  2
*Paper_Space
  0
BLOCK_RECORD
  5
211
100
AcDbSymbolTableRecord
100
AcDbBlockTableRecord
  2
_FILLED
  0
ENDTAB
  0
TABLE
  2
DIMSTYLE
  5
A
100
AcDbSymbolTable
 70
1
100
AcDbDimStyleTable
 71
0
  0
DIMSTYLE
105
212
100
AcDbSymbolTableRecord
100
AcDbDimStyleTableRecord
  2
STANDARD
 70
0
  3

  4

 40
1.0
 41
3.0
 42
0.5
 43
0.38
 44
1.5
 45
0.0
 46
0.0
 47
0.01
 48
0.01
140
3.0
141
0.09
142
0.0
143
25.4
144
1.0
145
0.0
146
1.0
147
0.625
 71
1.0
 72
0.0
 73
0
 74
0
 75
0
 76
0
 77
1
 78
8
 79
2
170
0
171
1
172
0
173
0
174
0
175
0
176
0
177
0
178
0
270
2
179
2
271
2
272
2
273
2
274
2
275
0
280
0
281
0
282
0
283
1
284
8
285
0
286
0
287
3
288
0
340
11
278
44
341
211
342
211
343
211
344
211
  0
ENDTAB
  0
ENDSEC
  0
SECTION
  2
BLOCKS
  0
BLOCK
  5
20
100
AcDbEntity
  8
0
100
AcDbBlockBegin
  2
*Model_Space
 70
0
 10
0.0
 20
0.0
 30
0.0
  3
*Model_Space
  1

  0
ENDBLK
  5
21
100
AcDbEntity
  8
0
100
AcDbBlockEnd
  0
BLOCK
  5
1C
100
AcDbEntity
  8
0
100
AcDbBlockBegin
  2
*Paper_Space
 70
0
 10
0.0
 20
0.0
 30
0.0
  3
*Paper_Space
  1

  0
ENDBLK
  5
1D
100
AcDbEntity
  8
0
100
AcDbBlockEnd
  0
BLOCK
  5
213
100
AcDbEntity
  8
0
100
AcDbBlockBegin
  2
_FILLED
 70
64
 10
0.0
 20
0.0
  3
_FILLED
  1

  0
SOLID
  5
214
100
AcDbEntity
  8
0
  6
BYBLOCK
 62
0
100
AcDbTrace
 10
0.0
 20
0.0
 11
-1.0
 21
0.3166666667
 12
-1.0
 22
-0.3166666667
 13
-1.0
 23
-0.3166666667
  0
ENDBLK
  5
215
100
AcDbEntity
  8
0
  6
BYBLOCK
 62
0
100
AcDbBlockEnd
  0
ENDSEC
  0
SECTION
  2
ENTITIES
  0
LWPOLYLINE
  5
216
100
AcDbEntity
  8
RACCORDO
100
AcDbPolyline
 62
7
  6
CONTINUOUS
 90
13
 70
0
 10
-41.4415067908
 20
92.7621044579
 10
-41.4077475811
 20
92.7790960879
 10
-41.3718775626
 20
92.7923758949
 10
-41.3343301099
 20
92.8017884389
 10
-41.2950837353
 20
92.8072841809
 10
-41.2541599264
 20
92.8089126598
 10
-41.2120806808
 20
92.8066531038
 10
-41.1688311974
 20
92.8004557079
 10
-41.1244262771
 20
92.7903702771
 10
-41.0794323203
 20
92.7765254547
 10
-41.034038127
 20
92.7589641216
 10
-40.9880548972
 20
92.7376433967
 10
-40.9414826307
 20
92.7125632802
  0
LWPOLYLINE
  5
217
100
AcDbEntity
  8
RACCORDO
100
AcDbPolyline
 62
7
  6
CONTINUOUS
 90
13
 70
0
 10
-42.8557203532
 20
91.9455552712
 10
-42.8872689253
 20
91.9248462945
 10
-42.9167066887
 20
91.9004254949
 10
-42.9436339943
 20
91.8726183165
 10
-42.9680186836
 20
91.8413813806
 10
-42.9898929152
 20
91.806758066
 10
-43.0089776755
 20
91.7691900051
 10
-43.025237232
 20
91.7286394764
 10
-43.0387073173
 20
91.6851442014
 10
-43.0492161157
 20
91.6392589775
 10
-43.0567063554
 20
91.5911687372
 10
-43.0612353083
 20
91.5406885481
 10
-43.0628029743
 20
91.4878184101
  0
LINE
  5
218
100
AcDbEntity
  8
RACCORDO
100
AcDbLine
 62
7
  6
CONTINUOUS
 10
-42.8557203532
 20
91.9455552712
 11
-41.4415067908
 21
92.7621044579
  0
LINE
  5
219
100
AcDbEntity
  8
RACCORDO
100
AcDbLine
 62
250
  6
CONTINUOUS
 10
-42.3556961931
 20
91.8960140936
 11
-40.9414826307
 21
92.7125632802
  0
LINE
  5
21A
100
AcDbEntity
  8
RACCORDO
100
AcDbLine
 62
250
  6
CONTINUOUS
 10
-32.5269119346
 20
67.7689268105
 11
-33.941125497
 21
66.9523776239
  0
LWPOLYLINE
  5
21B
100
AcDbEntity
  8
RACCORDO
100
AcDbPolyline
 62
7
  6
CONTINUOUS
 90
16
 70
0
 10
-33.5269602548
 20
67.8678513461
 10
-33.4732452585
 20
67.8956747197
 10
-33.4168426582
 20
67.9187314366
 10
-33.3581658101
 20
67.9368606655
 10
-33.2971960479
 20
67.950021963
 10
-33.233952038
 20
67.9582557725
 10
-33.1689514565
 20
67.9614946974
 10
-33.102179886
 20
67.9596977406
 10
-33.0336517439
 20
67.9529058992
 10
-32.963927959
 20
67.9411747668
 10
-32.8929987179
 20
67.924463803
 10
-32.8208738339
 20
67.9028135482
 10
-32.7481436767
 20
67.8764012181
 10
-32.6750050359
 20
67.8452858844
 10
-32.6012611219
 20
67.8094084753
 10
-32.5269119346
 20
67.7687689908
  0
LWPOLYLINE
  5
21C
100
AcDbEntity
  8
RACCORDO
100
AcDbPolyline
 62
7
  6
CONTINUOUS
 90
13
 70
0
 10
40.9414826307
 20
-92.7125632802
 10
40.9880548972
 20
-92.7376433967
 10
41.034038127
 20
-92.7589641216
 10
41.0794323203
 20
-92.7765254547
 10
41.1244262771
 20
-92.7903702771
 10
41.1688311974
 20
-92.8004557079
 10
41.2120806808
 20
-92.8066531038
 10
41.2541599264
 20
-92.8089126598
 10
41.2950837353
 20
-92.8072841809
 10
41.3343301099
 20
-92.8017884389
 10
41.3718775626
 20
-92.7923758949
 10
41.4077475811
 20
-92.7790960879
 10
41.4415067908
 20
-92.7621044579
  0
LINE
  5
21D
100
AcDbEntity
  8
RACCORDO
100
AcDbLine
 62
7
  6
CONTINUOUS
 10
-42.3556961931
 20
-44.6178161862
 11
40.9414826307
 21
-92.7125632802
  0
LWPOLYLINE
  5
21E
100
AcDbEntity
  8
ASSI
100
AcDbPolyline
 62
7
  6
CONTINUOUS
 90
46
 70
0
 10
-1.7821587255
 20
55.5448058713
 10
-1.7244151044
 20
55.5747159979
 10
-1.6637823091
 20
55.5995019685
 10
-1.6007046974
 20
55.6189908897
 10
-1.535162203
 20
55.6331392844
 10
-1.4671748923
 20
55.6419906297
 10
-1.3972992673
 20
55.6454724739
 10
-1.3255198289
 20
55.6435407454
 10
-1.2518520762
 20
55.6362395158
 10
-1.1768990075
 20
55.6236285485
 10
-1.1006500732
 20
55.6056642624
 10
-1.023115823
 20
55.5823902385
 10
-0.9449309039
 20
55.5539969836
 10
-0.8660899755
 20
55.5204424802
 10
-0.7865983784
 20
55.4817687457
 10
-0.7071067812
 20
55.4382923393
 10
-0.627615184
 20
55.3899738418
 10
-0.5481235868
 20
55.3368526724
 10
-0.4692826584
 20
55.2793636479
 10
-0.3910977394
 20
55.2174709181
 10
-0.3135634892
 20
55.1512103333
 10
-0.2373145549
 20
55.0811242614
 10
-0.1623614862
 20
55.0071813037
 10
-0.0886937335
 20
54.9294128589
 10
-0.0169142951
 20
54.8484554913
 10
0.05296133
 20
54.7642830267
 10
0.1209486406
 20
54.6769216392
 10
0.186491135
 20
54.5870864148
 10
0.2495687467
 20
54.4947570488
 10
0.3102015421
 20
54.399953846
 10
0.3678932188
 20
54.3034528062
 10
0.4226196369
 20
54.2052399942
 10
0.4744049363
 20
54.1053293454
 10
0.5228252349
 20
54.0045386662
 10
0.5678529133
 20
53.9028607336
 10
0.6095155909
 20
53.8003027706
 10
0.6474722428
 20
53.6977042529
 10
0.6816924508
 20
53.5950648478
 10
0.7122066331
 20
53.4923848881
 10
0.7387650195
 20
53.390504848
 10
0.7613351419
 20
53.2894312932
 10
0.7799494685
 20
53.1891576581
 10
0.794455634
 20
53.0905047203
 10
0.8048028499
 20
52.9937460724
 10
0.8110419047
 20
52.8986081218
 10
0.8131727984
 20
52.8050908685
  0
LINE
  5
21F
100
AcDbEntity
  8
ASSI
100
AcDbLine
 62
7
  6
CONTINUOUS
 10
0.8093009858
 20
-55.4928138705
 11
0.7865983784
 21
-55.4817687457
  0
LWPOLYLINE
  5
220
100
AcDbEntity
  8
ASSI
100
AcDbPolyline
 62
7
  6
CONTINUOUS
 90
32
 70
0
 10
0.7865983784
 20
-55.4817687457
 10
0.7071067812
 20
-55.4382923393
 10
0.627615184
 20
-55.3899738418
 10
0.5481235868
 20
-55.3368526724
 10
0.4692826584
 20
-55.2793636479
 10
0.3910977394
 20
-55.2174709181
 10
0.3135634892
 20
-55.1512103333
 10
0.2373145549
 20
-55.0811242614
 10
0.1623614862
 20
-55.0071813037
 10
0.0886937335
 20
-54.9294128589
 10
0.0169142951
 20
-54.8484554913
 10
-0.05296133
 20
-54.7642830267
 10
-0.1209486406
 20
-54.6769216392
 10
-0.186491135
 20
-54.5870864148
 10
-0.2495687467
 20
-54.4947570488
 10
-0.3102015421
 20
-54.399953846
 10
-0.3678932188
 20
-54.3034528062
 10
-0.4226196369
 20
-54.2052399942
 10
-0.4744049363
 20
-54.1053293454
 10
-0.5228252349
 20
-54.0045386662
 10
-0.5678529133
 20
-53.9028607336
 10
-0.6095155909
 20
-53.8003027706
 10
-0.6474722428
 20
-53.6977042529
 10
-0.6816924508
 20
-53.5950648478
 10
-0.7122066331
 20
-53.4923848881
 10
-0.7387650195
 20
-53.390504848
 10
-0.7613351419
 20
-53.2894312932
 10
-0.7799494685
 20
-53.1891576581
 10
-0.794455634
 20
-53.0905047203
 10
-0.8048028499
 20
-52.9937460724
 10
-0.8110419047
 20
-52.8986081218
 10
-0.8131727984
 20
-52.8050908685
  0
LWPOLYLINE
  5
221
100
AcDbEntity
  8
RACCORDO
100
AcDbPolyline
 62
7
  6
CONTINUOUS
 90
25
 70
0
 10
-43.0628029743
 20
-43.3930713161
 10
-43.0612353083
 20
-43.4477517555
 10
-43.0567063554
 20
-43.5034618658
 10
-43.0492161157
 20
-43.5602016471
 10
-43.0387073173
 20
-43.618222168
 10
-43.025237232
 20
-43.6772723599
 10
-43.0089776755
 20
-43.7365990169
 10
-42.9898929152
 20
-43.7962056807
 10
-42.9680186836
 20
-43.8560888096
 10
-42.9436339943
 20
-43.9154845735
 10
-42.9167066887
 20
-43.9743867294
 10
-42.8872689253
 20
-44.0328015203
 10
-42.8556961931
 20
-44.0899838452
 10
-42.8219611435
 20
-44.1459179165
 10
-42.786091125
 20
-44.2006195217
 10
-42.7485436723
 20
-44.253390923
 10
-42.7092972977
 20
-44.3042073946
 10
-42.6683734888
 20
-44.3530936622
 10
-42.6262942431
 20
-44.3994261643
 10
-42.5830447597
 20
-44.4431721878
 10
-42.5386398395
 20
-44.4843644459
 10
-42.4936458827
 20
-44.5224775169
 10
-42.4482516894
 20
-44.5573362604
 10
-42.4022684595
 20
-44.5891158168
 10
-42.3556961931
 20
-44.6178161862
  0
LINE
  5
222
100
AcDbEntity
  8
RACCORDO
100
AcDbLine
 62
7
  6
CONTINUOUS
 10
-43.0628029743
 20
91.4878184101
 11
-43.0628029743
 21
-43.3930713161
  0
LWPOLYLINE
  5
223
100
AcDbEntity
  8
ASSI
100
AcDbPolyline
 62
7
  6
CONTINUOUS
 90
46
 70
0
 10
0.3679451631
 20
51.8209566171
 10
0.3102015421
 20
51.7910464905
 10
0.2495687467
 20
51.7662605199
 10
0.186491135
 20
51.7467715987
 10
0.1209486406
 20
51.732623204
 10
0.05296133
 20
51.7237718587
 10
-0.0169142951
 20
51.7202900145
 10
-0.0886937335
 20
51.722221743
 10
-0.1623614862
 20
51.7295229726
 10
-0.2373145549
 20
51.7421339398
 10
-0.3135634892
 20
51.760098226
 10
-0.3910977394
 20
51.7833722499
 10
-0.4692826584
 20
51.8117655048
 10
-0.5481235868
 20
51.8453200082
 10
-0.627615184
 20
51.8839937427
 10
-0.7071067812
 20
51.9274701491
 10
-0.7865983784
 20
51.9757886466
 10
-0.8660899755
 20
52.028909816
 10
-0.9449309039
 20
52.0863988404
 10
-1.023115823
 20
52.1482915703
 10
-1.1006500732
 20
52.2145521551
 10
-1.1768990075
 20
52.284638227
 10
-1.2518520762
 20
52.3585811847
 10
-1.3255198289
 20
52.4363496295
 10
-1.3972992673
 20
52.5173069971
 10
-1.4671748923
 20
52.6014794617
 10
-1.535162203
 20
52.6888408492
 10
-1.6007046974
 20
52.7786760736
 10
-1.6637823091
 20
52.8710054395
 10
-1.7244151044
 20
52.9658086424
 10
-1.7821067812
 20
53.0623096822
 10
-1.8368331993
 20
53.1605224942
 10
-1.8886184987
 20
53.260433143
 10
-1.9370387972
 20
53.3612238222
 10
-1.9820664757
 20
53.4629017548
 10
-2.0237291533
 20
53.5654597178
 10
-2.0616858052
 20
53.6680582355
 10
-2.0959060131
 20
53.7706976406
 10
-2.1264201954
 20
53.8733776003
 10
-2.1529785819
 20
53.9752576404
 10
-2.1755487043
 20
54.0763311952
 10
-2.1941630309
 20
54.1766048303
 10
-2.2086691964
 20
54.2752577681
 10
-2.2190164123
 20
54.372016416
 10
-2.2252554671
 20
54.4671543666
 10
-2.2273863607
 20
54.5606716199
  0
LINE
  5
224
100
AcDbEntity
  8
RACCORDO
100
AcDbLine
 62
7
  6
CONTINUOUS
 10
31.1126983722
 20
-68.5853181774
 11
-32.5269119346
 21
-31.8406047779
  0
LINE
  5
225
100
AcDbEntity
  8
RACCORDO
100
AcDbLine
 62
7
  6
CONTINUOUS
 10
32.5269119346
 20
-67.7687689908
 11
-31.1126983722
 21
-31.0240555913
  0
LWPOLYLINE
  5
226
100
AcDbEntity
  8
RACCORDO
100
AcDbPolyline
 62
7
  6
CONTINUOUS
 90
31
 70
0
 10
-32.5269119346
 20
-31.8406047779
 10
-32.6012611219
 20
-31.7953876845
 10
-32.6750050359
 20
-31.7461074701
 10
-32.7481436767
 20
-31.6927641348
 10
-32.8208738339
 20
-31.6351895024
 10
-32.8929987179
 20
-31.5735517491
 10
-32.963927959
 20
-31.5083554031
 10
-33.0336517439
 20
-31.4395712565
 10
-33.102179886
 20
-31.3672285171
 10
-33.1689514565
 20
-31.2919193379
 10
-33.233952038
 20
-31.2136193709
 10
-33.2971960479
 20
-31.1323529639
 10
-33.3581658101
 20
-31.0487853133
 10
-33.4168426582
 20
-30.962897531
 10
-33.4732452585
 20
-30.8747085051
 10
-33.5269119346
 20
-30.784940096
 10
-33.5778202305
 20
-30.6935793407
 10
-33.625992602
 20
-30.6006392022
 10
-33.6710347402
 20
-30.5068804309
 10
-33.7129209527
 20
-30.4122963075
 10
-33.7516769319
 20
-30.3168935512
 10
-33.7869854453
 20
-30.2214530697
 10
-33.8188181969
 20
-30.1259745533
 10
-33.8472034827
 20
-30.0304583117
 10
-33.8719089585
 20
-29.9356861814
 10
-33.8929044212
 20
-29.8416642699
 10
-33.9102200738
 20
-29.7483864698
 10
-33.9237141812
 20
-29.6566162951
 10
-33.9333394984
 20
-29.5666082506
 10
-33.9391432703
 20
-29.4781078314
 10
-33.941125497
 20
-29.3911150377
  0
LINE
  5
227
100
AcDbEntity
  8
RACCORDO
100
AcDbLine
 62
7
  6
CONTINUOUS
 10
-33.941125497
 20
-29.3911150377
 11
-33.941125497
 21
66.9523776239
  0
LWPOLYLINE
  5
228
100
AcDbEntity
  8
RACCORDO
100
AcDbPolyline
 62
7
  6
CONTINUOUS
 90
16
 70
0
 10
-33.941125497
 20
66.9523776239
 10
-33.9391432703
 20
67.0370813919
 10
-33.9333394984
 20
67.1188797607
 10
-33.9237141812
 20
67.1977727303
 10
-33.9102200738
 20
67.273960248
 10
-33.8929044212
 20
67.3472423665
 10
-33.8719089585
 20
67.4170192439
 10
-33.8472034827
 20
67.48326211
 10
-33.8188181969
 20
67.545999735
 10
-33.7869854453
 20
67.6047185878
 10
-33.7516769319
 20
67.6593856831
 10
-33.7129209527
 20
67.7100340061
 10
-33.6710347402
 20
67.7562489812
 10
-33.625992602
 20
67.7979942204
 10
-33.5778202305
 20
67.8353061116
 10
-33.5269602548
 20
67.8678513461
  0
LWPOLYLINE
  5
229
100
AcDbEntity
  8
RACCORDO
100
AcDbPolyline
 62
7
  6
CONTINUOUS
 90
31
 70
0
 10
-32.5269119346
 20
-28.574565851
 10
-32.5249297079
 20
-28.6615586448
 10
-32.519125936
 20
-28.7500590639
 10
-32.5095006189
 20
-28.8400671085
 10
-32.4960065115
 20
-28.9318372831
 10
-32.4786908588
 20
-29.0251150833
 10
-32.4576953961
 20
-29.1191369947
 10
-32.4329899203
 20
-29.213909125
 10
-32.4046046345
 20
-29.3094253666
 10
-32.3727718829
 20
-29.404903883
 10
-32.3374633695
 20
-29.5003443646
 10
-32.2987073904
 20
-29.5957471208
 10
-32.2568211778
 20
-29.6903312442
 10
-32.2117790397
 20
-29.7840900156
 10
-32.1636066681
 20
-29.877030154
 10
-32.1126983722
 20
-29.9683909094
 10
-32.0590316962
 20
-30.0581593184
 10
-32.0026290958
 20
-30.1463483444
 10
-31.9439522478
 20
-30.2322361267
 10
-31.8829824855
 20
-30.3158037773
 10
-31.8197384756
 20
-30.3970701842
 10
-31.7547378941
 20
-30.4753701512
 10
-31.6879663236
 20
-30.5506793305
 10
-31.6194381815
 20
-30.6230220698
 10
-31.5497143967
 20
-30.6918062165
 10
-31.4787851555
 20
-30.7570025624
 10
-31.4066602715
 20
-30.8186403158
 10
-31.3339301143
 20
-30.8762149482
 10
-31.2607914736
 20
-30.9295582835
 10
-31.1870475595
 20
-30.9788384979
 10
-31.1126983722
 20
-31.0240555913
  0
LINE
  5
22A
100
AcDbEntity
  8
RACCORDO
100
AcDbLine
 62
7
  6
CONTINUOUS
 10
-32.5269119346
 20
-28.574565851
 11
-32.5269119346
 21
67.7689268105
  0
LINE
  5
22B
100
AcDbEntity
  8
RACCORDO
100
AcDbLine
 62
250
  6
CONTINUOUS
 10
40.9414826307
 20
43.8012669995
 11
42.3556961931
 21
44.6178161862
  0
LINE
  5
22C
100
AcDbEntity
  8
RACCORDO
100
AcDbLine
 62
250
  6
CONTINUOUS
 10
41.6485894119
 20
42.5765221294
 11
43.0628029743
 21
43.3930713161
  0
LWPOLYLINE
  5
22D
100
AcDbEntity
  8
ASSI
100
AcDbPolyline
 62
7
  6
CONTINUOUS
 90
16
 70
0
 10
-2.2273863607
 20
54.5606716199
 10
-2.2252554671
 20
54.6517281705
 10
-2.2190164123
 20
54.739661417
 10
-2.2086691964
 20
54.8244713593
 10
-2.1941630309
 20
54.9063729408
 10
-2.1755487043
 20
54.9851512182
 10
-2.1529785819
 20
55.0601613614
 10
-2.1264201954
 20
55.1313724425
 10
-2.0959060131
 20
55.1988153894
 10
-2.0616858052
 20
55.2619381561
 10
-2.0237291533
 20
55.3207052835
 10
-1.9820664757
 20
55.3751522308
 10
-1.9370387972
 20
55.424833329
 10
-1.8886184987
 20
55.4697094611
 10
-1.8368331993
 20
55.5098197442
 10
-1.7821587255
 20
55.5448058713
  0
LWPOLYLINE
  5
22E
100
AcDbEntity
  8
ASSI
100
AcDbPolyline
 62
7
  6
CONTINUOUS
 90
3
 70
0
 10
-0.8131727984
 20
55.3772208065
 10
-0.8110419047
 20
55.4682773571
 10
-0.8093009858
 20
55.4928138705
  0
LWPOLYLINE
  5
22F
100
AcDbEntity
  8
ASSI
100
AcDbPolyline
 62
7
  6
CONTINUOUS
 90
16
 70
0
 10
-2.2273863607
 20
-53.6216400552
 10
-2.2252554671
 20
-53.5305835046
 10
-2.2190164123
 20
-53.4426502581
 10
-2.2086691964
 20
-53.3578403157
 10
-2.1941630309
 20
-53.2759387342
 10
-2.1755487043
 20
-53.1971604569
 10
-2.1529785819
 20
-53.1221503136
 10
-2.1264201954
 20
-53.0509392326
 10
-2.0959060131
 20
-52.9834962857
 10
-2.0616858052
 20
-52.920373519
 10
-2.0237291533
 20
-52.8616063915
 10
-1.9820664757
 20
-52.8071594442
 10
-1.9370387972
 20
-52.757478346
 10
-1.8886184987
 20
-52.7126022139
 10
-1.8368331993
 20
-52.6724919308
 10
-1.7821587255
 20
-52.6375058038
  0
LWPOLYLINE
  5
230
100
AcDbEntity
  8
ASSI
100
AcDbPolyline
 62
7
  6
CONTINUOUS
 90
16
 70
0
 10
0.8131727984
 20
52.8050908685
 10
0.8110419047
 20
52.7140343179
 10
0.8048028499
 20
52.6261010714
 10
0.794455634
 20
52.5412911291
 10
0.7799494685
 20
52.4593895476
 10
0.7613351419
 20
52.3806112702
 10
0.7387650195
 20
52.305601127
 10
0.7122066331
 20
52.2343900459
 10
0.6816924508
 20
52.166947099
 10
0.6474722428
 20
52.1038243323
 10
0.6095155909
 20
52.0450572048
 10
0.5678529133
 20
51.9906102576
 10
0.5228252349
 20
51.9409291594
 10
0.4744049363
 20
51.8960530272
 10
0.4226196369
 20
51.8559427442
 10
0.3679451631
 20
51.8209566171
  0
LWPOLYLINE
  5
231
100
AcDbEntity
  8
ASSI
100
AcDbPolyline
 62
7
  6
CONTINUOUS
 90
3
 70
0
 10
-0.8131727984
 20
-52.8050908685
 10
-0.8110419047
 20
-52.7140343179
 10
-0.8093009858
 20
-52.6894978046
  0
LWPOLYLINE
  5
232
100
AcDbEntity
  8
ASSI
100
AcDbPolyline
 62
7
  6
CONTINUOUS
 90
16
 70
0
 10
0.8131727984
 20
-55.3772208065
 10
0.8110419047
 20
-55.4682773571
 10
0.8048028499
 20
-55.5562106036
 10
0.794455634
 20
-55.641020546
 10
0.7799494685
 20
-55.7229221275
 10
0.7613351419
 20
-55.8017004048
 10
0.7387650195
 20
-55.8767105481
 10
0.7122066331
 20
-55.9479216291
 10
0.6816924508
 20
-56.015364576
 10
0.6474722428
 20
-56.0784873427
 10
0.6095155909
 20
-56.1372544702
 10
0.5678529133
 20
-56.1917014175
 10
0.5228252349
 20
-56.2413825157
 10
0.4744049363
 20
-56.2862586478
 10
0.4226196369
 20
-56.3263689309
 10
0.3679451631
 20
-56.3613550579
  0
LINE
  5
233
100
AcDbEntity
  8
RACCORDO
100
AcDbLine
 62
250
  6
CONTINUOUS
 10
-32.5269119346
 20
-28.574565851
 11
-33.941125497
 21
-29.3911150377
  0
LINE
  5
234
100
AcDbEntity
  8
RACCORDO
100
AcDbLine
 62
250
  6
CONTINUOUS
 10
-31.1126983722
 20
-31.0240555913
 11
-32.5269119346
 21
-31.8406047779
  0
LINE
  5
235
100
AcDbEntity
  8
RACCORDO
100
AcDbLine
 62
7
  6
CONTINUOUS
 10
32.5269119346
 20
28.574565851
 11
32.5269119346
 21
-67.7689268105
  0
LWPOLYLINE
  5
236
100
AcDbEntity
  8
RACCORDO
100
AcDbPolyline
 62
7
  6
CONTINUOUS
 90
16
 70
0
 10
32.5269119346
 20
-67.7689268105
 10
32.5249297079
 20
-67.8536305785
 10
32.519125936
 20
-67.9354289474
 10
32.5095006189
 20
-68.014321917
 10
32.4960065115
 20
-68.0905094347
 10
32.4786908588
 20
-68.1637915532
 10
32.4576953961
 20
-68.2335684306
 10
32.4329899203
 20
-68.2998112967
 10
32.4046046345
 20
-68.3625489217
 10
32.3727718829
 20
-68.4212677745
 10
32.3374633695
 20
-68.4759348698
 10
32.2987073904
 20
-68.5265831928
 10
32.2568211778
 20
-68.5727981679
 10
32.2117790397
 20
-68.6145434071
 10
32.1636066681
 20
-68.6518552983
 10
32.1127466925
 20
-68.6844005328
  0
LINE
  5
237
100
AcDbEntity
  8
RACCORDO
100
AcDbLine
 62
7
  6
CONTINUOUS
 10
41.6485894119
 20
-92.3043675967
 11
41.6485894119
 21
42.5765221294
  0
LWPOLYLINE
  5
238
100
AcDbEntity
  8
RACCORDO
100
AcDbPolyline
 62
7
  6
CONTINUOUS
 90
25
 70
0
 10
41.6485894119
 20
42.5765221294
 10
41.6470217459
 20
42.6312025688
 10
41.6424927931
 20
42.6869126792
 10
41.6350025534
 20
42.7436524605
 10
41.6244937549
 20
42.8016729814
 10
41.6110236696
 20
42.8607231732
 10
41.5947641131
 20
42.9200498303
 10
41.5756793528
 20
42.979656494
 10
41.5538051212
 20
43.0395396229
 10
41.5294204319
 20
43.0989353869
 10
41.5024931263
 20
43.1578375428
 10
41.4730553629
 20
43.2162523337
 10
41.4414826307
 20
43.2734346586
 10
41.4077475811
 20
43.3293687298
 10
41.3718775626
 20
43.3840703351
 10
41.3343301099
 20
43.4368417363
 10
41.2950837353
 20
43.4876582079
 10
41.2541599264
 20
43.5365444755
 10
41.2120806808
 20
43.5828769777
 10
41.1688311974
 20
43.6266230011
 10
41.1244262771
 20
43.6678152592
 10
41.0794323203
 20
43.7059283302
 10
41.034038127
 20
43.7407870737
 10
40.9880548972
 20
43.7725666301
 10
40.9414826307
 20
43.8012669995
  0
LINE
  5
239
100
AcDbEntity
  8
RACCORDO
100
AcDbLine
 62
7
  6
CONTINUOUS
 10
43.0628029743
 20
-91.4878184101
 11
43.0628029743
 21
43.3930713161
  0
LWPOLYLINE
  5
23A
100
AcDbEntity
  8
RACCORDO
100
AcDbPolyline
 62
7
  6
CONTINUOUS
 90
13
 70
0
 10
43.0628029743
 20
-91.4878184101
 10
43.0612353083
 20
-91.5406885481
 10
43.0567063554
 20
-91.5911687372
 10
43.0492161157
 20
-91.6392589775
 10
43.0387073173
 20
-91.6851442014
 10
43.025237232
 20
-91.7286394764
 10
43.0089776755
 20
-91.7691900051
 10
42.9898929152
 20
-91.806758066
 10
42.9680186836
 20
-91.8413813806
 10
42.9436339943
 20
-91.8726183165
 10
42.9167066887
 20
-91.9004254949
 10
42.8872689253
 20
-91.9248462945
 10
42.8557203532
 20
-91.9455552712
  0
LWPOLYLINE
  5
23B
100
AcDbEntity
  8
ASSI
100
AcDbPolyline
 62
7
  6
CONTINUOUS
 90
46
 70
0
 10
-1.7821587255
 20
-52.6375058038
 10
-1.7244151044
 20
-52.6075956771
 10
-1.6637823091
 20
-52.5828097065
 10
-1.6007046974
 20
-52.5633207854
 10
-1.535162203
 20
-52.5491723907
 10
-1.4671748923
 20
-52.5403210454
 10
-1.3972992673
 20
-52.5368392012
 10
-1.3255198289
 20
-52.5387709297
 10
-1.2518520762
 20
-52.5460721592
 10
-1.1768990075
 20
-52.5586831265
 10
-1.1006500732
 20
-52.5766474126
 10
-1.023115823
 20
-52.5999214365
 10
-0.9449309039
 20
-52.6283146914
 10
-0.8660899755
 20
-52.6618691949
 10
-0.7865983784
 20
-52.7005429294
 10
-0.7071067812
 20
-52.7440193357
 10
-0.627615184
 20
-52.7923378333
 10
-0.5481235868
 20
-52.8454590027
 10
-0.4692826584
 20
-52.9029480271
 10
-0.3910977394
 20
-52.9648407569
 10
-0.3135634892
 20
-53.0311013418
 10
-0.2373145549
 20
-53.1011874137
 10
-0.1623614862
 20
-53.1751303713
 10
-0.0886937335
 20
-53.2528988161
 10
-0.0169142951
 20
-53.3338561838
 10
0.05296133
 20
-53.4180286483
 10
0.1209486406
 20
-53.5053900358
 10
0.186491135
 20
-53.5952252602
 10
0.2495687467
 20
-53.6875546262
 10
0.3102015421
 20
-53.7823578291
 10
0.3678932188
 20
-53.8788588688
 10
0.4226196369
 20
-53.9770716808
 10
0.4744049363
 20
-54.0769823297
 10
0.5228252349
 20
-54.1777730088
 10
0.5678529133
 20
-54.2794509415
 10
0.6095155909
 20
-54.3820089045
 10
0.6474722428
 20
-54.4846074221
 10
0.6816924508
 20
-54.5872468272
 10
0.7122066331
 20
-54.689926787
 10
0.7387650195
 20
-54.7918068271
 10
0.7613351419
 20
-54.8928803819
 10
0.7799494685
 20
-54.993154017
 10
0.794455634
 20
-55.0918069548
 10
0.8048028499
 20
-55.1885656027
 10
0.8110419047
 20
-55.2837035533
 10
0.8131727984
 20
-55.3772208065
  0
LINE
  5
23C
100
AcDbEntity
  8
ASSI
100
AcDbLine
 62
7
  6
CONTINUOUS
 10
0.8093009858
 20
52.6894978046
 11
0.7865983784
 21
52.7005429294
  0
LWPOLYLINE
  5
23D
100
AcDbEntity
  8
ASSI
100
AcDbPolyline
 62
7
  6
CONTINUOUS
 90
32
 70
0
 10
0.7865983784
 20
52.7005429294
 10
0.7071067812
 20
52.7440193357
 10
0.627615184
 20
52.7923378333
 10
0.5481235868
 20
52.8454590027
 10
0.4692826584
 20
52.9029480271
 10
0.3910977394
 20
52.9648407569
 10
0.3135634892
 20
53.0311013418
 10
0.2373145549
 20
53.1011874137
 10
0.1623614862
 20
53.1751303713
 10
0.0886937335
 20
53.2528988161
 10
0.0169142951
 20
53.3338561838
 10
-0.05296133
 20
53.4180286483
 10
-0.1209486406
 20
53.5053900358
 10
-0.186491135
 20
53.5952252602
 10
-0.2495687467
 20
53.6875546262
 10
-0.3102015421
 20
53.7823578291
 10
-0.3678932188
 20
53.8788588688
 10
-0.4226196369
 20
53.9770716808
 10
-0.4744049363
 20
54.0769823297
 10
-0.5228252349
 20
54.1777730088
 10
-0.5678529133
 20
54.2794509415
 10
-0.6095155909
 20
54.3820089045
 10
-0.6474722428
 20
54.4846074221
 10
-0.6816924508
 20
54.5872468272
 10
-0.7122066331
 20
54.689926787
 10
-0.7387650195
 20
54.7918068271
 10
-0.7613351419
 20
54.8928803819
 10
-0.7799494685
 20
54.993154017
 10
-0.794455634
 20
55.0918069548
 10
-0.8048028499
 20
55.1885656027
 10
-0.8110419047
 20
55.2837035533
 10
-0.8131727984
 20
55.3772208065
  0
LINE
  5
23E
100
AcDbEntity
  8
RACCORDO
100
AcDbLine
 62
7
  6
CONTINUOUS
 10
-32.5269119346
 20
67.7687689908
 11
31.1126983722
 21
31.0240555913
  0
LWPOLYLINE
  5
23F
100
AcDbEntity
  8
RACCORDO
100
AcDbPolyline
 62
7
  6
CONTINUOUS
 90
31
 70
0
 10
31.1126983722
 20
31.0240555913
 10
31.1870475595
 20
30.9788384979
 10
31.2607914736
 20
30.9295582835
 10
31.3339301143
 20
30.8762149482
 10
31.4066602715
 20
30.8186403158
 10
31.4787851555
 20
30.7570025624
 10
31.5497143967
 20
30.6918062165
 10
31.6194381815
 20
30.6230220698
 10
31.6879663236
 20
30.5506793305
 10
31.7547378941
 20
30.4753701512
 10
31.8197384756
 20
30.3970701842
 10
31.8829824855
 20
30.3158037773
 10
31.9439522478
 20
30.2322361267
 10
32.0026290958
 20
30.1463483444
 10
32.0590316962
 20
30.0581593184
 10
32.1126983722
 20
29.9683909094
 10
32.1636066681
 20
29.877030154
 10
32.2117790397
 20
29.7840900156
 10
32.2568211778
 20
29.6903312442
 10
32.2987073904
 20
29.5957471208
 10
32.3374633695
 20
29.5003443646
 10
32.3727718829
 20
29.404903883
 10
32.4046046345
 20
29.3094253666
 10
32.4329899203
 20
29.213909125
 10
32.4576953961
 20
29.1191369947
 10
32.4786908588
 20
29.0251150833
 10
32.4960065115
 20
28.9318372831
 10
32.5095006189
 20
28.8400671085
 10
32.519125936
 20
28.7500590639
 10
32.5249297079
 20
28.6615586448
 10
32.5269119346
 20
28.574565851
  0
LWPOLYLINE
  5
240
100
AcDbEntity
  8
ASSI
100
AcDbPolyline
 62
7
  6
CONTINUOUS
 90
46
 70
0
 10
0.3679451631
 20
-56.3613550579
 10
0.3102015421
 20
-56.3912651846
 10
0.2495687467
 20
-56.4160511552
 10
0.186491135
 20
-56.4355400763
 10
0.1209486406
 20
-56.449688471
 10
0.05296133
 20
-56.4585398163
 10
-0.0169142951
 20
-56.4620216605
 10
-0.0886937335
 20
-56.460089932
 10
-0.1623614862
 20
-56.4527887025
 10
-0.2373145549
 20
-56.4401777352
 10
-0.3135634892
 20
-56.4222134491
 10
-0.3910977394
 20
-56.3989394252
 10
-0.4692826584
 20
-56.3705461703
 10
-0.5481235868
 20
-56.3369916668
 10
-0.627615184
 20
-56.2983179323
 10
-0.7071067812
 20
-56.254841526
 10
-0.7865983784
 20
-56.2065230284
 10
-0.8660899755
 20
-56.153401859
 10
-0.9449309039
 20
-56.0959128346
 10
-1.023115823
 20
-56.0340201048
 10
-1.1006500732
 20
-55.96775952
 10
-1.1768990075
 20
-55.8976734481
 10
-1.2518520762
 20
-55.8237304904
 10
-1.3255198289
 20
-55.7459620456
 10
-1.3972992673
 20
-55.6650046779
 10
-1.4671748923
 20
-55.5808322134
 10
-1.535162203
 20
-55.4934708259
 10
-1.6007046974
 20
-55.4036356015
 10
-1.6637823091
 20
-55.3113062355
 10
-1.7244151044
 20
-55.2165030326
 10
-1.7821067812
 20
-55.1200019929
 10
-1.8368331993
 20
-55.0217891809
 10
-1.8886184987
 20
-54.9218785321
 10
-1.9370387972
 20
-54.8210878529
 10
-1.9820664757
 20
-54.7194099202
 10
-2.0237291533
 20
-54.6168519572
 10
-2.0616858052
 20
-54.5142534396
 10
-2.0959060131
 20
-54.4116140345
 10
-2.1264201954
 20
-54.3089340747
 10
-2.1529785819
 20
-54.2070540346
 10
-2.1755487043
 20
-54.1059804798
 10
-2.1941630309
 20
-54.0057068447
 10
-2.2086691964
 20
-53.9070539069
 10
-2.2190164123
 20
-53.810295259
 10
-2.2252554671
 20
-53.7151573084
 10
-2.2273863607
 20
-53.6216400552
  0
LWPOLYLINE
  5
241
100
AcDbEntity
  8
RACCORDO
100
AcDbPolyline
 62
7
  6
CONTINUOUS
 90
13
 70
0
 10
-42.3556961931
 20
91.8960140936
 10
-42.4022684595
 20
91.9210942101
 10
-42.4482516894
 20
91.9424149349
 10
-42.4936458827
 20
91.959976268
 10
-42.5386398395
 20
91.9738210905
 10
-42.5830447597
 20
91.9839065212
 10
-42.6262942431
 20
91.9901039171
 10
-42.6683734888
 20
91.9923634731
 10
-42.7092972977
 20
91.9907349942
 10
-42.7485436723
 20
91.9852392522
 10
-42.786091125
 20
91.9758267082
 10
-42.8219611435
 20
91.9625469012
 10
-42.8557203532
 20
91.9455552712
  0
LINE
  5
242
100
AcDbEntity
  8
RACCORDO
100
AcDbLine
 62
7
  6
CONTINUOUS
 10
40.9414826307
 20
43.8012669995
 11
-42.3556961931
 21
91.8960140936
  0
LINE
  5
243
100
AcDbEntity
  8
RACCORDO
100
AcDbLine
 62
7
  6
CONTINUOUS
 10
42.3556961931
 20
44.6178161862
 11
-40.9414826307
 21
92.7125632802
  0
LWPOLYLINE
  5
244
100
AcDbEntity
  8
RACCORDO
100
AcDbPolyline
 62
7
  6
CONTINUOUS
 90
25
 70
0
 10
42.3556961931
 20
44.6178161862
 10
42.4022684595
 20
44.5891158168
 10
42.4482516894
 20
44.5573362604
 10
42.4936458827
 20
44.5224775169
 10
42.5386398395
 20
44.4843644459
 10
42.5830447597
 20
44.4431721878
 10
42.6262942431
 20
44.3994261643
 10
42.6683734888
 20
44.3530936622
 10
42.7092972977
 20
44.3042073946
 10
42.7485436723
 20
44.253390923
 10
42.786091125
 20
44.2006195217
 10
42.8219611435
 20
44.1459179165
 10
42.8556961931
 20
44.0899838452
 10
42.8872689253
 20
44.0328015203
 10
42.9167066887
 20
43.9743867294
 10
42.9436339943
 20
43.9154845735
 10
42.9680186836
 20
43.8560888096
 10
42.9898929152
 20
43.7962056807
 10
43.0089776755
 20
43.7365990169
 10
43.025237232
 20
43.6772723599
 10
43.0387073173
 20
43.618222168
 10
43.0492161157
 20
43.5602016471
 10
43.0567063554
 20
43.5034618658
 10
43.0612353083
 20
43.4477517555
 10
43.0628029743
 20
43.3930713161
  0
LINE
  5
245
100
AcDbEntity
  8
RACCORDO
100
AcDbLine
 62
250
  6
CONTINUOUS
 10
32.5269119346
 20
-67.7687689908
 11
31.1126983722
 21
-68.5853181774
  0
LWPOLYLINE
  5
246
100
AcDbEntity
  8
RACCORDO
100
AcDbPolyline
 62
7
  6
CONTINUOUS
 90
16
 70
0
 10
32.1127466925
 20
-68.6844005328
 10
32.0590316962
 20
-68.7122239064
 10
32.0026290958
 20
-68.7352806232
 10
31.9439522478
 20
-68.7534098522
 10
31.8829824855
 20
-68.7665711496
 10
31.8197384756
 20
-68.7748049592
 10
31.7547378941
 20
-68.778043884
 10
31.6879663236
 20
-68.7762469273
 10
31.6194381815
 20
-68.7694550858
 10
31.5497143967
 20
-68.7577239535
 10
31.4787851555
 20
-68.7410129896
 10
31.4066602715
 20
-68.7193627349
 10
31.3339301143
 20
-68.6929504047
 10
31.2607914736
 20
-68.661835071
 10
31.1870475595
 20
-68.6259576619
 10
31.1126983722
 20
-68.5853181774
  0
LWPOLYLINE
  5
247
100
AcDbEntity
  8
RACCORDO
100
AcDbPolyline
 62
7
  6
CONTINUOUS
 90
13
 70
0
 10
41.4415067908
 20
-92.7621044579
 10
41.4730553629
 20
-92.7413954812
 10
41.5024931263
 20
-92.7169746815
 10
41.5294204319
 20
-92.6891675032
 10
41.5538051212
 20
-92.6579305673
 10
41.5756793528
 20
-92.6233072526
 10
41.5947641131
 20
-92.5857391918
 10
41.6110236696
 20
-92.545188663
 10
41.6244937549
 20
-92.501693388
 10
41.6350025534
 20
-92.4558081641
 10
41.6424927931
 20
-92.4077179239
 10
41.6470217459
 20
-92.3572377347
 10
41.6485894119
 20
-92.3043675967
  0
LINE
  5
248
100
AcDbEntity
  8
RACCORDO
100
AcDbLine
 62
250
  6
CONTINUOUS
 10
41.6485894119
 20
-92.3043675967
 11
43.0628029743
 21
-91.4878184101
  0
LINE
  5
249
100
AcDbEntity
  8
RACCORDO
100
AcDbLine
 62
7
  6
CONTINUOUS
 10
41.4415067908
 20
-92.7621044579
 11
42.8557203532
 21
-91.9455552712
  0
ENDSEC
  0
SECTION
  2
OBJECTS
  0
DICTIONARY
  5
C
100
AcDbDictionary
280
0
281
1
  3
ACAD_GROUP
350
D
  3
ACAD_MLINESTYLE
350
17
  3
ACAD_LAYOUT
350
1A
  3
ACAD_PLOTSETTINGS
350
19
  3
ACAD_PLOTSTYLENAME
350
E
  0
DICTIONARY
  5
D
102
{ACAD_REACTORS
330
C
102
}
100
AcDbDictionary
280
0
281
1
  0
ACDBDICTIONARYWDFLT
  5
E
102
{ACAD_REACTORS
330
C
102
}
100
AcDbDictionary
281
1
  3
Normal
350
F
100
AcDbDictionaryWithDefault
340
F
  0
DICTIONARY
  5
17
102
{ACAD_REACTORS
330
C
102
}
100
AcDbDictionary
280
0
281
1
  3
Standard
350
18
  0
DICTIONARY
  5
19
102
{ACAD_REACTORS
330
C
102
}
100
AcDbDictionary
281
1
  0
DICTIONARY
  5
1A
102
{ACAD_REACTORS
330
C
102
}
100
AcDbDictionary
281
1
  3
Model
350
24A
  3
Layout1
350
24B
  0
ACDBPLACEHOLDER
  5
F
102
{ACAD_REACTORS
330
E
102
}
  0
MLINESTYLE
  5
18
102
{ACAD_REACTORS
330
17
102
}
100
AcDbMlineStyle
  2
STANDARD
 70
0
  3

 62
256
 51
90.0
 52
90.0
 71
2
 49
0.5
 62
256
  6
BYLAYER
 49
-0.5
 62
256
  6
BYLAYER
  0
LAYOUT
  5
24A
102
{ACAD_REACTORS
330
1A
102
}
100
AcDbPlotSettings
  1

  2
none_device
  4

  6

 40
0.0
 41
0.0
 42
0.0
 43
0.0
 44
210.0
 45
297.0
 46
0.0
 47
0.0
 48
0.0
 49
0.0
140
0.0
141
0.0
142
1.0
143
1.0
 70
1024
 72
1
 73
0
 74
0
  7

 75
0
147
1.0
148
0.0
149
0.0
100
AcDbLayout
  1
Model
 70
0
 71
0
 10
0.0
 20
0.0
 11
210.0
 21
297.0
 12
0.0
 22
0.0
 32
0.0
 14
0.0
 24
0.0
 34
0.0
 15
0.0
 25
0.0
 35
0.0
146
0.0
 13
0.0
 23
0.0
 33
0.0
 16
1.0
 26
0.0
 36
0.0
 17
0.0
 27
1.0
 37
0.0
 76
0
330
20F
345
0
346
0
  0
LAYOUT
  5
24B
102
{ACAD_REACTORS
330
1A
102
}
100
AcDbPlotSettings
  1

  2
none_device
  4

  6

 40
0.0
 41
0.0
 42
0.0
 43
0.0
 44
210.0
 45
297.0
 46
0.0
 47
0.0
 48
0.0
 49
0.0
140
0.0
141
0.0
142
1.0
143
1.0
 70
0
 72
1
 73
0
 74
0
  7

 75
0
147
1.0
148
0.0
149
0.0
100
AcDbLayout
  1
Layout1
 70
0
 71
1
 10
0.0
 20
0.0
 11
210.0
 21
297.0
 12
0.0
 22
0.0
 32
0.0
 14
0.0
 24
0.0
 34
0.0
 15
0.0
 25
0.0
 35
0.0
146
0.0
 13
0.0
 23
0.0
 33
0.0
 16
1.0
 26
0.0
 36
0.0
 17
0.0
 27
1.0
 37
0.0
 76
0
330
210
345
0
346
0
  0
ENDSEC
  0
EOF
