  0
SECTION
  2
HEADER
  9
$ACADVER
  1
AC1024
  9
$DWGCODEPAGE
  3
ANSI_1252
  9
$EXTMAX
 10
210.0
 20
297.0
 30
0.0
  9
$EXTMIN
 10
0.0
 20
0.0
 30
0.0
  9
$LIMMIN
 10
0.0
 20
0.0
  9
$LIMMAX
 10
210.0
 20
297.0
  9
$VIEWCTR
 10
105.0
 20
148.5
  9
$VIEWSIZE
 40
297.0
  9
$CLAYER
  8
0
  9
$LTSCALE
 40
19.36
  9
$CELTYPE
  6
BYLAYER
  9
$DIMSCALE
 40
1.0
  9
$DIMASZ
 40
3.0
  9
$DIMEXO
 40
0.5
  9
$DIMDLI
 40
13.376
  9
$DIMEXE
 40
1.5
  9
$DIMCEN
 40
3.168
  9
$DIMLFAC
 40
1.0
  9
$DIMBLK
  1
_FILLED
  9
$DIMALT
 70
0
  9
$DIMALTF
 40
0.0393700787
  9
$DIMTXT
 40
3.0
  9
$DIMTOL
 70
1
  9
$DIMLIM
 70
0
  9
$DIMTFAC
 40
1.0
  9
$DIMTP
 40
0.01
  9
$DIMTM
 40
0.01
  9
$DIMGAP
 40
0.625
  9
$DIMDSEP
 70
44
  9
$AUNITS
 70
0
  9
$PDMODE
 70
3
  9
$PDSIZE
 40
3.0
  9
$HANDSEED
  5
2CC
  9
$TILEMODE
 70
1
  9
$MEASUREMENT
 70
1
  9
$INSUNITS
 70
4
  0
ENDSEC
  0
SECTION
  2
CLASSES
  0
CLASS
  1
ACDBDICTIONARYWDFLT
  2
AcDbDictionaryWithDefault
  3
AutoCAD 2000
 90
0
 91
1
280
0
281
0
  0
CLASS
  1
ACDBPLACEHOLDER
  2
AcDbPlaceHolder
  3
AutoCAD 2000
 90
0
 91
1
280
0
281
0
  0
CLASS
  1
LAYOUT
  2
AcDbLayout
  3
AutoCAD 2000
 90
0
 91
0
280
0
281
0
  0
ENDSEC
  0
SECTION
  2
TABLES
  0
TABLE
  2
VPORT
  5
8
100
AcDbSymbolTable
 70
2
  0
VPORT
  5
1F4
100
AcDbSymbolTableRecord
100
AcDbViewportTableRecord
  2
*ACTIVE
 70
0
 10
0.0
 20
0.0
 11
1.0
 21
1.0
 12
105.0
 22
148.5
 13
0.0
 23
0.0
 14
1.0
 24
1.0
 15
0.0
 25
0.0
 16
0.0
 26
0.0
 36
1.0
 17
0.0
 27
0.0
 37
0.0
 40
297.0
 41
0.7070707071
 42
50.0
 43
0.0
 44
0.0
 50
0.0
 51
0.0
 71
0
 72
100
 73
1
 74
1
 75
0
 76
0
 77
0
 78
0
  0
ENDTAB
  0
TABLE
  2
LTYPE
  5
5
100
AcDbSymbolTable
 70
6
  0
LTYPE
  5
14
100
AcDbSymbolTableRecord
100
AcDbLinetypeTableRecord
  2
BYBLOCK
 70
0
  3

 72
65
 73
0
 40
0.0
  0
LTYPE
  5
15
100
AcDbSymbolTableRecord
100
AcDbLinetypeTableRecord
  2
BYLAYER
 70
0
  3

 72
65
 73
0
 40
0.0
  0
LTYPE
  5
16
100
AcDbSymbolTableRecord
100
AcDbLinetypeTableRecord
  2
CONTINUOUS
 70
64
  3
Solid line
 72
65
 73
0
 40
0.0
  0
LTYPE
  5
1F5
100
AcDbSymbolTableRecord
100
AcDbLinetypeTableRecord
  2
CENTER
 70
64
  3
____ _ ____ _ ____ _ ____ _ ____ _ ____ _ ____
 72
65
 73
4
 40
0.6
 49
0.375
 74
0
 49
-0.075
 74
0
 49
0.075
 74
0
 49
-0.075
 74
0
  0
LTYPE
  5
1F6
100
AcDbSymbolTableRecord
100
AcDbLinetypeTableRecord
  2
HIDDEN
 70
64
  3
- - - - - - - - - - - - - - - - - - - -
 72
65
 73
2
 40
0.2
 49
0.1
 74
0
 49
-0.1
 74
0
  0
LTYPE
  5
1F7
100
AcDbSymbolTableRecord
100
AcDbLinetypeTableRecord
  2
PHANTOM
 70
64
  3
_____ _ _ _____ _ _ _____ _ _ _____
 72
65
 73
6
 40
0.8
 49
0.45
 74
0
 49
-0.05
 74
0
 49
0.1
 74
0
 49
-0.05
 74
0
 49
0.1
 74
0
 49
-0.05
 74
0
  0
LTYPE
  5
1F8
100
AcDbSymbolTableRecord
100
AcDbLinetypeTableRecord
  2
DOT
 70
64
  3
. . . . . . . . . . . . . . . . . . . .
 72
65
 73
2
 40
0.2
 49
0.1
 74
0
 49
-0.1
 74
0
  0
LTYPE
  5
1F9
100
AcDbSymbolTableRecord
100
AcDbLinetypeTableRecord
  2
DASHED
 70
64
  3
- - - - - - - - - - - - - - - - - - - -
 72
65
 73
2
 40
0.2
 49
0.1
 74
0
 49
-0.1
 74
0
  0
ENDTAB
  0
TABLE
  2
LAYER
  5
2
100
AcDbSymbolTable
 70
36
  0
LAYER
  5
10
100
AcDbSymbolTableRecord
100
AcDbLayerTableRecord
  2
0
 70
0
 62
7
  6
CONTINUOUS
370
-3
390
F
  0
LAYER
  5
1FA
100
AcDbSymbolTableRecord
100
AcDbLayerTableRecord
  2
DEFAULT_1
 70
0
 62
7
  6
CENTER
370
-3
390
F
  0
LAYER
  5
1FB
100
AcDbSymbolTableRecord
100
AcDbLayerTableRecord
  2
DEFAULT_2
 70
0
 62
7
  6
HIDDEN
370
-3
390
F
  0
LAYER
  5
1FC
100
AcDbSymbolTableRecord
100
AcDbLayerTableRecord
  2
DEFAULT_3
 70
0
 62
7
  6
PHANTOM
370
-3
390
F
  0
LAYER
  5
1FD
100
AcDbSymbolTableRecord
100
AcDbLayerTableRecord
  2
ASSI
 70
0
 62
7
  6
CONTINUOUS
370
-3
390
F
  0
LAYER
  5
1FE
100
AcDbSymbolTableRecord
100
AcDbLayerTableRecord
  2
COORDINATE
 70
0
 62
7
  6
CONTINUOUS
370
-3
390
F
  0
LAYER
  5
1FF
100
AcDbSymbolTableRecord
100
AcDbLayerTableRecord
  2
COPY_PUBLISH
 70
0
 62
7
  6
CONTINUOUS
370
-3
390
F
  0
LAYER
  5
200
100
AcDbSymbolTableRecord
100
AcDbLayerTableRecord
  2
COSMETICI
 70
0
 62
7
  6
CONTINUOUS
370
-3
390
F
  0
LAYER
  5
201
100
AcDbSymbolTableRecord
100
AcDbLayerTableRecord
  2
CURVE
 70
0
 62
7
  6
CONTINUOUS
370
-3
390
F
  0
LAYER
  5
202
100
AcDbSymbolTableRecord
100
AcDbLayerTableRecord
  2
DRAFT
 70
0
 62
7
  6
CONTINUOUS
370
-3
390
F
  0
LAYER
  5
203
100
AcDbSymbolTableRecord
100
AcDbLayerTableRecord
  2
IMPORT_IGES
 70
0
 62
7
  6
CONTINUOUS
370
-3
390
F
  0
LAYER
  5
204
100
AcDbSymbolTableRecord
100
AcDbLayerTableRecord
  2
NOTE
 70
0
 62
7
  6
CONTINUOUS
370
-3
390
F
  0
LAYER
  5
205
100
AcDbSymbolTableRecord
100
AcDbLayerTableRecord
  2
PIANI
 70
0
 62
7
  6
CONTINUOUS
370
-3
390
F
  0
LAYER
  5
206
100
AcDbSymbolTableRecord
100
AcDbLayerTableRecord
  2
PUNTI
 70
0
 62
7
  6
CONTINUOUS
370
-3
390
F
  0
LAYER
  5
207
100
AcDbSymbolTableRecord
100
AcDbLayerTableRecord
  2
RACCORDO
 70
0
 62
7
  6
CONTINUOUS
370
-3
390
F
  0
LAYER
  5
208
100
AcDbSymbolTableRecord
100
AcDbLayerTableRecord
  2
SIMBOLI
 70
0
 62
7
  6
CONTINUOUS
370
-3
390
F
  0
LAYER
  5
209
100
AcDbSymbolTableRecord
100
AcDbLayerTableRecord
  2
SMUSSO
 70
0
 62
7
  6
CONTINUOUS
370
-3
390
F
  0
LAYER
  5
20A
100
AcDbSymbolTableRecord
100
AcDbLayerTableRecord
  2
SNAPLINE
 70
0
 62
7
  6
CONTINUOUS
370
-3
390
F
  0
LAYER
  5
20B
100
AcDbSymbolTableRecord
100
AcDbLayerTableRecord
  2
SUPERFICI
 70
0
 62
7
  6
CONTINUOUS
370
-3
390
F
  0
LAYER
  5
20C
100
AcDbSymbolTableRecord
100
AcDbLayerTableRecord
  2
TRASH
 70
0
 62
7
  6
CONTINUOUS
370
-3
390
F
  0
ENDTAB
  0
TABLE
  2
STYLE
  5
3
100
AcDbSymbolTable
 70
1
  0
STYLE
  5
11
100
AcDbSymbolTableRecord
100
AcDbTextStyleTableRecord
  2
STANDARD
 70
0
 40
0.0
 41
0.8
 50
0.0
 71
0
 42
0.2
  3
txt
  4

  0
STYLE
  5
20D
100
AcDbSymbolTableRecord
100
AcDbTextStyleTableRecord
  2
TEXTSTYLE_1
 70
0
 40
0.0
 41
0.8
 50
0.0
 71
0
 42
0.2
  3
gdt
  4

  0
ENDTAB
  0
TABLE
  2
VIEW
  5
6
100
AcDbSymbolTable
 70
0
  0
ENDTAB
  0
TABLE
  2
UCS
  5
7
100
AcDbSymbolTable
 70
0
  0
ENDTAB
  0
TABLE
  2
APPID
  5
9
100
AcDbSymbolTable
 70
1
  0
APPID
  5
20E
100
AcDbSymbolTableRecord
100
AcDbRegAppTableRecord
  2
ACAD
 70
0
  0
ENDTAB
  0
TABLE
  2
BLOCK_RECORD
  5
1
100
AcDbSymbolTable
 70
0
  0
BLOCK_RECORD
  5
20F
100
AcDbSymbolTableRecord
100
AcDbBlockTableRecord
  2
*Model_Space
  0
BLOCK_RECORD
  5
210
100
AcDbSymbolTableRecord
100
AcDbBlockTableRecord
  2
*Paper_Space
  0
BLOCK_RECORD
  5
211
100
AcDbSymbolTableRecord
100
AcDbBlockTableRecord
  2
_FILLED
  0
ENDTAB
  0
TABLE
  2
DIMSTYLE
  5
A
100
AcDbSymbolTable
 70
1
100
AcDbDimStyleTable
 71
0
  0
DIMSTYLE
105
212
100
AcDbSymbolTableRecord
100
AcDbDimStyleTableRecord
  2
STANDARD
 70
0
  3

  4

 40
1.0
 41
3.0
 42
0.5
 43
0.38
 44
1.5
 45
0.0
 46
0.0
 47
0.01
 48
0.01
140
3.0
141
0.09
142
0.0
143
25.4
144
1.0
145
0.0
146
1.0
147
0.625
 71
1.0
 72
0.0
 73
0
 74
0
 75
0
 76
0
 77
1
 78
8
 79
2
170
0
171
1
172
0
173
0
174
0
175
0
176
0
177
0
178
0
270
2
179
2
271
2
272
2
273
2
274
2
275
0
280
0
281
0
282
0
283
1
284
8
285
0
286
0
287
3
288
0
340
11
278
44
341
211
342
211
343
211
344
211
  0
ENDTAB
  0
ENDSEC
  0
SECTION
  2
BLOCKS
  0
BLOCK
  5
20
100
AcDbEntity
  8
0
100
AcDbBlockBegin
  2
*Model_Space
 70
0
 10
0.0
 20
0.0
 30
0.0
  3
*Model_Space
  1

  0
ENDBLK
  5
21
100
AcDbEntity
  8
0
100
AcDbBlockEnd
  0
BLOCK
  5
1C
100
AcDbEntity
  8
0
100
AcDbBlockBegin
  2
*Paper_Space
 70
0
 10
0.0
 20
0.0
 30
0.0
  3
*Paper_Space
  1

  0
ENDBLK
  5
1D
100
AcDbEntity
  8
0
100
AcDbBlockEnd
  0
BLOCK
  5
213
100
AcDbEntity
  8
0
100
AcDbBlockBegin
  2
_FILLED
 70
64
 10
0.0
 20
0.0
  3
_FILLED
  1

  0
SOLID
  5
214
100
AcDbEntity
  8
0
  6
BYBLOCK
 62
0
100
AcDbTrace
 10
0.0
 20
0.0
 11
-1.0
 21
0.3166666667
 12
-1.0
 22
-0.3166666667
 13
-1.0
 23
-0.3166666667
  0
ENDBLK
  5
215
100
AcDbEntity
  8
0
  6
BYBLOCK
 62
0
100
AcDbBlockEnd
  0
ENDSEC
  0
SECTION
  2
ENTITIES
  0
LWPOLYLINE
  5
216
100
AcDbEntity
  8
RACCORDO
100
AcDbPolyline
 62
7
  6
CONTINUOUS
 90
16
 70
0
 10
-42.8557203532
 20
192.6979874275
 10
-42.881150341
 20
192.6817148102
 10
-42.9052365268
 20
192.6630588646
 10
-42.9277575959
 20
192.642186245
 10
-42.9487007022
 20
192.6190787575
 10
-42.9680786917
 20
192.593754596
 10
-42.9857329484
 20
192.5664210483
 10
-43.0016493242
 20
192.5370616219
 10
-43.0158419671
 20
192.5056928094
 10
-43.028194705
 20
192.4725713764
 10
-43.0386924364
 20
192.4376829376
 10
-43.0473502627
 20
192.4010418784
 10
-43.0540973164
 20
192.3629481196
 10
-43.058909975
 20
192.3235016348
 10
-43.0618118609
 20
192.2826024503
 10
-43.0628029743
 20
192.2402505663
  0
LINE
  5
217
100
AcDbEntity
  8
RACCORDO
100
AcDbLine
 62
7
  6
CONTINUOUS
 10
-42.8557203532
 20
192.6979874275
 11
-41.4415067908
 21
193.5145366141
  0
LINE
  5
218
100
AcDbEntity
  8
RACCORDO
100
AcDbLine
 62
250
  6
CONTINUOUS
 10
-42.3556961931
 20
192.6484462498
 11
-40.9414826307
 21
193.4649954364
  0
LWPOLYLINE
  5
219
100
AcDbEntity
  8
RACCORDO
100
AcDbPolyline
 62
7
  6
CONTINUOUS
 90
16
 70
0
 10
-41.4415067908
 20
193.5145366141
 10
-41.4146492927
 20
193.5284483009
 10
-41.3864479925
 20
193.5399766593
 10
-41.3571095685
 20
193.5490412738
 10
-41.3266246874
 20
193.5556219225
 10
-41.2950026824
 20
193.5597388273
 10
-41.2625023917
 20
193.5613582897
 10
-41.2291166064
 20
193.5604598114
 10
-41.1948525353
 20
193.5570638906
 10
-41.1599906429
 20
193.5511983245
 10
-41.1245260223
 20
193.5428428425
 10
-41.0884635804
 20
193.5320177152
 10
-41.0520985017
 20
193.5188115501
 10
-41.0155291814
 20
193.5032538832
 10
-40.9786572244
 20
193.4853151787
 10
-40.9414826307
 20
193.4649954364
  0
LINE
  5
21A
100
AcDbEntity
  8
RACCORDO
100
AcDbLine
 62
250
  6
CONTINUOUS
 10
-28.1074945522
 20
165.3163087173
 11
-27.7539582466
 21
165.5204361493
  0
LWPOLYLINE
  5
21B
100
AcDbEntity
  8
RACCORDO
100
AcDbPolyline
 62
7
  6
CONTINUOUS
 90
15
 70
0
 10
-28.0039478182
 20
165.5451677547
 10
-27.9965431393
 20
165.549199587
 10
-27.9812009004
 20
165.5561146048
 10
-27.9650836494
 20
165.5615156663
 10
-27.948199157
 20
165.5654179512
 10
-27.9307178569
 20
165.5677820695
 10
-27.9126337043
 20
165.5685924425
 10
-27.8939527439
 20
165.5678646489
 10
-27.8748635429
 20
165.5656060352
 10
-27.8553619666
 20
165.5618010969
 10
-27.8354521497
 20
165.5564653385
 10
-27.8153350636
 20
165.5496526195
 10
-27.7950776987
 20
165.5413808932
 10
-27.7746130647
 20
165.5316322064
 10
-27.7539411616
 20
165.520406559
  0
LWPOLYLINE
  5
21C
100
AcDbEntity
  8
RACCORDO
100
AcDbPolyline
 62
7
  6
CONTINUOUS
 90
19
 70
0
 10
-28.5216597943
 20
154.1949565351
 10
-28.47907266
 20
154.2217487564
 10
-28.4383383474
 20
154.2518617488
 10
-28.3997370609
 20
154.2850961944
 10
-28.3632809663
 20
154.321469896
 10
-28.3289578978
 20
154.3609650507
 10
-28.2969632431
 20
154.4033568282
 10
-28.2673102822
 20
154.4486617491
 10
-28.2399857351
 20
154.4968632929
 10
-28.2151451497
 20
154.5476870673
 10
-28.1928026929
 20
154.6011480279
 10
-28.1729441977
 20
154.6572312191
 10
-28.1556827108
 20
154.7156173814
 10
-28.1410330438
 20
154.7763196498
 10
-28.1289803849
 20
154.8393248894
 10
-28.1195933452
 20
154.9042744363
 10
-28.1128947951
 20
154.971048736
 10
-28.108861864
 20
155.039767343
 10
-28.1074945522
 20
155.1104302574
  0
LINE
  5
21D
100
AcDbEntity
  8
RACCORDO
100
AcDbLine
 62
250
  6
CONTINUOUS
 10
-34.2946788875
 20
155.4169518418
 11
-32.8804653252
 21
156.2335010285
  0
LINE
  5
21E
100
AcDbEntity
  8
RACCORDO
100
AcDbLine
 62
250
  6
CONTINUOUS
 10
-26.6932809898
 20
155.926979444
 11
-28.1074945522
 21
155.1104302574
  0
LINE
  5
21F
100
AcDbEntity
  8
RACCORDO
100
AcDbLine
 62
7
  6
CONTINUOUS
 10
-27.1074462319
 20
155.0115057217
 11
-28.5216597943
 21
154.1949565351
  0
LWPOLYLINE
  5
220
100
AcDbEntity
  8
RACCORDO
100
AcDbPolyline
 62
7
  6
CONTINUOUS
 90
19
 70
0
 10
-33.8805136454
 20
156.3324255641
 10
-33.8359178857
 20
156.355961924
 10
-33.7894693043
 20
156.3761775126
 10
-33.7413839943
 20
156.3929851476
 10
-33.6916526208
 20
156.4063653918
 10
-33.6402845188
 20
156.4163376823
 10
-33.5875721064
 20
156.4228452508
 10
-33.5335077164
 20
156.4258683365
 10
-33.4780990162
 20
156.4254267001
 10
-33.4216614253
 20
156.4215228559
 10
-33.3641890757
 20
156.4141370572
 10
-33.3056878354
 20
156.4032890506
 10
-33.246490729
 20
156.3890405894
 10
-33.1865937874
 20
156.3713722795
 10
-33.1260009797
 20
156.350303515
 10
-33.0650572365
 20
156.325954232
 10
-33.0038775348
 20
156.2983644094
 10
-32.9423468977
 20
156.2674940683
 10
-32.8804653252
 20
156.2333432088
  0
LWPOLYLINE
  5
221
100
AcDbEntity
  8
RACCORDO
100
AcDbPolyline
 62
7
  6
CONTINUOUS
 90
16
 70
0
 10
40.9414826307
 20
-193.4649954364
 10
40.9786572244
 20
-193.4853151787
 10
41.0155291814
 20
-193.5032538832
 10
41.0520985017
 20
-193.5188115501
 10
41.0884635804
 20
-193.5320177152
 10
41.1245260223
 20
-193.5428428425
 10
41.1599906429
 20
-193.5511983245
 10
41.1948525353
 20
-193.5570638906
 10
41.2291166064
 20
-193.5604598114
 10
41.2625023917
 20
-193.5613582897
 10
41.2950026824
 20
-193.5597388273
 10
41.3266246874
 20
-193.5556219225
 10
41.3571095685
 20
-193.5490412738
 10
41.3864479925
 20
-193.5399766593
 10
41.4146492927
 20
-193.5284483009
 10
41.4415067908
 20
-193.5145366141
  0
LINE
  5
222
100
AcDbEntity
  8
RACCORDO
100
AcDbLine
 62
7
  6
CONTINUOUS
 10
-42.3556961931
 20
-145.3702483424
 11
40.9414826307
 21
-193.4649954364
  0
LINE
  5
223
100
AcDbEntity
  8
CURVE
100
AcDbLine
 62
250
  6
CONTINUOUS
 10
3.1324577696
 20
153.0612706663
 11
2.849074621
 21
152.8976803805
  0
LWPOLYLINE
  5
224
100
AcDbEntity
  8
RACCORDO
100
AcDbPolyline
 62
7
  6
CONTINUOUS
 90
16
 70
0
 10
-0.7778174593
 20
-155.3335056693
 10
-0.814992053
 20
-155.313185927
 10
-0.85186401
 20
-155.2952472225
 10
-0.8884333303
 20
-155.2796895556
 10
-0.924798409
 20
-155.2664833906
 10
-0.9608608509
 20
-155.2556582632
 10
-0.9963254715
 20
-155.2473027813
 10
-1.031187364
 20
-155.2414372151
 10
-1.065451435
 20
-155.2380412943
 10
-1.0988372203
 20
-155.237142816
 10
-1.131337511
 20
-155.2387622784
 10
-1.162959516
 20
-155.2428791832
 10
-1.1934443971
 20
-155.2494598319
 10
-1.2227828211
 20
-155.2585244464
 10
-1.2509841213
 20
-155.2700528048
 10
-1.2778416194
 20
-155.2839644916
  0
LWPOLYLINE
  5
225
100
AcDbEntity
  8
RACCORDO
100
AcDbPolyline
 62
7
  6
CONTINUOUS
 90
19
 70
0
 10
28.1074945522
 20
-169.5621119763
 10
28.0456129797
 20
-169.5279611168
 10
27.9840823426
 20
-169.4970907757
 10
27.9229026409
 20
-169.469500953
 10
27.8619588977
 20
-169.4451516701
 10
27.8013660899
 20
-169.4240829056
 10
27.7414691484
 20
-169.4064145956
 10
27.6822720419
 20
-169.3921661345
 10
27.6237708017
 20
-169.3813181279
 10
27.566298452
 20
-169.3739323292
 10
27.5098608612
 20
-169.3700284849
 10
27.4544521609
 20
-169.3695868486
 10
27.400387771
 20
-169.3726099343
 10
27.3476753586
 20
-169.3791175028
 10
27.2963072565
 20
-169.3890897933
 10
27.246575883
 20
-169.4024700375
 10
27.198490573
 20
-169.4192776724
 10
27.1520419916
 20
-169.4394932611
 10
27.1074462319
 20
-169.463029621
  0
LINE
  5
226
100
AcDbEntity
  8
RACCORDO
100
AcDbLine
 62
7
  6
CONTINUOUS
 10
26.3397275992
 20
-173.4402471538
 11
0.4242640687
 21
-158.4769833083
  0
LINE
  5
227
100
AcDbEntity
  8
RACCORDO
100
AcDbLine
 62
7
  6
CONTINUOUS
 10
-1.8384776311
 20
-157.1705046097
 11
-27.7539411616
 21
-142.2072407642
  0
LINE
  5
228
100
AcDbEntity
  8
RACCORDO
100
AcDbLine
 62
7
  6
CONTINUOUS
 10
26.6932809898
 20
-172.0112860771
 11
1.8384776311
 21
-157.6604341217
  0
LINE
  5
229
100
AcDbEntity
  8
RACCORDO
100
AcDbLine
 62
7
  6
CONTINUOUS
 10
-1.4848559003
 20
-155.7415829918
 11
-26.3397275992
 21
-141.3906915775
  0
LINE
  5
22A
100
AcDbEntity
  8
RACCORDO
100
AcDbLine
 62
7
  6
CONTINUOUS
 10
-0.6363961031
 20
-155.4151605879
 11
-0.7778174593
 21
-155.3335056693
  0
LINE
  5
22B
100
AcDbEntity
  8
RACCORDO
100
AcDbLine
 62
7
  6
CONTINUOUS
 10
0.7778174593
 20
-154.5986114013
 11
0.6363961031
 21
-154.5169564826
  0
LINE
  5
22C
100
AcDbEntity
  8
RACCORDO
100
AcDbLine
 62
7
  6
CONTINUOUS
 10
31.4662517628
 20
-171.5014162946
 11
28.1074945522
 21
-169.5621119763
  0
LINE
  5
22D
100
AcDbEntity
  8
RACCORDO
100
AcDbLine
 62
7
  6
CONTINUOUS
 10
-29.5217081145
 20
-136.2877326201
 11
-32.8804653252
 21
-134.3484283018
  0
LINE
  5
22E
100
AcDbEntity
  8
RACCORDO
100
AcDbLine
 62
7
  6
CONTINUOUS
 10
32.8804653252
 20
-170.684867108
 11
29.5217081145
 21
-168.7455627897
  0
LINE
  5
22F
100
AcDbEntity
  8
RACCORDO
100
AcDbLine
 62
7
  6
CONTINUOUS
 10
-28.1074945522
 20
-135.4711834335
 11
-31.4662517628
 21
-133.5318791152
  0
LWPOLYLINE
  5
230
100
AcDbEntity
  8
RACCORDO
100
AcDbPolyline
 62
7
  6
CONTINUOUS
 90
37
 70
0
 10
-32.8804653252
 20
-134.3484283018
 10
-32.9423468977
 20
-134.3111198725
 10
-33.0038775348
 20
-134.2709361762
 10
-33.0650572365
 20
-134.2278772129
 10
-33.1260009797
 20
-134.1818501888
 10
-33.1865937874
 20
-134.1329478977
 10
-33.246490729
 20
-134.081448721
 10
-33.3056878354
 20
-134.0273378474
 10
-33.3641890757
 20
-133.9706300882
 10
-33.4216614253
 20
-133.9116482581
 10
-33.4780990162
 20
-133.8503793871
 10
-33.5335077164
 20
-133.7868364452
 10
-33.5875721064
 20
-133.7213811572
 10
-33.6402845188
 20
-133.6540026161
 10
-33.6916526208
 20
-133.584711729
 10
-33.7413839943
 20
-133.5139029412
 10
-33.7894693043
 20
-133.4415675956
 10
-33.8359178857
 20
-133.3677143494
 10
-33.8804653252
 20
-133.2927636199
 10
-33.9231007797
 20
-133.2167091476
 10
-33.9638350923
 20
-133.1395571919
 10
-34.0024363788
 20
-133.0617469484
 10
-34.0388924734
 20
-132.9832746625
 10
-34.0732155419
 20
-132.9041440887
 10
-34.1052101966
 20
-132.8248056859
 10
-34.1348631575
 20
-132.745258269
 10
-34.1621877046
 20
-132.6655030231
 10
-34.1870282901
 20
-132.5859939633
 10
-34.2093707468
 20
-132.5067324936
 10
-34.229229242
 20
-132.4277172101
 10
-34.246490729
 20
-132.3493979152
 10
-34.261140396
 20
-132.2717785786
 10
-34.2731930548
 20
-132.1948552307
 10
-34.2825800945
 20
-132.1190657656
 10
-34.2892786447
 20
-132.0445561481
 10
-34.2933115757
 20
-131.9711804134
 10
-34.2946788875
 20
-131.8989385616
  0
LWPOLYLINE
  5
231
100
AcDbEntity
  8
RACCORDO
100
AcDbPolyline
 62
7
  6
CONTINUOUS
 90
37
 70
0
 10
-28.1074945522
 20
-135.4711834335
 10
-28.0456129797
 20
-135.5084918628
 10
-27.9840823426
 20
-135.5486755591
 10
-27.9229026409
 20
-135.5917345224
 10
-27.8619588977
 20
-135.6377615465
 10
-27.8013660899
 20
-135.6866638376
 10
-27.7414691484
 20
-135.7381630143
 10
-27.6822720419
 20
-135.7922738879
 10
-27.6237708017
 20
-135.8489816471
 10
-27.566298452
 20
-135.9079634772
 10
-27.5098608612
 20
-135.9692323482
 10
-27.4544521609
 20
-136.0327752901
 10
-27.400387771
 20
-136.0982305781
 10
-27.3476753586
 20
-136.1656091192
 10
-27.2963072565
 20
-136.2349000063
 10
-27.246575883
 20
-136.3057087941
 10
-27.198490573
 20
-136.3780441397
 10
-27.1520419916
 20
-136.4518973859
 10
-27.1074945522
 20
-136.5268481154
 10
-27.0648590976
 20
-136.6029025877
 10
-27.024124785
 20
-136.6800545434
 10
-26.9855234986
 20
-136.7578647869
 10
-26.9490674039
 20
-136.8363370728
 10
-26.9147443354
 20
-136.9154676466
 10
-26.8827496808
 20
-136.9948060493
 10
-26.8530967199
 20
-137.0743534663
 10
-26.8257721728
 20
-137.1541087122
 10
-26.8009315873
 20
-137.233617772
 10
-26.7785891305
 20
-137.3128792416
 10
-26.7587306354
 20
-137.3918945252
 10
-26.7414691484
 20
-137.4702138201
 10
-26.7268194814
 20
-137.5478331567
 10
-26.7147668225
 20
-137.6247565046
 10
-26.7053797829
 20
-137.7005459696
 10
-26.6986812327
 20
-137.7750555872
 10
-26.6946483017
 20
-137.8484313218
 10
-26.6932809898
 20
-137.9206731737
  0
LWPOLYLINE
  5
232
100
AcDbEntity
  8
RACCORDO
100
AcDbPolyline
 62
7
  6
CONTINUOUS
 90
31
 70
0
 10
0.7778174593
 20
-154.5986114013
 10
0.814992053
 20
-154.621219948
 10
0.85186401
 20
-154.6458600552
 10
0.8884333303
 20
-154.6725317228
 10
0.924798409
 20
-154.701319039
 10
0.9608608509
 20
-154.7321379157
 10
0.9963254715
 20
-154.7647360887
 10
1.031187364
 20
-154.799128162
 10
1.065451435
 20
-154.8352995317
 10
1.0988372203
 20
-154.8729541213
 10
1.131337511
 20
-154.9121041048
 10
1.162959516
 20
-154.9527373083
 10
1.1934443971
 20
-154.9945211336
 10
1.2227828211
 20
-155.0374650247
 10
1.2509841213
 20
-155.0815595377
 10
1.2778174593
 20
-155.1264437422
 10
1.3032716072
 20
-155.1721241199
 10
1.327357793
 20
-155.2185941891
 10
1.3498788621
 20
-155.2654735748
 10
1.3708219684
 20
-155.3127656365
 10
1.390199958
 20
-155.3604670146
 10
1.4078542146
 20
-155.4081872554
 10
1.4237705904
 20
-155.4559265136
 10
1.4379632334
 20
-155.5036846344
 10
1.4503159713
 20
-155.5510706996
 10
1.4608137026
 20
-155.5980816553
 10
1.4694715289
 20
-155.6447205554
 10
1.4762185826
 20
-155.6906056427
 10
1.4810312412
 20
-155.735609665
 10
1.4839331272
 20
-155.7798598745
 10
1.4849242405
 20
-155.8233562714
  0
LWPOLYLINE
  5
233
100
AcDbEntity
  8
RACCORDO
100
AcDbPolyline
 62
7
  6
CONTINUOUS
 90
28
 70
0
 10
-27.7539411616
 20
-142.2072407642
 10
-27.7746130647
 20
-142.1945950159
 10
-27.7950776987
 20
-142.1807116564
 10
-27.8153350636
 20
-142.1655906856
 10
-27.8354521497
 20
-142.1491726978
 10
-27.8553619666
 20
-142.1315170987
 10
-27.8748635429
 20
-142.1128021054
 10
-27.8939527439
 20
-142.0930169883
 10
-27.9126337043
 20
-142.0721724771
 10
-27.9307178569
 20
-142.050478978
 10
-27.948199157
 20
-142.0279278924
 10
-27.9650836494
 20
-142.004527819
 10
-27.9812009004
 20
-141.9805149601
 10
-27.9965431393
 20
-141.9558831093
 10
-28.0111181369
 20
-141.930638473
 10
-28.0247787718
 20
-141.9050358729
 10
-28.0375157832
 20
-141.8790716832
 10
-28.0493384321
 20
-141.8527495296
 10
-28.0601273794
 20
-141.8263351102
 10
-28.0698721558
 20
-141.7998274905
 10
-28.0785832307
 20
-141.7732276049
 10
-28.0861726738
 20
-141.746803955
 10
-28.092629125
 20
-141.7205583258
 10
-28.0979639443
 20
-141.6944889323
 10
-28.1021232817
 20
-141.6688589212
 10
-28.1050891872
 20
-141.6437560081
 10
-28.1068796106
 20
-141.6190924774
 10
-28.1074945522
 20
-141.5948683291
  0
LWPOLYLINE
  5
234
100
AcDbEntity
  8
RACCORDO
100
AcDbPolyline
 62
7
  6
CONTINUOUS
 90
28
 70
0
 10
0.4242640687
 20
-158.4769833083
 10
0.4035921655
 20
-158.4643375601
 10
0.3831275315
 20
-158.4504542005
 10
0.3628701667
 20
-158.4353332297
 10
0.3427530806
 20
-158.4189152419
 10
0.3228432637
 20
-158.4012596428
 10
0.3033416874
 20
-158.3825446495
 10
0.2842524864
 20
-158.3627595325
 10
0.265571526
 20
-158.3419150212
 10
0.2474873734
 20
-158.3202215221
 10
0.2300060732
 20
-158.2976704365
 10
0.2131215809
 20
-158.2742703631
 10
0.1970043299
 20
-158.2502575042
 10
0.181662091
 20
-158.2256256534
 10
0.1670870934
 20
-158.2003810172
 10
0.1534264585
 20
-158.174778417
 10
0.140689447
 20
-158.1488142273
 10
0.1288667982
 20
-158.1224920738
 10
0.1180778509
 20
-158.0960776543
 10
0.1083330745
 20
-158.0695700346
 10
0.0996219996
 20
-158.042970149
 10
0.0920325565
 20
-158.0165464992
 10
0.0855761053
 20
-157.9903008699
 10
0.080241286
 20
-157.9642314764
 10
0.0760819486
 20
-157.9386014653
 10
0.0731160431
 20
-157.9134985522
 10
0.0713256196
 20
-157.8888350215
 10
0.0707106781
 20
-157.8646108732
  0
LWPOLYLINE
  5
235
100
AcDbEntity
  8
RACCORDO
100
AcDbPolyline
 62
7
  6
CONTINUOUS
 90
16
 70
0
 10
2.833476538
 20
146.0576057433
 10
2.8589065259
 20
146.0738783605
 10
2.8829927116
 20
146.0925343061
 10
2.9055137807
 20
146.1134069257
 10
2.926456887
 20
146.1365144133
 10
2.9458348766
 20
146.1618385748
 10
2.9634891333
 20
146.1891721224
 10
2.9794055091
 20
146.2185315488
 10
2.993598152
 20
146.2499003613
 10
3.0059508899
 20
146.2830217944
 10
3.0164486212
 20
146.3179102331
 10
3.0251064475
 20
146.3545512923
 10
3.0318535012
 20
146.3926450512
 10
3.0366661598
 20
146.432091536
 10
3.0395680458
 20
146.4729907204
 10
3.0405591591
 20
146.5153426044
  0
LINE
  5
236
100
AcDbEntity
  8
RACCORDO
100
AcDbLine
 62
250
  6
CONTINUOUS
 10
3.0405591591
 20
147.3318128812
 11
3.3940954647
 21
147.5359403132
  0
LINE
  5
237
100
AcDbEntity
  8
RACCORDO
100
AcDbLine
 62
250
  6
CONTINUOUS
 10
4.1011168306
 20
147.127695312
 11
3.0405591591
 21
146.5153426044
  0
LINE
  5
238
100
AcDbEntity
  8
RACCORDO
100
AcDbLine
 62
7
  6
CONTINUOUS
 10
4.2476901004
 20
146.8741549299
 11
2.8334765381
 21
146.0576057433
  0
LINE
  5
239
100
AcDbEntity
  8
CURVE
100
AcDbLine
 62
250
  6
CONTINUOUS
 10
3.1003913394
 20
152.3499614518
 11
3.481141122
 21
152.5697591569
  0
LINE
  5
23A
100
AcDbEntity
  8
CURVE
100
AcDbLine
 62
250
  6
CONTINUOUS
 10
9.3926925087
 20
153.5976884006
 11
9.13144599
 21
153.4468773225
  0
LINE
  5
23B
100
AcDbEntity
  8
CURVE
100
AcDbLine
 62
250
  6
CONTINUOUS
 10
9.3827626042
 20
152.8991583917
 11
9.7635126818
 21
153.118955884
  0
LWPOLYLINE
  5
23C
100
AcDbEntity
  8
RACCORDO
100
AcDbPolyline
 62
7
  6
CONTINUOUS
 90
15
 70
0
 10
3.1441058931
 20
147.5606719186
 10
3.151510572
 20
147.5647037509
 10
3.1668528109
 20
147.5716187688
 10
3.1829700619
 20
147.5770198302
 10
3.1998545542
 20
147.5809221151
 10
3.2173358544
 20
147.5832862334
 10
3.235420007
 20
147.5840966064
 10
3.2541009674
 20
147.5833688128
 10
3.2731901684
 20
147.5811101991
 10
3.2926917447
 20
147.5773052608
 10
3.3126015616
 20
147.5719695024
 10
3.3327186477
 20
147.5651567834
 10
3.3529760125
 20
147.5568850571
 10
3.3734406465
 20
147.5471363703
 10
3.3941125497
 20
147.5359107229
  0
LINE
  5
23D
100
AcDbEntity
  8
RACCORDO
100
AcDbLine
 62
250
  6
CONTINUOUS
 10
40.9414826307
 20
144.5536991558
 11
42.3556961931
 21
145.3702483424
  0
LINE
  5
23E
100
AcDbEntity
  8
CURVE
100
AcDbLine
 62
250
  6
CONTINUOUS
 10
-8.0317491658
 20
165.7278624102
 11
-6.5472082137
 21
167.8100000667
  0
LINE
  5
23F
100
AcDbEntity
  8
CURVE
100
AcDbLine
 62
250
  6
CONTINUOUS
 10
-6.3639610307
 20
167.094588238
 11
-7.6652547996
 21
165.2694632694
  0
LINE
  5
240
100
AcDbEntity
  8
RACCORDO
100
AcDbLine
 62
250
  6
CONTINUOUS
 10
41.6485894119
 20
143.3289542857
 11
43.0628029743
 21
144.1455034723
  0
LWPOLYLINE
  5
241
100
AcDbEntity
  8
CURVE
100
AcDbPolyline
 62
250
  6
CONTINUOUS
 90
17
 70
0
 10
-8.0317491658
 20
165.7278624102
 10
-8.0490164161
 20
165.6943844525
 10
-8.0586461339
 20
165.6534515194
 10
-8.0602715263
 20
165.6066227335
 10
-8.053643405
 20
165.5547464491
 10
-8.0392460709
 20
165.5016131417
 10
-8.0175833537
 20
165.4483674581
 10
-7.9894803797
 20
165.3970375101
 10
-7.9553685813
 20
165.3487774703
 10
-7.9177404258
 20
165.307113584
 10
-7.8774749995
 20
165.2727457494
 10
-7.8361060001
 20
165.2469830265
 10
-7.7944927535
 20
165.2306093081
 10
-7.7556758398
 20
165.2248209825
 10
-7.720394645
 20
165.2294632082
 10
-7.689993019
 20
165.2443591642
 10
-7.6652547903
 20
165.2694632825
  0
LWPOLYLINE
  5
242
100
AcDbEntity
  8
RACCORDO
100
AcDbPolyline
 62
7
  6
CONTINUOUS
 90
6
 70
0
 10
4.359944251
 20
146.9782516033
 10
4.3406704494
 20
146.9530635999
 10
4.3197273431
 20
146.9299561124
 10
4.297206274
 20
146.9090834928
 10
4.2731200882
 20
146.8904275472
 10
4.2476901004
 20
146.8741549299
  0
LINE
  5
243
100
AcDbEntity
  8
CURVE
100
AcDbLine
 62
250
  6
CONTINUOUS
 10
3.2785583766
 20
153.3143082978
 11
3.1324577696
 21
153.0612706663
  0
LINE
  5
244
100
AcDbEntity
  8
CURVE
100
AcDbLine
 62
250
  6
CONTINUOUS
 10
3.481141122
 20
152.5697591569
 11
3.6715158658
 21
152.899476981
  0
LWPOLYLINE
  5
245
100
AcDbEntity
  8
RACCORDO
100
AcDbPolyline
 62
7
  6
CONTINUOUS
 90
31
 70
0
 10
-43.0628029743
 20
-144.1455034723
 10
-43.0618118609
 20
-144.1889998692
 10
-43.058909975
 20
-144.2332500787
 10
-43.0540973164
 20
-144.278254101
 10
-43.0473502627
 20
-144.3241391884
 10
-43.0386924364
 20
-144.3707780884
 10
-43.028194705
 20
-144.4177890442
 10
-43.0158419671
 20
-144.4651751093
 10
-43.0016493242
 20
-144.5129332301
 10
-42.9857329484
 20
-144.5606724883
 10
-42.9680786917
 20
-144.6083927291
 10
-42.9487007022
 20
-144.6560941072
 10
-42.9277575959
 20
-144.7033861689
 10
-42.9052365268
 20
-144.7502655546
 10
-42.881150341
 20
-144.7967356238
 10
-42.8556961931
 20
-144.8424160015
 10
-42.8288628551
 20
-144.887300206
 10
-42.8006615549
 20
-144.931394719
 10
-42.7713231309
 20
-144.9743386101
 10
-42.7408382497
 20
-145.0161224354
 10
-42.7092162448
 20
-145.0567556389
 10
-42.676715954
 20
-145.0959056224
 10
-42.6433301688
 20
-145.133560212
 10
-42.6090660977
 20
-145.1697315817
 10
-42.5742042053
 20
-145.204123655
 10
-42.5387395847
 20
-145.236721828
 10
-42.5026771427
 20
-145.2675407047
 10
-42.4663120641
 20
-145.2963280209
 10
-42.4297427438
 20
-145.3229996885
 10
-42.3928707867
 20
-145.3476397957
 10
-42.3556961931
 20
-145.3702483424
  0
LINE
  5
246
100
AcDbEntity
  8
RACCORDO
100
AcDbLine
 62
7
  6
CONTINUOUS
 10
-43.0628029743
 20
192.2402505663
 11
-43.0628029743
 21
-144.1455034723
  0
LINE
  5
247
100
AcDbEntity
  8
CURVE
100
AcDbLine
 62
250
  6
CONTINUOUS
 10
3.4376268358
 20
153.7734753618
 11
3.2785583766
 21
153.3143082978
  0
LINE
  5
248
100
AcDbEntity
  8
CURVE
100
AcDbLine
 62
250
  6
CONTINUOUS
 10
3.6715158658
 20
152.899476981
 11
3.8618909046
 21
153.4490136274
  0
LINE
  5
249
100
AcDbEntity
  8
CURVE
100
AcDbLine
 62
250
  6
CONTINUOUS
 10
9.4886938795
 20
153.8748049998
 11
9.3926925087
 21
153.5976884006
  0
LINE
  5
24A
100
AcDbEntity
  8
CURVE
100
AcDbLine
 62
250
  6
CONTINUOUS
 10
9.7635126818
 20
153.118955884
 11
9.8911859544
 21
153.487496279
  0
LWPOLYLINE
  5
24B
100
AcDbEntity
  8
RACCORDO
100
AcDbPolyline
 62
7
  6
CONTINUOUS
 90
28
 70
0
 10
-26.6932809898
 20
-140.7783191425
 10
-26.6926660483
 20
-140.8025432908
 10
-26.6908756248
 20
-140.8272068214
 10
-26.6879097194
 20
-140.8523097346
 10
-26.6837503819
 20
-140.8779397457
 10
-26.6784155626
 20
-140.9040091392
 10
-26.6719591114
 20
-140.9302547684
 10
-26.6643696683
 20
-140.9566784183
 10
-26.6556585934
 20
-140.9832783038
 10
-26.645913817
 20
-141.0097859236
 10
-26.6351248697
 20
-141.036200343
 10
-26.6233022209
 20
-141.0625224966
 10
-26.6105652094
 20
-141.0884866862
 10
-26.5969045745
 20
-141.1140892864
 10
-26.5823295769
 20
-141.1393339226
 10
-26.566987338
 20
-141.1639657734
 10
-26.550870087
 20
-141.1879786323
 10
-26.5339855947
 20
-141.2113787058
 10
-26.5165042945
 20
-141.2339297914
 10
-26.4984201419
 20
-141.2556232905
 10
-26.4797391815
 20
-141.2764678017
 10
-26.4606499805
 20
-141.2962529188
 10
-26.4411484042
 20
-141.314967912
 10
-26.4212385873
 20
-141.3326235111
 10
-26.4011215012
 20
-141.3490414989
 10
-26.3808641364
 20
-141.3641624698
 10
-26.3603995024
 20
-141.3780458293
 10
-26.3397275992
 20
-141.3906915775
  0
LWPOLYLINE
  5
24C
100
AcDbEntity
  8
RACCORDO
100
AcDbPolyline
 62
7
  6
CONTINUOUS
 90
37
 70
0
 10
-32.8804653252
 20
-131.0823893749
 10
-32.8790980133
 20
-131.1546312268
 10
-32.8750650823
 20
-131.2280069615
 10
-32.8683665321
 20
-131.302516579
 10
-32.8589794924
 20
-131.378306044
 10
-32.8469268336
 20
-131.4552293919
 10
-32.8322771666
 20
-131.5328487285
 10
-32.8150156796
 20
-131.6111680234
 10
-32.7951571844
 20
-131.690183307
 10
-32.7728147277
 20
-131.7694447766
 10
-32.7479741422
 20
-131.8489538364
 10
-32.7206495951
 20
-131.9287090823
 10
-32.6909966342
 20
-132.0082564993
 10
-32.6590019795
 20
-132.087594902
 10
-32.6246789111
 20
-132.1667254758
 10
-32.5882228164
 20
-132.2451977617
 10
-32.54962153
 20
-132.3230080053
 10
-32.5088872173
 20
-132.4001599609
 10
-32.4662517628
 20
-132.4762144332
 10
-32.4217043233
 20
-132.5511651628
 10
-32.3752557419
 20
-132.6250184089
 10
-32.327170432
 20
-132.6973537545
 10
-32.2774390585
 20
-132.7681625423
 10
-32.2260709564
 20
-132.8374534295
 10
-32.173358544
 20
-132.9048319705
 10
-32.1192941541
 20
-132.9702872585
 10
-32.0638854538
 20
-133.0338302004
 10
-32.0074478629
 20
-133.0950990714
 10
-31.9499755133
 20
-133.1540809015
 10
-31.8914742731
 20
-133.2107886607
 10
-31.8322771666
 20
-133.2648995343
 10
-31.7723802251
 20
-133.3163987111
 10
-31.7117874173
 20
-133.3653010022
 10
-31.6508436741
 20
-133.4113280263
 10
-31.5896639724
 20
-133.4543869896
 10
-31.5281333353
 20
-133.4945706859
 10
-31.4662517628
 20
-133.5318791152
  0
LWPOLYLINE
  5
24D
100
AcDbEntity
  8
RACCORDO
100
AcDbPolyline
 62
7
  6
CONTINUOUS
 90
37
 70
0
 10
-28.1074945522
 20
-138.7372223604
 10
-28.108861864
 20
-138.6649805085
 10
-28.1128947951
 20
-138.5916047738
 10
-28.1195933452
 20
-138.5170951563
 10
-28.1289803849
 20
-138.4413056912
 10
-28.1410330438
 20
-138.3643823434
 10
-28.1556827108
 20
-138.2867630067
 10
-28.1729441977
 20
-138.2084437119
 10
-28.1928026929
 20
-138.1294284283
 10
-28.2151451497
 20
-138.0501669587
 10
-28.2399857351
 20
-137.9706578988
 10
-28.2673102822
 20
-137.890902653
 10
-28.2969632431
 20
-137.811355236
 10
-28.3289578978
 20
-137.7320168333
 10
-28.3632809663
 20
-137.6528862595
 10
-28.3997370609
 20
-137.5744139736
 10
-28.4383383474
 20
-137.49660373
 10
-28.47907266
 20
-137.4194517744
 10
-28.5217081145
 20
-137.343397302
 10
-28.566255554
 20
-137.2684465725
 10
-28.6127041354
 20
-137.1945933263
 10
-28.6607894454
 20
-137.1222579807
 10
-28.7105208189
 20
-137.051449193
 10
-28.7618889209
 20
-136.9821583058
 10
-28.8146013334
 20
-136.9147797648
 10
-28.8686657233
 20
-136.8493244768
 10
-28.9240744235
 20
-136.7857815349
 10
-28.9805120144
 20
-136.7245126639
 10
-29.037984364
 20
-136.6655308338
 10
-29.0964856043
 20
-136.6088230745
 10
-29.1556827108
 20
-136.554712201
 10
-29.2155796523
 20
-136.5032130242
 10
-29.2761724601
 20
-136.4543107331
 10
-29.3371162033
 20
-136.408283709
 10
-29.3982959049
 20
-136.3652247457
 10
-29.459826542
 20
-136.3250410494
 10
-29.5217081145
 20
-136.2877326201
  0
LINE
  5
24E
100
AcDbEntity
  8
RACCORDO
100
AcDbLine
 62
7
  6
CONTINUOUS
 10
-34.2946788875
 20
-131.8989385616
 11
-34.2946788875
 21
155.4169518418
  0
LINE
  5
24F
100
AcDbEntity
  8
RACCORDO
100
AcDbLine
 62
7
  6
CONTINUOUS
 10
-32.8804653252
 20
-131.0823893749
 11
-32.8804653252
 21
156.2335010285
  0
LINE
  5
250
100
AcDbEntity
  8
RACCORDO
100
AcDbLine
 62
7
  6
CONTINUOUS
 10
-28.1074945522
 20
-141.5948683291
 11
-28.1074945522
 21
-138.7372223604
  0
LINE
  5
251
100
AcDbEntity
  8
RACCORDO
100
AcDbLine
 62
7
  6
CONTINUOUS
 10
-28.1074945522
 20
155.1104302574
 11
-28.1074945522
 21
165.3163087173
  0
LINE
  5
252
100
AcDbEntity
  8
RACCORDO
100
AcDbLine
 62
7
  6
CONTINUOUS
 10
-26.6932809898
 20
-140.7783191425
 11
-26.6932809898
 21
-137.9206731737
  0
LINE
  5
253
100
AcDbEntity
  8
RACCORDO
100
AcDbLine
 62
7
  6
CONTINUOUS
 10
-26.6932809898
 20
155.926979444
 11
-26.6932809898
 21
164.907994669
  0
LWPOLYLINE
  5
254
100
AcDbEntity
  8
RACCORDO
100
AcDbPolyline
 62
7
  6
CONTINUOUS
 90
19
 70
0
 10
-34.2946788875
 20
155.4169518418
 10
-34.2933115757
 20
155.4876147562
 10
-34.2892786447
 20
155.5563333632
 10
-34.2825800945
 20
155.6231076629
 10
-34.2731930548
 20
155.6880572098
 10
-34.261140396
 20
155.7510624494
 10
-34.246490729
 20
155.8117647178
 10
-34.229229242
 20
155.8701508801
 10
-34.2093707468
 20
155.9262340713
 10
-34.1870282901
 20
155.9796950319
 10
-34.1621877046
 20
156.0305188063
 10
-34.1348631575
 20
156.0787203501
 10
-34.1052101966
 20
156.124025271
 10
-34.0732155419
 20
156.1664170485
 10
-34.0388924734
 20
156.2059122032
 10
-34.0024363788
 20
156.2422859048
 10
-33.9638350923
 20
156.2755203504
 10
-33.9231007797
 20
156.3056333428
 10
-33.8805136454
 20
156.3324255641
  0
LWPOLYLINE
  5
255
100
AcDbEntity
  8
RACCORDO
100
AcDbPolyline
 62
7
  6
CONTINUOUS
 90
19
 70
0
 10
-26.6932809898
 20
155.926979444
 10
-26.6946483017
 20
155.8563165296
 10
-26.6986812327
 20
155.7875979226
 10
-26.7053797829
 20
155.7208236229
 10
-26.7147668225
 20
155.655874076
 10
-26.7268194814
 20
155.5928688364
 10
-26.7414691484
 20
155.5321665681
 10
-26.7587306354
 20
155.4737804057
 10
-26.7785891305
 20
155.4176972146
 10
-26.8009315873
 20
155.364236254
 10
-26.8257721728
 20
155.3134124796
 10
-26.8530967199
 20
155.2652109358
 10
-26.8827496808
 20
155.2199060148
 10
-26.9147443354
 20
155.1775142373
 10
-26.9490674039
 20
155.1380190827
 10
-26.9855234986
 20
155.1016453811
 10
-27.024124785
 20
155.0684109355
 10
-27.0648590976
 20
155.038297943
 10
-27.1074462319
 20
155.0115057218
  0
LWPOLYLINE
  5
256
100
AcDbEntity
  8
RACCORDO
100
AcDbPolyline
 62
7
  6
CONTINUOUS
 90
15
 70
0
 10
-28.1074945522
 20
165.3163087173
 10
-28.1068796106
 20
165.3398227465
 10
-28.1050891872
 20
165.362418741
 10
-28.1021232817
 20
165.3840967009
 10
-28.0979639443
 20
165.4049236134
 10
-28.092629125
 20
165.4248324912
 10
-28.0861726738
 20
165.4436223725
 10
-28.0785832307
 20
165.4612819237
 10
-28.0698721558
 20
165.4778224783
 10
-28.0601273794
 20
165.4930770746
 10
-28.0493384321
 20
165.507032688
 10
-28.0375157832
 20
165.5197023431
 10
-28.0247787718
 20
165.5309581512
 10
-28.0111181369
 20
165.5407857926
 10
-28.0039478182
 20
165.5451677547
  0
LWPOLYLINE
  5
257
100
AcDbEntity
  8
CURVE
100
AcDbPolyline
 62
250
  6
CONTINUOUS
 90
17
 70
0
 10
9.8911859699
 20
153.487496264
 10
9.9003829491
 20
153.5287957222
 10
9.9015642188
 20
153.5758983315
 10
9.8946847849
 20
153.6270099683
 10
9.8796766873
 20
153.6811397479
 10
9.8576365316
 20
153.7343325375
 10
9.8292088643
 20
153.7854996449
 10
9.7954764863
 20
153.8326921307
 10
9.7570221824
 20
153.8747896075
 10
9.7166557162
 20
153.9087161138
 10
9.6752716538
 20
153.9339747216
 10
9.6344463013
 20
153.9496033384
 10
9.5950718008
 20
153.9550083814
 10
9.5600251525
 20
153.9497949171
 10
9.5299269175
 20
153.9343488755
 10
9.5059235283
 20
153.9092585915
 10
9.4886938737
 20
153.8748049828
  0
LWPOLYLINE
  5
258
100
AcDbEntity
  8
RACCORDO
100
AcDbPolyline
 62
7
  6
CONTINUOUS
 90
28
 70
0
 10
1.4849242405
 20
-157.0480616866
 10
1.485539182
 20
-157.0722858349
 10
1.4873296055
 20
-157.0969493656
 10
1.4902955109
 20
-157.1220522787
 10
1.4944548483
 20
-157.1476822898
 10
1.4997896677
 20
-157.1737516833
 10
1.5062461189
 20
-157.1999973125
 10
1.513835562
 20
-157.2264209624
 10
1.5225466369
 20
-157.2530208479
 10
1.5322914132
 20
-157.2795284677
 10
1.5430803606
 20
-157.3059428871
 10
1.5549030094
 20
-157.3322650407
 10
1.5676400209
 20
-157.3582292303
 10
1.5813006558
 20
-157.3838318305
 10
1.5958756533
 20
-157.4090764668
 10
1.6112178922
 20
-157.4337083175
 10
1.6273351433
 20
-157.4577211765
 10
1.6442196356
 20
-157.4811212499
 10
1.6617009358
 20
-157.5036723355
 10
1.6797850884
 20
-157.5253658346
 10
1.6984660488
 20
-157.5462103458
 10
1.7175552498
 20
-157.5659954629
 10
1.7370568261
 20
-157.5847104561
 10
1.756966643
 20
-157.6023660552
 10
1.7770837291
 20
-157.618784043
 10
1.7973410939
 20
-157.6339050139
 10
1.8178057279
 20
-157.6477883734
 10
1.8384776311
 20
-157.6604341217
  0
LWPOLYLINE
  5
259
100
AcDbEntity
  8
RACCORDO
100
AcDbPolyline
 62
7
  6
CONTINUOUS
 90
31
 70
0
 10
0.0707106781
 20
-156.6399054581
 10
0.0697195648
 20
-156.5964090612
 10
0.0668176788
 20
-156.5521588516
 10
0.0620050203
 20
-156.5071548294
 10
0.0552579666
 20
-156.461269742
 10
0.0466001402
 20
-156.4146308419
 10
0.0361024089
 20
-156.3676198862
 10
0.023749671
 20
-156.3202338211
 10
0.0095570281
 20
-156.2724757003
 10
-0.0063593477
 20
-156.2247364421
 10
-0.0240136044
 20
-156.1770162013
 10
-0.043391594
 20
-156.1293148232
 10
-0.0643347003
 20
-156.0820227615
 10
-0.0868557693
 20
-156.0351433758
 10
-0.1109419551
 20
-155.9886733066
 10
-0.1363961031
 20
-155.9429929289
 10
-0.1632294411
 20
-155.8981087244
 10
-0.1914307413
 20
-155.8540142114
 10
-0.2207691653
 20
-155.8110703202
 10
-0.2512540464
 20
-155.769286495
 10
-0.2828760514
 20
-155.7286532915
 10
-0.3153763421
 20
-155.689503308
 10
-0.3487621274
 20
-155.6518487183
 10
-0.3830261984
 20
-155.6156773487
 10
-0.4178880908
 20
-155.5812852753
 10
-0.4533527114
 20
-155.5486871024
 10
-0.4894151534
 20
-155.5178682257
 10
-0.525780232
 20
-155.4890809095
 10
-0.5623495524
 20
-155.4624092418
 10
-0.5992215094
 20
-155.4377691346
 10
-0.6363961031
 20
-155.4151605879
  0
LWPOLYLINE
  5
25A
100
AcDbEntity
  8
RACCORDO
100
AcDbPolyline
 62
7
  6
CONTINUOUS
 90
31
 70
0
 10
-4.4547727215
 20
150.8430532937
 10
-4.4537816081
 20
150.7995568968
 10
-4.4508797222
 20
150.7553066873
 10
-4.4460670636
 20
150.710302665
 10
-4.4393200099
 20
150.6644175776
 10
-4.4306621836
 20
150.6177786776
 10
-4.4201644523
 20
150.5707677218
 10
-4.4078117144
 20
150.5233816567
 10
-4.3936190714
 20
150.4756235359
 10
-4.3777026956
 20
150.4278842777
 10
-4.3600484389
 20
150.3801640369
 10
-4.3406704494
 20
150.3324626588
 10
-4.3197273431
 20
150.2851705971
 10
-4.297206274
 20
150.2382912114
 10
-4.2731200882
 20
150.1918211422
 10
-4.2476659403
 20
150.1461407645
 10
-4.2208326023
 20
150.10125656
 10
-4.1926313021
 20
150.057162047
 10
-4.1632928781
 20
150.0142181559
 10
-4.1328079969
 20
149.9724343306
 10
-4.101185992
 20
149.9318011271
 10
-4.0686857012
 20
149.8926511436
 10
-4.035299916
 20
149.854996554
 10
-4.0010358449
 20
149.8188251843
 10
-3.9661739525
 20
149.784433111
 10
-3.9307093319
 20
149.751834938
 10
-3.89464689
 20
149.7210160613
 10
-3.8582818113
 20
149.6922287451
 10
-3.821712491
 20
149.6655570775
 10
-3.784840534
 20
149.6409169703
 10
-3.7476659403
 20
149.6183084236
  0
LINE
  5
25B
100
AcDbEntity
  8
CURVE
100
AcDbLine
 62
250
  6
CONTINUOUS
 10
-6.576093065
 20
164.0291666287
 11
-6.576093065
 21
157.4974044143
  0
LINE
  5
25C
100
AcDbEntity
  8
CURVE
100
AcDbLine
 62
250
  6
CONTINUOUS
 10
-6.1518289963
 20
163.7842018727
 11
-6.1518289963
 21
157.2524396583
  0
LINE
  5
25D
100
AcDbEntity
  8
RACCORDO
100
AcDbLine
 62
7
  6
CONTINUOUS
 10
-4.4547727215
 20
151.6595235705
 11
-4.4547727215
 21
150.8430532937
  0
LINE
  5
25E
100
AcDbEntity
  8
RACCORDO
100
AcDbLine
 62
7
  6
CONTINUOUS
 10
-1.4849242405
 20
-155.7417013527
 11
-1.4849242405
 21
-156.9664067679
  0
LINE
  5
25F
100
AcDbEntity
  8
CURVE
100
AcDbLine
 62
250
  6
CONTINUOUS
 10
-0.7071067812
 20
161.7772655606
 11
-0.7071067812
 21
156.0870956282
  0
LINE
  5
260
100
AcDbEntity
  8
CURVE
100
AcDbLine
 62
250
  6
CONTINUOUS
 10
-0.2828427125
 20
155.9216278035
 11
-0.2828427125
 21
161.5323008046
  0
LINE
  5
261
100
AcDbEntity
  8
RACCORDO
100
AcDbLine
 62
7
  6
CONTINUOUS
 10
0.0707106781
 20
-157.8646108732
 11
0.0707106781
 21
-156.6399054581
  0
LINE
  5
262
100
AcDbEntity
  8
RACCORDO
100
AcDbLine
 62
7
  6
CONTINUOUS
 10
1.4849242405
 20
-157.0480616866
 11
1.4849242405
 21
-155.8233562714
  0
LWPOLYLINE
  5
263
100
AcDbEntity
  8
RACCORDO
100
AcDbPolyline
 62
7
  6
CONTINUOUS
 90
15
 70
0
 10
3.0405591591
 20
147.3318128812
 10
3.0411741006
 20
147.3553269104
 10
3.0429645241
 20
147.3779229049
 10
3.0459304295
 20
147.3996008648
 10
3.050089767
 20
147.4204277773
 10
3.0554245863
 20
147.4403366552
 10
3.0618810375
 20
147.4591265364
 10
3.0694704806
 20
147.4767860876
 10
3.0781815555
 20
147.4933266423
 10
3.0879263318
 20
147.5085812385
 10
3.0987152792
 20
147.522536852
 10
3.110537928
 20
147.535206507
 10
3.1232749395
 20
147.5464623151
 10
3.1369355744
 20
147.5562899565
 10
3.1441058931
 20
147.5606719186
  0
LWPOLYLINE
  5
264
100
AcDbEntity
  8
CURVE
100
AcDbPolyline
 62
250
  6
CONTINUOUS
 90
17
 70
0
 10
-6.576093065
 20
157.4974044143
 10
-6.5720530434
 20
157.4474957841
 10
-6.5600868616
 20
157.3948228424
 10
-6.5406503079
 20
157.3413918852
 10
-6.5139610307
 20
157.2883306556
 10
-6.4819691513
 20
157.2395162103
 10
-6.4454823793
 20
157.1958593309
 10
-6.4058904844
 20
157.1590228942
 10
-6.3639610307
 20
157.1299809533
 10
-6.3227577026
 20
157.1108555329
 10
-6.2831237965
 20
157.1017883237
 10
-6.2465689555
 20
157.1031246926
 10
-6.2139610307
 20
157.1151144155
 10
-6.1876826047
 20
157.1368814319
 10
-6.1681185692
 20
157.167715341
 10
-6.1560141122
 20
157.2064416888
 10
-6.1518289963
 20
157.2524396798
  0
LWPOLYLINE
  5
265
100
AcDbEntity
  8
CURVE
100
AcDbPolyline
 62
250
  6
CONTINUOUS
 90
17
 70
0
 10
-6.1518289963
 20
163.7842018727
 10
-6.155869018
 20
163.8341105029
 10
-6.1678351997
 20
163.8867834446
 10
-6.1872717534
 20
163.9402144018
 10
-6.2139610307
 20
163.9932756314
 10
-6.2459529101
 20
164.0420900767
 10
-6.2824396821
 20
164.0857469562
 10
-6.322031577
 20
164.1225833928
 10
-6.3639610307
 20
164.1516253337
 10
-6.4051643587
 20
164.1707507541
 10
-6.4447982648
 20
164.1798179634
 10
-6.4813531058
 20
164.1784815944
 10
-6.5139610307
 20
164.1664918715
 10
-6.5402394567
 20
164.1447248551
 10
-6.5598034922
 20
164.113890946
 10
-6.5719079492
 20
164.0751645983
 10
-6.576093065
 20
164.0291666073
  0
LWPOLYLINE
  5
266
100
AcDbEntity
  8
CURVE
100
AcDbPolyline
 62
250
  6
CONTINUOUS
 90
17
 70
0
 10
-0.2828427125
 20
161.5323008046
 10
-0.2868827341
 20
161.5822094348
 10
-0.2988489159
 20
161.6348823765
 10
-0.3182854696
 20
161.6883133338
 10
-0.3449747468
 20
161.7413745634
 10
-0.3769666262
 20
161.7901890086
 10
-0.4134533982
 20
161.8338458881
 10
-0.4530452931
 20
161.8706823247
 10
-0.4949747468
 20
161.8997242657
 10
-0.5361780749
 20
161.918849686
 10
-0.575811981
 20
161.9279168953
 10
-0.612366822
 20
161.9265805263
 10
-0.6449747468
 20
161.9145908035
 10
-0.6712531728
 20
161.892823787
 10
-0.6908172083
 20
161.8619898779
 10
-0.7029216653
 20
161.8232635302
 10
-0.7071067812
 20
161.7772655392
  0
LINE
  5
267
100
AcDbEntity
  8
RACCORDO
100
AcDbLine
 62
7
  6
CONTINUOUS
 10
3.0405591591
 20
146.5153426044
 11
3.0405591591
 21
147.3318128812
  0
LINE
  5
268
100
AcDbEntity
  8
CURVE
100
AcDbLine
 62
250
  6
CONTINUOUS
 10
3.4376268358
 20
159.3841483158
 11
3.4376268358
 21
153.7734753618
  0
LINE
  5
269
100
AcDbEntity
  8
CURVE
100
AcDbLine
 62
250
  6
CONTINUOUS
 10
3.8618909046
 20
153.4490136274
 11
3.8618909046
 21
159.1391835599
  0
LINE
  5
26A
100
AcDbEntity
  8
CURVE
100
AcDbLine
 62
250
  6
CONTINUOUS
 10
5.3848903298
 20
158.2598227794
 11
5.3848903298
 21
150.8362235915
  0
LINE
  5
26B
100
AcDbEntity
  8
CURVE
100
AcDbLine
 62
250
  6
CONTINUOUS
 10
5.8091543985
 20
150.5912588355
 11
5.8091543985
 21
158.0148580234
  0
LWPOLYLINE
  5
26C
100
AcDbEntity
  8
RACCORDO
100
AcDbPolyline
 62
7
  6
CONTINUOUS
 90
15
 70
0
 10
-1.4849242405
 20
-156.9664067679
 10
-1.485539182
 20
-156.9899207971
 10
-1.4873296055
 20
-157.0125167917
 10
-1.4902955109
 20
-157.0341947515
 10
-1.4944548483
 20
-157.055021664
 10
-1.4997896677
 20
-157.0749305419
 10
-1.5062461189
 20
-157.0937204231
 10
-1.513835562
 20
-157.1113799744
 10
-1.5225466369
 20
-157.127920529
 10
-1.5322914132
 20
-157.1431751252
 10
-1.5430803606
 20
-157.1571307387
 10
-1.5549030094
 20
-157.1698003937
 10
-1.5676400209
 20
-157.1810562018
 10
-1.5813006558
 20
-157.1908838432
 10
-1.5884709745
 20
-157.1952658053
  0
LWPOLYLINE
  5
26D
100
AcDbEntity
  8
CURVE
100
AcDbPolyline
 62
250
  6
CONTINUOUS
 90
17
 70
0
 10
3.8618909046
 20
159.1391835599
 10
3.8578508829
 20
159.1890921901
 10
3.8458847012
 20
159.2417651318
 10
3.8264481475
 20
159.295196089
 10
3.7997588702
 20
159.3482573186
 10
3.7677669908
 20
159.3970717639
 10
3.7312802188
 20
159.4407286433
 10
3.6916883239
 20
159.47756508
 10
3.6497588702
 20
159.5066070209
 10
3.6085555421
 20
159.5257324412
 10
3.568921636
 20
159.5347996505
 10
3.5323667951
 20
159.5334632816
 10
3.4997588702
 20
159.5214735587
 10
3.4734804442
 20
159.4997065423
 10
3.4539164087
 20
159.4688726332
 10
3.4418119517
 20
159.4301462854
 10
3.4376268358
 20
159.3841482944
  0
LWPOLYLINE
  5
26E
100
AcDbEntity
  8
CURVE
100
AcDbPolyline
 62
250
  6
CONTINUOUS
 90
17
 70
0
 10
5.3848903298
 20
150.8362235915
 10
5.3889303515
 20
150.7863149613
 10
5.4008965332
 20
150.7336420196
 10
5.4203330869
 20
150.6802110623
 10
5.4470223642
 20
150.6271498328
 10
5.4790142436
 20
150.5783353875
 10
5.5155010156
 20
150.534678508
 10
5.5550929105
 20
150.4978420714
 10
5.5970223642
 20
150.4688001305
 10
5.6382256922
 20
150.4496747101
 10
5.6778595984
 20
150.4406075008
 10
5.7144144393
 20
150.4419438698
 10
5.7470223642
 20
150.4539335926
 10
5.7733007902
 20
150.4757006091
 10
5.7928648257
 20
150.5065345182
 10
5.8049692827
 20
150.5452608659
 10
5.8091543985
 20
150.5912588569
  0
LWPOLYLINE
  5
26F
100
AcDbEntity
  8
CURVE
100
AcDbPolyline
 62
250
  6
CONTINUOUS
 90
17
 70
0
 10
5.8091543985
 20
158.0148580234
 10
5.8051143769
 20
158.0647666536
 10
5.7931481951
 20
158.1174395953
 10
5.7737116414
 20
158.1708705525
 10
5.7470223642
 20
158.2239317821
 10
5.7150304848
 20
158.2727462274
 10
5.6785437128
 20
158.3164031068
 10
5.6389518179
 20
158.3532395435
 10
5.5970223642
 20
158.3822814844
 10
5.5558190361
 20
158.4014069048
 10
5.51618513
 20
158.410474114
 10
5.479630289
 20
158.4091377451
 10
5.4470223642
 20
158.3971480222
 10
5.4207439382
 20
158.3753810058
 10
5.4011799027
 20
158.3445470967
 10
5.3890754457
 20
158.3058207489
 10
5.3848903298
 20
158.259822758
  0
LINE
  5
270
100
AcDbEntity
  8
RACCORDO
100
AcDbLine
 62
7
  6
CONTINUOUS
 10
26.6932809898
 20
133.6750277344
 11
26.6932809898
 21
123.4691492745
  0
LINE
  5
271
100
AcDbEntity
  8
RACCORDO
100
AcDbLine
 62
7
  6
CONTINUOUS
 10
26.6932809898
 20
-170.3785033433
 11
26.6932809898
 21
-173.236149312
  0
LWPOLYLINE
  5
272
100
AcDbEntity
  8
RACCORDO
100
AcDbPolyline
 62
7
  6
CONTINUOUS
 90
37
 70
0
 10
26.6932809898
 20
123.4691492745
 10
26.6946483017
 20
123.3969074226
 10
26.6986812327
 20
123.3235316879
 10
26.7053797829
 20
123.2490220704
 10
26.7147668225
 20
123.1732326054
 10
26.7268194814
 20
123.0963092575
 10
26.7414691484
 20
123.0186899209
 10
26.7587306354
 20
122.940370626
 10
26.7785891305
 20
122.8613553424
 10
26.8009315873
 20
122.7820938728
 10
26.8257721728
 20
122.702584813
 10
26.8530967199
 20
122.6228295671
 10
26.8827496808
 20
122.5432821501
 10
26.9147443354
 20
122.4639437474
 10
26.9490674039
 20
122.3848131736
 10
26.9855234986
 20
122.3063408877
 10
27.024124785
 20
122.2285306441
 10
27.0648590976
 20
122.1513786885
 10
27.1074945522
 20
122.0753242162
 10
27.1520419916
 20
122.0003734866
 10
27.198490573
 20
121.9265202404
 10
27.246575883
 20
121.8541848949
 10
27.2963072565
 20
121.7833761071
 10
27.3476753586
 20
121.7140852199
 10
27.400387771
 20
121.6467066789
 10
27.4544521609
 20
121.5812513909
 10
27.5098608612
 20
121.517708449
 10
27.566298452
 20
121.456439578
 10
27.6237708017
 20
121.3974577479
 10
27.6822720419
 20
121.3407499887
 10
27.7414691484
 20
121.2866391151
 10
27.8013660899
 20
121.2351399383
 10
27.8619588977
 20
121.1862376472
 10
27.9229026409
 20
121.1402106231
 10
27.9840823426
 20
121.0971516598
 10
28.0456129797
 20
121.0569679635
 10
28.1074945522
 20
121.0196595342
  0
LINE
  5
273
100
AcDbEntity
  8
RACCORDO
100
AcDbLine
 62
7
  6
CONTINUOUS
 10
32.8804653252
 20
116.6308654757
 11
32.8804653252
 21
-170.6850249277
  0
LWPOLYLINE
  5
274
100
AcDbEntity
  8
RACCORDO
100
AcDbPolyline
 62
7
  6
CONTINUOUS
 90
19
 70
0
 10
32.8804653252
 20
-170.6850249277
 10
32.8790980133
 20
-170.7556878421
 10
32.8750650823
 20
-170.8244064491
 10
32.8683665321
 20
-170.8911807488
 10
32.8589794924
 20
-170.9561302957
 10
32.8469268336
 20
-171.0191355353
 10
32.8322771666
 20
-171.0798378037
 10
32.8150156796
 20
-171.138223966
 10
32.7951571844
 20
-171.1943071572
 10
32.7728147277
 20
-171.2477681178
 10
32.7479741422
 20
-171.2985918921
 10
32.7206495951
 20
-171.3467934359
 10
32.6909966342
 20
-171.3920983569
 10
32.6590019795
 20
-171.4344901344
 10
32.6246789111
 20
-171.4739852891
 10
32.5882228164
 20
-171.5103589907
 10
32.54962153
 20
-171.5435934362
 10
32.5088872173
 20
-171.5737064287
 10
32.4663000831
 20
-171.60049865
  0
LWPOLYLINE
  5
275
100
AcDbEntity
  8
RACCORDO
100
AcDbPolyline
 62
7
  6
CONTINUOUS
 90
15
 70
0
 10
26.6932809898
 20
-173.236149312
 10
26.6926660483
 20
-173.2596633412
 10
26.6908756248
 20
-173.2822593358
 10
26.6879097194
 20
-173.3039372956
 10
26.6837503819
 20
-173.3247642082
 10
26.6784155626
 20
-173.344673086
 10
26.6719591114
 20
-173.3634629672
 10
26.6643696683
 20
-173.3811225185
 10
26.6556585934
 20
-173.3976630731
 10
26.645913817
 20
-173.4129176693
 10
26.6351248697
 20
-173.4268732828
 10
26.6233022209
 20
-173.4395429378
 10
26.6105652094
 20
-173.4507987459
 10
26.5969045745
 20
-173.4606263873
 10
26.5897342558
 20
-173.4650083494
  0
LINE
  5
276
100
AcDbEntity
  8
CURVE
100
AcDbLine
 62
250
  6
CONTINUOUS
 10
-0.7071067812
 20
156.0870956282
 11
-0.5167318715
 21
155.3177187334
  0
LINE
  5
277
100
AcDbEntity
  8
CURVE
100
AcDbLine
 62
250
  6
CONTINUOUS
 10
-0.1237743829
 20
155.2787726204
 11
-0.2828427125
 21
155.9216278035
  0
LWPOLYLINE
  5
278
100
AcDbEntity
  8
RACCORDO
100
AcDbPolyline
 62
7
  6
CONTINUOUS
 90
31
 70
0
 10
41.6485894119
 20
143.3289542857
 10
41.6475982985
 20
143.3724506825
 10
41.6446964126
 20
143.4167008921
 10
41.639883754
 20
143.4617049144
 10
41.6331367003
 20
143.5075900017
 10
41.624478874
 20
143.5542289018
 10
41.6139811427
 20
143.6012398575
 10
41.6016284048
 20
143.6486259226
 10
41.5874357618
 20
143.6963840435
 10
41.571519386
 20
143.7441233017
 10
41.5538651293
 20
143.7918435424
 10
41.5344871398
 20
143.8395449206
 10
41.5135440335
 20
143.8868369823
 10
41.4910229644
 20
143.9337163679
 10
41.4669367786
 20
143.9801864371
 10
41.4414826307
 20
144.0258668148
 10
41.4146492927
 20
144.0707510193
 10
41.3864479925
 20
144.1148455323
 10
41.3571095685
 20
144.1577894235
 10
41.3266246874
 20
144.1995732488
 10
41.2950026824
 20
144.2402064522
 10
41.2625023917
 20
144.2793564358
 10
41.2291166064
 20
144.3170110254
 10
41.1948525353
 20
144.353182395
 10
41.1599906429
 20
144.3875744684
 10
41.1245260223
 20
144.4201726414
 10
41.0884635804
 20
144.450991518
 10
41.0520985017
 20
144.4797788342
 10
41.0155291814
 20
144.5064505019
 10
40.9786572244
 20
144.5310906091
 10
40.9414826307
 20
144.5536991558
  0
LINE
  5
279
100
AcDbEntity
  8
RACCORDO
100
AcDbLine
 62
7
  6
CONTINUOUS
 10
41.6485894119
 20
-193.056799753
 11
41.6485894119
 21
143.3289542857
  0
LINE
  5
27A
100
AcDbEntity
  8
RACCORDO
100
AcDbLine
 62
7
  6
CONTINUOUS
 10
43.0628029743
 20
-192.2402505663
 11
43.0628029743
 21
144.1455034723
  0
LWPOLYLINE
  5
27B
100
AcDbEntity
  8
RACCORDO
100
AcDbPolyline
 62
7
  6
CONTINUOUS
 90
16
 70
0
 10
43.0628029743
 20
-192.2402505663
 10
43.0618118609
 20
-192.2826024503
 10
43.058909975
 20
-192.3235016348
 10
43.0540973164
 20
-192.3629481196
 10
43.0473502627
 20
-192.4010418784
 10
43.0386924364
 20
-192.4376829376
 10
43.028194705
 20
-192.4725713764
 10
43.0158419671
 20
-192.5056928094
 10
43.0016493242
 20
-192.5370616219
 10
42.9857329484
 20
-192.5664210483
 10
42.9680786917
 20
-192.593754596
 10
42.9487007022
 20
-192.6190787575
 10
42.9277575959
 20
-192.642186245
 10
42.9052365268
 20
-192.6630588646
 10
42.881150341
 20
-192.6817148102
 10
42.8557203532
 20
-192.6979874275
  0
LINE
  5
27C
100
AcDbEntity
  8
CURVE
100
AcDbLine
 62
250
  6
CONTINUOUS
 10
-0.5167318715
 20
155.3177187334
 11
-0.3263569617
 21
154.7681608313
  0
LINE
  5
27D
100
AcDbEntity
  8
CURVE
100
AcDbLine
 62
250
  6
CONTINUOUS
 10
0.0223263284
 20
154.8570216631
 11
-0.1237743829
 21
155.2787726204
  0
LINE
  5
27E
100
AcDbEntity
  8
CURVE
100
AcDbLine
 62
250
  6
CONTINUOUS
 10
9.3926925105
 20
155.0468077981
 11
9.4886938931
 21
154.6588310025
  0
LINE
  5
27F
100
AcDbEntity
  8
CURVE
100
AcDbLine
 62
250
  6
CONTINUOUS
 10
9.8911859954
 20
154.5813518788
 11
9.7635126818
 21
155.0973265631
  0
LWPOLYLINE
  5
280
100
AcDbEntity
  8
CURVE
100
AcDbPolyline
 62
250
  6
CONTINUOUS
 90
11
 70
0
 10
-6.1807138476
 20
167.5983908129
 10
-6.2064401366
 20
167.6539062674
 10
-6.2394227621
 20
167.7071807241
 10
-6.2778483076
 20
167.7549317583
 10
-6.3200373923
 20
167.7950724208
 10
-6.3634056709
 20
167.8254200821
 10
-6.4075223857
 20
167.8456733124
 10
-6.4497352602
 20
167.8543503296
 10
-6.4881993893
 20
167.8510719065
 10
-6.5207358316
 20
167.8363267498
 10
-6.5472082253
 20
167.8100000505
  0
LWPOLYLINE
  5
281
100
AcDbEntity
  8
CURVE
100
AcDbPolyline
 62
250
  6
CONTINUOUS
 90
17
 70
0
 10
-5.0626672617
 20
163.7667618431
 10
-5.0384201832
 20
163.7140141072
 10
-5.00811684
 20
163.6639455259
 10
-4.9729114772
 20
163.6184631959
 10
-4.9334293079
 20
163.5786671322
 10
-4.8925551994
 20
163.5474651376
 10
-4.8511807783
 20
163.5252860961
 10
-4.8108819834
 20
163.5129748005
 10
-4.7725534801
 20
163.5110599209
 10
-4.7389958401
 20
163.5196813729
 10
-4.7107869158
 20
163.5383840529
 10
-4.6890011762
 20
163.5664555817
 10
-4.6742786563
 20
163.6035435966
 10
-4.6676950953
 20
163.6469381655
 10
-4.669176073
 20
163.6955667907
 10
-4.6786651796
 20
163.7475772231
 10
-4.6961729049
 20
163.8019425003
  0
LINE
  5
282
100
AcDbEntity
  8
CURVE
100
AcDbLine
 62
250
  6
CONTINUOUS
 10
-6.3639610307
 20
167.094588238
 11
-5.0626672617
 21
163.7667618431
  0
LINE
  5
283
100
AcDbEntity
  8
CURVE
100
AcDbLine
 62
250
  6
CONTINUOUS
 10
-4.6961728956
 20
163.8019424764
 11
-6.1807138476
 21
167.5983908129
  0
LWPOLYLINE
  5
284
100
AcDbEntity
  8
CURVE
100
AcDbPolyline
 62
250
  6
CONTINUOUS
 90
17
 70
0
 10
9.4886938842
 20
154.6588310042
 10
9.5055562568
 20
154.6054355292
 10
9.5294417466
 20
154.5525982933
 10
9.5594405627
 20
154.5023318504
 10
9.5950717865
 20
154.4557850576
 10
9.6337319298
 20
154.4163589772
 10
9.6745330188
 20
154.384693003
 10
9.7159209526
 20
154.3619932823
 10
9.7570221663
 20
154.3489875622
 10
9.7948334927
 20
154.3466261396
 10
9.8286494564
 20
154.3546809255
 10
9.8571820176
 20
154.3728451154
 10
9.8796766877
 20
154.4009990425
 10
9.894489835
 20
154.4370855671
 10
9.9015117404
 20
154.4801427286
 10
9.9004749416
 20
154.5285304931
 10
9.8911859896
 20
154.5813519025
  0
LINE
  5
285
100
AcDbEntity
  8
CURVE
100
AcDbLine
 62
250
  6
CONTINUOUS
 10
-0.3263569617
 20
154.7681608313
 11
0.0543928577
 21
154.1086827998
  0
LINE
  5
286
100
AcDbEntity
  8
CURVE
100
AcDbLine
 62
250
  6
CONTINUOUS
 10
0.3057095645
 20
154.3661875006
 11
0.0223263284
 21
154.8570216631
  0
LINE
  5
287
100
AcDbEntity
  8
CURVE
100
AcDbLine
 62
250
  6
CONTINUOUS
 10
9.1314459451
 20
155.4992996546
 11
9.3926925105
 21
155.0468077981
  0
LINE
  5
288
100
AcDbEntity
  8
CURVE
100
AcDbLine
 62
250
  6
CONTINUOUS
 10
9.7635126818
 20
155.0973265631
 11
9.3827626042
 21
155.7568043605
  0
LINE
  5
289
100
AcDbEntity
  8
RACCORDO
100
AcDbLine
 62
250
  6
CONTINUOUS
 10
-34.2946788875
 20
-131.8989385616
 11
-32.8804653252
 21
-131.0823893749
  0
LINE
  5
28A
100
AcDbEntity
  8
RACCORDO
100
AcDbLine
 62
250
  6
CONTINUOUS
 10
-32.8804653252
 20
-134.3484283018
 11
-31.4662517628
 21
-133.5318791152
  0
LINE
  5
28B
100
AcDbEntity
  8
RACCORDO
100
AcDbLine
 62
250
  6
CONTINUOUS
 10
-28.1074945522
 20
-135.4711834335
 11
-29.5217081145
 21
-136.2877326201
  0
LINE
  5
28C
100
AcDbEntity
  8
RACCORDO
100
AcDbLine
 62
250
  6
CONTINUOUS
 10
-26.6932809898
 20
-137.9206731737
 11
-28.1074945522
 21
-138.7372223604
  0
LINE
  5
28D
100
AcDbEntity
  8
CURVE
100
AcDbLine
 62
250
  6
CONTINUOUS
 10
0.0543928577
 20
154.1086827998
 11
0.4351426402
 21
153.6690237184
  0
LINE
  5
28E
100
AcDbEntity
  8
CURVE
100
AcDbLine
 62
250
  6
CONTINUOUS
 10
0.5832236981
 20
154.0457366045
 11
0.3057095645
 21
154.3661875006
  0
LINE
  5
28F
100
AcDbEntity
  8
RACCORDO
100
AcDbLine
 62
250
  6
CONTINUOUS
 10
-28.1074945522
 20
-141.5948683291
 11
-26.6932809898
 21
-140.7783191425
  0
LINE
  5
290
100
AcDbEntity
  8
RACCORDO
100
AcDbLine
 62
250
  6
CONTINUOUS
 10
-27.7539411616
 20
-142.2072407642
 11
-26.3397275992
 21
-141.3906915775
  0
LINE
  5
291
100
AcDbEntity
  8
RACCORDO
100
AcDbLine
 62
7
  6
CONTINUOUS
 10
-32.8804653252
 20
156.2333432088
 11
-29.5217081145
 21
154.2940388904
  0
LINE
  5
292
100
AcDbEntity
  8
RACCORDO
100
AcDbLine
 62
7
  6
CONTINUOUS
 10
28.1074945522
 20
121.0196595342
 11
31.4662517628
 21
119.0803552159
  0
LWPOLYLINE
  5
293
100
AcDbEntity
  8
RACCORDO
100
AcDbPolyline
 62
7
  6
CONTINUOUS
 90
37
 70
0
 10
31.4662517628
 20
119.0803552159
 10
31.5281333353
 20
119.0430467866
 10
31.5896639724
 20
119.0028630903
 10
31.6508436741
 20
118.959804127
 10
31.7117874173
 20
118.9137771029
 10
31.7723802251
 20
118.8648748118
 10
31.8322771666
 20
118.8133756351
 10
31.8914742731
 20
118.7592647615
 10
31.9499755133
 20
118.7025570023
 10
32.0074478629
 20
118.6435751722
 10
32.0638854538
 20
118.5823063012
 10
32.1192941541
 20
118.5187633593
 10
32.173358544
 20
118.4533080713
 10
32.2260709564
 20
118.3859295302
 10
32.2774390585
 20
118.3166386431
 10
32.327170432
 20
118.2458298553
 10
32.3752557419
 20
118.1734945097
 10
32.4217043233
 20
118.0996412635
 10
32.4662517628
 20
118.024690534
 10
32.5088872173
 20
117.9486360617
 10
32.54962153
 20
117.871484106
 10
32.5882228164
 20
117.7936738625
 10
32.6246789111
 20
117.7152015766
 10
32.6590019795
 20
117.6360710028
 10
32.6909966342
 20
117.5567326001
 10
32.7206495951
 20
117.4771851831
 10
32.7479741422
 20
117.3974299372
 10
32.7728147277
 20
117.3179208774
 10
32.7951571844
 20
117.2386594077
 10
32.8150156796
 20
117.1596441242
 10
32.8322771666
 20
117.0813248293
 10
32.8469268336
 20
117.0037054927
 10
32.8589794924
 20
116.9267821448
 10
32.8683665321
 20
116.8509926798
 10
32.8750650823
 20
116.7764830622
 10
32.8790980133
 20
116.7031073275
 10
32.8804653252
 20
116.6308654757
  0
LINE
  5
294
100
AcDbEntity
  8
CURVE
100
AcDbLine
 62
250
  6
CONTINUOUS
 10
0.4351426402
 20
153.6690237184
 11
1.0486454826
 21
153.1376975561
  0
LINE
  5
295
100
AcDbEntity
  8
CURVE
100
AcDbLine
 62
250
  6
CONTINUOUS
 10
1.151544633
 20
153.5535403824
 11
0.5832236981
 21
154.0457366045
  0
LINE
  5
296
100
AcDbEntity
  8
CURVE
100
AcDbLine
 62
250
  6
CONTINUOUS
 10
8.7706931116
 20
155.9158681777
 11
9.1314459451
 21
155.4992996546
  0
LINE
  5
297
100
AcDbEntity
  8
CURVE
100
AcDbLine
 62
250
  6
CONTINUOUS
 10
9.3827626042
 20
155.7568043605
 11
9.0020131166
 21
156.1964634206
  0
LWPOLYLINE
  5
298
100
AcDbEntity
  8
RACCORDO
100
AcDbPolyline
 62
7
  6
CONTINUOUS
 90
16
 70
0
 10
-1.2778416194
 20
-155.2839644916
 10
-1.3032716072
 20
-155.3002371088
 10
-1.327357793
 20
-155.3188930545
 10
-1.3498788621
 20
-155.3397656741
 10
-1.3708219684
 20
-155.3628731616
 10
-1.390199958
 20
-155.3881973231
 10
-1.4078542146
 20
-155.4155308708
 10
-1.4237705904
 20
-155.4448902971
 10
-1.4379632334
 20
-155.4762591097
 10
-1.4503159713
 20
-155.5093805427
 10
-1.4608137026
 20
-155.5442689814
 10
-1.4694715289
 20
-155.5809100407
 10
-1.4762185826
 20
-155.6190037995
 10
-1.4810312412
 20
-155.6584502843
 10
-1.4839331272
 20
-155.6993494687
 10
-1.4849242405
 20
-155.7417013527
  0
LINE
  5
299
100
AcDbEntity
  8
RACCORDO
100
AcDbLine
 62
7
  6
CONTINUOUS
 10
0.1363719429
 20
-154.4674153049
 11
-1.2778416194
 21
-155.2839644916
  0
LWPOLYLINE
  5
29A
100
AcDbEntity
  8
RACCORDO
100
AcDbPolyline
 62
7
  6
CONTINUOUS
 90
16
 70
0
 10
2.3334523779
 20
146.1071469209
 10
2.3706269716
 20
146.0868271787
 10
2.4074989286
 20
146.0688884742
 10
2.444068249
 20
146.0533308073
 10
2.4804333276
 20
146.0401246422
 10
2.5164957696
 20
146.0292995148
 10
2.5519603901
 20
146.0209440329
 10
2.5868222826
 20
146.0150784667
 10
2.6210863536
 20
146.011682546
 10
2.6544721389
 20
146.0107840676
 10
2.6869724296
 20
146.0124035301
 10
2.7185944346
 20
146.0165204349
 10
2.7490793157
 20
146.0231010836
 10
2.7784177397
 20
146.0321656981
 10
2.8066190399
 20
146.0436940565
 10
2.833476538
 20
146.0576057433
  0
LWPOLYLINE
  5
29B
100
AcDbEntity
  8
RACCORDO
100
AcDbPolyline
 62
7
  6
CONTINUOUS
 90
19
 70
0
 10
-29.5217081145
 20
154.2940388904
 10
-29.459826542
 20
154.2598880309
 10
-29.3982959049
 20
154.2290176898
 10
-29.3371162033
 20
154.2014278672
 10
-29.2761724601
 20
154.1770785842
 10
-29.2155796523
 20
154.1560098197
 10
-29.1556827108
 20
154.1383415098
 10
-29.0964856043
 20
154.1240930486
 10
-29.037984364
 20
154.113245042
 10
-28.9805120144
 20
154.1058592433
 10
-28.9240744235
 20
154.1019553991
 10
-28.8686657233
 20
154.1015137627
 10
-28.8146013334
 20
154.1045368484
 10
-28.7618889209
 20
154.1110444169
 10
-28.7105208189
 20
154.1210167074
 10
-28.6607894454
 20
154.1343969516
 10
-28.6127041354
 20
154.1512045866
 10
-28.566255554
 20
154.1714201752
 10
-28.5216597943
 20
154.1949565351
  0
LINE
  5
29C
100
AcDbEntity
  8
RACCORDO
100
AcDbLine
 62
7
  6
CONTINUOUS
 10
-3.7476659403
 20
149.6183084236
 11
2.3334523779
 21
146.1071469209
  0
LINE
  5
29D
100
AcDbEntity
  8
RACCORDO
100
AcDbLine
 62
7
  6
CONTINUOUS
 10
-27.7539411616
 20
165.520406559
 11
-4.8083261121
 21
152.2718960055
  0
LINE
  5
29E
100
AcDbEntity
  8
RACCORDO
100
AcDbLine
 62
7
  6
CONTINUOUS
 10
3.3941125497
 20
147.5359107229
 11
26.3397275992
 21
134.2874001694
  0
LWPOLYLINE
  5
29F
100
AcDbEntity
  8
RACCORDO
100
AcDbPolyline
 62
7
  6
CONTINUOUS
 90
28
 70
0
 10
-4.8083261121
 20
152.2718960055
 10
-4.7876542089
 20
152.2592502573
 10
-4.7671895749
 20
152.2453668977
 10
-4.7469322101
 20
152.2302459269
 10
-4.726815124
 20
152.2138279391
 10
-4.7069053071
 20
152.19617234
 10
-4.6874037307
 20
152.1774573468
 10
-4.6683145297
 20
152.1576722297
 10
-4.6496335693
 20
152.1368277184
 10
-4.6315494168
 20
152.1151342194
 10
-4.6140681166
 20
152.0925831338
 10
-4.5971836242
 20
152.0691830603
 10
-4.5810663732
 20
152.0451702014
 10
-4.5657241343
 20
152.0205383506
 10
-4.5511491368
 20
151.9952937144
 10
-4.5374885019
 20
151.9696911142
 10
-4.5247514904
 20
151.9437269246
 10
-4.5129288416
 20
151.917404771
 10
-4.5021398942
 20
151.8909903516
 10
-4.4923951178
 20
151.8644827318
 10
-4.483684043
 20
151.8378828462
 10
-4.4760945999
 20
151.8114591964
 10
-4.4696381487
 20
151.7852135672
 10
-4.4643033293
 20
151.7591441736
 10
-4.4601439919
 20
151.7335141625
 10
-4.4571780865
 20
151.7084112494
 10
-4.455387663
 20
151.6837477187
 10
-4.4547727215
 20
151.6595235705
  0
LWPOLYLINE
  5
2A0
100
AcDbEntity
  8
RACCORDO
100
AcDbPolyline
 62
7
  6
CONTINUOUS
 90
28
 70
0
 10
26.3397275992
 20
134.2874001694
 10
26.3603995024
 20
134.2747544212
 10
26.3808641364
 20
134.2608710617
 10
26.4011215012
 20
134.2457500908
 10
26.4212385873
 20
134.229332103
 10
26.4411484042
 20
134.2116765039
 10
26.4606499805
 20
134.1929615107
 10
26.4797391815
 20
134.1731763936
 10
26.4984201419
 20
134.1523318824
 10
26.5165042945
 20
134.1306383833
 10
26.5339855947
 20
134.1080872977
 10
26.550870087
 20
134.0846872242
 10
26.566987338
 20
134.0606743653
 10
26.5823295769
 20
134.0360425146
 10
26.5969045745
 20
134.0107978783
 10
26.6105652094
 20
133.9851952781
 10
26.6233022209
 20
133.9592310885
 10
26.6351248697
 20
133.9329089349
 10
26.645913817
 20
133.9064945155
 10
26.6556585934
 20
133.8799868957
 10
26.6643696683
 20
133.8533870102
 10
26.6719591114
 20
133.8269633603
 10
26.6784155626
 20
133.8007177311
 10
26.6837503819
 20
133.7746483376
 10
26.6879097194
 20
133.7490183265
 10
26.6908756248
 20
133.7239154133
 10
26.6926660483
 20
133.6992518827
 10
26.6932809898
 20
133.6750277344
  0
LWPOLYLINE
  5
2A1
100
AcDbEntity
  8
CURVE
100
AcDbPolyline
 62
250
  6
CONTINUOUS
 90
17
 70
0
 10
1.0486454826
 20
153.1376975561
 10
1.0895984315
 20
153.1070385522
 10
1.1309511936
 20
153.0854670023
 10
1.1711286551
 20
153.07380456
 10
1.2092360894
 20
153.0725670612
 10
1.2424890778
 20
153.081844927
 10
1.2703183221
 20
153.1011698641
 10
1.2916638153
 20
153.1298057917
 10
1.3058933603
 20
153.1673866716
 10
1.3119672385
 20
153.2111665592
 10
1.3099709713
 20
153.2600676973
 10
1.2999805956
 20
153.3122274568
 10
1.2819967769
 20
153.3666123456
 10
1.2573335495
 20
153.4192485906
 10
1.2266811569
 20
153.4690803061
 10
1.1912071391
 20
153.5142094178
 10
1.1515446157
 20
153.5535404009
  0
LINE
  5
2A2
100
AcDbEntity
  8
CURVE
100
AcDbLine
 62
250
  6
CONTINUOUS
 10
8.2715231458
 20
156.3481760864
 11
8.7706931116
 21
155.9158681777
  0
LINE
  5
2A3
100
AcDbEntity
  8
CURVE
100
AcDbLine
 62
250
  6
CONTINUOUS
 10
9.0020131166
 20
156.1964634206
 11
8.2405135515
 21
156.8559628036
  0
LINE
  5
2A4
100
AcDbEntity
  8
RACCORDO
100
AcDbLine
 62
250
  6
CONTINUOUS
 10
0.6363961031
 20
-154.5169564826
 11
-0.7778174593
 21
-155.3335056693
  0
LINE
  5
2A5
100
AcDbEntity
  8
RACCORDO
100
AcDbLine
 62
250
  6
CONTINUOUS
 10
0.7778174593
 20
-154.5986114013
 11
-0.6363961031
 21
-155.4151605879
  0
LINE
  5
2A6
100
AcDbEntity
  8
RACCORDO
100
AcDbLine
 62
250
  6
CONTINUOUS
 10
-1.8384776311
 20
-157.1705046097
 11
-1.4849413255
 21
-156.9663771777
  0
LINE
  5
2A7
100
AcDbEntity
  8
RACCORDO
100
AcDbLine
 62
250
  6
CONTINUOUS
 10
1.4849242405
 20
-155.8233562714
 11
0.0707106781
 21
-156.6399054581
  0
LINE
  5
2A8
100
AcDbEntity
  8
RACCORDO
100
AcDbLine
 62
250
  6
CONTINUOUS
 10
0.0707106781
 20
-157.8646108732
 11
1.4849242405
 21
-157.0480616866
  0
LINE
  5
2A9
100
AcDbEntity
  8
RACCORDO
100
AcDbLine
 62
250
  6
CONTINUOUS
 10
0.4242640687
 20
-158.4769833083
 11
1.8384776311
 21
-157.6604341217
  0
LWPOLYLINE
  5
2AA
100
AcDbEntity
  8
RACCORDO
100
AcDbPolyline
 62
7
  6
CONTINUOUS
 90
15
 70
0
 10
-1.5884709745
 20
-157.1952658053
 10
-1.5958756533
 20
-157.1992976376
 10
-1.6112178922
 20
-157.2062126555
 10
-1.6273351433
 20
-157.2116137169
 10
-1.6442196356
 20
-157.2155160018
 10
-1.6617009358
 20
-157.2178801202
 10
-1.6797850884
 20
-157.2186904931
 10
-1.6984660488
 20
-157.2179626996
 10
-1.7175552498
 20
-157.2157040858
 10
-1.7370568261
 20
-157.2118991475
 10
-1.756966643
 20
-157.2065633891
 10
-1.7770837291
 20
-157.1997506702
 10
-1.7973410939
 20
-157.1914789439
 10
-1.8178057279
 20
-157.181730257
 10
-1.8384776311
 20
-157.1705046097
  0
LWPOLYLINE
  5
2AB
100
AcDbEntity
  8
RACCORDO
100
AcDbPolyline
 62
7
  6
CONTINUOUS
 90
16
 70
0
 10
0.1363719429
 20
-154.467415305
 10
0.1632294411
 20
-154.4535036181
 10
0.1914307413
 20
-154.4419752597
 10
0.2207691653
 20
-154.4329106452
 10
0.2512540464
 20
-154.4263299965
 10
0.2828760514
 20
-154.4222130918
 10
0.3153763421
 20
-154.4205936293
 10
0.3487621274
 20
-154.4214921077
 10
0.3830261984
 20
-154.4248880284
 10
0.4178880908
 20
-154.4307535946
 10
0.4533527114
 20
-154.4391090765
 10
0.4894151534
 20
-154.4499342039
 10
0.525780232
 20
-154.463140369
 10
0.5623495524
 20
-154.4786980358
 10
0.5992215094
 20
-154.4966367404
 10
0.6363961031
 20
-154.5169564826
  0
LINE
  5
2AC
100
AcDbEntity
  8
CURVE
100
AcDbLine
 62
250
  6
CONTINUOUS
 10
2.106138793
 20
152.5271141777
 11
2.7196415569
 21
152.3499826754
  0
LWPOLYLINE
  5
2AD
100
AcDbEntity
  8
CURVE
100
AcDbPolyline
 62
250
  6
CONTINUOUS
 90
17
 70
0
 10
6.4809058407
 20
154.6248984691
 10
6.4397025126
 20
154.6440238895
 10
6.4000686065
 20
154.6530910987
 10
6.3635137655
 20
154.6517547298
 10
6.3309058407
 20
154.6397650069
 10
6.3046274147
 20
154.6179979905
 10
6.2850633792
 20
154.5871640814
 10
6.2729589222
 20
154.5484377336
 10
6.2687738063
 20
154.5024397641
 10
6.2728138279
 20
154.4525311338
 10
6.2847800097
 20
154.3998581921
 10
6.3042165634
 20
154.3464272349
 10
6.3309058407
 20
154.2933660053
 10
6.36289772
 20
154.24455156
 10
6.3993844921
 20
154.2008946806
 10
6.4389763869
 20
154.164058244
 10
6.4809058592
 20
154.1350162923
  0
LWPOLYLINE
  5
2AE
100
AcDbEntity
  8
CURVE
100
AcDbPolyline
 62
250
  6
CONTINUOUS
 90
17
 70
0
 10
6.4809058407
 20
157.8719382427
 10
6.4397025126
 20
157.8910636631
 10
6.4000686065
 20
157.9001308724
 10
6.3635137655
 20
157.8987945034
 10
6.3309058407
 20
157.8868047806
 10
6.3046274147
 20
157.8650377641
 10
6.2850633792
 20
157.834203855
 10
6.2729589222
 20
157.7954775073
 10
6.2687738063
 20
157.7494795377
 10
6.2728138279
 20
157.6995709075
 10
6.2847800097
 20
157.6468979658
 10
6.3042165634
 20
157.5934670085
 10
6.3309058407
 20
157.540405779
 10
6.36289772
 20
157.4915913337
 10
6.3993844921
 20
157.4479344542
 10
6.4389763869
 20
157.4110980176
 10
6.4809058592
 20
157.382056066
  0
LINE
  5
2AF
100
AcDbEntity
  8
CURVE
100
AcDbLine
 62
250
  6
CONTINUOUS
 10
6.4809058407
 20
154.135016303
 11
8.2405135515
 21
153.1190408638
  0
LINE
  5
2B0
100
AcDbEntity
  8
CURVE
100
AcDbLine
 62
250
  6
CONTINUOUS
 10
8.2581350334
 20
153.5987486071
 11
6.4809058407
 21
154.6248984691
  0
LINE
  5
2B1
100
AcDbEntity
  8
CURVE
100
AcDbLine
 62
250
  6
CONTINUOUS
 10
6.4809058407
 20
157.3820560767
 11
8.2715231458
 21
156.3481760864
  0
LINE
  5
2B2
100
AcDbEntity
  8
CURVE
100
AcDbLine
 62
250
  6
CONTINUOUS
 10
8.2405135515
 20
156.8559628036
 11
6.4809058407
 21
157.8719382427
  0
LINE
  5
2B3
100
AcDbEntity
  8
RACCORDO
100
AcDbLine
 62
7
  6
CONTINUOUS
 10
40.9414826307
 20
144.5536991558
 11
-42.3556961931
 21
192.6484462498
  0
LINE
  5
2B4
100
AcDbEntity
  8
RACCORDO
100
AcDbLine
 62
7
  6
CONTINUOUS
 10
42.3556961931
 20
145.3702483424
 11
-40.9414826307
 21
193.4649954364
  0
LWPOLYLINE
  5
2B5
100
AcDbEntity
  8
RACCORDO
100
AcDbPolyline
 62
7
  6
CONTINUOUS
 90
31
 70
0
 10
42.3556961931
 20
145.3702483424
 10
42.3928707867
 20
145.3476397957
 10
42.4297427438
 20
145.3229996885
 10
42.4663120641
 20
145.2963280209
 10
42.5026771427
 20
145.2675407047
 10
42.5387395847
 20
145.236721828
 10
42.5742042053
 20
145.204123655
 10
42.6090660977
 20
145.1697315817
 10
42.6433301688
 20
145.133560212
 10
42.676715954
 20
145.0959056224
 10
42.7092162448
 20
145.0567556389
 10
42.7408382497
 20
145.0161224354
 10
42.7713231309
 20
144.9743386101
 10
42.8006615549
 20
144.931394719
 10
42.8288628551
 20
144.887300206
 10
42.8556961931
 20
144.8424160015
 10
42.881150341
 20
144.7967356238
 10
42.9052365268
 20
144.7502655546
 10
42.9277575959
 20
144.7033861689
 10
42.9487007022
 20
144.6560941072
 10
42.9680786917
 20
144.6083927291
 10
42.9857329484
 20
144.5606724883
 10
43.0016493242
 20
144.5129332301
 10
43.0158419671
 20
144.4651751093
 10
43.028194705
 20
144.4177890442
 10
43.0386924364
 20
144.3707780884
 10
43.0473502627
 20
144.3241391884
 10
43.0540973164
 20
144.278254101
 10
43.058909975
 20
144.2332500787
 10
43.0618118609
 20
144.1889998692
 10
43.0628029743
 20
144.1455034723
  0
LWPOLYLINE
  5
2B6
100
AcDbEntity
  8
RACCORDO
100
AcDbPolyline
 62
7
  6
CONTINUOUS
 90
19
 70
0
 10
27.1074462319
 20
-169.463029621
 10
27.0648590976
 20
-169.4898218422
 10
27.024124785
 20
-169.5199348347
 10
26.9855234986
 20
-169.5531692803
 10
26.9490674039
 20
-169.5895429819
 10
26.9147443354
 20
-169.6290381366
 10
26.8827496808
 20
-169.671429914
 10
26.8530967199
 20
-169.716734835
 10
26.8257721728
 20
-169.7649363788
 10
26.8009315873
 20
-169.8157601532
 10
26.7785891305
 20
-169.8692211138
 10
26.7587306354
 20
-169.925304305
 10
26.7414691484
 20
-169.9836904673
 10
26.7268194814
 20
-170.0443927357
 10
26.7147668225
 20
-170.1073979752
 10
26.7053797829
 20
-170.1723475222
 10
26.6986812327
 20
-170.2391218218
 10
26.6946483017
 20
-170.3078404289
 10
26.6932809898
 20
-170.3785033433
  0
LINE
  5
2B7
100
AcDbEntity
  8
RACCORDO
100
AcDbLine
 62
7
  6
CONTINUOUS
 10
28.5216597943
 20
-168.6464804343
 11
27.1074462319
 21
-169.463029621
  0
LINE
  5
2B8
100
AcDbEntity
  8
CURVE
100
AcDbLine
 62
250
  6
CONTINUOUS
 10
2.7196415569
 20
152.3499826754
 11
3.1003913394
 21
152.3499614518
  0
LINE
  5
2B9
100
AcDbEntity
  8
CURVE
100
AcDbLine
 62
250
  6
CONTINUOUS
 10
2.849074621
 20
152.8976803805
 11
2.5715605155
 21
152.8976958497
  0
LINE
  5
2BA
100
AcDbEntity
  8
CURVE
100
AcDbLine
 62
250
  6
CONTINUOUS
 10
9.0020131166
 20
152.8991796367
 11
9.3827626042
 21
152.8991583917
  0
LINE
  5
2BB
100
AcDbEntity
  8
CURVE
100
AcDbLine
 62
250
  6
CONTINUOUS
 10
9.13144599
 20
153.4468773225
 11
8.7840811458
 21
153.4468967047
  0
LWPOLYLINE
  5
2BC
100
AcDbEntity
  8
CURVE
100
AcDbPolyline
 62
250
  6
CONTINUOUS
 90
17
 70
0
 10
2.0032396325
 20
153.06178237
 10
1.9642463823
 20
153.0682321311
 10
1.9286980714
 20
153.0642535501
 10
1.8979487239
 20
153.04999817
 10
1.8727874915
 20
153.0254971907
 10
1.8550528449
 20
152.99254084
 10
1.8449222856
 20
152.952039205
 10
1.8427816833
 20
152.9055349804
 10
1.8488909117
 20
152.8538666895
 10
1.8628035843
 20
152.8008096103
 10
1.8840251207
 20
152.7475102298
 10
1.9117471995
 20
152.6959987047
 10
1.9455481856
 20
152.6474296863
 10
1.9829583223
 20
152.605351996
 10
2.0231006664
 20
152.5704769241
 10
2.0644462084
 20
152.5441328514
 10
2.106138811
 20
152.5271141725
  0
LINE
  5
2BD
100
AcDbEntity
  8
CURVE
100
AcDbLine
 62
250
  6
CONTINUOUS
 10
2.5715605155
 20
152.8976958497
 11
2.0032396332
 21
153.0617823666
  0
LINE
  5
2BE
100
AcDbEntity
  8
CURVE
100
AcDbLine
 62
250
  6
CONTINUOUS
 10
8.2405135515
 20
153.1190408638
 11
9.0020131166
 21
152.8991796367
  0
LINE
  5
2BF
100
AcDbEntity
  8
CURVE
100
AcDbLine
 62
250
  6
CONTINUOUS
 10
8.7840811458
 20
153.4468967047
 11
8.2581350334
 21
153.5987486071
  0
LWPOLYLINE
  5
2C0
100
AcDbEntity
  8
RACCORDO
100
AcDbPolyline
 62
7
  6
CONTINUOUS
 90
16
 70
0
 10
-42.3556961931
 20
192.6484462498
 10
-42.3928707867
 20
192.668765992
 10
-42.4297427438
 20
192.6867046966
 10
-42.4663120641
 20
192.7022623634
 10
-42.5026771427
 20
192.7154685285
 10
-42.5387395847
 20
192.7262936559
 10
-42.5742042053
 20
192.7346491378
 10
-42.6090660977
 20
192.740514704
 10
-42.6433301688
 20
192.7439106247
 10
-42.676715954
 20
192.7448091031
 10
-42.7092162448
 20
192.7431896407
 10
-42.7408382497
 20
192.7390727359
 10
-42.7713231309
 20
192.7324920872
 10
-42.8006615549
 20
192.7234274727
 10
-42.8288628551
 20
192.7118991143
 10
-42.8557203532
 20
192.6979874275
  0
LINE
  5
2C1
100
AcDbEntity
  8
RACCORDO
100
AcDbLine
 62
250
  6
CONTINUOUS
 10
29.5217081145
 20
-168.7455627897
 11
28.1074945522
 21
-169.5621119763
  0
LINE
  5
2C2
100
AcDbEntity
  8
RACCORDO
100
AcDbLine
 62
250
  6
CONTINUOUS
 10
26.3397275992
 20
-173.4402471538
 11
26.6932639048
 21
-173.2361197218
  0
LINE
  5
2C3
100
AcDbEntity
  8
RACCORDO
100
AcDbLine
 62
250
  6
CONTINUOUS
 10
31.4662517628
 20
-171.5014162946
 11
32.8804653252
 21
-170.684867108
  0
LWPOLYLINE
  5
2C4
100
AcDbEntity
  8
RACCORDO
100
AcDbPolyline
 62
7
  6
CONTINUOUS
 90
15
 70
0
 10
26.5897342558
 20
-173.4650083494
 10
26.5823295769
 20
-173.4690401817
 10
26.566987338
 20
-173.4759551996
 10
26.550870087
 20
-173.481356261
 10
26.5339855947
 20
-173.4852585459
 10
26.5165042945
 20
-173.4876226643
 10
26.4984201419
 20
-173.4884330372
 10
26.4797391815
 20
-173.4877052437
 10
26.4606499805
 20
-173.4854466299
 10
26.4411484042
 20
-173.4816416917
 10
26.4212385873
 20
-173.4763059332
 10
26.4011215012
 20
-173.4694932143
 10
26.3808641364
 20
-173.461221488
 10
26.3603995024
 20
-173.4514728011
 10
26.3397275992
 20
-173.4402471538
  0
LWPOLYLINE
  5
2C5
100
AcDbEntity
  8
RACCORDO
100
AcDbPolyline
 62
7
  6
CONTINUOUS
 90
19
 70
0
 10
28.5216597943
 20
-168.6464804343
 10
28.566255554
 20
-168.6229440744
 10
28.6127041354
 20
-168.6027284858
 10
28.6607894454
 20
-168.5859208509
 10
28.7105208189
 20
-168.5725406066
 10
28.7618889209
 20
-168.5625683161
 10
28.8146013334
 20
-168.5560607477
 10
28.8686657233
 20
-168.553037662
 10
28.9240744235
 20
-168.5534792983
 10
28.9805120144
 20
-168.5573831426
 10
29.037984364
 20
-168.5647689412
 10
29.0964856043
 20
-168.5756169478
 10
29.1556827108
 20
-168.589865409
 10
29.2155796523
 20
-168.6075337189
 10
29.2761724601
 20
-168.6286024834
 10
29.3371162033
 20
-168.6529517664
 10
29.3982959049
 20
-168.6805415891
 10
29.459826542
 20
-168.7114119301
 10
29.5217081145
 20
-168.7455627897
  0
LWPOLYLINE
  5
2C6
100
AcDbEntity
  8
RACCORDO
100
AcDbPolyline
 62
7
  6
CONTINUOUS
 90
19
 70
0
 10
32.4663000831
 20
-171.60049865
 10
32.4217043233
 20
-171.6240350099
 10
32.3752557419
 20
-171.6442505985
 10
32.327170432
 20
-171.6610582335
 10
32.2774390585
 20
-171.6744384777
 10
32.2260709564
 20
-171.6844107682
 10
32.173358544
 20
-171.6909183367
 10
32.1192941541
 20
-171.6939414223
 10
32.0638854538
 20
-171.693499786
 10
32.0074478629
 20
-171.6895959418
 10
31.9499755133
 20
-171.6822101431
 10
31.8914742731
 20
-171.6713621365
 10
31.8322771666
 20
-171.6571136753
 10
31.7723802251
 20
-171.6394453654
 10
31.7117874173
 20
-171.6183766009
 10
31.6508436741
 20
-171.5940273179
 10
31.5896639724
 20
-171.5664374953
 10
31.5281333353
 20
-171.5355671542
 10
31.4662517628
 20
-171.5014162946
  0
LWPOLYLINE
  5
2C7
100
AcDbEntity
  8
RACCORDO
100
AcDbPolyline
 62
7
  6
CONTINUOUS
 90
16
 70
0
 10
41.4415067908
 20
-193.5145366141
 10
41.4669367786
 20
-193.4982639969
 10
41.4910229644
 20
-193.4796080513
 10
41.5135440335
 20
-193.4587354317
 10
41.5344871398
 20
-193.4356279441
 10
41.5538651293
 20
-193.4103037826
 10
41.571519386
 20
-193.382970235
 10
41.5874357618
 20
-193.3536108086
 10
41.6016284048
 20
-193.3222419961
 10
41.6139811427
 20
-193.289120563
 10
41.624478874
 20
-193.2542321243
 10
41.6331367003
 20
-193.2175910651
 10
41.639883754
 20
-193.1794973062
 10
41.6446964126
 20
-193.1400508214
 10
41.6475982985
 20
-193.099151637
 10
41.6485894119
 20
-193.056799753
  0
LINE
  5
2C8
100
AcDbEntity
  8
RACCORDO
100
AcDbLine
 62
250
  6
CONTINUOUS
 10
41.6485894119
 20
-193.056799753
 11
43.0628029743
 21
-192.2402505663
  0
LINE
  5
2C9
100
AcDbEntity
  8
RACCORDO
100
AcDbLine
 62
7
  6
CONTINUOUS
 10
41.4415067908
 20
-193.5145366141
 11
42.8557203532
 21
-192.6979874275
  0
ENDSEC
  0
SECTION
  2
OBJECTS
  0
DICTIONARY
  5
C
100
AcDbDictionary
280
0
281
1
  3
ACAD_GROUP
350
D
  3
ACAD_MLINESTYLE
350
17
  3
ACAD_LAYOUT
350
1A
  3
ACAD_PLOTSETTINGS
350
19
  3
ACAD_PLOTSTYLENAME
350
E
  0
DICTIONARY
  5
D
102
{ACAD_REACTORS
330
C
102
}
100
AcDbDictionary
280
0
281
1
  0
ACDBDICTIONARYWDFLT
  5
E
102
{ACAD_REACTORS
330
C
102
}
100
AcDbDictionary
281
1
  3
Normal
350
F
100
AcDbDictionaryWithDefault
340
F
  0
DICTIONARY
  5
17
102
{ACAD_REACTORS
330
C
102
}
100
AcDbDictionary
280
0
281
1
  3
Standard
350
18
  0
DICTIONARY
  5
19
102
{ACAD_REACTORS
330
C
102
}
100
AcDbDictionary
281
1
  0
DICTIONARY
  5
1A
102
{ACAD_REACTORS
330
C
102
}
100
AcDbDictionary
281
1
  3
Model
350
2CA
  3
Layout1
350
2CB
  0
ACDBPLACEHOLDER
  5
F
102
{ACAD_REACTORS
330
E
102
}
  0
MLINESTYLE
  5
18
102
{ACAD_REACTORS
330
17
102
}
100
AcDbMlineStyle
  2
STANDARD
 70
0
  3

 62
256
 51
90.0
 52
90.0
 71
2
 49
0.5
 62
256
  6
BYLAYER
 49
-0.5
 62
256
  6
BYLAYER
  0
LAYOUT
  5
2CA
102
{ACAD_REACTORS
330
1A
102
}
100
AcDbPlotSettings
  1

  2
none_device
  4

  6

 40
0.0
 41
0.0
 42
0.0
 43
0.0
 44
210.0
 45
297.0
 46
0.0
 47
0.0
 48
0.0
 49
0.0
140
0.0
141
0.0
142
1.0
143
1.0
 70
1024
 72
1
 73
0
 74
0
  7

 75
0
147
1.0
148
0.0
149
0.0
100
AcDbLayout
  1
Model
 70
0
 71
0
 10
0.0
 20
0.0
 11
210.0
 21
297.0
 12
0.0
 22
0.0
 32
0.0
 14
0.0
 24
0.0
 34
0.0
 15
0.0
 25
0.0
 35
0.0
146
0.0
 13
0.0
 23
0.0
 33
0.0
 16
1.0
 26
0.0
 36
0.0
 17
0.0
 27
1.0
 37
0.0
 76
0
330
20F
345
0
346
0
  0
LAYOUT
  5
2CB
102
{ACAD_REACTORS
330
1A
102
}
100
AcDbPlotSettings
  1

  2
none_device
  4

  6

 40
0.0
 41
0.0
 42
0.0
 43
0.0
 44
210.0
 45
297.0
 46
0.0
 47
0.0
 48
0.0
 49
0.0
140
0.0
141
0.0
142
1.0
143
1.0
 70
0
 72
1
 73
0
 74
0
  7

 75
0
147
1.0
148
0.0
149
0.0
100
AcDbLayout
  1
Layout1
 70
0
 71
1
 10
0.0
 20
0.0
 11
210.0
 21
297.0
 12
0.0
 22
0.0
 32
0.0
 14
0.0
 24
0.0
 34
0.0
 15
0.0
 25
0.0
 35
0.0
146
0.0
 13
0.0
 23
0.0
 33
0.0
 16
1.0
 26
0.0
 36
0.0
 17
0.0
 27
1.0
 37
0.0
 76
0
330
210
345
0
346
0
  0
ENDSEC
  0
EOF
