  0
SECTION
  2
HEADER
  9
$ACADVER
  1
AC1024
  9
$DWGCODEPAGE
  3
ANSI_1252
  9
$EXTMAX
 10
210.0
 20
297.0
 30
0.0
  9
$EXTMIN
 10
0.0
 20
0.0
 30
0.0
  9
$LIMMIN
 10
0.0
 20
0.0
  9
$LIMMAX
 10
210.0
 20
297.0
  9
$VIEWCTR
 10
105.0
 20
148.5
  9
$VIEWSIZE
 40
297.0
  9
$CLAYER
  8
0
  9
$LTSCALE
 40
19.36
  9
$CELTYPE
  6
BYLAYER
  9
$DIMSCALE
 40
1.0
  9
$DIMASZ
 40
3.0
  9
$DIMEXO
 40
0.5
  9
$DIMDLI
 40
13.376
  9
$DIMEXE
 40
1.5
  9
$DIMCEN
 40
3.168
  9
$DIMLFAC
 40
1.0
  9
$DIMBLK
  1
_FILLED
  9
$DIMALT
 70
0
  9
$DIMALTF
 40
0.0393700787
  9
$DIMTXT
 40
3.0
  9
$DIMTOL
 70
1
  9
$DIMLIM
 70
0
  9
$DIMTFAC
 40
1.0
  9
$DIMTP
 40
0.01
  9
$DIMTM
 40
0.01
  9
$DIMGAP
 40
0.625
  9
$DIMDSEP
 70
44
  9
$AUNITS
 70
0
  9
$PDMODE
 70
3
  9
$PDSIZE
 40
3.0
  9
$HANDSEED
  5
2CC
  9
$TILEMODE
 70
1
  9
$MEASUREMENT
 70
1
  9
$INSUNITS
 70
4
  0
ENDSEC
  0
SECTION
  2
CLASSES
  0
CLASS
  1
ACDBDICTIONARYWDFLT
  2
AcDbDictionaryWithDefault
  3
AutoCAD 2000
 90
0
 91
1
280
0
281
0
  0
CLASS
  1
ACDBPLACEHOLDER
  2
AcDbPlaceHolder
  3
AutoCAD 2000
 90
0
 91
1
280
0
281
0
  0
CLASS
  1
LAYOUT
  2
AcDbLayout
  3
AutoCAD 2000
 90
0
 91
0
280
0
281
0
  0
ENDSEC
  0
SECTION
  2
TABLES
  0
TABLE
  2
VPORT
  5
8
100
AcDbSymbolTable
 70
2
  0
VPORT
  5
1F4
100
AcDbSymbolTableRecord
100
AcDbViewportTableRecord
  2
*ACTIVE
 70
0
 10
0.0
 20
0.0
 11
1.0
 21
1.0
 12
105.0
 22
148.5
 13
0.0
 23
0.0
 14
1.0
 24
1.0
 15
0.0
 25
0.0
 16
0.0
 26
0.0
 36
1.0
 17
0.0
 27
0.0
 37
0.0
 40
297.0
 41
0.7070707071
 42
50.0
 43
0.0
 44
0.0
 50
0.0
 51
0.0
 71
0
 72
100
 73
1
 74
1
 75
0
 76
0
 77
0
 78
0
  0
ENDTAB
  0
TABLE
  2
LTYPE
  5
5
100
AcDbSymbolTable
 70
6
  0
LTYPE
  5
14
100
AcDbSymbolTableRecord
100
AcDbLinetypeTableRecord
  2
BYBLOCK
 70
0
  3

 72
65
 73
0
 40
0.0
  0
LTYPE
  5
15
100
AcDbSymbolTableRecord
100
AcDbLinetypeTableRecord
  2
BYLAYER
 70
0
  3

 72
65
 73
0
 40
0.0
  0
LTYPE
  5
16
100
AcDbSymbolTableRecord
100
AcDbLinetypeTableRecord
  2
CONTINUOUS
 70
64
  3
Solid line
 72
65
 73
0
 40
0.0
  0
LTYPE
  5
1F5
100
AcDbSymbolTableRecord
100
AcDbLinetypeTableRecord
  2
CENTER
 70
64
  3
____ _ ____ _ ____ _ ____ _ ____ _ ____ _ ____
 72
65
 73
4
 40
0.6
 49
0.375
 74
0
 49
-0.075
 74
0
 49
0.075
 74
0
 49
-0.075
 74
0
  0
LTYPE
  5
1F6
100
AcDbSymbolTableRecord
100
AcDbLinetypeTableRecord
  2
HIDDEN
 70
64
  3
- - - - - - - - - - - - - - - - - - - -
 72
65
 73
2
 40
0.2
 49
0.1
 74
0
 49
-0.1
 74
0
  0
LTYPE
  5
1F7
100
AcDbSymbolTableRecord
100
AcDbLinetypeTableRecord
  2
PHANTOM
 70
64
  3
_____ _ _ _____ _ _ _____ _ _ _____
 72
65
 73
6
 40
0.8
 49
0.45
 74
0
 49
-0.05
 74
0
 49
0.1
 74
0
 49
-0.05
 74
0
 49
0.1
 74
0
 49
-0.05
 74
0
  0
LTYPE
  5
1F8
100
AcDbSymbolTableRecord
100
AcDbLinetypeTableRecord
  2
DOT
 70
64
  3
. . . . . . . . . . . . . . . . . . . .
 72
65
 73
2
 40
0.2
 49
0.1
 74
0
 49
-0.1
 74
0
  0
LTYPE
  5
1F9
100
AcDbSymbolTableRecord
100
AcDbLinetypeTableRecord
  2
DASHED
 70
64
  3
- - - - - - - - - - - - - - - - - - - -
 72
65
 73
2
 40
0.2
 49
0.1
 74
0
 49
-0.1
 74
0
  0
ENDTAB
  0
TABLE
  2
LAYER
  5
2
100
AcDbSymbolTable
 70
36
  0
LAYER
  5
10
100
AcDbSymbolTableRecord
100
AcDbLayerTableRecord
  2
0
 70
0
 62
7
  6
CONTINUOUS
370
-3
390
F
  0
LAYER
  5
1FA
100
AcDbSymbolTableRecord
100
AcDbLayerTableRecord
  2
DEFAULT_1
 70
0
 62
7
  6
CENTER
370
-3
390
F
  0
LAYER
  5
1FB
100
AcDbSymbolTableRecord
100
AcDbLayerTableRecord
  2
DEFAULT_2
 70
0
 62
7
  6
HIDDEN
370
-3
390
F
  0
LAYER
  5
1FC
100
AcDbSymbolTableRecord
100
AcDbLayerTableRecord
  2
DEFAULT_3
 70
0
 62
7
  6
PHANTOM
370
-3
390
F
  0
LAYER
  5
1FD
100
AcDbSymbolTableRecord
100
AcDbLayerTableRecord
  2
ASSI
 70
0
 62
7
  6
CONTINUOUS
370
-3
390
F
  0
LAYER
  5
1FE
100
AcDbSymbolTableRecord
100
AcDbLayerTableRecord
  2
COORDINATE
 70
0
 62
7
  6
CONTINUOUS
370
-3
390
F
  0
LAYER
  5
1FF
100
AcDbSymbolTableRecord
100
AcDbLayerTableRecord
  2
COPY_PUBLISH
 70
0
 62
7
  6
CONTINUOUS
370
-3
390
F
  0
LAYER
  5
200
100
AcDbSymbolTableRecord
100
AcDbLayerTableRecord
  2
COSMETICI
 70
0
 62
7
  6
CONTINUOUS
370
-3
390
F
  0
LAYER
  5
201
100
AcDbSymbolTableRecord
100
AcDbLayerTableRecord
  2
CURVE
 70
0
 62
7
  6
CONTINUOUS
370
-3
390
F
  0
LAYER
  5
202
100
AcDbSymbolTableRecord
100
AcDbLayerTableRecord
  2
DRAFT
 70
0
 62
7
  6
CONTINUOUS
370
-3
390
F
  0
LAYER
  5
203
100
AcDbSymbolTableRecord
100
AcDbLayerTableRecord
  2
IMPORT_IGES
 70
0
 62
7
  6
CONTINUOUS
370
-3
390
F
  0
LAYER
  5
204
100
AcDbSymbolTableRecord
100
AcDbLayerTableRecord
  2
NOTE
 70
0
 62
7
  6
CONTINUOUS
370
-3
390
F
  0
LAYER
  5
205
100
AcDbSymbolTableRecord
100
AcDbLayerTableRecord
  2
PIANI
 70
0
 62
7
  6
CONTINUOUS
370
-3
390
F
  0
LAYER
  5
206
100
AcDbSymbolTableRecord
100
AcDbLayerTableRecord
  2
PUNTI
 70
0
 62
7
  6
CONTINUOUS
370
-3
390
F
  0
LAYER
  5
207
100
AcDbSymbolTableRecord
100
AcDbLayerTableRecord
  2
RACCORDO
 70
0
 62
7
  6
CONTINUOUS
370
-3
390
F
  0
LAYER
  5
208
100
AcDbSymbolTableRecord
100
AcDbLayerTableRecord
  2
SIMBOLI
 70
0
 62
7
  6
CONTINUOUS
370
-3
390
F
  0
LAYER
  5
209
100
AcDbSymbolTableRecord
100
AcDbLayerTableRecord
  2
SMUSSO
 70
0
 62
7
  6
CONTINUOUS
370
-3
390
F
  0
LAYER
  5
20A
100
AcDbSymbolTableRecord
100
AcDbLayerTableRecord
  2
SNAPLINE
 70
0
 62
7
  6
CONTINUOUS
370
-3
390
F
  0
LAYER
  5
20B
100
AcDbSymbolTableRecord
100
AcDbLayerTableRecord
  2
SUPERFICI
 70
0
 62
7
  6
CONTINUOUS
370
-3
390
F
  0
LAYER
  5
20C
100
AcDbSymbolTableRecord
100
AcDbLayerTableRecord
  2
TRASH
 70
0
 62
7
  6
CONTINUOUS
370
-3
390
F
  0
ENDTAB
  0
TABLE
  2
STYLE
  5
3
100
AcDbSymbolTable
 70
1
  0
STYLE
  5
11
100
AcDbSymbolTableRecord
100
AcDbTextStyleTableRecord
  2
STANDARD
 70
0
 40
0.0
 41
0.8
 50
0.0
 71
0
 42
0.2
  3
txt
  4

  0
STYLE
  5
20D
100
AcDbSymbolTableRecord
100
AcDbTextStyleTableRecord
  2
TEXTSTYLE_1
 70
0
 40
0.0
 41
0.8
 50
0.0
 71
0
 42
0.2
  3
gdt
  4

  0
ENDTAB
  0
TABLE
  2
VIEW
  5
6
100
AcDbSymbolTable
 70
0
  0
ENDTAB
  0
TABLE
  2
UCS
  5
7
100
AcDbSymbolTable
 70
0
  0
ENDTAB
  0
TABLE
  2
APPID
  5
9
100
AcDbSymbolTable
 70
1
  0
APPID
  5
20E
100
AcDbSymbolTableRecord
100
AcDbRegAppTableRecord
  2
ACAD
 70
0
  0
ENDTAB
  0
TABLE
  2
BLOCK_RECORD
  5
1
100
AcDbSymbolTable
 70
0
  0
BLOCK_RECORD
  5
20F
100
AcDbSymbolTableRecord
100
AcDbBlockTableRecord
  2
*Model_Space
  0
BLOCK_RECORD
  5
210
100
AcDbSymbolTableRecord
100
AcDbBlockTableRecord
  2
*Paper_Space
  0
BLOCK_RECORD
  5
211
100
AcDbSymbolTableRecord
100
AcDbBlockTableRecord
  2
_FILLED
  0
ENDTAB
  0
TABLE
  2
DIMSTYLE
  5
A
100
AcDbSymbolTable
 70
1
100
AcDbDimStyleTable
 71
0
  0
DIMSTYLE
105
212
100
AcDbSymbolTableRecord
100
AcDbDimStyleTableRecord
  2
STANDARD
 70
0
  3

  4

 40
1.0
 41
3.0
 42
0.5
 43
0.38
 44
1.5
 45
0.0
 46
0.0
 47
0.01
 48
0.01
140
3.0
141
0.09
142
0.0
143
25.4
144
1.0
145
0.0
146
1.0
147
0.625
 71
1.0
 72
0.0
 73
0
 74
0
 75
0
 76
0
 77
1
 78
8
 79
2
170
0
171
1
172
0
173
0
174
0
175
0
176
0
177
0
178
0
270
2
179
2
271
2
272
2
273
2
274
2
275
0
280
0
281
0
282
0
283
1
284
8
285
0
286
0
287
3
288
0
340
11
278
44
341
211
342
211
343
211
344
211
  0
ENDTAB
  0
ENDSEC
  0
SECTION
  2
BLOCKS
  0
BLOCK
  5
20
100
AcDbEntity
  8
0
100
AcDbBlockBegin
  2
*Model_Space
 70
0
 10
0.0
 20
0.0
 30
0.0
  3
*Model_Space
  1

  0
ENDBLK
  5
21
100
AcDbEntity
  8
0
100
AcDbBlockEnd
  0
BLOCK
  5
1C
100
AcDbEntity
  8
0
100
AcDbBlockBegin
  2
*Paper_Space
 70
0
 10
0.0
 20
0.0
 30
0.0
  3
*Paper_Space
  1

  0
ENDBLK
  5
1D
100
AcDbEntity
  8
0
100
AcDbBlockEnd
  0
BLOCK
  5
213
100
AcDbEntity
  8
0
100
AcDbBlockBegin
  2
_FILLED
 70
64
 10
0.0
 20
0.0
  3
_FILLED
  1

  0
SOLID
  5
214
100
AcDbEntity
  8
0
  6
BYBLOCK
 62
0
100
AcDbTrace
 10
0.0
 20
0.0
 11
-1.0
 21
0.3166666667
 12
-1.0
 22
-0.3166666667
 13
-1.0
 23
-0.3166666667
  0
ENDBLK
  5
215
100
AcDbEntity
  8
0
  6
BYBLOCK
 62
0
100
AcDbBlockEnd
  0
ENDSEC
  0
SECTION
  2
ENTITIES
  0
LWPOLYLINE
  5
216
100
AcDbEntity
  8
RACCORDO
100
AcDbPolyline
 62
7
  6
CONTINUOUS
 90
18
 70
0
 10
-42.8557154883
 20
239.4409023482
 10
-42.8674670773
 20
239.4337928056
 10
-42.890091842
 20
239.4181269942
 10
-42.9114996539
 20
239.4005409422
 10
-42.9316987154
 20
239.381047592
 10
-42.9505522708
 20
239.3597789213
 10
-42.96805119
 20
239.3367228831
 10
-42.9842046032
 20
239.3118915243
 10
-42.9989031454
 20
239.285452963
 10
-43.0121369443
 20
239.2573962931
 10
-43.0239158722
 20
239.2277324207
 10
-43.0341601812
 20
239.1966621817
 10
-43.0428594578
 20
239.1641760329
 10
-43.0500241155
 20
239.1302835177
 10
-43.0556056468
 20
239.0952141014
 10
-43.0595878824
 20
239.0590442728
 10
-43.0619869916
 20
239.0216975432
 10
-43.0628029743
 20
238.9831739127
  0
LINE
  5
217
100
AcDbEntity
  8
RACCORDO
100
AcDbLine
 62
7
  6
CONTINUOUS
 10
-42.8557203532
 20
239.4409107739
 11
-41.4415067908
 21
240.2574599605
  0
LINE
  5
218
100
AcDbEntity
  8
RACCORDO
100
AcDbLine
 62
250
  6
CONTINUOUS
 10
-42.3556961931
 20
239.3913695962
 11
-40.9414826307
 21
240.2079187828
  0
LWPOLYLINE
  5
219
100
AcDbEntity
  8
RACCORDO
100
AcDbPolyline
 62
7
  6
CONTINUOUS
 90
18
 70
0
 10
-41.441501926
 20
240.2574515348
 10
-41.4294199998
 20
240.2641005055
 10
-41.4045390964
 20
240.27585857
 10
-41.3786036975
 20
240.2856026114
 10
-41.3516209103
 20
240.293346204
 10
-41.3237734189
 20
240.2990369207
 10
-41.2950553557
 20
240.3026608314
 10
-41.2654725882
 20
240.3042318662
 10
-41.2352254034
 20
240.3037393886
 10
-41.2043092928
 20
240.3011693962
 10
-41.1727287648
 20
240.2965358914
 10
-41.1406976321
 20
240.2898702449
 10
-41.108212837
 20
240.2811586671
 10
-41.0752774371
 20
240.2704149475
 10
-41.0421144179
 20
240.2577118254
 10
-41.0087981081
 20
240.2430735471
 10
-40.975254179
 20
240.2264758663
 10
-40.9414826307
 20
240.2079187828
  0
LINE
  5
21A
100
AcDbEntity
  8
RACCORDO
100
AcDbLine
 62
250
  6
CONTINUOUS
 10
-28.1074945522
 20
212.0592320637
 11
-27.7539582466
 21
212.2633594957
  0
LWPOLYLINE
  5
21B
100
AcDbEntity
  8
RACCORDO
100
AcDbPolyline
 62
7
  6
CONTINUOUS
 90
15
 70
0
 10
-28.0039478182
 20
212.2880911011
 10
-27.9965431393
 20
212.2921229334
 10
-27.9812009004
 20
212.2990379512
 10
-27.9650836494
 20
212.3044390127
 10
-27.948199157
 20
212.3083412976
 10
-27.9307178569
 20
212.3107054159
 10
-27.9126337043
 20
212.3115157889
 10
-27.8939527439
 20
212.3107879953
 10
-27.8748635429
 20
212.3085293816
 10
-27.8553619666
 20
212.3047244433
 10
-27.8354521497
 20
212.2993886849
 10
-27.8153350636
 20
212.2925759659
 10
-27.7950776987
 20
212.2843042396
 10
-27.7746130647
 20
212.2745555528
 10
-27.7539411616
 20
212.2633299054
  0
LWPOLYLINE
  5
21C
100
AcDbEntity
  8
RACCORDO
100
AcDbPolyline
 62
7
  6
CONTINUOUS
 90
19
 70
0
 10
-33.8805136454
 20
203.0753489105
 10
-33.8359178857
 20
203.0988852704
 10
-33.7894693043
 20
203.119100859
 10
-33.7413839943
 20
203.135908494
 10
-33.6916526208
 20
203.1492887382
 10
-33.6402845188
 20
203.1592610287
 10
-33.5875721064
 20
203.1657685972
 10
-33.5335077164
 20
203.1687916828
 10
-33.4780990162
 20
203.1683500465
 10
-33.4216614253
 20
203.1644462023
 10
-33.3641890757
 20
203.1570604036
 10
-33.3056878354
 20
203.146212397
 10
-33.246490729
 20
203.1319639358
 10
-33.1865937874
 20
203.1142956259
 10
-33.1260009797
 20
203.0932268614
 10
-33.0650572365
 20
203.0688775784
 10
-33.0038775348
 20
203.0412877558
 10
-32.9423468977
 20
203.0104174147
 10
-32.8804653252
 20
202.9762665551
  0
LWPOLYLINE
  5
21D
100
AcDbEntity
  8
RACCORDO
100
AcDbPolyline
 62
7
  6
CONTINUOUS
 90
19
 70
0
 10
-28.5216597943
 20
200.9378798815
 10
-28.47907266
 20
200.9646721027
 10
-28.4383383474
 20
200.9947850952
 10
-28.3997370609
 20
201.0280195408
 10
-28.3632809663
 20
201.0643932424
 10
-28.3289578978
 20
201.1038883971
 10
-28.2969632431
 20
201.1462801745
 10
-28.2673102822
 20
201.1915850955
 10
-28.2399857351
 20
201.2397866393
 10
-28.2151451497
 20
201.2906104137
 10
-28.1928026929
 20
201.3440713743
 10
-28.1729441977
 20
201.4001545655
 10
-28.1556827108
 20
201.4585407278
 10
-28.1410330438
 20
201.5192429962
 10
-28.1289803849
 20
201.5822482357
 10
-28.1195933452
 20
201.6471977827
 10
-28.1128947951
 20
201.7139720823
 10
-28.108861864
 20
201.7826906894
 10
-28.1074945522
 20
201.8533536038
  0
LINE
  5
21E
100
AcDbEntity
  8
RACCORDO
100
AcDbLine
 62
250
  6
CONTINUOUS
 10
-34.2946788875
 20
202.1598751882
 11
-32.8804653252
 21
202.9764243749
  0
LINE
  5
21F
100
AcDbEntity
  8
RACCORDO
100
AcDbLine
 62
250
  6
CONTINUOUS
 10
-26.6932809898
 20
202.6699027904
 11
-28.1074945522
 21
201.8533536038
  0
LINE
  5
220
100
AcDbEntity
  8
RACCORDO
100
AcDbLine
 62
7
  6
CONTINUOUS
 10
-27.1074462319
 20
201.7544290681
 11
-28.5216597943
 21
200.9378798815
  0
LWPOLYLINE
  5
221
100
AcDbEntity
  8
RACCORDO
100
AcDbPolyline
 62
7
  6
CONTINUOUS
 90
18
 70
0
 10
40.9414826307
 20
-240.2079187828
 10
40.975254179
 20
-240.2264758663
 10
41.0087981081
 20
-240.2430735471
 10
41.0421144179
 20
-240.2577118254
 10
41.0752774371
 20
-240.2704149475
 10
41.108212837
 20
-240.2811586671
 10
41.1406976321
 20
-240.2898702449
 10
41.1727287648
 20
-240.2965358914
 10
41.2043092928
 20
-240.3011693962
 10
41.2352254034
 20
-240.3037393886
 10
41.2654725882
 20
-240.3042318662
 10
41.2950553557
 20
-240.3026608314
 10
41.3237734189
 20
-240.2990369207
 10
41.3516209103
 20
-240.293346204
 10
41.3786036975
 20
-240.2856026114
 10
41.4045390964
 20
-240.27585857
 10
41.4294199998
 20
-240.2641005055
 10
41.441501926
 20
-240.2574515348
  0
LWPOLYLINE
  5
222
100
AcDbEntity
  8
RACCORDO
100
AcDbPolyline
 62
7
  6
CONTINUOUS
 90
18
 70
0
 10
-0.7778174593
 20
-202.0764290157
 10
-0.8115890076
 20
-202.0578719322
 10
-0.8451329367
 20
-202.0412742514
 10
-0.8784492465
 20
-202.0266359731
 10
-0.9116122657
 20
-202.013932851
 10
-0.9445476656
 20
-202.0031891314
 10
-0.9770324607
 20
-201.9944775536
 10
-1.0090635934
 20
-201.9878119071
 10
-1.0406441214
 20
-201.9831784023
 10
-1.071560232
 20
-201.9806084099
 10
-1.1018074168
 20
-201.9801159323
 10
-1.1313901843
 20
-201.9816869671
 10
-1.1601082475
 20
-201.9853108778
 10
-1.1879557389
 20
-201.9910015945
 10
-1.2149385261
 20
-201.9987451871
 10
-1.240873925
 20
-202.0084892285
 10
-1.2657548284
 20
-202.020247293
 10
-1.2778367546
 20
-202.0268962637
  0
LINE
  5
223
100
AcDbEntity
  8
RACCORDO
100
AcDbLine
 62
7
  6
CONTINUOUS
 10
-42.3556961931
 20
-192.1131716888
 11
40.9414826307
 21
-240.2079187828
  0
LINE
  5
224
100
AcDbEntity
  8
RACCORDO
100
AcDbLine
 62
7
  6
CONTINUOUS
 10
26.3397275992
 20
-220.1831705002
 11
0.4242640687
 21
-205.2199066547
  0
LINE
  5
225
100
AcDbEntity
  8
RACCORDO
100
AcDbLine
 62
7
  6
CONTINUOUS
 10
-1.8384776311
 20
-203.913427956
 11
-27.7539411616
 21
-188.9501641106
  0
LWPOLYLINE
  5
226
100
AcDbEntity
  8
RACCORDO
100
AcDbPolyline
 62
7
  6
CONTINUOUS
 90
18
 70
0
 10
2.8334716732
 20
192.8005375153
 10
2.8452232622
 20
192.8076470579
 10
2.8678480268
 20
192.8233128693
 10
2.8892558388
 20
192.8408989213
 10
2.9094549002
 20
192.8603922715
 10
2.9283084557
 20
192.8816609422
 10
2.9458073749
 20
192.9047169804
 10
2.961960788
 20
192.9295483392
 10
2.9766593302
 20
192.9559869005
 10
2.9898931291
 20
192.9840435704
 10
3.001672057
 20
193.0137074428
 10
3.0119163661
 20
193.0447776819
 10
3.0206156427
 20
193.0772638306
 10
3.0277803004
 20
193.1111563459
 10
3.0333618316
 20
193.1462257621
 10
3.0373440672
 20
193.1823955907
 10
3.0397431764
 20
193.2197423203
 10
3.0405591591
 20
193.2582659508
  0
LINE
  5
227
100
AcDbEntity
  8
RACCORDO
100
AcDbLine
 62
250
  6
CONTINUOUS
 10
3.0405591591
 20
194.0747362276
 11
3.3940954647
 21
194.2788636596
  0
LINE
  5
228
100
AcDbEntity
  8
RACCORDO
100
AcDbLine
 62
250
  6
CONTINUOUS
 10
4.1011168306
 20
193.8706186584
 11
3.0405591591
 21
193.2582659508
  0
LINE
  5
229
100
AcDbEntity
  8
RACCORDO
100
AcDbLine
 62
7
  6
CONTINUOUS
 10
4.2476901004
 20
193.6170782763
 11
2.8334765381
 21
192.8005290896
  0
LINE
  5
22A
100
AcDbEntity
  8
CURVE
100
AcDbLine
 62
250
  6
CONTINUOUS
 10
3.132457772
 20
199.8041940133
 11
2.8490746217
 21
199.6406037265
  0
LINE
  5
22B
100
AcDbEntity
  8
CURVE
100
AcDbLine
 62
250
  6
CONTINUOUS
 10
3.1003913394
 20
199.0928847981
 11
3.481141122
 21
199.3126825033
  0
LINE
  5
22C
100
AcDbEntity
  8
CURVE
100
AcDbLine
 62
250
  6
CONTINUOUS
 10
9.3926925055
 20
200.3406117426
 11
9.1314459875
 21
200.1898006649
  0
LINE
  5
22D
100
AcDbEntity
  8
CURVE
100
AcDbLine
 62
250
  6
CONTINUOUS
 10
9.3827626042
 20
199.6420817381
 11
9.7635126818
 21
199.8618792304
  0
LWPOLYLINE
  5
22E
100
AcDbEntity
  8
RACCORDO
100
AcDbPolyline
 62
7
  6
CONTINUOUS
 90
15
 70
0
 10
3.1441058931
 20
194.303595265
 10
3.151510572
 20
194.3076270973
 10
3.1668528109
 20
194.3145421151
 10
3.1829700619
 20
194.3199431766
 10
3.1998545542
 20
194.3238454615
 10
3.2173358544
 20
194.3262095798
 10
3.235420007
 20
194.3270199528
 10
3.2541009674
 20
194.3262921592
 10
3.2731901684
 20
194.3240335455
 10
3.2926917447
 20
194.3202286072
 10
3.3126015616
 20
194.3148928488
 10
3.3327186477
 20
194.3080801298
 10
3.3529760125
 20
194.2998084035
 10
3.3734406465
 20
194.2900597167
 10
3.3941125497
 20
194.2788340693
  0
LWPOLYLINE
  5
22F
100
AcDbEntity
  8
RACCORDO
100
AcDbPolyline
 62
7
  6
CONTINUOUS
 90
19
 70
0
 10
28.1074945522
 20
-216.3050353227
 10
28.0456129797
 20
-216.2708844632
 10
27.9840823426
 20
-216.2400141221
 10
27.9229026409
 20
-216.2124242994
 10
27.8619588977
 20
-216.1880750165
 10
27.8013660899
 20
-216.167006252
 10
27.7414691484
 20
-216.149337942
 10
27.6822720419
 20
-216.1350894809
 10
27.6237708017
 20
-216.1242414743
 10
27.566298452
 20
-216.1168556756
 10
27.5098608612
 20
-216.1129518313
 10
27.4544521609
 20
-216.112510195
 10
27.400387771
 20
-216.1155332807
 10
27.3476753586
 20
-216.1220408492
 10
27.2963072565
 20
-216.1320131397
 10
27.246575883
 20
-216.1453933839
 10
27.198490573
 20
-216.1622010188
 10
27.1520419916
 20
-216.1824166075
 10
27.1074462319
 20
-216.2059529674
  0
LINE
  5
230
100
AcDbEntity
  8
RACCORDO
100
AcDbLine
 62
7
  6
CONTINUOUS
 10
26.6932809898
 20
-218.7542094235
 11
1.8384776311
 21
-204.403357468
  0
LINE
  5
231
100
AcDbEntity
  8
RACCORDO
100
AcDbLine
 62
7
  6
CONTINUOUS
 10
-1.4848559003
 20
-202.4845063381
 11
-26.3397275992
 21
-188.1336149239
  0
LINE
  5
232
100
AcDbEntity
  8
RACCORDO
100
AcDbLine
 62
7
  6
CONTINUOUS
 10
-0.6363961031
 20
-202.1580839343
 11
-0.7778174593
 21
-202.0764290157
  0
LINE
  5
233
100
AcDbEntity
  8
RACCORDO
100
AcDbLine
 62
7
  6
CONTINUOUS
 10
0.7778174593
 20
-201.3415347477
 11
0.6363961031
 21
-201.259879829
  0
LINE
  5
234
100
AcDbEntity
  8
RACCORDO
100
AcDbLine
 62
7
  6
CONTINUOUS
 10
31.4662517628
 20
-218.244339641
 11
28.1074945522
 21
-216.3050353227
  0
LINE
  5
235
100
AcDbEntity
  8
RACCORDO
100
AcDbLine
 62
7
  6
CONTINUOUS
 10
-29.5217081145
 20
-183.0306559665
 11
-32.8804653252
 21
-181.0913516482
  0
LINE
  5
236
100
AcDbEntity
  8
RACCORDO
100
AcDbLine
 62
7
  6
CONTINUOUS
 10
32.8804653252
 20
-217.4277904544
 11
29.5217081145
 21
-215.4884861361
  0
LINE
  5
237
100
AcDbEntity
  8
RACCORDO
100
AcDbLine
 62
7
  6
CONTINUOUS
 10
-28.1074945522
 20
-182.2141067799
 11
-31.4662517628
 21
-180.2748024615
  0
LWPOLYLINE
  5
238
100
AcDbEntity
  8
RACCORDO
100
AcDbPolyline
 62
7
  6
CONTINUOUS
 90
37
 70
0
 10
-32.8804653252
 20
-181.0913516482
 10
-32.9423468977
 20
-181.0540432189
 10
-33.0038775348
 20
-181.0138595226
 10
-33.0650572365
 20
-180.9708005593
 10
-33.1260009797
 20
-180.9247735352
 10
-33.1865937874
 20
-180.8758712441
 10
-33.246490729
 20
-180.8243720674
 10
-33.3056878354
 20
-180.7702611938
 10
-33.3641890757
 20
-180.7135534346
 10
-33.4216614253
 20
-180.6545716044
 10
-33.4780990162
 20
-180.5933027334
 10
-33.5335077164
 20
-180.5297597916
 10
-33.5875721064
 20
-180.4643045036
 10
-33.6402845188
 20
-180.3969259625
 10
-33.6916526208
 20
-180.3276350753
 10
-33.7413839943
 20
-180.2568262876
 10
-33.7894693043
 20
-180.184490942
 10
-33.8359178857
 20
-180.1106376958
 10
-33.8804653252
 20
-180.0356869663
 10
-33.9231007797
 20
-179.959632494
 10
-33.9638350923
 20
-179.8824805383
 10
-34.0024363788
 20
-179.8046702948
 10
-34.0388924734
 20
-179.7261980088
 10
-34.0732155419
 20
-179.647067435
 10
-34.1052101966
 20
-179.5677290323
 10
-34.1348631575
 20
-179.4881816154
 10
-34.1621877046
 20
-179.4084263695
 10
-34.1870282901
 20
-179.3289173097
 10
-34.2093707468
 20
-179.24965584
 10
-34.229229242
 20
-179.1706405564
 10
-34.246490729
 20
-179.0923212616
 10
-34.261140396
 20
-179.014701925
 10
-34.2731930548
 20
-178.9377785771
 10
-34.2825800945
 20
-178.861989112
 10
-34.2892786447
 20
-178.7874794945
 10
-34.2933115757
 20
-178.7141037598
 10
-34.2946788875
 20
-178.641861908
  0
LWPOLYLINE
  5
239
100
AcDbEntity
  8
RACCORDO
100
AcDbPolyline
 62
7
  6
CONTINUOUS
 90
37
 70
0
 10
-28.1074945522
 20
-182.2141067799
 10
-28.0456129797
 20
-182.2514152091
 10
-27.9840823426
 20
-182.2915989054
 10
-27.9229026409
 20
-182.3346578688
 10
-27.8619588977
 20
-182.3806848928
 10
-27.8013660899
 20
-182.4295871839
 10
-27.7414691484
 20
-182.4810863607
 10
-27.6822720419
 20
-182.5351972343
 10
-27.6237708017
 20
-182.5919049935
 10
-27.566298452
 20
-182.6508868236
 10
-27.5098608612
 20
-182.7121556946
 10
-27.4544521609
 20
-182.7756986365
 10
-27.400387771
 20
-182.8411539245
 10
-27.3476753586
 20
-182.9085324655
 10
-27.2963072565
 20
-182.9778233527
 10
-27.246575883
 20
-183.0486321405
 10
-27.198490573
 20
-183.1209674861
 10
-27.1520419916
 20
-183.1948207322
 10
-27.1074945522
 20
-183.2697714618
 10
-27.0648590976
 20
-183.3458259341
 10
-27.024124785
 20
-183.4229778898
 10
-26.9855234986
 20
-183.5007881333
 10
-26.9490674039
 20
-183.5792604192
 10
-26.9147443354
 20
-183.658390993
 10
-26.8827496808
 20
-183.7377293957
 10
-26.8530967199
 20
-183.8172768127
 10
-26.8257721728
 20
-183.8970320586
 10
-26.8009315873
 20
-183.9765411184
 10
-26.7785891305
 20
-184.055802588
 10
-26.7587306354
 20
-184.1348178716
 10
-26.7414691484
 20
-184.2131371665
 10
-26.7268194814
 20
-184.2907565031
 10
-26.7147668225
 20
-184.367679851
 10
-26.7053797829
 20
-184.443469316
 10
-26.6986812327
 20
-184.5179789335
 10
-26.6946483017
 20
-184.5913546682
 10
-26.6932809898
 20
-184.6635965201
  0
LWPOLYLINE
  5
23A
100
AcDbEntity
  8
RACCORDO
100
AcDbPolyline
 62
7
  6
CONTINUOUS
 90
34
 70
0
 10
0.7778174593
 20
-201.3415347477
 10
0.8115890076
 20
-201.3619762017
 10
0.8451329367
 20
-201.3841142093
 10
0.8784492465
 20
-201.4079487706
 10
0.9116122657
 20
-201.4335414717
 10
0.9445476656
 20
-201.4608307264
 10
0.9770324607
 20
-201.4896317758
 10
1.0090635934
 20
-201.5199548784
 10
1.0406441214
 20
-201.5517897757
 10
1.071560232
 20
-201.5849209329
 10
1.1018074168
 20
-201.6193571461
 10
1.1313901843
 20
-201.6550896193
 10
1.1601082475
 20
-201.6918764295
 10
1.1879557389
 20
-201.7297247313
 10
1.2149385261
 20
-201.7686273702
 10
1.240873925
 20
-201.8083209601
 10
1.2657548284
 20
-201.8488108682
 10
1.2895883436
 20
-201.8900917273
 10
1.3122131082
 20
-201.9318840499
 10
1.3336209202
 20
-201.9741913065
 10
1.3538199816
 20
-202.0170100266
 10
1.3726735371
 20
-202.0600503106
 10
1.3901724563
 20
-202.103313662
 10
1.4063258694
 20
-202.1467985774
 10
1.4210244116
 20
-202.1902106468
 10
1.4342582105
 20
-202.2335493759
 10
1.4460371384
 20
-202.2768152591
 10
1.4562814474
 20
-202.3197153694
 10
1.4649807241
 20
-202.3622472247
 10
1.4721453818
 20
-202.4044133071
 10
1.477726913
 20
-202.4459281357
 10
1.4817091486
 20
-202.4866965502
 10
1.4841082578
 20
-202.5268137109
 10
1.4849242405
 20
-202.5662796178
  0
LWPOLYLINE
  5
23B
100
AcDbEntity
  8
RACCORDO
100
AcDbPolyline
 62
7
  6
CONTINUOUS
 90
28
 70
0
 10
-27.7539411616
 20
-188.9501641106
 10
-27.7746130647
 20
-188.9375183623
 10
-27.7950776987
 20
-188.9236350028
 10
-27.8153350636
 20
-188.908514032
 10
-27.8354521497
 20
-188.8920960442
 10
-27.8553619666
 20
-188.8744404451
 10
-27.8748635429
 20
-188.8557254518
 10
-27.8939527439
 20
-188.8359403347
 10
-27.9126337043
 20
-188.8150958235
 10
-27.9307178569
 20
-188.7934023244
 10
-27.948199157
 20
-188.7708512388
 10
-27.9650836494
 20
-188.7474511654
 10
-27.9812009004
 20
-188.7234383065
 10
-27.9965431393
 20
-188.6988064557
 10
-28.0111181369
 20
-188.6735618194
 10
-28.0247787718
 20
-188.6479592192
 10
-28.0375157832
 20
-188.6219950296
 10
-28.0493384321
 20
-188.595672876
 10
-28.0601273794
 20
-188.5692584566
 10
-28.0698721558
 20
-188.5427508369
 10
-28.0785832307
 20
-188.5161509513
 10
-28.0861726738
 20
-188.4897273014
 10
-28.092629125
 20
-188.4634816722
 10
-28.0979639443
 20
-188.4374122787
 10
-28.1021232817
 20
-188.4117822676
 10
-28.1050891872
 20
-188.3866793545
 10
-28.1068796106
 20
-188.3620158238
 10
-28.1074945522
 20
-188.3377916755
  0
LWPOLYLINE
  5
23C
100
AcDbEntity
  8
RACCORDO
100
AcDbPolyline
 62
7
  6
CONTINUOUS
 90
28
 70
0
 10
0.4242640687
 20
-205.2199066547
 10
0.4035921655
 20
-205.2072609064
 10
0.3831275315
 20
-205.1933775469
 10
0.3628701667
 20
-205.1782565761
 10
0.3427530806
 20
-205.1618385883
 10
0.3228432637
 20
-205.1441829892
 10
0.3033416874
 20
-205.1254679959
 10
0.2842524864
 20
-205.1056828788
 10
0.265571526
 20
-205.0848383676
 10
0.2474873734
 20
-205.0631448685
 10
0.2300060732
 20
-205.0405937829
 10
0.2131215809
 20
-205.0171937095
 10
0.1970043299
 20
-204.9931808506
 10
0.181662091
 20
-204.9685489998
 10
0.1670870934
 20
-204.9433043635
 10
0.1534264585
 20
-204.9177017634
 10
0.140689447
 20
-204.8917375737
 10
0.1288667982
 20
-204.8654154201
 10
0.1180778509
 20
-204.8390010007
 10
0.1083330745
 20
-204.812493381
 10
0.0996219996
 20
-204.7858934954
 10
0.0920325565
 20
-204.7594698455
 10
0.0855761053
 20
-204.7332242163
 10
0.080241286
 20
-204.7071548228
 10
0.0760819486
 20
-204.6815248117
 10
0.0731160431
 20
-204.6564218986
 10
0.0713256196
 20
-204.6317583679
 10
0.0707106781
 20
-204.6075342196
  0
LINE
  5
23D
100
AcDbEntity
  8
RACCORDO
100
AcDbLine
 62
250
  6
CONTINUOUS
 10
40.9414826307
 20
191.2966225022
 11
42.3556961931
 21
192.1131716888
  0
LINE
  5
23E
100
AcDbEntity
  8
CURVE
100
AcDbLine
 62
250
  6
CONTINUOUS
 10
-8.0317491658
 20
212.4707857566
 11
-6.5472082137
 21
214.5529234131
  0
LINE
  5
23F
100
AcDbEntity
  8
CURVE
100
AcDbLine
 62
250
  6
CONTINUOUS
 10
-6.3639610307
 20
213.8375115844
 11
-7.6652547996
 21
212.0123866158
  0
LINE
  5
240
100
AcDbEntity
  8
RACCORDO
100
AcDbLine
 62
250
  6
CONTINUOUS
 10
41.6485894119
 20
190.0718776321
 11
43.0628029743
 21
190.8884268187
  0
LWPOLYLINE
  5
241
100
AcDbEntity
  8
RACCORDO
100
AcDbPolyline
 62
7
  6
CONTINUOUS
 90
7
 70
0
 10
4.3599494343
 20
193.7211719569
 10
4.3425220181
 20
193.6982101289
 10
4.3236684626
 20
193.6769414581
 10
4.3034694011
 20
193.6574481079
 10
4.2820615892
 20
193.6398620559
 10
4.2594368245
 20
193.6241962445
 10
4.2476852355
 20
193.617086702
  0
LWPOLYLINE
  5
242
100
AcDbEntity
  8
CURVE
100
AcDbPolyline
 62
250
  6
CONTINUOUS
 90
17
 70
0
 10
-8.0317491658
 20
212.4707857566
 10
-8.0490164161
 20
212.4373077989
 10
-8.0586461339
 20
212.3963748658
 10
-8.0602715263
 20
212.3495460799
 10
-8.053643405
 20
212.2976697955
 10
-8.0392460709
 20
212.2445364881
 10
-8.0175833537
 20
212.1912908045
 10
-7.9894803797
 20
212.1399608565
 10
-7.9553685813
 20
212.0917008167
 10
-7.9177404258
 20
212.0500369304
 10
-7.8774749995
 20
212.0156690957
 10
-7.8361060001
 20
211.9899063729
 10
-7.7944927535
 20
211.9735326545
 10
-7.7556758398
 20
211.9677443289
 10
-7.720394645
 20
211.9723865546
 10
-7.689993019
 20
211.9872825106
 10
-7.6652547903
 20
212.0123866289
  0
LINE
  5
243
100
AcDbEntity
  8
CURVE
100
AcDbLine
 62
250
  6
CONTINUOUS
 10
3.2785583725
 20
200.0572316335
 11
3.132457772
 21
199.8041940133
  0
LINE
  5
244
100
AcDbEntity
  8
CURVE
100
AcDbLine
 62
250
  6
CONTINUOUS
 10
3.481141122
 20
199.3126825033
 11
3.6715158658
 21
199.6424003274
  0
LWPOLYLINE
  5
245
100
AcDbEntity
  8
RACCORDO
100
AcDbPolyline
 62
7
  6
CONTINUOUS
 90
34
 70
0
 10
-43.0628029743
 20
-190.8884268187
 10
-43.0619869916
 20
-190.9278927256
 10
-43.0595878824
 20
-190.9680098863
 10
-43.0556056468
 20
-191.0087783008
 10
-43.0500241155
 20
-191.0502931294
 10
-43.0428594578
 20
-191.0924592118
 10
-43.0341601812
 20
-191.1349910671
 10
-43.0239158722
 20
-191.1778911774
 10
-43.0121369443
 20
-191.2211570606
 10
-42.9989031454
 20
-191.2644957897
 10
-42.9842046032
 20
-191.3079078591
 10
-42.96805119
 20
-191.3513927745
 10
-42.9505522708
 20
-191.3946561259
 10
-42.9316987154
 20
-191.4376964099
 10
-42.9114996539
 20
-191.48051513
 10
-42.890091842
 20
-191.5228223866
 10
-42.8674670773
 20
-191.5646147092
 10
-42.8436335622
 20
-191.6058955683
 10
-42.8187526588
 20
-191.6463854764
 10
-42.7928172599
 20
-191.6860790663
 10
-42.7658344727
 20
-191.7249817052
 10
-42.7379869813
 20
-191.762830007
 10
-42.709268918
 20
-191.7996168172
 10
-42.6796861506
 20
-191.8353492904
 10
-42.6494389658
 20
-191.8697855036
 10
-42.6185228551
 20
-191.9029166608
 10
-42.5869423272
 20
-191.9347515581
 10
-42.5549111945
 20
-191.9650746607
 10
-42.5224263993
 20
-191.9938757101
 10
-42.4894909994
 20
-192.0211649648
 10
-42.4563279803
 20
-192.0467576659
 10
-42.4230116704
 20
-192.0705922272
 10
-42.3894677414
 20
-192.0927302348
 10
-42.3556961931
 20
-192.1131716888
  0
LINE
  5
246
100
AcDbEntity
  8
CURVE
100
AcDbLine
 62
250
  6
CONTINUOUS
 10
3.4376268358
 20
200.5163987093
 11
3.2785583725
 21
200.0572316335
  0
LINE
  5
247
100
AcDbEntity
  8
CURVE
100
AcDbLine
 62
250
  6
CONTINUOUS
 10
3.6715158658
 20
199.6424003274
 11
3.8618909046
 21
200.1919369738
  0
LINE
  5
248
100
AcDbEntity
  8
CURVE
100
AcDbLine
 62
250
  6
CONTINUOUS
 10
9.4886938781
 20
200.617728347
 11
9.3926925055
 21
200.3406117426
  0
LINE
  5
249
100
AcDbEntity
  8
CURVE
100
AcDbLine
 62
250
  6
CONTINUOUS
 10
9.7635126818
 20
199.8618792304
 11
9.8911859542
 21
200.230419625
  0
LWPOLYLINE
  5
24A
100
AcDbEntity
  8
RACCORDO
100
AcDbPolyline
 62
7
  6
CONTINUOUS
 90
28
 70
0
 10
-26.6932809898
 20
-187.5212424889
 10
-26.6926660483
 20
-187.5454666371
 10
-26.6908756248
 20
-187.5701301678
 10
-26.6879097194
 20
-187.5952330809
 10
-26.6837503819
 20
-187.620863092
 10
-26.6784155626
 20
-187.6469324856
 10
-26.6719591114
 20
-187.6731781148
 10
-26.6643696683
 20
-187.6996017646
 10
-26.6556585934
 20
-187.7262016502
 10
-26.645913817
 20
-187.75270927
 10
-26.6351248697
 20
-187.7791236894
 10
-26.6233022209
 20
-187.805445843
 10
-26.6105652094
 20
-187.8314100326
 10
-26.5969045745
 20
-187.8570126328
 10
-26.5823295769
 20
-187.882257269
 10
-26.566987338
 20
-187.9068891198
 10
-26.550870087
 20
-187.9309019787
 10
-26.5339855947
 20
-187.9543020522
 10
-26.5165042945
 20
-187.9768531378
 10
-26.4984201419
 20
-187.9985466368
 10
-26.4797391815
 20
-188.0193911481
 10
-26.4606499805
 20
-188.0391762652
 10
-26.4411484042
 20
-188.0578912584
 10
-26.4212385873
 20
-188.0755468575
 10
-26.4011215012
 20
-188.0919648453
 10
-26.3808641364
 20
-188.1070858161
 10
-26.3603995024
 20
-188.1209691757
 10
-26.3397275992
 20
-188.1336149239
  0
LWPOLYLINE
  5
24B
100
AcDbEntity
  8
RACCORDO
100
AcDbPolyline
 62
7
  6
CONTINUOUS
 90
37
 70
0
 10
-32.8804653252
 20
-177.8253127213
 10
-32.8790980133
 20
-177.8975545732
 10
-32.8750650823
 20
-177.9709303079
 10
-32.8683665321
 20
-178.0454399254
 10
-32.8589794924
 20
-178.1212293904
 10
-32.8469268336
 20
-178.1981527383
 10
-32.8322771666
 20
-178.2757720749
 10
-32.8150156796
 20
-178.3540913698
 10
-32.7951571844
 20
-178.4331066534
 10
-32.7728147277
 20
-178.512368123
 10
-32.7479741422
 20
-178.5918771828
 10
-32.7206495951
 20
-178.6716324287
 10
-32.6909966342
 20
-178.7511798457
 10
-32.6590019795
 20
-178.8305182484
 10
-32.6246789111
 20
-178.9096488222
 10
-32.5882228164
 20
-178.9881211081
 10
-32.54962153
 20
-179.0659313516
 10
-32.5088872173
 20
-179.1430833073
 10
-32.4662517628
 20
-179.2191377796
 10
-32.4217043233
 20
-179.2940885092
 10
-32.3752557419
 20
-179.3679417553
 10
-32.327170432
 20
-179.4402771009
 10
-32.2774390585
 20
-179.5110858887
 10
-32.2260709564
 20
-179.5803767759
 10
-32.173358544
 20
-179.6477553169
 10
-32.1192941541
 20
-179.7132106049
 10
-32.0638854538
 20
-179.7767535468
 10
-32.0074478629
 20
-179.8380224178
 10
-31.9499755133
 20
-179.8970042479
 10
-31.8914742731
 20
-179.9537120071
 10
-31.8322771666
 20
-180.0078228807
 10
-31.7723802251
 20
-180.0593220575
 10
-31.7117874173
 20
-180.1082243486
 10
-31.6508436741
 20
-180.1542513727
 10
-31.5896639724
 20
-180.197310336
 10
-31.5281333353
 20
-180.2374940323
 10
-31.4662517628
 20
-180.2748024615
  0
LWPOLYLINE
  5
24C
100
AcDbEntity
  8
RACCORDO
100
AcDbPolyline
 62
7
  6
CONTINUOUS
 90
37
 70
0
 10
-28.1074945522
 20
-185.4801457068
 10
-28.108861864
 20
-185.4079038549
 10
-28.1128947951
 20
-185.3345281202
 10
-28.1195933452
 20
-185.2600185027
 10
-28.1289803849
 20
-185.1842290376
 10
-28.1410330438
 20
-185.1073056897
 10
-28.1556827108
 20
-185.0296863531
 10
-28.1729441977
 20
-184.9513670583
 10
-28.1928026929
 20
-184.8723517747
 10
-28.2151451497
 20
-184.793090305
 10
-28.2399857351
 20
-184.7135812452
 10
-28.2673102822
 20
-184.6338259994
 10
-28.2969632431
 20
-184.5542785824
 10
-28.3289578978
 20
-184.4749401797
 10
-28.3632809663
 20
-184.3958096059
 10
-28.3997370609
 20
-184.31733732
 10
-28.4383383474
 20
-184.2395270764
 10
-28.47907266
 20
-184.1623751207
 10
-28.5217081145
 20
-184.0863206484
 10
-28.566255554
 20
-184.0113699189
 10
-28.6127041354
 20
-183.9375166727
 10
-28.6607894454
 20
-183.8651813271
 10
-28.7105208189
 20
-183.7943725394
 10
-28.7618889209
 20
-183.7250816522
 10
-28.8146013334
 20
-183.6577031111
 10
-28.8686657233
 20
-183.5922478231
 10
-28.9240744235
 20
-183.5287048813
 10
-28.9805120144
 20
-183.4674360103
 10
-29.037984364
 20
-183.4084541802
 10
-29.0964856043
 20
-183.3517464209
 10
-29.1556827108
 20
-183.2976355474
 10
-29.2155796523
 20
-183.2461363706
 10
-29.2761724601
 20
-183.1972340795
 10
-29.3371162033
 20
-183.1512070554
 10
-29.3982959049
 20
-183.1081480921
 10
-29.459826542
 20
-183.0679643958
 10
-29.5217081145
 20
-183.0306559665
  0
LINE
  5
24D
100
AcDbEntity
  8
RACCORDO
100
AcDbLine
 62
7
  6
CONTINUOUS
 10
-43.0628029743
 20
238.9831739127
 11
-43.0628029743
 21
-190.8884268187
  0
LINE
  5
24E
100
AcDbEntity
  8
RACCORDO
100
AcDbLine
 62
7
  6
CONTINUOUS
 10
-34.2946788875
 20
-178.641861908
 11
-34.2946788875
 21
202.1598751882
  0
LINE
  5
24F
100
AcDbEntity
  8
RACCORDO
100
AcDbLine
 62
7
  6
CONTINUOUS
 10
-32.8804653252
 20
-177.8253127213
 11
-32.8804653252
 21
202.9764243749
  0
LWPOLYLINE
  5
250
100
AcDbEntity
  8
RACCORDO
100
AcDbPolyline
 62
7
  6
CONTINUOUS
 90
19
 70
0
 10
-34.2946788875
 20
202.1598751882
 10
-34.2933115757
 20
202.2305381026
 10
-34.2892786447
 20
202.2992567096
 10
-34.2825800945
 20
202.3660310093
 10
-34.2731930548
 20
202.4309805562
 10
-34.261140396
 20
202.4939857958
 10
-34.246490729
 20
202.5546880642
 10
-34.229229242
 20
202.6130742265
 10
-34.2093707468
 20
202.6691574177
 10
-34.1870282901
 20
202.7226183783
 10
-34.1621877046
 20
202.7734421526
 10
-34.1348631575
 20
202.8216436964
 10
-34.1052101966
 20
202.8669486174
 10
-34.0732155419
 20
202.9093403949
 10
-34.0388924734
 20
202.9488355496
 10
-34.0024363788
 20
202.9852092512
 10
-33.9638350923
 20
203.0184436967
 10
-33.9231007797
 20
203.0485566892
 10
-33.8805136454
 20
203.0753489105
  0
LWPOLYLINE
  5
251
100
AcDbEntity
  8
RACCORDO
100
AcDbPolyline
 62
7
  6
CONTINUOUS
 90
19
 70
0
 10
-26.6932809898
 20
202.6699027904
 10
-26.6946483017
 20
202.599239876
 10
-26.6986812327
 20
202.530521269
 10
-26.7053797829
 20
202.4637469693
 10
-26.7147668225
 20
202.3987974224
 10
-26.7268194814
 20
202.3357921828
 10
-26.7414691484
 20
202.2750899145
 10
-26.7587306354
 20
202.2167037521
 10
-26.7785891305
 20
202.1606205609
 10
-26.8009315873
 20
202.1071596003
 10
-26.8257721728
 20
202.056335826
 10
-26.8530967199
 20
202.0081342822
 10
-26.8827496808
 20
201.9628293612
 10
-26.9147443354
 20
201.9204375837
 10
-26.9490674039
 20
201.880942429
 10
-26.9855234986
 20
201.8445687274
 10
-27.024124785
 20
201.8113342819
 10
-27.0648590976
 20
201.7812212894
 10
-27.1074462319
 20
201.7544290682
  0
LWPOLYLINE
  5
252
100
AcDbEntity
  8
RACCORDO
100
AcDbPolyline
 62
7
  6
CONTINUOUS
 90
15
 70
0
 10
-28.1074945522
 20
212.0592320637
 10
-28.1068796106
 20
212.0827460929
 10
-28.1050891872
 20
212.1053420874
 10
-28.1021232817
 20
212.1270200473
 10
-28.0979639443
 20
212.1478469598
 10
-28.092629125
 20
212.1677558376
 10
-28.0861726738
 20
212.1865457189
 10
-28.0785832307
 20
212.2042052701
 10
-28.0698721558
 20
212.2207458247
 10
-28.0601273794
 20
212.236000421
 10
-28.0493384321
 20
212.2499560344
 10
-28.0375157832
 20
212.2626256895
 10
-28.0247787718
 20
212.2738814976
 10
-28.0111181369
 20
212.283709139
 10
-28.0039478182
 20
212.2880911011
  0
LWPOLYLINE
  5
253
100
AcDbEntity
  8
CURVE
100
AcDbPolyline
 62
250
  6
CONTINUOUS
 90
17
 70
0
 10
9.8911859685
 20
200.2304196113
 10
9.9003829476
 20
200.2717190694
 10
9.9015642173
 20
200.3188216787
 10
9.8946847834
 20
200.3699333155
 10
9.8796766858
 20
200.4240630952
 10
9.8576365301
 20
200.4772558848
 10
9.8292088628
 20
200.5284229921
 10
9.7954764848
 20
200.5756154779
 10
9.7570221809
 20
200.6177129548
 10
9.7166557147
 20
200.6516394611
 10
9.6752716523
 20
200.6768980688
 10
9.6344462998
 20
200.6925266856
 10
9.5950717993
 20
200.6979317286
 10
9.560025151
 20
200.6927182644
 10
9.5299269161
 20
200.6772722227
 10
9.5059235268
 20
200.6521819387
 10
9.4886938722
 20
200.6177283301
  0
LINE
  5
254
100
AcDbEntity
  8
RACCORDO
100
AcDbLine
 62
7
  6
CONTINUOUS
 10
-28.1074945522
 20
-188.3377916755
 11
-28.1074945522
 21
-185.4801457068
  0
LINE
  5
255
100
AcDbEntity
  8
RACCORDO
100
AcDbLine
 62
7
  6
CONTINUOUS
 10
-28.1074945522
 20
201.8533536038
 11
-28.1074945522
 21
212.0592320637
  0
LINE
  5
256
100
AcDbEntity
  8
RACCORDO
100
AcDbLine
 62
7
  6
CONTINUOUS
 10
-26.6932809898
 20
-187.5212424889
 11
-26.6932809898
 21
-184.6635965201
  0
LINE
  5
257
100
AcDbEntity
  8
RACCORDO
100
AcDbLine
 62
7
  6
CONTINUOUS
 10
-26.6932809898
 20
202.6699027904
 11
-26.6932809898
 21
211.6509180154
  0
LWPOLYLINE
  5
258
100
AcDbEntity
  8
RACCORDO
100
AcDbPolyline
 62
7
  6
CONTINUOUS
 90
28
 70
0
 10
1.4849242405
 20
-203.790985033
 10
1.485539182
 20
-203.8152091813
 10
1.4873296055
 20
-203.8398727119
 10
1.4902955109
 20
-203.8649756251
 10
1.4944548483
 20
-203.8906056362
 10
1.4997896677
 20
-203.9166750297
 10
1.5062461189
 20
-203.9429206589
 10
1.513835562
 20
-203.9693443088
 10
1.5225466369
 20
-203.9959441943
 10
1.5322914132
 20
-204.0224518141
 10
1.5430803606
 20
-204.0488662335
 10
1.5549030094
 20
-204.0751883871
 10
1.5676400209
 20
-204.1011525767
 10
1.5813006558
 20
-204.1267551769
 10
1.5958756533
 20
-204.1519998131
 10
1.6112178922
 20
-204.1766316639
 10
1.6273351433
 20
-204.2006445228
 10
1.6442196356
 20
-204.2240445963
 10
1.6617009358
 20
-204.2465956819
 10
1.6797850884
 20
-204.268289181
 10
1.6984660488
 20
-204.2891336922
 10
1.7175552498
 20
-204.3089188093
 10
1.7370568261
 20
-204.3276338025
 10
1.756966643
 20
-204.3452894016
 10
1.7770837291
 20
-204.3617073894
 10
1.7973410939
 20
-204.3768283603
 10
1.8178057279
 20
-204.3907117198
 10
1.8384776311
 20
-204.403357468
  0
LWPOLYLINE
  5
259
100
AcDbEntity
  8
RACCORDO
100
AcDbPolyline
 62
7
  6
CONTINUOUS
 90
34
 70
0
 10
0.0707106781
 20
-203.3828288044
 10
0.0698946954
 20
-203.3433628976
 10
0.0674955863
 20
-203.3032457369
 10
0.0635133506
 20
-203.2624773224
 10
0.0579318194
 20
-203.2209624938
 10
0.0507671617
 20
-203.1787964114
 10
0.0420678851
 20
-203.1362645561
 10
0.0318235761
 20
-203.0933644458
 10
0.0200446481
 20
-203.0500985626
 10
0.0068108492
 20
-203.0067598335
 10
-0.007887693
 20
-202.963347764
 10
-0.0240411061
 20
-202.9198628487
 10
-0.0415400253
 20
-202.8765994972
 10
-0.0603935807
 20
-202.8335592132
 10
-0.0805926422
 20
-202.7907404932
 10
-0.1020004542
 20
-202.7484332365
 10
-0.1246252188
 20
-202.706640914
 10
-0.148458734
 20
-202.6653600549
 10
-0.1733396374
 20
-202.6248701468
 10
-0.1992750363
 20
-202.5851765569
 10
-0.2262578235
 20
-202.546273918
 10
-0.2541053149
 20
-202.5084256162
 10
-0.2828233781
 20
-202.4716388059
 10
-0.3124061456
 20
-202.4359063328
 10
-0.3426533304
 20
-202.4014701196
 10
-0.373569441
 20
-202.3683389624
 10
-0.4051499689
 20
-202.3365040651
 10
-0.4371811016
 20
-202.3061809624
 10
-0.4696658968
 20
-202.2773799131
 10
-0.5026012967
 20
-202.2500906583
 10
-0.5357643159
 20
-202.2244979572
 10
-0.5690806257
 20
-202.200663396
 10
-0.6026245548
 20
-202.1785253884
 10
-0.6363961031
 20
-202.1580839343
  0
LWPOLYLINE
  5
25A
100
AcDbEntity
  8
RACCORDO
100
AcDbPolyline
 62
7
  6
CONTINUOUS
 90
34
 70
0
 10
-4.4547727215
 20
197.5859766401
 10
-4.4539567388
 20
197.5465107332
 10
-4.4515576296
 20
197.5063935725
 10
-4.447575394
 20
197.465625158
 10
-4.4419938628
 20
197.4241103294
 10
-4.4348292051
 20
197.381944247
 10
-4.4261299284
 20
197.3394123917
 10
-4.4158856194
 20
197.2965122814
 10
-4.4041066915
 20
197.2532463982
 10
-4.3908728926
 20
197.2099076691
 10
-4.3761743504
 20
197.1664955997
 10
-4.3600209372
 20
197.1230106843
 10
-4.3425220181
 20
197.0797473329
 10
-4.3236684626
 20
197.0367070489
 10
-4.3034694011
 20
196.9938883288
 10
-4.2820615892
 20
196.9515810722
 10
-4.2594368245
 20
196.9097887496
 10
-4.2356033094
 20
196.8685078905
 10
-4.210722406
 20
196.8280179824
 10
-4.1847870071
 20
196.7883243925
 10
-4.1578042199
 20
196.7494217536
 10
-4.1299567285
 20
196.7115734518
 10
-4.1012386652
 20
196.6747866416
 10
-4.0716558978
 20
196.6390541684
 10
-4.041408713
 20
196.6046179552
 10
-4.0104926024
 20
196.571486798
 10
-3.9789120744
 20
196.5396519007
 10
-3.9468809417
 20
196.5093287981
 10
-3.9143961466
 20
196.4805277487
 10
-3.8814607466
 20
196.453238494
 10
-3.8482977275
 20
196.4276457928
 10
-3.8149814176
 20
196.4038112316
 10
-3.7814374886
 20
196.381673224
 10
-3.7476659403
 20
196.3612317699
  0
LINE
  5
25B
100
AcDbEntity
  8
CURVE
100
AcDbLine
 62
250
  6
CONTINUOUS
 10
-6.576093065
 20
210.7720899751
 11
-6.576093065
 21
204.2403277607
  0
LINE
  5
25C
100
AcDbEntity
  8
CURVE
100
AcDbLine
 62
250
  6
CONTINUOUS
 10
-6.1518289963
 20
210.5271252191
 11
-6.1518289963
 21
203.9953630047
  0
LINE
  5
25D
100
AcDbEntity
  8
RACCORDO
100
AcDbLine
 62
7
  6
CONTINUOUS
 10
-4.4547727215
 20
198.4024469169
 11
-4.4547727215
 21
197.5859766401
  0
LINE
  5
25E
100
AcDbEntity
  8
RACCORDO
100
AcDbLine
 62
7
  6
CONTINUOUS
 10
-1.4849242405
 20
-202.4846246991
 11
-1.4849242405
 21
-203.7093301143
  0
LINE
  5
25F
100
AcDbEntity
  8
CURVE
100
AcDbLine
 62
250
  6
CONTINUOUS
 10
-0.7071067812
 20
208.520188907
 11
-0.7071067812
 21
202.8300189746
  0
LINE
  5
260
100
AcDbEntity
  8
CURVE
100
AcDbLine
 62
250
  6
CONTINUOUS
 10
-0.2828427125
 20
202.664551149
 11
-0.2828427125
 21
208.275224151
  0
LINE
  5
261
100
AcDbEntity
  8
RACCORDO
100
AcDbLine
 62
7
  6
CONTINUOUS
 10
0.0707106781
 20
-204.6075342196
 11
0.0707106781
 21
-203.3828288044
  0
LINE
  5
262
100
AcDbEntity
  8
RACCORDO
100
AcDbLine
 62
7
  6
CONTINUOUS
 10
1.4849242405
 20
-203.790985033
 11
1.4849242405
 21
-202.5662796178
  0
LWPOLYLINE
  5
263
100
AcDbEntity
  8
RACCORDO
100
AcDbPolyline
 62
7
  6
CONTINUOUS
 90
15
 70
0
 10
3.0405591591
 20
194.0747362276
 10
3.0411741006
 20
194.0982502568
 10
3.0429645241
 20
194.1208462513
 10
3.0459304295
 20
194.1425242112
 10
3.050089767
 20
194.1633511237
 10
3.0554245863
 20
194.1832600015
 10
3.0618810375
 20
194.2020498828
 10
3.0694704806
 20
194.219709434
 10
3.0781815555
 20
194.2362499886
 10
3.0879263318
 20
194.2515045849
 10
3.0987152792
 20
194.2654601983
 10
3.110537928
 20
194.2781298534
 10
3.1232749395
 20
194.2893856615
 10
3.1369355744
 20
194.2992133029
 10
3.1441058931
 20
194.303595265
  0
LWPOLYLINE
  5
264
100
AcDbEntity
  8
CURVE
100
AcDbPolyline
 62
250
  6
CONTINUOUS
 90
17
 70
0
 10
-6.576093065
 20
204.2403277607
 10
-6.5720530434
 20
204.1904191305
 10
-6.5600868616
 20
204.1377461888
 10
-6.5406503079
 20
204.0843152316
 10
-6.5139610307
 20
204.031254002
 10
-6.4819691513
 20
203.9824395567
 10
-6.4454823793
 20
203.9387826772
 10
-6.4058904844
 20
203.9019462406
 10
-6.3639610307
 20
203.8729042997
 10
-6.3227577026
 20
203.8537788793
 10
-6.2831237965
 20
203.8447116701
 10
-6.2465689555
 20
203.846048039
 10
-6.2139610307
 20
203.8580377619
 10
-6.1876826047
 20
203.8798047783
 10
-6.1681185692
 20
203.9106386874
 10
-6.1560141122
 20
203.9493650352
 10
-6.1518289963
 20
203.9953630261
  0
LWPOLYLINE
  5
265
100
AcDbEntity
  8
CURVE
100
AcDbPolyline
 62
250
  6
CONTINUOUS
 90
17
 70
0
 10
-6.1518289963
 20
210.5271252191
 10
-6.155869018
 20
210.5770338493
 10
-6.1678351997
 20
210.629706791
 10
-6.1872717534
 20
210.6831377482
 10
-6.2139610307
 20
210.7361989778
 10
-6.2459529101
 20
210.7850134231
 10
-6.2824396821
 20
210.8286703025
 10
-6.322031577
 20
210.8655067392
 10
-6.3639610307
 20
210.8945486801
 10
-6.4051643587
 20
210.9136741005
 10
-6.4447982648
 20
210.9227413097
 10
-6.4813531058
 20
210.9214049408
 10
-6.5139610307
 20
210.9094152179
 10
-6.5402394567
 20
210.8876482015
 10
-6.5598034922
 20
210.8568142924
 10
-6.5719079492
 20
210.8180879446
 10
-6.576093065
 20
210.7720899537
  0
LWPOLYLINE
  5
266
100
AcDbEntity
  8
CURVE
100
AcDbPolyline
 62
250
  6
CONTINUOUS
 90
17
 70
0
 10
-0.2828427125
 20
208.275224151
 10
-0.2868827341
 20
208.3251327812
 10
-0.2988489159
 20
208.3778057229
 10
-0.3182854696
 20
208.4312366802
 10
-0.3449747468
 20
208.4842979098
 10
-0.3769666262
 20
208.533112355
 10
-0.4134533982
 20
208.5767692345
 10
-0.4530452931
 20
208.6136056711
 10
-0.4949747468
 20
208.642647612
 10
-0.5361780749
 20
208.6617730324
 10
-0.575811981
 20
208.6708402417
 10
-0.612366822
 20
208.6695038727
 10
-0.6449747468
 20
208.6575141499
 10
-0.6712531728
 20
208.6357471334
 10
-0.6908172083
 20
208.6049132243
 10
-0.7029216653
 20
208.5661868766
 10
-0.7071067812
 20
208.5201888856
  0
LINE
  5
267
100
AcDbEntity
  8
RACCORDO
100
AcDbLine
 62
7
  6
CONTINUOUS
 10
3.0405591591
 20
193.2582659508
 11
3.0405591591
 21
194.0747362276
  0
LINE
  5
268
100
AcDbEntity
  8
CURVE
100
AcDbLine
 62
250
  6
CONTINUOUS
 10
3.4376268358
 20
206.1270716622
 11
3.4376268358
 21
200.5163987093
  0
LINE
  5
269
100
AcDbEntity
  8
CURVE
100
AcDbLine
 62
250
  6
CONTINUOUS
 10
3.8618909046
 20
200.1919369738
 11
3.8618909046
 21
205.8821069062
  0
LINE
  5
26A
100
AcDbEntity
  8
CURVE
100
AcDbLine
 62
250
  6
CONTINUOUS
 10
5.3848903298
 20
205.0027461258
 11
5.3848903298
 21
197.5791469379
  0
LINE
  5
26B
100
AcDbEntity
  8
CURVE
100
AcDbLine
 62
250
  6
CONTINUOUS
 10
5.8091543985
 20
197.3341821819
 11
5.8091543985
 21
204.7577813698
  0
LWPOLYLINE
  5
26C
100
AcDbEntity
  8
RACCORDO
100
AcDbPolyline
 62
7
  6
CONTINUOUS
 90
15
 70
0
 10
-1.4849242405
 20
-203.7093301143
 10
-1.485539182
 20
-203.7328441435
 10
-1.4873296055
 20
-203.7554401381
 10
-1.4902955109
 20
-203.7771180979
 10
-1.4944548483
 20
-203.7979450104
 10
-1.4997896677
 20
-203.8178538883
 10
-1.5062461189
 20
-203.8366437695
 10
-1.513835562
 20
-203.8543033207
 10
-1.5225466369
 20
-203.8708438754
 10
-1.5322914132
 20
-203.8860984716
 10
-1.5430803606
 20
-203.9000540851
 10
-1.5549030094
 20
-203.9127237401
 10
-1.5676400209
 20
-203.9239795482
 10
-1.5813006558
 20
-203.9338071896
 10
-1.5884709745
 20
-203.9381891517
  0
LWPOLYLINE
  5
26D
100
AcDbEntity
  8
CURVE
100
AcDbPolyline
 62
250
  6
CONTINUOUS
 90
17
 70
0
 10
3.8618909046
 20
205.8821069062
 10
3.8578508829
 20
205.9320155365
 10
3.8458847012
 20
205.9846884782
 10
3.8264481475
 20
206.0381194354
 10
3.7997588702
 20
206.091180665
 10
3.7677669908
 20
206.1399951103
 10
3.7312802188
 20
206.1836519897
 10
3.6916883239
 20
206.2204884263
 10
3.6497588702
 20
206.2495303673
 10
3.6085555421
 20
206.2686557876
 10
3.568921636
 20
206.2777229969
 10
3.5323667951
 20
206.2763866279
 10
3.4997588702
 20
206.2643969051
 10
3.4734804442
 20
206.2426298887
 10
3.4539164087
 20
206.2117959796
 10
3.4418119517
 20
206.1730696318
 10
3.4376268358
 20
206.1270716408
  0
LWPOLYLINE
  5
26E
100
AcDbEntity
  8
CURVE
100
AcDbPolyline
 62
250
  6
CONTINUOUS
 90
17
 70
0
 10
5.3848903298
 20
197.5791469379
 10
5.3889303515
 20
197.5292383077
 10
5.4008965332
 20
197.476565366
 10
5.4203330869
 20
197.4231344087
 10
5.4470223642
 20
197.3700731792
 10
5.4790142436
 20
197.3212587339
 10
5.5155010156
 20
197.2776018544
 10
5.5550929105
 20
197.2407654178
 10
5.5970223642
 20
197.2117234769
 10
5.6382256922
 20
197.1925980565
 10
5.6778595984
 20
197.1835308472
 10
5.7144144393
 20
197.1848672162
 10
5.7470223642
 20
197.196856939
 10
5.7733007902
 20
197.2186239555
 10
5.7928648257
 20
197.2494578646
 10
5.8049692827
 20
197.2881842123
 10
5.8091543985
 20
197.3341822033
  0
LWPOLYLINE
  5
26F
100
AcDbEntity
  8
CURVE
100
AcDbPolyline
 62
250
  6
CONTINUOUS
 90
17
 70
0
 10
5.8091543985
 20
204.7577813698
 10
5.8051143769
 20
204.80769
 10
5.7931481951
 20
204.8603629417
 10
5.7737116414
 20
204.9137938989
 10
5.7470223642
 20
204.9668551285
 10
5.7150304848
 20
205.0156695738
 10
5.6785437128
 20
205.0593264532
 10
5.6389518179
 20
205.0961628899
 10
5.5970223642
 20
205.1252048308
 10
5.5558190361
 20
205.1443302511
 10
5.51618513
 20
205.1533974604
 10
5.479630289
 20
205.1520610915
 10
5.4470223642
 20
205.1400713686
 10
5.4207439382
 20
205.1183043522
 10
5.4011799027
 20
205.0874704431
 10
5.3890754457
 20
205.0487440953
 10
5.3848903298
 20
205.0027461043
  0
LWPOLYLINE
  5
270
100
AcDbEntity
  8
RACCORDO
100
AcDbPolyline
 62
7
  6
CONTINUOUS
 90
37
 70
0
 10
26.6932809898
 20
170.2120726209
 10
26.6946483017
 20
170.139830769
 10
26.6986812327
 20
170.0664550343
 10
26.7053797829
 20
169.9919454168
 10
26.7147668225
 20
169.9161559517
 10
26.7268194814
 20
169.8392326039
 10
26.7414691484
 20
169.7616132672
 10
26.7587306354
 20
169.6832939724
 10
26.7785891305
 20
169.6042786888
 10
26.8009315873
 20
169.5250172192
 10
26.8257721728
 20
169.4455081593
 10
26.8530967199
 20
169.3657529135
 10
26.8827496808
 20
169.2862054965
 10
26.9147443354
 20
169.2068670938
 10
26.9490674039
 20
169.12773652
 10
26.9855234986
 20
169.0492642341
 10
27.024124785
 20
168.9714539905
 10
27.0648590976
 20
168.8943020349
 10
27.1074945522
 20
168.8182475625
 10
27.1520419916
 20
168.743296833
 10
27.198490573
 20
168.6694435868
 10
27.246575883
 20
168.5971082412
 10
27.2963072565
 20
168.5262994535
 10
27.3476753586
 20
168.4570085663
 10
27.400387771
 20
168.3896300253
 10
27.4544521609
 20
168.3241747373
 10
27.5098608612
 20
168.2606317954
 10
27.566298452
 20
168.1993629244
 10
27.6237708017
 20
168.1403810943
 10
27.6822720419
 20
168.083673335
 10
27.7414691484
 20
168.0295624615
 10
27.8013660899
 20
167.9780632847
 10
27.8619588977
 20
167.9291609936
 10
27.9229026409
 20
167.8831339695
 10
27.9840823426
 20
167.8400750062
 10
28.0456129797
 20
167.7998913099
 10
28.1074945522
 20
167.7625828806
  0
LINE
  5
271
100
AcDbEntity
  8
RACCORDO
100
AcDbLine
 62
7
  6
CONTINUOUS
 10
26.6932809898
 20
180.4179510808
 11
26.6932809898
 21
170.2120726209
  0
LINE
  5
272
100
AcDbEntity
  8
RACCORDO
100
AcDbLine
 62
7
  6
CONTINUOUS
 10
26.6932809898
 20
-217.1214266897
 11
26.6932809898
 21
-219.9790726584
  0
LINE
  5
273
100
AcDbEntity
  8
RACCORDO
100
AcDbLine
 62
7
  6
CONTINUOUS
 10
32.8804653252
 20
163.3737888221
 11
32.8804653252
 21
-217.4279482741
  0
LWPOLYLINE
  5
274
100
AcDbEntity
  8
RACCORDO
100
AcDbPolyline
 62
7
  6
CONTINUOUS
 90
15
 70
0
 10
26.6932809898
 20
-219.9790726584
 10
26.6926660483
 20
-220.0025866876
 10
26.6908756248
 20
-220.0251826822
 10
26.6879097194
 20
-220.046860642
 10
26.6837503819
 20
-220.0676875545
 10
26.6784155626
 20
-220.0875964324
 10
26.6719591114
 20
-220.1063863136
 10
26.6643696683
 20
-220.1240458649
 10
26.6556585934
 20
-220.1405864195
 10
26.645913817
 20
-220.1558410157
 10
26.6351248697
 20
-220.1697966292
 10
26.6233022209
 20
-220.1824662842
 10
26.6105652094
 20
-220.1937220923
 10
26.5969045745
 20
-220.2035497337
 10
26.5897342558
 20
-220.2079316958
  0
LWPOLYLINE
  5
275
100
AcDbEntity
  8
RACCORDO
100
AcDbPolyline
 62
7
  6
CONTINUOUS
 90
34
 70
0
 10
41.6485894119
 20
190.0718776321
 10
41.6477734292
 20
190.1113435389
 10
41.64537432
 20
190.1514606996
 10
41.6413920844
 20
190.1922291141
 10
41.6358105532
 20
190.2337439427
 10
41.6286458955
 20
190.2759100251
 10
41.6199466188
 20
190.3184418804
 10
41.6097023098
 20
190.3613419907
 10
41.5979233819
 20
190.4046078739
 10
41.584689583
 20
190.447946603
 10
41.5699910408
 20
190.4913586725
 10
41.5538376277
 20
190.5348435878
 10
41.5363387085
 20
190.5781069393
 10
41.517485153
 20
190.6211472233
 10
41.4972860916
 20
190.6639659433
 10
41.4758782796
 20
190.7062732
 10
41.4532535149
 20
190.7480655225
 10
41.4294199998
 20
190.7893463816
 10
41.4045390964
 20
190.8298362897
 10
41.3786036975
 20
190.8695298796
 10
41.3516209103
 20
190.9084325185
 10
41.3237734189
 20
190.9462808203
 10
41.2950553557
 20
190.9830676306
 10
41.2654725882
 20
191.0188001037
 10
41.2352254034
 20
191.0532363169
 10
41.2043092928
 20
191.0863674741
 10
41.1727287648
 20
191.1182023714
 10
41.1406976321
 20
191.1485254741
 10
41.108212837
 20
191.1773265234
 10
41.0752774371
 20
191.2046157782
 10
41.0421144179
 20
191.2302084793
 10
41.0087981081
 20
191.2540430405
 10
40.975254179
 20
191.2761810481
 10
40.9414826307
 20
191.2966225022
  0
LINE
  5
276
100
AcDbEntity
  8
RACCORDO
100
AcDbLine
 62
7
  6
CONTINUOUS
 10
41.6485894119
 20
-239.7997230994
 11
41.6485894119
 21
190.0718776321
  0
LINE
  5
277
100
AcDbEntity
  8
RACCORDO
100
AcDbLine
 62
7
  6
CONTINUOUS
 10
43.0628029743
 20
-238.9831739127
 11
43.0628029743
 21
190.8884268187
  0
LWPOLYLINE
  5
278
100
AcDbEntity
  8
RACCORDO
100
AcDbPolyline
 62
7
  6
CONTINUOUS
 90
19
 70
0
 10
32.8804653252
 20
-217.4279482741
 10
32.8790980133
 20
-217.4986111885
 10
32.8750650823
 20
-217.5673297955
 10
32.8683665321
 20
-217.6341040952
 10
32.8589794924
 20
-217.6990536421
 10
32.8469268336
 20
-217.7620588817
 10
32.8322771666
 20
-217.8227611501
 10
32.8150156796
 20
-217.8811473124
 10
32.7951571844
 20
-217.9372305036
 10
32.7728147277
 20
-217.9906914642
 10
32.7479741422
 20
-218.0415152385
 10
32.7206495951
 20
-218.0897167823
 10
32.6909966342
 20
-218.1350217033
 10
32.6590019795
 20
-218.1774134808
 10
32.6246789111
 20
-218.2169086355
 10
32.5882228164
 20
-218.2532823371
 10
32.54962153
 20
-218.2865167826
 10
32.5088872173
 20
-218.3166297751
 10
32.4663000831
 20
-218.3434219964
  0
LWPOLYLINE
  5
279
100
AcDbEntity
  8
RACCORDO
100
AcDbPolyline
 62
7
  6
CONTINUOUS
 90
18
 70
0
 10
43.0628029743
 20
-238.9831739127
 10
43.0619869916
 20
-239.0216975432
 10
43.0595878824
 20
-239.0590442728
 10
43.0556056468
 20
-239.0952141014
 10
43.0500241155
 20
-239.1302835177
 10
43.0428594578
 20
-239.1641760329
 10
43.0341601812
 20
-239.1966621817
 10
43.0239158722
 20
-239.2277324207
 10
43.0121369443
 20
-239.2573962931
 10
42.9989031454
 20
-239.285452963
 10
42.9842046032
 20
-239.3118915243
 10
42.96805119
 20
-239.3367228831
 10
42.9505522708
 20
-239.3597789213
 10
42.9316987154
 20
-239.381047592
 10
42.9114996539
 20
-239.4005409422
 10
42.890091842
 20
-239.4181269942
 10
42.8674670773
 20
-239.4337928056
 10
42.8557154883
 20
-239.4409023482
  0
LINE
  5
27A
100
AcDbEntity
  8
CURVE
100
AcDbLine
 62
250
  6
CONTINUOUS
 10
-0.7071067812
 20
202.8300189746
 11
-0.5167318715
 21
202.0606420798
  0
LINE
  5
27B
100
AcDbEntity
  8
CURVE
100
AcDbLine
 62
250
  6
CONTINUOUS
 10
-0.1237743863
 20
202.0216959794
 11
-0.2828427125
 21
202.664551149
  0
LINE
  5
27C
100
AcDbEntity
  8
CURVE
100
AcDbLine
 62
250
  6
CONTINUOUS
 10
-0.5167318715
 20
202.0606420798
 11
-0.3263569617
 21
201.5110841777
  0
LINE
  5
27D
100
AcDbEntity
  8
CURVE
100
AcDbLine
 62
250
  6
CONTINUOUS
 10
0.0223263305
 20
201.5999450064
 11
-0.1237743863
 21
202.0216959794
  0
LINE
  5
27E
100
AcDbEntity
  8
CURVE
100
AcDbLine
 62
250
  6
CONTINUOUS
 10
9.3926925093
 20
201.7897311441
 11
9.4886938918
 21
201.4017543492
  0
LINE
  5
27F
100
AcDbEntity
  8
CURVE
100
AcDbLine
 62
250
  6
CONTINUOUS
 10
9.8911859954
 20
201.3242752251
 11
9.7635126818
 21
201.8402499095
  0
LWPOLYLINE
  5
280
100
AcDbEntity
  8
CURVE
100
AcDbPolyline
 62
250
  6
CONTINUOUS
 90
17
 70
0
 10
-5.0626672617
 20
210.5096851895
 10
-5.0384201832
 20
210.4569374536
 10
-5.00811684
 20
210.4068688723
 10
-4.9729114772
 20
210.3613865423
 10
-4.9334293079
 20
210.3215904786
 10
-4.8925551994
 20
210.290388484
 10
-4.8511807783
 20
210.2682094425
 10
-4.8108819834
 20
210.2558981469
 10
-4.7725534801
 20
210.2539832673
 10
-4.7389958401
 20
210.2626047192
 10
-4.7107869158
 20
210.2813073993
 10
-4.6890011762
 20
210.3093789281
 10
-4.6742786563
 20
210.346466943
 10
-4.6676950953
 20
210.3898615119
 10
-4.669176073
 20
210.4384901371
 10
-4.6786651796
 20
210.4905005695
 10
-4.6961729049
 20
210.5448658467
  0
LINE
  5
281
100
AcDbEntity
  8
CURVE
100
AcDbLine
 62
250
  6
CONTINUOUS
 10
-6.3639610307
 20
213.8375115844
 11
-5.0626672617
 21
210.5096851895
  0
LINE
  5
282
100
AcDbEntity
  8
CURVE
100
AcDbLine
 62
250
  6
CONTINUOUS
 10
-4.6961728956
 20
210.5448658228
 11
-6.1807138476
 21
214.3413141593
  0
LWPOLYLINE
  5
283
100
AcDbEntity
  8
CURVE
100
AcDbPolyline
 62
250
  6
CONTINUOUS
 90
17
 70
0
 10
9.4886938842
 20
201.4017543506
 10
9.5055562568
 20
201.3483588756
 10
9.5294417466
 20
201.2955216397
 10
9.5594405627
 20
201.2452551968
 10
9.5950717865
 20
201.198708404
 10
9.6337319298
 20
201.1592823235
 10
9.6745330188
 20
201.1276163494
 10
9.7159209526
 20
201.1049166286
 10
9.7570221663
 20
201.0919109086
 10
9.7948334927
 20
201.089549486
 10
9.8286494564
 20
201.0976042719
 10
9.8571820176
 20
201.1157684618
 10
9.8796766877
 20
201.1439223889
 10
9.894489835
 20
201.1800089135
 10
9.9015117404
 20
201.223066075
 10
9.9004749416
 20
201.2714538395
 10
9.8911859896
 20
201.3242752488
  0
LWPOLYLINE
  5
284
100
AcDbEntity
  8
CURVE
100
AcDbPolyline
 62
250
  6
CONTINUOUS
 90
11
 70
0
 10
-6.1807138476
 20
214.3413141593
 10
-6.2064401366
 20
214.3968296138
 10
-6.2394227621
 20
214.4501040705
 10
-6.2778483076
 20
214.4978551047
 10
-6.3200373923
 20
214.5379957672
 10
-6.3634056709
 20
214.5683434285
 10
-6.4075223857
 20
214.5885966588
 10
-6.4497352602
 20
214.597273676
 10
-6.4881993893
 20
214.5939952529
 10
-6.5207358316
 20
214.5792500962
 10
-6.5472082253
 20
214.5529233969
  0
LINE
  5
285
100
AcDbEntity
  8
CURVE
100
AcDbLine
 62
250
  6
CONTINUOUS
 10
-0.3263569617
 20
201.5110841777
 11
0.0543928577
 21
200.8516061462
  0
LINE
  5
286
100
AcDbEntity
  8
CURVE
100
AcDbLine
 62
250
  6
CONTINUOUS
 10
0.305709565
 20
201.1091108468
 11
0.0223263305
 21
201.5999450064
  0
LINE
  5
287
100
AcDbEntity
  8
CURVE
100
AcDbLine
 62
250
  6
CONTINUOUS
 10
9.1314459478
 20
202.2422229939
 11
9.3926925093
 21
201.7897311441
  0
LINE
  5
288
100
AcDbEntity
  8
CURVE
100
AcDbLine
 62
250
  6
CONTINUOUS
 10
9.7635126818
 20
201.8402499095
 11
9.3827626042
 21
202.4997277069
  0
LINE
  5
289
100
AcDbEntity
  8
CURVE
100
AcDbLine
 62
250
  6
CONTINUOUS
 10
0.0543928577
 20
200.8516061462
 11
0.4351426402
 21
200.4119470648
  0
LINE
  5
28A
100
AcDbEntity
  8
CURVE
100
AcDbLine
 62
250
  6
CONTINUOUS
 10
0.5832237002
 20
200.7886599487
 11
0.305709565
 21
201.1091108468
  0
LINE
  5
28B
100
AcDbEntity
  8
RACCORDO
100
AcDbLine
 62
250
  6
CONTINUOUS
 10
-34.2946788875
 20
-178.641861908
 11
-32.8804653252
 21
-177.8253127213
  0
LINE
  5
28C
100
AcDbEntity
  8
RACCORDO
100
AcDbLine
 62
250
  6
CONTINUOUS
 10
-32.8804653252
 20
-181.0913516482
 11
-31.4662517628
 21
-180.2748024615
  0
LINE
  5
28D
100
AcDbEntity
  8
RACCORDO
100
AcDbLine
 62
250
  6
CONTINUOUS
 10
-28.1074945522
 20
-182.2141067799
 11
-29.5217081145
 21
-183.0306559665
  0
LINE
  5
28E
100
AcDbEntity
  8
RACCORDO
100
AcDbLine
 62
250
  6
CONTINUOUS
 10
-26.6932809898
 20
-184.6635965201
 11
-28.1074945522
 21
-185.4801457068
  0
LINE
  5
28F
100
AcDbEntity
  8
CURVE
100
AcDbLine
 62
250
  6
CONTINUOUS
 10
8.7053182783
 20
202.7342811497
 11
9.1314459478
 21
202.2422229939
  0
LINE
  5
290
100
AcDbEntity
  8
CURVE
100
AcDbLine
 62
250
  6
CONTINUOUS
 10
9.3827626042
 20
202.4997277069
 11
9.0020131166
 21
202.939386767
  0
LINE
  5
291
100
AcDbEntity
  8
RACCORDO
100
AcDbLine
 62
250
  6
CONTINUOUS
 10
-28.1074945522
 20
-188.3377916755
 11
-26.6932809898
 21
-187.5212424889
  0
LINE
  5
292
100
AcDbEntity
  8
RACCORDO
100
AcDbLine
 62
250
  6
CONTINUOUS
 10
-27.7539411616
 20
-188.9501641106
 11
-26.3397275992
 21
-188.1336149239
  0
LWPOLYLINE
  5
293
100
AcDbEntity
  8
RACCORDO
100
AcDbPolyline
 62
7
  6
CONTINUOUS
 90
19
 70
0
 10
-29.5217081145
 20
201.0369622368
 10
-29.459826542
 20
201.0028113773
 10
-29.3982959049
 20
200.9719410362
 10
-29.3371162033
 20
200.9443512135
 10
-29.2761724601
 20
200.9200019306
 10
-29.2155796523
 20
200.8989331661
 10
-29.1556827108
 20
200.8812648561
 10
-29.0964856043
 20
200.867016395
 10
-29.037984364
 20
200.8561683884
 10
-28.9805120144
 20
200.8487825897
 10
-28.9240744235
 20
200.8448787454
 10
-28.8686657233
 20
200.8444371091
 10
-28.8146013334
 20
200.8474601948
 10
-28.7618889209
 20
200.8539677633
 10
-28.7105208189
 20
200.8639400538
 10
-28.6607894454
 20
200.877320298
 10
-28.6127041354
 20
200.8941279329
 10
-28.566255554
 20
200.9143435216
 10
-28.5216597943
 20
200.9378798815
  0
LINE
  5
294
100
AcDbEntity
  8
RACCORDO
100
AcDbLine
 62
7
  6
CONTINUOUS
 10
-32.8804653252
 20
202.9762665551
 11
-29.5217081145
 21
201.0369622368
  0
LINE
  5
295
100
AcDbEntity
  8
RACCORDO
100
AcDbLine
 62
7
  6
CONTINUOUS
 10
28.1074945522
 20
167.7625828806
 11
31.4662517628
 21
165.8232785623
  0
LWPOLYLINE
  5
296
100
AcDbEntity
  8
RACCORDO
100
AcDbPolyline
 62
7
  6
CONTINUOUS
 90
37
 70
0
 10
31.4662517628
 20
165.8232785623
 10
31.5281333353
 20
165.785970133
 10
31.5896639724
 20
165.7457864367
 10
31.6508436741
 20
165.7027274734
 10
31.7117874173
 20
165.6567004493
 10
31.7723802251
 20
165.6077981582
 10
31.8322771666
 20
165.5562989815
 10
31.8914742731
 20
165.5021881079
 10
31.9499755133
 20
165.4454803487
 10
32.0074478629
 20
165.3864985186
 10
32.0638854538
 20
165.3252296476
 10
32.1192941541
 20
165.2616867057
 10
32.173358544
 20
165.1962314177
 10
32.2260709564
 20
165.1288528766
 10
32.2774390585
 20
165.0595619895
 10
32.327170432
 20
164.9887532017
 10
32.3752557419
 20
164.9164178561
 10
32.4217043233
 20
164.8425646099
 10
32.4662517628
 20
164.7676138804
 10
32.5088872173
 20
164.6915594081
 10
32.54962153
 20
164.6144074524
 10
32.5882228164
 20
164.5365972089
 10
32.6246789111
 20
164.458124923
 10
32.6590019795
 20
164.3789943492
 10
32.6909966342
 20
164.2996559464
 10
32.7206495951
 20
164.2201085295
 10
32.7479741422
 20
164.1403532836
 10
32.7728147277
 20
164.0608442238
 10
32.7951571844
 20
163.9815827541
 10
32.8150156796
 20
163.9025674706
 10
32.8322771666
 20
163.8242481757
 10
32.8469268336
 20
163.7466288391
 10
32.8589794924
 20
163.6697054912
 10
32.8683665321
 20
163.5939160261
 10
32.8750650823
 20
163.5194064086
 10
32.8790980133
 20
163.4460306739
 10
32.8804653252
 20
163.3737888221
  0
LWPOLYLINE
  5
297
100
AcDbEntity
  8
CURVE
100
AcDbPolyline
 62
250
  6
CONTINUOUS
 90
17
 70
0
 10
1.0486454826
 20
199.8806208986
 10
1.0895984315
 20
199.8499618947
 10
1.1309511936
 20
199.8283903448
 10
1.1711286551
 20
199.8167279025
 10
1.2092360894
 20
199.8154904037
 10
1.2424890778
 20
199.8247682695
 10
1.2703183221
 20
199.8440932066
 10
1.2916638153
 20
199.8727291342
 10
1.3058933603
 20
199.9103100141
 10
1.3119672385
 20
199.9540899017
 10
1.3099709713
 20
200.0029910398
 10
1.2999805956
 20
200.0551507993
 10
1.2819967769
 20
200.1095356881
 10
1.2573335495
 20
200.1621719331
 10
1.2266811569
 20
200.2120036486
 10
1.1912071391
 20
200.2571327603
 10
1.1515446157
 20
200.2964637434
  0
LINE
  5
298
100
AcDbEntity
  8
CURVE
100
AcDbLine
 62
250
  6
CONTINUOUS
 10
0.4351426402
 20
200.4119470648
 11
1.0486454834
 21
199.8806209019
  0
LINE
  5
299
100
AcDbEntity
  8
CURVE
100
AcDbLine
 62
250
  6
CONTINUOUS
 10
1.1515446337
 20
200.2964637278
 11
0.5832237002
 21
200.7886599487
  0
LINE
  5
29A
100
AcDbEntity
  8
CURVE
100
AcDbLine
 62
250
  6
CONTINUOUS
 10
8.3368980669
 20
203.0533527727
 11
8.7053182783
 21
202.7342811497
  0
LINE
  5
29B
100
AcDbEntity
  8
CURVE
100
AcDbLine
 62
250
  6
CONTINUOUS
 10
9.0020131166
 20
202.939386767
 11
8.2405135515
 21
203.59888615
  0
LWPOLYLINE
  5
29C
100
AcDbEntity
  8
RACCORDO
100
AcDbPolyline
 62
7
  6
CONTINUOUS
 90
18
 70
0
 10
-1.2778367546
 20
-202.0268962637
 10
-1.2895883436
 20
-202.0340058062
 10
-1.3122131082
 20
-202.0496716176
 10
-1.3336209202
 20
-202.0672576696
 10
-1.3538199816
 20
-202.0867510198
 10
-1.3726735371
 20
-202.1080196906
 10
-1.3901724563
 20
-202.1310757287
 10
-1.4063258694
 20
-202.1559070875
 10
-1.4210244116
 20
-202.1823456488
 10
-1.4342582105
 20
-202.2104023187
 10
-1.4460371384
 20
-202.2400661912
 10
-1.4562814474
 20
-202.2711364302
 10
-1.4649807241
 20
-202.3036225789
 10
-1.4721453818
 20
-202.3375150942
 10
-1.477726913
 20
-202.3725845104
 10
-1.4817091486
 20
-202.408754339
 10
-1.4841082578
 20
-202.4461010686
 10
-1.4849242405
 20
-202.4846246991
  0
LINE
  5
29D
100
AcDbEntity
  8
RACCORDO
100
AcDbLine
 62
7
  6
CONTINUOUS
 10
0.1363719429
 20
-201.2103386513
 11
-1.2778416194
 21
-202.026887838
  0
LINE
  5
29E
100
AcDbEntity
  8
RACCORDO
100
AcDbLine
 62
250
  6
CONTINUOUS
 10
0.6363961031
 20
-201.259879829
 11
-0.7778174593
 21
-202.0764290157
  0
LINE
  5
29F
100
AcDbEntity
  8
RACCORDO
100
AcDbLine
 62
250
  6
CONTINUOUS
 10
0.7778174593
 20
-201.3415347477
 11
-0.6363961031
 21
-202.1580839343
  0
LINE
  5
2A0
100
AcDbEntity
  8
RACCORDO
100
AcDbLine
 62
250
  6
CONTINUOUS
 10
-1.8384776311
 20
-203.913427956
 11
-1.4849413255
 21
-203.7093005241
  0
LINE
  5
2A1
100
AcDbEntity
  8
RACCORDO
100
AcDbLine
 62
250
  6
CONTINUOUS
 10
1.4849242405
 20
-202.5662796178
 11
0.0707106781
 21
-203.3828288044
  0
LINE
  5
2A2
100
AcDbEntity
  8
RACCORDO
100
AcDbLine
 62
250
  6
CONTINUOUS
 10
0.0707106781
 20
-204.6075342196
 11
1.4849242405
 21
-203.790985033
  0
LINE
  5
2A3
100
AcDbEntity
  8
RACCORDO
100
AcDbLine
 62
250
  6
CONTINUOUS
 10
0.4242640687
 20
-205.2199066547
 11
1.8384776311
 21
-204.403357468
  0
LWPOLYLINE
  5
2A4
100
AcDbEntity
  8
RACCORDO
100
AcDbPolyline
 62
7
  6
CONTINUOUS
 90
18
 70
0
 10
0.1363768078
 20
-201.210347077
 10
0.148458734
 20
-201.2036981063
 10
0.1733396374
 20
-201.1919400418
 10
0.1992750363
 20
-201.1821960005
 10
0.2262578235
 20
-201.1744524079
 10
0.2541053149
 20
-201.1687616911
 10
0.2828233781
 20
-201.1651377805
 10
0.3124061456
 20
-201.1635667457
 10
0.3426533304
 20
-201.1640592233
 10
0.373569441
 20
-201.1666292157
 10
0.4051499689
 20
-201.1712627204
 10
0.4371811016
 20
-201.177928367
 10
0.4696658968
 20
-201.1866399448
 10
0.5026012967
 20
-201.1973836643
 10
0.5357643159
 20
-201.2100867865
 10
0.5690806257
 20
-201.2247250647
 10
0.6026245548
 20
-201.2413227456
 10
0.6363961031
 20
-201.259879829
  0
LWPOLYLINE
  5
2A5
100
AcDbEntity
  8
RACCORDO
100
AcDbPolyline
 62
7
  6
CONTINUOUS
 90
15
 70
0
 10
-1.5884709745
 20
-203.9381891517
 10
-1.5958756533
 20
-203.942220984
 10
-1.6112178922
 20
-203.9491360019
 10
-1.6273351433
 20
-203.9545370633
 10
-1.6442196356
 20
-203.9584393482
 10
-1.6617009358
 20
-203.9608034666
 10
-1.6797850884
 20
-203.9616138395
 10
-1.6984660488
 20
-203.9608860459
 10
-1.7175552498
 20
-203.9586274322
 10
-1.7370568261
 20
-203.9548224939
 10
-1.756966643
 20
-203.9494867355
 10
-1.7770837291
 20
-203.9426740166
 10
-1.7973410939
 20
-203.9344022903
 10
-1.8178057279
 20
-203.9246536034
 10
-1.8384776311
 20
-203.913427956
  0
LWPOLYLINE
  5
2A6
100
AcDbEntity
  8
RACCORDO
100
AcDbPolyline
 62
7
  6
CONTINUOUS
 90
18
 70
0
 10
2.3334523779
 20
192.8500702673
 10
2.3672239262
 20
192.8315131839
 10
2.4007678553
 20
192.8149155031
 10
2.4340841651
 20
192.8002772248
 10
2.4672471843
 20
192.7875741027
 10
2.5001825842
 20
192.7768303831
 10
2.5326673793
 20
192.7681188053
 10
2.564698512
 20
192.7614531588
 10
2.59627904
 20
192.756819654
 10
2.6271951506
 20
192.7542496616
 10
2.6574423354
 20
192.753757184
 10
2.6870251029
 20
192.7553282188
 10
2.7157431661
 20
192.7589521294
 10
2.7435906575
 20
192.7646428462
 10
2.7705734447
 20
192.7723864388
 10
2.7965088436
 20
192.7821304801
 10
2.821389747
 20
192.7938885446
 10
2.8334716732
 20
192.8005375153
  0
LINE
  5
2A7
100
AcDbEntity
  8
RACCORDO
100
AcDbLine
 62
7
  6
CONTINUOUS
 10
-3.7476659403
 20
196.3612317699
 11
2.3334523779
 21
192.8500702673
  0
LINE
  5
2A8
100
AcDbEntity
  8
RACCORDO
100
AcDbLine
 62
7
  6
CONTINUOUS
 10
-27.7539411616
 20
212.2633299054
 11
-4.8083261121
 21
199.0148193519
  0
LINE
  5
2A9
100
AcDbEntity
  8
RACCORDO
100
AcDbLine
 62
7
  6
CONTINUOUS
 10
3.3941125497
 20
194.2788340693
 11
26.3397275992
 21
181.0303235158
  0
LINE
  5
2AA
100
AcDbEntity
  8
CURVE
100
AcDbLine
 62
250
  6
CONTINUOUS
 10
6.4809058407
 20
200.8779396494
 11
8.2405135515
 21
199.8619642102
  0
LINE
  5
2AB
100
AcDbEntity
  8
CURVE
100
AcDbLine
 62
250
  6
CONTINUOUS
 10
8.2712792559
 20
200.3340826442
 11
6.4809058407
 21
201.3678218155
  0
LINE
  5
2AC
100
AcDbEntity
  8
CURVE
100
AcDbLine
 62
250
  6
CONTINUOUS
 10
6.4809058407
 20
204.1249794231
 11
8.3368980669
 21
203.0533527727
  0
LINE
  5
2AD
100
AcDbEntity
  8
CURVE
100
AcDbLine
 62
250
  6
CONTINUOUS
 10
8.2405135515
 20
203.59888615
 11
6.4809058407
 21
204.6148615891
  0
LWPOLYLINE
  5
2AE
100
AcDbEntity
  8
RACCORDO
100
AcDbPolyline
 62
7
  6
CONTINUOUS
 90
28
 70
0
 10
-4.8083261121
 20
199.0148193519
 10
-4.7876542089
 20
199.0021736037
 10
-4.7671895749
 20
198.9882902441
 10
-4.7469322101
 20
198.9731692733
 10
-4.726815124
 20
198.9567512855
 10
-4.7069053071
 20
198.9390956864
 10
-4.6874037307
 20
198.9203806932
 10
-4.6683145297
 20
198.9005955761
 10
-4.6496335693
 20
198.8797510648
 10
-4.6315494168
 20
198.8580575658
 10
-4.6140681166
 20
198.8355064802
 10
-4.5971836242
 20
198.8121064067
 10
-4.5810663732
 20
198.7880935478
 10
-4.5657241343
 20
198.763461697
 10
-4.5511491368
 20
198.7382170608
 10
-4.5374885019
 20
198.7126144606
 10
-4.5247514904
 20
198.6866502709
 10
-4.5129288416
 20
198.6603281174
 10
-4.5021398942
 20
198.633913698
 10
-4.4923951178
 20
198.6074060782
 10
-4.483684043
 20
198.5808061926
 10
-4.4760945999
 20
198.5543825428
 10
-4.4696381487
 20
198.5281369135
 10
-4.4643033293
 20
198.50206752
 10
-4.4601439919
 20
198.4764375089
 10
-4.4571780865
 20
198.4513345958
 10
-4.455387663
 20
198.4266710651
 10
-4.4547727215
 20
198.4024469169
  0
LWPOLYLINE
  5
2AF
100
AcDbEntity
  8
RACCORDO
100
AcDbPolyline
 62
7
  6
CONTINUOUS
 90
28
 70
0
 10
26.3397275992
 20
181.0303235158
 10
26.3603995024
 20
181.0176777676
 10
26.3808641364
 20
181.003794408
 10
26.4011215012
 20
180.9886734372
 10
26.4212385873
 20
180.9722554494
 10
26.4411484042
 20
180.9545998503
 10
26.4606499805
 20
180.9358848571
 10
26.4797391815
 20
180.91609974
 10
26.4984201419
 20
180.8952552287
 10
26.5165042945
 20
180.8735617297
 10
26.5339855947
 20
180.8510106441
 10
26.550870087
 20
180.8276105706
 10
26.566987338
 20
180.8035977117
 10
26.5823295769
 20
180.7789658609
 10
26.5969045745
 20
180.7537212247
 10
26.6105652094
 20
180.7281186245
 10
26.6233022209
 20
180.7021544349
 10
26.6351248697
 20
180.6758322813
 10
26.645913817
 20
180.6494178619
 10
26.6556585934
 20
180.6229102421
 10
26.6643696683
 20
180.5963103566
 10
26.6719591114
 20
180.5698867067
 10
26.6784155626
 20
180.5436410775
 10
26.6837503819
 20
180.5175716839
 10
26.6879097194
 20
180.4919416728
 10
26.6908756248
 20
180.4668387597
 10
26.6926660483
 20
180.442175229
 10
26.6932809898
 20
180.4179510808
  0
LWPOLYLINE
  5
2B0
100
AcDbEntity
  8
RACCORDO
100
AcDbPolyline
 62
7
  6
CONTINUOUS
 90
19
 70
0
 10
27.1074462319
 20
-216.2059529674
 10
27.0648590976
 20
-216.2327451886
 10
27.024124785
 20
-216.2628581811
 10
26.9855234986
 20
-216.2960926267
 10
26.9490674039
 20
-216.3324663283
 10
26.9147443354
 20
-216.3719614829
 10
26.8827496808
 20
-216.4143532604
 10
26.8530967199
 20
-216.4596581814
 10
26.8257721728
 20
-216.5078597252
 10
26.8009315873
 20
-216.5586834996
 10
26.7785891305
 20
-216.6121444602
 10
26.7587306354
 20
-216.6682276513
 10
26.7414691484
 20
-216.7266138137
 10
26.7268194814
 20
-216.7873160821
 10
26.7147668225
 20
-216.8503213216
 10
26.7053797829
 20
-216.9152708686
 10
26.6986812327
 20
-216.9820451682
 10
26.6946483017
 20
-217.0507637753
 10
26.6932809898
 20
-217.1214266897
  0
LWPOLYLINE
  5
2B1
100
AcDbEntity
  8
CURVE
100
AcDbPolyline
 62
250
  6
CONTINUOUS
 90
17
 70
0
 10
2.0032396325
 20
199.8047057164
 10
1.9642463823
 20
199.8111554775
 10
1.9286980714
 20
199.8071768965
 10
1.8979487239
 20
199.7929215164
 10
1.8727874915
 20
199.7684205371
 10
1.8550528449
 20
199.7354641864
 10
1.8449222856
 20
199.6949625514
 10
1.8427816833
 20
199.6484583268
 10
1.8488909117
 20
199.5967900359
 10
1.8628035843
 20
199.5437329567
 10
1.8840251207
 20
199.4904335761
 10
1.9117471995
 20
199.4389220511
 10
1.9455481856
 20
199.3903530327
 10
1.9829583223
 20
199.3482753424
 10
2.0231006664
 20
199.3134002705
 10
2.0644462084
 20
199.2870561978
 10
2.106138811
 20
199.2700375189
  0
LINE
  5
2B2
100
AcDbEntity
  8
CURVE
100
AcDbLine
 62
250
  6
CONTINUOUS
 10
2.106138793
 20
199.2700375241
 11
2.7196415569
 21
199.0929060218
  0
LINE
  5
2B3
100
AcDbEntity
  8
CURVE
100
AcDbLine
 62
250
  6
CONTINUOUS
 10
2.5715605159
 20
199.6406191956
 11
2.0032396332
 21
199.8047057127
  0
LINE
  5
2B4
100
AcDbEntity
  8
CURVE
100
AcDbLine
 62
250
  6
CONTINUOUS
 10
8.2405135515
 20
199.8619642102
 11
9.0020131166
 21
199.6421029831
  0
LINE
  5
2B5
100
AcDbEntity
  8
CURVE
100
AcDbLine
 62
250
  6
CONTINUOUS
 10
8.7709369167
 20
200.1898207805
 11
8.2712792559
 21
200.3340826442
  0
LWPOLYLINE
  5
2B6
100
AcDbEntity
  8
CURVE
100
AcDbPolyline
 62
250
  6
CONTINUOUS
 90
17
 70
0
 10
6.4809058407
 20
201.3678218155
 10
6.4397025126
 20
201.3869472358
 10
6.4000686065
 20
201.3960144451
 10
6.3635137655
 20
201.3946780762
 10
6.3309058407
 20
201.3826883533
 10
6.3046274147
 20
201.3609213369
 10
6.2850633792
 20
201.3300874278
 10
6.2729589222
 20
201.29136108
 10
6.2687738063
 20
201.2453631104
 10
6.2728138279
 20
201.1954544802
 10
6.2847800097
 20
201.1427815385
 10
6.3042165634
 20
201.0893505813
 10
6.3309058407
 20
201.0362893517
 10
6.36289772
 20
200.9874749064
 10
6.3993844921
 20
200.943818027
 10
6.4389763869
 20
200.9069815903
 10
6.4809058592
 20
200.8779396387
  0
LWPOLYLINE
  5
2B7
100
AcDbEntity
  8
CURVE
100
AcDbPolyline
 62
250
  6
CONTINUOUS
 90
17
 70
0
 10
6.4809058407
 20
204.6148615891
 10
6.4397025126
 20
204.6339870095
 10
6.4000686065
 20
204.6430542188
 10
6.3635137655
 20
204.6417178498
 10
6.3309058407
 20
204.629728127
 10
6.3046274147
 20
204.6079611105
 10
6.2850633792
 20
204.5771272014
 10
6.2729589222
 20
204.5384008537
 10
6.2687738063
 20
204.4924028841
 10
6.2728138279
 20
204.4424942539
 10
6.2847800097
 20
204.3898213122
 10
6.3042165634
 20
204.3363903549
 10
6.3309058407
 20
204.2833291254
 10
6.36289772
 20
204.2345146801
 10
6.3993844921
 20
204.1908578006
 10
6.4389763869
 20
204.154021364
 10
6.4809058592
 20
204.1249794124
  0
LWPOLYLINE
  5
2B8
100
AcDbEntity
  8
RACCORDO
100
AcDbPolyline
 62
7
  6
CONTINUOUS
 90
18
 70
0
 10
-42.3556961931
 20
239.3913695962
 10
-42.3894677414
 20
239.4099266796
 10
-42.4230116704
 20
239.4265243604
 10
-42.4563279803
 20
239.4411626387
 10
-42.4894909994
 20
239.4538657609
 10
-42.5224263993
 20
239.4646094804
 10
-42.5549111945
 20
239.4733210582
 10
-42.5869423272
 20
239.4799867047
 10
-42.6185228551
 20
239.4846202095
 10
-42.6494389658
 20
239.4871902019
 10
-42.6796861506
 20
239.4876826795
 10
-42.709268918
 20
239.4861116447
 10
-42.7379869813
 20
239.4824877341
 10
-42.7658344727
 20
239.4767970173
 10
-42.7928172599
 20
239.4690534247
 10
-42.8187526588
 20
239.4593093834
 10
-42.8436335622
 20
239.4475513189
 10
-42.8557154883
 20
239.4409023482
  0
LINE
  5
2B9
100
AcDbEntity
  8
RACCORDO
100
AcDbLine
 62
7
  6
CONTINUOUS
 10
40.9414826307
 20
191.2966225022
 11
-42.3556961931
 21
239.3913695962
  0
LINE
  5
2BA
100
AcDbEntity
  8
RACCORDO
100
AcDbLine
 62
7
  6
CONTINUOUS
 10
42.3556961931
 20
192.1131716888
 11
-40.9414826307
 21
240.2079187828
  0
LWPOLYLINE
  5
2BB
100
AcDbEntity
  8
RACCORDO
100
AcDbPolyline
 62
7
  6
CONTINUOUS
 90
34
 70
0
 10
42.3556961931
 20
192.1131716888
 10
42.3894677414
 20
192.0927302348
 10
42.4230116704
 20
192.0705922272
 10
42.4563279803
 20
192.0467576659
 10
42.4894909994
 20
192.0211649648
 10
42.5224263993
 20
191.9938757101
 10
42.5549111945
 20
191.9650746607
 10
42.5869423272
 20
191.9347515581
 10
42.6185228551
 20
191.9029166608
 10
42.6494389658
 20
191.8697855036
 10
42.6796861506
 20
191.8353492904
 10
42.709268918
 20
191.7996168172
 10
42.7379869813
 20
191.762830007
 10
42.7658344727
 20
191.7249817052
 10
42.7928172599
 20
191.6860790663
 10
42.8187526588
 20
191.6463854764
 10
42.8436335622
 20
191.6058955683
 10
42.8674670773
 20
191.5646147092
 10
42.890091842
 20
191.5228223866
 10
42.9114996539
 20
191.48051513
 10
42.9316987154
 20
191.4376964099
 10
42.9505522708
 20
191.3946561259
 10
42.96805119
 20
191.3513927745
 10
42.9842046032
 20
191.3079078591
 10
42.9989031454
 20
191.2644957897
 10
43.0121369443
 20
191.2211570606
 10
43.0239158722
 20
191.1778911774
 10
43.0341601812
 20
191.1349910671
 10
43.0428594578
 20
191.0924592118
 10
43.0500241155
 20
191.0502931294
 10
43.0556056468
 20
191.0087783008
 10
43.0595878824
 20
190.9680098863
 10
43.0619869916
 20
190.9278927256
 10
43.0628029743
 20
190.8884268187
  0
LINE
  5
2BC
100
AcDbEntity
  8
RACCORDO
100
AcDbLine
 62
7
  6
CONTINUOUS
 10
28.5216597943
 20
-215.3894037807
 11
27.1074462319
 21
-216.2059529674
  0
LINE
  5
2BD
100
AcDbEntity
  8
RACCORDO
100
AcDbLine
 62
250
  6
CONTINUOUS
 10
29.5217081145
 20
-215.4884861361
 11
28.1074945522
 21
-216.3050353227
  0
LINE
  5
2BE
100
AcDbEntity
  8
RACCORDO
100
AcDbLine
 62
250
  6
CONTINUOUS
 10
26.3397275992
 20
-220.1831705002
 11
26.6932639048
 21
-219.9790430682
  0
LINE
  5
2BF
100
AcDbEntity
  8
RACCORDO
100
AcDbLine
 62
250
  6
CONTINUOUS
 10
31.4662517628
 20
-218.244339641
 11
32.8804653252
 21
-217.4277904544
  0
LWPOLYLINE
  5
2C0
100
AcDbEntity
  8
RACCORDO
100
AcDbPolyline
 62
7
  6
CONTINUOUS
 90
15
 70
0
 10
26.5897342558
 20
-220.2079316958
 10
26.5823295769
 20
-220.2119635281
 10
26.566987338
 20
-220.218878546
 10
26.550870087
 20
-220.2242796074
 10
26.5339855947
 20
-220.2281818923
 10
26.5165042945
 20
-220.2305460107
 10
26.4984201419
 20
-220.2313563836
 10
26.4797391815
 20
-220.2306285901
 10
26.4606499805
 20
-220.2283699763
 10
26.4411484042
 20
-220.224565038
 10
26.4212385873
 20
-220.2192292796
 10
26.4011215012
 20
-220.2124165607
 10
26.3808641364
 20
-220.2041448344
 10
26.3603995024
 20
-220.1943961475
 10
26.3397275992
 20
-220.1831705002
  0
LWPOLYLINE
  5
2C1
100
AcDbEntity
  8
RACCORDO
100
AcDbPolyline
 62
7
  6
CONTINUOUS
 90
19
 70
0
 10
28.5216597943
 20
-215.3894037807
 10
28.566255554
 20
-215.3658674208
 10
28.6127041354
 20
-215.3456518322
 10
28.6607894454
 20
-215.3288441972
 10
28.7105208189
 20
-215.315463953
 10
28.7618889209
 20
-215.3054916625
 10
28.8146013334
 20
-215.298984094
 10
28.8686657233
 20
-215.2959610084
 10
28.9240744235
 20
-215.2964026447
 10
28.9805120144
 20
-215.3003064889
 10
29.037984364
 20
-215.3076922876
 10
29.0964856043
 20
-215.3185402942
 10
29.1556827108
 20
-215.3327887554
 10
29.2155796523
 20
-215.3504570653
 10
29.2761724601
 20
-215.3715258298
 10
29.3371162033
 20
-215.3958751128
 10
29.3982959049
 20
-215.4234649354
 10
29.459826542
 20
-215.4543352765
 10
29.5217081145
 20
-215.4884861361
  0
LWPOLYLINE
  5
2C2
100
AcDbEntity
  8
RACCORDO
100
AcDbPolyline
 62
7
  6
CONTINUOUS
 90
19
 70
0
 10
32.4663000831
 20
-218.3434219964
 10
32.4217043233
 20
-218.3669583563
 10
32.3752557419
 20
-218.3871739449
 10
32.327170432
 20
-218.4039815799
 10
32.2774390585
 20
-218.4173618241
 10
32.2260709564
 20
-218.4273341146
 10
32.173358544
 20
-218.433841683
 10
32.1192941541
 20
-218.4368647687
 10
32.0638854538
 20
-218.4364231324
 10
32.0074478629
 20
-218.4325192882
 10
31.9499755133
 20
-218.4251334895
 10
31.8914742731
 20
-218.4142854829
 10
31.8322771666
 20
-218.4000370217
 10
31.7723802251
 20
-218.3823687118
 10
31.7117874173
 20
-218.3612999473
 10
31.6508436741
 20
-218.3369506643
 10
31.5896639724
 20
-218.3093608417
 10
31.5281333353
 20
-218.2784905006
 10
31.4662517628
 20
-218.244339641
  0
LINE
  5
2C3
100
AcDbEntity
  8
CURVE
100
AcDbLine
 62
250
  6
CONTINUOUS
 10
2.7196415569
 20
199.0929060218
 11
3.1003913394
 21
199.0928847981
  0
LINE
  5
2C4
100
AcDbEntity
  8
CURVE
100
AcDbLine
 62
250
  6
CONTINUOUS
 10
2.8490746217
 20
199.6406037265
 11
2.5715605159
 21
199.6406191956
  0
LINE
  5
2C5
100
AcDbEntity
  8
CURVE
100
AcDbLine
 62
250
  6
CONTINUOUS
 10
9.0020131166
 20
199.6421029831
 11
9.3827626042
 21
199.6420817381
  0
LINE
  5
2C6
100
AcDbEntity
  8
CURVE
100
AcDbLine
 62
250
  6
CONTINUOUS
 10
9.1314459875
 20
200.1898006649
 11
8.7709369167
 21
200.1898207805
  0
LWPOLYLINE
  5
2C7
100
AcDbEntity
  8
RACCORDO
100
AcDbPolyline
 62
7
  6
CONTINUOUS
 90
18
 70
0
 10
41.441501926
 20
-240.2574515348
 10
41.4532535149
 20
-240.2503419923
 10
41.4758782796
 20
-240.2346761809
 10
41.4972860916
 20
-240.2170901289
 10
41.517485153
 20
-240.1975967787
 10
41.5363387085
 20
-240.1763281079
 10
41.5538376277
 20
-240.1532720698
 10
41.5699910408
 20
-240.128440711
 10
41.584689583
 20
-240.1020021497
 10
41.5979233819
 20
-240.0739454798
 10
41.6097023098
 20
-240.0442816073
 10
41.6199466188
 20
-240.0132113683
 10
41.6286458955
 20
-239.9807252196
 10
41.6358105532
 20
-239.9468327043
 10
41.6413920844
 20
-239.9117632881
 10
41.64537432
 20
-239.8755934595
 10
41.6477734292
 20
-239.8382467299
 10
41.6485894119
 20
-239.7997230994
  0
LINE
  5
2C8
100
AcDbEntity
  8
RACCORDO
100
AcDbLine
 62
250
  6
CONTINUOUS
 10
41.6485894119
 20
-239.7997230994
 11
43.0628029743
 21
-238.9831739127
  0
LINE
  5
2C9
100
AcDbEntity
  8
RACCORDO
100
AcDbLine
 62
7
  6
CONTINUOUS
 10
41.4415067908
 20
-240.2574599605
 11
42.8557203532
 21
-239.4409107739
  0
ENDSEC
  0
SECTION
  2
OBJECTS
  0
DICTIONARY
  5
C
100
AcDbDictionary
280
0
281
1
  3
ACAD_GROUP
350
D
  3
ACAD_MLINESTYLE
350
17
  3
ACAD_LAYOUT
350
1A
  3
ACAD_PLOTSETTINGS
350
19
  3
ACAD_PLOTSTYLENAME
350
E
  0
DICTIONARY
  5
D
102
{ACAD_REACTORS
330
C
102
}
100
AcDbDictionary
280
0
281
1
  0
ACDBDICTIONARYWDFLT
  5
E
102
{ACAD_REACTORS
330
C
102
}
100
AcDbDictionary
281
1
  3
Normal
350
F
100
AcDbDictionaryWithDefault
340
F
  0
DICTIONARY
  5
17
102
{ACAD_REACTORS
330
C
102
}
100
AcDbDictionary
280
0
281
1
  3
Standard
350
18
  0
DICTIONARY
  5
19
102
{ACAD_REACTORS
330
C
102
}
100
AcDbDictionary
281
1
  0
DICTIONARY
  5
1A
102
{ACAD_REACTORS
330
C
102
}
100
AcDbDictionary
281
1
  3
Model
350
2CA
  3
Layout1
350
2CB
  0
ACDBPLACEHOLDER
  5
F
102
{ACAD_REACTORS
330
E
102
}
  0
MLINESTYLE
  5
18
102
{ACAD_REACTORS
330
17
102
}
100
AcDbMlineStyle
  2
STANDARD
 70
0
  3

 62
256
 51
90.0
 52
90.0
 71
2
 49
0.5
 62
256
  6
BYLAYER
 49
-0.5
 62
256
  6
BYLAYER
  0
LAYOUT
  5
2CA
102
{ACAD_REACTORS
330
1A
102
}
100
AcDbPlotSettings
  1

  2
none_device
  4

  6

 40
0.0
 41
0.0
 42
0.0
 43
0.0
 44
210.0
 45
297.0
 46
0.0
 47
0.0
 48
0.0
 49
0.0
140
0.0
141
0.0
142
1.0
143
1.0
 70
1024
 72
1
 73
0
 74
0
  7

 75
0
147
1.0
148
0.0
149
0.0
100
AcDbLayout
  1
Model
 70
0
 71
0
 10
0.0
 20
0.0
 11
210.0
 21
297.0
 12
0.0
 22
0.0
 32
0.0
 14
0.0
 24
0.0
 34
0.0
 15
0.0
 25
0.0
 35
0.0
146
0.0
 13
0.0
 23
0.0
 33
0.0
 16
1.0
 26
0.0
 36
0.0
 17
0.0
 27
1.0
 37
0.0
 76
0
330
20F
345
0
346
0
  0
LAYOUT
  5
2CB
102
{ACAD_REACTORS
330
1A
102
}
100
AcDbPlotSettings
  1

  2
none_device
  4

  6

 40
0.0
 41
0.0
 42
0.0
 43
0.0
 44
210.0
 45
297.0
 46
0.0
 47
0.0
 48
0.0
 49
0.0
140
0.0
141
0.0
142
1.0
143
1.0
 70
0
 72
1
 73
0
 74
0
  7

 75
0
147
1.0
148
0.0
149
0.0
100
AcDbLayout
  1
Layout1
 70
0
 71
1
 10
0.0
 20
0.0
 11
210.0
 21
297.0
 12
0.0
 22
0.0
 32
0.0
 14
0.0
 24
0.0
 34
0.0
 15
0.0
 25
0.0
 35
0.0
146
0.0
 13
0.0
 23
0.0
 33
0.0
 16
1.0
 26
0.0
 36
0.0
 17
0.0
 27
1.0
 37
0.0
 76
0
330
210
345
0
346
0
  0
ENDSEC
  0
EOF
