  0
SECTION
  2
HEADER
  9
$ACADVER
  1
AC1024
  9
$DWGCODEPAGE
  3
ANSI_1252
  9
$EXTMAX
 10
210.0
 20
297.0
 30
0.0
  9
$EXTMIN
 10
0.0
 20
0.0
 30
0.0
  9
$LIMMIN
 10
0.0
 20
0.0
  9
$LIMMAX
 10
210.0
 20
297.0
  9
$VIEWCTR
 10
105.0
 20
148.5
  9
$VIEWSIZE
 40
297.0
  9
$CLAYER
  8
0
  9
$LTSCALE
 40
19.36
  9
$CELTYPE
  6
BYLAYER
  9
$DIMSCALE
 40
1.0
  9
$DIMASZ
 40
3.0
  9
$DIMEXO
 40
0.5
  9
$DIMDLI
 40
13.376
  9
$DIMEXE
 40
1.5
  9
$DIMCEN
 40
3.168
  9
$DIMLFAC
 40
1.0
  9
$DIMBLK
  1
_FILLED
  9
$DIMALT
 70
0
  9
$DIMALTF
 40
0.0393700787
  9
$DIMTXT
 40
3.0
  9
$DIMTOL
 70
1
  9
$DIMLIM
 70
0
  9
$DIMTFAC
 40
1.0
  9
$DIMTP
 40
0.01
  9
$DIMTM
 40
0.01
  9
$DIMGAP
 40
0.625
  9
$DIMDSEP
 70
44
  9
$AUNITS
 70
0
  9
$PDMODE
 70
3
  9
$PDSIZE
 40
3.0
  9
$HANDSEED
  5
264
  9
$TILEMODE
 70
1
  9
$MEASUREMENT
 70
1
  9
$INSUNITS
 70
4
  0
ENDSEC
  0
SECTION
  2
CLASSES
  0
CLASS
  1
ACDBDICTIONARYWDFLT
  2
AcDbDictionaryWithDefault
  3
AutoCAD 2000
 90
0
 91
1
280
0
281
0
  0
CLASS
  1
ACDBPLACEHOLDER
  2
AcDbPlaceHolder
  3
AutoCAD 2000
 90
0
 91
1
280
0
281
0
  0
CLASS
  1
LAYOUT
  2
AcDbLayout
  3
AutoCAD 2000
 90
0
 91
0
280
0
281
0
  0
ENDSEC
  0
SECTION
  2
TABLES
  0
TABLE
  2
VPORT
  5
8
100
AcDbSymbolTable
 70
2
  0
VPORT
  5
1F4
100
AcDbSymbolTableRecord
100
AcDbViewportTableRecord
  2
*ACTIVE
 70
0
 10
0.0
 20
0.0
 11
1.0
 21
1.0
 12
105.0
 22
148.5
 13
0.0
 23
0.0
 14
1.0
 24
1.0
 15
0.0
 25
0.0
 16
0.0
 26
0.0
 36
1.0
 17
0.0
 27
0.0
 37
0.0
 40
297.0
 41
0.7070707071
 42
50.0
 43
0.0
 44
0.0
 50
0.0
 51
0.0
 71
0
 72
100
 73
1
 74
1
 75
0
 76
0
 77
0
 78
0
  0
ENDTAB
  0
TABLE
  2
LTYPE
  5
5
100
AcDbSymbolTable
 70
6
  0
LTYPE
  5
14
100
AcDbSymbolTableRecord
100
AcDbLinetypeTableRecord
  2
BYBLOCK
 70
0
  3

 72
65
 73
0
 40
0.0
  0
LTYPE
  5
15
100
AcDbSymbolTableRecord
100
AcDbLinetypeTableRecord
  2
BYLAYER
 70
0
  3

 72
65
 73
0
 40
0.0
  0
LTYPE
  5
16
100
AcDbSymbolTableRecord
100
AcDbLinetypeTableRecord
  2
CONTINUOUS
 70
64
  3
Solid line
 72
65
 73
0
 40
0.0
  0
LTYPE
  5
1F5
100
AcDbSymbolTableRecord
100
AcDbLinetypeTableRecord
  2
CENTER
 70
64
  3
____ _ ____ _ ____ _ ____ _ ____ _ ____ _ ____
 72
65
 73
4
 40
0.6
 49
0.375
 74
0
 49
-0.075
 74
0
 49
0.075
 74
0
 49
-0.075
 74
0
  0
LTYPE
  5
1F6
100
AcDbSymbolTableRecord
100
AcDbLinetypeTableRecord
  2
HIDDEN
 70
64
  3
- - - - - - - - - - - - - - - - - - - -
 72
65
 73
2
 40
0.2
 49
0.1
 74
0
 49
-0.1
 74
0
  0
LTYPE
  5
1F7
100
AcDbSymbolTableRecord
100
AcDbLinetypeTableRecord
  2
PHANTOM
 70
64
  3
_____ _ _ _____ _ _ _____ _ _ _____
 72
65
 73
6
 40
0.8
 49
0.45
 74
0
 49
-0.05
 74
0
 49
0.1
 74
0
 49
-0.05
 74
0
 49
0.1
 74
0
 49
-0.05
 74
0
  0
LTYPE
  5
1F8
100
AcDbSymbolTableRecord
100
AcDbLinetypeTableRecord
  2
DOT
 70
64
  3
. . . . . . . . . . . . . . . . . . . .
 72
65
 73
2
 40
0.2
 49
0.1
 74
0
 49
-0.1
 74
0
  0
LTYPE
  5
1F9
100
AcDbSymbolTableRecord
100
AcDbLinetypeTableRecord
  2
DASHED
 70
64
  3
- - - - - - - - - - - - - - - - - - - -
 72
65
 73
2
 40
0.2
 49
0.1
 74
0
 49
-0.1
 74
0
  0
ENDTAB
  0
TABLE
  2
LAYER
  5
2
100
AcDbSymbolTable
 70
36
  0
LAYER
  5
10
100
AcDbSymbolTableRecord
100
AcDbLayerTableRecord
  2
0
 70
0
 62
7
  6
CONTINUOUS
370
-3
390
F
  0
LAYER
  5
1FA
100
AcDbSymbolTableRecord
100
AcDbLayerTableRecord
  2
DEFAULT_1
 70
0
 62
7
  6
CENTER
370
-3
390
F
  0
LAYER
  5
1FB
100
AcDbSymbolTableRecord
100
AcDbLayerTableRecord
  2
DEFAULT_2
 70
0
 62
7
  6
HIDDEN
370
-3
390
F
  0
LAYER
  5
1FC
100
AcDbSymbolTableRecord
100
AcDbLayerTableRecord
  2
DEFAULT_3
 70
0
 62
7
  6
PHANTOM
370
-3
390
F
  0
LAYER
  5
1FD
100
AcDbSymbolTableRecord
100
AcDbLayerTableRecord
  2
ASSI
 70
0
 62
7
  6
CONTINUOUS
370
-3
390
F
  0
LAYER
  5
1FE
100
AcDbSymbolTableRecord
100
AcDbLayerTableRecord
  2
COORDINATE
 70
0
 62
7
  6
CONTINUOUS
370
-3
390
F
  0
LAYER
  5
1FF
100
AcDbSymbolTableRecord
100
AcDbLayerTableRecord
  2
COPY_PUBLISH
 70
0
 62
7
  6
CONTINUOUS
370
-3
390
F
  0
LAYER
  5
200
100
AcDbSymbolTableRecord
100
AcDbLayerTableRecord
  2
COSMETICI
 70
0
 62
7
  6
CONTINUOUS
370
-3
390
F
  0
LAYER
  5
201
100
AcDbSymbolTableRecord
100
AcDbLayerTableRecord
  2
CURVE
 70
0
 62
7
  6
CONTINUOUS
370
-3
390
F
  0
LAYER
  5
202
100
AcDbSymbolTableRecord
100
AcDbLayerTableRecord
  2
DRAFT
 70
0
 62
7
  6
CONTINUOUS
370
-3
390
F
  0
LAYER
  5
203
100
AcDbSymbolTableRecord
100
AcDbLayerTableRecord
  2
IMPORT_IGES
 70
0
 62
7
  6
CONTINUOUS
370
-3
390
F
  0
LAYER
  5
204
100
AcDbSymbolTableRecord
100
AcDbLayerTableRecord
  2
NOTE
 70
0
 62
7
  6
CONTINUOUS
370
-3
390
F
  0
LAYER
  5
205
100
AcDbSymbolTableRecord
100
AcDbLayerTableRecord
  2
PIANI
 70
0
 62
7
  6
CONTINUOUS
370
-3
390
F
  0
LAYER
  5
206
100
AcDbSymbolTableRecord
100
AcDbLayerTableRecord
  2
PUNTI
 70
0
 62
7
  6
CONTINUOUS
370
-3
390
F
  0
LAYER
  5
207
100
AcDbSymbolTableRecord
100
AcDbLayerTableRecord
  2
RACCORDO
 70
0
 62
7
  6
CONTINUOUS
370
-3
390
F
  0
LAYER
  5
208
100
AcDbSymbolTableRecord
100
AcDbLayerTableRecord
  2
SIMBOLI
 70
0
 62
7
  6
CONTINUOUS
370
-3
390
F
  0
LAYER
  5
209
100
AcDbSymbolTableRecord
100
AcDbLayerTableRecord
  2
SMUSSO
 70
0
 62
7
  6
CONTINUOUS
370
-3
390
F
  0
LAYER
  5
20A
100
AcDbSymbolTableRecord
100
AcDbLayerTableRecord
  2
SNAPLINE
 70
0
 62
7
  6
CONTINUOUS
370
-3
390
F
  0
LAYER
  5
20B
100
AcDbSymbolTableRecord
100
AcDbLayerTableRecord
  2
SUPERFICI
 70
0
 62
7
  6
CONTINUOUS
370
-3
390
F
  0
LAYER
  5
20C
100
AcDbSymbolTableRecord
100
AcDbLayerTableRecord
  2
TRASH
 70
0
 62
7
  6
CONTINUOUS
370
-3
390
F
  0
ENDTAB
  0
TABLE
  2
STYLE
  5
3
100
AcDbSymbolTable
 70
1
  0
STYLE
  5
11
100
AcDbSymbolTableRecord
100
AcDbTextStyleTableRecord
  2
STANDARD
 70
0
 40
0.0
 41
0.8
 50
0.0
 71
0
 42
0.2
  3
txt
  4

  0
STYLE
  5
20D
100
AcDbSymbolTableRecord
100
AcDbTextStyleTableRecord
  2
TEXTSTYLE_1
 70
0
 40
0.0
 41
0.8
 50
0.0
 71
0
 42
0.2
  3
gdt
  4

  0
ENDTAB
  0
TABLE
  2
VIEW
  5
6
100
AcDbSymbolTable
 70
0
  0
ENDTAB
  0
TABLE
  2
UCS
  5
7
100
AcDbSymbolTable
 70
0
  0
ENDTAB
  0
TABLE
  2
APPID
  5
9
100
AcDbSymbolTable
 70
1
  0
APPID
  5
20E
100
AcDbSymbolTableRecord
100
AcDbRegAppTableRecord
  2
ACAD
 70
0
  0
ENDTAB
  0
TABLE
  2
BLOCK_RECORD
  5
1
100
AcDbSymbolTable
 70
0
  0
BLOCK_RECORD
  5
20F
100
AcDbSymbolTableRecord
100
AcDbBlockTableRecord
  2
*Model_Space
  0
BLOCK_RECORD
  5
210
100
AcDbSymbolTableRecord
100
AcDbBlockTableRecord
  2
*Paper_Space
  0
BLOCK_RECORD
  5
211
100
AcDbSymbolTableRecord
100
AcDbBlockTableRecord
  2
_FILLED
  0
ENDTAB
  0
TABLE
  2
DIMSTYLE
  5
A
100
AcDbSymbolTable
 70
1
100
AcDbDimStyleTable
 71
0
  0
DIMSTYLE
105
212
100
AcDbSymbolTableRecord
100
AcDbDimStyleTableRecord
  2
STANDARD
 70
0
  3

  4

 40
1.0
 41
3.0
 42
0.5
 43
0.38
 44
1.5
 45
0.0
 46
0.0
 47
0.01
 48
0.01
140
3.0
141
0.09
142
0.0
143
25.4
144
1.0
145
0.0
146
1.0
147
0.625
 71
1.0
 72
0.0
 73
0
 74
0
 75
0
 76
0
 77
1
 78
8
 79
2
170
0
171
1
172
0
173
0
174
0
175
0
176
0
177
0
178
0
270
2
179
2
271
2
272
2
273
2
274
2
275
0
280
0
281
0
282
0
283
1
284
8
285
0
286
0
287
3
288
0
340
11
278
44
341
211
342
211
343
211
344
211
  0
ENDTAB
  0
ENDSEC
  0
SECTION
  2
BLOCKS
  0
BLOCK
  5
20
100
AcDbEntity
  8
0
100
AcDbBlockBegin
  2
*Model_Space
 70
0
 10
0.0
 20
0.0
 30
0.0
  3
*Model_Space
  1

  0
ENDBLK
  5
21
100
AcDbEntity
  8
0
100
AcDbBlockEnd
  0
BLOCK
  5
1C
100
AcDbEntity
  8
0
100
AcDbBlockBegin
  2
*Paper_Space
 70
0
 10
0.0
 20
0.0
 30
0.0
  3
*Paper_Space
  1

  0
ENDBLK
  5
1D
100
AcDbEntity
  8
0
100
AcDbBlockEnd
  0
BLOCK
  5
213
100
AcDbEntity
  8
0
100
AcDbBlockBegin
  2
_FILLED
 70
64
 10
0.0
 20
0.0
  3
_FILLED
  1

  0
SOLID
  5
214
100
AcDbEntity
  8
0
  6
BYBLOCK
 62
0
100
AcDbTrace
 10
0.0
 20
0.0
 11
-1.0
 21
0.3166666667
 12
-1.0
 22
-0.3166666667
 13
-1.0
 23
-0.3166666667
  0
ENDBLK
  5
215
100
AcDbEntity
  8
0
  6
BYBLOCK
 62
0
100
AcDbBlockEnd
  0
ENDSEC
  0
SECTION
  2
ENTITIES
  0
LWPOLYLINE
  5
216
100
AcDbEntity
  8
RACCORDO
100
AcDbPolyline
 62
7
  6
CONTINUOUS
 90
13
 70
0
 10
-44.2699339156
 20
91.1290060846
 10
-44.3014824877
 20
91.1082971079
 10
-44.3309202511
 20
91.0838763082
 10
-44.3578475567
 20
91.0560691299
 10
-44.382232246
 20
91.0248321939
 10
-44.4041064775
 20
90.9902088793
 10
-44.4231912379
 20
90.9526408185
 10
-44.4394507944
 20
90.9120902897
 10
-44.4529208797
 20
90.8685950147
 10
-44.4634296781
 20
90.8227097908
 10
-44.4709199178
 20
90.7746195506
 10
-44.4754488706
 20
90.7241393614
 10
-44.4770165366
 20
90.6712692234
  0
LINE
  5
217
100
AcDbEntity
  8
RACCORDO
100
AcDbLine
 62
7
  6
CONTINUOUS
 10
-44.2699339156
 20
91.1290060846
 11
-40.0272932285
 21
93.5786536445
  0
LINE
  5
218
100
AcDbEntity
  8
RACCORDO
100
AcDbLine
 62
250
  6
CONTINUOUS
 10
-43.7699097554
 20
91.0794649069
 11
-39.5272690683
 21
93.5291124669
  0
LWPOLYLINE
  5
219
100
AcDbEntity
  8
RACCORDO
100
AcDbPolyline
 62
7
  6
CONTINUOUS
 90
13
 70
0
 10
-40.0272932285
 20
93.5786536445
 10
-39.9935340187
 20
93.5956452745
 10
-39.9576640002
 20
93.6089250816
 10
-39.9201165475
 20
93.6183376255
 10
-39.8808701729
 20
93.6238333675
 10
-39.8399463641
 20
93.6254618464
 10
-39.7978671184
 20
93.6232022904
 10
-39.754617635
 20
93.6170048946
 10
-39.7102127148
 20
93.6069194638
 10
-39.665218758
 20
93.5930746413
 10
-39.6198245647
 20
93.5755133082
 10
-39.5738413348
 20
93.5541925834
 10
-39.5272690683
 20
93.5291124669
  0
LWPOLYLINE
  5
21A
100
AcDbEntity
  8
RACCORDO
100
AcDbPolyline
 62
7
  6
CONTINUOUS
 90
13
 70
0
 10
-42.148613572
 20
92.3538298645
 10
-42.1148543623
 20
92.3708214945
 10
-42.0789843438
 20
92.3841013016
 10
-42.0414368911
 20
92.3935138455
 10
-42.0021905165
 20
92.3990095875
 10
-41.9612667076
 20
92.4006380664
 10
-41.919187462
 20
92.3983785104
 10
-41.8759379786
 20
92.3921811146
 10
-41.8315330583
 20
92.3820956838
 10
-41.7865391015
 20
92.3682508613
 10
-41.7411449082
 20
92.3506895282
 10
-41.6951616783
 20
92.3293688034
 10
-41.6485894119
 20
92.3042886869
  0
LWPOLYLINE
  5
21B
100
AcDbEntity
  8
RACCORDO
100
AcDbPolyline
 62
7
  6
CONTINUOUS
 90
16
 70
0
 10
-34.9411738172
 20
67.0513021594
 10
-34.8874588209
 20
67.0791255331
 10
-34.8310562206
 20
67.1021822499
 10
-34.7723793725
 20
67.1203114789
 10
-34.7114096103
 20
67.1334727763
 10
-34.6481656003
 20
67.1417065859
 10
-34.5831650189
 20
67.1449455107
 10
-34.5163934483
 20
67.143148554
 10
-34.4478653063
 20
67.1363567125
 10
-34.3781415214
 20
67.1246255802
 10
-34.3072122802
 20
67.1079146163
 10
-34.2350873963
 20
67.0862643616
 10
-34.162357239
 20
67.0598520314
 10
-34.0892185983
 20
67.0287366977
 10
-34.0154746843
 20
66.9928592886
 10
-33.941125497
 20
66.9522198041
  0
LINE
  5
21C
100
AcDbEntity
  8
RACCORDO
100
AcDbLine
 62
250
  6
CONTINUOUS
 10
-33.9411938371
 20
66.9523381651
 11
-35.3553390593
 21
66.1358284372
  0
LWPOLYLINE
  5
21D
100
AcDbEntity
  8
RACCORDO
100
AcDbPolyline
 62
7
  6
CONTINUOUS
 90
13
 70
0
 10
39.5272690683
 20
-93.5291124669
 10
39.5738413348
 20
-93.5541925834
 10
39.6198245647
 20
-93.5755133082
 10
39.665218758
 20
-93.5930746413
 10
39.7102127148
 20
-93.6069194638
 10
39.754617635
 20
-93.6170048946
 10
39.7978671184
 20
-93.6232022904
 10
39.8399463641
 20
-93.6254618464
 10
39.8808701729
 20
-93.6238333675
 10
39.9201165475
 20
-93.6183376255
 10
39.9576640002
 20
-93.6089250816
 10
39.9935340187
 20
-93.5956452745
 10
40.0272932285
 20
-93.5786536445
  0
LINE
  5
21E
100
AcDbEntity
  8
RACCORDO
100
AcDbLine
 62
7
  6
CONTINUOUS
 10
-43.7699097554
 20
-45.4343653729
 11
39.5272690683
 21
-93.5291124669
  0
LWPOLYLINE
  5
21F
100
AcDbEntity
  8
ASSI
100
AcDbPolyline
 62
7
  6
CONTINUOUS
 90
46
 70
0
 10
-3.1963722878
 20
54.7282566846
 10
-3.1386286668
 20
54.7581668113
 10
-3.0779958714
 20
54.7829527819
 10
-3.0149182598
 20
54.802441703
 10
-2.9493757654
 20
54.8165900977
 10
-2.8813884547
 20
54.825441443
 10
-2.8115128296
 20
54.8289232872
 10
-2.7397333913
 20
54.8269915587
 10
-2.6660656386
 20
54.8196903292
 10
-2.5911125698
 20
54.8070793619
 10
-2.5148636356
 20
54.7891150758
 10
-2.4373293853
 20
54.7658410519
 10
-2.3591444663
 20
54.737447797
 10
-2.2803035379
 20
54.7038932935
 10
-2.2008119407
 20
54.665219559
 10
-2.1213203436
 20
54.6217431526
 10
-2.0418287464
 20
54.5734246551
 10
-1.9623371492
 20
54.5203034857
 10
-1.8834962208
 20
54.4628144613
 10
-1.8053113018
 20
54.4009217315
 10
-1.7277770515
 20
54.3346611466
 10
-1.6515281173
 20
54.2645750747
 10
-1.5765750486
 20
54.190632117
 10
-1.5029072958
 20
54.1128636723
 10
-1.4311278575
 20
54.0319063046
 10
-1.3612522324
 20
53.94773384
 10
-1.2932649217
 20
53.8603724526
 10
-1.2277224273
 20
53.7705372282
 10
-1.1646448157
 20
53.6782078622
 10
-1.1040120203
 20
53.5834046593
 10
-1.0463203436
 20
53.4869036196
 10
-0.9915939255
 20
53.3886908076
 10
-0.939808626
 20
53.2887801587
 10
-0.8913883275
 20
53.1879894796
 10
-0.846360649
 20
53.0863115469
 10
-0.8046979715
 20
52.9837535839
 10
-0.7667413196
 20
52.8811550663
 10
-0.7325211116
 20
52.7785156612
 10
-0.7020069293
 20
52.6758357014
 10
-0.6754485428
 20
52.5739556613
 10
-0.6528784204
 20
52.4728821065
 10
-0.6342640939
 20
52.3726084714
 10
-0.6197579284
 20
52.2739555336
 10
-0.6094107125
 20
52.1771968857
 10
-0.6031716577
 20
52.0820589351
 10
-0.601040764
 20
51.9885416819
  0
LWPOLYLINE
  5
220
100
AcDbEntity
  8
CURVE
100
AcDbPolyline
 62
7
  6
HIDDEN
 90
17
 70
0
 10
-41.3657466994
 20
-42.2502654401
 10
-41.3320798524
 20
-42.6661706919
 10
-41.2323616712
 20
-43.1051118729
 10
-41.0703903902
 20
-43.5503698499
 10
-40.8479797464
 20
-43.992546763
 10
-40.5813807516
 20
-44.3993338071
 10
-40.277324318
 20
-44.7631411358
 10
-39.9473918608
 20
-45.070111441
 10
-39.5979797464
 20
-45.3121276154
 10
-39.2546186792
 20
-45.4715061184
 10
-38.9243361284
 20
-45.5470661957
 10
-38.6197124536
 20
-45.5359297876
 10
-38.3479797464
 20
-45.4360154307
 10
-38.1289928632
 20
-45.254623627
 10
-37.965959234
 20
-44.9976743845
 10
-37.865088759
 20
-44.6749548199
 10
-37.8302127935
 20
-44.2916382283
  0
LWPOLYLINE
  5
221
100
AcDbEntity
  8
CURVE
100
AcDbPolyline
 62
7
  6
HIDDEN
 90
17
 70
0
 10
-37.8302127935
 20
-44.2916384068
 10
-37.8638796405
 20
-43.875733155
 10
-37.9635978217
 20
-43.436791974
 10
-38.1255691027
 20
-42.9915339971
 10
-38.3479797464
 20
-42.5493570839
 10
-38.6145787413
 20
-42.1425700398
 10
-38.9186351749
 20
-41.7787627111
 10
-39.2485676321
 20
-41.4717924059
 10
-39.5979797464
 20
-41.2297762315
 10
-39.9413408137
 20
-41.0703977285
 10
-40.2716233645
 20
-40.9948376512
 10
-40.5762470392
 20
-41.0059740593
 10
-40.8479797464
 20
-41.1058884162
 10
-41.0669666297
 20
-41.2872802199
 10
-41.2300002589
 20
-41.5442294624
 10
-41.3308707339
 20
-41.866949027
 10
-41.3657466994
 20
-42.2502656186
  0
LWPOLYLINE
  5
222
100
AcDbEntity
  8
CURVE
100
AcDbPolyline
 62
7
  6
HIDDEN
 90
17
 70
0
 10
-41.3657466994
 20
0.2061889531
 10
-41.3320798524
 20
-0.2097162987
 10
-41.2323616712
 20
-0.6486574797
 10
-41.0703903902
 20
-1.0939154566
 10
-40.8479797464
 20
-1.5360923698
 10
-40.5813807516
 20
-1.9428794139
 10
-40.277324318
 20
-2.3066867425
 10
-39.9473918608
 20
-2.6136570478
 10
-39.5979797464
 20
-2.8556732222
 10
-39.2546186792
 20
-3.0150517251
 10
-38.9243361284
 20
-3.0906118025
 10
-38.6197124536
 20
-3.0794753944
 10
-38.3479797464
 20
-2.9795610374
 10
-38.1289928632
 20
-2.7981692338
 10
-37.965959234
 20
-2.5412199913
 10
-37.865088759
 20
-2.2185004267
 10
-37.8302127935
 20
-1.8351838351
  0
LWPOLYLINE
  5
223
100
AcDbEntity
  8
RACCORDO
100
AcDbPolyline
 62
7
  6
CONTINUOUS
 90
25
 70
0
 10
-44.4770165366
 20
-44.2096205027
 10
-44.4754488706
 20
-44.2643009421
 10
-44.4709199178
 20
-44.3200110525
 10
-44.4634296781
 20
-44.3767508338
 10
-44.4529208797
 20
-44.4347713547
 10
-44.4394507944
 20
-44.4938215465
 10
-44.4231912379
 20
-44.5531482036
 10
-44.4041064775
 20
-44.6127548673
 10
-44.382232246
 20
-44.6726379962
 10
-44.3578475567
 20
-44.7320337602
 10
-44.3309202511
 20
-44.7909359161
 10
-44.3014824877
 20
-44.849350707
 10
-44.2699097554
 20
-44.9065330319
 10
-44.2361747058
 20
-44.9624671032
 10
-44.2003046874
 20
-45.0171687084
 10
-44.1627572346
 20
-45.0699401096
 10
-44.12351086
 20
-45.1207565812
 10
-44.0825870512
 20
-45.1696428488
 10
-44.0405078055
 20
-45.215975351
 10
-43.9972583221
 20
-45.2597213745
 10
-43.9528534019
 20
-45.3009136325
 10
-43.9078594451
 20
-45.3390267035
 10
-43.8624652518
 20
-45.373885447
 10
-43.8164820219
 20
-45.4056650035
 10
-43.7699097554
 20
-45.4343653729
  0
LINE
  5
224
100
AcDbEntity
  8
RACCORDO
100
AcDbLine
 62
7
  6
CONTINUOUS
 10
-44.4770165366
 20
90.6712692234
 11
-44.4770165366
 21
-44.2096205027
  0
LWPOLYLINE
  5
225
100
AcDbEntity
  8
ASSI
100
AcDbPolyline
 62
7
  6
CONTINUOUS
 90
46
 70
0
 10
-1.0462683993
 20
51.0044074305
 10
-1.1040120203
 20
50.9744973038
 10
-1.1646448157
 20
50.9497113332
 10
-1.2277224273
 20
50.9302224121
 10
-1.2932649217
 20
50.9160740173
 10
-1.3612522324
 20
50.9072226721
 10
-1.4311278575
 20
50.9037408279
 10
-1.5029072958
 20
50.9056725564
 10
-1.5765750486
 20
50.9129737859
 10
-1.6515281173
 20
50.9255847532
 10
-1.7277770515
 20
50.9435490393
 10
-1.8053113018
 20
50.9668230632
 10
-1.8834962208
 20
50.9952163181
 10
-1.9623371492
 20
51.0287708216
 10
-2.0418287464
 20
51.0674445561
 10
-2.1213203436
 20
51.1109209624
 10
-2.2008119407
 20
51.15923946
 10
-2.2803035379
 20
51.2123606294
 10
-2.3591444663
 20
51.2698496538
 10
-2.4373293853
 20
51.3317423836
 10
-2.5148636356
 20
51.3980029684
 10
-2.5911125698
 20
51.4680890403
 10
-2.6660656386
 20
51.542031998
 10
-2.7397333913
 20
51.6198004428
 10
-2.8115128296
 20
51.7007578105
 10
-2.8813884547
 20
51.784930275
 10
-2.9493757654
 20
51.8722916625
 10
-3.0149182598
 20
51.9621268869
 10
-3.0779958714
 20
52.0544562529
 10
-3.1386286668
 20
52.1492594558
 10
-3.1963203436
 20
52.2457604955
 10
-3.2510467616
 20
52.3439733075
 10
-3.3028320611
 20
52.4438839563
 10
-3.3512523596
 20
52.5446746355
 10
-3.3962800381
 20
52.6463525682
 10
-3.4379427157
 20
52.7489105312
 10
-3.4758993675
 20
52.8515090488
 10
-3.5101195755
 20
52.9541484539
 10
-3.5406337578
 20
53.0568284137
 10
-3.5671921443
 20
53.1587084537
 10
-3.5897622667
 20
53.2597820086
 10
-3.6083765933
 20
53.3600556437
 10
-3.6228827587
 20
53.4587085815
 10
-3.6332299746
 20
53.5554672294
 10
-3.6394690294
 20
53.65060518
 10
-3.6415999231
 20
53.7441224332
  0
LINE
  5
226
100
AcDbEntity
  8
RACCORDO
100
AcDbLine
 62
7
  6
CONTINUOUS
 10
29.6984848098
 20
-69.4018673641
 11
-33.941125497
 21
-32.6571539646
  0
LINE
  5
227
100
AcDbEntity
  8
RACCORDO
100
AcDbLine
 62
7
  6
CONTINUOUS
 10
31.1126983722
 20
-67.7687689908
 11
-31.8198051534
 21
-31.4323301846
  0
LINE
  5
228
100
AcDbEntity
  8
RACCORDO
100
AcDbLine
 62
7
  6
CONTINUOUS
 10
31.1126983722
 20
-65.3191214308
 11
-29.6984848098
 21
-30.2075064046
  0
LWPOLYLINE
  5
229
100
AcDbEntity
  8
RACCORDO
100
AcDbPolyline
 62
7
  6
CONTINUOUS
 90
31
 70
0
 10
-33.941125497
 20
-32.6571539646
 10
-34.0154746843
 20
-32.6119368712
 10
-34.0892185983
 20
-32.5626566568
 10
-34.162357239
 20
-32.5093133215
 10
-34.2350873963
 20
-32.4517386891
 10
-34.3072122802
 20
-32.3901009358
 10
-34.3781415214
 20
-32.3249045898
 10
-34.4478653063
 20
-32.2561204431
 10
-34.5163934483
 20
-32.1837777038
 10
-34.5831650189
 20
-32.1084685246
 10
-34.6481656003
 20
-32.0301685575
 10
-34.7114096103
 20
-31.9489021506
 10
-34.7723793725
 20
-31.8653345
 10
-34.8310562206
 20
-31.7794467177
 10
-34.8874588209
 20
-31.6912576917
 10
-34.941125497
 20
-31.6014892827
 10
-34.9920337928
 20
-31.5101285273
 10
-35.0402061644
 20
-31.4171883889
 10
-35.0852483026
 20
-31.3234296175
 10
-35.1271345151
 20
-31.2288454941
 10
-35.1658904942
 20
-31.1334427379
 10
-35.2011990076
 20
-31.0380022563
 10
-35.2330317592
 20
-30.94252374
 10
-35.2614170451
 20
-30.8470074983
 10
-35.2861225209
 20
-30.752235368
 10
-35.3071179836
 20
-30.6582134566
 10
-35.3244336362
 20
-30.5649356565
 10
-35.3379277436
 20
-30.4731654818
 10
-35.3475530607
 20
-30.3831574372
 10
-35.3533568327
 20
-30.2946570181
 10
-35.3553390593
 20
-30.2076642244
  0
LWPOLYLINE
  5
22A
100
AcDbEntity
  8
CURVE
100
AcDbPolyline
 62
7
  6
HIDDEN
 90
17
 70
0
 10
-37.8302127935
 20
-1.8351840135
 10
-37.8638796405
 20
-1.4192787618
 10
-37.9635978217
 20
-0.9803375808
 10
-38.1255691027
 20
-0.5350796038
 10
-38.3479797464
 20
-0.0929026907
 10
-38.6145787413
 20
0.3138843534
 10
-38.9186351749
 20
0.6776916821
 10
-39.2485676321
 20
0.9846619873
 10
-39.5979797464
 20
1.2266781618
 10
-39.9413408137
 20
1.3860566647
 10
-40.2716233645
 20
1.461616742
 10
-40.5762470392
 20
1.4504803339
 10
-40.8479797464
 20
1.350565977
 10
-41.0669666297
 20
1.1691741733
 10
-41.2300002589
 20
0.9122249308
 10
-41.3308707339
 20
0.5895053662
 10
-41.3657466994
 20
0.2061887746
  0
LWPOLYLINE
  5
22B
100
AcDbEntity
  8
CURVE
100
AcDbPolyline
 62
7
  6
HIDDEN
 90
17
 70
0
 10
-41.3657466994
 20
42.6626433463
 10
-41.3320798524
 20
42.2467380945
 10
-41.2323616712
 20
41.8077969136
 10
-41.0703903902
 20
41.3625389366
 10
-40.8479797464
 20
40.9203620234
 10
-40.5813807516
 20
40.5135749794
 10
-40.277324318
 20
40.1497676507
 10
-39.9473918608
 20
39.8427973455
 10
-39.5979797464
 20
39.600781171
 10
-39.2546186792
 20
39.4414026681
 10
-38.9243361284
 20
39.3658425907
 10
-38.6197124536
 20
39.3769789988
 10
-38.3479797464
 20
39.4768933558
 10
-38.1289928632
 20
39.6582851594
 10
-37.965959234
 20
39.915234402
 10
-37.865088759
 20
40.2379539666
 10
-37.8302127935
 20
40.6212705581
  0
LWPOLYLINE
  5
22C
100
AcDbEntity
  8
CURVE
100
AcDbPolyline
 62
7
  6
HIDDEN
 90
17
 70
0
 10
-37.8302127935
 20
40.6212703797
 10
-37.8638796405
 20
41.0371756315
 10
-37.9635978217
 20
41.4761168124
 10
-38.1255691027
 20
41.9213747894
 10
-38.3479797464
 20
42.3635517026
 10
-38.6145787413
 20
42.7703387466
 10
-38.9186351749
 20
43.1341460753
 10
-39.2485676321
 20
43.4411163805
 10
-39.5979797464
 20
43.683132555
 10
-39.9413408137
 20
43.8425110579
 10
-40.2716233645
 20
43.9180711353
 10
-40.5762470392
 20
43.9069347272
 10
-40.8479797464
 20
43.8070203702
 10
-41.0669666297
 20
43.6256285666
 10
-41.2300002589
 20
43.368679324
 10
-41.3308707339
 20
43.0459597594
 10
-41.3657466994
 20
42.6626431679
  0
LWPOLYLINE
  5
22D
100
AcDbEntity
  8
CURVE
100
AcDbPolyline
 62
7
  6
HIDDEN
 90
17
 70
0
 10
-41.3657466994
 20
85.1190977395
 10
-41.3320798524
 20
84.7031924878
 10
-41.2323616712
 20
84.2642513068
 10
-41.0703903902
 20
83.8189933298
 10
-40.8479797464
 20
83.3768164167
 10
-40.5813807516
 20
82.9700293726
 10
-40.277324318
 20
82.6062220439
 10
-39.9473918608
 20
82.2992517387
 10
-39.5979797464
 20
82.0572355642
 10
-39.2546186792
 20
81.8978570613
 10
-38.9243361284
 20
81.822296984
 10
-38.6197124536
 20
81.8334333921
 10
-38.3479797464
 20
81.933347749
 10
-38.1289928632
 20
82.1147395527
 10
-37.965959234
 20
82.3716887952
 10
-37.865088759
 20
82.6944083598
 10
-37.8302127935
 20
83.0777249514
  0
LWPOLYLINE
  5
22E
100
AcDbEntity
  8
RACCORDO
100
AcDbPolyline
 62
7
  6
CONTINUOUS
 90
31
 70
0
 10
-33.2340187158
 20
-28.9828404444
 10
-33.2320364891
 20
-29.0698332381
 10
-33.2262327172
 20
-29.1583336572
 10
-33.2166074001
 20
-29.2483417018
 10
-33.2031132927
 20
-29.3401118765
 10
-33.18579764
 20
-29.4333896766
 10
-33.1648021773
 20
-29.527411588
 10
-33.1400967015
 20
-29.6221837183
 10
-33.1117114157
 20
-29.71769996
 10
-33.0798786641
 20
-29.8131784764
 10
-33.0445701507
 20
-29.9086189579
 10
-33.0058141716
 20
-30.0040217142
 10
-32.963927959
 20
-30.0986058375
 10
-32.9188858209
 20
-30.1923646089
 10
-32.8707134493
 20
-30.2853047473
 10
-32.8198051534
 20
-30.3766655027
 10
-32.7661384774
 20
-30.4664339117
 10
-32.709735877
 20
-30.5546229377
 10
-32.6510590289
 20
-30.64051072
 10
-32.5900892667
 20
-30.7240783706
 10
-32.5268452568
 20
-30.8053447775
 10
-32.4618446753
 20
-30.8836447446
 10
-32.3950731048
 20
-30.9589539238
 10
-32.3265449627
 20
-31.0312966631
 10
-32.2568211778
 20
-31.1000808098
 10
-32.1858919367
 20
-31.1652771558
 10
-32.1137670527
 20
-31.2269149091
 10
-32.0410368955
 20
-31.2844895415
 10
-31.9678982548
 20
-31.3378328768
 10
-31.8941543407
 20
-31.3871130912
 10
-31.8198051534
 20
-31.4323301846
  0
LINE
  5
22F
100
AcDbEntity
  8
RACCORDO
100
AcDbLine
 62
7
  6
CONTINUOUS
 10
-35.3553390593
 20
-30.2076642244
 11
-35.3553390593
 21
66.1358284372
  0
LWPOLYLINE
  5
230
100
AcDbEntity
  8
RACCORDO
100
AcDbPolyline
 62
7
  6
CONTINUOUS
 90
16
 70
0
 10
-35.3553390593
 20
66.1358284372
 10
-35.3533568327
 20
66.2205322052
 10
-35.3475530607
 20
66.3023305741
 10
-35.3379277436
 20
66.3812235437
 10
-35.3244336362
 20
66.4574110614
 10
-35.3071179836
 20
66.5306931798
 10
-35.2861225209
 20
66.6004700572
 10
-35.2614170451
 20
66.6667129234
 10
-35.2330317592
 20
66.7294505484
 10
-35.2011990076
 20
66.7881694011
 10
-35.1658904942
 20
66.8428364964
 10
-35.1271345151
 20
66.8934848195
 10
-35.0852483026
 20
66.9396997946
 10
-35.0402061644
 20
66.9814450338
 10
-34.9920337928
 20
67.018756925
 10
-34.9411738172
 20
67.0513021594
  0
LWPOLYLINE
  5
231
100
AcDbEntity
  8
CURVE
100
AcDbPolyline
 62
7
  6
HIDDEN
 90
17
 70
0
 10
-37.8302127935
 20
83.0777247729
 10
-37.8638796405
 20
83.4936300247
 10
-37.9635978217
 20
83.9325712057
 10
-38.1255691027
 20
84.3778291826
 10
-38.3479797464
 20
84.8200060958
 10
-38.6145787413
 20
85.2267931399
 10
-38.9186351749
 20
85.5906004685
 10
-39.2485676321
 20
85.8975707738
 10
-39.5979797464
 20
86.1395869482
 10
-39.9413408137
 20
86.2989654511
 10
-40.2716233645
 20
86.3745255285
 10
-40.5762470392
 20
86.3633891204
 10
-40.8479797464
 20
86.2634747634
 10
-41.0669666297
 20
86.0820829598
 10
-41.2300002589
 20
85.8251337173
 10
-41.3308707339
 20
85.5024141527
 10
-41.3657466994
 20
85.1190975611
  0
LWPOLYLINE
  5
232
100
AcDbEntity
  8
RACCORDO
100
AcDbPolyline
 62
7
  6
CONTINUOUS
 90
31
 70
0
 10
-31.1126983722
 20
-27.7580166644
 10
-31.1107161455
 20
-27.8450094581
 10
-31.1049123736
 20
-27.9335098772
 10
-31.0952870565
 20
-28.0235179218
 10
-31.0817929491
 20
-28.1152880965
 10
-31.0644772965
 20
-28.2085658966
 10
-31.0434818338
 20
-28.3025878081
 10
-31.018776358
 20
-28.3973599384
 10
-30.9903910721
 20
-28.49287618
 10
-30.9585583205
 20
-28.5883546964
 10
-30.9232498071
 20
-28.6837951779
 10
-30.884493828
 20
-28.7791979342
 10
-30.8426076155
 20
-28.8737820576
 10
-30.7975654773
 20
-28.9675408289
 10
-30.7493931057
 20
-29.0604809674
 10
-30.6984848098
 20
-29.1518417227
 10
-30.6448181338
 20
-29.2416101317
 10
-30.5884155334
 20
-29.3297991577
 10
-30.5297386854
 20
-29.41568694
 10
-30.4687689231
 20
-29.4992545906
 10
-30.4055249132
 20
-29.5805209976
 10
-30.3405243318
 20
-29.6588209646
 10
-30.2737527612
 20
-29.7341301438
 10
-30.2052246191
 20
-29.8064728831
 10
-30.1355008343
 20
-29.8752570298
 10
-30.0645715931
 20
-29.9404533758
 10
-29.9924467092
 20
-30.0020911291
 10
-29.9197165519
 20
-30.0596657615
 10
-29.8465779112
 20
-30.1130090968
 10
-29.7728339972
 20
-30.1622893112
 10
-29.6984848098
 20
-30.2075064046
  0
LINE
  5
233
100
AcDbEntity
  8
RACCORDO
100
AcDbLine
 62
7
  6
CONTINUOUS
 10
-33.2340187158
 20
-28.9828404444
 11
-33.2340187158
 21
66.5439452108
  0
LINE
  5
234
100
AcDbEntity
  8
RACCORDO
100
AcDbLine
 62
7
  6
CONTINUOUS
 10
-31.1126983722
 20
-27.7580166644
 11
-31.1126983722
 21
65.3191214308
  0
LWPOLYLINE
  5
235
100
AcDbEntity
  8
ASSI
100
AcDbPolyline
 62
7
  6
CONTINUOUS
 90
9
 70
0
 10
-0.8868052762
 20
-55.0046712785
 10
-0.8935979162
 20
-54.9953610082
 10
-0.9566755279
 20
-54.9030316422
 10
-1.0173083233
 20
-54.8082284393
 10
-1.075
 20
-54.7117273996
 10
-1.1297264181
 20
-54.6135145876
 10
-1.1815117175
 20
-54.5136039387
 10
-1.2299320161
 20
-54.4128132595
 10
-1.2345150674
 20
-54.4024641766
  0
LINE
  5
236
100
AcDbEntity
  8
RACCORDO
100
AcDbLine
 62
250
  6
CONTINUOUS
 10
39.5272690683
 20
42.9847178129
 11
43.7699097554
 21
45.4343653729
  0
LINE
  5
237
100
AcDbEntity
  8
RACCORDO
100
AcDbLine
 62
250
  6
CONTINUOUS
 10
40.2343758495
 20
41.7599729428
 11
44.4770165366
 21
44.2096205027
  0
LWPOLYLINE
  5
238
100
AcDbEntity
  8
CURVE
100
AcDbPolyline
 62
7
  6
HIDDEN
 90
17
 70
0
 10
-3.8890872965
 20
-63.8888188865
 10
-3.8554204495
 20
-64.3047241383
 10
-3.7557022683
 20
-64.7436653192
 10
-3.5937309873
 20
-65.1889232962
 10
-3.3713203436
 20
-65.6311002094
 10
-3.1047213487
 20
-66.0378872534
 10
-2.8006649151
 20
-66.4016945821
 10
-2.4707324579
 20
-66.7086648874
 10
-2.1213203436
 20
-66.9506810618
 10
-1.7779592763
 20
-67.1100595647
 10
-1.4476767255
 20
-67.1856196421
 10
-1.1430530508
 20
-67.174483234
 10
-0.8713203436
 20
-67.074568877
 10
-0.6523334603
 20
-66.8931770734
 10
-0.4892998311
 20
-66.6362278308
 10
-0.3884293561
 20
-66.3135082663
 10
-0.3535533906
 20
-65.9301916747
  0
LWPOLYLINE
  5
239
100
AcDbEntity
  8
CURVE
100
AcDbPolyline
 62
7
  6
HIDDEN
 90
17
 70
0
 10
-0.3535533906
 20
-65.9301918531
 10
-0.3872202376
 20
-65.5142866014
 10
-0.4869384188
 20
-65.0753454204
 10
-0.6489096998
 20
-64.6300874434
 10
-0.8713203436
 20
-64.1879105303
 10
-1.1379193384
 20
-63.7811234862
 10
-1.441975772
 20
-63.4173161575
 10
-1.7719082292
 20
-63.1103458523
 10
-2.1213203436
 20
-62.8683296778
 10
-2.4646814108
 20
-62.7089511749
 10
-2.7949639616
 20
-62.6333910976
 10
-3.0995876364
 20
-62.6445275057
 10
-3.3713203436
 20
-62.7444418626
 10
-3.5903072268
 20
-62.9258336663
 10
-3.753340856
 20
-63.1827829088
 10
-3.854211331
 20
-63.5055024734
 10
-3.8890872965
 20
-63.8888190649
  0
LWPOLYLINE
  5
23A
100
AcDbEntity
  8
ASSI
100
AcDbPolyline
 62
7
  6
CONTINUOUS
 90
16
 70
0
 10
-3.6415999231
 20
53.7441224332
 10
-3.6394690294
 20
53.8351789838
 10
-3.6332299746
 20
53.9231122303
 10
-3.6228827587
 20
54.0079221727
 10
-3.6083765933
 20
54.0898237542
 10
-3.5897622667
 20
54.1686020315
 10
-3.5671921443
 20
54.2436121748
 10
-3.5406337578
 20
54.3148232558
 10
-3.5101195755
 20
54.3822662027
 10
-3.4758993675
 20
54.4453889694
 10
-3.4379427157
 20
54.5041560969
 10
-3.3962800381
 20
54.5586030442
 10
-3.3512523596
 20
54.6082841424
 10
-3.3028320611
 20
54.6531602745
 10
-3.2510467616
 20
54.6932705576
 10
-3.1963722878
 20
54.7282566846
  0
LWPOLYLINE
  5
23B
100
AcDbEntity
  8
ASSI
100
AcDbPolyline
 62
7
  6
CONTINUOUS
 90
16
 70
0
 10
-3.6415999231
 20
-54.4381892419
 10
-3.6394690294
 20
-54.3471326912
 10
-3.6332299746
 20
-54.2591994447
 10
-3.6228827587
 20
-54.1743895024
 10
-3.6083765933
 20
-54.0924879209
 10
-3.5897622667
 20
-54.0137096435
 10
-3.5671921443
 20
-53.9386995003
 10
-3.5406337578
 20
-53.8674884192
 10
-3.5101195755
 20
-53.8000454723
 10
-3.4758993675
 20
-53.7369227056
 10
-3.4379427157
 20
-53.6781555782
 10
-3.3962800381
 20
-53.6237086309
 10
-3.3512523596
 20
-53.5740275327
 10
-3.3028320611
 20
-53.5291514006
 10
-3.2510467616
 20
-53.4890411175
 10
-3.1963722878
 20
-53.4540549904
  0
LWPOLYLINE
  5
23C
100
AcDbEntity
  8
ASSI
100
AcDbPolyline
 62
7
  6
CONTINUOUS
 90
16
 70
0
 10
-0.601040764
 20
51.9885416819
 10
-0.6031716577
 20
51.8974851313
 10
-0.6094107125
 20
51.8095518848
 10
-0.6197579284
 20
51.7247419424
 10
-0.6342640939
 20
51.6428403609
 10
-0.6528784204
 20
51.5640620835
 10
-0.6754485428
 20
51.4890519403
 10
-0.7020069293
 20
51.4178408593
 10
-0.7325211116
 20
51.3503979124
 10
-0.7667413196
 20
51.2872751456
 10
-0.8046979715
 20
51.2285080182
 10
-0.846360649
 20
51.1740610709
 10
-0.8913883275
 20
51.1243799727
 10
-0.939808626
 20
51.0795038406
 10
-0.9915939255
 20
51.0393935575
 10
-1.0462683993
 20
51.0044074305
  0
LWPOLYLINE
  5
23D
100
AcDbEntity
  8
ASSI
100
AcDbPolyline
 62
7
  6
CONTINUOUS
 90
16
 70
0
 10
-0.601040764
 20
-56.1937699932
 10
-0.6031716577
 20
-56.2848265438
 10
-0.6094107125
 20
-56.3727597903
 10
-0.6197579284
 20
-56.4575697326
 10
-0.6342640939
 20
-56.5394713141
 10
-0.6528784204
 20
-56.6182495915
 10
-0.6754485428
 20
-56.6932597347
 10
-0.7020069293
 20
-56.7644708158
 10
-0.7325211116
 20
-56.8319137627
 10
-0.7667413196
 20
-56.8950365294
 10
-0.8046979715
 20
-56.9538036569
 10
-0.846360649
 20
-57.0082506041
 10
-0.8913883275
 20
-57.0579317023
 10
-0.939808626
 20
-57.1028078345
 10
-0.9915939255
 20
-57.1429181175
 10
-1.0462683993
 20
-57.1779042446
  0
LWPOLYLINE
  5
23E
100
AcDbEntity
  8
CURVE
100
AcDbPolyline
 62
7
  6
HIDDEN
 90
17
 70
0
 10
-3.8890872965
 20
63.4805442932
 10
-3.8554204495
 20
63.0646390414
 10
-3.7557022683
 20
62.6256978604
 10
-3.5937309873
 20
62.1804398835
 10
-3.3713203436
 20
61.7382629703
 10
-3.1047213487
 20
61.3314759262
 10
-2.8006649151
 20
60.9676685975
 10
-2.4707324579
 20
60.6606982923
 10
-2.1213203436
 20
60.4186821179
 10
-1.7779592763
 20
60.2593036149
 10
-1.4476767255
 20
60.1837435376
 10
-1.1430530508
 20
60.1948799457
 10
-0.8713203436
 20
60.2947943026
 10
-0.6523334603
 20
60.4761861063
 10
-0.4892998311
 20
60.7331353488
 10
-0.3884293561
 20
61.0558549134
 10
-0.3535533906
 20
61.439171505
  0
LWPOLYLINE
  5
23F
100
AcDbEntity
  8
CURVE
100
AcDbPolyline
 62
7
  6
HIDDEN
 90
17
 70
0
 10
-0.3535533906
 20
61.4391713265
 10
-0.3872202376
 20
61.8550765783
 10
-0.4869384188
 20
62.2940177593
 10
-0.6489096998
 20
62.7392757363
 10
-0.8713203436
 20
63.1814526494
 10
-1.1379193384
 20
63.5882396935
 10
-1.441975772
 20
63.9520470222
 10
-1.7719082292
 20
64.2590173274
 10
-2.1213203436
 20
64.5010335018
 10
-2.4646814108
 20
64.6604120048
 10
-2.7949639616
 20
64.7359720821
 10
-3.0995876364
 20
64.724835674
 10
-3.3713203436
 20
64.6249213171
 10
-3.5903072268
 20
64.4435295134
 10
-3.753340856
 20
64.1865802709
 10
-3.854211331
 20
63.8638607063
 10
-3.8890872965
 20
63.4805441147
  0
LINE
  5
240
100
AcDbEntity
  8
RACCORDO
100
AcDbLine
 62
250
  6
CONTINUOUS
 10
-31.1126983722
 20
-27.7580166644
 11
-35.3553390593
 21
-30.2076642244
  0
LINE
  5
241
100
AcDbEntity
  8
RACCORDO
100
AcDbLine
 62
250
  6
CONTINUOUS
 10
-29.6984848098
 20
-30.2075064046
 11
-33.941125497
 21
-32.6571539646
  0
LWPOLYLINE
  5
242
100
AcDbEntity
  8
CURVE
100
AcDbPolyline
 62
7
  6
HIDDEN
 90
17
 70
0
 10
33.5875721064
 20
-85.5273723329
 10
33.6212389534
 20
-85.9432775846
 10
33.7209571346
 20
-86.3822187656
 10
33.8829284156
 20
-86.8274767426
 10
34.1053390593
 20
-87.2696536558
 10
34.3719380542
 20
-87.6764406998
 10
34.6759944877
 20
-88.0402480285
 10
35.005926945
 20
-88.3472183337
 10
35.3553390593
 20
-88.5892345082
 10
35.6987001265
 20
-88.7486130111
 10
36.0289826774
 20
-88.8241730885
 10
36.3336063521
 20
-88.8130366804
 10
36.6053390593
 20
-88.7131223234
 10
36.8243259425
 20
-88.5317305197
 10
36.9873595718
 20
-88.2747812772
 10
37.0882300468
 20
-87.9520617126
 10
37.1231060123
 20
-87.5687451211
  0
LWPOLYLINE
  5
243
100
AcDbEntity
  8
CURVE
100
AcDbPolyline
 62
7
  6
HIDDEN
 90
17
 70
0
 10
37.1231060123
 20
-87.5687452995
 10
37.0894391653
 20
-87.1528400477
 10
36.989720984
 20
-86.7138988668
 10
36.8277497031
 20
-86.2686408898
 10
36.6053390593
 20
-85.8264639766
 10
36.3387400645
 20
-85.4196769326
 10
36.0346836309
 20
-85.0558696039
 10
35.7047511737
 20
-84.7488992987
 10
35.3553390593
 20
-84.5068831242
 10
35.0119779921
 20
-84.3475046213
 10
34.6816954413
 20
-84.2719445439
 10
34.3770717665
 20
-84.283080952
 10
34.1053390593
 20
-84.382995309
 10
33.8863521761
 20
-84.5643871126
 10
33.7233185469
 20
-84.8213363552
 10
33.6224480719
 20
-85.1440559197
 10
33.5875721064
 20
-85.5273725113
  0
LWPOLYLINE
  5
244
100
AcDbEntity
  8
CURVE
100
AcDbPolyline
 62
7
  6
HIDDEN
 90
17
 70
0
 10
33.5875721064
 20
-43.0709179396
 10
33.6212389534
 20
-43.4868231914
 10
33.7209571346
 20
-43.9257643724
 10
33.8829284156
 20
-44.3710223494
 10
34.1053390593
 20
-44.8131992625
 10
34.3719380542
 20
-45.2199863066
 10
34.6759944877
 20
-45.5837936353
 10
35.005926945
 20
-45.8907639405
 10
35.3553390593
 20
-46.1327801149
 10
35.6987001265
 20
-46.2921586179
 10
36.0289826774
 20
-46.3677186952
 10
36.3336063521
 20
-46.3565822871
 10
36.6053390593
 20
-46.2566679302
 10
36.8243259425
 20
-46.0752761265
 10
36.9873595718
 20
-45.818326884
 10
37.0882300468
 20
-45.4956073194
 10
37.1231060123
 20
-45.1122907278
  0
LWPOLYLINE
  5
245
100
AcDbEntity
  8
CURVE
100
AcDbPolyline
 62
7
  6
HIDDEN
 90
17
 70
0
 10
37.1231060123
 20
-45.1122909063
 10
37.0894391653
 20
-44.6963856545
 10
36.989720984
 20
-44.2574444735
 10
36.8277497031
 20
-43.8121864966
 10
36.6053390593
 20
-43.3700095834
 10
36.3387400645
 20
-42.9632225393
 10
36.0346836309
 20
-42.5994152106
 10
35.7047511737
 20
-42.2924449054
 10
35.3553390593
 20
-42.050428731
 10
35.0119779921
 20
-41.8910502281
 10
34.6816954413
 20
-41.8154901507
 10
34.3770717665
 20
-41.8266265588
 10
34.1053390593
 20
-41.9265409158
 10
33.8863521761
 20
-42.1079327194
 10
33.7233185469
 20
-42.3648819619
 10
33.6224480719
 20
-42.6876015265
 10
33.5875721064
 20
-43.0709181181
  0
LWPOLYLINE
  5
246
100
AcDbEntity
  8
CURVE
100
AcDbPolyline
 62
7
  6
HIDDEN
 90
17
 70
0
 10
33.5875721064
 20
-0.6144635464
 10
33.6212389534
 20
-1.0303687982
 10
33.7209571346
 20
-1.4693099792
 10
33.8829284156
 20
-1.9145679561
 10
34.1053390593
 20
-2.3567448693
 10
34.3719380542
 20
-2.7635319134
 10
34.6759944877
 20
-3.1273392421
 10
35.005926945
 20
-3.4343095473
 10
35.3553390593
 20
-3.6763257217
 10
35.6987001265
 20
-3.8357042246
 10
36.0289826774
 20
-3.911264302
 10
36.3336063521
 20
-3.9001278939
 10
36.6053390593
 20
-3.800213537
 10
36.8243259425
 20
-3.6188217333
 10
36.9873595718
 20
-3.3618724908
 10
37.0882300468
 20
-3.0391529262
 10
37.1231060123
 20
-2.6558363346
  0
LINE
  5
247
100
AcDbEntity
  8
RACCORDO
100
AcDbLine
 62
7
  6
CONTINUOUS
 10
31.1126983722
 20
27.7580166644
 11
31.1126983722
 21
-68.5854759972
  0
LWPOLYLINE
  5
248
100
AcDbEntity
  8
RACCORDO
100
AcDbPolyline
 62
7
  6
CONTINUOUS
 90
16
 70
0
 10
31.1126983722
 20
-68.5854759972
 10
31.1107161455
 20
-68.6701797652
 10
31.1049123736
 20
-68.751978134
 10
31.0952870565
 20
-68.8308711036
 10
31.0817929491
 20
-68.9070586213
 10
31.0644772965
 20
-68.9803407398
 10
31.0434818338
 20
-69.0501176172
 10
31.018776358
 20
-69.1163604833
 10
30.9903910721
 20
-69.1790981084
 10
30.9585583205
 20
-69.2378169611
 10
30.9232498071
 20
-69.2924840564
 10
30.884493828
 20
-69.3431323795
 10
30.8426076155
 20
-69.3893473545
 10
30.7975654773
 20
-69.4310925937
 10
30.7493931057
 20
-69.468404485
 10
30.6985331301
 20
-69.5009497194
  0
LWPOLYLINE
  5
249
100
AcDbEntity
  8
ASSI
100
AcDbPolyline
 62
7
  6
CONTINUOUS
 90
9
 70
0
 10
-0.8868052762
 20
53.1776403966
 10
-0.8935979162
 20
53.1869506669
 10
-0.9566755279
 20
53.2792800329
 10
-1.0173083233
 20
53.3740832358
 10
-1.075
 20
53.4705842755
 10
-1.1297264181
 20
53.5687970875
 10
-1.1815117175
 20
53.6687077363
 10
-1.2299320161
 20
53.7694984155
 10
-1.2345150674
 20
53.7798474985
  0
LWPOLYLINE
  5
24A
100
AcDbEntity
  8
CURVE
100
AcDbPolyline
 62
7
  6
HIDDEN
 90
17
 70
0
 10
37.1231060123
 20
-2.6558365131
 10
37.0894391653
 20
-2.2399312613
 10
36.989720984
 20
-1.8009900803
 10
36.8277497031
 20
-1.3557321033
 10
36.6053390593
 20
-0.9135551902
 10
36.3387400645
 20
-0.5067681461
 10
36.0346836309
 20
-0.1429608174
 10
35.7047511737
 20
0.1640094878
 10
35.3553390593
 20
0.4060256622
 10
35.0119779921
 20
0.5654041652
 10
34.6816954413
 20
0.6409642425
 10
34.3770717665
 20
0.6298278344
 10
34.1053390593
 20
0.5299134775
 10
33.8863521761
 20
0.3485216738
 10
33.7233185469
 20
0.0915724313
 10
33.6224480719
 20
-0.2311471333
 10
33.5875721064
 20
-0.6144637249
  0
LWPOLYLINE
  5
24B
100
AcDbEntity
  8
CURVE
100
AcDbPolyline
 62
7
  6
HIDDEN
 90
17
 70
0
 10
33.5875721064
 20
41.8419908468
 10
33.6212389534
 20
41.426085595
 10
33.7209571346
 20
40.9871444141
 10
33.8829284156
 20
40.5418864371
 10
34.1053390593
 20
40.0997095239
 10
34.3719380542
 20
39.6929224799
 10
34.6759944877
 20
39.3291151512
 10
35.005926945
 20
39.022144846
 10
35.3553390593
 20
38.7801286715
 10
35.6987001265
 20
38.6207501686
 10
36.0289826774
 20
38.5451900912
 10
36.3336063521
 20
38.5563264993
 10
36.6053390593
 20
38.6562408563
 10
36.8243259425
 20
38.8376326599
 10
36.9873595718
 20
39.0945819025
 10
37.0882300468
 20
39.417301467
 10
37.1231060123
 20
39.8006180586
  0
LWPOLYLINE
  5
24C
100
AcDbEntity
  8
CURVE
100
AcDbPolyline
 62
7
  6
HIDDEN
 90
17
 70
0
 10
37.1231060123
 20
39.8006178802
 10
37.0894391653
 20
40.2165231319
 10
36.989720984
 20
40.6554643129
 10
36.8277497031
 20
41.1007222899
 10
36.6053390593
 20
41.5428992031
 10
36.3387400645
 20
41.9496862471
 10
36.0346836309
 20
42.3134935758
 10
35.7047511737
 20
42.620463881
 10
35.3553390593
 20
42.8624800555
 10
35.0119779921
 20
43.0218585584
 10
34.6816954413
 20
43.0974186357
 10
34.3770717665
 20
43.0862822277
 10
34.1053390593
 20
42.9863678707
 10
33.8863521761
 20
42.804976067
 10
33.7233185469
 20
42.5480268245
 10
33.6224480719
 20
42.2253072599
 10
33.5875721064
 20
41.8419906684
  0
LWPOLYLINE
  5
24D
100
AcDbEntity
  8
RACCORDO
100
AcDbPolyline
 62
7
  6
CONTINUOUS
 90
25
 70
0
 10
40.2343758495
 20
41.7599729428
 10
40.2328081835
 20
41.8146533821
 10
40.2282792307
 20
41.8703634925
 10
40.220788991
 20
41.9271032738
 10
40.2102801926
 20
41.9851237947
 10
40.1968101073
 20
42.0441739866
 10
40.1805505508
 20
42.1035006436
 10
40.1614657904
 20
42.1631073074
 10
40.1395915589
 20
42.2229904363
 10
40.1152068695
 20
42.2823862002
 10
40.0882795639
 20
42.3412883561
 10
40.0588418006
 20
42.399703147
 10
40.0272690683
 20
42.4568854719
 10
39.9935340187
 20
42.5128195432
 10
39.9576640002
 20
42.5675211484
 10
39.9201165475
 20
42.6202925497
 10
39.8808701729
 20
42.6711090213
 10
39.8399463641
 20
42.7199952889
 10
39.7978671184
 20
42.766327791
 10
39.754617635
 20
42.8100738145
 10
39.7102127148
 20
42.8512660726
 10
39.665218758
 20
42.8893791436
 10
39.6198245647
 20
42.924237887
 10
39.5738413348
 20
42.9560174435
 10
39.5272690683
 20
42.9847178129
  0
LINE
  5
24E
100
AcDbEntity
  8
RACCORDO
100
AcDbLine
 62
7
  6
CONTINUOUS
 10
40.2343758495
 20
-93.1209167834
 11
40.2343758495
 21
41.7599729428
  0
LINE
  5
24F
100
AcDbEntity
  8
RACCORDO
100
AcDbLine
 62
7
  6
CONTINUOUS
 10
42.3556961931
 20
-91.8960930034
 11
42.3556961931
 21
42.9847967228
  0
LINE
  5
250
100
AcDbEntity
  8
RACCORDO
100
AcDbLine
 62
7
  6
CONTINUOUS
 10
-33.941125497
 20
66.9522198041
 11
29.6984848098
 21
30.2075064046
  0
LWPOLYLINE
  5
251
100
AcDbEntity
  8
RACCORDO
100
AcDbPolyline
 62
7
  6
CONTINUOUS
 90
31
 70
0
 10
29.6984848098
 20
30.2075064046
 10
29.7728339972
 20
30.1622893112
 10
29.8465779112
 20
30.1130090968
 10
29.9197165519
 20
30.0596657615
 10
29.9924467092
 20
30.0020911291
 10
30.0645715931
 20
29.9404533758
 10
30.1355008343
 20
29.8752570298
 10
30.2052246191
 20
29.8064728831
 10
30.2737527612
 20
29.7341301438
 10
30.3405243318
 20
29.6588209646
 10
30.4055249132
 20
29.5805209976
 10
30.4687689231
 20
29.4992545906
 10
30.5297386854
 20
29.41568694
 10
30.5884155334
 20
29.3297991577
 10
30.6448181338
 20
29.2416101317
 10
30.6984848098
 20
29.1518417227
 10
30.7493931057
 20
29.0604809674
 10
30.7975654773
 20
28.9675408289
 10
30.8426076155
 20
28.8737820576
 10
30.884493828
 20
28.7791979342
 10
30.9232498071
 20
28.6837951779
 10
30.9585583205
 20
28.5883546964
 10
30.9903910721
 20
28.49287618
 10
31.018776358
 20
28.3973599384
 10
31.0434818338
 20
28.3025878081
 10
31.0644772965
 20
28.2085658966
 10
31.0817929491
 20
28.1152880965
 10
31.0952870565
 20
28.0235179218
 10
31.1049123736
 20
27.9335098772
 10
31.1107161455
 20
27.8450094581
 10
31.1126983722
 20
27.7580166644
  0
LINE
  5
252
100
AcDbEntity
  8
RACCORDO
100
AcDbLine
 62
7
  6
CONTINUOUS
 10
44.4770165366
 20
-90.6712692234
 11
44.4770165366
 21
44.2096205027
  0
LWPOLYLINE
  5
253
100
AcDbEntity
  8
RACCORDO
100
AcDbPolyline
 62
7
  6
CONTINUOUS
 90
13
 70
0
 10
42.3556961931
 20
-91.8960930034
 10
42.3541285271
 20
-91.9489631414
 10
42.3495995742
 20
-91.9994433305
 10
42.3421093345
 20
-92.0475335708
 10
42.3316005361
 20
-92.0934187947
 10
42.3181304508
 20
-92.1369140697
 10
42.3018708943
 20
-92.1774645985
 10
42.282786134
 20
-92.2150326593
 10
42.2609119024
 20
-92.2496559739
 10
42.2365272131
 20
-92.2808929098
 10
42.2095999075
 20
-92.3087000882
 10
42.1801621441
 20
-92.3331208878
 10
42.148613572
 20
-92.3538298645
  0
LWPOLYLINE
  5
254
100
AcDbEntity
  8
RACCORDO
100
AcDbPolyline
 62
7
  6
CONTINUOUS
 90
13
 70
0
 10
44.4770165366
 20
-90.6712692234
 10
44.4754488706
 20
-90.7241393614
 10
44.4709199178
 20
-90.7746195506
 10
44.4634296781
 20
-90.8227097908
 10
44.4529208797
 20
-90.8685950147
 10
44.4394507944
 20
-90.9120902897
 10
44.4231912379
 20
-90.9526408185
 10
44.4041064775
 20
-90.9902088793
 10
44.382232246
 20
-91.0248321939
 10
44.3578475567
 20
-91.0560691299
 10
44.3309202511
 20
-91.0838763082
 10
44.3014824877
 20
-91.1082971079
 10
44.2699339156
 20
-91.1290060846
  0
LWPOLYLINE
  5
255
100
AcDbEntity
  8
ASSI
100
AcDbPolyline
 62
7
  6
CONTINUOUS
 90
46
 70
0
 10
-3.1963722878
 20
-53.4540549904
 10
-3.1386286668
 20
-53.4241448638
 10
-3.0779958714
 20
-53.3993588932
 10
-3.0149182598
 20
-53.379869972
 10
-2.9493757654
 20
-53.3657215773
 10
-2.8813884547
 20
-53.356870232
 10
-2.8115128296
 20
-53.3533883878
 10
-2.7397333913
 20
-53.3553201163
 10
-2.6660656386
 20
-53.3626213459
 10
-2.5911125698
 20
-53.3752323132
 10
-2.5148636356
 20
-53.3931965993
 10
-2.4373293853
 20
-53.4164706232
 10
-2.3591444663
 20
-53.4448638781
 10
-2.2803035379
 20
-53.4784183815
 10
-2.2008119407
 20
-53.517092116
 10
-2.1213203436
 20
-53.5605685224
 10
-2.0418287464
 20
-53.6088870199
 10
-1.9623371492
 20
-53.6620081893
 10
-1.8834962208
 20
-53.7194972138
 10
-1.8053113018
 20
-53.7813899436
 10
-1.7277770515
 20
-53.8476505284
 10
-1.6515281173
 20
-53.9177366003
 10
-1.5765750486
 20
-53.991679558
 10
-1.5029072958
 20
-54.0694480028
 10
-1.4311278575
 20
-54.1504053704
 10
-1.3612522324
 20
-54.234577835
 10
-1.2932649217
 20
-54.3219392225
 10
-1.2277224273
 20
-54.4117744469
 10
-1.1646448157
 20
-54.5041038129
 10
-1.1040120203
 20
-54.5989070158
 10
-1.0463203436
 20
-54.6954080555
 10
-0.9915939255
 20
-54.7936208675
 10
-0.939808626
 20
-54.8935315163
 10
-0.8913883275
 20
-54.9943221955
 10
-0.846360649
 20
-55.0960001281
 10
-0.8046979715
 20
-55.1985580911
 10
-0.7667413196
 20
-55.3011566088
 10
-0.7325211116
 20
-55.4037960139
 10
-0.7020069293
 20
-55.5064759736
 10
-0.6754485428
 20
-55.6083560137
 10
-0.6528784204
 20
-55.7094295685
 10
-0.6342640939
 20
-55.8097032037
 10
-0.6197579284
 20
-55.9083561414
 10
-0.6094107125
 20
-56.0051147893
 10
-0.6031716577
 20
-56.1002527399
 10
-0.601040764
 20
-56.1937699932
  0
LWPOLYLINE
  5
256
100
AcDbEntity
  8
ASSI
100
AcDbPolyline
 62
7
  6
CONTINUOUS
 90
46
 70
0
 10
-1.0462683993
 20
-57.1779042446
 10
-1.1040120203
 20
-57.2078143712
 10
-1.1646448157
 20
-57.2326003418
 10
-1.2277224273
 20
-57.252089263
 10
-1.2932649217
 20
-57.2662376577
 10
-1.3612522324
 20
-57.275089003
 10
-1.4311278575
 20
-57.2785708472
 10
-1.5029072958
 20
-57.2766391187
 10
-1.5765750486
 20
-57.2693378891
 10
-1.6515281173
 20
-57.2567269219
 10
-1.7277770515
 20
-57.2387626357
 10
-1.8053113018
 20
-57.2154886118
 10
-1.8834962208
 20
-57.1870953569
 10
-1.9623371492
 20
-57.1535408535
 10
-2.0418287464
 20
-57.114867119
 10
-2.1213203436
 20
-57.0713907126
 10
-2.2008119407
 20
-57.0230722151
 10
-2.2803035379
 20
-56.9699510457
 10
-2.3591444663
 20
-56.9124620213
 10
-2.4373293853
 20
-56.8505692914
 10
-2.5148636356
 20
-56.7843087066
 10
-2.5911125698
 20
-56.7142226347
 10
-2.6660656386
 20
-56.640279677
 10
-2.7397333913
 20
-56.5625112323
 10
-2.8115128296
 20
-56.4815538646
 10
-2.8813884547
 20
-56.3973814
 10
-2.9493757654
 20
-56.3100200125
 10
-3.0149182598
 20
-56.2201847881
 10
-3.0779958714
 20
-56.1278554222
 10
-3.1386286668
 20
-56.0330522193
 10
-3.1963203436
 20
-55.9365511795
 10
-3.2510467616
 20
-55.8383383675
 10
-3.3028320611
 20
-55.7384277187
 10
-3.3512523596
 20
-55.6376370395
 10
-3.3962800381
 20
-55.5359591069
 10
-3.4379427157
 20
-55.4334011439
 10
-3.4758993675
 20
-55.3308026262
 10
-3.5101195755
 20
-55.2281632211
 10
-3.5406337578
 20
-55.1254832614
 10
-3.5671921443
 20
-55.0236032213
 10
-3.5897622667
 20
-54.9225296665
 10
-3.6083765933
 20
-54.8222560314
 10
-3.6228827587
 20
-54.7236030936
 10
-3.6332299746
 20
-54.6268444457
 10
-3.6394690294
 20
-54.5317064951
 10
-3.6415999231
 20
-54.4381892419
  0
LWPOLYLINE
  5
257
100
AcDbEntity
  8
RACCORDO
100
AcDbPolyline
 62
7
  6
CONTINUOUS
 90
13
 70
0
 10
-43.7699097554
 20
91.0794649069
 10
-43.8164820219
 20
91.1045450234
 10
-43.8624652518
 20
91.1258657482
 10
-43.9078594451
 20
91.1434270814
 10
-43.9528534019
 20
91.1572719038
 10
-43.9972583221
 20
91.1673573346
 10
-44.0405078055
 20
91.1735547305
 10
-44.0825870512
 20
91.1758142864
 10
-44.12351086
 20
91.1741858075
 10
-44.1627572346
 20
91.1686900656
 10
-44.2003046874
 20
91.1592775216
 10
-44.2361747058
 20
91.1459977145
 10
-44.2699339156
 20
91.1290060846
  0
LINE
  5
258
100
AcDbEntity
  8
RACCORDO
100
AcDbLine
 62
7
  6
CONTINUOUS
 10
39.5272690683
 20
42.9847178129
 11
-43.7699097554
 21
91.0794649069
  0
LINE
  5
259
100
AcDbEntity
  8
RACCORDO
100
AcDbLine
 62
7
  6
CONTINUOUS
 10
41.6485894119
 20
44.2095415929
 11
-41.6485894119
 21
92.3042886869
  0
LINE
  5
25A
100
AcDbEntity
  8
RACCORDO
100
AcDbLine
 62
7
  6
CONTINUOUS
 10
43.7699097554
 20
45.4343653729
 11
-39.5272690683
 21
93.5291124669
  0
LWPOLYLINE
  5
25B
100
AcDbEntity
  8
RACCORDO
100
AcDbPolyline
 62
7
  6
CONTINUOUS
 90
25
 70
0
 10
41.6485894119
 20
44.2095415929
 10
41.6951616783
 20
44.1808412235
 10
41.7411449082
 20
44.149061667
 10
41.7865391015
 20
44.1142029236
 10
41.8315330583
 20
44.0760898525
 10
41.8759379786
 20
44.0348975945
 10
41.919187462
 20
43.991151571
 10
41.9612667076
 20
43.9448190688
 10
42.0021905165
 20
43.8959328013
 10
42.0414368911
 20
43.8451163296
 10
42.0789843438
 20
43.7923449284
 10
42.1148543623
 20
43.7376433232
 10
42.1485894119
 20
43.6817092519
 10
42.1801621441
 20
43.624526927
 10
42.2095999075
 20
43.5661121361
 10
42.2365272131
 20
43.5072099802
 10
42.2609119024
 20
43.4478142163
 10
42.282786134
 20
43.3879310873
 10
42.3018708943
 20
43.3283244236
 10
42.3181304508
 20
43.2689977666
 10
42.3316005361
 20
43.2099475747
 10
42.3421093345
 20
43.1519270538
 10
42.3495995742
 20
43.0951872725
 10
42.3541285271
 20
43.0394771621
 10
42.3556961931
 20
42.9847967228
  0
LWPOLYLINE
  5
25C
100
AcDbEntity
  8
RACCORDO
100
AcDbPolyline
 62
7
  6
CONTINUOUS
 90
25
 70
0
 10
43.7699097554
 20
45.4343653729
 10
43.8164820219
 20
45.4056650035
 10
43.8624652518
 20
45.373885447
 10
43.9078594451
 20
45.3390267035
 10
43.9528534019
 20
45.3009136325
 10
43.9972583221
 20
45.2597213745
 10
44.0405078055
 20
45.215975351
 10
44.0825870512
 20
45.1696428488
 10
44.12351086
 20
45.1207565812
 10
44.1627572346
 20
45.0699401096
 10
44.2003046874
 20
45.0171687084
 10
44.2361747058
 20
44.9624671032
 10
44.2699097554
 20
44.9065330319
 10
44.3014824877
 20
44.849350707
 10
44.3309202511
 20
44.7909359161
 10
44.3578475567
 20
44.7320337602
 10
44.382232246
 20
44.6726379962
 10
44.4041064775
 20
44.6127548673
 10
44.4231912379
 20
44.5531482036
 10
44.4394507944
 20
44.4938215465
 10
44.4529208797
 20
44.4347713547
 10
44.4634296781
 20
44.3767508338
 10
44.4709199178
 20
44.3200110525
 10
44.4754488706
 20
44.2643009421
 10
44.4770165366
 20
44.2096205027
  0
LINE
  5
25D
100
AcDbEntity
  8
RACCORDO
100
AcDbLine
 62
250
  6
CONTINUOUS
 10
31.1126300321
 20
-68.5853576362
 11
29.6984848098
 21
-69.4018673641
  0
LWPOLYLINE
  5
25E
100
AcDbEntity
  8
RACCORDO
100
AcDbPolyline
 62
7
  6
CONTINUOUS
 90
16
 70
0
 10
30.6985331301
 20
-69.5009497194
 10
30.6448181338
 20
-69.528773093
 10
30.5884155334
 20
-69.5518298099
 10
30.5297386854
 20
-69.5699590389
 10
30.4687689231
 20
-69.5831203363
 10
30.4055249132
 20
-69.5913541458
 10
30.3405243318
 20
-69.5945930707
 10
30.2737527612
 20
-69.5927961139
 10
30.2052246191
 20
-69.5860042725
 10
30.1355008343
 20
-69.5742731401
 10
30.0645715931
 20
-69.5575621763
 10
29.9924467092
 20
-69.5359119215
 10
29.9197165519
 20
-69.5094995914
 10
29.8465779112
 20
-69.4783842577
 10
29.7728339972
 20
-69.4425068486
 10
29.6984848098
 20
-69.4018673641
  0
LWPOLYLINE
  5
25F
100
AcDbEntity
  8
RACCORDO
100
AcDbPolyline
 62
7
  6
CONTINUOUS
 90
13
 70
0
 10
40.0272932285
 20
-93.5786536445
 10
40.0588418006
 20
-93.5579446678
 10
40.0882795639
 20
-93.5335238682
 10
40.1152068695
 20
-93.5057166898
 10
40.1395915589
 20
-93.4744797539
 10
40.1614657904
 20
-93.4398564393
 10
40.1805505508
 20
-93.4022883784
 10
40.1968101073
 20
-93.3617378497
 10
40.2102801926
 20
-93.3182425747
 10
40.220788991
 20
-93.2723573508
 10
40.2282792307
 20
-93.2242671105
 10
40.2328081835
 20
-93.1737869214
 10
40.2343758495
 20
-93.1209167834
  0
LINE
  5
260
100
AcDbEntity
  8
RACCORDO
100
AcDbLine
 62
250
  6
CONTINUOUS
 10
40.2343758495
 20
-93.1209167834
 11
44.4770165366
 21
-90.6712692234
  0
LINE
  5
261
100
AcDbEntity
  8
RACCORDO
100
AcDbLine
 62
7
  6
CONTINUOUS
 10
40.0272932285
 20
-93.5786536445
 11
44.2699339156
 21
-91.1290060846
  0
ENDSEC
  0
SECTION
  2
OBJECTS
  0
DICTIONARY
  5
C
100
AcDbDictionary
280
0
281
1
  3
ACAD_GROUP
350
D
  3
ACAD_MLINESTYLE
350
17
  3
ACAD_LAYOUT
350
1A
  3
ACAD_PLOTSETTINGS
350
19
  3
ACAD_PLOTSTYLENAME
350
E
  0
DICTIONARY
  5
D
102
{ACAD_REACTORS
330
C
102
}
100
AcDbDictionary
280
0
281
1
  0
ACDBDICTIONARYWDFLT
  5
E
102
{ACAD_REACTORS
330
C
102
}
100
AcDbDictionary
281
1
  3
Normal
350
F
100
AcDbDictionaryWithDefault
340
F
  0
DICTIONARY
  5
17
102
{ACAD_REACTORS
330
C
102
}
100
AcDbDictionary
280
0
281
1
  3
Standard
350
18
  0
DICTIONARY
  5
19
102
{ACAD_REACTORS
330
C
102
}
100
AcDbDictionary
281
1
  0
DICTIONARY
  5
1A
102
{ACAD_REACTORS
330
C
102
}
100
AcDbDictionary
281
1
  3
Model
350
262
  3
Layout1
350
263
  0
ACDBPLACEHOLDER
  5
F
102
{ACAD_REACTORS
330
E
102
}
  0
MLINESTYLE
  5
18
102
{ACAD_REACTORS
330
17
102
}
100
AcDbMlineStyle
  2
STANDARD
 70
0
  3

 62
256
 51
90.0
 52
90.0
 71
2
 49
0.5
 62
256
  6
BYLAYER
 49
-0.5
 62
256
  6
BYLAYER
  0
LAYOUT
  5
262
102
{ACAD_REACTORS
330
1A
102
}
100
AcDbPlotSettings
  1

  2
none_device
  4

  6

 40
0.0
 41
0.0
 42
0.0
 43
0.0
 44
210.0
 45
297.0
 46
0.0
 47
0.0
 48
0.0
 49
0.0
140
0.0
141
0.0
142
1.0
143
1.0
 70
1024
 72
1
 73
0
 74
0
  7

 75
0
147
1.0
148
0.0
149
0.0
100
AcDbLayout
  1
Model
 70
0
 71
0
 10
0.0
 20
0.0
 11
210.0
 21
297.0
 12
0.0
 22
0.0
 32
0.0
 14
0.0
 24
0.0
 34
0.0
 15
0.0
 25
0.0
 35
0.0
146
0.0
 13
0.0
 23
0.0
 33
0.0
 16
1.0
 26
0.0
 36
0.0
 17
0.0
 27
1.0
 37
0.0
 76
0
330
20F
345
0
346
0
  0
LAYOUT
  5
263
102
{ACAD_REACTORS
330
1A
102
}
100
AcDbPlotSettings
  1

  2
none_device
  4

  6

 40
0.0
 41
0.0
 42
0.0
 43
0.0
 44
210.0
 45
297.0
 46
0.0
 47
0.0
 48
0.0
 49
0.0
140
0.0
141
0.0
142
1.0
143
1.0
 70
0
 72
1
 73
0
 74
0
  7

 75
0
147
1.0
148
0.0
149
0.0
100
AcDbLayout
  1
Layout1
 70
0
 71
1
 10
0.0
 20
0.0
 11
210.0
 21
297.0
 12
0.0
 22
0.0
 32
0.0
 14
0.0
 24
0.0
 34
0.0
 15
0.0
 25
0.0
 35
0.0
146
0.0
 13
0.0
 23
0.0
 33
0.0
 16
1.0
 26
0.0
 36
0.0
 17
0.0
 27
1.0
 37
0.0
 76
0
330
210
345
0
346
0
  0
ENDSEC
  0
EOF
