  0
SECTION
  2
HEADER
  9
$ACADVER
  1
AC1024
  9
$DWGCODEPAGE
  3
ANSI_1252
  9
$EXTMAX
 10
210.0
 20
297.0
 30
0.0
  9
$EXTMIN
 10
0.0
 20
0.0
 30
0.0
  9
$LIMMIN
 10
0.0
 20
0.0
  9
$LIMMAX
 10
210.0
 20
297.0
  9
$VIEWCTR
 10
105.0
 20
148.5
  9
$VIEWSIZE
 40
297.0
  9
$CLAYER
  8
0
  9
$LTSCALE
 40
19.36
  9
$CELTYPE
  6
BYLAYER
  9
$DIMSCALE
 40
1.0
  9
$DIMASZ
 40
3.0
  9
$DIMEXO
 40
0.5
  9
$DIMDLI
 40
13.376
  9
$DIMEXE
 40
1.5
  9
$DIMCEN
 40
3.168
  9
$DIMLFAC
 40
1.0
  9
$DIMBLK
  1
_FILLED
  9
$DIMALT
 70
0
  9
$DIMALTF
 40
0.0393700787
  9
$DIMTXT
 40
3.0
  9
$DIMTOL
 70
1
  9
$DIMLIM
 70
0
  9
$DIMTFAC
 40
1.0
  9
$DIMTP
 40
0.01
  9
$DIMTM
 40
0.01
  9
$DIMGAP
 40
0.625
  9
$DIMDSEP
 70
44
  9
$AUNITS
 70
0
  9
$PDMODE
 70
3
  9
$PDSIZE
 40
3.0
  9
$HANDSEED
  5
4BA
  9
$TILEMODE
 70
1
  9
$MEASUREMENT
 70
1
  9
$INSUNITS
 70
4
  0
ENDSEC
  0
SECTION
  2
CLASSES
  0
CLASS
  1
ACDBDICTIONARYWDFLT
  2
AcDbDictionaryWithDefault
  3
AutoCAD 2000
 90
0
 91
1
280
0
281
0
  0
CLASS
  1
ACDBPLACEHOLDER
  2
AcDbPlaceHolder
  3
AutoCAD 2000
 90
0
 91
1
280
0
281
0
  0
CLASS
  1
LAYOUT
  2
AcDbLayout
  3
AutoCAD 2000
 90
0
 91
0
280
0
281
0
  0
ENDSEC
  0
SECTION
  2
TABLES
  0
TABLE
  2
VPORT
  5
8
100
AcDbSymbolTable
 70
2
  0
VPORT
  5
1F4
100
AcDbSymbolTableRecord
100
AcDbViewportTableRecord
  2
*ACTIVE
 70
0
 10
0.0
 20
0.0
 11
1.0
 21
1.0
 12
105.0
 22
148.5
 13
0.0
 23
0.0
 14
1.0
 24
1.0
 15
0.0
 25
0.0
 16
0.0
 26
0.0
 36
1.0
 17
0.0
 27
0.0
 37
0.0
 40
297.0
 41
0.7070707071
 42
50.0
 43
0.0
 44
0.0
 50
0.0
 51
0.0
 71
0
 72
100
 73
1
 74
1
 75
0
 76
0
 77
0
 78
0
  0
ENDTAB
  0
TABLE
  2
LTYPE
  5
5
100
AcDbSymbolTable
 70
6
  0
LTYPE
  5
14
100
AcDbSymbolTableRecord
100
AcDbLinetypeTableRecord
  2
BYBLOCK
 70
0
  3

 72
65
 73
0
 40
0.0
  0
LTYPE
  5
15
100
AcDbSymbolTableRecord
100
AcDbLinetypeTableRecord
  2
BYLAYER
 70
0
  3

 72
65
 73
0
 40
0.0
  0
LTYPE
  5
16
100
AcDbSymbolTableRecord
100
AcDbLinetypeTableRecord
  2
CONTINUOUS
 70
64
  3
Solid line
 72
65
 73
0
 40
0.0
  0
LTYPE
  5
1F5
100
AcDbSymbolTableRecord
100
AcDbLinetypeTableRecord
  2
CENTER
 70
64
  3
____ _ ____ _ ____ _ ____ _ ____ _ ____ _ ____
 72
65
 73
4
 40
0.6
 49
0.375
 74
0
 49
-0.075
 74
0
 49
0.075
 74
0
 49
-0.075
 74
0
  0
LTYPE
  5
1F6
100
AcDbSymbolTableRecord
100
AcDbLinetypeTableRecord
  2
HIDDEN
 70
64
  3
- - - - - - - - - - - - - - - - - - - -
 72
65
 73
2
 40
0.2
 49
0.1
 74
0
 49
-0.1
 74
0
  0
LTYPE
  5
1F7
100
AcDbSymbolTableRecord
100
AcDbLinetypeTableRecord
  2
PHANTOM
 70
64
  3
_____ _ _ _____ _ _ _____ _ _ _____
 72
65
 73
6
 40
0.8
 49
0.45
 74
0
 49
-0.05
 74
0
 49
0.1
 74
0
 49
-0.05
 74
0
 49
0.1
 74
0
 49
-0.05
 74
0
  0
LTYPE
  5
1F8
100
AcDbSymbolTableRecord
100
AcDbLinetypeTableRecord
  2
DOT
 70
64
  3
. . . . . . . . . . . . . . . . . . . .
 72
65
 73
2
 40
0.2
 49
0.1
 74
0
 49
-0.1
 74
0
  0
LTYPE
  5
1F9
100
AcDbSymbolTableRecord
100
AcDbLinetypeTableRecord
  2
DASHED
 70
64
  3
- - - - - - - - - - - - - - - - - - - -
 72
65
 73
2
 40
0.2
 49
0.1
 74
0
 49
-0.1
 74
0
  0
ENDTAB
  0
TABLE
  2
LAYER
  5
2
100
AcDbSymbolTable
 70
36
  0
LAYER
  5
10
100
AcDbSymbolTableRecord
100
AcDbLayerTableRecord
  2
0
 70
0
 62
7
  6
CONTINUOUS
370
-3
390
F
  0
LAYER
  5
1FA
100
AcDbSymbolTableRecord
100
AcDbLayerTableRecord
  2
DEFAULT_1
 70
0
 62
7
  6
CENTER
370
-3
390
F
  0
LAYER
  5
1FB
100
AcDbSymbolTableRecord
100
AcDbLayerTableRecord
  2
DEFAULT_2
 70
0
 62
7
  6
HIDDEN
370
-3
390
F
  0
LAYER
  5
1FC
100
AcDbSymbolTableRecord
100
AcDbLayerTableRecord
  2
DEFAULT_3
 70
0
 62
7
  6
PHANTOM
370
-3
390
F
  0
LAYER
  5
1FD
100
AcDbSymbolTableRecord
100
AcDbLayerTableRecord
  2
ASSI
 70
0
 62
7
  6
CONTINUOUS
370
-3
390
F
  0
LAYER
  5
1FE
100
AcDbSymbolTableRecord
100
AcDbLayerTableRecord
  2
COLOR5
 70
0
 62
7
  6
CONTINUOUS
370
-3
390
F
  0
LAYER
  5
1FF
100
AcDbSymbolTableRecord
100
AcDbLayerTableRecord
  2
COORDINATE
 70
0
 62
7
  6
CONTINUOUS
370
-3
390
F
  0
LAYER
  5
200
100
AcDbSymbolTableRecord
100
AcDbLayerTableRecord
  2
COORD_ORIGINE
 70
0
 62
7
  6
CONTINUOUS
370
-3
390
F
  0
LAYER
  5
201
100
AcDbSymbolTableRecord
100
AcDbLayerTableRecord
  2
COPY_PUBLISH
 70
0
 62
7
  6
CONTINUOUS
370
-3
390
F
  0
LAYER
  5
202
100
AcDbSymbolTableRecord
100
AcDbLayerTableRecord
  2
COSMETICI
 70
0
 62
7
  6
CONTINUOUS
370
-3
390
F
  0
LAYER
  5
203
100
AcDbSymbolTableRecord
100
AcDbLayerTableRecord
  2
CURVE
 70
0
 62
7
  6
CONTINUOUS
370
-3
390
F
  0
LAYER
  5
204
100
AcDbSymbolTableRecord
100
AcDbLayerTableRecord
  2
DRAFT
 70
0
 62
7
  6
CONTINUOUS
370
-3
390
F
  0
LAYER
  5
205
100
AcDbSymbolTableRecord
100
AcDbLayerTableRecord
  2
IMPORT_IGES
 70
0
 62
7
  6
CONTINUOUS
370
-3
390
F
  0
LAYER
  5
206
100
AcDbSymbolTableRecord
100
AcDbLayerTableRecord
  2
NOTE
 70
0
 62
7
  6
CONTINUOUS
370
-3
390
F
  0
LAYER
  5
207
100
AcDbSymbolTableRecord
100
AcDbLayerTableRecord
  2
PIANI
 70
0
 62
7
  6
CONTINUOUS
370
-3
390
F
  0
LAYER
  5
208
100
AcDbSymbolTableRecord
100
AcDbLayerTableRecord
  2
PIANI_ORIGINE
 70
0
 62
7
  6
CONTINUOUS
370
-3
390
F
  0
LAYER
  5
209
100
AcDbSymbolTableRecord
100
AcDbLayerTableRecord
  2
PUNTI
 70
0
 62
7
  6
CONTINUOUS
370
-3
390
F
  0
LAYER
  5
20A
100
AcDbSymbolTableRecord
100
AcDbLayerTableRecord
  2
RACCORDO
 70
0
 62
7
  6
CONTINUOUS
370
-3
390
F
  0
LAYER
  5
20B
100
AcDbSymbolTableRecord
100
AcDbLayerTableRecord
  2
SIMBOLI
 70
0
 62
7
  6
CONTINUOUS
370
-3
390
F
  0
LAYER
  5
20C
100
AcDbSymbolTableRecord
100
AcDbLayerTableRecord
  2
SMUSSO
 70
0
 62
7
  6
CONTINUOUS
370
-3
390
F
  0
LAYER
  5
20D
100
AcDbSymbolTableRecord
100
AcDbLayerTableRecord
  2
SNAPLINE
 70
0
 62
7
  6
CONTINUOUS
370
-3
390
F
  0
LAYER
  5
20E
100
AcDbSymbolTableRecord
100
AcDbLayerTableRecord
  2
SUPERFICI
 70
0
 62
7
  6
CONTINUOUS
370
-3
390
F
  0
LAYER
  5
20F
100
AcDbSymbolTableRecord
100
AcDbLayerTableRecord
  2
TRASH
 70
0
 62
7
  6
CONTINUOUS
370
-3
390
F
  0
ENDTAB
  0
TABLE
  2
STYLE
  5
3
100
AcDbSymbolTable
 70
1
  0
STYLE
  5
11
100
AcDbSymbolTableRecord
100
AcDbTextStyleTableRecord
  2
STANDARD
 70
0
 40
0.0
 41
0.8
 50
0.0
 71
0
 42
0.2
  3
txt
  4

  0
STYLE
  5
210
100
AcDbSymbolTableRecord
100
AcDbTextStyleTableRecord
  2
TEXTSTYLE_1
 70
0
 40
0.0
 41
0.8
 50
0.0
 71
0
 42
0.2
  3
gdt
  4

  0
ENDTAB
  0
TABLE
  2
VIEW
  5
6
100
AcDbSymbolTable
 70
0
  0
ENDTAB
  0
TABLE
  2
UCS
  5
7
100
AcDbSymbolTable
 70
0
  0
ENDTAB
  0
TABLE
  2
APPID
  5
9
100
AcDbSymbolTable
 70
1
  0
APPID
  5
211
100
AcDbSymbolTableRecord
100
AcDbRegAppTableRecord
  2
ACAD
 70
0
  0
ENDTAB
  0
TABLE
  2
BLOCK_RECORD
  5
1
100
AcDbSymbolTable
 70
0
  0
BLOCK_RECORD
  5
212
100
AcDbSymbolTableRecord
100
AcDbBlockTableRecord
  2
*Model_Space
  0
BLOCK_RECORD
  5
213
100
AcDbSymbolTableRecord
100
AcDbBlockTableRecord
  2
*Paper_Space
  0
BLOCK_RECORD
  5
214
100
AcDbSymbolTableRecord
100
AcDbBlockTableRecord
  2
_FILLED
  0
ENDTAB
  0
TABLE
  2
DIMSTYLE
  5
A
100
AcDbSymbolTable
 70
1
100
AcDbDimStyleTable
 71
0
  0
DIMSTYLE
105
215
100
AcDbSymbolTableRecord
100
AcDbDimStyleTableRecord
  2
STANDARD
 70
0
  3

  4

 40
1.0
 41
3.0
 42
0.5
 43
0.38
 44
1.5
 45
0.0
 46
0.0
 47
0.01
 48
0.01
140
3.0
141
0.09
142
0.0
143
25.4
144
1.0
145
0.0
146
1.0
147
0.625
 71
1.0
 72
0.0
 73
0
 74
0
 75
0
 76
0
 77
1
 78
8
 79
2
170
0
171
1
172
0
173
0
174
0
175
0
176
0
177
0
178
0
270
2
179
2
271
2
272
2
273
2
274
2
275
0
280
0
281
0
282
0
283
1
284
8
285
0
286
0
287
3
288
0
340
11
278
44
341
214
342
214
343
214
344
214
  0
ENDTAB
  0
ENDSEC
  0
SECTION
  2
BLOCKS
  0
BLOCK
  5
20
100
AcDbEntity
  8
0
100
AcDbBlockBegin
  2
*Model_Space
 70
0
 10
0.0
 20
0.0
 30
0.0
  3
*Model_Space
  1

  0
ENDBLK
  5
21
100
AcDbEntity
  8
0
100
AcDbBlockEnd
  0
BLOCK
  5
1C
100
AcDbEntity
  8
0
100
AcDbBlockBegin
  2
*Paper_Space
 70
0
 10
0.0
 20
0.0
 30
0.0
  3
*Paper_Space
  1

  0
ENDBLK
  5
1D
100
AcDbEntity
  8
0
100
AcDbBlockEnd
  0
BLOCK
  5
216
100
AcDbEntity
  8
0
100
AcDbBlockBegin
  2
_FILLED
 70
64
 10
0.0
 20
0.0
  3
_FILLED
  1

  0
SOLID
  5
217
100
AcDbEntity
  8
0
  6
BYBLOCK
 62
0
100
AcDbTrace
 10
0.0
 20
0.0
 11
-1.0
 21
0.3166666667
 12
-1.0
 22
-0.3166666667
 13
-1.0
 23
-0.3166666667
  0
ENDBLK
  5
218
100
AcDbEntity
  8
0
  6
BYBLOCK
 62
0
100
AcDbBlockEnd
  0
ENDSEC
  0
SECTION
  2
ENTITIES
  0
LWPOLYLINE
  5
219
100
AcDbEntity
  8
RACCORDO
100
AcDbPolyline
 62
7
  6
CONTINUOUS
 90
13
 70
0
 10
-43.5097941258
 20
91.8434866229
 10
-43.5413426979
 20
91.8227776462
 10
-43.5707804613
 20
91.7983568465
 10
-43.5977077669
 20
91.7705496682
 10
-43.6220924562
 20
91.7393127323
 10
-43.6439666878
 20
91.7046894177
 10
-43.6630514481
 20
91.6671213568
 10
-43.6793110046
 20
91.626570828
 10
-43.6927810899
 20
91.583075553
 10
-43.7032898883
 20
91.5371903291
 10
-43.710780128
 20
91.4891000889
 10
-43.7153090809
 20
91.4386198997
 10
-43.7168767469
 20
91.3857497618
  0
LINE
  5
21A
100
AcDbEntity
  8
RACCORDO
100
AcDbLine
 62
7
  6
CONTINUOUS
 10
-43.5097941258
 20
91.8434866229
 11
-41.7420271728
 21
92.8641731062
  0
LINE
  5
21B
100
AcDbEntity
  8
RACCORDO
100
AcDbLine
 62
250
  6
CONTINUOUS
 10
-43.0097699657
 20
91.7939454452
 11
-41.2420030127
 21
92.8146319285
  0
LWPOLYLINE
  5
21C
100
AcDbEntity
  8
RACCORDO
100
AcDbPolyline
 62
7
  6
CONTINUOUS
 90
13
 70
0
 10
-41.7420271728
 20
92.8641731062
 10
-41.7082679631
 20
92.8811647362
 10
-41.6723979446
 20
92.8944445432
 10
-41.6348504919
 20
92.9038570872
 10
-41.5956041173
 20
92.9093528292
 10
-41.5546803084
 20
92.9109813081
 10
-41.5126010628
 20
92.9087217521
 10
-41.4693515794
 20
92.9025243562
 10
-41.4249466591
 20
92.8924389255
 10
-41.3799527023
 20
92.878594103
 10
-41.334558509
 20
92.8610327699
 10
-41.2885752792
 20
92.8397120451
 10
-41.2420030127
 20
92.8146319285
  0
LINE
  5
21D
100
AcDbEntity
  8
0
100
AcDbLine
 62
250
  6
CONTINUOUS
 10
-30.5293352777
 20
87.7725669567
 11
-31.5193941051
 21
87.2009193982
  0
LWPOLYLINE
  5
21E
100
AcDbEntity
  8
RACCORDO
100
AcDbPolyline
 62
7
  6
CONTINUOUS
 90
13
 70
0
 10
40.2874088581
 20
-92.8146319285
 10
40.3339811246
 20
-92.8397120451
 10
40.3799643544
 20
-92.8610327699
 10
40.4253585477
 20
-92.878594103
 10
40.4703525045
 20
-92.8924389255
 10
40.5147574248
 20
-92.9025243562
 10
40.5580069082
 20
-92.9087217521
 10
40.6000861538
 20
-92.9109813081
 10
40.6410099627
 20
-92.9093528292
 10
40.6802563373
 20
-92.9038570872
 10
40.71780379
 20
-92.8944445432
 10
40.7536738085
 20
-92.8811647362
 10
40.7874330182
 20
-92.8641731062
  0
LWPOLYLINE
  5
21F
100
AcDbEntity
  8
0
100
AcDbPolyline
 62
7
  6
CONTINUOUS
 90
10
 70
0
 10
14.9027395498
 20
65.2755023238
 10
15.0065838106
 20
65.314732545
 10
15.1161216519
 20
65.3417542079
 10
15.2306978125
 20
65.3564348049
 10
15.3496228387
 20
65.3587255803
 10
15.4721777639
 20
65.3486618609
 10
15.5976189873
 20
65.3263628161
 10
15.7251833208
 20
65.2920306495
 10
15.8540931676
 20
65.2459492263
 10
15.9835618
 20
65.1884821473
  0
LWPOLYLINE
  5
220
100
AcDbEntity
  8
0
100
AcDbPolyline
 62
7
  6
CONTINUOUS
 90
10
 70
0
 10
18.8627865674
 20
67.5619518995
 10
18.9666456466
 20
67.601152228
 10
19.0761967357
 20
67.6281435702
 10
19.1907844836
 20
67.642793624
 10
19.3097193584
 20
67.6450538407
 10
19.4322823266
 20
67.6349597541
 10
19.557729733
 20
67.6126307394
 10
19.6852983475
 20
67.5782692032
 10
19.8142105445
 20
67.5321592098
 10
19.9436795802
 20
67.4746645535
  0
LWPOLYLINE
  5
221
100
AcDbEntity
  8
0
100
AcDbPolyline
 62
7
  6
CONTINUOUS
 90
10
 70
0
 10
22.8228338545
 20
69.8484015037
 10
22.9267077904
 20
69.8875719133
 10
23.0362721667
 20
69.9145329019
 10
23.1508715418
 20
69.929152373
 10
23.2698163047
 20
69.931381985
 10
23.3923873546
 20
69.9212574791
 10
23.5178409812
 20
69.8988984367
 10
23.6454139117
 20
69.864507468
 10
23.7743284909
 20
69.818368837
 10
23.9037979584
 20
69.760846532
  0
LWPOLYLINE
  5
222
100
AcDbEntity
  8
0
100
AcDbPolyline
 62
7
  6
CONTINUOUS
 90
27
 70
0
 10
13.2123273748
 20
63.4458973582
 10
13.214165888
 20
63.4465565425
 10
13.2941396745
 20
63.4650706848
 10
13.3774979583
 20
63.4747556215
 10
13.4636963477
 20
63.4756128422
 10
13.5523443351
 20
63.4676910338
 10
13.6430621318
 20
63.4510385069
 10
13.7350917929
 20
63.4258205007
 10
13.8274524524
 20
63.3924177853
 10
13.9193015795
 20
63.3513360145
 10
14.0102940275
 20
63.3029365441
 10
14.1001897668
 20
63.2474875766
 10
14.1884648055
 20
63.1854119016
 10
14.2745015157
 20
63.1172525165
 10
14.3579104918
 20
63.0434199531
 10
14.4381199165
 20
62.9645117702
 10
14.514616724
 20
62.8811340876
 10
14.587076863
 20
62.7937149147
 10
14.6552707786
 20
62.7025201589
 10
14.7183460987
 20
62.6086852347
 10
14.7752328887
 20
62.5140370428
 10
14.8254852326
 20
62.419820988
 10
14.8691933817
 20
62.3264115618
 10
14.9063184744
 20
62.2343568989
 10
14.9367723246
 20
62.1443298449
 10
14.960466413
 20
62.0571176531
 10
14.9773955651
 20
61.9734014634
  0
LWPOLYLINE
  5
223
100
AcDbEntity
  8
0
100
AcDbPolyline
 62
7
  6
CONTINUOUS
 90
27
 70
0
 10
16.1836312588
 20
65.1608227933
 10
16.1898974175
 20
65.1630075349
 10
16.2701153962
 20
65.1808547511
 10
16.3534628685
 20
65.189865013
 10
16.4393747715
 20
65.1901109853
 10
16.5275148885
 20
65.1817004162
 10
16.6172479326
 20
65.164788358
 10
16.7080738179
 20
65.1395720512
 10
16.7998757486
 20
65.1061258754
 10
16.8924153683
 20
65.0644854023
 10
16.9847404835
 20
65.0150394847
 10
17.0756707943
 20
64.9585093022
 10
17.164379965
 20
64.8956125534
 10
17.2505614871
 20
64.8267787397
 10
17.3338463252
 20
64.7524672797
 10
17.4137075416
 20
64.6732982765
 10
17.4896399811
 20
64.5899327539
 10
17.5613052075
 20
64.502889585
 10
17.6284099662
 20
64.4126225676
 10
17.6903089032
 20
64.320108045
 10
17.7462629772
 20
64.2267030872
 10
17.7958584922
 20
64.1335254375
 10
17.8391084424
 20
64.0410128177
 10
17.8760158137
 20
63.9495186485
 10
17.9064452
 20
63.8596594619
 10
17.9302133724
 20
63.7723001026
 10
17.9472444138
 20
63.6881549677
  0
LWPOLYLINE
  5
224
100
AcDbEntity
  8
0
100
AcDbPolyline
 62
7
  6
CONTINUOUS
 90
27
 70
0
 10
15.1925841497
 20
64.5888191003
 10
15.200651737
 20
64.5916222567
 10
15.2808732896
 20
64.6093856379
 10
15.3641850689
 20
64.6183164734
 10
15.4500288294
 20
64.6184974978
 10
15.5381037367
 20
64.6100385726
 10
15.6277757707
 20
64.5930917862
 10
15.7185475214
 20
64.567850982
 10
15.8103432318
 20
64.5343709074
 10
15.9029660644
 20
64.4926536619
 10
15.9954206201
 20
64.4430897805
 10
16.0864412798
 20
64.386444815
 10
16.1751732759
 20
64.3234672081
 10
16.2613410229
 20
64.2545770815
 10
16.344583191
 20
64.1802356729
 10
16.4243802288
 20
64.1010632303
 10
16.50022656
 20
64.0177279366
 10
16.5717817832
 20
63.9307593739
 10
16.6387375973
 20
63.8406440797
 10
16.70048256
 20
63.7483279061
 10
16.7563360047
 20
63.6550774354
 10
16.8058973417
 20
63.5619628563
 10
16.8491436518
 20
63.4694619004
 10
16.8860534661
 20
63.3779670455
 10
16.9164850455
 20
63.2881078337
 10
16.9402582148
 20
63.2007369723
 10
16.9572944034
 20
63.1165702388
  0
LWPOLYLINE
  5
225
100
AcDbEntity
  8
0
100
AcDbPolyline
 62
7
  6
CONTINUOUS
 90
27
 70
0
 10
14.2023203979
 20
64.0170900884
 10
14.2114107536
 20
64.0202376328
 10
14.2916308326
 20
64.0379159395
 10
14.3748996624
 20
64.0467671759
 10
14.4606679205
 20
64.0468845535
 10
14.5486769685
 20
64.038378919
 10
14.6383015615
 20
64.0213957326
 10
14.7290402579
 20
63.9961238863
 10
14.8208435707
 20
63.9626026513
 10
14.9135485461
 20
63.9208062758
 10
15.0061239458
 20
63.8711265334
 10
15.0972263767
 20
63.8143703509
 10
15.1859751371
 20
63.7513150987
 10
15.2721232782
 20
63.6823727792
 10
15.3553173459
 20
63.6080062782
 10
15.4350453579
 20
63.5288357639
 10
15.5108013253
 20
63.4455365129
 10
15.5822428008
 20
63.3586488857
 10
15.6490448564
 20
63.2686944388
 10
15.7106320077
 20
63.1765860447
 10
15.7663861148
 20
63.08349238
 10
15.8159216386
 20
62.990429395
 10
15.8591742578
 20
62.8979214869
 10
15.8960920904
 20
62.8064126759
 10
15.926526869
 20
62.7165494765
 10
15.950304303
 20
62.6291681796
 10
15.9673442837
 20
62.5449854466
  0
LWPOLYLINE
  5
226
100
AcDbEntity
  8
0
100
AcDbPolyline
 62
7
  6
CONTINUOUS
 90
10
 70
0
 10
13.9381210399
 20
64.7148340364
 10
14.0434446826
 20
64.751036443
 10
14.1543019432
 20
64.7749894137
 10
14.2700286044
 20
64.7865812669
 10
14.3899274029
 20
64.785784209
 10
14.5132727617
 20
64.7726545231
 10
14.6393157138
 20
64.7473321866
 10
14.7672889855
 20
64.7100399217
 10
14.8964122033
 20
64.6610816834
 10
15.0258971893
 20
64.6008405974
  0
LWPOLYLINE
  5
227
100
AcDbEntity
  8
0
100
AcDbPolyline
 62
7
  6
CONTINUOUS
 90
10
 70
0
 10
17.8981745233
 20
67.0012772298
 10
18.0035127108
 20
67.037449245
 10
18.1143828962
 20
67.0613714591
 10
18.2301207755
 20
67.0729323992
 10
18.3500290105
 20
67.0721044812
 10
18.473381961
 20
67.0589441972
 10
18.59943061
 20
67.0335917317
 10
18.7274076459
 20
66.9962700107
 10
18.8565326706
 20
66.9472831886
 10
18.9860174955
 20
66.8870145841
  0
LWPOLYLINE
  5
228
100
AcDbEntity
  8
0
100
AcDbPolyline
 62
7
  6
CONTINUOUS
 90
10
 70
0
 10
21.8582263922
 20
69.2877197052
 10
21.9635790387
 20
69.3238615591
 10
22.0744620778
 20
69.3477532433
 10
22.1902111189
 20
69.3592834919
 10
22.3101287487
 20
69.3584249288
 10
22.4334892641
 20
69.3452342535
 10
22.5595435972
 20
69.3198518565
 10
22.6875243987
 20
69.2825008664
 10
22.8166512455
 20
69.2334856357
 10
22.9461359371
 20
69.1731896753
  0
LWPOLYLINE
  5
229
100
AcDbEntity
  8
0
100
AcDbPolyline
 62
7
  6
CONTINUOUS
 90
27
 70
0
 10
20.1437180674
 20
67.4469968764
 10
20.1550107165
 20
67.450831333
 10
20.2351233829
 20
67.4680277233
 10
20.3180078174
 20
67.4764470981
 10
20.4032050597
 20
67.4762498083
 10
20.4908310432
 20
67.4675301199
 10
20.5804566228
 20
67.4503239536
 10
20.6714263363
 20
67.424762109
 10
20.7635540689
 20
67.3908766875
 10
20.8567226506
 20
67.348591805
 10
20.9498384561
 20
67.2982974015
 10
21.0412587185
 20
67.2409788684
 10
21.1300026242
 20
67.1775435355
 10
21.2159423275
 20
67.1083818347
 10
21.2987715567
 20
67.0339638224
 10
21.378020574
 20
66.9549099114
 10
21.4531860253
 20
66.8719308123
 10
21.5239232721
 20
66.7856159036
 10
21.58979131
 20
66.6967131256
 10
21.6504429918
 20
66.6059147757
 10
21.7056741008
 20
66.5137246819
 10
21.7552157928
 20
66.4207442779
 10
21.7986799034
 20
66.3278701577
 10
21.8357418838
 20
66.2360495699
 10
21.8662139386
 20
66.146092192
 10
21.8900037627
 20
66.058668873
 10
21.9070421966
 20
65.9744925796
  0
LWPOLYLINE
  5
22A
100
AcDbEntity
  8
0
100
AcDbPolyline
 62
7
  6
CONTINUOUS
 90
27
 70
0
 10
19.1526470542
 20
66.8750043012
 10
19.1657069198
 20
66.8794242228
 10
19.2457841484
 20
66.896538478
 10
19.3285784824
 20
66.9048875271
 10
19.4136534229
 20
66.9046445061
 10
19.5012127736
 20
66.8958969136
 10
19.5908867331
 20
66.8786492343
 10
19.6819703109
 20
66.8530170813
 10
19.7742035239
 20
66.8190457285
 10
19.8674511196
 20
66.7766699275
 10
19.9606337801
 20
66.7262776908
 10
20.0520827524
 20
66.6688748301
 10
20.1408086103
 20
66.6053846241
 10
20.2266959757
 20
66.5361982913
 10
20.3094465769
 20
66.4617871814
 10
20.3885938166
 20
66.3827761582
 10
20.4636401536
 20
66.2998773849
 10
20.5342526007
 20
66.2136732714
 10
20.5999759437
 20
66.1249377564
 10
20.6604904115
 20
66.0343349039
 10
20.7156493322
 20
65.942273011
 10
20.7652021295
 20
65.8492878363
 10
20.8087085163
 20
65.7563357162
 10
20.8457960359
 20
65.6644550991
 10
20.8762713657
 20
65.5744849396
 10
20.9000587377
 20
65.4870655184
 10
20.9170926984
 20
65.4029081464
  0
LWPOLYLINE
  5
22B
100
AcDbEntity
  8
0
100
AcDbPolyline
 62
7
  6
CONTINUOUS
 90
27
 70
0
 10
18.1623703819
 20
66.3032833058
 10
18.1763938348
 20
66.3080138426
 10
18.2564307318
 20
66.325046414
 10
18.3391281335
 20
66.3333264862
 10
18.4240740111
 20
66.3330403006
 10
18.5115667817
 20
66.3242674398
 10
18.6013034726
 20
66.3069772785
 10
18.692522811
 20
66.2812687274
 10
18.7848760727
 20
66.2472045522
 10
18.8782021932
 20
66.204735935
 10
18.9714436416
 20
66.1542484654
 10
19.0629134349
 20
66.0967651852
 10
19.1516161792
 20
66.0332232992
 10
19.2374464754
 20
65.9640161891
 10
19.3201138941
 20
65.889616598
 10
19.3991529412
 20
65.810656008
 10
19.4740743687
 20
65.7278458803
 10
19.5445624768
 20
65.6417544088
 10
19.6101515213
 20
65.5531740322
 10
19.6705422715
 20
65.4627466917
 10
19.7256365483
 20
65.3707986457
 10
19.7751999523
 20
65.277806723
 10
19.8187451477
 20
65.1847809195
 10
19.8558549512
 20
65.092845503
 10
19.8863312494
 20
65.0028668652
 10
19.9101142587
 20
64.9154563016
 10
19.927142434
 20
64.8313232707
  0
LWPOLYLINE
  5
22C
100
AcDbEntity
  8
0
100
AcDbPolyline
 62
7
  6
CONTINUOUS
 90
27
 70
0
 10
23.1126329901
 20
69.1612321453
 10
23.1301878744
 20
69.1670292934
 10
23.2098781773
 20
69.1835331388
 10
23.2919446504
 20
69.1913884747
 10
23.3761184981
 20
69.1908396143
 10
23.4633083218
 20
69.1818953154
 10
23.5537042538
 20
69.1642663635
 10
23.6461211623
 20
69.1379313001
 10
23.7394440103
 20
69.1031314085
 10
23.8332385092
 20
69.060011415
 10
23.9266919631
 20
69.0089395804
 10
24.0181215382
 20
68.9510022965
 10
24.1065363724
 20
68.8871960366
 10
24.1918581617
 20
68.8179505229
 10
24.273845445
 20
68.7437503586
 10
24.3519869086
 20
68.6653285851
 10
24.4259139202
 20
68.5833352159
 10
24.4955748522
 20
68.4980524801
 10
24.560529456
 20
68.4102014734
 10
24.6204388699
 20
68.3204353844
 10
24.6752951268
 20
68.2288801825
 10
24.7249173086
 20
68.1357915773
 10
24.7686335692
 20
68.0423823672
 10
24.8058086903
 20
67.9502149062
 10
24.8362315267
 20
67.8602924528
 10
24.8599355648
 20
67.7730722031
 10
24.8768908585
 20
67.689245976
  0
LWPOLYLINE
  5
22D
100
AcDbEntity
  8
0
100
AcDbPolyline
 62
7
  6
CONTINUOUS
 90
27
 70
0
 10
22.1223462783
 20
68.5895189873
 10
22.1407938777
 20
68.5955926507
 10
22.220432875
 20
68.6120237986
 10
22.3024512213
 20
68.6198233498
 10
22.3865825662
 20
68.6192318449
 10
22.4737790957
 20
68.610247632
 10
22.5642782433
 20
68.5925554358
 10
22.6568531894
 20
68.5661216479
 10
22.7502967959
 20
68.531211896
 10
22.8441410626
 20
68.4879971974
 10
22.9376036901
 20
68.4368456657
 10
23.0290056845
 20
68.3788516144
 10
23.1173584826
 20
68.3150189263
 10
23.2025869278
 20
68.2457829199
 10
23.2844562396
 20
68.1716302741
 10
23.3624404648
 20
68.0933174504
 10
23.4361982905
 20
68.011476961
 10
23.5057388734
 20
67.9263206689
 10
23.5706400857
 20
67.8385300806
 10
23.6305308614
 20
67.7487839066
 10
23.6853813679
 20
67.6572309984
 10
23.7350102262
 20
67.5641206421
 10
23.7787381261
 20
67.4706719034
 10
23.8159101818
 20
67.3784907936
 10
23.8463161901
 20
67.2885935778
 10
23.8700012112
 20
67.2014208863
 10
23.886940725
 20
67.117661176
  0
LWPOLYLINE
  5
22E
100
AcDbEntity
  8
0
100
AcDbPolyline
 62
7
  6
CONTINUOUS
 90
10
 70
0
 10
12.9738767302
 20
64.1534123355
 10
13.0806400661
 20
64.1865760059
 10
13.192774781
 20
64.2074545801
 10
13.3096079887
 20
64.2159572388
 10
13.4304349171
 20
64.2120771511
 10
13.5545236906
 20
64.1958915208
 10
13.6811202976
 20
64.1675610624
 10
13.8094537066
 20
64.1273289107
 10
13.9387410998
 20
64.0755189705
 10
14.0681931849
 20
64.0125337188
  0
LWPOLYLINE
  5
22F
100
AcDbEntity
  8
0
100
AcDbPolyline
 62
7
  6
CONTINUOUS
 90
7
 70
0
 10
16.9339364859
 20
66.4398488858
 10
17.0407142942
 20
66.4729817514
 10
17.1528618381
 20
66.4938291615
 10
17.269706143
 20
66.5023005079
 10
17.3905423603
 20
66.4983891718
 10
17.5146385501
 20
66.4821725688
 10
17.6412406485
 20
66.4538116238
  0
LWPOLYLINE
  5
230
100
AcDbEntity
  8
0
100
AcDbPolyline
 62
7
  6
CONTINUOUS
 90
10
 70
0
 10
20.893997305
 20
68.7262857071
 10
21.0007894826
 20
68.7593875958
 10
21.11294972
 20
68.7802037101
 10
21.2298049568
 20
68.7886436566
 10
21.3506502703
 20
68.784701032
 10
21.4747536593
 20
68.7684534666
 10
21.6013610123
 20
68.7400620974
 10
21.7297012248
 20
68.6997704747
 10
21.8589914322
 20
68.6479029088
 10
21.9884423233
 20
68.5848622696
  0
LWPOLYLINE
  5
231
100
AcDbEntity
  8
0
100
AcDbPolyline
 62
250
  6
CONTINUOUS
 90
5
 70
0
 10
-0.6101700736
 20
-56.3985862746
 10
-0.5942803411
 20
-56.3956760398
 10
-0.5781391141
 20
-56.3902284969
 10
-0.5617773405
 20
-56.3823927899
 10
-0.5577348081
 20
-56.3801248702
  0
LWPOLYLINE
  5
232
100
AcDbEntity
  8
0
100
AcDbPolyline
 62
7
  6
CONTINUOUS
 90
12
 70
0
 10
-0.6492503606
 20
-56.4362131876
 10
-0.6371614148
 20
-56.4346294029
 10
-0.6255902492
 20
-56.4326746167
 10
-0.614536864
 20
-56.4303488292
 10
-0.6040567306
 20
-56.4275538378
 10
-0.5940943775
 20
-56.424387845
 10
-0.5844833897
 20
-56.4211454581
 10
-0.5752215028
 20
-56.4178321263
 10
-0.5663109813
 20
-56.4144424005
 10
-0.5575922029
 20
-56.4112545403
 10
-0.5490119603
 20
-56.4083612989
 10
-0.5406234609
 20
-56.4056699232
  0
LWPOLYLINE
  5
233
100
AcDbEntity
  8
0
100
AcDbPolyline
 62
7
  6
CONTINUOUS
 90
16
 70
0
 10
-0.7737034028
 20
-56.4264602967
 10
-0.8565076206
 20
-56.4183184253
 10
-0.931099967
 20
-56.405438483
 10
-1.0069285996
 20
-56.3869191258
 10
-1.0842642258
 20
-56.3626747117
 10
-1.1628361381
 20
-56.3327908827
 10
-1.2418322142
 20
-56.2975245658
 10
-1.321264544
 20
-56.2567981178
 10
-1.4011210376
 20
-56.2106891818
 10
-1.4805533024
 20
-56.159687614
 10
-1.5595498317
 20
-56.1037290811
 10
-1.6381221321
 20
-56.0428779163
 10
-1.715456331
 20
-55.977816976
 10
-1.7912811375
 20
-55.9087738789
 10
-1.8658678426
 20
-55.8355210062
 10
-1.9498209782
 20
-55.7468856316
  0
LWPOLYLINE
  5
234
100
AcDbEntity
  8
0
100
AcDbPolyline
 62
7
  6
CONTINUOUS
 90
12
 70
0
 10
-0.7737034028
 20
-56.4264602967
 10
-0.7639125955
 20
-56.4275178094
 10
-0.7537791385
 20
-56.4287314907
 10
-0.7432842524
 20
-56.4301960663
 10
-0.7324467164
 20
-56.4318168107
 10
-0.7213228688
 20
-56.4333095472
 10
-0.7099103612
 20
-56.4346831157
 10
-0.6982115419
 20
-56.4359286765
 10
-0.6862897939
 20
-56.4367355337
 10
-0.6741662449
 20
-56.4370001219
 10
-0.6618197671
 20
-56.4368260066
 10
-0.6492503606
 20
-56.4362131876
  0
LINE
  5
235
100
AcDbEntity
  8
ASSI
100
AcDbLine
 62
7
  6
CONTINUOUS
 10
1.4232521571
 20
-57.4329377613
 11
1.4549601888
 21
-57.4372817892
  0
LWPOLYLINE
  5
236
100
AcDbEntity
  8
0
100
AcDbPolyline
 62
250
  6
CONTINUOUS
 90
10
 70
0
 10
-0.6832324573
 20
-55.7606783272
 10
-0.699786813
 20
-55.7578920926
 10
-0.7171476345
 20
-55.7563434204
 10
-0.7350094875
 20
-55.7558998934
 10
-0.7529994476
 20
-55.7562148929
 10
-0.7708609116
 20
-55.7572658662
 10
-0.7884492094
 20
-55.7594041652
 10
-0.805504771
 20
-55.762614275
 10
-0.8216729753
 20
-55.7664790492
 10
-0.8366794092
 20
-55.7707462695
  0
LWPOLYLINE
  5
237
100
AcDbEntity
  8
0
100
AcDbPolyline
 62
250
  6
CONTINUOUS
 90
13
 70
0
 10
-1.9392575962
 20
-55.7580160451
 10
-1.9067450443
 20
-55.7641210203
 10
-1.8750387396
 20
-55.7679041519
 10
-1.8441520946
 20
-55.7694233427
 10
-1.8139608348
 20
-55.7685007242
 10
-1.7846034371
 20
-55.7654272494
 10
-1.7564703276
 20
-55.7609673199
 10
-1.7296940819
 20
-55.755268272
 10
-1.7041120237
 20
-55.748297475
 10
-1.6796598353
 20
-55.7405413075
 10
-1.6563054744
 20
-55.7321848812
 10
-1.6340483635
 20
-55.7231212674
 10
-1.612871534
 20
-55.7133870742
  0
LWPOLYLINE
  5
238
100
AcDbEntity
  8
0
100
AcDbPolyline
 62
250
  6
CONTINUOUS
 90
10
 70
0
 10
-0.6811622431
 20
-56.1501743125
 10
-0.6989865099
 20
-56.1467503522
 10
-0.7175768644
 20
-56.1443639083
 10
-0.7366286272
 20
-56.1430540906
 10
-0.7558295606
 20
-56.1428423647
 10
-0.7748649769
 20
-56.1437321991
 10
-0.793422896
 20
-56.1457090074
 10
-0.8111991716
 20
-56.1487403883
 10
-0.8279024742
 20
-56.1527766586
 10
-0.843259058
 20
-56.1577516659
  0
LINE
  5
239
100
AcDbEntity
  8
RACCORDO
100
AcDbLine
 62
7
  6
CONTINUOUS
 10
-43.0097699657
 20
-44.7198848345
 11
40.2874088581
 21
-92.8146319285
  0
LWPOLYLINE
  5
23A
100
AcDbEntity
  8
0
100
AcDbPolyline
 62
250
  6
CONTINUOUS
 90
13
 70
0
 10
-2.5937726547
 20
54.6036787234
 10
-2.6123118375
 20
54.5924153803
 10
-2.6305243728
 20
54.5801204502
 10
-2.6479862916
 20
54.566869695
 10
-2.6646557066
 20
54.5524846197
 10
-2.6803122594
 20
54.5369389167
 10
-2.6941825871
 20
54.5206799457
 10
-2.706111798
 20
54.5036848449
 10
-2.7160567746
 20
54.4859546601
 10
-2.7235555393
 20
54.4681384717
 10
-2.7285047098
 20
54.4505601144
 10
-2.7310522812
 20
54.4331184445
 10
-2.7312185305
 20
54.4159146915
  0
LWPOLYLINE
  5
23B
100
AcDbEntity
  8
ASSI
100
AcDbPolyline
 62
7
  6
CONTINUOUS
 90
19
 70
0
 10
-3.4862734659
 20
57.261344363
 10
-3.5101503358
 20
57.2472356622
 10
-3.6036632283
 20
57.1856148663
 10
-3.6923510879
 20
57.1166755773
 10
-3.7761839541
 20
57.0403723521
 10
-3.8551917874
 20
56.9567506338
 10
-3.9288850122
 20
56.8663285882
 10
-3.9972306283
 20
56.7690639894
 10
-4.060261636
 20
56.6649990632
 10
-4.1175874609
 20
56.5547786525
 10
-4.1691726773
 20
56.4383645357
 10
-4.2150527109
 20
56.3157949343
 10
-4.2549432641
 20
56.1878293562
 10
-4.2888071459
 20
56.054434296
 10
-4.3166815473
 20
55.9156432591
 10
-4.3383937433
 20
55.7723162704
 10
-4.3538861589
 20
55.6247400046
 10
-4.363216369
 20
55.472627787
 10
-4.3663843738
 20
55.3159796175
  0
LINE
  5
23C
100
AcDbEntity
  8
0
100
AcDbLine
 62
250
  6
CONTINUOUS
 10
-1.989564061
 20
54.7621597449
 11
-1.9896009963
 21
54.7621383979
  0
LINE
  5
23D
100
AcDbEntity
  8
0
100
AcDbLine
 62
7
  6
CONTINUOUS
 10
-3.184500499
 20
57.1469270621
 11
-3.0809471085
 21
57.206717492
  0
LINE
  5
23E
100
AcDbEntity
  8
0
100
AcDbLine
 62
250
  6
CONTINUOUS
 10
-1.9644233543
 20
55.3395151955
 11
-1.8825339219
 21
55.3867971275
  0
LINE
  5
23F
100
AcDbEntity
  8
0
100
AcDbLine
 62
250
  6
CONTINUOUS
 10
-1.5542155049
 20
55.263746754
 11
-1.7435541894
 21
55.1544249705
  0
LINE
  5
240
100
AcDbEntity
  8
0
100
AcDbLine
 62
250
  6
CONTINUOUS
 10
-1.4879121665
 20
55.2347657423
 11
-1.7682564683
 21
55.072898456
  0
LINE
  5
241
100
AcDbEntity
  8
0
100
AcDbLine
 62
250
  6
CONTINUOUS
 10
-1.9645217622
 20
54.7937016349
 11
-1.3265438042
 21
55.1620621121
  0
LINE
  5
242
100
AcDbEntity
  8
0
100
AcDbLine
 62
7
  6
CONTINUOUS
 10
-1.9896009963
 20
54.7621383979
 11
-1.3101660989
 21
55.1544355923
  0
LINE
  5
243
100
AcDbEntity
  8
0
100
AcDbLine
 62
250
  6
CONTINUOUS
 10
-2.436326318
 20
54.215618424
 11
-1.3996220179
 21
54.8141984939
  0
LINE
  5
244
100
AcDbEntity
  8
0
100
AcDbLine
 62
7
  6
CONTINUOUS
 10
25.5188412454
 20
70.1033991951
 11
25.4481305672
 21
70.0625717358
  0
LINE
  5
245
100
AcDbEntity
  8
0
100
AcDbLine
 62
250
  6
CONTINUOUS
 10
-1.123531949
 20
54.6095380826
 11
-2.0240149128
 21
54.0896105049
  0
LINE
  5
246
100
AcDbEntity
  8
0
100
AcDbLine
 62
250
  6
CONTINUOUS
 10
-1.0538615904
 20
54.5084675418
 11
-1.9645217622
 21
53.9826637719
  0
LINE
  5
247
100
AcDbEntity
  8
0
100
AcDbLine
 62
250
  6
CONTINUOUS
 10
-1.7435541894
 20
53.366772622
 11
-0.8430712256
 21
53.8867001996
  0
LINE
  5
248
100
AcDbEntity
  8
0
100
AcDbLine
 62
7
  6
CONTINUOUS
 10
-2.593542647
 20
54.6038114419
 11
-2.5937726547
 21
54.6036787234
  0
LWPOLYLINE
  5
249
100
AcDbEntity
  8
0
100
AcDbPolyline
 62
250
  6
CONTINUOUS
 90
7
 70
0
 10
-0.8575962965
 20
54.0026284789
 10
-1.7778288987
 20
53.4713234954
 10
-1.7879056144
 20
53.4656592463
 10
-1.7984263701
 20
53.4598508909
 10
-1.8093464435
 20
53.453886463
 10
-1.8205950714
 20
53.4478148933
 10
-1.8320559793
 20
53.4417428183
  0
LWPOLYLINE
  5
24A
100
AcDbEntity
  8
0
100
AcDbPolyline
 62
7
  6
CONTINUOUS
 90
7
 70
0
 10
-2.5935450567
 20
54.6038104979
 10
-2.5900942679
 20
54.6057738123
 10
-2.5656788413
 20
54.618361972
 10
-2.5387307836
 20
54.6300576184
 10
-2.5094476377
 20
54.6406947745
 10
-2.4780055037
 20
54.6501492354
 10
-2.4448685884
 20
54.6582575191
  0
LWPOLYLINE
  5
24B
100
AcDbEntity
  8
0
100
AcDbPolyline
 62
250
  6
CONTINUOUS
 90
7
 70
0
 10
-2.7312383712
 20
54.4159046295
 10
-2.7390564971
 20
54.4114905833
 10
-2.7473795865
 20
54.4073900773
 10
-2.7561661908
 20
54.4036246021
 10
-2.7653723612
 20
54.4002140072
 10
-2.7749518625
 20
54.3971763912
 10
-2.7848563997
 20
54.394528002
  0
LWPOLYLINE
  5
24C
100
AcDbEntity
  8
0
100
AcDbPolyline
 62
7
  6
CONTINUOUS
 90
37
 70
0
 10
12.912623229
 20
64.1317662672
 10
12.9438318848
 20
64.1489652196
 10
13.0445874083
 20
64.1942397949
 10
13.1513507442
 20
64.2274034652
 10
13.2634854591
 20
64.2482820394
 10
13.3803186668
 20
64.2567846981
 10
13.5011455952
 20
64.2529046104
 10
13.6252343687
 20
64.2367189801
 10
13.7518309757
 20
64.2083885217
 10
13.8801643848
 20
64.16815637
 10
14.0094517779
 20
64.1163464299
 10
14.138903863
 20
64.0533611781
 10
14.2677302297
 20
63.9796789323
 10
14.3951447145
 20
63.8958506044
 10
14.5203707349
 20
63.8024959625
 10
14.6426465606
 20
63.7002994242
 10
14.7612304822
 20
63.5900054125
 10
14.8754058452
 20
63.4724133033
 10
14.9844859135
 20
63.3483720009
 10
15.0878185297
 20
63.2187741769
 10
15.184790541
 20
63.0845502117
 10
15.2748319605
 20
62.9466618812
 10
15.3574198352
 20
62.8060958293
 10
15.4320817952
 20
62.6638568724
 10
15.4983992591
 20
62.5209611801
 10
15.5560102752
 20
62.3784293789
 10
15.6046119771
 20
62.237279626
 10
15.6439626401
 20
62.0985206999
 10
15.6738833207
 20
61.9631451535
 10
15.6942590717
 20
61.8321225792
 10
15.7050397219
 20
61.7063930281
 10
15.7062402169
 20
61.5868606308
 10
15.6979405172
 20
61.4743874612
 10
15.6802850563
 20
61.3697876865
 10
15.6534817598
 20
61.2738220415
 10
15.6178006348
 20
61.187192666
 10
15.5920906002
 20
61.142633692
  0
LWPOLYLINE
  5
24D
100
AcDbEntity
  8
0
100
AcDbPolyline
 62
7
  6
CONTINUOUS
 90
3
 70
0
 10
12.8419125509
 20
64.0909388079
 10
12.8731212067
 20
64.1081377603
 10
12.9738767302
 20
64.1534123355
  0
LWPOLYLINE
  5
24E
100
AcDbEntity
  8
0
100
AcDbPolyline
 62
7
  6
CONTINUOUS
 90
9
 70
0
 10
16.8724208228
 20
66.4181037818
 10
16.9038756241
 20
66.4354320071
 10
17.004647164
 20
66.4806763452
 10
17.1114249723
 20
66.5138092107
 10
17.2235725162
 20
66.5346566208
 10
17.3404168212
 20
66.5431279672
 10
17.4612530385
 20
66.5392166311
 10
17.5853492282
 20
66.5230000282
 10
17.7119513267
 20
66.4946390832
  0
LWPOLYLINE
  5
24F
100
AcDbEntity
  8
0
100
AcDbPolyline
 62
7
  6
CONTINUOUS
 90
3
 70
0
 10
16.8017101447
 20
66.3772763225
 10
16.8331649459
 20
66.3946045478
 10
16.9339364859
 20
66.4398488858
  0
LWPOLYLINE
  5
250
100
AcDbEntity
  8
0
100
AcDbPolyline
 62
7
  6
CONTINUOUS
 90
40
 70
0
 10
20.8322182424
 20
68.7044411866
 10
20.8639204961
 20
68.7218992732
 10
20.9647079831
 20
68.7671131664
 10
21.0715001607
 20
68.8002150552
 10
21.1836603981
 20
68.8210311694
 10
21.3005156349
 20
68.8294711159
 10
21.4213609484
 20
68.8255284913
 10
21.5454643375
 20
68.8092809259
 10
21.6720716905
 20
68.7808895568
 10
21.8004119029
 20
68.740597934
 10
21.9297021103
 20
68.6887303682
 10
22.0591530014
 20
68.625689729
 10
22.1879741745
 20
68.5519547116
 10
22.3153795014
 20
68.4680765877
 10
22.4405924629
 20
68.3746754645
 10
22.5628514179
 20
68.2724360765
 10
22.6814147728
 20
68.1621031382
 10
22.7955660139
 20
68.0444762903
 10
22.9046185702
 20
67.9204046733
 10
23.0079204727
 20
67.7907811645
 10
23.1048587789
 20
67.6565363184
 10
23.1948637324
 20
67.5186320521
 10
23.2774126297
 20
67.3780551168
 10
23.3520333674
 20
67.2358104015
 10
23.418307646
 20
67.0929141133
 10
23.4758738087
 20
66.9503868813
 10
23.524429296
 20
66.8092468295
 10
23.5637326986
 20
66.6705026681
 10
23.5936053957
 20
66.5351468474
 10
23.6139327677
 20
66.404148823
 10
23.6246649735
 20
66.2784484765
 10
23.6258172888
 20
66.158949737
 10
23.6174700029
 20
66.0465144468
 10
23.5997678732
 20
65.9419565125
 10
23.572919143
 20
65.8460363814
 10
23.5371941286
 20
65.7594558809
 10
23.4929233845
 20
65.6828534557
 10
23.4404954598
 20
65.6167998349
 10
23.3803542622
 20
65.5617941588
 10
23.3272894589
 20
65.5261874925
  0
LWPOLYLINE
  5
251
100
AcDbEntity
  8
0
100
AcDbPolyline
 62
7
  6
CONTINUOUS
 90
3
 70
0
 10
20.7615075643
 20
68.6636137273
 10
20.7932098179
 20
68.6810718139
 10
20.893997305
 20
68.7262857071
  0
LWPOLYLINE
  5
252
100
AcDbEntity
  8
0
100
AcDbPolyline
 62
250
  6
CONTINUOUS
 90
10
 70
0
 10
-1.9645217631
 20
53.9826637756
 10
-1.9741367956
 20
53.9773970774
 10
-1.9844425261
 20
53.972299603
 10
-1.9953612805
 20
53.9674102867
 10
-2.0068118911
 20
53.9627660417
 10
-2.0187064941
 20
53.9584030456
 10
-2.0309507398
 20
53.9543561305
 10
-2.0434499561
 20
53.9506565168
 10
-2.0561103
 20
53.9473319124
 10
-2.0688353539
 20
53.9444076384
  0
LWPOLYLINE
  5
253
100
AcDbEntity
  8
0
100
AcDbPolyline
 62
7
  6
CONTINUOUS
 90
27
 70
0
 10
11.9226734345
 20
63.5601816576
 10
11.978414835
 20
63.5897930122
 10
12.0807260003
 20
63.632067922
 10
12.1888898886
 20
63.6621807654
 10
12.3022605629
 20
63.6799780564
 10
12.4201567509
 20
63.6853898877
 10
12.541866468
 20
63.6784304047
 10
12.6666518496
 20
63.6591977098
 10
12.7937541581
 20
63.6278731967
 10
12.9223989324
 20
63.584720319
 10
13.0518012435
 20
63.5300828027
 10
13.1811710213
 20
63.4643823134
 10
13.3097184168
 20
63.3881155947
 10
13.4366591615
 20
63.301851097
 10
13.5612198906
 20
63.2062251198
 10
13.6826433911
 20
63.1019374938
 10
13.8001937402
 20
62.9897468311
 10
13.9131613003
 20
62.8704653773
 10
14.0208675341
 20
62.744953499
 10
14.1226696101
 20
62.6141138452
 10
14.2179647647
 20
62.4788852214
 10
14.3061943932
 20
62.3402362187
 10
14.3868478403
 20
62.1991586403
 10
14.4594658658
 20
62.0566607707
 10
14.5236437615
 20
61.9137605333
 10
14.5790340971
 20
61.7714785821
 10
14.5968918505
 20
61.7172489773
  0
LWPOLYLINE
  5
254
100
AcDbEntity
  8
0
100
AcDbPolyline
 62
7
  6
CONTINUOUS
 90
3
 70
0
 10
11.8519627564
 20
63.5193541983
 10
11.9077041569
 20
63.5489655529
 10
12.0100153222
 20
63.5912404627
  0
LWPOLYLINE
  5
255
100
AcDbEntity
  8
0
100
AcDbPolyline
 62
7
  6
CONTINUOUS
 90
40
 70
0
 10
15.8824716789
 20
65.846519535
 10
15.9384583919
 20
65.8762502704
 10
16.040784828
 20
65.9184953672
 10
16.1489624412
 20
65.9485779077
 10
16.2623452013
 20
65.9663446112
 10
16.3802517534
 20
65.9717257774
 10
16.5019700423
 20
65.9647357596
 10
16.6267621446
 20
65.9454728673
 10
16.7538692768
 20
65.9141186987
 10
16.8825169445
 20
65.8709369088
 10
17.0119201984
 20
65.8162714196
 10
17.1412889614
 20
65.7505440866
 10
17.2698333907
 20
65.6742518358
 10
17.3967692374
 20
65.5879632909
 10
17.5213231691
 20
65.4923149151
 10
17.6427380181
 20
65.3880066913
 10
17.7602779198
 20
65.2757973719
 10
17.8732333065
 20
65.1564993296
 10
17.9809257229
 20
65.0309730443
 10
18.0827124306
 20
64.9001212634
 10
18.1779907695
 20
64.7648828756
 10
18.2662022482
 20
64.6262265389
 10
18.3468363339
 20
64.4851441072
 10
18.4194339173
 20
64.342643899
 10
18.4835904281
 20
64.1997438546
 10
18.5389585806
 20
64.0574646276
 10
18.5852507308
 20
63.916822659
 10
18.6222408284
 20
63.7788232783
 10
18.6497659504
 20
63.6444538818
 10
18.6677274076
 20
63.5146772309
 10
18.6760914137
 20
63.3904249191
 10
18.6748893148
 20
63.2725910492
 10
18.664217377
 20
63.1620261659
 10
18.6442361324
 20
63.0595314835
 10
18.6151692904
 20
62.9658534485
 10
18.5773022192
 20
62.8816786741
 10
18.5309800089
 20
62.8076292801
 10
18.4766051301
 20
62.7442586712
 10
18.4146347024
 20
62.6920477816
 10
18.3775431093
 20
62.6682659962
  0
LWPOLYLINE
  5
256
100
AcDbEntity
  8
0
100
AcDbPolyline
 62
7
  6
CONTINUOUS
 90
3
 70
0
 10
15.8117610008
 20
65.8056920757
 10
15.8677477138
 20
65.8354228111
 10
15.9700741499
 20
65.8776679079
  0
LWPOLYLINE
  5
257
100
AcDbEntity
  8
0
100
AcDbPolyline
 62
7
  6
CONTINUOUS
 90
40
 70
0
 10
19.8422697306
 20
68.1328573056
 10
19.8985032696
 20
68.162708065
 10
20.0008450902
 20
68.204923176
 10
20.1090365358
 20
68.2349752316
 10
20.2224314813
 20
68.2527111573
 10
20.3403484887
 20
68.2580614615
 10
20.4620754308
 20
68.2510407066
 10
20.5868743248
 20
68.2317474103
 10
20.7139863401
 20
68.2003633772
 10
20.8426369482
 20
68.157152465
 10
20.9720411788
 20
68.1024587935
 10
21.1014089473
 20
68.0367044098
 10
21.2299504162
 20
67.9603864236
 10
21.3568813558
 20
67.8740736341
 10
21.4814284659
 20
67.7784026695
 10
21.6028346239
 20
67.6740736668
 10
21.7203640229
 20
67.5618455203
 10
21.8333071655
 20
67.4425307314
 10
21.9409856783
 20
67.3169898948
 10
22.0427569161
 20
67.1861258579
 10
22.1380183227
 20
67.0508775937
 10
22.2262115207
 20
66.9122138288
 10
22.3068261004
 20
66.7711264689
 10
22.3794030838
 20
66.6286238675
 10
22.4435380395
 20
66.4857239825
 10
22.4988838275
 20
66.3434474684
 10
22.5451529549
 20
66.2028107492
 10
22.5821195267
 20
66.0648191206
 10
22.6096207794
 20
65.9304599279
 10
22.6275581852
 20
65.8006958652
 10
22.6358981207
 20
65.6764584419
 10
22.6346720953
 20
65.5586416618
 10
22.6239765373
 20
65.448095955
 10
22.6039721391
 20
65.3456224075
 10
22.5748827674
 20
65.2519673237
 10
22.5369939435
 20
65.1678171625
 10
22.4906509057
 20
65.0937938781
 10
22.4362562664
 20
65.0304506994
 10
22.3742672798
 20
64.9782683754
 10
22.3373407866
 20
64.9546035366
  0
LWPOLYLINE
  5
258
100
AcDbEntity
  8
0
100
AcDbPolyline
 62
7
  6
CONTINUOUS
 90
3
 70
0
 10
19.7715590525
 20
68.0920298462
 10
19.8277925915
 20
68.1218806057
 10
19.9301344121
 20
68.1640957167
  0
LWPOLYLINE
  5
259
100
AcDbEntity
  8
0
100
AcDbPolyline
 62
7
  6
CONTINUOUS
 90
21
 70
0
 10
23.8020674735
 20
70.4191949036
 10
23.8585502358
 20
70.449166758
 10
23.9609076096
 20
70.491351603
 10
24.069113044
 20
70.5213728825
 10
24.1825203181
 20
70.5390777303
 10
24.3004479089
 20
70.5443968652
 10
24.4221836164
 20
70.5373450609
 10
24.5469893969
 20
70.5180210456
 10
24.6741063718
 20
70.4866068324
 10
24.8027599775
 20
70.443366484
 10
24.9321652219
 20
70.3886443204
 10
25.0615320121
 20
70.3228625824
 10
25.1900705156
 20
70.2465185661
 10
25.3169965214
 20
70.1601812483
 10
25.441536761
 20
70.0644874245
 10
25.562934157
 20
69.9601373881
 10
25.6804529604
 20
69.8478901773
 10
25.7933837441
 20
69.7285584245
 10
25.9010482172
 20
69.603002841
 10
26.0028038281
 20
69.4721263759
 10
26.0980481255
 20
69.3368680885
  0
LWPOLYLINE
  5
25A
100
AcDbEntity
  8
0
100
AcDbPolyline
 62
7
  6
CONTINUOUS
 90
3
 70
0
 10
23.7313567953
 20
70.3783674443
 10
23.7878395577
 20
70.4083392987
 10
23.8901969315
 20
70.4505241437
  0
LWPOLYLINE
  5
25B
100
AcDbEntity
  8
0
100
AcDbPolyline
 62
7
  6
CONTINUOUS
 90
9
 70
0
 10
22.2666301085
 20
64.9137760773
 10
22.2344820608
 20
64.8968244532
 10
22.1588788443
 20
64.868100367
 10
22.0773481376
 20
64.8515144662
 10
21.9905313527
 20
64.8472301843
 10
21.8991057755
 20
64.8553274703
 10
21.8037799692
 20
64.8758022469
 10
21.705288966
 20
64.908566437
 10
21.6403758413
 20
64.9374410459
  0
LWPOLYLINE
  5
25C
100
AcDbEntity
  8
0
100
AcDbPolyline
 62
250
  6
CONTINUOUS
 90
7
 70
0
 10
-1.9645217626
 20
54.7937016343
 10
-1.9741840892
 20
54.7887100773
 10
-1.9844814504
 20
54.7845442834
 10
-1.9953594543
 20
54.7812084746
 10
-2.0067948232
 20
54.7786922442
 10
-2.018708481
 20
54.7770259573
 10
-2.0309497933
 20
54.7762562682
  0
LWPOLYLINE
  5
25D
100
AcDbEntity
  8
0
100
AcDbPolyline
 62
250
  6
CONTINUOUS
 90
3
 70
0
 10
-1.8320559793
 20
53.4417428183
 10
-1.8552471018
 20
53.4297124627
 10
-1.8668215814
 20
53.4237528911
  0
LWPOLYLINE
  5
25E
100
AcDbEntity
  8
0
100
AcDbPolyline
 62
7
  6
CONTINUOUS
 90
40
 70
0
 10
14.8925214406
 20
65.2749346814
 10
14.973450228
 20
65.3163297831
 10
15.0772944887
 20
65.3555600044
 10
15.1868323301
 20
65.3825816672
 10
15.3014084906
 20
65.3972622642
 10
15.4203335168
 20
65.3995530396
 10
15.542888442
 20
65.3894893202
 10
15.6683296655
 20
65.3671902754
 10
15.7958939989
 20
65.3328581088
 10
15.9248038457
 20
65.2867766856
 10
16.0542724781
 20
65.2293096066
 10
16.1835093761
 20
65.1608977402
 10
16.3117255924
 20
65.0820562309
 10
16.4381391066
 20
64.9933710028
 10
16.5619801321
 20
64.8954947839
 10
16.6824963402
 20
64.789142676
 10
16.7989579659
 20
64.6750873016
 10
16.9106627605
 20
64.554153561
 10
17.0169407568
 20
64.427213034
 10
17.1171588163
 20
64.2951780648
 10
17.2107249259
 20
64.1589955707
 10
17.297092215
 20
64.0196406157
 10
17.3757626677
 20
63.8781097936
 10
17.4462905017
 20
63.7354144644
 10
17.5082851941
 20
63.5925738911
 10
17.5614141313
 20
63.4506083222
 10
17.6054048666
 20
63.3105320683
 10
17.6400469688
 20
63.1733466179
 10
17.6651934506
 20
63.0400338418
 10
17.6807617657
 20
62.9115493288
 10
17.6867343694
 20
62.7888159015
 10
17.6831588375
 20
62.6727173528
 10
17.6701475434
 20
62.5640924489
 10
17.6478768956
 20
62.4637292365
 10
17.6165861404
 20
62.3723596953
 10
17.5765757382
 20
62.2906547698
 10
17.5282053247
 20
62.2192198168
 10
17.4718912701
 20
62.1585904965
 10
17.4081038536
 20
62.1092291377
 10
17.3875932224
 20
62.0966813416
  0
LINE
  5
25F
100
AcDbEntity
  8
0
100
AcDbLine
 62
7
  6
CONTINUOUS
 10
14.8218107625
 20
65.234107222
 11
14.9027395498
 21
65.2755023238
  0
LWPOLYLINE
  5
260
100
AcDbEntity
  8
0
100
AcDbPolyline
 62
7
  6
CONTINUOUS
 90
40
 70
0
 10
18.8523197602
 20
67.5612725984
 10
18.9334972455
 20
67.6027793588
 10
19.0373563247
 20
67.6419796873
 10
19.1469074138
 20
67.6689710295
 10
19.2614951618
 20
67.6836210834
 10
19.3804300365
 20
67.6858813001
 10
19.5029930047
 20
67.6757872135
 10
19.6284404111
 20
67.6534581987
 10
19.7560090256
 20
67.6190966625
 10
19.8849212226
 20
67.5729866691
 10
20.0143902583
 20
67.5154920129
 10
20.14362561
 20
67.447053749
 10
20.2718383409
 20
67.3681872009
 10
20.398246454
 20
67.2794784625
 10
20.5220801993
 20
67.181580421
 10
20.6425872974
 20
67.0752083262
 10
20.759038045
 20
66.9611349362
 10
20.8707302668
 20
66.8401852734
 10
20.9769940809
 20
66.7132310256
 10
21.0771964447
 20
66.5811846302
 10
21.1707454512
 20
66.444993082
 10
21.2570943459
 20
66.3056315067
 10
21.3357452371
 20
66.1640965431
 10
21.4062524751
 20
66.0213995795
 10
21.4682256764
 20
65.8785598903
 10
21.5213323731
 20
65.7365977182
 10
21.5653002688
 20
65.596527351
 10
21.5999190873
 20
65.459350238
 10
21.6250419987
 20
65.3260481934
 10
21.6405866167
 20
65.1975767339
 10
21.646535557
 20
65.0748585939
 10
21.6429365558
 20
64.958777463
 10
21.6299021456
 20
64.8501719898
 10
21.6076088915
 20
64.7498300896
 10
21.5762961931
 20
64.658483598
 10
21.5362646596
 20
64.5768033038
 10
21.4878740703
 20
64.5053943969
 10
21.431540932
 20
64.4447923615
 10
21.3677356536
 20
64.3954593416
 10
21.3473914879
 20
64.3830192339
  0
LINE
  5
261
100
AcDbEntity
  8
0
100
AcDbLine
 62
7
  6
CONTINUOUS
 10
18.7816090821
 20
67.5204451391
 11
18.8627865674
 21
67.5619518995
  0
LWPOLYLINE
  5
262
100
AcDbEntity
  8
0
100
AcDbPolyline
 62
7
  6
CONTINUOUS
 90
13
 70
0
 10
22.8121180476
 20
69.8476104994
 10
22.8935445326
 20
69.889228963
 10
22.9974184686
 20
69.9283993727
 10
23.1069828448
 20
69.9553603612
 10
23.2215822199
 20
69.9699798323
 10
23.3405269828
 20
69.9722094443
 10
23.4630980327
 20
69.9620849384
 10
23.5885516593
 20
69.9397258961
 10
23.7161245899
 20
69.9053349274
 10
23.845039169
 20
69.8591962963
 10
23.9745086365
 20
69.8016739913
 10
24.1037424663
 20
69.7332092555
 10
24.2319517312
 20
69.6543175916
  0
LINE
  5
263
100
AcDbEntity
  8
0
100
AcDbLine
 62
7
  6
CONTINUOUS
 10
22.7414073695
 20
69.8067830401
 11
22.8228338545
 21
69.8484015037
  0
LWPOLYLINE
  5
264
100
AcDbEntity
  8
0
100
AcDbPolyline
 62
250
  6
CONTINUOUS
 90
10
 70
0
 10
-1.7682564683
 20
55.072898456
 10
-1.777796198
 20
55.0680461315
 10
-1.7878782193
 20
55.064188254
 10
-1.7984264575
 20
55.0613552407
 10
-1.8093624923
 20
55.0595696122
 10
-1.8206021958
 20
55.0588465132
 10
-1.8320560447
 20
55.0591922906
 10
-1.8436353813
 20
55.060604076
 10
-1.8552533883
 20
55.063071094
 10
-1.8668215814
 20
55.0665745558
  0
LINE
  5
265
100
AcDbEntity
  8
0
100
AcDbLine
 62
7
  6
CONTINUOUS
 10
26.0273374474
 20
69.2960406292
 11
25.3783670697
 21
68.9663560169
  0
LWPOLYLINE
  5
266
100
AcDbEntity
  8
0
100
AcDbPolyline
 62
250
  6
CONTINUOUS
 90
8
 70
0
 10
-3.0809471085
 20
57.206717492
 10
-2.9457621103
 20
57.2748676514
 10
-2.8026878603
 20
57.3278366422
 10
-2.6522404392
 20
57.3654534053
 10
-2.4950640879
 20
57.3875568602
 10
-2.3318318583
 20
57.3940523572
 10
-2.1632427326
 20
57.3849120819
 10
-2.1435388245
 20
57.3820983061
  0
LINE
  5
267
100
AcDbEntity
  8
0
100
AcDbLine
 62
250
  6
CONTINUOUS
 10
-3.0493155591
 20
57.2150771961
 11
-3.184500499
 21
57.1469270621
  0
LWPOLYLINE
  5
268
100
AcDbEntity
  8
0
100
AcDbPolyline
 62
7
  6
CONTINUOUS
 90
9
 70
0
 10
17.3168825443
 20
62.0558538823
 10
17.2666533934
 20
62.0306941406
 10
17.189529424
 20
62.0049471961
 10
17.1066327711
 20
61.9913864471
 10
17.0186141144
 20
61.9901547954
 10
16.9261588938
 20
62.0013114724
 10
16.8299826576
 20
62.0248316371
 10
16.7308262063
 20
62.0606065447
 10
16.6911537327
 20
62.0793274274
  0
LWPOLYLINE
  5
269
100
AcDbEntity
  8
0
100
AcDbPolyline
 62
7
  6
CONTINUOUS
 90
9
 70
0
 10
21.2766808098
 20
64.3421917745
 10
21.2262686746
 20
64.3169535458
 10
21.1491296416
 20
64.2912364671
 10
21.0662194828
 20
64.2777060462
 10
20.9781889699
 20
64.2765049795
 10
20.8857236234
 20
64.2876922912
 10
20.7895390606
 20
64.3112429327
 10
20.6903761391
 20
64.3470479527
 10
20.6509411291
 20
64.3656674328
  0
LWPOLYLINE
  5
26A
100
AcDbEntity
  8
0
100
AcDbPolyline
 62
7
  6
CONTINUOUS
 90
9
 70
0
 10
25.236478908
 20
66.628529566
 10
25.1858827684
 20
66.603212503
 10
25.1087285692
 20
66.5775254435
 10
25.0258048075
 20
66.5640255129
 10
24.9377623477
 20
66.5628552012
 10
24.8452867924
 20
66.5740733242
 10
24.7490938286
 20
66.5976546246
 10
24.6499243717
 20
66.6334899431
 10
24.6107287359
 20
66.6520070518
  0
LWPOLYLINE
  5
26B
100
AcDbEntity
  8
0
100
AcDbPolyline
 62
7
  6
CONTINUOUS
 90
39
 70
0
 10
13.9025716797
 20
64.7033501089
 10
14.008831718
 20
64.7556614958
 10
14.1141553607
 20
64.7918639024
 10
14.2250126213
 20
64.815816873
 10
14.3407392825
 20
64.8274087262
 10
14.460638081
 20
64.8266116683
 10
14.5839834398
 20
64.8134819824
 10
14.7100263919
 20
64.7881596459
 10
14.8379996637
 20
64.750867381
 10
14.9671228814
 20
64.7019091428
 10
15.0966078675
 20
64.6416680568
 10
15.2256639893
 20
64.5706038187
 10
15.3535035248
 20
64.4892495749
 10
15.4793470083
 20
64.3982083038
 10
15.6024285203
 20
64.2981487245
 10
15.7220008853
 20
64.1898007578
 10
15.8373407424
 20
64.0739505732
 10
15.9477534545
 20
63.9514352532
 10
16.0525778223
 20
63.8231371129
 10
16.1511905714
 20
63.6899777118
 10
16.2430105822
 20
63.5529116001
 10
16.3275028337
 20
63.4129198403
 10
16.4041820343
 20
63.2710033496
 10
16.4726159149
 20
63.1281761071
 10
16.5324281629
 20
62.9854582728
 10
16.5833009759
 20
62.8438692636
 10
16.6249772183
 20
62.7044208362
 10
16.6572621663
 20
62.5681102197
 10
16.6800248295
 20
62.435913349
 10
16.6931988399
 20
62.3087782412
 10
16.696782902
 20
62.1876185618
 10
16.6908408021
 20
62.0733074247
 10
16.6755009747
 20
61.9666714663
 10
16.6509556315
 20
61.8684852363
 10
16.6174594567
 20
61.7794659403
 10
16.5753278787
 20
61.7002685737
 10
16.5249349291
 20
61.6314814757
 10
16.4667107051
 20
61.5736223371
 10
16.3976430376
 20
61.5250964998
  0
LINE
  5
26C
100
AcDbEntity
  8
0
100
AcDbLine
 62
7
  6
CONTINUOUS
 10
13.8318610016
 20
64.6625226496
 11
13.9381210399
 21
64.7148340364
  0
LWPOLYLINE
  5
26D
100
AcDbEntity
  8
0
100
AcDbPolyline
 62
7
  6
CONTINUOUS
 90
39
 70
0
 10
17.8623696075
 20
66.9896877998
 10
17.9688852014
 20
67.0421046891
 10
18.0742233889
 20
67.0782767043
 10
18.1850935743
 20
67.1021989184
 10
18.3008314536
 20
67.1137598585
 10
18.4207396886
 20
67.1129319405
 10
18.5440926392
 20
67.0997716565
 10
18.6701412881
 20
67.074419191
 10
18.798118324
 20
67.03709747
 10
18.9272433488
 20
66.988110648
 10
19.0567281736
 20
66.9278420435
 10
19.185782168
 20
66.8567515382
 10
19.3136176252
 20
66.7753724556
 10
19.4394551083
 20
66.684307942
 10
19.5625287393
 20
66.5842268728
 10
19.682091397
 20
66.4758593138
 10
19.7974197872
 20
66.3599915661
 10
19.9078193514
 20
66.2374608304
 10
20.0126289799
 20
66.1091495252
 10
20.1112254992
 20
65.975979298
 10
20.2030279001
 20
65.8389047713
 10
20.2875012817
 20
65.6989070637
 10
20.3641604805
 20
65.5569871315
 10
20.4325733637
 20
65.4141589761
 10
20.4923637613
 20
65.2714427624
 10
20.5432140193
 20
65.1298578956
 10
20.584867155
 20
64.9904161028
 10
20.6171286016
 20
64.8541145676
 10
20.639867528
 20
64.7219291622
 10
20.6530177271
 20
64.5948078251
 10
20.6565780648
 20
64.4736641276
 10
20.6506124879
 20
64.3593710745
 10
20.6352495901
 20
64.252755179
 10
20.6106817391
 20
64.154590854
 10
20.5771637715
 20
64.0655951562
 10
20.5350112629
 20
63.9864229203
 10
20.4845983867
 20
63.917662315
 10
20.4263553744
 20
63.8598308508
 10
20.3574412388
 20
63.811434359
  0
LINE
  5
26E
100
AcDbEntity
  8
0
100
AcDbLine
 62
7
  6
CONTINUOUS
 10
17.7916589294
 20
66.9488603405
 11
17.8981745233
 21
67.0012772298
  0
LWPOLYLINE
  5
26F
100
AcDbEntity
  8
0
100
AcDbPolyline
 62
7
  6
CONTINUOUS
 90
39
 70
0
 10
21.8221677801
 20
69.276025631
 10
21.9289370703
 20
69.3285471645
 10
22.0342897168
 20
69.3646890184
 10
22.1451727559
 20
69.3885807027
 10
22.2609217971
 20
69.4001109513
 10
22.3808394269
 20
69.3992523881
 10
22.5041999422
 20
69.3860617128
 10
22.6302542753
 20
69.3606793158
 10
22.7582350768
 20
69.3233283257
 10
22.8873619236
 20
69.2743130951
 10
23.0168466152
 20
69.2140171347
 10
23.1458985226
 20
69.1429005112
 10
23.2737299538
 20
69.0614967247
 10
23.3995614996
 20
68.9704090885
 10
23.5226273228
 20
68.8703066342
 10
23.6421803555
 20
68.761919572
 10
23.7574973694
 20
68.6460343348
 10
23.8678838833
 20
68.523488241
 10
23.9726788765
 20
68.3951638128
 10
24.0712592748
 20
68.2619827861
 10
24.1630441789
 20
68.1248998561
 10
24.2474988065
 20
67.9848961975
 10
24.3241381216
 20
67.8429728066
 10
24.3925301262
 20
67.7001437077
 10
24.4522987921
 20
67.5574290716
 10
24.5031266126
 20
67.4158482921
 10
24.5447567572
 20
67.2764130685
 10
24.576994815
 20
67.1401205391
 10
24.5997101134
 20
67.0079465148
 10
24.6128366054
 20
66.8808388566
 10
24.6163733175
 20
66.7597110427
 10
24.6103843567
 20
66.64543597
 10
24.594998475
 20
66.5388400294
 10
24.5704081959
 20
66.4406974985
 10
24.5368685077
 20
66.3517252861
 10
24.4946951332
 20
66.2725780674
 10
24.444262387
 20
66.2038438415
 10
24.3860006352
 20
66.1460399401
 10
24.3172395465
 20
66.0977722789
  0
LINE
  5
270
100
AcDbEntity
  8
0
100
AcDbLine
 62
7
  6
CONTINUOUS
 10
21.751457102
 20
69.2351981717
 11
21.8582263922
 21
69.2877197052
  0
LWPOLYLINE
  5
271
100
AcDbEntity
  8
0
100
AcDbPolyline
 62
7
  6
CONTINUOUS
 90
9
 70
0
 10
16.3269323595
 20
61.4842690405
 10
16.2580405952
 20
61.4515574224
 10
16.1794178565
 20
61.4288321619
 10
16.0951812318
 20
61.4183365414
 10
16.0059904952
 20
61.4201926606
 10
15.9125390418
 20
61.4344387955
 10
15.8155491814
 20
61.4610291377
 10
15.7157672369
 20
61.4998341062
 10
15.7003847667
 20
61.5075106463
  0
LWPOLYLINE
  5
272
100
AcDbEntity
  8
0
100
AcDbPolyline
 62
7
  6
CONTINUOUS
 90
9
 70
0
 10
20.2867305607
 20
63.7706068996
 10
20.2176516026
 20
63.7378240727
 10
20.1390142174
 20
63.7151288798
 10
20.0547645376
 20
63.7046637226
 10
19.9655624253
 20
63.7065504943
 10
19.8721013521
 20
63.7208272631
 10
19.7751036924
 20
63.7474480131
 10
19.6753158216
 20
63.7862829574
 10
19.6601765939
 20
63.7938421737
  0
LWPOLYLINE
  5
273
100
AcDbEntity
  8
0
100
AcDbPolyline
 62
7
  6
CONTINUOUS
 90
9
 70
0
 10
24.2465288684
 20
66.0569448195
 10
24.1772632745
 20
66.0240910832
 10
24.0986112674
 20
66.0014258562
 10
24.0143485492
 20
65.9909910655
 10
23.9251350703
 20
65.9929083988
 10
23.8316643791
 20
66.007215717
 10
23.7346589153
 20
66.0338667973
 10
23.6348651069
 20
66.0727316472
 10
23.6199688794
 20
66.0801735194
  0
LWPOLYLINE
  5
274
100
AcDbEntity
  8
0
100
AcDbPolyline
 62
250
  6
CONTINUOUS
 90
8
 70
0
 10
-2.6310652428
 20
54.6531450627
 10
-2.6513305762
 20
54.6435649809
 10
-2.6717014638
 20
54.6328862783
 10
-2.6920773153
 20
54.6210793048
 10
-2.7119699815
 20
54.6079478812
 10
-2.7311945642
 20
54.5934058289
 10
-2.7498736494
 20
54.5774746412
 10
-2.7679723832
 20
54.560121856
  0
LWPOLYLINE
  5
275
100
AcDbEntity
  8
0
100
AcDbPolyline
 62
250
  6
CONTINUOUS
 90
3
 70
0
 10
-1.612871534
 20
52.4689246008
 10
-1.3100768261
 20
52.6118861408
 10
-1.2407069516
 20
52.6448458449
  0
LWPOLYLINE
  5
276
100
AcDbEntity
  8
0
100
AcDbPolyline
 62
7
  6
CONTINUOUS
 90
10
 70
0
 10
26.1533128502
 20
67.5340687471
 10
26.0923659881
 20
67.5059012291
 10
26.02821846
 20
67.4890793117
 10
25.9602419051
 20
67.48282054
 10
25.8890981096
 20
67.486998405
 10
25.8154589702
 20
67.5014120062
 10
25.7400012523
 20
67.5257889214
 10
25.6634013971
 20
67.5597885765
 10
25.5863304153
 20
67.6030060803
 10
25.5859538815
 20
67.6032606098
  0
LWPOLYLINE
  5
277
100
AcDbEntity
  8
0
100
AcDbPolyline
 62
250
  6
CONTINUOUS
 90
3
 70
0
 10
-1.6249683386
 20
52.5770789204
 10
-1.2803642176
 20
52.7295938049
 10
-1.2441539038
 20
52.745502358
  0
LINE
  5
278
100
AcDbEntity
  8
0
100
AcDbLine
 62
7
  6
CONTINUOUS
 10
-0.3436709399
 20
53.2654299356
 11
-0.5882640385
 21
53.1756589903
  0
LWPOLYLINE
  5
279
100
AcDbEntity
  8
0
100
AcDbPolyline
 62
7
  6
CONTINUOUS
 90
9
 70
0
 10
-2.118304377
 20
55.4068673545
 10
-2.1282667301
 20
55.4037013616
 10
-2.1378777179
 20
55.4004589748
 10
-2.1471396046
 20
55.3971456431
 10
-2.156050126
 20
55.3937559173
 10
-2.1647689047
 20
55.390568057
 10
-2.1733491482
 20
55.3876748153
 10
-2.181737649
 20
55.3849834391
 10
-2.25296583
 20
55.3630688549
  0
LINE
  5
27A
100
AcDbEntity
  8
0
100
AcDbLine
 62
7
  6
CONTINUOUS
 10
-0.5406234609
 20
51.7766417519
 11
-0.4693952802
 21
51.7985563359
  0
LWPOLYLINE
  5
27B
100
AcDbEntity
  8
0
100
AcDbPolyline
 62
7
  6
CONTINUOUS
 90
10
 70
0
 10
-0.3436709399
 20
53.2654299356
 10
-0.3333491464
 20
53.2684755018
 10
-0.3227856763
 20
53.2701653774
 10
-0.3120643907
 20
53.2705099194
 10
-0.3012678406
 20
53.2695374795
 10
-0.2904855869
 20
53.2672737045
 10
-0.2798118918
 20
53.2637327374
 10
-0.2693345106
 20
53.2589477811
 10
-0.2591354409
 20
53.2529787824
 10
-0.2492983024
 20
53.2458859094
  0
LWPOLYLINE
  5
27C
100
AcDbEntity
  8
0
100
AcDbPolyline
 62
250
  6
CONTINUOUS
 90
6
 70
0
 10
-2.5330790465
 20
54.687632192
 10
-2.5520015191
 20
54.6822173237
 10
-2.5713008859
 20
54.6761733379
 10
-2.5909018509
 20
54.6693284385
 10
-2.6108440064
 20
54.6616642092
 10
-2.6310652428
 20
54.6531450627
  0
LWPOLYLINE
  5
27D
100
AcDbEntity
  8
0
100
AcDbPolyline
 62
7
  6
CONTINUOUS
 90
19
 70
0
 10
-0.5882640385
 20
-55.0066526848
 10
-0.6178938178
 20
-55.0147692836
 10
-0.6486096066
 20
-55.0177061794
 10
-0.6799564351
 20
-55.01551783
 10
-0.7114838734
 20
-55.0083640606
 10
-0.742695994
 20
-54.9964373046
 10
-0.7730608041
 20
-54.9799370132
 10
-0.802082777
 20
-54.959188459
 10
-0.8293390374
 20
-54.9345941549
 10
-0.8544208196
 20
-54.9065209466
 10
-0.8768938027
 20
-54.8754347515
 10
-0.8963925365
 20
-54.8418651299
 10
-0.9126336384
 20
-54.8063059012
 10
-0.9252726459
 20
-54.7693083489
 10
-0.9340462
 20
-54.7314912725
 10
-0.938830106
 20
-54.6934719847
 10
-0.9394672908
 20
-54.6558707201
 10
-0.9357873647
 20
-54.619299828
 10
-0.9277190542
 20
-54.5843595597
  0
LINE
  5
27E
100
AcDbEntity
  8
0
100
AcDbLine
 62
7
  6
CONTINUOUS
 10
-2.1078242436
 20
-52.7726493292
 11
-2.118304377
 21
-52.7754443206
  0
LWPOLYLINE
  5
27F
100
AcDbEntity
  8
0
100
AcDbPolyline
 62
250
  6
CONTINUOUS
 90
3
 70
0
 10
-2.4964336221
 20
-53.4855608579
 10
-2.5145618453
 20
-53.4898249879
 10
-2.5330790465
 20
-53.494679483
  0
LWPOLYLINE
  5
280
100
AcDbEntity
  8
0
100
AcDbPolyline
 62
250
  6
CONTINUOUS
 90
10
 70
0
 10
-1.2441539038
 20
-55.4368093171
 10
-1.2360228137
 20
-55.4349730357
 10
-1.2273996817
 20
-55.4343252116
 10
-1.218359726
 20
-55.4348714395
 10
-1.2089813988
 20
-55.4366069981
 10
-1.1993468655
 20
-55.4395167004
 10
-1.1895413804
 20
-55.4435745441
 10
-1.1796508923
 20
-55.4487444428
 10
-1.1697612088
 20
-55.4549810302
 10
-1.1599584742
 20
-55.4622295356
  0
LINE
  5
281
100
AcDbEntity
  8
0
100
AcDbLine
 62
7
  6
CONTINUOUS
 10
-2.4448588419
 20
-53.5240515519
 11
-2.2479437607
 21
-53.4815813618
  0
LINE
  5
282
100
AcDbEntity
  8
0
100
AcDbLine
 62
7
  6
CONTINUOUS
 10
-2.2479437607
 20
-53.4815813618
 11
-2.1261297367
 21
-53.4560165774
  0
LINE
  5
283
100
AcDbEntity
  8
0
100
AcDbLine
 62
250
  6
CONTINUOUS
 10
-2.4786995096
 20
-53.4818686879
 11
-2.4964336221
 21
-53.4855608579
  0
LINE
  5
284
100
AcDbEntity
  8
0
100
AcDbLine
 62
7
  6
CONTINUOUS
 10
-2.1261297367
 20
-53.4560165774
 11
-2.0347764438
 21
-53.4372759122
  0
LINE
  5
285
100
AcDbEntity
  8
0
100
AcDbLine
 62
250
  6
CONTINUOUS
 10
-2.3799110508
 20
-53.4621454983
 11
-2.4786995096
 21
-53.4818686879
  0
LINE
  5
286
100
AcDbEntity
  8
0
100
AcDbLine
 62
250
  6
CONTINUOUS
 10
-2.2430169413
 20
-53.4356064016
 11
-2.3799110508
 21
-53.4621454983
  0
LINE
  5
287
100
AcDbEntity
  8
0
100
AcDbLine
 62
250
  6
CONTINUOUS
 10
-2.1554521917
 20
-53.4190163567
 11
-2.2430169413
 21
-53.4356064016
  0
LINE
  5
288
100
AcDbEntity
  8
0
100
AcDbLine
 62
250
  6
CONTINUOUS
 10
-2.0688353526
 20
-53.4031114259
 11
-2.1554521917
 21
-53.4190163567
  0
LWPOLYLINE
  5
289
100
AcDbEntity
  8
0
100
AcDbPolyline
 62
7
  6
CONTINUOUS
 90
3
 70
0
 10
-2.0851996928
 20
-52.7683687555
 10
-2.0967708583
 20
-52.7703235416
 10
-2.1078242436
 20
-52.7726493292
  0
LWPOLYLINE
  5
28A
100
AcDbEntity
  8
0
100
AcDbPolyline
 62
250
  6
CONTINUOUS
 90
7
 70
0
 10
-2.0347050154
 20
-53.4372614002
 10
-2.0359458486
 20
-53.4374433726
 10
-2.0409070307
 20
-53.4367941063
 10
-2.0459970419
 20
-53.4340070809
 10
-2.0515543023
 20
-53.4291787223
 10
-2.0575069294
 20
-53.4223582262
 10
-2.0633621016
 20
-53.4136177728
  0
LINE
  5
28B
100
AcDbEntity
  8
0
100
AcDbLine
 62
7
  6
CONTINUOUS
 10
-2.073110747
 20
-52.7667849707
 11
-2.0851996928
 21
-52.7683687555
  0
LWPOLYLINE
  5
28C
100
AcDbEntity
  8
0
100
AcDbPolyline
 62
250
  6
CONTINUOUS
 90
8
 70
0
 10
-2.4448685884
 20
-53.5240541559
 10
-2.4467752795
 20
-53.524209558
 10
-2.4513319955
 20
-53.5228054307
 10
-2.4563080046
 20
-53.5190201776
 10
-2.4616217523
 20
-53.5129158411
 10
-2.4671861504
 20
-53.5045924718
 10
-2.4729100041
 20
-53.494186486
 10
-2.4786995052
 20
-53.481868432
  0
LWPOLYLINE
  5
28D
100
AcDbEntity
  8
0
100
AcDbPolyline
 62
7
  6
CONTINUOUS
 90
5
 70
0
 10
-2.0641171894
 20
-52.7664187276
 10
-2.061707984
 20
-52.7662293538
 10
-2.0527131829
 20
-52.7658847335
 10
-2.0409498549
 20
-52.7660432656
 10
-2.0369400967
 20
-52.7662177817
  0
LINE
  5
28E
100
AcDbEntity
  8
0
100
AcDbLine
 62
7
  6
CONTINUOUS
 10
-2.0605413405
 20
-52.7661721518
 11
-2.073110747
 21
-52.7667849707
  0
LINE
  5
28F
100
AcDbEntity
  8
0
100
AcDbLine
 62
250
  6
CONTINUOUS
 10
-2.0641193811
 20
-52.7664188395
 11
-2.0731107471
 21
-52.7667849708
  0
LWPOLYLINE
  5
290
100
AcDbEntity
  8
0
100
AcDbPolyline
 62
250
  6
CONTINUOUS
 90
3
 70
0
 10
-2.0309497933
 20
-53.4060554069
 10
-2.0434172052
 20
-53.4059315625
 10
-2.0560704456
 20
-53.4049439457
  0
LWPOLYLINE
  5
291
100
AcDbEntity
  8
0
100
AcDbPolyline
 62
7
  6
CONTINUOUS
 90
7
 70
0
 10
-2.2813124378
 20
-50.7677356232
 10
-2.3163907064
 20
-50.7670729743
 10
-2.483267933
 20
-50.7792618447
 10
-2.6438043935
 20
-50.8066192151
 10
-2.7973117141
 20
-50.8487663039
 10
-2.9432231937
 20
-50.9052662101
 10
-3.0809471085
 20
-50.9755941831
  0
LWPOLYLINE
  5
292
100
AcDbEntity
  8
0
100
AcDbPolyline
 62
7
  6
CONTINUOUS
 90
3
 70
0
 10
-2.0369364382
 20
-52.7662289303
 10
-2.0481948627
 20
-52.7659980365
 10
-2.0605413405
 20
-52.7661721518
  0
LWPOLYLINE
  5
293
100
AcDbEntity
  8
0
100
AcDbPolyline
 62
7
  6
CONTINUOUS
 90
4
 70
0
 10
-1.9486576989
 20
-52.7765378623
 10
-1.8658513997
 20
-52.7846800234
 10
-1.7912569414
 20
-52.7975605548
 10
-1.7154261618
 20
-52.8160808008
  0
LWPOLYLINE
  5
294
100
AcDbEntity
  8
0
100
AcDbPolyline
 62
7
  6
CONTINUOUS
 90
3
 70
0
 10
-2.0186356685
 20
-52.7676174895
 10
-2.0241495656
 20
-52.7670694819
 10
-2.0369364382
 20
-52.7662289303
  0
LWPOLYLINE
  5
295
100
AcDbEntity
  8
0
100
AcDbPolyline
 62
7
  6
CONTINUOUS
 90
7
 70
0
 10
-1.9486576989
 20
-52.7765378623
 10
-1.9584485097
 20
-52.7754803493
 10
-1.9685819691
 20
-52.7742666676
 10
-1.979076856
 20
-52.772802092
 10
-1.9899143915
 20
-52.7711813477
 10
-2.0010382387
 20
-52.7696886112
 10
-2.0124507463
 20
-52.7683150426
  0
LWPOLYLINE
  5
296
100
AcDbEntity
  8
0
100
AcDbPolyline
 62
7
  6
CONTINUOUS
 90
3
 70
0
 10
-2.018634745
 20
-52.7676206387
 10
-2.0092640078
 20
-52.7686590923
 10
-1.9895713578
 20
-52.7714055763
  0
LINE
  5
297
100
AcDbEntity
  8
0
100
AcDbLine
 62
250
  6
CONTINUOUS
 10
-2.0560704456
 20
-53.4049439457
 11
-2.0688353526
 21
-53.4031114259
  0
LWPOLYLINE
  5
298
100
AcDbEntity
  8
0
100
AcDbPolyline
 62
7
  6
CONTINUOUS
 90
14
 70
0
 10
-1.9895713578
 20
-52.7714055763
 10
-1.9674433669
 20
-52.7752510977
 10
-1.9430957912
 20
-52.7802510718
 10
-1.9169882885
 20
-52.7863684049
 10
-1.8893609403
 20
-52.7935700239
 10
-1.8603787974
 20
-52.8018249398
 10
-1.8303931316
 20
-52.8110360397
 10
-1.7996034186
 20
-52.8211298261
 10
-1.7681697906
 20
-52.8320336197
 10
-1.7363773269
 20
-52.8436267812
 10
-1.7043525563
 20
-52.8558330489
 10
-1.6722334586
 20
-52.8685714475
 10
-1.6402712955
 20
-52.8817097502
 10
-1.619281639
 20
-52.890575932
  0
LINE
  5
299
100
AcDbEntity
  8
0
100
AcDbLine
 62
250
  6
CONTINUOUS
 10
-2.4786995096
 20
-54.1232104481
 11
-2.4379800632
 21
-54.1339648191
  0
LWPOLYLINE
  5
29A
100
AcDbEntity
  8
0
100
AcDbPolyline
 62
250
  6
CONTINUOUS
 90
3
 70
0
 10
-2.4379800632
 20
-54.1339648191
 10
-2.2645694497
 20
-54.1815417473
 10
-2.2181021956
 20
-54.1946997496
  0
LINE
  5
29B
100
AcDbEntity
  8
0
100
AcDbLine
 62
250
  6
CONTINUOUS
 10
-2.2181021956
 20
-54.1946997496
 11
-2.0688353526
 21
-54.237904038
  0
LINE
  5
29C
100
AcDbEntity
  8
0
100
AcDbLine
 62
250
  6
CONTINUOUS
 10
-2.436326318
 20
-53.966693251
 11
-2.3534712579
 21
-53.990798913
  0
LWPOLYLINE
  5
29D
100
AcDbEntity
  8
0
100
AcDbPolyline
 62
250
  6
CONTINUOUS
 90
4
 70
0
 10
-2.3534712579
 20
-53.990798913
 10
-2.2663237203
 20
-54.0167824523
 10
-2.2211605605
 20
-54.0304685902
 10
-2.1743967913
 20
-54.0448799253
  0
LINE
  5
29E
100
AcDbEntity
  8
0
100
AcDbLine
 62
250
  6
CONTINUOUS
 10
-1.2441882115
 20
-53.0588053427
 11
-1.2407069516
 21
-53.0598515535
  0
LINE
  5
29F
100
AcDbEntity
  8
0
100
AcDbLine
 62
7
  6
CONTINUOUS
 10
-1.7154261618
 20
-52.8160808008
 11
-1.638088336
 21
-52.8403264124
  0
LWPOLYLINE
  5
2A0
100
AcDbEntity
  8
0
100
AcDbPolyline
 62
250
  6
CONTINUOUS
 90
10
 70
0
 10
-1.7435541878
 20
-54.8155390501
 10
-1.7532608643
 20
-54.8124912064
 10
-1.7646104383
 20
-54.8087027146
 10
-1.7773183399
 20
-54.804059226
 10
-1.7909157116
 20
-54.798324207
 10
-1.8051945606
 20
-54.7915806876
 10
-1.820245759
 20
-54.7842170463
 10
-1.835860309
 20
-54.7763376679
 10
-1.8515121038
 20
-54.7677831201
 10
-1.8668215814
 20
-54.758558784
  0
LWPOLYLINE
  5
2A1
100
AcDbEntity
  8
0
100
AcDbPolyline
 62
250
  6
CONTINUOUS
 90
3
 70
0
 10
-2.1743967913
 20
-54.0448799253
 10
-2.0757428151
 20
-54.076035558
 10
-2.0240149128
 20
-54.0927011701
  0
LWPOLYLINE
  5
2A2
100
AcDbEntity
  8
0
100
AcDbPolyline
 62
250
  6
CONTINUOUS
 90
10
 70
0
 10
-1.964423411
 20
-55.1829395883
 10
-1.9746481469
 20
-55.179182534
 10
-1.9864287506
 20
-55.1742299786
 10
-1.9995721496
 20
-55.1681630896
 10
-2.0138629398
 20
-55.1610812966
 10
-2.0290669074
 20
-55.1531006641
 10
-2.0449348661
 20
-55.1443519907
 10
-2.0612067533
 20
-55.1349786611
 10
-2.0776158937
 20
-55.1251342942
 10
-2.0938933607
 20
-55.1149802295
  0
LINE
  5
2A3
100
AcDbEntity
  8
0
100
AcDbLine
 62
7
  6
CONTINUOUS
 10
-1.2303895759
 20
-53.06456455
 11
-1.2096174201
 21
-53.072299205
  0
LINE
  5
2A4
100
AcDbEntity
  8
0
100
AcDbLine
 62
250
  6
CONTINUOUS
 10
-1.973864567
 20
-52.8392291329
 11
-1.9644233543
 21
-52.8427964796
  0
LINE
  5
2A5
100
AcDbEntity
  8
0
100
AcDbLine
 62
7
  6
CONTINUOUS
 10
-1.638088336
 20
-52.8403264124
 11
-1.5595141889
 21
-52.8702117386
  0
LINE
  5
2A6
100
AcDbEntity
  8
0
100
AcDbLine
 62
250
  6
CONTINUOUS
 10
-1.2303577722
 20
-53.064575991
 11
-1.2407069516
 21
-53.0598515535
  0
LWPOLYLINE
  5
2A7
100
AcDbEntity
  8
0
100
AcDbPolyline
 62
250
  6
CONTINUOUS
 90
3
 70
0
 10
-1.6192801416
 20
-52.890576571
 10
-1.6184907782
 20
-52.8908811189
 10
-1.612871449
 20
-52.8915282804
  0
LWPOLYLINE
  5
2A8
100
AcDbEntity
  8
0
100
AcDbPolyline
 62
250
  6
CONTINUOUS
 90
11
 70
0
 10
-1.7009752823
 20
-52.8551654104
 10
-1.720911981
 20
-52.8474197624
 10
-1.7417096528
 20
-52.8395372952
 10
-1.763365781
 20
-52.8315451837
 10
-1.7859297603
 20
-52.8235055272
 10
-1.8094838123
 20
-52.8154104329
 10
-1.8339618271
 20
-52.8073222754
 10
-1.8591845006
 20
-52.7994232101
 10
-1.8850881792
 20
-52.7918050095
 10
-1.9117299784
 20
-52.7844629293
 10
-1.9391030923
 20
-52.7774456442
  0
LINE
  5
2A9
100
AcDbEntity
  8
0
100
AcDbLine
 62
7
  6
CONTINUOUS
 10
-1.2096174201
 20
-53.072299205
 11
-1.1886905606
 21
-53.0806062344
  0
LWPOLYLINE
  5
2AA
100
AcDbEntity
  8
0
100
AcDbPolyline
 62
250
  6
CONTINUOUS
 90
3
 70
0
 10
-1.6635349983
 20
-52.8702184251
 10
-1.6818779004
 20
-52.8627705414
 10
-1.7009752823
 20
-52.8551654104
  0
LWPOLYLINE
  5
2AB
100
AcDbEntity
  8
0
100
AcDbPolyline
 62
250
  6
CONTINUOUS
 90
10
 70
0
 10
-0.7674278865
 20
-55.6888717773
 10
-0.7576212419
 20
-55.6929450619
 10
-0.7477288475
 20
-55.6981308232
 10
-0.7378369341
 20
-55.7043839066
 10
-0.7280316598
 20
-55.7116499092
 10
-0.7183985867
 20
-55.719865489
 10
-0.7090219182
 20
-55.7289588454
 10
-0.69998346
 20
-55.7388506052
 10
-0.6913619238
 20
-55.7494545853
 10
-0.683232457
 20
-55.7606783305
  0
LWPOLYLINE
  5
2AC
100
AcDbEntity
  8
0
100
AcDbPolyline
 62
250
  6
CONTINUOUS
 90
4
 70
0
 10
-1.6192801975
 20
-52.8905767013
 10
-1.6290280565
 20
-52.8846046136
 10
-1.6459129466
 20
-52.8774987641
 10
-1.6635349983
 20
-52.8702184251
  0
LWPOLYLINE
  5
2AD
100
AcDbEntity
  8
0
100
AcDbPolyline
 62
7
  6
CONTINUOUS
 90
7
 70
0
 10
-1.6192801975
 20
-52.8905767013
 10
-1.5579504023
 20
-52.9169360833
 10
-1.4975772926
 20
-52.9432655891
 10
-1.4390658967
 20
-52.969178224
 10
-1.3824182907
 20
-52.9946712564
 10
-1.3276355234
 20
-53.0197411878
 10
-1.2747189
 20
-53.0443825933
  0
LINE
  5
2AE
100
AcDbEntity
  8
0
100
AcDbLine
 62
250
  6
CONTINUOUS
 10
-1.5579504023
 20
-52.9169360833
 11
-1.5779482623
 21
-52.9066277409
  0
LINE
  5
2AF
100
AcDbEntity
  8
0
100
AcDbLine
 62
250
  6
CONTINUOUS
 10
-1.4975772926
 20
-52.9432655891
 11
-1.5115125449
 21
-52.9357134093
  0
LWPOLYLINE
  5
2B0
100
AcDbEntity
  8
0
100
AcDbPolyline
 62
7
  6
CONTINUOUS
 90
4
 70
0
 10
-1.5595141889
 20
-52.8702117386
 10
-1.4805158955
 20
-52.9054798264
 10
-1.4010813657
 20
-52.9462083224
 10
-1.3613172236
 20
-52.9685263439
  0
LINE
  5
2B1
100
AcDbEntity
  8
0
100
AcDbLine
 62
250
  6
CONTINUOUS
 10
-1.4390658967
 20
-52.969178224
 11
-1.4499620335
 21
-52.9630876121
  0
LINE
  5
2B2
100
AcDbEntity
  8
0
100
AcDbLine
 62
250
  6
CONTINUOUS
 10
-1.3824182907
 20
-52.9946712564
 11
-1.3908134144
 21
-52.9898221938
  0
LINE
  5
2B3
100
AcDbEntity
  8
0
100
AcDbLine
 62
250
  6
CONTINUOUS
 10
-1.3276355234
 20
-53.0197411878
 11
-1.3324850737
 21
-53.0166353611
  0
LWPOLYLINE
  5
2B4
100
AcDbEntity
  8
0
100
AcDbPolyline
 62
7
  6
CONTINUOUS
 90
6
 70
0
 10
0.0300105361
 20
-55.1146261909
 10
0.0127257696
 20
-55.1065087952
 10
-0.0530330086
 20
-55.0708964967
 10
-0.1187917868
 20
-55.0305722065
 10
-0.1842975615
 20
-54.9856910701
 10
-0.2492983024
 20
-54.9364257656
  0
LINE
  5
2B5
100
AcDbEntity
  8
0
100
AcDbLine
 62
7
  6
CONTINUOUS
 10
-1.2747189
 20
-53.0443825933
 11
-1.2439489718
 21
-53.0589192716
  0
LINE
  5
2B6
100
AcDbEntity
  8
0
100
AcDbLine
 62
250
  6
CONTINUOUS
 10
-1.2326755675
 20
-53.0636937622
 11
-1.2439489718
 21
-53.0589192716
  0
LWPOLYLINE
  5
2B7
100
AcDbEntity
  8
0
100
AcDbPolyline
 62
250
  6
CONTINUOUS
 90
7
 70
0
 10
-2.0275968612
 20
-52.8143757357
 10
-2.0192550331
 20
-52.818868421
 10
-2.0105869314
 20
-52.8232454747
 10
-2.0016312383
 20
-52.8274284776
 10
-1.9924945243
 20
-52.8314955071
 10
-1.983233474
 20
-52.8354529309
 10
-1.973864567
 20
-52.8392291329
  0
LWPOLYLINE
  5
2B8
100
AcDbEntity
  8
RACCORDO
100
AcDbPolyline
 62
7
  6
CONTINUOUS
 90
25
 70
0
 10
-43.7168767469
 20
-43.4951399644
 10
-43.7153090809
 20
-43.5498204038
 10
-43.710780128
 20
-43.6055305141
 10
-43.7032898883
 20
-43.6622702955
 10
-43.6927810899
 20
-43.7202908163
 10
-43.6793110046
 20
-43.7793410082
 10
-43.6630514481
 20
-43.8386676653
 10
-43.6439666878
 20
-43.898274329
 10
-43.6220924562
 20
-43.9581574579
 10
-43.5977077669
 20
-44.0175532218
 10
-43.5707804613
 20
-44.0764553777
 10
-43.5413426979
 20
-44.1348701687
 10
-43.5097699657
 20
-44.1920524936
 10
-43.4760349161
 20
-44.2479865648
 10
-43.4401648976
 20
-44.3026881701
 10
-43.4026174449
 20
-44.3554595713
 10
-43.3633710703
 20
-44.4062760429
 10
-43.3224472614
 20
-44.4551623105
 10
-43.2803680157
 20
-44.5014948127
 10
-43.2371185323
 20
-44.5452408361
 10
-43.1927136121
 20
-44.5864330942
 10
-43.1477196553
 20
-44.6245461652
 10
-43.102325462
 20
-44.6594049087
 10
-43.0563422321
 20
-44.6911844651
 10
-43.0097699657
 20
-44.7198848345
  0
LINE
  5
2B9
100
AcDbEntity
  8
RACCORDO
100
AcDbLine
 62
7
  6
CONTINUOUS
 10
-43.7168767469
 20
91.3857497618
 11
-43.7168767469
 21
-43.4951399644
  0
LINE
  5
2BA
100
AcDbEntity
  8
0
100
AcDbLine
 62
250
  6
CONTINUOUS
 10
-0.1699455447
 20
52.5405124238
 11
-0.1763110401
 21
52.5351959919
  0
LWPOLYLINE
  5
2BB
100
AcDbEntity
  8
0
100
AcDbPolyline
 62
250
  6
CONTINUOUS
 90
8
 70
0
 10
-1.8668215814
 20
55.0665745558
 10
-1.8955281262
 20
55.0429089755
 10
-1.9227686523
 20
55.0170615223
 10
-1.9484966452
 20
54.9890765169
 10
-1.9726679925
 20
54.9590021836
 10
-1.9952416515
 20
54.9268898458
 10
-2.0161795889
 20
54.8927936745
 10
-2.0354461111
 20
54.8567716412
  0
LWPOLYLINE
  5
2BC
100
AcDbEntity
  8
0
100
AcDbPolyline
 62
250
  6
CONTINUOUS
 90
9
 70
0
 10
-1.7682564683
 20
55.072898456
 10
-1.7961449236
 20
55.0499073798
 10
-1.8226096519
 20
55.024796254
 10
-1.8476053909
 20
54.9976080255
 10
-1.871089391
 20
54.9683891935
 10
-1.8930214878
 20
54.9371897308
 10
-1.9133641706
 20
54.9040629979
 10
-1.9320826476
 20
54.8690656513
 10
-1.9491449052
 20
54.8322575462
  0
LINE
  5
2BD
100
AcDbEntity
  8
0
100
AcDbLine
 62
250
  6
CONTINUOUS
 10
-0.2105647793
 20
52.4674509713
 11
-0.1818594916
 21
52.4911154391
  0
LWPOLYLINE
  5
2BE
100
AcDbEntity
  8
0
100
AcDbPolyline
 62
250
  6
CONTINUOUS
 90
4
 70
0
 10
0.0564940699
 20
52.8463393796
 10
0.0486718392
 20
52.841186967
 10
0.0349254714
 20
52.8297361958
 10
0.0226702219
 20
52.8169342343
  0
LINE
  5
2BF
100
AcDbEntity
  8
0
100
AcDbLine
 62
250
  6
CONTINUOUS
 10
0.8156927821
 20
50.2188354263
 11
0.9421203244
 21
50.3017078946
  0
LWPOLYLINE
  5
2C0
100
AcDbEntity
  8
0
100
AcDbPolyline
 62
7
  6
CONTINUOUS
 90
7
 70
0
 10
0.9192461727
 20
50.2786258562
 10
1.052451769
 20
50.3652404348
 10
1.1775198147
 20
50.4668135684
 10
1.2935877838
 20
50.5831410733
 10
1.3999022211
 20
50.7140130082
 10
1.4956565594
 20
50.8590224039
 10
1.4984241889
 20
50.8642199154
  0
LWPOLYLINE
  5
2C1
100
AcDbEntity
  8
0
100
AcDbPolyline
 62
250
  6
CONTINUOUS
 90
10
 70
0
 10
-0.7674278863
 20
52.4934398974
 10
-0.7766120444
 20
52.4875755189
 10
-0.7855501112
 20
52.4807889378
 10
-0.7941924812
 20
52.4731201246
 10
-0.8024918264
 20
52.464582464
 10
-0.8103918651
 20
52.455231818
 10
-0.817823611
 20
52.4451878395
 10
-0.8247222217
 20
52.4345355316
 10
-0.83102888
 20
52.4233073794
 10
-0.8366794092
 20
52.4115654055
  0
LWPOLYLINE
  5
2C2
100
AcDbEntity
  8
0
100
AcDbPolyline
 62
250
  6
CONTINUOUS
 90
7
 70
0
 10
-0.610109702
 20
51.7837361844
 10
-0.6175186098
 20
51.7790318012
 10
-0.6246191419
 20
51.7736599045
 10
-0.6313755497
 20
51.7676482055
 10
-0.6377538725
 20
51.7610276202
 10
-0.643722106
 20
51.7538321065
 10
-0.6492503605
 20
51.7460984874
  0
LWPOLYLINE
  5
2C3
100
AcDbEntity
  8
0
100
AcDbPolyline
 62
250
  6
CONTINUOUS
 90
10
 70
0
 10
-1.1599584747
 20
52.7200821399
 10
-1.1692673636
 20
52.7143363559
 10
-1.1786579754
 20
52.7078037782
 10
-1.1880589899
 20
52.7005332373
 10
-1.1973999869
 20
52.6925782809
 10
-1.2066086294
 20
52.6839995922
 10
-1.2156114107
 20
52.6748652488
 10
-1.2243387275
 20
52.6652460072
 10
-1.2327251987
 20
52.6552140712
 10
-1.2407069522
 20
52.6448458444
  0
LWPOLYLINE
  5
2C4
100
AcDbEntity
  8
0
100
AcDbPolyline
 62
250
  6
CONTINUOUS
 90
7
 70
0
 10
-2.0895069341
 20
52.5892298169
 10
-2.0803618792
 20
52.5947404943
 10
-2.071324823
 20
52.6000106992
 10
-2.0624427082
 20
52.6050142219
 10
-2.053761127
 20
52.609726559
 10
-2.0453240976
 20
52.6141250184
 10
-2.0371738549
 20
52.618188811
  0
LWPOLYLINE
  5
2C5
100
AcDbEntity
  8
ASSI
100
AcDbPolyline
 62
7
  6
CONTINUOUS
 90
19
 70
0
 10
0.7639123583
 20
49.9002808288
 10
0.7877892283
 20
49.9143895295
 10
0.8813021207
 20
49.9760103255
 10
0.9699899803
 20
50.0449496144
 10
1.0538228465
 20
50.1212528397
 10
1.1328306798
 20
50.2048745579
 10
1.2065239047
 20
50.2952966036
 10
1.2748695208
 20
50.3925612023
 10
1.3379005284
 20
50.4966261285
 10
1.3952263533
 20
50.6068465392
 10
1.4468115697
 20
50.7232606561
 10
1.4926916034
 20
50.8458302575
 10
1.5325821565
 20
50.9737958355
 10
1.5664460384
 20
51.1071908957
 10
1.5943204397
 20
51.2459819326
 10
1.6160326357
 20
51.3893089214
 10
1.6315250513
 20
51.5368851871
 10
1.6408552615
 20
51.6889974047
 10
1.6440232663
 20
51.8456455742
  0
LINE
  5
2C6
100
AcDbEntity
  8
0
100
AcDbLine
 62
7
  6
CONTINUOUS
 10
26.0980481255
 20
69.3368680885
 11
26.0273374474
 21
69.2960406292
  0
LINE
  5
2C7
100
AcDbEntity
  8
0
100
AcDbLine
 62
250
  6
CONTINUOUS
 10
-1.9644233543
 20
52.9993720454
 11
-0.9277190542
 21
53.5979521153
  0
LINE
  5
2C8
100
AcDbEntity
  8
0
100
AcDbLine
 62
250
  6
CONTINUOUS
 10
-1.6249683386
 20
52.5770789204
 11
-0.5882640385
 21
53.1756589903
  0
LINE
  5
2C9
100
AcDbEntity
  8
0
100
AcDbLine
 62
250
  6
CONTINUOUS
 10
-0.3436709399
 20
53.2654299356
 11
-1.2441539038
 21
52.745502358
  0
LINE
  5
2CA
100
AcDbEntity
  8
0
100
AcDbLine
 62
250
  6
CONTINUOUS
 10
-0.2492983024
 20
53.2458859094
 11
-1.1599584742
 21
52.7200821395
  0
LINE
  5
2CB
100
AcDbEntity
  8
0
100
AcDbLine
 62
250
  6
CONTINUOUS
 10
-0.7674278865
 20
52.4934398977
 11
0.0428681886
 21
52.9612946961
  0
LINE
  5
2CC
100
AcDbEntity
  8
0
100
AcDbLine
 62
7
  6
CONTINUOUS
 10
15.6765613834
 20
61.9459243567
 11
15.827050046
 21
62.0328146244
  0
LINE
  5
2CD
100
AcDbEntity
  8
0
100
AcDbLine
 62
7
  6
CONTINUOUS
 10
16.666023555
 20
62.5172274137
 11
16.8170002377
 21
62.6043994581
  0
LINE
  5
2CE
100
AcDbEntity
  8
0
100
AcDbLine
 62
7
  6
CONTINUOUS
 10
17.6559906512
 20
63.0888220079
 11
17.8069501243
 21
63.1759841156
  0
LINE
  5
2CF
100
AcDbEntity
  8
0
100
AcDbLine
 62
7
  6
CONTINUOUS
 10
18.6464391072
 20
63.6606945331
 11
18.7968985995
 21
63.7475679582
  0
LINE
  5
2D0
100
AcDbEntity
  8
0
100
AcDbLine
 62
7
  6
CONTINUOUS
 10
19.6363664113
 20
64.2322661518
 11
19.7868482503
 21
64.3191524797
  0
LINE
  5
2D1
100
AcDbEntity
  8
0
100
AcDbLine
 62
7
  6
CONTINUOUS
 10
20.6258240179
 20
64.803566573
 11
20.7767985045
 21
64.8907373495
  0
LINE
  5
2D2
100
AcDbEntity
  8
0
100
AcDbLine
 62
7
  6
CONTINUOUS
 10
21.6157863846
 20
65.3751584364
 11
21.7667477969
 21
65.4623216639
  0
LINE
  5
2D3
100
AcDbEntity
  8
0
100
AcDbLine
 62
7
  6
CONTINUOUS
 10
22.6062295677
 20
65.9470279172
 11
22.7566964662
 21
66.0339056186
  0
LINE
  5
2D4
100
AcDbEntity
  8
0
100
AcDbLine
 62
7
  6
CONTINUOUS
 10
23.5961717598
 20
66.518608132
 11
23.7466465608
 21
66.6054903962
  0
LINE
  5
2D5
100
AcDbEntity
  8
0
100
AcDbLine
 62
7
  6
CONTINUOUS
 10
24.5856246643
 20
67.0899058383
 11
24.736596602
 21
67.177075143
  0
LINE
  5
2D6
100
AcDbEntity
  8
0
100
AcDbLine
 62
250
  6
CONTINUOUS
 10
-0.683232457
 20
52.4216333446
 11
0.030018903
 21
52.8334557407
  0
LINE
  5
2D7
100
AcDbEntity
  8
0
100
AcDbLine
 62
250
  6
CONTINUOUS
 10
-0.6811624113
 20
52.0321372066
 11
-0.3055055945
 21
52.2490367446
  0
LINE
  5
2D8
100
AcDbEntity
  8
0
100
AcDbLine
 62
7
  6
CONTINUOUS
 10
0.8156927821
 20
50.2188354263
 11
0.9192461727
 21
50.2786258562
  0
LINE
  5
2D9
100
AcDbEntity
  8
0
100
AcDbLine
 62
7
  6
CONTINUOUS
 10
-0.5577348081
 20
51.8021868049
 11
-0.5576120603
 21
51.802257621
  0
LWPOLYLINE
  5
2DA
100
AcDbEntity
  8
0
100
AcDbPolyline
 62
7
  6
CONTINUOUS
 90
9
 70
0
 10
19.2967809161
 20
63.1990223697
 10
19.2826645897
 20
63.1911897671
 10
19.2086504865
 20
63.1594446573
 10
19.1285535633
 20
63.1397835255
 10
19.0430055022
 20
63.1323906725
 10
18.9526749789
 20
63.1373671413
 10
18.8582631249
 20
63.1547300312
 10
18.7604987692
 20
63.184412382
 10
18.670019792
 20
63.2221411468
  0
LWPOLYLINE
  5
2DB
100
AcDbEntity
  8
0
100
AcDbPolyline
 62
7
  6
CONTINUOUS
 90
9
 70
0
 10
23.2565787807
 20
65.4853600331
 10
23.2422853663
 20
65.4774331322
 10
23.1682553592
 20
65.4457179833
 10
23.0881440709
 20
65.4260873575
 10
23.0025832799
 20
65.4187253485
 10
22.912241747
 20
65.4237327901
 10
22.8178206774
 20
65.4411265719
 10
22.7200489614
 20
65.4708395242
 10
22.6298197232
 20
65.5084891677
  0
LWPOLYLINE
  5
2DC
100
AcDbEntity
  8
0
100
AcDbPolyline
 62
7
  6
CONTINUOUS
 90
9
 70
0
 10
18.3068324311
 20
62.6274385368
 10
18.2748667139
 20
62.6105743511
 10
18.1992792818
 20
62.5818200134
 10
18.1177628052
 20
62.5652033221
 10
18.0309585985
 20
62.5608879192
 10
17.9395438611
 20
62.5689539647
 10
17.8442270814
 20
62.5893975925
 10
17.7457432289
 20
62.6221309371
 10
17.6805698559
 20
62.6511032169
  0
LWPOLYLINE
  5
2DD
100
AcDbEntity
  8
0
100
AcDbPolyline
 62
7
  6
CONTINUOUS
 90
37
 70
0
 10
0.8156927821
 20
50.2188354263
 10
0.6781126948
 20
50.1485718412
 10
0.5321741289
 20
50.0920460599
 10
0.3784431187
 20
50.0498367607
 10
0.2174210449
 20
50.0224314747
 10
0.0498234736
 20
50.010279872
 10
-0.1234524596
 20
50.0137079159
 10
-0.302015027
 20
50.0329561106
 10
-0.485054476
 20
50.0681907513
 10
-0.6710299924
 20
50.1192375327
 10
-0.8592828909
 20
50.1859396646
 10
-1.0491730343
 20
50.2681135798
 10
-1.2390966902
 20
50.3650215381
 10
-1.428136213
 20
50.4760374377
 10
-1.6158302082
 20
50.6007518343
 10
-1.8011916776
 20
50.7383804717
 10
-1.9834271672
 20
50.8881745815
 10
-2.1619630432
 20
51.049516752
 10
-2.3361111156
 20
51.2216623397
 10
-2.5051786972
 20
51.403808383
 10
-2.6685571968
 20
51.5951907315
 10
-2.8256759905
 20
51.7950544117
 10
-2.9759198619
 20
52.0025467174
 10
-3.1187089714
 20
52.2168055908
 10
-3.253534869
 20
52.4370272915
 10
-3.3798561912
 20
52.662307886
 10
-3.4971617248
 20
52.8917277957
 10
-3.6050120326
 20
53.1244461483
 10
-3.7029536679
 20
53.3595362928
 10
-3.7905557604
 20
53.5960389836
 10
-3.8674493276
 20
53.8330733777
 10
-3.9332795418
 20
54.0697248541
 10
-3.987705925
 20
54.305011006
 10
-4.0304357017
 20
54.5379888751
 10
-4.0612140791
 20
54.7677436635
 10
-4.0798169976
 20
54.9933567022
 10
-4.0860542879
 20
55.2139109697
  0
LWPOLYLINE
  5
2DE
100
AcDbEntity
  8
0
100
AcDbPolyline
 62
250
  6
CONTINUOUS
 90
12
 70
0
 10
-1.2577904598
 20
-51.1939508161
 10
-1.3693918558
 20
-51.1337320755
 10
-1.5535877007
 20
-51.0483272688
 10
-1.736202645
 20
-50.9777006162
 10
-1.9164547058
 20
-50.9221545516
 10
-2.0935720136
 20
-50.8819269335
 10
-2.2667961186
 20
-50.8571900235
 10
-2.4353852417
 20
-50.8480497478
 10
-2.5986174663
 20
-50.8545452437
 10
-2.755793823
 20
-50.8766486983
 10
-2.9062412737
 20
-50.9142654698
 10
-3.0493155591
 20
-50.9672344789
  0
LWPOLYLINE
  5
2DF
100
AcDbEntity
  8
0
100
AcDbPolyline
 62
7
  6
CONTINUOUS
 90
9
 70
0
 10
-1.3613172236
 20
-52.9685263439
 10
-1.3212226896
 20
-52.99231958
 10
-1.2417883117
 20
-53.0433237065
 10
-1.162790645
 20
-53.0992841503
 10
-1.0842172765
 20
-53.160137463
 10
-1.0068794114
 20
-53.2252034068
 10
-0.9310474514
 20
-53.294255236
 10
-0.8564509947
 20
-53.3675196964
 10
-0.772509785
 20
-53.4561441865
  0
LINE
  5
2E0
100
AcDbEntity
  8
0
100
AcDbLine
 62
7
  6
CONTINUOUS
 10
-1.257603594
 20
-53.4727086427
 11
-1.3996220179
 21
-53.3681131811
  0
LWPOLYLINE
  5
2E1
100
AcDbEntity
  8
0
100
AcDbPolyline
 62
7
  6
CONTINUOUS
 90
3
 70
0
 10
-1.123531949
 20
-53.5727735925
 10
-1.1673395219
 20
-53.5399219994
 10
-1.257603594
 20
-53.4727086427
  0
LWPOLYLINE
  5
2E2
100
AcDbEntity
  8
0
100
AcDbPolyline
 62
250
  6
CONTINUOUS
 90
3
 70
0
 10
-2.0938933506
 20
-52.934463417
 10
-2.0700410401
 20
-52.9525114429
 10
-2.0460127715
 20
-52.970972214
  0
LWPOLYLINE
  5
2E3
100
AcDbEntity
  8
0
100
AcDbPolyline
 62
250
  6
CONTINUOUS
 90
10
 70
0
 10
-1.2407069516
 20
-55.5374658302
 10
-1.1961744267
 20
-55.5717634448
 10
-1.1513725644
 20
-55.6040831788
 10
-1.1063779886
 20
-55.6343697564
 10
-1.0612676527
 20
-55.662571379
 10
-1.0161187081
 20
-55.6886398137
 10
-0.9710083722
 20
-55.7125304764
 10
-0.9260137964
 20
-55.7342025071
 10
-0.8812119341
 20
-55.7536188406
 10
-0.8366794092
 20
-55.7707462695
  0
LWPOLYLINE
  5
2E4
100
AcDbEntity
  8
0
100
AcDbPolyline
 62
250
  6
CONTINUOUS
 90
10
 70
0
 10
-1.1599584742
 20
-55.4622295356
 10
-1.116693161
 20
-55.4955511817
 10
-1.0731661747
 20
-55.5269512296
 10
-1.0294519587
 20
-55.5563759763
 10
-0.9856252765
 20
-55.5837750972
 10
-0.9417610843
 20
-55.6091017321
 10
-0.8979344022
 20
-55.6323125652
 10
-0.8542201861
 20
-55.6533678994
 10
-0.8106931997
 20
-55.6722317243
 10
-0.7674278865
 20
-55.6888717773
  0
LWPOLYLINE
  5
2E5
100
AcDbEntity
  8
0
100
AcDbPolyline
 62
250
  6
CONTINUOUS
 90
5
 70
0
 10
-2.0460127715
 20
-52.970972214
 10
-1.9973214598
 20
-53.0090151814
 10
-1.9725797486
 20
-53.0286021262
 10
-1.9472723287
 20
-53.0490217625
 10
-1.9212341941
 20
-53.0704172136
  0
LWPOLYLINE
  5
2E6
100
AcDbEntity
  8
0
100
AcDbPolyline
 62
250
  6
CONTINUOUS
 90
10
 70
0
 10
-1.9644233543
 20
-52.8427964796
 10
-1.9412209004
 20
-52.8611187511
 10
-1.9177796206
 20
-52.8798921232
 10
-1.8940995148
 20
-52.8991165957
 10
-1.8703083367
 20
-52.9186458663
 10
-1.8462783326
 20
-52.9386262374
 10
-1.8216262419
 20
-52.959496616
 10
-1.796224311
 20
-52.9814033046
 10
-1.7702002935
 20
-53.0042000008
 10
-1.7435541894
 20
-53.0278867045
  0
LWPOLYLINE
  5
2E7
100
AcDbEntity
  8
0
100
AcDbPolyline
 62
7
  6
CONTINUOUS
 90
8
 70
0
 10
-1.3996220179
 20
-53.3681131811
 10
-1.4310663254
 20
-53.3428053519
 10
-1.4598877755
 20
-53.314577952
 10
-1.4857027011
 20
-53.2840033432
 10
-1.5081988799
 20
-53.2517130141
 10
-1.5270697335
 20
-53.2182820126
 10
-1.5420039359
 20
-53.1842154411
 10
-1.5480166233
 20
-53.1652079946
  0
LWPOLYLINE
  5
2E8
100
AcDbEntity
  8
0
100
AcDbPolyline
 62
7
  6
CONTINUOUS
 90
10
 70
0
 10
-1.123531949
 20
-53.5727735925
 10
-1.1123716328
 20
-53.5817845655
 10
-1.1019201002
 20
-53.5915915695
 10
-1.0922478302
 20
-53.6020890843
 10
-1.0834141339
 20
-53.6131546724
 10
-1.0754797898
 20
-53.6246920152
 10
-1.0685114887
 20
-53.6366343868
 10
-1.0625626572
 20
-53.6488872197
 10
-1.0576683931
 20
-53.6613266528
 10
-1.0538615904
 20
-53.6738441332
  0
LINE
  5
2E9
100
AcDbEntity
  8
0
100
AcDbLine
 62
250
  6
CONTINUOUS
 10
-1.9212341941
 20
-53.0704172136
 11
-1.8668215814
 21
-53.1157371193
  0
LWPOLYLINE
  5
2EA
100
AcDbEntity
  8
0
100
AcDbPolyline
 62
7
  6
CONTINUOUS
 90
4
 70
0
 10
-1.996245862
 20
-55.6993581281
 10
-1.9722160352
 20
-55.7236282726
 10
-1.9608208412
 20
-55.7354089365
 10
-1.9498209782
 20
-55.7468856316
  0
LWPOLYLINE
  5
2EB
100
AcDbEntity
  8
0
100
AcDbPolyline
 62
250
  6
CONTINUOUS
 90
22
 70
0
 10
-1.9644233543
 20
52.9993720454
 10
-1.9733420216
 20
52.9874703648
 10
-1.9822201844
 20
52.974990156
 10
-1.9910263236
 20
52.9619189409
 10
-1.999741966
 20
52.9482666583
 10
-2.0083207376
 20
52.9340047037
 10
-2.0166791709
 20
52.9190611365
 10
-2.0247880531
 20
52.903432141
 10
-2.0325866392
 20
52.8871093936
 10
-2.039920408
 20
52.870009614
 10
-2.0467602251
 20
52.8521325899
 10
-2.0530110332
 20
52.8334867074
 10
-2.0583835471
 20
52.8140017122
 10
-2.06285364
 20
52.7936242533
 10
-2.0662717618
 20
52.7724665921
 10
-2.0681298461
 20
52.7507226059
 10
-2.0683647079
 20
52.7283762163
 10
-2.0668589566
 20
52.705612688
 10
-2.0630335326
 20
52.6829582143
 10
-2.0566689646
 20
52.6606890444
 10
-2.0478952127
 20
52.6388363588
 10
-2.036690641
 20
52.6175931824
  0
LWPOLYLINE
  5
2EC
100
AcDbEntity
  8
0
100
AcDbPolyline
 62
250
  6
CONTINUOUS
 90
11
 70
0
 10
-2.0648130157
 20
55.415808519
 10
-2.0672762119
 20
55.4125507404
 10
-2.0685196213
 20
55.4076181508
 10
-2.0677029344
 20
55.4025307668
 10
-2.0649702333
 20
55.3974545805
 10
-2.0609684092
 20
55.3922618334
 10
-2.0558950424
 20
55.387120227
 10
-2.0497736127
 20
55.3822006029
 10
-2.0429544302
 20
55.3773162493
 10
-2.0355526274
 20
55.372517853
 10
-2.0275968612
 20
55.3679359393
  0
LWPOLYLINE
  5
2ED
100
AcDbEntity
  8
0
100
AcDbPolyline
 62
250
  6
CONTINUOUS
 90
5
 70
0
 10
-0.5322902765
 20
51.7791663188
 10
-0.51474775
 20
51.798741101
 10
-0.4983412798
 20
51.8185530168
 10
-0.4830343125
 20
51.8385509476
 10
-0.4688429012
 20
51.8587623689
  0
LWPOLYLINE
  5
2EE
100
AcDbEntity
  8
0
100
AcDbPolyline
 62
250
  6
CONTINUOUS
 90
7
 70
0
 10
-0.1763110401
 20
52.5351959919
 10
-0.1838243893
 20
52.5276005746
 10
-0.1905412016
 20
52.5191937287
 10
-0.1964084426
 20
52.5100394764
 10
-0.2013787604
 20
52.5002105408
 10
-0.2054138487
 20
52.4897831288
 10
-0.2084836484
 20
52.4788354788
  0
LWPOLYLINE
  5
2EF
100
AcDbEntity
  8
0
100
AcDbPolyline
 62
250
  6
CONTINUOUS
 90
3
 70
0
 10
-0.1818594916
 20
52.4911154391
 10
-0.1546196306
 20
52.5169620514
 10
-0.1288917843
 20
52.5449466032
  0
LWPOLYLINE
  5
2F0
100
AcDbEntity
  8
0
100
AcDbPolyline
 62
7
  6
CONTINUOUS
 90
4
 70
0
 10
11.688677477
 20
63.3964155081
 10
11.7230210342
 20
63.4289545602
 10
11.8118519326
 20
63.4947645994
 10
11.8519627564
 20
63.5193541983
  0
LWPOLYLINE
  5
2F1
100
AcDbEntity
  8
0
100
AcDbPolyline
 62
7
  6
CONTINUOUS
 90
3
 70
0
 10
19.4101280182
 20
63.2897864885
 10
19.3500054717
 20
63.2347525468
 10
19.2967809161
 20
63.1990223697
  0
LWPOLYLINE
  5
2F2
100
AcDbEntity
  8
0
100
AcDbPolyline
 62
250
  6
CONTINUOUS
 90
11
 70
0
 10
0.9421203244
 20
50.3017078946
 10
1.0595382692
 20
50.3991147639
 10
1.1673473462
 20
50.510583245
 10
1.2650859225
 20
50.6356360668
 10
1.3523354213
 20
50.7737377107
 10
1.4287221799
 20
50.9242967309
 10
1.4939190913
 20
51.0866683568
 10
1.5476470022
 20
51.2601573173
 10
1.5896758599
 20
51.4440207464
 10
1.6198256925
 20
51.6374713302
 10
1.6379673898
 20
51.8396806687
  0
LWPOLYLINE
  5
2F3
100
AcDbEntity
  8
ASSI
100
AcDbPolyline
 62
7
  6
CONTINUOUS
 90
24
 70
0
 10
-0.6165641828
 20
-51.6696590737
 10
-0.7497537661
 20
-51.5571087551
 10
-0.8842167325
 20
-51.4508988112
 10
-1.0199452238
 20
-51.3509901152
 10
-1.1560981925
 20
-51.2580017558
 10
-1.2926782742
 20
-51.1719767039
 10
-1.4296828334
 20
-51.0928719885
 10
-1.5662629151
 20
-51.0211777855
 10
-1.7024158838
 20
-50.9569401095
 10
-1.8381443751
 20
-50.9001129459
 10
-1.9726073414
 20
-50.8510484267
 10
-2.1057969248
 20
-50.809794753
 10
-2.2377209832
 20
-50.7763037237
 10
-2.3675620435
 20
-50.7507828674
 10
-2.4953071716
 20
-50.7332816739
 10
-2.6209693016
 20
-50.7237506534
 10
-2.7437697626
 20
-50.7222488653
 10
-2.8636907855
 20
-50.7288261661
 10
-2.9807501393
 20
-50.7434326993
 10
-3.0942224607
 20
-50.7659779548
 10
-3.2040854766
 20
-50.7965112273
 10
-3.31036146
 20
-50.8349832221
 10
-3.4123918672
 20
-50.8811555459
 10
-3.4862734659
 20
-50.9209673121
  0
LWPOLYLINE
  5
2F4
100
AcDbEntity
  8
0
100
AcDbPolyline
 62
7
  6
CONTINUOUS
 90
4
 70
0
 10
-0.7261172685
 20
-53.5036379196
 10
-0.7501450723
 20
-53.4793698857
 10
-0.7615281287
 20
-53.4676018858
 10
-0.772509785
 20
-53.4561441865
  0
LWPOLYLINE
  5
2F5
100
AcDbEntity
  8
0
100
AcDbPolyline
 62
250
  6
CONTINUOUS
 90
13
 70
0
 10
-2.7679687001
 20
-53.9563598389
 10
-2.750915125
 20
-53.9751133539
 10
-2.732113526
 20
-53.9932509067
 10
-2.7115801533
 20
-54.0107371178
 10
-2.6890886363
 20
-54.0276763905
 10
-2.6648958246
 20
-54.0438937285
 10
-2.6397519703
 20
-54.0589567752
 10
-2.6136653328
 20
-54.0727679129
 10
-2.5866750223
 20
-54.0854117915
 10
-2.5595860686
 20
-54.0967706749
 10
-2.5326799631
 20
-54.1068244003
 10
-2.505712734
 20
-54.1156311631
 10
-2.4786995096
 20
-54.1232104481
  0
LWPOLYLINE
  5
2F6
100
AcDbEntity
  8
0
100
AcDbPolyline
 62
250
  6
CONTINUOUS
 90
10
 70
0
 10
-2.0240149128
 20
-54.0927011701
 10
-2.0150509069
 20
-54.1027421675
 10
-2.0065191706
 20
-54.1134777831
 10
-1.9984940829
 20
-54.124814368
 10
-1.9910453029
 20
-54.1366535403
 10
-1.9842381047
 20
-54.1488915759
 10
-1.9781325331
 20
-54.1614201654
 10
-1.972781717
 20
-54.1741294564
 10
-1.9682316941
 20
-54.1869091516
 10
-1.9645217622
 20
-54.1996479032
  0
LWPOLYLINE
  5
2F7
100
AcDbEntity
  8
0
100
AcDbPolyline
 62
7
  6
CONTINUOUS
 90
8
 70
0
 10
-2.089506933
 20
-55.5930818599
 10
-2.0755110288
 20
-55.6108936679
 10
-2.0617312643
 20
-55.6278061266
 10
-2.0481676396
 20
-55.643819236
 10
-2.0347871468
 20
-55.6588360806
 10
-2.0216227939
 20
-55.672953576
 10
-2.0087736039
 20
-55.6864624683
 10
-1.996245862
 20
-55.6993581281
  0
LWPOLYLINE
  5
2F8
100
AcDbEntity
  8
0
100
AcDbPolyline
 62
7
  6
CONTINUOUS
 90
8
 70
0
 10
-0.6328541746
 20
-53.6099162984
 10
-0.6468500788
 20
-53.5921044905
 10
-0.6606298433
 20
-53.5751920318
 10
-0.674193468
 20
-53.5591789224
 10
-0.6875739607
 20
-53.5441620777
 10
-0.7007383137
 20
-53.5300445823
 10
-0.7135875037
 20
-53.5165356901
 10
-0.7261172685
 20
-53.5036379196
  0
LWPOLYLINE
  5
2F9
100
AcDbEntity
  8
0
100
AcDbPolyline
 62
250
  6
CONTINUOUS
 90
5
 70
0
 10
-0.3755004062
 20
-56.1081053859
 10
-0.3752849111
 20
-56.1083869993
 10
-0.3731506122
 20
-56.1096411598
 10
-0.3687775521
 20
-56.1117961557
 10
-0.3622373993
 20
-56.1148166694
  0
LWPOLYLINE
  5
2FA
100
AcDbEntity
  8
0
100
AcDbPolyline
 62
250
  6
CONTINUOUS
 90
19
 70
0
 10
-2.036690641
 20
-55.5647184927
 10
-2.0230578735
 20
-55.5837519079
 10
-2.0068248591
 20
-55.6010394032
 10
-1.9880664531
 20
-55.6164233255
 10
-1.9665959254
 20
-55.6298461186
 10
-1.9427775868
 20
-55.6410148638
 10
-1.9175615254
 20
-55.6495563395
 10
-1.8909198257
 20
-55.655350471
 10
-1.8631337474
 20
-55.6585311998
 10
-1.8356280586
 20
-55.6594074543
 10
-1.8087346259
 20
-55.6581549423
 10
-1.7822409788
 20
-55.65499727
 10
-1.756715614
 20
-55.6504566645
 10
-1.7323377364
 20
-55.644780779
 10
-1.7089251563
 20
-55.6380895167
 10
-1.6864956078
 20
-55.6306596016
 10
-1.6650477685
 20
-55.6226473309
 10
-1.6445479894
 20
-55.6141334879
 10
-1.6249683386
 20
-55.6052327547
  0
LINE
  5
2FB
100
AcDbEntity
  8
0
100
AcDbLine
 62
250
  6
CONTINUOUS
 10
-1.7435541894
 20
53.366772622
 11
-1.7886024155
 21
53.2901671418
  0
LINE
  5
2FC
100
AcDbEntity
  8
0
100
AcDbLine
 62
250
  6
CONTINUOUS
 10
-1.7886024155
 20
53.2901671418
 11
-1.8354256225
 21
53.2115611644
  0
LINE
  5
2FD
100
AcDbEntity
  8
0
100
AcDbLine
 62
250
  6
CONTINUOUS
 10
-1.8354256225
 20
53.2115611644
 11
-1.8843828789
 21
53.1303592489
  0
LWPOLYLINE
  5
2FE
100
AcDbEntity
  8
0
100
AcDbPolyline
 62
250
  6
CONTINUOUS
 90
3
 70
0
 10
-1.8843828789
 20
53.1303592489
 10
-1.9369104596
 20
53.0441796318
 10
-1.9644233543
 20
52.9993720454
  0
LWPOLYLINE
  5
2FF
100
AcDbEntity
  8
0
100
AcDbPolyline
 62
250
  6
CONTINUOUS
 90
4
 70
0
 10
-0.0821454819
 20
52.6071345057
 10
-0.0612069753
 20
52.6412314977
 10
-0.0419402457
 20
52.6772538939
 10
-0.0243782446
 20
52.715140086
  0
LWPOLYLINE
  5
300
100
AcDbEntity
  8
0
100
AcDbPolyline
 62
250
  6
CONTINUOUS
 90
10
 70
0
 10
-1.6249683386
 20
52.5770789204
 10
-1.6281114737
 20
52.5720262087
 10
-1.630144881
 20
52.5648529174
 10
-1.6310352351
 20
52.555676609
 10
-1.6307679441
 20
52.5446476733
 10
-1.6293473885
 20
52.5319468627
 10
-1.6267968498
 20
52.5177823301
 10
-1.6231581285
 20
52.5023862169
 10
-1.6184908594
 20
52.4860108488
 10
-1.612871534
 20
52.4689246008
  0
LINE
  5
301
100
AcDbEntity
  8
0
100
AcDbLine
 62
250
  6
CONTINUOUS
 10
-1.8668215814
 20
53.4237528911
 11
-1.9371968395
 21
53.3119245752
  0
LWPOLYLINE
  5
302
100
AcDbEntity
  8
0
100
AcDbPolyline
 62
250
  6
CONTINUOUS
 90
10
 70
0
 10
-1.9644233543
 20
55.3395151955
 10
-1.9746480803
 20
55.3233528963
 10
-1.9864286715
 20
55.3081885776
 10
-1.9995720581
 20
55.294270767
 10
-2.0138628358
 20
55.2818275631
 10
-2.0290667946
 20
55.2710628983
 10
-2.0449347576
 20
55.262153196
 10
-2.0612066656
 20
55.2552444783
 10
-2.0776158396
 20
55.2504499728
 10
-2.0938933506
 20
55.247848258
  0
LWPOLYLINE
  5
303
100
AcDbEntity
  8
0
100
AcDbPolyline
 62
250
  6
CONTINUOUS
 90
16
 70
0
 10
-2.0938933506
 20
53.0673314492
 10
-2.1036218638
 20
53.0520205249
 10
-2.1131612802
 20
53.0358801535
 10
-2.1224978766
 20
53.0188998701
 10
-2.1316750522
 20
53.001106023
 10
-2.1406204403
 20
52.9824517609
 10
-2.1491426279
 20
52.962815826
 10
-2.1572599566
 20
52.9421900496
 10
-2.1649137587
 20
52.9205610934
 10
-2.1717887733
 20
52.8977995343
 10
-2.1779289041
 20
52.8738886511
 10
-2.1832356611
 20
52.8488288925
 10
-2.1871700454
 20
52.8225225365
 10
-2.189527079
 20
52.7949412763
 10
-2.1904409249
 20
52.7661222587
 10
-2.189875488
 20
52.7360754548
  0
LINE
  5
304
100
AcDbEntity
  8
0
100
AcDbLine
 62
250
  6
CONTINUOUS
 10
-1.9371968395
 20
53.3119245752
 11
-1.9861942268
 21
53.2348269152
  0
LINE
  5
305
100
AcDbEntity
  8
0
100
AcDbLine
 62
250
  6
CONTINUOUS
 10
-1.9861942268
 20
53.2348269152
 11
-2.0938933506
 21
53.0673314492
  0
LWPOLYLINE
  5
306
100
AcDbEntity
  8
0
100
AcDbPolyline
 62
250
  6
CONTINUOUS
 90
7
 70
0
 10
-0.4688429012
 20
51.8587623689
 10
-0.4556793066
 20
51.8790701505
 10
-0.4433582826
 20
51.8992226158
 10
-0.4318439458
 20
51.919149106
 10
-0.4211192601
 20
51.9388745102
 10
-0.4110389288
 20
51.9583082246
 10
-0.4015667771
 20
51.9774341368
  0
LWPOLYLINE
  5
307
100
AcDbEntity
  8
0
100
AcDbPolyline
 62
250
  6
CONTINUOUS
 90
10
 70
0
 10
-1.7435541895
 20
55.1544249706
 10
-1.7532608627
 20
55.1395625173
 10
-1.7646104325
 20
55.1256182548
 10
-1.7773183293
 20
55.1127783757
 10
-1.7909156936
 20
55.1011422456
 10
-1.8051945345
 20
55.0908577047
 10
-1.82024573
 20
55.0821804778
 10
-1.8358602843
 20
55.0752564233
 10
-1.8515120888
 20
55.0700607112
 10
-1.8668215814
 20
55.0665745558
  0
LWPOLYLINE
  5
308
100
AcDbEntity
  8
0
100
AcDbPolyline
 62
250
  6
CONTINUOUS
 90
4
 70
0
 10
0.0520956211
 20
52.6820287802
 10
0.0414020472
 20
52.6666820168
 10
0.0328289498
 20
52.6501958348
 10
0.0265168273
 20
52.6328404272
  0
LWPOLYLINE
  5
309
100
AcDbEntity
  8
0
100
AcDbPolyline
 62
250
  6
CONTINUOUS
 90
10
 70
0
 10
-1.2441539039
 20
52.7455023579
 10
-1.2475373122
 20
52.7406838543
 10
-1.2503206476
 20
52.73381567
 10
-1.2522645152
 20
52.7250683529
 10
-1.2529821016
 20
52.7147805023
 10
-1.2524658955
 20
52.7031184934
 10
-1.251066319
 20
52.6900168339
 10
-1.2487980309
 20
52.675649375
 10
-1.2453729824
 20
52.6604717013
 10
-1.2407069516
 20
52.6448458449
  0
LWPOLYLINE
  5
30A
100
AcDbEntity
  8
0
100
AcDbPolyline
 62
250
  6
CONTINUOUS
 90
3
 70
0
 10
0.0226702219
 20
52.8169342343
 10
0.0120387612
 20
52.802758711
 10
0.0032041178
 20
52.7874002302
  0
LWPOLYLINE
  5
30B
100
AcDbEntity
  8
0
100
AcDbPolyline
 62
250
  6
CONTINUOUS
 90
3
 70
0
 10
-0.1288917843
 20
52.5449466032
 10
-0.1047199544
 20
52.5750212333
 10
-0.0821454819
 20
52.6071345057
  0
LWPOLYLINE
  5
30C
100
AcDbEntity
  8
0
100
AcDbPolyline
 62
7
  6
CONTINUOUS
 90
4
 70
0
 10
18.4602693307
 20
62.7668018207
 10
18.405894452
 20
62.7034312119
 10
18.3439240243
 20
62.6512203222
 10
18.3068324311
 20
62.6274385368
  0
LWPOLYLINE
  5
30D
100
AcDbEntity
  8
0
100
AcDbPolyline
 62
7
  6
CONTINUOUS
 90
4
 70
0
 10
17.4574946466
 20
62.1783923575
 10
17.401180592
 20
62.1177630372
 10
17.3373931755
 20
62.0684016783
 10
17.3168825443
 20
62.0558538823
  0
LWPOLYLINE
  5
30E
100
AcDbEntity
  8
0
100
AcDbPolyline
 62
7
  6
CONTINUOUS
 90
4
 70
0
 10
21.4171633921
 20
64.4645669376
 10
21.3608302539
 20
64.4039649022
 10
21.2970249755
 20
64.3546318823
 10
21.2766808098
 20
64.3421917745
  0
LWPOLYLINE
  5
30F
100
AcDbEntity
  8
0
100
AcDbPolyline
 62
7
  6
CONTINUOUS
 90
4
 70
0
 10
25.3768312813
 20
66.7507406706
 10
25.3204789463
 20
66.6901660421
 10
25.2566556953
 20
66.6408614945
 10
25.236478908
 20
66.628529566
  0
LWPOLYLINE
  5
310
100
AcDbEntity
  8
0
100
AcDbPolyline
 62
7
  6
CONTINUOUS
 90
3
 70
0
 10
16.454224251
 20
61.5906540164
 10
16.396000027
 20
61.5327948778
 10
16.3269323595
 20
61.4842690405
  0
LWPOLYLINE
  5
311
100
AcDbEntity
  8
0
100
AcDbPolyline
 62
7
  6
CONTINUOUS
 90
3
 70
0
 10
20.4138877085
 20
63.8768348556
 10
20.3556446963
 20
63.8190033915
 10
20.2867305607
 20
63.7706068996
  0
LWPOLYLINE
  5
312
100
AcDbEntity
  8
0
100
AcDbPolyline
 62
7
  6
CONTINUOUS
 90
3
 70
0
 10
26.2554781936
 20
67.619849814
 10
26.2066088412
 20
67.5713550874
 10
26.1533128502
 20
67.5340687471
  0
LWPOLYLINE
  5
313
100
AcDbEntity
  8
0
100
AcDbPolyline
 62
7
  6
CONTINUOUS
 90
3
 70
0
 10
24.3735517089
 20
66.1630163822
 10
24.3152899571
 20
66.1052124808
 10
24.2465288684
 20
66.0569448195
  0
LWPOLYLINE
  5
314
100
AcDbEntity
  8
0
100
AcDbPolyline
 62
7
  6
CONTINUOUS
 90
3
 70
0
 10
23.3697847817
 20
65.5759723756
 10
23.309643584
 20
65.5209666995
 10
23.2565787807
 20
65.4853600331
  0
LINE
  5
315
100
AcDbEntity
  8
0
100
AcDbLine
 62
7
  6
CONTINUOUS
 10
-2.25296857
 20
-55.3539391038
 11
-2.1802697153
 21
-55.4603785056
  0
LINE
  5
316
100
AcDbEntity
  8
0
100
AcDbLine
 62
7
  6
CONTINUOUS
 10
-0.4693925329
 20
-53.8490590618
 11
-0.5420913888
 21
-53.7426196578
  0
LINE
  5
317
100
AcDbEntity
  8
0
100
AcDbLine
 62
7
  6
CONTINUOUS
 10
-2.1802697153
 20
-55.4603785056
 11
-2.1600407611
 21
-55.4904901966
  0
LINE
  5
318
100
AcDbEntity
  8
0
100
AcDbLine
 62
7
  6
CONTINUOUS
 10
-0.5420913888
 20
-53.7426196578
 11
-0.5623203465
 21
-53.7125079618
  0
LWPOLYLINE
  5
319
100
AcDbEntity
  8
0
100
AcDbPolyline
 62
7
  6
CONTINUOUS
 90
6
 70
0
 10
-2.1600407611
 20
-55.4904901966
 10
-2.1387898598
 20
-55.5229327936
 10
-2.1274239403
 20
-55.5398619467
 10
-2.1153738475
 20
-55.5571743441
 10
-2.1027348451
 20
-55.5749143152
 10
-2.089506933
 20
-55.5930818599
  0
LWPOLYLINE
  5
31A
100
AcDbEntity
  8
0
100
AcDbPolyline
 62
7
  6
CONTINUOUS
 90
6
 70
0
 10
-0.5623203465
 20
-53.7125079618
 10
-0.5835712479
 20
-53.6800653645
 10
-0.5949371672
 20
-53.6631362117
 10
-0.6069872601
 20
-53.6458238143
 10
-0.6196262625
 20
-53.6280838432
 10
-0.6328541746
 20
-53.6099162984
  0
LWPOLYLINE
  5
31B
100
AcDbEntity
  8
0
100
AcDbPolyline
 62
7
  6
CONTINUOUS
 90
14
 70
0
 10
-2.25296857
 20
-55.3539391038
 10
-2.312919553
 20
-55.2598145445
 10
-2.3697824635
 20
-55.1637898248
 10
-2.4237421011
 20
-55.0655233849
 10
-2.4746136663
 20
-54.9653567846
 10
-2.5218427607
 20
-54.8643147032
 10
-2.5653817694
 20
-54.7623857816
 10
-2.6052783075
 20
-54.659581379
 10
-2.6411208211
 20
-54.5569602513
 10
-2.6728555382
 20
-54.4545351916
 10
-2.700536231
 20
-54.3522934069
 10
-2.7239126626
 20
-54.2512552743
 10
-2.7429014208
 20
-54.1517609193
 10
-2.7575859178
 20
-54.0534702164
  0
LWPOLYLINE
  5
31C
100
AcDbEntity
  8
0
100
AcDbPolyline
 62
7
  6
CONTINUOUS
 90
14
 70
0
 10
-0.4693925329
 20
-53.8490590618
 10
-0.409441551
 20
-53.9431836197
 10
-0.3525786412
 20
-54.0392083386
 10
-0.298619004
 20
-54.1374747782
 10
-0.247747439
 20
-54.2376413786
 10
-0.2005183447
 20
-54.3386834602
 10
-0.1569793361
 20
-54.4406123817
 10
-0.1170827983
 20
-54.5434167843
 10
-0.0812402848
 20
-54.6460379119
 10
-0.049505568
 20
-54.7484629714
 10
-0.0218248754
 20
-54.8507047559
 10
0.001551556
 20
-54.9517428887
 10
0.0205403141
 20
-55.0512372442
 10
0.035224811
 20
-55.149527948
  0
LINE
  5
31D
100
AcDbEntity
  8
0
100
AcDbLine
 62
250
  6
CONTINUOUS
 10
-2.0633621016
 20
-53.4136177728
 11
-2.0688353526
 21
-53.4031114259
  0
LWPOLYLINE
  5
31E
100
AcDbEntity
  8
0
100
AcDbPolyline
 62
250
  6
CONTINUOUS
 90
3
 70
0
 10
-2.0515542657
 20
53.9942514832
 10
-2.0633620829
 20
53.9605344433
 10
-2.0688353526
 20
53.9444076371
  0
LINE
  5
31F
100
AcDbEntity
  8
ASSI
100
AcDbLine
 62
7
  6
CONTINUOUS
 10
-2.4095543434
 20
57.4372817892
 11
-2.420656148
 21
57.4076230543
  0
LINE
  5
320
100
AcDbEntity
  8
0
100
AcDbLine
 62
250
  6
CONTINUOUS
 10
-2.0530080562
 20
54.8188855803
 11
-2.0688353526
 21
54.7792002491
  0
LINE
  5
321
100
AcDbEntity
  8
0
100
AcDbLine
 62
250
  6
CONTINUOUS
 10
-1.9491449052
 20
54.8322575462
 11
-1.9645217622
 21
54.7937016349
  0
LINE
  5
322
100
AcDbEntity
  8
0
100
AcDbLine
 62
7
  6
CONTINUOUS
 10
-0.3261824182
 20
52.1967617819
 11
-0.3755003785
 21
52.0742063576
  0
LWPOLYLINE
  5
323
100
AcDbEntity
  8
0
100
AcDbPolyline
 62
7
  6
CONTINUOUS
 90
14
 70
0
 10
-0.3755004846
 20
52.0742063211
 10
-0.3900678323
 20
52.039829988
 10
-0.4040517224
 20
52.0093627814
 10
-0.4181547773
 20
51.980915477
 10
-0.4326047294
 20
51.9539592222
 10
-0.4473982278
 20
51.928511296
 10
-0.4623505618
 20
51.904884393
 10
-0.4774306603
 20
51.8831068952
 10
-0.4925408703
 20
51.863303358
 10
-0.5074157403
 20
51.8457731978
 10
-0.5216714205
 20
51.8308406784
 10
-0.5350223365
 20
51.8185917283
 10
-0.5470153147
 20
51.8091531337
 10
-0.5576068664
 20
51.8022670304
  0
LINE
  5
324
100
AcDbEntity
  8
0
100
AcDbLine
 62
250
  6
CONTINUOUS
 10
0.0032041178
 20
52.7874002302
 11
-0.0036838611
 21
52.771302041
  0
LWPOLYLINE
  5
325
100
AcDbEntity
  8
0
100
AcDbPolyline
 62
250
  6
CONTINUOUS
 90
6
 70
0
 10
-1.9645217622
 20
54.7937016349
 10
-1.9682333342
 20
54.7852438468
 10
-1.9727850312
 20
54.7777168723
 10
-1.9781372135
 20
54.7711863688
 10
-1.9842433095
 20
54.7657092738
 10
-1.989564061
 20
54.7621597449
  0
LINE
  5
326
100
AcDbEntity
  8
0
100
AcDbLine
 62
250
  6
CONTINUOUS
 10
-2.0354461111
 20
54.8567716412
 11
-2.0530080562
 21
54.8188855803
  0
LWPOLYLINE
  5
327
100
AcDbEntity
  8
0
100
AcDbPolyline
 62
250
  6
CONTINUOUS
 90
6
 70
0
 10
-0.4015667771
 20
51.9774341368
 10
-0.3927010633
 20
51.9962438754
 10
-0.3843563125
 20
52.0146673948
 10
-0.376495411
 20
52.032677762
 10
-0.3691269434
 20
52.0502887863
 10
-0.3622373993
 20
52.0674950056
  0
LWPOLYLINE
  5
328
100
AcDbEntity
  8
0
100
AcDbPolyline
 62
7
  6
CONTINUOUS
 90
4
 70
0
 10
22.4199402276
 20
65.0529664188
 10
22.3655455883
 20
64.9896232401
 10
22.3035566017
 20
64.937440916
 10
22.2666301085
 20
64.9137760773
  0
LINE
  5
329
100
AcDbEntity
  8
0
100
AcDbLine
 62
250
  6
CONTINUOUS
 10
35.5851487632
 20
49.5988924806
 11
34.5950899359
 21
49.027244922
  0
LWPOLYLINE
  5
32A
100
AcDbEntity
  8
0
100
AcDbPolyline
 62
7
  6
CONTINUOUS
 90
7
 70
0
 10
-0.8575962965
 20
-54.1796831961
 10
-0.8988979691
 20
-54.0967048268
 10
-0.9369452192
 20
-54.0127626185
 10
-0.9715916621
 20
-53.9281795348
 10
-1.0027039974
 20
-53.8432810047
 10
-1.0301625219
 20
-53.7583936709
 10
-1.0538615904
 20
-53.6738441332
  0
LWPOLYLINE
  5
32B
100
AcDbEntity
  8
0
100
AcDbPolyline
 62
250
  6
CONTINUOUS
 90
10
 70
0
 10
-1.7682564683
 20
-54.705486966
 10
-1.7621613958
 20
-54.7180180387
 10
-1.7568206984
 20
-54.7307307744
 10
-1.7522809672
 20
-54.7435143614
 10
-1.748581789
 20
-54.756257459
 10
-1.7457554896
 20
-54.7688488737
 10
-1.7438267833
 20
-54.7811785437
 10
-1.7428124677
 20
-54.7931388975
 10
-1.7427213454
 20
-54.8046257754
 10
-1.7435541894
 20
-54.8155390531
  0
LWPOLYLINE
  5
32C
100
AcDbEntity
  8
0
100
AcDbPolyline
 62
7
  6
CONTINUOUS
 90
10
 70
0
 10
-0.8575962965
 20
-54.1796831961
 10
-0.8517078803
 20
-54.1921534267
 10
-0.8467994893
 20
-54.2049786024
 10
-0.842921849
 20
-54.2180517616
 10
-0.8401315589
 20
-54.2312604319
 10
-0.8384532482
 20
-54.2444980059
 10
-0.8378853898
 20
-54.2576632613
 10
-0.8384470665
 20
-54.2706466886
 10
-0.8401712177
 20
-54.2833329655
 10
-0.8430712256
 20
-54.2956114755
  0
LWPOLYLINE
  5
32D
100
AcDbEntity
  8
0
100
AcDbPolyline
 62
250
  6
CONTINUOUS
 90
3
 70
0
 10
-2.024014913
 20
54.089610505
 10
-2.027136111
 20
54.0756854565
 10
-2.0311969353
 20
54.0606885027
  0
LWPOLYLINE
  5
32E
100
AcDbEntity
  8
0
100
AcDbPolyline
 62
250
  6
CONTINUOUS
 90
5
 70
0
 10
-0.2192339753
 20
52.473848496
 10
-0.2192697743
 20
52.4737112072
 10
-0.2184424972
 20
52.4720972732
 10
-0.2155338565
 20
52.4699352423
 10
-0.2105647793
 20
52.4674509713
  0
LINE
  5
32F
100
AcDbEntity
  8
0
100
AcDbLine
 62
7
  6
CONTINUOUS
 10
-0.8838565375
 20
53.7461130257
 11
-0.8430712256
 21
53.8867001996
  0
LINE
  5
330
100
AcDbEntity
  8
0
100
AcDbLine
 62
250
  6
CONTINUOUS
 10
-0.0036838611
 20
52.771302041
 11
-0.0085510081
 21
52.754825278
  0
LINE
  5
331
100
AcDbEntity
  8
0
100
AcDbLine
 62
7
  6
CONTINUOUS
 10
-0.9277190542
 20
53.5979521153
 11
-0.8838565375
 21
53.7461130257
  0
LWPOLYLINE
  5
332
100
AcDbEntity
  8
0
100
AcDbPolyline
 62
250
  6
CONTINUOUS
 90
3
 70
0
 10
-2.0311969353
 20
54.0606885027
 10
-2.0459970091
 20
54.0113567865
 10
-2.0515542657
 20
53.9942514832
  0
LWPOLYLINE
  5
333
100
AcDbEntity
  8
0
100
AcDbPolyline
 62
250
  6
CONTINUOUS
 90
4
 70
0
 10
-0.0035769908
 20
52.7803302011
 10
-0.0056031474
 20
52.7740235921
 10
-0.007634002
 20
52.7645575629
 10
-0.0085510081
 20
52.754825278
  0
LINE
  5
334
100
AcDbEntity
  8
0
100
AcDbLine
 62
250
  6
CONTINUOUS
 10
-0.2283580967
 20
52.4181453372
 11
-0.2105647793
 21
52.4674509713
  0
LINE
  5
335
100
AcDbEntity
  8
0
100
AcDbLine
 62
250
  6
CONTINUOUS
 10
-0.00352848
 20
52.7804621654
 11
-0.0035769908
 21
52.7803302011
  0
LINE
  5
336
100
AcDbEntity
  8
0
100
AcDbLine
 62
250
  6
CONTINUOUS
 10
-0.2459977891
 20
52.3702553293
 11
-0.2283580967
 21
52.4181453372
  0
LWPOLYLINE
  5
337
100
AcDbEntity
  8
0
100
AcDbPolyline
 62
7
  6
CONTINUOUS
 90
6
 70
0
 10
-0.219244233
 20
52.4738209568
 10
-0.2339386394
 20
52.4345841268
 10
-0.2554855268
 20
52.3778109134
 10
-0.2780407709
 20
52.3192469271
 10
-0.3016055588
 20
52.2588967803
 10
-0.3261824182
 20
52.1967617819
  0
LINE
  5
338
100
AcDbEntity
  8
0
100
AcDbLine
 62
250
  6
CONTINUOUS
 10
-0.2803168791
 20
52.2789785498
 11
-0.2459977891
 21
52.3702553293
  0
LINE
  5
339
100
AcDbEntity
  8
0
100
AcDbLine
 62
250
  6
CONTINUOUS
 10
-0.3132483261
 20
52.1928135143
 11
-0.2803168791
 21
52.2789785498
  0
LINE
  5
33A
100
AcDbEntity
  8
0
100
AcDbLine
 62
250
  6
CONTINUOUS
 10
-0.3622373993
 20
52.0674950056
 11
-0.3132483261
 21
52.1928135143
  0
LWPOLYLINE
  5
33B
100
AcDbEntity
  8
0
100
AcDbPolyline
 62
7
  6
CONTINUOUS
 90
10
 70
0
 10
-0.003525812
 20
52.7804694052
 10
-0.0164169813
 20
52.7479580456
 10
-0.0306822606
 20
52.7167198792
 10
-0.0463192063
 20
52.6868597483
 10
-0.0632836508
 20
52.6585357675
 10
-0.0816004589
 20
52.6317713342
 10
-0.1013918187
 20
52.606492568
 10
-0.1227201457
 20
52.5827612332
 10
-0.1455633828
 20
52.5607360611
 10
-0.1699455449
 20
52.5405124236
  0
LINE
  5
33C
100
AcDbEntity
  8
0
100
AcDbLine
 62
250
  6
CONTINUOUS
 10
-0.0243782446
 20
52.715140086
 11
-0.0085510081
 21
52.754825278
  0
LWPOLYLINE
  5
33D
100
AcDbEntity
  8
0
100
AcDbPolyline
 62
250
  6
CONTINUOUS
 90
7
 70
0
 10
1.5402131966
 20
51.0038556807
 10
1.5322754848
 20
50.9840869712
 10
1.4558887528
 20
50.8335280365
 10
1.3686393152
 20
50.6954264997
 10
1.2709007852
 20
50.5703737305
 10
1.1630916917
 20
50.4589052235
 10
1.0456736907
 20
50.3614983065
  0
LWPOLYLINE
  5
33E
100
AcDbEntity
  8
0
100
AcDbPolyline
 62
7
  6
CONTINUOUS
 90
7
 70
0
 10
13.4532080945
 20
64.2544440165
 10
13.4543385304
 20
64.2568972652
 10
13.5148959645
 20
64.3597189432
 10
13.5840453307
 20
64.4526415944
 10
13.6614054592
 20
64.5350854787
 10
13.7465394581
 20
64.6065419694
 10
13.8318610016
 20
64.6625226496
  0
LWPOLYLINE
  5
33F
100
AcDbEntity
  8
0
100
AcDbPolyline
 62
7
  6
CONTINUOUS
 90
7
 70
0
 10
12.4644437787
 20
63.6828575112
 10
12.4786642694
 20
63.7118387003
 10
12.5413961607
 20
63.8122505364
 10
12.6126303198
 20
63.9026123805
 10
12.6919714301
 20
63.9823618697
 10
12.7789691575
 20
64.0510086613
 10
12.8419125509
 20
64.0909388079
  0
LWPOLYLINE
  5
340
100
AcDbEntity
  8
0
100
AcDbPolyline
 62
7
  6
CONTINUOUS
 90
7
 70
0
 10
16.4242513254
 20
65.9691989772
 10
16.4386089239
 20
65.9984412221
 10
16.5013627266
 20
66.0988285975
 10
16.5726178894
 20
66.1891644582
 10
16.6519789525
 20
66.2688866165
 10
16.7389954458
 20
66.337504914
 10
16.8017101447
 20
66.3772763225
  0
LWPOLYLINE
  5
341
100
AcDbEntity
  8
0
100
AcDbPolyline
 62
7
  6
CONTINUOUS
 90
7
 70
0
 10
15.4350578658
 20
65.3983439351
 10
15.4634927601
 20
65.4527967409
 10
15.5284002468
 20
65.5507339438
 10
15.6017157529
 20
65.6384729413
 10
15.6830298373
 20
65.7154691719
 10
15.7718787768
 20
65.7812509788
 10
15.8117610008
 20
65.8056920757
  0
LWPOLYLINE
  5
342
100
AcDbEntity
  8
0
100
AcDbPolyline
 62
7
  6
CONTINUOUS
 90
7
 70
0
 10
19.3948614667
 20
67.684692751
 10
19.423441429
 20
67.7393900736
 10
19.4883703042
 20
67.837302713
 10
19.5617062608
 20
67.9250156951
 10
19.6430397186
 20
68.001984634
 10
19.7319068226
 20
68.0677380572
 10
19.7715590525
 20
68.0920298462
  0
LWPOLYLINE
  5
343
100
AcDbEntity
  8
0
100
AcDbPolyline
 62
7
  6
CONTINUOUS
 90
7
 70
0
 10
14.4446262748
 20
64.8267181109
 10
14.4889253785
 20
64.9065630711
 10
14.555965358
 20
65.0020112925
 10
14.6313164624
 20
65.0871188484
 10
14.7145554359
 20
65.1613590363
 10
14.805205492
 20
65.224278904
 10
14.8218107625
 20
65.234107222
  0
LWPOLYLINE
  5
344
100
AcDbEntity
  8
0
100
AcDbPolyline
 62
7
  6
CONTINUOUS
 90
7
 70
0
 10
18.4044092725
 20
67.1130446955
 10
18.448878588
 20
67.1931487779
 10
18.5159395466
 20
67.2885721799
 10
18.591310653
 20
67.3736535314
 10
18.6745685158
 20
67.4478663075
 10
18.7652362208
 20
67.5107577419
 10
18.7816090821
 20
67.5204451391
  0
LWPOLYLINE
  5
345
100
AcDbEntity
  8
0
100
AcDbPolyline
 62
7
  6
CONTINUOUS
 90
7
 70
0
 10
22.3641923224
 20
69.3993715748
 10
22.4088319115
 20
69.4797345429
 10
22.4759138739
 20
69.5751331324
 10
22.5513050106
 20
69.6601882803
 10
22.6345817943
 20
69.7343736389
 10
22.7252671825
 20
69.7972366275
 10
22.7414073695
 20
69.8067830401
  0
LINE
  5
346
100
AcDbEntity
  8
0
100
AcDbLine
 62
7
  6
CONTINUOUS
 10
26.9230906937
 20
69.911796329
 11
26.2720980745
 21
68.9901328702
  0
LINE
  5
347
100
AcDbEntity
  8
0
100
AcDbLine
 62
7
  6
CONTINUOUS
 10
25.6353112241
 20
68.0885816793
 11
25.5142985056
 21
67.9172540829
  0
LINE
  5
348
100
AcDbEntity
  8
RACCORDO
100
AcDbLine
 62
250
  6
CONTINUOUS
 10
40.2874088581
 20
43.6991983512
 11
42.0551758111
 21
44.7198848345
  0
LINE
  5
349
100
AcDbEntity
  8
RACCORDO
100
AcDbLine
 62
250
  6
CONTINUOUS
 10
40.9945156393
 20
42.4744534811
 11
42.7622825923
 21
43.4951399644
  0
LINE
  5
34A
100
AcDbEntity
  8
0
100
AcDbLine
 62
250
  6
CONTINUOUS
 10
-0.0085510081
 20
-55.4274863971
 11
-0.0043970482
 21
-55.442153179
  0
LWPOLYLINE
  5
34B
100
AcDbEntity
  8
0
100
AcDbPolyline
 62
250
  6
CONTINUOUS
 90
10
 70
0
 10
-2.0688353526
 20
-54.237904038
 10
-2.0530081173
 20
-54.295866122
 10
-2.0354461172
 20
-54.3540324697
 10
-2.0161793885
 20
-54.4123036004
 10
-1.9952408825
 20
-54.470579854
 10
-1.9726664102
 20
-54.5287615616
 10
-1.9484945802
 20
-54.5867492161
 10
-1.9227667331
 20
-54.644443642
 10
-1.8955268709
 20
-54.7017461658
 10
-1.8668215814
 20
-54.758558784
  0
LWPOLYLINE
  5
34C
100
AcDbEntity
  8
0
100
AcDbPolyline
 62
250
  6
CONTINUOUS
 90
10
 70
0
 10
-1.9645217622
 20
-54.1996479032
 10
-1.9491449047
 20
-54.2559606249
 10
-1.9320826469
 20
-54.3124717982
 10
-1.9133641698
 20
-54.3690847729
 10
-1.8930214873
 20
-54.4257027251
 10
-1.8710893911
 20
-54.4822288218
 10
-1.8476053914
 20
-54.5385663875
 10
-1.8226096525
 20
-54.5946190687
 10
-1.7961449241
 20
-54.6502909998
 10
-1.7682564683
 20
-54.705486966
  0
LINE
  5
34D
100
AcDbEntity
  8
0
100
AcDbLine
 62
250
  6
CONTINUOUS
 10
-0.0043970482
 20
-55.442153179
 11
-0.0004431159
 21
-55.4569115482
  0
LINE
  5
34E
100
AcDbEntity
  8
0
100
AcDbLine
 62
250
  6
CONTINUOUS
 10
-0.0004431159
 20
-55.4569115482
 11
0.0033132221
 21
-55.4717843629
  0
LWPOLYLINE
  5
34F
100
AcDbEntity
  8
0
100
AcDbPolyline
 62
250
  6
CONTINUOUS
 90
3
 70
0
 10
0.0033132221
 20
-55.4717843629
 10
0.0068472577
 20
-55.486670922
 10
0.0101905265
 20
-55.5017308843
  0
LWPOLYLINE
  5
350
100
AcDbEntity
  8
0
100
AcDbPolyline
 62
250
  6
CONTINUOUS
 90
22
 70
0
 10
-2.7312185305
 20
-53.7663969835
 10
-2.7301612699
 20
-53.778108597
 10
-2.7278865488
 20
-53.7899523852
 10
-2.7243608319
 20
-53.8019147411
 10
-2.7195899964
 20
-53.8139988494
 10
-2.7135041359
 20
-53.8261601389
 10
-2.7059576082
 20
-53.8383060775
 10
-2.6969063411
 20
-53.8504137798
 10
-2.6863389988
 20
-53.8624328486
 10
-2.674168201
 20
-53.8742205266
 10
-2.6602973535
 20
-53.8857494902
 10
-2.6447940543
 20
-53.8969381484
 10
-2.6278539262
 20
-53.9075589992
 10
-2.6093979811
 20
-53.9175439161
 10
-2.5895486384
 20
-53.9268431644
 10
-2.568866747
 20
-53.9352795339
 10
-2.5474232386
 20
-53.9427735276
 10
-2.5252645857
 20
-53.9493451238
 10
-2.5029616717
 20
-53.9550103994
 10
-2.4807523628
 20
-53.9597872269
 10
-2.4585233527
 20
-53.9636758744
 10
-2.436326318
 20
-53.966693251
  0
LWPOLYLINE
  5
351
100
AcDbEntity
  8
0
100
AcDbPolyline
 62
7
  6
CONTINUOUS
 90
15
 70
0
 10
-2.7693633816
 20
54.5486780442
 10
-2.7575842899
 20
54.6453221592
 10
-2.7428973695
 20
54.7266660399
 10
-2.7239066919
 20
54.8042390714
 10
-2.7005289851
 20
54.8782836988
 10
-2.6728475211
 20
54.948557477
 10
-2.6411121153
 20
55.0143330708
 10
-2.6052688553
 20
55.0755625315
 10
-2.5653716536
 20
55.1322938079
 10
-2.5218320619
 20
55.1839434111
 10
-2.4746018205
 20
55.2304451777
 10
-2.4237291893
 20
55.271865271
 10
-2.3697704992
 20
55.3078186926
 10
-2.312911194
 20
55.3381771096
 10
-2.25296583
 20
55.3630688549
  0
LWPOLYLINE
  5
352
100
AcDbEntity
  8
0
100
AcDbPolyline
 62
7
  6
CONTINUOUS
 90
15
 70
0
 10
0.047003414
 20
52.6129544973
 10
0.035223185
 20
52.5163030486
 10
0.0205362643
 20
52.434959163
 10
0.0015455864
 20
52.3573861279
 10
-0.0218321203
 20
52.2833414986
 10
-0.0495135842
 20
52.2130677196
 10
-0.0812489901
 20
52.1472921251
 10
-0.1170922502
 20
52.0860626634
 10
-0.1569894522
 20
52.0293313861
 10
-0.2005290443
 20
51.9776817821
 10
-0.247759286
 20
51.9311800149
 10
-0.2986319178
 20
51.889759921
 10
-0.3525906086
 20
51.853806499
 10
-0.4094499148
 20
51.8234480815
 10
-0.4693952802
 20
51.7985563359
  0
LINE
  5
353
100
AcDbEntity
  8
0
100
AcDbLine
 62
7
  6
CONTINUOUS
 10
0.047003414
 20
52.6129544973
 11
0.0484003174
 21
52.6237408754
  0
LWPOLYLINE
  5
354
100
AcDbEntity
  8
0
100
AcDbPolyline
 62
7
  6
CONTINUOUS
 90
12
 70
0
 10
-2.7693633816
 20
54.5486780442
 10
-2.7708990466
 20
54.536853406
 10
-2.7725744481
 20
54.5247335145
 10
-2.7744729456
 20
54.5123905191
 10
-2.7765111795
 20
54.4997522705
 10
-2.7784390721
 20
54.4866023204
 10
-2.7802596602
 20
54.472942445
 10
-2.781969907
 20
54.458770868
 10
-2.7833106232
 20
54.4438658129
 10
-2.7841954126
 20
54.4281533542
 10
-2.7847106714
 20
54.4117074173
 10
-2.7848563997
 20
54.3945280023
  0
LWPOLYLINE
  5
355
100
AcDbEntity
  8
0
100
AcDbPolyline
 62
7
  6
CONTINUOUS
 90
11
 70
0
 10
0.0484003174
 20
52.6237408754
 10
0.0502156889
 20
52.6369069706
 10
0.0521141643
 20
52.6492500586
 10
0.0541520209
 20
52.6618861625
 10
0.0560794606
 20
52.6750332999
 10
0.0578995307
 20
52.6886895758
 10
0.0596091838
 20
52.7028568851
 10
0.0609494805
 20
52.7177589309
 10
0.0618341075
 20
52.7334702807
 10
0.0623493781
 20
52.7499163668
 10
0.0624952921
 20
52.7670971894
  0
LINE
  5
356
100
AcDbEntity
  8
0
100
AcDbLine
 62
7
  6
CONTINUOUS
 10
0.0482831797
 20
52.6238278502
 11
0.0481925287
 21
52.623192249
  0
LINE
  5
357
100
AcDbEntity
  8
0
100
AcDbLine
 62
250
  6
CONTINUOUS
 10
-0.2084836484
 20
52.4788354788
 11
-0.2105647792
 21
52.467450971
  0
LWPOLYLINE
  5
358
100
AcDbEntity
  8
0
100
AcDbPolyline
 62
250
  6
CONTINUOUS
 90
10
 70
0
 10
-2.436326318
 20
54.215618424
 10
-2.4392105241
 20
54.2004565357
 10
-2.442712683
 20
54.1840728501
 10
-2.4467753982
 20
54.1667358783
 10
-2.4513320861
 20
54.1487297545
 10
-2.4563080675
 20
54.1303495799
 10
-2.4616217913
 20
54.111896586
 10
-2.4671861713
 20
54.0936731976
 10
-2.4729100133
 20
54.0759780766
 10
-2.4786995096
 20
54.059101227
  0
LINE
  5
359
100
AcDbEntity
  8
0
100
AcDbLine
 62
250
  6
CONTINUOUS
 10
0.0265168273
 20
52.6328404272
 11
0.0225691233
 21
52.614900233
  0
LWPOLYLINE
  5
35A
100
AcDbEntity
  8
0
100
AcDbPolyline
 62
250
  6
CONTINUOUS
 90
22
 70
0
 10
-0.6811624113
 20
52.0321372066
 10
-0.6841661594
 20
52.0188989072
 10
-0.6868906074
 20
52.0053096643
 10
-0.6893218504
 20
51.9914037605
 10
-0.6914933517
 20
51.977245156
 10
-0.6933500816
 20
51.96284899
 10
-0.6947426341
 20
51.9481917622
 10
-0.6956941572
 20
51.933331998
 10
-0.6961642232
 20
51.9183425727
 10
-0.6959018091
 20
51.903257018
 10
-0.6949495623
 20
51.8881303173
 10
-0.6932676583
 20
51.8731281668
 10
-0.6904840246
 20
51.8584966069
 10
-0.6866291291
 20
51.8443112906
 10
-0.6817341698
 20
51.8308291132
 10
-0.6754468349
 20
51.8185793738
 10
-0.667786418
 20
51.8077239469
 10
-0.6588901819
 20
51.7984543882
 10
-0.6485986598
 20
51.7912738643
 10
-0.6369275546
 20
51.7864045305
 10
-0.6240769347
 20
51.7838509609
 10
-0.6101700736
 20
51.7837254004
  0
LWPOLYLINE
  5
35B
100
AcDbEntity
  8
0
100
AcDbPolyline
 62
7
  6
CONTINUOUS
 90
7
 70
0
 10
17.4130199378
 20
66.5407778838
 10
17.4142768777
 20
66.54350393
 10
17.4748561895
 20
66.6463015593
 10
17.5440265395
 20
66.7391986425
 10
17.6214066161
 20
66.8216156136
 10
17.7065593931
 20
66.8930440291
 10
17.7916589294
 20
66.9488603405
  0
LWPOLYLINE
  5
35C
100
AcDbEntity
  8
0
100
AcDbPolyline
 62
7
  6
CONTINUOUS
 90
7
 70
0
 10
21.372831781
 20
68.827111774
 10
21.3742144102
 20
68.8301085195
 10
21.4348154354
 20
68.9328823145
 10
21.5040066163
 20
69.0257540513
 10
21.5814065004
 20
69.1081443361
 10
21.6665779277
 20
69.1795449069
 10
21.751457102
 20
69.2351981717
  0
LWPOLYLINE
  5
35D
100
AcDbEntity
  8
0
100
AcDbPolyline
 62
7
  6
CONTINUOUS
 90
7
 70
0
 10
20.3840586597
 20
68.2555404223
 10
20.398554537
 20
68.2850456148
 10
20.4613303539
 20
68.3854082223
 10
20.5326065902
 20
68.4757178012
 10
20.6119876417
 20
68.5554123446
 10
20.6990229015
 20
68.6240018838
 10
20.7615075643
 20
68.6636137273
  0
LWPOLYLINE
  5
35E
100
AcDbEntity
  8
0
100
AcDbPolyline
 62
7
  6
CONTINUOUS
 90
7
 70
0
 10
23.3546648206
 20
69.9710416431
 10
23.3833912156
 20
70.025985484
 10
23.4483416853
 20
70.1238733584
 10
23.521698294
 20
70.2115601051
 10
23.6030513209
 20
70.2885015149
 10
23.6919367776
 20
70.3542263014
 10
23.7313567953
 20
70.3783674443
  0
LINE
  5
35F
100
AcDbEntity
  8
0
100
AcDbLine
 62
250
  6
CONTINUOUS
 10
43.7168767469
 20
35.5143264742
 11
42.7622825923
 21
34.9631557732
  0
LWPOLYLINE
  5
360
100
AcDbEntity
  8
0
100
AcDbPolyline
 62
250
  6
CONTINUOUS
 90
4
 70
0
 10
0.0101905265
 20
-55.5017308843
 10
0.0134271032
 20
-55.5173296857
 10
0.0165831931
 20
-55.5335513613
 10
0.0196308346
 20
-55.5502531374
  0
LWPOLYLINE
  5
361
100
AcDbEntity
  8
0
100
AcDbPolyline
 62
250
  6
CONTINUOUS
 90
16
 70
0
 10
0.0196308346
 20
-55.5502531374
 10
0.0235823544
 20
-55.573373446
 10
0.0246896742
 20
-55.5789369724
 10
0.0258855861
 20
-55.5840835726
 10
0.0271550004
 20
-55.5888613589
 10
0.0285009233
 20
-55.5931834665
 10
0.0299422087
 20
-55.5968237385
 10
0.0314673124
 20
-55.5997932842
 10
0.0330652613
 20
-55.6020269904
 10
0.0347486325
 20
-55.6031759007
 10
0.0365002041
 20
-55.6032477579
 10
0.0382980647
 20
-55.6021674835
 10
0.0401376638
 20
-55.5994596745
 10
0.0419953025
 20
-55.5949450777
 10
0.0438323675
 20
-55.5887382611
 10
0.0456140048
 20
-55.5808067624
  0
LWPOLYLINE
  5
362
100
AcDbEntity
  8
0
100
AcDbPolyline
 62
250
  6
CONTINUOUS
 90
10
 70
0
 10
-1.7435541894
 20
-53.0278867045
 10
-1.7427212735
 20
-53.0397639833
 10
-1.7428126692
 20
-53.051147423
 10
-1.7438275372
 20
-53.06193778
 10
-1.7457570845
 20
-53.0720413936
 10
-1.7485844196
 20
-53.0813697269
 10
-1.752284333
 20
-53.0898404727
 10
-1.7568240051
 20
-53.0973798651
 10
-1.7621636657
 20
-53.1039229728
 10
-1.7682564683
 20
-53.1094132191
  0
LWPOLYLINE
  5
363
100
AcDbEntity
  8
0
100
AcDbPolyline
 62
7
  6
CONTINUOUS
 90
13
 70
0
 10
-2.7848563997
 20
-53.7877836728
 10
-2.784283337
 20
-53.8035556603
 10
-2.7834489371
 20
-53.8190447071
 10
-2.7823531999
 20
-53.8342508132
 10
-2.7809280233
 20
-53.8491935009
 10
-2.7792415095
 20
-53.863853248
 10
-2.7774979653
 20
-53.8781714873
 10
-2.775701846
 20
-53.892143843
 10
-2.7738486963
 20
-53.905774691
 10
-2.772129458
 20
-53.9190185913
 10
-2.7706077785
 20
-53.9318603971
 10
-2.7692200103
 20
-53.9443152552
 10
-2.7575859178
 20
-54.0534702164
  0
LWPOLYLINE
  5
364
100
AcDbEntity
  8
0
100
AcDbPolyline
 62
7
  6
CONTINUOUS
 90
13
 70
0
 10
0.0624952921
 20
-55.4152144856
 10
0.0619222294
 20
-55.3994424981
 10
0.0610878295
 20
-55.3839534513
 10
0.0599920924
 20
-55.3687473452
 10
0.0585669157
 20
-55.3538046574
 10
0.0568804019
 20
-55.3391449104
 10
0.0551368578
 20
-55.3248266711
 10
0.0533407384
 20
-55.3108543151
 10
0.0514875886
 20
-55.2972234668
 10
0.0497683505
 20
-55.2839795671
 10
0.0482466711
 20
-55.2711377629
 10
0.0468589032
 20
-55.2586829072
 10
0.035224811
 20
-55.149527948
  0
LWPOLYLINE
  5
365
100
AcDbEntity
  8
0
100
AcDbPolyline
 62
7
  6
CONTINUOUS
 90
13
 70
0
 10
-2.7848563997
 20
54.3945280023
 10
-2.784283337
 20
54.3787560148
 10
-2.7834489371
 20
54.363266968
 10
-2.7823531999
 20
54.3480608619
 10
-2.7809280233
 20
54.3331181741
 10
-2.7792415095
 20
54.3184584271
 10
-2.7774979653
 20
54.3041401878
 10
-2.775701846
 20
54.290167832
 10
-2.7738486963
 20
54.276536984
 10
-2.772129458
 20
54.2632930838
 10
-2.7706077785
 20
54.250451278
 10
-2.7692200103
 20
54.2379964199
 10
-2.7575859178
 20
54.1288414587
  0
LWPOLYLINE
  5
366
100
AcDbEntity
  8
0
100
AcDbPolyline
 62
250
  6
CONTINUOUS
 90
46
 70
0
 10
-4.0128309832
 20
-53.0704693542
 10
-4.0063953011
 20
-53.2875855973
 10
-3.9873212231
 20
-53.5094780177
 10
-3.9556087493
 20
-53.7361466154
 10
-3.9109661125
 20
-53.9689599799
 10
-3.8536850799
 20
-54.2065495217
 10
-3.7846409531
 20
-54.4448094719
 10
-3.7036924088
 20
-54.6834819212
 10
-3.6109807704
 20
-54.9228247789
 10
-3.5078053087
 20
-55.1595060044
 10
-3.3939876261
 20
-55.3935583823
 10
-3.2697061204
 20
-55.6249491281
 10
-3.1367952556
 20
-55.8502478477
 10
-2.9951430431
 20
-56.0693350759
 10
-2.8448614715
 20
-56.282330278
 10
-2.6881209707
 20
-56.486161456
 10
-2.5248216541
 20
-56.6807041279
 10
-2.3550634082
 20
-56.8660827756
 10
-2.181316322
 20
-57.0395988471
 10
-2.0035241784
 20
-57.2010766644
 10
-1.8217431944
 20
-57.3506919054
 10
-1.6386121101
 20
-57.4862730527
 10
-1.454110436
 20
-57.6076159514
 10
-1.2682586615
 20
-57.7149247564
 10
-1.0837569942
 20
-57.8066404139
 10
-0.900625978
 20
-57.8825351123
 10
-0.7188450689
 20
-57.9428366632
 10
-0.5410528432
 20
-57.9866694484
 10
-0.3673053422
 20
-58.0137928659
 10
-0.1975465246
 20
-58.0244475178
 10
-0.0342468417
 20
-58.018479592
 10
0.1224934976
 20
-57.9956493607
 10
0.2727747021
 20
-57.9561965519
 10
0.4144269472
 20
-57.9006865368
 10
0.5473386835
 20
-57.8288702666
 10
0.6716214604
 20
-57.7409967901
 10
0.7854401008
 20
-57.6383786256
 10
0.8886158677
 20
-57.5208425858
 10
0.981327498
 20
-57.388561858
 10
1.0622760257
 20
-57.2433685218
 10
1.1313201
 20
-57.0848428665
 10
1.1886010716
 20
-56.9134046029
 10
1.2332440263
 20
-56.7321449436
 10
1.2649573262
 20
-56.5420942928
 10
1.2840326094
 20
-56.3422222463
 10
1.2904698757
 20
-56.1325288042
  0
LWPOLYLINE
  5
367
100
AcDbEntity
  8
0
100
AcDbPolyline
 62
250
  6
CONTINUOUS
 90
46
 70
0
 10
-4.0128309832
 20
55.1118423208
 10
-4.0063953011
 20
54.8947260777
 10
-3.9873212231
 20
54.6728336573
 10
-3.9556087493
 20
54.4461650597
 10
-3.9109661125
 20
54.2133516952
 10
-3.8536850799
 20
53.9757621534
 10
-3.7846409531
 20
53.7375022031
 10
-3.7036924088
 20
53.4988297539
 10
-3.6109807704
 20
53.2594868962
 10
-3.5078053087
 20
53.0228056706
 10
-3.3939876261
 20
52.7887532927
 10
-3.2697061204
 20
52.557362547
 10
-3.1367952556
 20
52.3320638273
 10
-2.9951430431
 20
52.1129765991
 10
-2.8448614715
 20
51.899981397
 10
-2.6881209707
 20
51.696150219
 10
-2.5248216541
 20
51.5016075472
 10
-2.3550634082
 20
51.3162288995
 10
-2.181316322
 20
51.1427128279
 10
-2.0035241784
 20
50.9812350107
 10
-1.8217431944
 20
50.8316197696
 10
-1.6386121101
 20
50.6960386224
 10
-1.454110436
 20
50.5746957236
 10
-1.2682586615
 20
50.4673869187
 10
-1.0837569942
 20
50.3756712611
 10
-0.900625978
 20
50.2997765628
 10
-0.7188450689
 20
50.2394750119
 10
-0.5410528432
 20
50.1956422266
 10
-0.3673053422
 20
50.1685188091
 10
-0.1975465246
 20
50.1578641573
 10
-0.0342468417
 20
50.1638320831
 10
0.1224934976
 20
50.1866623143
 10
0.2727747021
 20
50.2261151232
 10
0.4144269472
 20
50.2816251383
 10
0.5473386835
 20
50.3534414085
 10
0.6716214604
 20
50.4413148849
 10
0.7854401008
 20
50.5439330494
 10
0.8886158677
 20
50.6614690892
 10
0.981327498
 20
50.7937498171
 10
1.0622760257
 20
50.9389431532
 10
1.1313201
 20
51.0974688085
 10
1.1886010716
 20
51.2689070722
 10
1.2332440263
 20
51.4501667315
 10
1.2649573262
 20
51.6402173822
 10
1.2840326094
 20
51.8400894287
 10
1.2904698757
 20
52.0497828709
  0
LWPOLYLINE
  5
368
100
AcDbEntity
  8
0
100
AcDbPolyline
 62
250
  6
CONTINUOUS
 90
46
 70
0
 10
1.2904698757
 20
-56.1325288042
 10
1.2840341935
 20
-55.915412561
 10
1.2649601155
 20
-55.6935201407
 10
1.2332476417
 20
-55.466851543
 10
1.1886050049
 20
-55.2340381785
 10
1.1313239723
 20
-54.9964486367
 10
1.0622798455
 20
-54.7581886864
 10
0.9813313013
 20
-54.5195162372
 10
0.8886196628
 20
-54.2801733795
 10
0.7854442011
 20
-54.0434921539
 10
0.6716265186
 20
-53.8094397761
 10
0.5473450128
 20
-53.5780490303
 10
0.414434148
 20
-53.3527503107
 10
0.2727819355
 20
-53.1336630824
 10
0.122500364
 20
-52.9206678803
 10
-0.0342401369
 20
-52.7168367023
 10
-0.1975394535
 20
-52.5222940305
 10
-0.3672976993
 20
-52.3369153828
 10
-0.5410447856
 20
-52.1633993112
 10
-0.7188369292
 20
-52.001921494
 10
-0.9006179131
 20
-51.852306253
 10
-1.0837489975
 20
-51.7167251057
 10
-1.2682506716
 20
-51.5953822069
 10
-1.454102446
 20
-51.488073402
 10
-1.6386041133
 20
-51.3963577444
 10
-1.8217351296
 20
-51.3204630461
 10
-2.0035160386
 20
-51.2601614952
 10
-2.1813082644
 20
-51.2163287099
 10
-2.3550557653
 20
-51.1892052924
 10
-2.524814583
 20
-51.1785506406
 10
-2.6881142659
 20
-51.1845185664
 10
-2.8448546052
 20
-51.2073487976
 10
-2.9951358097
 20
-51.2468016065
 10
-3.1367880547
 20
-51.3023116216
 10
-3.2696997911
 20
-51.3741278918
 10
-3.393982568
 20
-51.4620013682
 10
-3.5078012084
 20
-51.5646195327
 10
-3.6109769752
 20
-51.6821555725
 10
-3.7036886056
 20
-51.8144363004
 10
-3.7846371333
 20
-51.9596296365
 10
-3.8536812075
 20
-52.1181552919
 10
-3.9109621791
 20
-52.2895935555
 10
-3.9556051339
 20
-52.4708532148
 10
-3.9873184338
 20
-52.6609038656
 10
-4.0063937169
 20
-52.860775912
 10
-4.0128309832
 20
-53.0704693542
  0
LWPOLYLINE
  5
369
100
AcDbEntity
  8
0
100
AcDbPolyline
 62
250
  6
CONTINUOUS
 90
4
 70
0
 10
-0.683232457
 20
-55.7606783305
 10
-0.6815838445
 20
-55.826017875
 10
-0.680973587
 20
-55.8578361252
 10
-0.6805160832
 20
-55.8887776988
  0
LWPOLYLINE
  5
36A
100
AcDbEntity
  8
0
100
AcDbPolyline
 62
250
  6
CONTINUOUS
 90
4
 70
0
 10
-0.683232457
 20
52.4216333446
 10
-0.6815838445
 20
52.3562938
 10
-0.680973587
 20
52.3244755498
 10
-0.6805160832
 20
52.2935339762
  0
LWPOLYLINE
  5
36B
100
AcDbEntity
  8
ASSI
100
AcDbPolyline
 62
7
  6
CONTINUOUS
 90
53
 70
0
 10
-4.3663843738
 20
-52.8663320575
 10
-4.363216369
 20
-53.0266385596
 10
-4.3538861589
 20
-53.18952507
 10
-4.3383937433
 20
-53.3549915889
 10
-4.3166815473
 20
-53.5233912774
 10
-4.2888071459
 20
-53.6943709743
 10
-4.2549432641
 20
-53.8668711964
 10
-4.2150527109
 20
-54.0409013853
 10
-4.1691726773
 20
-54.2164520996
 10
-4.1175874609
 20
-54.3924355314
 10
-4.060261636
 20
-54.5688543677
 10
-3.9972306283
 20
-54.7457059216
 10
-3.9288850122
 20
-54.9218943246
 10
-3.8551917874
 20
-55.0974154592
 10
-3.7761839541
 20
-55.2722734429
 10
-3.6923510879
 20
-55.4453847607
 10
-3.6036632283
 20
-55.6167385669
 10
-3.5101503358
 20
-55.7863457071
 10
-3.4123918672
 20
-55.9531552032
 10
-3.31036146
 20
-56.1171496838
 10
-3.2040854766
 20
-56.2783465203
 10
-3.0942224607
 20
-56.4357468496
 10
-2.9807501393
 20
-56.5893270977
 10
-2.8636907855
 20
-56.7391108385
 10
-2.7437697626
 20
-56.8841699305
 10
-2.6209693016
 20
-57.0244750367
 10
-2.4953071716
 20
-57.1600554941
 10
-2.3675620435
 20
-57.2900711725
 10
-2.2377209832
 20
-57.4144875181
 10
-2.1057969248
 20
-57.5333390847
 10
-1.9726073414
 20
-57.6458894033
 10
-1.8381443751
 20
-57.7520993472
 10
-1.7024158838
 20
-57.8520080432
 10
-1.5662629151
 20
-57.9449964026
 10
-1.4296828334
 20
-58.0310214545
 10
-1.2926782742
 20
-58.1101261699
 10
-1.1560981925
 20
-58.1818203729
 10
-1.0199452238
 20
-58.2460580489
 10
-0.8842167325
 20
-58.3028852125
 10
-0.7497537661
 20
-58.3519497317
 10
-0.6165641828
 20
-58.3932034054
 10
-0.4846401244
 20
-58.4266944347
 10
-0.354799064
 20
-58.452215291
 10
-0.2270539359
 20
-58.4697164845
 10
-0.1013918059
 20
-58.479247505
 10
0.0214086551
 20
-58.4807492931
 10
0.1413296779
 20
-58.4741719923
 10
0.2583890318
 20
-58.4595654591
 10
0.3718613532
 20
-58.4370202035
 10
0.481724369
 20
-58.4064869311
 10
0.5880003524
 20
-58.3680149363
 10
0.6900307596
 20
-58.3218426125
 10
0.7639123583
 20
-58.2820308463
  0
LWPOLYLINE
  5
36C
100
AcDbEntity
  8
ASSI
100
AcDbPolyline
 62
7
  6
CONTINUOUS
 90
53
 70
0
 10
-4.3663843738
 20
55.3159796175
 10
-4.363216369
 20
55.1556731155
 10
-4.3538861589
 20
54.992786605
 10
-4.3383937433
 20
54.8273200861
 10
-4.3166815473
 20
54.6589203977
 10
-4.2888071459
 20
54.4879407008
 10
-4.2549432641
 20
54.3154404786
 10
-4.2150527109
 20
54.1414102897
 10
-4.1691726773
 20
53.9658595755
 10
-4.1175874609
 20
53.7898761437
 10
-4.060261636
 20
53.6134573074
 10
-3.9972306283
 20
53.4366057535
 10
-3.9288850122
 20
53.2604173504
 10
-3.8551917874
 20
53.0848962159
 10
-3.7761839541
 20
52.9100382321
 10
-3.6923510879
 20
52.7369269143
 10
-3.6036632283
 20
52.5655731082
 10
-3.5101503358
 20
52.395965968
 10
-3.4123918672
 20
52.2291564718
 10
-3.31036146
 20
52.0651619913
 10
-3.2040854766
 20
51.9039651547
 10
-3.0942224607
 20
51.7465648254
 10
-2.9807501393
 20
51.5929845774
 10
-2.8636907855
 20
51.4432008366
 10
-2.7437697626
 20
51.2981417445
 10
-2.6209693016
 20
51.1578366384
 10
-2.4953071716
 20
51.022256181
 10
-2.3675620435
 20
50.8922405026
 10
-2.2377209832
 20
50.767824157
 10
-2.1057969248
 20
50.6489725904
 10
-1.9726073414
 20
50.5364222718
 10
-1.8381443751
 20
50.4302123278
 10
-1.7024158838
 20
50.3303036319
 10
-1.5662629151
 20
50.2373152725
 10
-1.4296828334
 20
50.1512902205
 10
-1.2926782742
 20
50.0721855052
 10
-1.1560981925
 20
50.0004913022
 10
-1.0199452238
 20
49.9362536262
 10
-0.8842167325
 20
49.8794264626
 10
-0.7497537661
 20
49.8303619433
 10
-0.6165641828
 20
49.7891082697
 10
-0.4846401244
 20
49.7556172403
 10
-0.354799064
 20
49.7300963841
 10
-0.2270539359
 20
49.7125951905
 10
-0.1013918059
 20
49.70306417
 10
0.0214086551
 20
49.701562382
 10
0.1413296779
 20
49.7081396827
 10
0.2583890318
 20
49.7227462159
 10
0.3718613532
 20
49.7452914715
 10
0.481724369
 20
49.7758247439
 10
0.5880003524
 20
49.8142967388
 10
0.6900307596
 20
49.8604690625
 10
0.7639123583
 20
49.9002808288
  0
LWPOLYLINE
  5
36D
100
AcDbEntity
  8
ASSI
100
AcDbPolyline
 62
7
  6
CONTINUOUS
 90
30
 70
0
 10
1.6440232663
 20
-56.3366661008
 10
1.6408552615
 20
-56.1763595988
 10
1.6315250513
 20
-56.0134730883
 10
1.6160326357
 20
-55.8480065694
 10
1.5943204397
 20
-55.679606881
 10
1.5664460384
 20
-55.5086271841
 10
1.5325821565
 20
-55.336126962
 10
1.4926916034
 20
-55.162096773
 10
1.4468115697
 20
-54.9865460588
 10
1.3952263533
 20
-54.810562627
 10
1.3379005284
 20
-54.6341437907
 10
1.2748695208
 20
-54.4572922368
 10
1.2065239047
 20
-54.2811038337
 10
1.1328306798
 20
-54.1055826992
 10
1.0538228465
 20
-53.9307247154
 10
0.9699899803
 20
-53.7576133976
 10
0.8813021207
 20
-53.5862595915
 10
0.7877892283
 20
-53.4166524513
 10
0.6900307596
 20
-53.2498429551
 10
0.5880003524
 20
-53.0858484746
 10
0.481724369
 20
-52.924651638
 10
0.3718613532
 20
-52.7672513088
 10
0.2583890318
 20
-52.6136710607
 10
0.1413296779
 20
-52.4638873199
 10
0.0214086551
 20
-52.3188282278
 10
-0.1013918059
 20
-52.1785231217
 10
-0.2270539359
 20
-52.0429426643
 10
-0.354799064
 20
-51.9129269859
 10
-0.4846401244
 20
-51.7885106403
 10
-0.6165641828
 20
-51.6696590737
  0
LINE
  5
36E
100
AcDbEntity
  8
0
100
AcDbLine
 62
250
  6
CONTINUOUS
 10
-0.6805160832
 20
-55.8887776988
 11
-0.6799990094
 21
-55.9498847876
  0
LINE
  5
36F
100
AcDbEntity
  8
0
100
AcDbLine
 62
250
  6
CONTINUOUS
 10
-0.6805160832
 20
52.2935339762
 11
-0.6799990094
 21
52.2324268875
  0
LINE
  5
370
100
AcDbEntity
  8
0
100
AcDbLine
 62
250
  6
CONTINUOUS
 10
-0.6799990094
 20
52.2324268875
 11
-0.6799064806
 21
52.1697454168
  0
LINE
  5
371
100
AcDbEntity
  8
0
100
AcDbLine
 62
250
  6
CONTINUOUS
 10
-0.6799990094
 20
-55.9498847876
 11
-0.6799064806
 21
-56.0125662583
  0
LWPOLYLINE
  5
372
100
AcDbEntity
  8
0
100
AcDbPolyline
 62
250
  6
CONTINUOUS
 90
15
 70
0
 10
-0.8437210422
 20
52.0080409758
 10
-0.8437483224
 20
51.9911702512
 10
-0.8433322625
 20
51.9739553882
 10
-0.8425166629
 20
51.9563874597
 10
-0.8412404049
 20
51.9384926351
 10
-0.8393361839
 20
51.9203352604
 10
-0.8368197216
 20
51.9018974519
 10
-0.8336561567
 20
51.8832279661
 10
-0.8296014929
 20
51.8645012629
 10
-0.8246637838
 20
51.8456573255
 10
-0.8188188638
 20
51.8268106526
 10
-0.8117806089
 20
51.8084121319
 10
-0.80345753
 20
51.7906431133
 10
-0.7939476543
 20
51.773409275
 10
-0.7832577875
 20
51.7567592919
  0
LWPOLYLINE
  5
373
100
AcDbEntity
  8
0
100
AcDbPolyline
 62
250
  6
CONTINUOUS
 90
3
 70
0
 10
-0.8366794092
 20
52.4115654055
 10
-0.836878095
 20
52.3152429569
 10
-0.8371369033
 20
52.2845389658
  0
LWPOLYLINE
  5
374
100
AcDbEntity
  8
0
100
AcDbPolyline
 62
250
  6
CONTINUOUS
 90
3
 70
0
 10
-0.8366794092
 20
-55.7707462695
 10
-0.836878095
 20
-55.8670687181
 10
-0.8371369033
 20
-55.8977727093
  0
LINE
  5
375
100
AcDbEntity
  8
0
100
AcDbLine
 62
250
  6
CONTINUOUS
 10
-0.6799064806
 20
52.1697454168
 11
-0.680291537
 21
52.1032226025
  0
LINE
  5
376
100
AcDbEntity
  8
0
100
AcDbLine
 62
250
  6
CONTINUOUS
 10
-0.6799064806
 20
-56.0125662583
 11
-0.680291537
 21
-56.0790890726
  0
LINE
  5
377
100
AcDbEntity
  8
0
100
AcDbLine
 62
250
  6
CONTINUOUS
 10
-0.680291537
 20
52.1032226025
 11
-0.6811624113
 21
52.0321372066
  0
LINE
  5
378
100
AcDbEntity
  8
0
100
AcDbLine
 62
250
  6
CONTINUOUS
 10
-0.680291537
 20
-56.0790890726
 11
-0.6811624113
 21
-56.1501744684
  0
LINE
  5
379
100
AcDbEntity
  8
0
100
AcDbLine
 62
250
  6
CONTINUOUS
 10
-0.8371369033
 20
52.2845389658
 11
-0.8380338907
 21
52.2238375539
  0
LINE
  5
37A
100
AcDbEntity
  8
0
100
AcDbLine
 62
250
  6
CONTINUOUS
 10
-0.8371369033
 20
-55.8977727093
 11
-0.8380338907
 21
-55.9584741212
  0
LINE
  5
37B
100
AcDbEntity
  8
0
100
AcDbLine
 62
250
  6
CONTINUOUS
 10
-0.8380338907
 20
52.2238375539
 11
-0.8392786171
 21
52.1615279759
  0
LINE
  5
37C
100
AcDbEntity
  8
0
100
AcDbLine
 62
250
  6
CONTINUOUS
 10
-0.8380338907
 20
-55.9584741212
 11
-0.8392786171
 21
-56.0207836991
  0
LWPOLYLINE
  5
37D
100
AcDbEntity
  8
0
100
AcDbPolyline
 62
250
  6
CONTINUOUS
 90
16
 70
0
 10
-0.8432592159
 20
-56.1577515812
 10
-0.8437210422
 20
-56.1742706993
 10
-0.8437483224
 20
-56.1911414239
 10
-0.8433322625
 20
-56.2083562869
 10
-0.8425166629
 20
-56.2259242154
 10
-0.8412404049
 20
-56.2438190399
 10
-0.8393361839
 20
-56.2619764146
 10
-0.8368197216
 20
-56.2804142231
 10
-0.8336561567
 20
-56.2990837089
 10
-0.8296014929
 20
-56.3178104122
 10
-0.8246637838
 20
-56.3366543495
 10
-0.8188188638
 20
-56.3555010224
 10
-0.8117806089
 20
-56.3738995432
 10
-0.80345753
 20
-56.3916685618
 10
-0.7939476543
 20
-56.4089024
 10
-0.7832577875
 20
-56.4255523832
  0
LINE
  5
37E
100
AcDbEntity
  8
0
100
AcDbLine
 62
250
  6
CONTINUOUS
 10
-0.8392786171
 20
52.1615279759
 11
-0.8410494631
 21
52.0953337461
  0
LWPOLYLINE
  5
37F
100
AcDbEntity
  8
0
100
AcDbPolyline
 62
250
  6
CONTINUOUS
 90
4
 70
0
 10
-0.8392786171
 20
-56.0207836991
 10
-0.8410494631
 20
-56.0869779289
 10
-0.8421094537
 20
-56.121824228
 10
-0.8432592159
 20
-56.1577515812
  0
LINE
  5
380
100
AcDbEntity
  8
0
100
AcDbLine
 62
250
  6
CONTINUOUS
 10
1.6379673898
 20
51.8396806687
 11
1.6381442034
 21
51.8458150293
  0
LWPOLYLINE
  5
381
100
AcDbEntity
  8
0
100
AcDbPolyline
 62
7
  6
CONTINUOUS
 90
13
 70
0
 10
-4.0860542879
 20
55.2139109689
 10
-4.0792714706
 20
55.4367338233
 10
-4.0589838683
 20
55.6510271894
 10
-4.0253017103
 20
55.8560192504
 10
-3.9782483529
 20
56.0513667822
 10
-3.918054615
 20
56.2358790043
 10
-3.8454460973
 20
56.4077509127
 10
-3.7610949916
 20
56.5662204571
 10
-3.6654172052
 20
56.7111841982
 10
-3.5591415542
 20
56.8420791536
 10
-3.4430452718
 20
56.9584944799
 10
-3.3178810126
 20
57.060185126
 10
-3.184500499
 20
57.1469270621
  0
LWPOLYLINE
  5
382
100
AcDbEntity
  8
0
100
AcDbPolyline
 62
7
  6
CONTINUOUS
 90
13
 70
0
 10
-4.0860542879
 20
-52.9684007062
 10
-4.0792714706
 20
-52.7455778518
 10
-4.0589838683
 20
-52.5312844856
 10
-4.0253017103
 20
-52.3262924246
 10
-3.9782483529
 20
-52.1309448928
 10
-3.918054615
 20
-51.9464326708
 10
-3.8454460973
 20
-51.7745607623
 10
-3.7610949916
 20
-51.616091218
 10
-3.6654172052
 20
-51.4711274769
 10
-3.5591415542
 20
-51.3402325215
 10
-3.4430452718
 20
-51.2238171952
 10
-3.3178810126
 20
-51.122126549
 10
-3.184500499
 20
-51.035384613
  0
LINE
  5
383
100
AcDbEntity
  8
0
100
AcDbLine
 62
250
  6
CONTINUOUS
 10
-0.8410494631
 20
52.0953337461
 11
-0.8437210422
 21
52.0080409758
  0
LWPOLYLINE
  5
384
100
AcDbEntity
  8
0
100
AcDbPolyline
 62
250
  6
CONTINUOUS
 90
16
 70
0
 10
-2.1900710726
 20
55.3824587336
 10
-2.1905348247
 20
55.3727450216
 10
-2.1895561355
 20
55.3629710789
 10
-2.1871715587
 20
55.353188024
 10
-2.1832584906
 20
55.3434299021
 10
-2.1780112209
 20
55.3337523228
 10
-2.1719346462
 20
55.3242224005
 10
-2.1651231944
 20
55.314876991
 10
-2.157535357
 20
55.3057250081
 10
-2.149460447
 20
55.2967739025
 10
-2.1409466493
 20
55.288032852
 10
-2.1319836955
 20
55.2795171626
 10
-2.1227650462
 20
55.2712345303
 10
-2.1133638105
 20
55.2631911048
 10
-2.1037354085
 20
55.25539386
 10
-2.0938933506
 20
55.247848258
  0
LWPOLYLINE
  5
385
100
AcDbEntity
  8
0
100
AcDbPolyline
 62
250
  6
CONTINUOUS
 90
16
 70
0
 10
-2.1900710726
 20
-52.7998529415
 10
-2.1905348247
 20
-52.8095666535
 10
-2.1895561355
 20
-52.8193405962
 10
-2.1871715587
 20
-52.829123651
 10
-2.1832584906
 20
-52.8388817729
 10
-2.1780112209
 20
-52.8485593522
 10
-2.1719346462
 20
-52.8580892746
 10
-2.1651231944
 20
-52.8674346841
 10
-2.157535357
 20
-52.876586667
 10
-2.149460447
 20
-52.8855377726
 10
-2.1409466493
 20
-52.894278823
 10
-2.1319836955
 20
-52.9027945124
 10
-2.1227650462
 20
-52.9110771447
 10
-2.1133638105
 20
-52.9191205703
 10
-2.1037354085
 20
-52.926917815
 10
-2.0938933506
 20
-52.934463417
  0
LWPOLYLINE
  5
386
100
AcDbEntity
  8
0
100
AcDbPolyline
 62
250
  6
CONTINUOUS
 90
22
 70
0
 10
-2.7312185305
 20
54.4159146915
 10
-2.7301612699
 20
54.404203078
 10
-2.7278865488
 20
54.3923592899
 10
-2.7243608319
 20
54.3803969339
 10
-2.7195899964
 20
54.3683128256
 10
-2.7135041359
 20
54.3561515361
 10
-2.7059576082
 20
54.3440055975
 10
-2.6969063411
 20
54.3318978953
 10
-2.6863389988
 20
54.3198788265
 10
-2.674168201
 20
54.3080911484
 10
-2.6602973535
 20
54.2965621848
 10
-2.6447940543
 20
54.2853735266
 10
-2.6278539262
 20
54.2747526758
 10
-2.6093979811
 20
54.2647677589
 10
-2.5895486384
 20
54.2554685106
 10
-2.568866747
 20
54.2470321411
 10
-2.5474232386
 20
54.2395381475
 10
-2.5252645857
 20
54.2329665513
 10
-2.5029616717
 20
54.2273012757
 10
-2.4807523628
 20
54.2225244481
 10
-2.4585233527
 20
54.2186358006
 10
-2.436326318
 20
54.215618424
  0
LWPOLYLINE
  5
387
100
AcDbEntity
  8
0
100
AcDbPolyline
 62
250
  6
CONTINUOUS
 90
10
 70
0
 10
-1.7435541894
 20
55.1544249705
 10
-1.7427212735
 20
55.1425476918
 10
-1.7428126692
 20
55.1311642521
 10
-1.7438275372
 20
55.1203738951
 10
-1.7457570845
 20
55.1102702814
 10
-1.7485844196
 20
55.1009419481
 10
-1.752284333
 20
55.0924712023
 10
-1.7568240051
 20
55.08493181
 10
-1.7621636657
 20
55.0783887022
 10
-1.7682564683
 20
55.072898456
  0
LWPOLYLINE
  5
388
100
AcDbEntity
  8
0
100
AcDbPolyline
 62
7
  6
CONTINUOUS
 90
13
 70
0
 10
0.0624952921
 20
52.7670971894
 10
0.0619222294
 20
52.7828691769
 10
0.0610878295
 20
52.7983582237
 10
0.0599920924
 20
52.8135643298
 10
0.0585669157
 20
52.8285070176
 10
0.0568804019
 20
52.8431667647
 10
0.0551368578
 20
52.8574850039
 10
0.0533407384
 20
52.87145736
 10
0.0514875886
 20
52.8850882083
 10
0.0497683505
 20
52.898332108
 10
0.0482466711
 20
52.9111739122
 10
0.0468589032
 20
52.9236287678
 10
0.035224811
 20
53.032783727
  0
LWPOLYLINE
  5
389
100
AcDbEntity
  8
0
100
AcDbPolyline
 62
250
  6
CONTINUOUS
 90
46
 70
0
 10
1.2904698757
 20
52.0497828709
 10
1.2840341935
 20
52.266899114
 10
1.2649601155
 20
52.4887915344
 10
1.2332476417
 20
52.715460132
 10
1.1886050049
 20
52.9482734966
 10
1.1313239723
 20
53.1858630384
 10
1.0622798455
 20
53.4241229886
 10
0.9813313013
 20
53.6627954379
 10
0.8886196628
 20
53.9021382956
 10
0.7854442011
 20
54.1388195211
 10
0.6716265186
 20
54.372871899
 10
0.5473450128
 20
54.6042626447
 10
0.414434148
 20
54.8295613644
 10
0.2727819355
 20
55.0486485926
 10
0.122500364
 20
55.2616437947
 10
-0.0342401369
 20
55.4654749727
 10
-0.1975394535
 20
55.6600176446
 10
-0.3672976993
 20
55.8453962923
 10
-0.5410447856
 20
56.0189123638
 10
-0.7188369292
 20
56.180390181
 10
-0.9006179131
 20
56.3300054221
 10
-1.0837489975
 20
56.4655865693
 10
-1.2682506716
 20
56.5869294681
 10
-1.454102446
 20
56.6942382731
 10
-1.6386041133
 20
56.7859539306
 10
-1.8217351296
 20
56.861848629
 10
-2.0035160386
 20
56.9221501799
 10
-2.1813082644
 20
56.9659829651
 10
-2.3550557653
 20
56.9931063826
 10
-2.524814583
 20
57.0037610345
 10
-2.6881142659
 20
56.9977931087
 10
-2.8448546052
 20
56.9749628774
 10
-2.9951358097
 20
56.9355100685
 10
-3.1367880547
 20
56.8800000535
 10
-3.2696997911
 20
56.8081837832
 10
-3.393982568
 20
56.7203103068
 10
-3.5078012084
 20
56.6176921423
 10
-3.6109769752
 20
56.5001561025
 10
-3.7036886056
 20
56.3678753747
 10
-3.7846371333
 20
56.2226820385
 10
-3.8536812075
 20
56.0641563832
 10
-3.9109621791
 20
55.8927181196
 10
-3.9556051339
 20
55.7114584603
 10
-3.9873184338
 20
55.5214078095
 10
-4.0063937169
 20
55.321535763
 10
-4.0128309832
 20
55.1118423208
  0
LWPOLYLINE
  5
38A
100
AcDbEntity
  8
ASSI
100
AcDbPolyline
 62
7
  6
CONTINUOUS
 90
30
 70
0
 10
1.6440232663
 20
51.8456455742
 10
1.6408552615
 20
52.0059520762
 10
1.6315250513
 20
52.1688385867
 10
1.6160326357
 20
52.3343051056
 10
1.5943204397
 20
52.5027047941
 10
1.5664460384
 20
52.6736844909
 10
1.5325821565
 20
52.8461847131
 10
1.4926916034
 20
53.020214902
 10
1.4468115697
 20
53.1957656162
 10
1.3952263533
 20
53.371749048
 10
1.3379005284
 20
53.5481678843
 10
1.2748695208
 20
53.7250194382
 10
1.2065239047
 20
53.9012078413
 10
1.1328306798
 20
54.0767289759
 10
1.0538228465
 20
54.2515869596
 10
0.9699899803
 20
54.4246982774
 10
0.8813021207
 20
54.5960520835
 10
0.7877892283
 20
54.7656592237
 10
0.6900307596
 20
54.9324687199
 10
0.5880003524
 20
55.0964632005
 10
0.481724369
 20
55.257660037
 10
0.3718613532
 20
55.4150603663
 10
0.2583890318
 20
55.5686406144
 10
0.1413296779
 20
55.7184243552
 10
0.0214086551
 20
55.8634834472
 10
-0.1013918059
 20
56.0037885534
 10
-0.2270539359
 20
56.1393690108
 10
-0.354799064
 20
56.2693846892
 10
-0.4846401244
 20
56.3938010348
 10
-0.6165641828
 20
56.5126526013
  0
LINE
  5
38B
100
AcDbEntity
  8
0
100
AcDbLine
 62
250
  6
CONTINUOUS
 10
1.6379673898
 20
-56.3426310064
 11
1.6381442034
 21
-56.3364966458
  0
LWPOLYLINE
  5
38C
100
AcDbEntity
  8
0
100
AcDbPolyline
 62
7
  6
CONTINUOUS
 90
15
 70
0
 10
-2.7693633816
 20
-53.6336336308
 10
-2.7575842899
 20
-53.5369895159
 10
-2.7428973695
 20
-53.4556456351
 10
-2.7239066919
 20
-53.3780726036
 10
-2.7005289851
 20
-53.3040279762
 10
-2.6728475211
 20
-53.2337541981
 10
-2.6411121153
 20
-53.1679786043
 10
-2.6052688553
 20
-53.1067491435
 10
-2.5653716536
 20
-53.0500178671
 10
-2.5218320619
 20
-52.9983682639
 10
-2.4746018205
 20
-52.9518664974
 10
-2.4237291893
 20
-52.910446404
 10
-2.3697704992
 20
-52.8744929824
 10
-2.312911194
 20
-52.8441345654
 10
-2.25296583
 20
-52.8192428201
  0
LWPOLYLINE
  5
38D
100
AcDbEntity
  8
0
100
AcDbPolyline
 62
7
  6
CONTINUOUS
 90
15
 70
0
 10
0.047003414
 20
-55.5693571777
 10
0.035223185
 20
-55.6660086265
 10
0.0205362643
 20
-55.747352512
 10
0.0015455864
 20
-55.8249255471
 10
-0.0218321203
 20
-55.8989701765
 10
-0.0495135842
 20
-55.9692439554
 10
-0.0812489901
 20
-56.03501955
 10
-0.1170922502
 20
-56.0962490117
 10
-0.1569894522
 20
-56.1529802889
 10
-0.2005290443
 20
-56.2046298929
 10
-0.247759286
 20
-56.2511316601
 10
-0.2986319178
 20
-56.292551754
 10
-0.3525906086
 20
-56.3285051761
 10
-0.4094499148
 20
-56.3588635935
 10
-0.4693952802
 20
-56.3837553392
  0
LINE
  5
38E
100
AcDbEntity
  8
0
100
AcDbLine
 62
7
  6
CONTINUOUS
 10
0.047003414
 20
-55.5693571777
 11
0.0484003174
 21
-55.5585707996
  0
LWPOLYLINE
  5
38F
100
AcDbEntity
  8
0
100
AcDbPolyline
 62
7
  6
CONTINUOUS
 90
12
 70
0
 10
-2.7693633816
 20
-53.6336336308
 10
-2.7708990466
 20
-53.6454582691
 10
-2.7725744481
 20
-53.6575781606
 10
-2.7744729456
 20
-53.6699211559
 10
-2.7765111795
 20
-53.6825594045
 10
-2.7784390721
 20
-53.6957093546
 10
-2.7802596602
 20
-53.7093692301
 10
-2.781969907
 20
-53.723540807
 10
-2.7833106232
 20
-53.7384458621
 10
-2.7841954126
 20
-53.7541583209
 10
-2.7847106714
 20
-53.7706042577
 10
-2.7848563997
 20
-53.7877836728
  0
LWPOLYLINE
  5
390
100
AcDbEntity
  8
0
100
AcDbPolyline
 62
7
  6
CONTINUOUS
 90
11
 70
0
 10
0.0484003174
 20
-55.5585707996
 10
0.0502156889
 20
-55.5454047044
 10
0.0521141643
 20
-55.5330616164
 10
0.0541520209
 20
-55.5204255125
 10
0.0560794606
 20
-55.5072783751
 10
0.0578995307
 20
-55.4936220993
 10
0.0596091838
 20
-55.4794547899
 10
0.0609494805
 20
-55.4645527442
 10
0.0618341075
 20
-55.4488413944
 10
0.0623493781
 20
-55.4323953082
 10
0.0624952921
 20
-55.4152144856
  0
LWPOLYLINE
  5
391
100
AcDbEntity
  8
0
100
AcDbPolyline
 62
250
  6
CONTINUOUS
 90
10
 70
0
 10
-2.436326318
 20
-53.966693251
 10
-2.4392105241
 20
-53.9818551393
 10
-2.442712683
 20
-53.9982388249
 10
-2.4467753982
 20
-54.0155757968
 10
-2.4513320861
 20
-54.0335819205
 10
-2.4563080675
 20
-54.0519620951
 10
-2.4616217913
 20
-54.070415089
 10
-2.4671861713
 20
-54.0886384774
 10
-2.4729100133
 20
-54.1063335985
 10
-2.4786995096
 20
-54.1232104481
  0
LINE
  5
392
100
AcDbEntity
  8
0
100
AcDbLine
 62
7
  6
CONTINUOUS
 10
0.0482831797
 20
-55.5584838249
 11
0.0481925287
 21
-55.559119426
  0
LINE
  5
393
100
AcDbEntity
  8
0
100
AcDbLine
 62
250
  6
CONTINUOUS
 10
-0.2084836484
 20
-55.7034761963
 11
-0.2105647792
 21
-55.7148607041
  0
LINE
  5
394
100
AcDbEntity
  8
0
100
AcDbLine
 62
250
  6
CONTINUOUS
 10
0.0265168273
 20
-55.5494712479
 11
0.0225691233
 21
-55.5674114421
  0
LWPOLYLINE
  5
395
100
AcDbEntity
  8
0
100
AcDbPolyline
 62
250
  6
CONTINUOUS
 90
3
 70
0
 10
-2.024014913
 20
-54.0927011701
 10
-2.027136111
 20
-54.1066262185
 10
-2.0311969353
 20
-54.1216231723
  0
LWPOLYLINE
  5
396
100
AcDbEntity
  8
0
100
AcDbPolyline
 62
250
  6
CONTINUOUS
 90
22
 70
0
 10
-0.6811624113
 20
-56.1501744684
 10
-0.6841661594
 20
-56.1634127679
 10
-0.6868906074
 20
-56.1770020108
 10
-0.6893218504
 20
-56.1909079145
 10
-0.6914933517
 20
-56.2050665191
 10
-0.6933500816
 20
-56.219462685
 10
-0.6947426341
 20
-56.2341199129
 10
-0.6956941572
 20
-56.248979677
 10
-0.6961642232
 20
-56.2639691023
 10
-0.6959018091
 20
-56.2790546571
 10
-0.6949495623
 20
-56.2941813578
 10
-0.6932676583
 20
-56.3091835082
 10
-0.6904840246
 20
-56.3238150682
 10
-0.6866291291
 20
-56.3380003844
 10
-0.6817341698
 20
-56.3514825619
 10
-0.6754468349
 20
-56.3637323012
 10
-0.667786418
 20
-56.3745877281
 10
-0.6588901819
 20
-56.3838572869
 10
-0.6485986598
 20
-56.3910378107
 10
-0.6369275546
 20
-56.3959071446
 10
-0.6240769347
 20
-56.3984607141
 10
-0.6101700736
 20
-56.3985862746
  0
LWPOLYLINE
  5
397
100
AcDbEntity
  8
0
100
AcDbPolyline
 62
250
  6
CONTINUOUS
 90
5
 70
0
 10
-0.2192339753
 20
-55.7084631791
 10
-0.2192697743
 20
-55.7086004679
 10
-0.2184424972
 20
-55.7102144018
 10
-0.2155338565
 20
-55.7123764328
 10
-0.2105647793
 20
-55.7148607037
  0
LINE
  5
398
100
AcDbEntity
  8
0
100
AcDbLine
 62
7
  6
CONTINUOUS
 10
-0.8838565375
 20
-54.4361986494
 11
-0.8430712256
 21
-54.2956114755
  0
LWPOLYLINE
  5
399
100
AcDbEntity
  8
0
100
AcDbPolyline
 62
250
  6
CONTINUOUS
 90
3
 70
0
 10
-2.0311969353
 20
-54.1216231723
 10
-2.0459970091
 20
-54.1709548885
 10
-2.0515542657
 20
-54.1880601919
  0
LINE
  5
39A
100
AcDbEntity
  8
0
100
AcDbLine
 62
250
  6
CONTINUOUS
 10
-0.0085510081
 20
52.754825278
 11
-0.0043970482
 21
52.7401584961
  0
LWPOLYLINE
  5
39B
100
AcDbEntity
  8
0
100
AcDbPolyline
 62
250
  6
CONTINUOUS
 90
10
 70
0
 10
-2.0688353526
 20
53.9444076371
 10
-2.0530081173
 20
53.8864455531
 10
-2.0354461172
 20
53.8282792053
 10
-2.0161793885
 20
53.7700080746
 10
-1.9952408825
 20
53.711731821
 10
-1.9726664102
 20
53.6535501134
 10
-1.9484945802
 20
53.595562459
 10
-1.9227667331
 20
53.537868033
 10
-1.8955268709
 20
53.4805655092
 10
-1.8668215814
 20
53.4237528911
  0
LWPOLYLINE
  5
39C
100
AcDbEntity
  8
0
100
AcDbPolyline
 62
250
  6
CONTINUOUS
 90
10
 70
0
 10
-1.9645217622
 20
53.9826637719
 10
-1.9491449047
 20
53.9263510501
 10
-1.9320826469
 20
53.8698398768
 10
-1.9133641698
 20
53.8132269021
 10
-1.8930214873
 20
53.75660895
 10
-1.8710893911
 20
53.7000828532
 10
-1.8476053914
 20
53.6437452876
 10
-1.8226096525
 20
53.5876926063
 10
-1.7961449241
 20
53.5320206752
 10
-1.7682564683
 20
53.476824709
  0
LINE
  5
39D
100
AcDbEntity
  8
0
100
AcDbLine
 62
250
  6
CONTINUOUS
 10
-0.0043970482
 20
52.7401584961
 11
-0.0004431159
 21
52.7254001268
  0
LINE
  5
39E
100
AcDbEntity
  8
0
100
AcDbLine
 62
250
  6
CONTINUOUS
 10
-0.0004431159
 20
52.7254001268
 11
0.0033132221
 21
52.7105273121
  0
LWPOLYLINE
  5
39F
100
AcDbEntity
  8
0
100
AcDbPolyline
 62
250
  6
CONTINUOUS
 90
3
 70
0
 10
0.0033132221
 20
52.7105273121
 10
0.0068472577
 20
52.6956407531
 10
0.0101905265
 20
52.6805807908
  0
LWPOLYLINE
  5
3A0
100
AcDbEntity
  8
0
100
AcDbPolyline
 62
250
  6
CONTINUOUS
 90
4
 70
0
 10
0.0101905265
 20
52.6805807908
 10
0.0134271032
 20
52.6649819893
 10
0.0165831931
 20
52.6487603137
 10
0.0196308346
 20
52.6320585377
  0
LWPOLYLINE
  5
3A1
100
AcDbEntity
  8
0
100
AcDbPolyline
 62
250
  6
CONTINUOUS
 90
16
 70
0
 10
0.0196308346
 20
52.6320585377
 10
0.0235823544
 20
52.6089382291
 10
0.0246896742
 20
52.6033747027
 10
0.0258855861
 20
52.5982281025
 10
0.0271550004
 20
52.5934503162
 10
0.0285009233
 20
52.5891282085
 10
0.0299422087
 20
52.5854879365
 10
0.0314673124
 20
52.5825183909
 10
0.0330652613
 20
52.5802846846
 10
0.0347486325
 20
52.5791357744
 10
0.0365002041
 20
52.5790639171
 10
0.0382980647
 20
52.5801441915
 10
0.0401376638
 20
52.5828520005
 10
0.0419953025
 20
52.5873665973
 10
0.0438323675
 20
52.593573414
 10
0.0456140048
 20
52.6015049127
  0
LINE
  5
3A2
100
AcDbEntity
  8
0
100
AcDbLine
 62
250
  6
CONTINUOUS
 10
-0.0036838611
 20
-55.411009634
 11
-0.0085510081
 21
-55.4274863971
  0
LWPOLYLINE
  5
3A3
100
AcDbEntity
  8
0
100
AcDbPolyline
 62
7
  6
CONTINUOUS
 90
3
 70
0
 10
-0.9277190542
 20
-54.5843595597
 10
-0.9127563037
 20
-54.5341310633
 10
-0.8838565375
 20
-54.4361986494
  0
LWPOLYLINE
  5
3A4
100
AcDbEntity
  8
0
100
AcDbPolyline
 62
250
  6
CONTINUOUS
 90
4
 70
0
 10
-0.0035769908
 20
-55.4019814739
 10
-0.0056031474
 20
-55.4082880829
 10
-0.007634002
 20
-55.4177541121
 10
-0.0085510081
 20
-55.4274863971
  0
LWPOLYLINE
  5
3A5
100
AcDbEntity
  8
0
100
AcDbPolyline
 62
250
  6
CONTINUOUS
 90
3
 70
0
 10
-2.0515542657
 20
-54.1880601919
 10
-2.0633620829
 20
-54.2217772317
 10
-2.0688353526
 20
-54.237904038
  0
LINE
  5
3A6
100
AcDbEntity
  8
0
100
AcDbLine
 62
250
  6
CONTINUOUS
 10
-0.2283580967
 20
-55.7641663379
 11
-0.2105647793
 21
-55.7148607037
  0
LINE
  5
3A7
100
AcDbEntity
  8
0
100
AcDbLine
 62
250
  6
CONTINUOUS
 10
-0.00352848
 20
-55.4018495096
 11
-0.0035769908
 21
-55.4019814739
  0
LINE
  5
3A8
100
AcDbEntity
  8
0
100
AcDbLine
 62
250
  6
CONTINUOUS
 10
-0.2459977891
 20
-55.8120563458
 11
-0.2283580967
 21
-55.7641663379
  0
LINE
  5
3A9
100
AcDbEntity
  8
ASSI
100
AcDbLine
 62
7
  6
CONTINUOUS
 10
-2.4095543434
 20
-50.7450298858
 11
-2.420656148
 21
-50.7746886208
  0
LWPOLYLINE
  5
3AA
100
AcDbEntity
  8
0
100
AcDbPolyline
 62
7
  6
CONTINUOUS
 90
5
 70
0
 10
-0.219244233
 20
-55.7084907182
 10
-0.2339386394
 20
-55.7477275482
 10
-0.2554855268
 20
-55.8045007616
 10
-0.2780407709
 20
-55.8630647479
 10
-0.3016055588
 20
-55.9234148947
  0
LINE
  5
3AB
100
AcDbEntity
  8
0
100
AcDbLine
 62
250
  6
CONTINUOUS
 10
-0.2803168791
 20
-55.9033331253
 11
-0.2459977891
 21
-55.8120563458
  0
LINE
  5
3AC
100
AcDbEntity
  8
0
100
AcDbLine
 62
250
  6
CONTINUOUS
 10
-0.3132483261
 20
-55.9894981608
 11
-0.2803168791
 21
-55.9033331253
  0
LINE
  5
3AD
100
AcDbEntity
  8
0
100
AcDbLine
 62
250
  6
CONTINUOUS
 10
-0.3622373993
 20
-56.1148166694
 11
-0.3132483261
 21
-55.9894981608
  0
LWPOLYLINE
  5
3AE
100
AcDbEntity
  8
0
100
AcDbPolyline
 62
7
  6
CONTINUOUS
 90
10
 70
0
 10
-0.003525812
 20
-55.4018422699
 10
-0.0164169813
 20
-55.4343536294
 10
-0.0306822606
 20
-55.4655917958
 10
-0.0463192063
 20
-55.4954519267
 10
-0.0632836508
 20
-55.5237759075
 10
-0.0816004589
 20
-55.5505403409
 10
-0.1013918187
 20
-55.5758191071
 10
-0.1227201457
 20
-55.5995504419
 10
-0.1455633828
 20
-55.6215756139
 10
-0.1699455449
 20
-55.6417992514
  0
LINE
  5
3AF
100
AcDbEntity
  8
0
100
AcDbLine
 62
250
  6
CONTINUOUS
 10
-2.0530080562
 20
-53.3634260947
 11
-2.0688353526
 21
-53.4031114259
  0
LINE
  5
3B0
100
AcDbEntity
  8
0
100
AcDbLine
 62
250
  6
CONTINUOUS
 10
-1.9491449052
 20
-53.3500541289
 11
-1.9645217622
 21
-53.3886100402
  0
LINE
  5
3B1
100
AcDbEntity
  8
0
100
AcDbLine
 62
250
  6
CONTINUOUS
 10
-0.0243782446
 20
-55.4671715891
 11
-0.0085510081
 21
-55.4274863971
  0
LWPOLYLINE
  5
3B2
100
AcDbEntity
  8
0
100
AcDbPolyline
 62
7
  6
CONTINUOUS
 90
3
 70
0
 10
-0.3016055588
 20
-55.9234148947
 10
-0.3517712382
 20
-56.0494668038
 10
-0.3755003785
 20
-56.1081053175
  0
LWPOLYLINE
  5
3B3
100
AcDbEntity
  8
0
100
AcDbPolyline
 62
250
  6
CONTINUOUS
 90
6
 70
0
 10
-1.9645217622
 20
-53.3886100402
 10
-1.9682333342
 20
-53.3970678282
 10
-1.9727850312
 20
-53.4045948027
 10
-1.9781372135
 20
-53.4111253063
 10
-1.9842433095
 20
-53.4166024012
 10
-1.989564061
 20
-53.4201519302
  0
LINE
  5
3B4
100
AcDbEntity
  8
0
100
AcDbLine
 62
250
  6
CONTINUOUS
 10
-2.0354461111
 20
-53.3255400339
 11
-2.0530080562
 21
-53.3634260947
  0
LWPOLYLINE
  5
3B5
100
AcDbEntity
  8
0
100
AcDbPolyline
 62
250
  6
CONTINUOUS
 90
7
 70
0
 10
1.5402131966
 20
-57.1784559943
 10
1.5322754848
 20
-57.1982247038
 10
1.4558887528
 20
-57.3487836386
 10
1.3686393152
 20
-57.4868851753
 10
1.2709007852
 20
-57.6119379445
 10
1.1630916917
 20
-57.7234064516
 10
1.0456736907
 20
-57.8208133685
  0
LWPOLYLINE
  5
3B6
100
AcDbEntity
  8
0
100
AcDbPolyline
 62
7
  6
CONTINUOUS
 90
14
 70
0
 10
-0.3755004846
 20
-56.108105354
 10
-0.3900678323
 20
-56.1424816871
 10
-0.4040517224
 20
-56.1729488937
 10
-0.4181547773
 20
-56.201396198
 10
-0.4326047294
 20
-56.2283524529
 10
-0.4473982278
 20
-56.253800379
 10
-0.4623505618
 20
-56.277427282
 10
-0.4774306603
 20
-56.2992047798
 10
-0.4925408703
 20
-56.3190083171
 10
-0.5074157403
 20
-56.3365384772
 10
-0.5216714205
 20
-56.3514709966
 10
-0.5350223365
 20
-56.3637199468
 10
-0.5470153147
 20
-56.3731585414
 10
-0.5576068664
 20
-56.3800446446
  0
LINE
  5
3B7
100
AcDbEntity
  8
0
100
AcDbLine
 62
250
  6
CONTINUOUS
 10
0.0032041178
 20
-55.3949114448
 11
-0.0036838611
 21
-55.411009634
  0
LWPOLYLINE
  5
3B8
100
AcDbEntity
  8
0
100
AcDbPolyline
 62
250
  6
CONTINUOUS
 90
6
 70
0
 10
-0.4015667771
 20
-56.2048775382
 10
-0.3927010633
 20
-56.1860677996
 10
-0.3843563125
 20
-56.1676442803
 10
-0.376495411
 20
-56.1496339131
 10
-0.3691269434
 20
-56.1320228888
 10
-0.3622373993
 20
-56.1148166694
  0
LINE
  5
3B9
100
AcDbEntity
  8
0
100
AcDbLine
 62
250
  6
CONTINUOUS
 10
-1.7435541894
 20
-54.8155390531
 11
-1.7886024155
 21
-54.8921445332
  0
LINE
  5
3BA
100
AcDbEntity
  8
0
100
AcDbLine
 62
250
  6
CONTINUOUS
 10
-1.7886024155
 20
-54.8921445332
 11
-1.8354256225
 21
-54.9707505106
  0
LINE
  5
3BB
100
AcDbEntity
  8
0
100
AcDbLine
 62
250
  6
CONTINUOUS
 10
-1.8354256225
 20
-54.9707505106
 11
-1.8843828789
 21
-55.0519524261
  0
LWPOLYLINE
  5
3BC
100
AcDbEntity
  8
0
100
AcDbPolyline
 62
250
  6
CONTINUOUS
 90
3
 70
0
 10
-1.8843828789
 20
-55.0519524261
 10
-1.9369104596
 20
-55.1381320432
 10
-1.9644233543
 20
-55.1829396296
  0
LWPOLYLINE
  5
3BD
100
AcDbEntity
  8
0
100
AcDbPolyline
 62
250
  6
CONTINUOUS
 90
10
 70
0
 10
-1.6249683386
 20
-55.6052327547
 10
-1.6281114737
 20
-55.6102854663
 10
-1.630144881
 20
-55.6174587576
 10
-1.6310352351
 20
-55.6266350661
 10
-1.6307679441
 20
-55.6376640018
 10
-1.6293473885
 20
-55.6503648123
 10
-1.6267968498
 20
-55.664529345
 10
-1.6231581285
 20
-55.6799254582
 10
-1.6184908594
 20
-55.6963008262
 10
-1.612871534
 20
-55.7133870742
  0
LINE
  5
3BE
100
AcDbEntity
  8
0
100
AcDbLine
 62
250
  6
CONTINUOUS
 10
-1.8668215814
 20
-54.758558784
 11
-1.9371968395
 21
-54.8703870999
  0
LWPOLYLINE
  5
3BF
100
AcDbEntity
  8
0
100
AcDbPolyline
 62
250
  6
CONTINUOUS
 90
10
 70
0
 10
-1.9644233543
 20
-52.8427964796
 10
-1.9746480803
 20
-52.8589587787
 10
-1.9864286715
 20
-52.8741230974
 10
-1.9995720581
 20
-52.8880409081
 10
-2.0138628358
 20
-52.900484112
 10
-2.0290667946
 20
-52.9112487768
 10
-2.0449347576
 20
-52.920158479
 10
-2.0612066656
 20
-52.9270671968
 10
-2.0776158396
 20
-52.9318617022
 10
-2.0938933506
 20
-52.934463417
  0
LWPOLYLINE
  5
3C0
100
AcDbEntity
  8
0
100
AcDbPolyline
 62
250
  6
CONTINUOUS
 90
16
 70
0
 10
-2.0938933506
 20
-55.1149802259
 10
-2.1036218638
 20
-55.1302911502
 10
-2.1131612802
 20
-55.1464315216
 10
-2.1224978766
 20
-55.163411805
 10
-2.1316750522
 20
-55.181205652
 10
-2.1406204403
 20
-55.1998599141
 10
-2.1491426279
 20
-55.219495849
 10
-2.1572599566
 20
-55.2401216254
 10
-2.1649137587
 20
-55.2617505816
 10
-2.1717887733
 20
-55.2845121408
 10
-2.1779289041
 20
-55.3084230239
 10
-2.1832356611
 20
-55.3334827826
 10
-2.1871700454
 20
-55.3597891385
 10
-2.189527079
 20
-55.3873703987
 10
-2.1904409249
 20
-55.4161894163
 10
-2.189875488
 20
-55.4462362203
  0
LINE
  5
3C1
100
AcDbEntity
  8
0
100
AcDbLine
 62
250
  6
CONTINUOUS
 10
-1.9371968395
 20
-54.8703870999
 11
-1.9861942268
 21
-54.9474847599
  0
LINE
  5
3C2
100
AcDbEntity
  8
0
100
AcDbLine
 62
250
  6
CONTINUOUS
 10
-1.9861942268
 20
-54.9474847599
 11
-2.0938933506
 21
-55.1149802259
  0
LWPOLYLINE
  5
3C3
100
AcDbEntity
  8
0
100
AcDbPolyline
 62
250
  6
CONTINUOUS
 90
10
 70
0
 10
-1.7435541895
 20
-53.0278867044
 10
-1.7532608627
 20
-53.0427491577
 10
-1.7646104325
 20
-53.0566934203
 10
-1.7773183293
 20
-53.0695332994
 10
-1.7909156936
 20
-53.0811694295
 10
-1.8051945345
 20
-53.0914539703
 10
-1.82024573
 20
-53.1001311972
 10
-1.8358602843
 20
-53.1070552518
 10
-1.8515120888
 20
-53.1122509639
 10
-1.8668215814
 20
-53.1157371193
  0
LINE
  5
3C4
100
AcDbEntity
  8
0
100
AcDbLine
 62
7
  6
CONTINUOUS
 10
-2.25296857
 20
52.8283725712
 11
-2.1802697153
 21
52.7219331695
  0
LINE
  5
3C5
100
AcDbEntity
  8
0
100
AcDbLine
 62
7
  6
CONTINUOUS
 10
-2.1802697153
 20
52.7219331695
 11
-2.1600407611
 21
52.6918214784
  0
LWPOLYLINE
  5
3C6
100
AcDbEntity
  8
0
100
AcDbPolyline
 62
7
  6
CONTINUOUS
 90
6
 70
0
 10
-2.1600407611
 20
52.6918214784
 10
-2.1387898598
 20
52.6593788815
 10
-2.1274239403
 20
52.6424497284
 10
-2.1153738475
 20
52.625137331
 10
-2.1027348451
 20
52.6073973599
 10
-2.089506933
 20
52.5892298151
  0
LWPOLYLINE
  5
3C7
100
AcDbEntity
  8
0
100
AcDbPolyline
 62
7
  6
CONTINUOUS
 90
14
 70
0
 10
-2.25296857
 20
52.8283725712
 10
-2.312919553
 20
52.9224971306
 10
-2.3697824635
 20
53.0185218503
 10
-2.4237421011
 20
53.1167882902
 10
-2.4746136663
 20
53.2169548905
 10
-2.5218427607
 20
53.3179969719
 10
-2.5653817694
 20
53.4199258934
 10
-2.6052783075
 20
53.5227302961
 10
-2.6411208211
 20
53.6253514238
 10
-2.6728555382
 20
53.7277764834
 10
-2.700536231
 20
53.8300182681
 10
-2.7239126626
 20
53.9310564008
 10
-2.7429014208
 20
54.0305507558
 10
-2.7575859178
 20
54.1288414587
  0
LINE
  5
3C8
100
AcDbEntity
  8
0
100
AcDbLine
 62
250
  6
CONTINUOUS
 10
-2.0633621016
 20
54.7686939023
 11
-2.0688353526
 21
54.7792002491
  0
LWPOLYLINE
  5
3C9
100
AcDbEntity
  8
0
100
AcDbPolyline
 62
7
  6
CONTINUOUS
 90
7
 70
0
 10
-0.8575962965
 20
54.0026284789
 10
-0.8988979691
 20
54.0856068483
 10
-0.9369452192
 20
54.1695490565
 10
-0.9715916621
 20
54.2541321402
 10
-1.0027039974
 20
54.3390306704
 10
-1.0301625219
 20
54.4239180041
 10
-1.0538615904
 20
54.5084675418
  0
LWPOLYLINE
  5
3CA
100
AcDbEntity
  8
0
100
AcDbPolyline
 62
250
  6
CONTINUOUS
 90
10
 70
0
 10
-1.7682564683
 20
53.476824709
 10
-1.7621613958
 20
53.4642936364
 10
-1.7568206984
 20
53.4515809006
 10
-1.7522809672
 20
53.4387973137
 10
-1.748581789
 20
53.4260542161
 10
-1.7457554896
 20
53.4134628013
 10
-1.7438267833
 20
53.4011331314
 10
-1.7428124677
 20
53.3891727775
 10
-1.7427213454
 20
53.3776858996
 10
-1.7435541894
 20
53.366772622
  0
LWPOLYLINE
  5
3CB
100
AcDbEntity
  8
0
100
AcDbPolyline
 62
7
  6
CONTINUOUS
 90
10
 70
0
 10
-0.8575962965
 20
54.0026284789
 10
-0.8517078803
 20
53.9901582483
 10
-0.8467994893
 20
53.9773330726
 10
-0.842921849
 20
53.9642599134
 10
-0.8401315589
 20
53.9510512431
 10
-0.8384532482
 20
53.9378136691
 10
-0.8378853898
 20
53.9246484137
 10
-0.8384470665
 20
53.9116649865
 10
-0.8401712177
 20
53.8989787096
 10
-0.8430712256
 20
53.8867001996
  0
LWPOLYLINE
  5
3CC
100
AcDbEntity
  8
0
100
AcDbPolyline
 62
7
  6
CONTINUOUS
 90
10
 70
0
 10
14.9773955651
 20
61.9734014634
 10
14.9865580062
 20
61.9048865844
 10
14.9908418184
 20
61.8396043593
 10
14.990286745
 20
61.7779453799
 10
14.9849587856
 20
61.720280578
 10
14.9749498371
 20
61.6669592129
 10
14.9603771961
 20
61.6183069762
 10
14.9413829217
 20
61.5746242248
 10
14.9181330648
 20
61.5361843508
 10
14.9156573015
 20
61.533197801
  0
LWPOLYLINE
  5
3CD
100
AcDbEntity
  8
0
100
AcDbPolyline
 62
7
  6
CONTINUOUS
 90
10
 70
0
 10
18.9371929686
 20
64.2597388564
 10
18.9475079441
 20
64.1789702984
 10
18.9509949669
 20
64.1026044332
 10
18.9476692566
 20
64.0313327302
 10
18.937555587
 20
63.9656106358
 10
18.9207793372
 20
63.906318159
 10
18.8977818478
 20
63.8545262496
 10
18.8691332348
 20
63.8107469283
 10
18.8351746229
 20
63.7749393247
 10
18.7968985995
 20
63.7475679582
  0
LWPOLYLINE
  5
3CE
100
AcDbEntity
  8
0
100
AcDbPolyline
 62
7
  6
CONTINUOUS
 90
10
 70
0
 10
19.927142434
 20
64.8313232707
 10
19.9374549818
 20
64.7505826407
 10
19.9409444448
 20
64.6742192583
 10
19.9376199374
 20
64.6029289247
 10
19.9274989655
 20
64.5371664135
 10
19.9107013113
 20
64.4778257536
 10
19.8876711244
 20
64.4259994805
 10
19.858975167
 20
64.3821948472
 10
19.8249585884
 20
64.3463796434
 10
19.7868482503
 20
64.3191524797
  0
LWPOLYLINE
  5
3CF
100
AcDbEntity
  8
0
100
AcDbPolyline
 62
7
  6
CONTINUOUS
 90
10
 70
0
 10
15.9673442837
 20
62.5449854466
 10
15.9777099059
 20
62.4636377741
 10
15.9811465582
 20
62.3865590222
 10
15.9776137651
 20
62.3145030986
 10
15.9670753462
 20
62.2479617817
 10
15.9496107934
 20
62.1879398861
 10
15.9256745449
 20
62.135673414
 10
15.8957742572
 20
62.0916285355
 10
15.8603042334
 20
62.0559262841
 10
15.827050046
 20
62.0328146244
  0
LWPOLYLINE
  5
3D0
100
AcDbEntity
  8
0
100
AcDbPolyline
 62
7
  6
CONTINUOUS
 90
10
 70
0
 10
16.9572944034
 20
63.1165702388
 10
16.9676583683
 20
63.0352416966
 10
16.9710967031
 20
62.958155104
 10
16.9675620567
 20
62.8860695873
 10
16.9570110278
 20
62.8194811647
 10
16.9395168011
 20
62.7594052412
 10
16.9155313346
 20
62.7070916501
 10
16.8855518362
 20
62.6630033058
 10
16.849975857
 20
62.6272814289
 10
16.8170002377
 20
62.6043994581
  0
LWPOLYLINE
  5
3D1
100
AcDbEntity
  8
0
100
AcDbPolyline
 62
7
  6
CONTINUOUS
 90
10
 70
0
 10
17.9472444138
 20
63.6881549677
 10
17.957608991
 20
63.6068192464
 10
17.961046664
 20
63.5297018635
 10
17.9575032664
 20
63.4575678458
 10
17.9469282623
 20
63.3909180836
 10
17.9293887551
 20
63.3307792127
 10
17.9053347161
 20
63.2784153568
 10
17.8752540402
 20
63.2342872452
 10
17.8395475642
 20
63.198555347
 10
17.8069501243
 20
63.1759841156
  0
LWPOLYLINE
  5
3D2
100
AcDbEntity
  8
0
100
AcDbPolyline
 62
250
  6
CONTINUOUS
 90
4
 70
0
 10
-0.0821454819
 20
-55.5751771693
 10
-0.0612069753
 20
-55.5410801774
 10
-0.0419402457
 20
-55.5050577811
 10
-0.0243782446
 20
-55.4671715891
  0
LWPOLYLINE
  5
3D3
100
AcDbEntity
  8
0
100
AcDbPolyline
 62
250
  6
CONTINUOUS
 90
7
 70
0
 10
-0.4688429012
 20
-56.3235493061
 10
-0.4556793066
 20
-56.3032415246
 10
-0.4433582826
 20
-56.2830890593
 10
-0.4318439458
 20
-56.2631625691
 10
-0.4211192601
 20
-56.2434371649
 10
-0.4110389288
 20
-56.2240034505
 10
-0.4015667771
 20
-56.2048775382
  0
LWPOLYLINE
  5
3D4
100
AcDbEntity
  8
0
100
AcDbPolyline
 62
250
  6
CONTINUOUS
 90
4
 70
0
 10
0.0520956211
 20
-55.5002828948
 10
0.0414020472
 20
-55.5156296582
 10
0.0328289498
 20
-55.5321158403
 10
0.0265168273
 20
-55.5494712479
  0
LWPOLYLINE
  5
3D5
100
AcDbEntity
  8
0
100
AcDbPolyline
 62
250
  6
CONTINUOUS
 90
10
 70
0
 10
-1.2441539039
 20
-55.4368093171
 10
-1.2475373122
 20
-55.4416278208
 10
-1.2503206476
 20
-55.448496005
 10
-1.2522645152
 20
-55.4572433222
 10
-1.2529821016
 20
-55.4675311727
 10
-1.2524658955
 20
-55.4791931816
 10
-1.251066319
 20
-55.4922948412
 10
-1.2487980309
 20
-55.5066623001
 10
-1.2453729824
 20
-55.5218399738
 10
-1.2407069516
 20
-55.5374658302
  0
LWPOLYLINE
  5
3D6
100
AcDbEntity
  8
0
100
AcDbPolyline
 62
250
  6
CONTINUOUS
 90
22
 70
0
 10
-1.9644233543
 20
-55.1829396296
 10
-1.9733420216
 20
-55.1948413102
 10
-1.9822201844
 20
-55.2073215191
 10
-1.9910263236
 20
-55.2203927342
 10
-1.999741966
 20
-55.2340450168
 10
-2.0083207376
 20
-55.2483069714
 10
-2.0166791709
 20
-55.2632505386
 10
-2.0247880531
 20
-55.2788795341
 10
-2.0325866392
 20
-55.2952022815
 10
-2.039920408
 20
-55.3123020611
 10
-2.0467602251
 20
-55.3301790851
 10
-2.0530110332
 20
-55.3488249676
 10
-2.0583835471
 20
-55.3683099629
 10
-2.06285364
 20
-55.3886874217
 10
-2.0662717618
 20
-55.4098450829
 10
-2.0681298461
 20
-55.4315890691
 10
-2.0683647079
 20
-55.4539354588
 10
-2.0668589566
 20
-55.4766989871
 10
-2.0630335326
 20
-55.4993534608
 10
-2.0566689646
 20
-55.5216226307
 10
-2.0478952127
 20
-55.5434753162
 10
-2.036690641
 20
-55.5647184927
  0
LWPOLYLINE
  5
3D7
100
AcDbEntity
  8
0
100
AcDbPolyline
 62
250
  6
CONTINUOUS
 90
3
 70
0
 10
0.0226702219
 20
-55.3653774408
 10
0.0120387612
 20
-55.3795529641
 10
0.0032041178
 20
-55.3949114448
  0
LWPOLYLINE
  5
3D8
100
AcDbEntity
  8
0
100
AcDbPolyline
 62
250
  6
CONTINUOUS
 90
11
 70
0
 10
-2.0648130157
 20
-52.766503156
 10
-2.0672762119
 20
-52.7697609347
 10
-2.0685196213
 20
-52.7746935242
 10
-2.0677029344
 20
-52.7797809082
 10
-2.0649702333
 20
-52.7848570945
 10
-2.0609684092
 20
-52.7900498416
 10
-2.0558950424
 20
-52.7951914481
 10
-2.0497736127
 20
-52.8001110722
 10
-2.0429544302
 20
-52.8049954257
 10
-2.0355526274
 20
-52.809793822
 10
-2.0275968612
 20
-52.8143757357
  0
LWPOLYLINE
  5
3D9
100
AcDbEntity
  8
0
100
AcDbPolyline
 62
250
  6
CONTINUOUS
 90
3
 70
0
 10
-0.1288917843
 20
-55.6373650718
 10
-0.1047199544
 20
-55.6072904417
 10
-0.0821454819
 20
-55.5751771693
  0
LWPOLYLINE
  5
3DA
100
AcDbEntity
  8
0
100
AcDbPolyline
 62
250
  6
CONTINUOUS
 90
13
 70
0
 10
-2.7679687001
 20
54.2259518362
 10
-2.750915125
 20
54.2071983212
 10
-2.732113526
 20
54.1890607683
 10
-2.7115801533
 20
54.1715745572
 10
-2.6890886363
 20
54.1546352846
 10
-2.6648958246
 20
54.1384179465
 10
-2.6397519703
 20
54.1233548999
 10
-2.6136653328
 20
54.1095437622
 10
-2.5866750223
 20
54.0968998836
 10
-2.5595860686
 20
54.0855410001
 10
-2.5326799631
 20
54.0754872747
 10
-2.505712734
 20
54.066680512
 10
-2.4786995096
 20
54.059101227
  0
LWPOLYLINE
  5
3DB
100
AcDbEntity
  8
0
100
AcDbPolyline
 62
250
  6
CONTINUOUS
 90
10
 70
0
 10
-2.0240149128
 20
54.0896105049
 10
-2.0150509069
 20
54.0795695075
 10
-2.0065191706
 20
54.0688338919
 10
-1.9984940829
 20
54.057497307
 10
-1.9910453029
 20
54.0456581347
 10
-1.9842381047
 20
54.0334200992
 10
-1.9781325331
 20
54.0208915097
 10
-1.972781717
 20
54.0081822187
 10
-1.9682316941
 20
53.9954025235
 10
-1.9645217622
 20
53.9826637719
  0
LWPOLYLINE
  5
3DC
100
AcDbEntity
  8
0
100
AcDbPolyline
 62
7
  6
CONTINUOUS
 90
8
 70
0
 10
-2.089506933
 20
52.5892298151
 10
-2.0755110288
 20
52.5714180071
 10
-2.0617312643
 20
52.5545055485
 10
-2.0481676396
 20
52.5384924391
 10
-2.0347871468
 20
52.5234755944
 10
-2.0216227939
 20
52.509358099
 10
-2.0087736039
 20
52.4958492068
 10
-1.996245862
 20
52.482953547
  0
LWPOLYLINE
  5
3DD
100
AcDbEntity
  8
0
100
AcDbPolyline
 62
7
  6
CONTINUOUS
 90
8
 70
0
 10
-0.6328541746
 20
54.5723953766
 10
-0.6468500788
 20
54.5902071846
 10
-0.6606298433
 20
54.6071196433
 10
-0.674193468
 20
54.6231327526
 10
-0.6875739607
 20
54.6381495973
 10
-0.7007383137
 20
54.6522670927
 10
-0.7135875037
 20
54.665775985
 10
-0.7261172685
 20
54.6786737554
  0
LWPOLYLINE
  5
3DE
100
AcDbEntity
  8
0
100
AcDbPolyline
 62
250
  6
CONTINUOUS
 90
5
 70
0
 10
-0.3755004062
 20
52.0742062891
 10
-0.3752849111
 20
52.0739246758
 10
-0.3731506122
 20
52.0726705153
 10
-0.3687775521
 20
52.0705155194
 10
-0.3622373993
 20
52.0674950056
  0
LWPOLYLINE
  5
3DF
100
AcDbEntity
  8
0
100
AcDbPolyline
 62
250
  6
CONTINUOUS
 90
19
 70
0
 10
-2.036690641
 20
52.6175931824
 10
-2.0230578735
 20
52.5985597672
 10
-2.0068248591
 20
52.5812722719
 10
-1.9880664531
 20
52.5658883495
 10
-1.9665959254
 20
52.5524655564
 10
-1.9427775868
 20
52.5412968112
 10
-1.9175615254
 20
52.5327553356
 10
-1.8909198257
 20
52.526961204
 10
-1.8631337474
 20
52.5237804752
 10
-1.8356280586
 20
52.5229042207
 10
-1.8087346259
 20
52.5241567327
 10
-1.7822409788
 20
52.5273144051
 10
-1.756715614
 20
52.5318550105
 10
-1.7323377364
 20
52.5375308961
 10
-1.7089251563
 20
52.5442221584
 10
-1.6864956078
 20
52.5516520735
 10
-1.6650477685
 20
52.5596643442
 10
-1.6445479894
 20
52.5681781871
 10
-1.6249683386
 20
52.5770789204
  0
LINE
  5
3E0
100
AcDbEntity
  8
0
100
AcDbLine
 62
7
  6
CONTINUOUS
 10
-0.4693925329
 20
54.3332526133
 11
-0.5420913888
 21
54.4396920172
  0
LINE
  5
3E1
100
AcDbEntity
  8
0
100
AcDbLine
 62
7
  6
CONTINUOUS
 10
-0.5420913888
 20
54.4396920172
 11
-0.5623203465
 21
54.4698037133
  0
LWPOLYLINE
  5
3E2
100
AcDbEntity
  8
0
100
AcDbPolyline
 62
7
  6
CONTINUOUS
 90
6
 70
0
 10
-0.5623203465
 20
54.4698037133
 10
-0.5835712479
 20
54.5022463106
 10
-0.5949371672
 20
54.5191754633
 10
-0.6069872601
 20
54.5364878607
 10
-0.6196262625
 20
54.5542278318
 10
-0.6328541746
 20
54.5723953766
  0
LWPOLYLINE
  5
3E3
100
AcDbEntity
  8
0
100
AcDbPolyline
 62
7
  6
CONTINUOUS
 90
14
 70
0
 10
-0.4693925329
 20
54.3332526133
 10
-0.409441551
 20
54.2391280553
 10
-0.3525786412
 20
54.1431033365
 10
-0.298619004
 20
54.0448368969
 10
-0.247747439
 20
53.9446702964
 10
-0.2005183447
 20
53.8436282149
 10
-0.1569793361
 20
53.7416992934
 10
-0.1170827983
 20
53.6388948907
 10
-0.0812402848
 20
53.5362737631
 10
-0.049505568
 20
53.4338487036
 10
-0.0218248754
 20
53.3316069191
 10
0.001551556
 20
53.2305687863
 10
0.0205403141
 20
53.1310744308
 10
0.035224811
 20
53.032783727
  0
LWPOLYLINE
  5
3E4
100
AcDbEntity
  8
0
100
AcDbPolyline
 62
7
  6
CONTINUOUS
 90
11
 70
0
 10
21.9070421966
 20
65.9744925796
 10
21.9165931694
 20
65.9020259892
 10
21.9206805237
 20
65.8328865287
 10
21.919275275
 20
65.7675998528
 10
21.912353172
 20
65.7064920344
 10
21.8999540799
 20
65.6502820994
 10
21.8823539203
 20
65.599906211
 10
21.8598800208
 20
65.5557492122
 10
21.8327821871
 20
65.5179090268
 10
21.8014397985
 20
65.486629739
 10
21.7667477969
 20
65.4623216639
  0
LWPOLYLINE
  5
3E5
100
AcDbEntity
  8
0
100
AcDbPolyline
 62
7
  6
CONTINUOUS
 90
10
 70
0
 10
22.8969907337
 20
66.546076458
 10
22.9072521157
 20
66.4659167385
 10
22.9107904571
 20
66.390223351
 10
22.9076571951
 20
66.3196412289
 10
22.8979282672
 20
66.25465501
 10
22.8817571133
 20
66.1959881819
 10
22.8595022025
 20
66.1444633947
 10
22.831647096
 20
66.1005877261
 10
22.7985026386
 20
66.0644109941
 10
22.7566964662
 20
66.0339056186
  0
LWPOLYLINE
  5
3E6
100
AcDbEntity
  8
0
100
AcDbPolyline
 62
7
  6
CONTINUOUS
 90
10
 70
0
 10
23.886940725
 20
67.117661176
 10
23.8971986468
 20
67.0375407569
 10
23.9007403212
 20
66.9618659911
 10
23.8976127718
 20
66.8912844356
 10
23.887884761
 20
66.8262705476
 10
23.8717056405
 20
66.7675685716
 10
23.8494469514
 20
66.7160380603
 10
23.8216100228
 20
66.6721893406
 10
23.7885066977
 20
66.6360446087
 10
23.7466465608
 20
66.6054903962
  0
LWPOLYLINE
  5
3E7
100
AcDbEntity
  8
0
100
AcDbPolyline
 62
7
  6
CONTINUOUS
 90
10
 70
0
 10
20.9170926984
 20
65.4029081464
 10
20.9274024378
 20
65.3221995129
 10
20.9308946697
 20
65.2458413799
 10
20.9275721762
 20
65.1745339592
 10
20.9174451846
 20
65.1087325
 10
20.9006276358
 20
65.0493439826
 10
20.8775649581
 20
64.9974803617
 10
20.84881755
 20
64.9536430649
 10
20.8147349215
 20
64.9178134102
 10
20.7767985045
 20
64.8907373495
  0
LWPOLYLINE
  5
3E8
100
AcDbEntity
  8
0
100
AcDbPolyline
 62
7
  6
CONTINUOUS
 90
7
 70
0
 10
25.6666914818
 20
68.3561084781
 10
25.6741879675
 20
68.2971294188
 10
25.676114119
 20
68.2427891382
 10
25.6725624721
 20
68.1936479351
 10
25.6636731808
 20
68.1502142932
 10
25.6496443619
 20
68.1129933606
 10
25.6353112241
 20
68.0885816793
  0
LWPOLYLINE
  5
3E9
100
AcDbEntity
  8
0
100
AcDbPolyline
 62
7
  6
CONTINUOUS
 90
10
 70
0
 10
24.8768908585
 20
67.689245976
 10
24.8874002772
 20
67.6062312154
 10
24.8906865959
 20
67.5280451727
 10
24.8868112043
 20
67.4554034226
 10
24.8758620515
 20
67.3888403666
 10
24.8580193596
 20
67.3291574227
 10
24.8337048079
 20
67.2772565264
 10
24.8034836872
 20
67.2336745771
 10
24.7677103826
 20
67.1984393034
 10
24.736596602
 20
67.177075143
  0
LINE
  5
3EA
100
AcDbEntity
  8
RACCORDO
100
AcDbLine
 62
7
  6
CONTINUOUS
 10
40.9945156393
 20
-92.4064362451
 11
40.9945156393
 21
42.4744534811
  0
LWPOLYLINE
  5
3EB
100
AcDbEntity
  8
0
100
AcDbPolyline
 62
250
  6
CONTINUOUS
 90
5
 70
0
 10
-0.5322902765
 20
-56.4031453563
 10
-0.51474775
 20
-56.383570574
 10
-0.4983412798
 20
-56.3637586582
 10
-0.4830343125
 20
-56.3437607275
 10
-0.4688429012
 20
-56.3235493061
  0
LWPOLYLINE
  5
3EC
100
AcDbEntity
  8
0
100
AcDbPolyline
 62
250
  6
CONTINUOUS
 90
7
 70
0
 10
-0.1763110401
 20
-55.6471156831
 10
-0.1838243893
 20
-55.6547111004
 10
-0.1905412016
 20
-55.6631179463
 10
-0.1964084426
 20
-55.6722721987
 10
-0.2013787604
 20
-55.6821011342
 10
-0.2054138487
 20
-55.6925285463
 10
-0.2084836484
 20
-55.7034761963
  0
LWPOLYLINE
  5
3ED
100
AcDbEntity
  8
0
100
AcDbPolyline
 62
250
  6
CONTINUOUS
 90
3
 70
0
 10
-0.1818594916
 20
-55.691196236
 10
-0.1546196306
 20
-55.6653496237
 10
-0.1288917843
 20
-55.6373650718
  0
LWPOLYLINE
  5
3EE
100
AcDbEntity
  8
0
100
AcDbPolyline
 62
250
  6
CONTINUOUS
 90
8
 70
0
 10
-1.8668215814
 20
-53.1157371193
 10
-1.8955281262
 20
-53.1394026995
 10
-1.9227686523
 20
-53.1652501528
 10
-1.9484966452
 20
-53.1932351582
 10
-1.9726679925
 20
-53.2233094915
 10
-1.9952416515
 20
-53.2554218293
 10
-2.0161795889
 20
-53.2895180005
 10
-2.0354461111
 20
-53.3255400339
  0
LWPOLYLINE
  5
3EF
100
AcDbEntity
  8
0
100
AcDbPolyline
 62
250
  6
CONTINUOUS
 90
9
 70
0
 10
-1.7682564683
 20
-53.1094132191
 10
-1.7961449236
 20
-53.1324042952
 10
-1.8226096519
 20
-53.1575154211
 10
-1.8476053909
 20
-53.1847036496
 10
-1.871089391
 20
-53.2139224815
 10
-1.8930214878
 20
-53.2451219443
 10
-1.9133641706
 20
-53.2782486772
 10
-1.9320826476
 20
-53.3132460238
 10
-1.9491449052
 20
-53.3500541289
  0
LWPOLYLINE
  5
3F0
100
AcDbEntity
  8
0
100
AcDbPolyline
 62
250
  6
CONTINUOUS
 90
10
 70
0
 10
-1.2407069516
 20
52.6448458449
 10
-1.1961744267
 20
52.6105482302
 10
-1.1513725644
 20
52.5782284962
 10
-1.1063779886
 20
52.5479419186
 10
-1.0612676527
 20
52.5197402961
 10
-1.0161187081
 20
52.4936718613
 10
-0.9710083722
 20
52.4697811987
 10
-0.9260137964
 20
52.4481091679
 10
-0.8812119341
 20
52.4286928344
 10
-0.8366794092
 20
52.4115654055
  0
LWPOLYLINE
  5
3F1
100
AcDbEntity
  8
0
100
AcDbPolyline
 62
250
  6
CONTINUOUS
 90
10
 70
0
 10
-1.1599584742
 20
52.7200821395
 10
-1.116693161
 20
52.6867604933
 10
-1.0731661747
 20
52.6553604454
 10
-1.0294519587
 20
52.6259356987
 10
-0.9856252765
 20
52.5985365778
 10
-0.9417610843
 20
52.573209943
 10
-0.8979344022
 20
52.5499991099
 10
-0.8542201861
 20
52.5289437756
 10
-0.8106931997
 20
52.5100799507
 10
-0.7674278865
 20
52.4934398977
  0
LWPOLYLINE
  5
3F2
100
AcDbEntity
  8
0
100
AcDbPolyline
 62
7
  6
CONTINUOUS
 90
8
 70
0
 10
-1.3996220179
 20
54.8141984939
 10
-1.4310663254
 20
54.8395063231
 10
-1.4598877755
 20
54.867733723
 10
-1.4857027011
 20
54.8983083318
 10
-1.5081988799
 20
54.9305986609
 10
-1.5270697335
 20
54.9640296624
 10
-1.5420039359
 20
54.9980962339
 10
-1.5480166233
 20
55.0171036805
  0
LWPOLYLINE
  5
3F3
100
AcDbEntity
  8
0
100
AcDbPolyline
 62
7
  6
CONTINUOUS
 90
10
 70
0
 10
-1.123531949
 20
54.6095380826
 10
-1.1123716328
 20
54.6005271096
 10
-1.1019201002
 20
54.5907201056
 10
-1.0922478302
 20
54.5802225907
 10
-1.0834141339
 20
54.5691570026
 10
-1.0754797898
 20
54.5576196599
 10
-1.0685114887
 20
54.5456772882
 10
-1.0625626572
 20
54.5334244554
 10
-1.0576683931
 20
54.5209850222
 10
-1.0538615904
 20
54.5084675418
  0
LINE
  5
3F4
100
AcDbEntity
  8
0
100
AcDbLine
 62
250
  6
CONTINUOUS
 10
-1.9212341941
 20
55.1118944614
 11
-1.8668215814
 21
55.0665745558
  0
LWPOLYLINE
  5
3F5
100
AcDbEntity
  8
0
100
AcDbPolyline
 62
7
  6
CONTINUOUS
 90
4
 70
0
 10
-1.996245862
 20
52.482953547
 10
-1.9722160352
 20
52.4586834024
 10
-1.9608208412
 20
52.4469027385
 10
-1.9498209782
 20
52.4354260434
  0
LWPOLYLINE
  5
3F6
100
AcDbEntity
  8
0
100
AcDbPolyline
 62
7
  6
CONTINUOUS
 90
4
 70
0
 10
-0.7261172685
 20
54.6786737554
 10
-0.7501450723
 20
54.7029417893
 10
-0.7615281287
 20
54.7147097893
 10
-0.772509785
 20
54.7261674885
  0
LWPOLYLINE
  5
3F7
100
AcDbEntity
  8
RACCORDO
100
AcDbPolyline
 62
7
  6
CONTINUOUS
 90
25
 70
0
 10
40.9945156393
 20
42.4744534811
 10
40.9929479733
 20
42.5291339205
 10
40.9884190205
 20
42.5848440308
 10
40.9809287808
 20
42.6415838121
 10
40.9704199823
 20
42.699604333
 10
40.956949897
 20
42.7586545249
 10
40.9406903405
 20
42.817981182
 10
40.9216055802
 20
42.8775878457
 10
40.8997313486
 20
42.9374709746
 10
40.8753466593
 20
42.9968667385
 10
40.8484193537
 20
43.0557688944
 10
40.8189815903
 20
43.1141836853
 10
40.7874088581
 20
43.1713660103
 10
40.7536738085
 20
43.2273000815
 10
40.71780379
 20
43.2820016868
 10
40.6802563373
 20
43.334773088
 10
40.6410099627
 20
43.3855895596
 10
40.6000861538
 20
43.4344758272
 10
40.5580069082
 20
43.4808083293
 10
40.5147574248
 20
43.5245543528
 10
40.4703525045
 20
43.5657466109
 10
40.4253585477
 20
43.6038596819
 10
40.3799643544
 20
43.6387184254
 10
40.3339811246
 20
43.6704979818
 10
40.2874088581
 20
43.6991983512
  0
LINE
  5
3F8
100
AcDbEntity
  8
RACCORDO
100
AcDbLine
 62
7
  6
CONTINUOUS
 10
42.7622825923
 20
-91.3857497618
 11
42.7622825923
 21
43.4951399644
  0
LINE
  5
3F9
100
AcDbEntity
  8
0
100
AcDbLine
 62
7
  6
CONTINUOUS
 10
43.7168767469
 20
35.5143264742
 11
43.7168767469
 21
-88.670802626
  0
LWPOLYLINE
  5
3FA
100
AcDbEntity
  8
RACCORDO
100
AcDbPolyline
 62
7
  6
CONTINUOUS
 90
13
 70
0
 10
42.7622825923
 20
-91.3857497618
 10
42.7607149263
 20
-91.4386198997
 10
42.7561859734
 20
-91.4891000889
 10
42.7486957337
 20
-91.5371903291
 10
42.7381869353
 20
-91.583075553
 10
42.72471685
 20
-91.626570828
 10
42.7084572935
 20
-91.6671213568
 10
42.6893725332
 20
-91.7046894177
 10
42.6674983016
 20
-91.7393127323
 10
42.6431136123
 20
-91.7705496682
 10
42.6161863067
 20
-91.7983568465
 10
42.5867485433
 20
-91.8227776462
 10
42.5551999712
 20
-91.8434866229
  0
LINE
  5
3FB
100
AcDbEntity
  8
0
100
AcDbLine
 62
250
  6
CONTINUOUS
 10
-0.1699455447
 20
-55.6417992512
 11
-0.1763110401
 21
-55.6471156831
  0
LWPOLYLINE
  5
3FC
100
AcDbEntity
  8
0
100
AcDbPolyline
 62
250
  6
CONTINUOUS
 90
11
 70
0
 10
0.9421203244
 20
-57.8806037804
 10
1.0595382692
 20
-57.7831969111
 10
1.1673473462
 20
-57.6717284301
 10
1.2650859225
 20
-57.5466756082
 10
1.3523354213
 20
-57.4085739644
 10
1.4287221799
 20
-57.2580149441
 10
1.4939190913
 20
-57.0956433182
 10
1.5476470022
 20
-56.9221543578
 10
1.5896758599
 20
-56.7382909286
 10
1.6198256925
 20
-56.5448403449
 10
1.6379673898
 20
-56.3426310064
  0
LINE
  5
3FD
100
AcDbEntity
  8
0
100
AcDbLine
 62
250
  6
CONTINUOUS
 10
-0.2105647793
 20
-55.7148607037
 11
-0.1818594916
 21
-55.691196236
  0
LWPOLYLINE
  5
3FE
100
AcDbEntity
  8
0
100
AcDbPolyline
 62
250
  6
CONTINUOUS
 90
4
 70
0
 10
0.0564940699
 20
-55.3359722955
 10
0.0486718392
 20
-55.341124708
 10
0.0349254714
 20
-55.3525754793
 10
0.0226702219
 20
-55.3653774408
  0
LWPOLYLINE
  5
3FF
100
AcDbEntity
  8
0
100
AcDbPolyline
 62
250
  6
CONTINUOUS
 90
10
 70
0
 10
-0.7674278863
 20
-55.6888717777
 10
-0.7766120444
 20
-55.6947361562
 10
-0.7855501112
 20
-55.7015227372
 10
-0.7941924812
 20
-55.7091915504
 10
-0.8024918264
 20
-55.717729211
 10
-0.8103918651
 20
-55.727079857
 10
-0.817823611
 20
-55.7371238356
 10
-0.8247222217
 20
-55.7477761435
 10
-0.83102888
 20
-55.7590042956
 10
-0.8366794092
 20
-55.7707462695
  0
LWPOLYLINE
  5
400
100
AcDbEntity
  8
0
100
AcDbPolyline
 62
250
  6
CONTINUOUS
 90
7
 70
0
 10
-0.610109702
 20
-56.3985754906
 10
-0.6175186098
 20
-56.4032798738
 10
-0.6246191419
 20
-56.4086517706
 10
-0.6313755497
 20
-56.4146634695
 10
-0.6377538725
 20
-56.4212840548
 10
-0.643722106
 20
-56.4284795686
 10
-0.6492503605
 20
-56.4362131876
  0
LWPOLYLINE
  5
401
100
AcDbEntity
  8
0
100
AcDbPolyline
 62
250
  6
CONTINUOUS
 90
10
 70
0
 10
-1.1599584747
 20
-55.4622295352
 10
-1.1692673636
 20
-55.4679753192
 10
-1.1786579754
 20
-55.4745078968
 10
-1.1880589899
 20
-55.4817784377
 10
-1.1973999869
 20
-55.4897333941
 10
-1.2066086294
 20
-55.4983120828
 10
-1.2156114107
 20
-55.5074464263
 10
-1.2243387275
 20
-55.5170656678
 10
-1.2327251987
 20
-55.5270976038
 10
-1.2407069522
 20
-55.5374658307
  0
LWPOLYLINE
  5
402
100
AcDbEntity
  8
0
100
AcDbPolyline
 62
250
  6
CONTINUOUS
 90
13
 70
0
 10
-2.5937726547
 20
-53.5786329517
 10
-2.6123118375
 20
-53.5898962947
 10
-2.6305243728
 20
-53.6021912248
 10
-2.6479862916
 20
-53.61544198
 10
-2.6646557066
 20
-53.6298270554
 10
-2.6803122594
 20
-53.6453727583
 10
-2.6941825871
 20
-53.6616317294
 10
-2.706111798
 20
-53.6786268302
 10
-2.7160567746
 20
-53.6963570149
 10
-2.7235555393
 20
-53.7141732034
 10
-2.7285047098
 20
-53.7317515606
 10
-2.7310522812
 20
-53.7491932305
 10
-2.7312185305
 20
-53.7663969835
  0
LWPOLYLINE
  5
403
100
AcDbEntity
  8
0
100
AcDbPolyline
 62
250
  6
CONTINUOUS
 90
7
 70
0
 10
-2.0895069341
 20
-55.5930818581
 10
-2.0803618792
 20
-55.5875711807
 10
-2.071324823
 20
-55.5823009758
 10
-2.0624427082
 20
-55.5772974532
 10
-2.053761127
 20
-55.572585116
 10
-2.0453240976
 20
-55.5681866567
 10
-2.0371738549
 20
-55.564122864
  0
LWPOLYLINE
  5
404
100
AcDbEntity
  8
ASSI
100
AcDbPolyline
 62
7
  6
CONTINUOUS
 90
19
 70
0
 10
-3.4862734659
 20
-50.9209673121
 10
-3.5101503358
 20
-50.9350760128
 10
-3.6036632283
 20
-50.9966968088
 10
-3.6923510879
 20
-51.0656360978
 10
-3.7761839541
 20
-51.141939323
 10
-3.8551917874
 20
-51.2255610412
 10
-3.9288850122
 20
-51.3159830869
 10
-3.9972306283
 20
-51.4132476857
 10
-4.060261636
 20
-51.5173126118
 10
-4.1175874609
 20
-51.6275330225
 10
-4.1691726773
 20
-51.7439471394
 10
-4.2150527109
 20
-51.8665167408
 10
-4.2549432641
 20
-51.9944823188
 10
-4.2888071459
 20
-52.1278773791
 10
-4.3166815473
 20
-52.2666684159
 10
-4.3383937433
 20
-52.4099954047
 10
-4.3538861589
 20
-52.5575716704
 10
-4.363216369
 20
-52.709683888
 10
-4.3663843738
 20
-52.8663320575
  0
LINE
  5
405
100
AcDbEntity
  8
0
100
AcDbLine
 62
250
  6
CONTINUOUS
 10
-1.989564061
 20
-53.4201519302
 11
-1.9896009963
 21
-53.4201732772
  0
LINE
  5
406
100
AcDbEntity
  8
0
100
AcDbLine
 62
7
  6
CONTINUOUS
 10
-3.184500499
 20
-51.035384613
 11
-3.0809471085
 21
-50.9755941831
  0
LINE
  5
407
100
AcDbEntity
  8
0
100
AcDbLine
 62
250
  6
CONTINUOUS
 10
-1.9644233543
 20
-52.8427964796
 11
-1.8825339219
 21
-52.7955145476
  0
LINE
  5
408
100
AcDbEntity
  8
0
100
AcDbLine
 62
250
  6
CONTINUOUS
 10
-1.5542155049
 20
-52.9185649211
 11
-1.7435541894
 21
-53.0278867045
  0
LINE
  5
409
100
AcDbEntity
  8
0
100
AcDbLine
 62
250
  6
CONTINUOUS
 10
-1.4879121665
 20
-52.9475459327
 11
-1.7682564683
 21
-53.1094132191
  0
LINE
  5
40A
100
AcDbEntity
  8
0
100
AcDbLine
 62
250
  6
CONTINUOUS
 10
-1.9645217622
 20
-53.3886100402
 11
-1.3265438042
 21
-53.020249563
  0
LINE
  5
40B
100
AcDbEntity
  8
0
100
AcDbLine
 62
7
  6
CONTINUOUS
 10
-1.9896009963
 20
-53.4201732772
 11
-1.3101660989
 21
-53.0278760828
  0
LINE
  5
40C
100
AcDbEntity
  8
0
100
AcDbLine
 62
250
  6
CONTINUOUS
 10
-2.436326318
 20
-53.966693251
 11
-1.3996220179
 21
-53.3681131811
  0
LINE
  5
40D
100
AcDbEntity
  8
0
100
AcDbLine
 62
250
  6
CONTINUOUS
 10
-1.123531949
 20
-53.5727735925
 11
-2.0240149128
 21
-54.0927011701
  0
LINE
  5
40E
100
AcDbEntity
  8
0
100
AcDbLine
 62
250
  6
CONTINUOUS
 10
-1.0538615904
 20
-53.6738441332
 11
-1.9645217622
 21
-54.1996479032
  0
LINE
  5
40F
100
AcDbEntity
  8
0
100
AcDbLine
 62
250
  6
CONTINUOUS
 10
-1.7435541894
 20
-54.8155390531
 11
-0.8430712256
 21
-54.2956114755
  0
LINE
  5
410
100
AcDbEntity
  8
0
100
AcDbLine
 62
250
  6
CONTINUOUS
 10
-1.9644233543
 20
-55.1829396296
 11
-0.9277190542
 21
-54.5843595597
  0
LINE
  5
411
100
AcDbEntity
  8
0
100
AcDbLine
 62
250
  6
CONTINUOUS
 10
-1.6249683386
 20
-55.6052327547
 11
-0.5882640385
 21
-55.0066526848
  0
LINE
  5
412
100
AcDbEntity
  8
0
100
AcDbLine
 62
250
  6
CONTINUOUS
 10
-0.3436709399
 20
-54.9168817394
 11
-1.2441539038
 21
-55.4368093171
  0
LINE
  5
413
100
AcDbEntity
  8
0
100
AcDbLine
 62
250
  6
CONTINUOUS
 10
-0.2492983024
 20
-54.9364257656
 11
-1.1599584742
 21
-55.4622295356
  0
LINE
  5
414
100
AcDbEntity
  8
0
100
AcDbLine
 62
250
  6
CONTINUOUS
 10
-0.7674278865
 20
-55.6888717773
 11
0.0428681886
 21
-55.2210169789
  0
LINE
  5
415
100
AcDbEntity
  8
0
100
AcDbLine
 62
250
  6
CONTINUOUS
 10
-0.683232457
 20
-55.7606783305
 11
0.030018903
 21
-55.3488559344
  0
LINE
  5
416
100
AcDbEntity
  8
0
100
AcDbLine
 62
250
  6
CONTINUOUS
 10
-0.6811624113
 20
-56.1501744684
 11
-0.3055055945
 21
-55.9332749305
  0
LINE
  5
417
100
AcDbEntity
  8
0
100
AcDbLine
 62
7
  6
CONTINUOUS
 10
-2.593542647
 20
-53.5785002332
 11
-2.5937726547
 21
-53.5786329517
  0
LINE
  5
418
100
AcDbEntity
  8
0
100
AcDbLine
 62
7
  6
CONTINUOUS
 10
-0.5577348081
 20
-56.3801248702
 11
-0.5576120603
 21
-56.3800540541
  0
LWPOLYLINE
  5
419
100
AcDbEntity
  8
0
100
AcDbPolyline
 62
250
  6
CONTINUOUS
 90
7
 70
0
 10
-0.8575962965
 20
-54.1796831961
 10
-1.7778288987
 20
-54.7109881796
 10
-1.7879056144
 20
-54.7166524288
 10
-1.7984263701
 20
-54.7224607842
 10
-1.8093464435
 20
-54.728425212
 10
-1.8205950714
 20
-54.7344967817
 10
-1.8320559793
 20
-54.7405688567
  0
LWPOLYLINE
  5
41A
100
AcDbEntity
  8
0
100
AcDbPolyline
 62
7
  6
CONTINUOUS
 90
7
 70
0
 10
-2.5935450567
 20
-53.5785011772
 10
-2.5900942679
 20
-53.5765378627
 10
-2.5656788413
 20
-53.5639497031
 10
-2.5387307836
 20
-53.5522540566
 10
-2.5094476377
 20
-53.5416169005
 10
-2.4780055037
 20
-53.5321624397
 10
-2.4448685884
 20
-53.5240541559
  0
LWPOLYLINE
  5
41B
100
AcDbEntity
  8
0
100
AcDbPolyline
 62
250
  6
CONTINUOUS
 90
7
 70
0
 10
-2.7312383712
 20
-53.7664070456
 10
-2.7390564971
 20
-53.7708210917
 10
-2.7473795865
 20
-53.7749215978
 10
-2.7561661908
 20
-53.7786870729
 10
-2.7653723612
 20
-53.7820976679
 10
-2.7749518625
 20
-53.7851352838
 10
-2.7848563997
 20
-53.787783673
  0
LWPOLYLINE
  5
41C
100
AcDbEntity
  8
0
100
AcDbPolyline
 62
250
  6
CONTINUOUS
 90
10
 70
0
 10
-1.9645217631
 20
-54.1996478994
 10
-1.9741367956
 20
-54.2049145976
 10
-1.9844425261
 20
-54.2100120721
 10
-1.9953612805
 20
-54.2149013883
 10
-2.0068118911
 20
-54.2195456334
 10
-2.0187064941
 20
-54.2239086295
 10
-2.0309507398
 20
-54.2279555446
 10
-2.0434499561
 20
-54.2316551582
 10
-2.0561103
 20
-54.2349797626
 10
-2.0688353539
 20
-54.2379040366
  0
LWPOLYLINE
  5
41D
100
AcDbEntity
  8
0
100
AcDbPolyline
 62
250
  6
CONTINUOUS
 90
7
 70
0
 10
-1.9645217626
 20
-53.3886100407
 10
-1.9741840892
 20
-53.3936015978
 10
-1.9844814504
 20
-53.3977673916
 10
-1.9953594543
 20
-53.4011032005
 10
-2.0067948232
 20
-53.4036194309
 10
-2.018708481
 20
-53.4052857178
 10
-2.0309497933
 20
-53.4060554069
  0
LWPOLYLINE
  5
41E
100
AcDbEntity
  8
0
100
AcDbPolyline
 62
250
  6
CONTINUOUS
 90
3
 70
0
 10
-1.8320559793
 20
-54.7405688567
 10
-1.8552471018
 20
-54.7525992124
 10
-1.8668215814
 20
-54.758558784
  0
LWPOLYLINE
  5
41F
100
AcDbEntity
  8
0
100
AcDbPolyline
 62
250
  6
CONTINUOUS
 90
10
 70
0
 10
-1.7682564683
 20
-53.1094132191
 10
-1.777796198
 20
-53.1142655435
 10
-1.7878782193
 20
-53.118123421
 10
-1.7984264575
 20
-53.1209564343
 10
-1.8093624923
 20
-53.1227420628
 10
-1.8206021958
 20
-53.1234651619
 10
-1.8320560447
 20
-53.1231193844
 10
-1.8436353813
 20
-53.1217075991
 10
-1.8552533883
 20
-53.119240581
 10
-1.8668215814
 20
-53.1157371193
  0
LWPOLYLINE
  5
420
100
AcDbEntity
  8
0
100
AcDbPolyline
 62
250
  6
CONTINUOUS
 90
8
 70
0
 10
-3.0809471085
 20
-50.9755941831
 10
-2.9457621103
 20
-50.9074440237
 10
-2.8026878603
 20
-50.8544750328
 10
-2.6522404392
 20
-50.8168582697
 10
-2.4950640879
 20
-50.7947548149
 10
-2.3318318583
 20
-50.7882593178
 10
-2.1632427326
 20
-50.7973995931
 10
-2.1435388245
 20
-50.8002133689
  0
LINE
  5
421
100
AcDbEntity
  8
0
100
AcDbLine
 62
250
  6
CONTINUOUS
 10
-3.0493155591
 20
-50.9672344789
 11
-3.184500499
 21
-51.035384613
  0
LWPOLYLINE
  5
422
100
AcDbEntity
  8
0
100
AcDbPolyline
 62
250
  6
CONTINUOUS
 90
8
 70
0
 10
-2.6310652428
 20
-53.5291666124
 10
-2.6513305762
 20
-53.5387466942
 10
-2.6717014638
 20
-53.5494253967
 10
-2.6920773153
 20
-53.5612323703
 10
-2.7119699815
 20
-53.5743637938
 10
-2.7311945642
 20
-53.5889058462
 10
-2.7498736494
 20
-53.6048370338
 10
-2.7679723832
 20
-53.622189819
  0
LWPOLYLINE
  5
423
100
AcDbEntity
  8
0
100
AcDbPolyline
 62
250
  6
CONTINUOUS
 90
10
 70
0
 10
-0.7674278865
 20
52.4934398977
 10
-0.7576212419
 20
52.4893666132
 10
-0.7477288475
 20
52.4841808519
 10
-0.7378369341
 20
52.4779277685
 10
-0.7280316598
 20
52.4706617658
 10
-0.7183985867
 20
52.462446186
 10
-0.7090219182
 20
52.4533528297
 10
-0.69998346
 20
52.4434610698
 10
-0.6913619238
 20
52.4328570897
 10
-0.683232457
 20
52.4216333446
  0
LWPOLYLINE
  5
424
100
AcDbEntity
  8
0
100
AcDbPolyline
 62
7
  6
CONTINUOUS
 90
6
 70
0
 10
0.0300105361
 20
53.0676854842
 10
0.0127257696
 20
53.0758028798
 10
-0.0530330086
 20
53.1114151783
 10
-0.1187917868
 20
53.1517394686
 10
-0.1842975615
 20
53.1966206049
 10
-0.2492983024
 20
53.2458859094
  0
LWPOLYLINE
  5
425
100
AcDbEntity
  8
0
100
AcDbPolyline
 62
250
  6
CONTINUOUS
 90
7
 70
0
 10
-2.0275968612
 20
55.3679359393
 10
-2.0192550331
 20
55.363443254
 10
-2.0105869314
 20
55.3590662004
 10
-2.0016312383
 20
55.3548831974
 10
-1.9924945243
 20
55.3508161679
 10
-1.983233474
 20
55.3468587442
 10
-1.973864567
 20
55.3430825421
  0
LWPOLYLINE
  5
426
100
AcDbEntity
  8
0
100
AcDbPolyline
 62
7
  6
CONTINUOUS
 90
9
 70
0
 10
-1.3613172236
 20
55.2137853312
 10
-1.3212226896
 20
55.189992095
 10
-1.2417883117
 20
55.1389879685
 10
-1.162790645
 20
55.0830275248
 10
-1.0842172765
 20
55.0221742121
 10
-1.0068794114
 20
54.9571082682
 10
-0.9310474514
 20
54.888056439
 10
-0.8564509947
 20
54.8147919786
 10
-0.772509785
 20
54.7261674885
  0
LINE
  5
427
100
AcDbEntity
  8
0
100
AcDbLine
 62
7
  6
CONTINUOUS
 10
-1.257603594
 20
54.7096030323
 11
-1.3996220179
 21
54.8141984939
  0
LWPOLYLINE
  5
428
100
AcDbEntity
  8
0
100
AcDbPolyline
 62
7
  6
CONTINUOUS
 90
3
 70
0
 10
-1.123531949
 20
54.6095380826
 10
-1.1673395219
 20
54.6423896756
 10
-1.257603594
 20
54.7096030323
  0
LWPOLYLINE
  5
429
100
AcDbEntity
  8
0
100
AcDbPolyline
 62
250
  6
CONTINUOUS
 90
3
 70
0
 10
-2.0938933506
 20
55.247848258
 10
-2.0700410401
 20
55.2298002321
 10
-2.0460127715
 20
55.2113394611
  0
LWPOLYLINE
  5
42A
100
AcDbEntity
  8
0
100
AcDbPolyline
 62
250
  6
CONTINUOUS
 90
5
 70
0
 10
-2.0460127715
 20
55.2113394611
 10
-1.9973214598
 20
55.1732964936
 10
-1.9725797486
 20
55.1537095489
 10
-1.9472723287
 20
55.1332899125
 10
-1.9212341941
 20
55.1118944614
  0
LWPOLYLINE
  5
42B
100
AcDbEntity
  8
0
100
AcDbPolyline
 62
250
  6
CONTINUOUS
 90
10
 70
0
 10
-1.9644233543
 20
55.3395151955
 10
-1.9412209004
 20
55.3211929239
 10
-1.9177796206
 20
55.3024195519
 10
-1.8940995148
 20
55.2831950793
 10
-1.8703083367
 20
55.2636658088
 10
-1.8462783326
 20
55.2436854377
 10
-1.8216262419
 20
55.2228150591
 10
-1.796224311
 20
55.2009083705
 10
-1.7702002935
 20
55.1781116743
 10
-1.7435541894
 20
55.1544249705
  0
LWPOLYLINE
  5
42C
100
AcDbEntity
  8
ASSI
100
AcDbPolyline
 62
7
  6
CONTINUOUS
 90
24
 70
0
 10
-0.6165641828
 20
56.5126526013
 10
-0.7497537661
 20
56.62520292
 10
-0.8842167325
 20
56.7314128639
 10
-1.0199452238
 20
56.8313215599
 10
-1.1560981925
 20
56.9243099193
 10
-1.2926782742
 20
57.0103349712
 10
-1.4296828334
 20
57.0894396866
 10
-1.5662629151
 20
57.1611338896
 10
-1.7024158838
 20
57.2253715656
 10
-1.8381443751
 20
57.2821987292
 10
-1.9726073414
 20
57.3312632484
 10
-2.1057969248
 20
57.3725169221
 10
-2.2377209832
 20
57.4060079514
 10
-2.3675620435
 20
57.4315288077
 10
-2.4953071716
 20
57.4490300012
 10
-2.6209693016
 20
57.4585610217
 10
-2.7437697626
 20
57.4600628098
 10
-2.8636907855
 20
57.453485509
 10
-2.9807501393
 20
57.4388789758
 10
-3.0942224607
 20
57.4163337202
 10
-3.2040854766
 20
57.3858004478
 10
-3.31036146
 20
57.347328453
 10
-3.4123918672
 20
57.3011561292
 10
-3.4862734659
 20
57.261344363
  0
LINE
  5
42D
100
AcDbEntity
  8
0
100
AcDbLine
 62
250
  6
CONTINUOUS
 10
0.8156927821
 20
-57.9634762487
 11
0.9421203244
 21
-57.8806037804
  0
LWPOLYLINE
  5
42E
100
AcDbEntity
  8
0
100
AcDbPolyline
 62
7
  6
CONTINUOUS
 90
7
 70
0
 10
0.9192461727
 20
-57.9036858188
 10
1.052451769
 20
-57.8170712402
 10
1.1775198147
 20
-57.7154981066
 10
1.2935877838
 20
-57.5991706018
 10
1.3999022211
 20
-57.4682986669
 10
1.4956565594
 20
-57.3232892711
 10
1.4984241889
 20
-57.3180917597
  0
LWPOLYLINE
  5
42F
100
AcDbEntity
  8
ASSI
100
AcDbPolyline
 62
7
  6
CONTINUOUS
 90
19
 70
0
 10
0.7639123583
 20
-58.2820308463
 10
0.7877892283
 20
-58.2679221455
 10
0.8813021207
 20
-58.2063013496
 10
0.9699899803
 20
-58.1373620606
 10
1.0538228465
 20
-58.0610588354
 10
1.1328306798
 20
-57.9774371171
 10
1.2065239047
 20
-57.8870150715
 10
1.2748695208
 20
-57.7897504727
 10
1.3379005284
 20
-57.6856855465
 10
1.3952263533
 20
-57.5754651359
 10
1.4468115697
 20
-57.459051019
 10
1.4926916034
 20
-57.3364814176
 10
1.5325821565
 20
-57.2085158396
 10
1.5664460384
 20
-57.0751207793
 10
1.5943204397
 20
-56.9363297424
 10
1.6160326357
 20
-56.7930027537
 10
1.6315250513
 20
-56.6454264879
 10
1.6408552615
 20
-56.4933142703
 10
1.6440232663
 20
-56.3366661008
  0
LINE
  5
430
100
AcDbEntity
  8
0
100
AcDbLine
 62
7
  6
CONTINUOUS
 10
0.8156927821
 20
-57.9634762487
 11
0.9192461727
 21
-57.9036858188
  0
LWPOLYLINE
  5
431
100
AcDbEntity
  8
0
100
AcDbPolyline
 62
7
  6
CONTINUOUS
 90
37
 70
0
 10
0.8156927821
 20
-57.9634762487
 10
0.6781126948
 20
-58.0337398338
 10
0.5321741289
 20
-58.0902656151
 10
0.3784431187
 20
-58.1324749144
 10
0.2174210449
 20
-58.1598802004
 10
0.0498234736
 20
-58.1720318031
 10
-0.1234524596
 20
-58.1686037592
 10
-0.302015027
 20
-58.1493555645
 10
-0.485054476
 20
-58.1141209238
 10
-0.6710299924
 20
-58.0630741424
 10
-0.8592828909
 20
-57.9963720105
 10
-1.0491730343
 20
-57.9141980952
 10
-1.2390966902
 20
-57.817290137
 10
-1.428136213
 20
-57.7062742374
 10
-1.6158302082
 20
-57.5815598407
 10
-1.8011916776
 20
-57.4439312034
 10
-1.9834271672
 20
-57.2941370935
 10
-2.1619630432
 20
-57.132794923
 10
-2.3361111156
 20
-56.9606493354
 10
-2.5051786972
 20
-56.7785032921
 10
-2.6685571968
 20
-56.5871209436
 10
-2.8256759905
 20
-56.3872572633
 10
-2.9759198619
 20
-56.1797649576
 10
-3.1187089714
 20
-55.9655060842
 10
-3.253534869
 20
-55.7452843836
 10
-3.3798561912
 20
-55.520003789
 10
-3.4971617248
 20
-55.2905838794
 10
-3.6050120326
 20
-55.0578655267
 10
-3.7029536679
 20
-54.8227753823
 10
-3.7905557604
 20
-54.5862726914
 10
-3.8674493276
 20
-54.3492382973
 10
-3.9332795418
 20
-54.1125868209
 10
-3.987705925
 20
-53.8773006691
 10
-4.0304357017
 20
-53.6443228
 10
-4.0612140791
 20
-53.4145680115
 10
-4.0798169976
 20
-53.1889549729
 10
-4.0860542879
 20
-52.9684007053
  0
LWPOLYLINE
  5
432
100
AcDbEntity
  8
0
100
AcDbPolyline
 62
250
  6
CONTINUOUS
 90
3
 70
0
 10
-1.612871534
 20
-55.7133870742
 10
-1.3100768261
 20
-55.5704255343
 10
-1.2407069516
 20
-55.5374658302
  0
LWPOLYLINE
  5
433
100
AcDbEntity
  8
0
100
AcDbPolyline
 62
250
  6
CONTINUOUS
 90
3
 70
0
 10
-1.6249683386
 20
-55.6052327547
 10
-1.2803642176
 20
-55.4527178701
 10
-1.2441539038
 20
-55.4368093171
  0
LINE
  5
434
100
AcDbEntity
  8
0
100
AcDbLine
 62
7
  6
CONTINUOUS
 10
-0.3436709399
 20
-54.9168817394
 11
-0.5882640385
 21
-55.0066526848
  0
LWPOLYLINE
  5
435
100
AcDbEntity
  8
0
100
AcDbPolyline
 62
7
  6
CONTINUOUS
 90
9
 70
0
 10
-2.118304377
 20
-52.7754443206
 10
-2.1282667301
 20
-52.7786103134
 10
-2.1378777179
 20
-52.7818527003
 10
-2.1471396046
 20
-52.785166032
 10
-2.156050126
 20
-52.7885557578
 10
-2.1647689047
 20
-52.7917436181
 10
-2.1733491482
 20
-52.7946368597
 10
-2.181737649
 20
-52.7973282359
 10
-2.25296583
 20
-52.8192428201
  0
LINE
  5
436
100
AcDbEntity
  8
0
100
AcDbLine
 62
7
  6
CONTINUOUS
 10
-0.5406234609
 20
-56.4056699232
 11
-0.4693952802
 21
-56.3837553392
  0
LWPOLYLINE
  5
437
100
AcDbEntity
  8
0
100
AcDbPolyline
 62
7
  6
CONTINUOUS
 90
10
 70
0
 10
-0.3436709399
 20
-54.9168817394
 10
-0.3333491464
 20
-54.9138361733
 10
-0.3227856763
 20
-54.9121462976
 10
-0.3120643907
 20
-54.9118017557
 10
-0.3012678406
 20
-54.9127741956
 10
-0.2904855869
 20
-54.9150379705
 10
-0.2798118918
 20
-54.9185789376
 10
-0.2693345106
 20
-54.923363894
 10
-0.2591354409
 20
-54.9293328927
 10
-0.2492983024
 20
-54.9364257656
  0
LWPOLYLINE
  5
438
100
AcDbEntity
  8
0
100
AcDbPolyline
 62
250
  6
CONTINUOUS
 90
6
 70
0
 10
-2.5330790465
 20
-53.494679483
 10
-2.5520015191
 20
-53.5000943513
 10
-2.5713008859
 20
-53.5061383372
 10
-2.5909018509
 20
-53.5129832365
 10
-2.6108440064
 20
-53.5206474658
 10
-2.6310652428
 20
-53.5291666124
  0
LWPOLYLINE
  5
439
100
AcDbEntity
  8
0
100
AcDbPolyline
 62
7
  6
CONTINUOUS
 90
19
 70
0
 10
-0.5882640385
 20
53.1756589903
 10
-0.6178938178
 20
53.1675423914
 10
-0.6486096066
 20
53.1646054956
 10
-0.6799564351
 20
53.166793845
 10
-0.7114838734
 20
53.1739476144
 10
-0.742695994
 20
53.1858743705
 10
-0.7730608041
 20
53.2023746618
 10
-0.802082777
 20
53.223123216
 10
-0.8293390374
 20
53.2477175201
 10
-0.8544208196
 20
53.2757907285
 10
-0.8768938027
 20
53.3068769235
 10
-0.8963925365
 20
53.3404465451
 10
-0.9126336384
 20
53.3760057739
 10
-0.9252726459
 20
53.4130033262
 10
-0.9340462
 20
53.4508204025
 10
-0.938830106
 20
53.4888396904
 10
-0.9394672908
 20
53.5264409549
 10
-0.9357873647
 20
53.5630118471
 10
-0.9277190542
 20
53.5979521153
  0
LINE
  5
43A
100
AcDbEntity
  8
0
100
AcDbLine
 62
7
  6
CONTINUOUS
 10
-2.1078242436
 20
55.4096623459
 11
-2.118304377
 21
55.4068673545
  0
LWPOLYLINE
  5
43B
100
AcDbEntity
  8
0
100
AcDbPolyline
 62
250
  6
CONTINUOUS
 90
3
 70
0
 10
-2.4964336221
 20
54.6967508171
 10
-2.5145618453
 20
54.6924866872
 10
-2.5330790465
 20
54.687632192
  0
LWPOLYLINE
  5
43C
100
AcDbEntity
  8
0
100
AcDbPolyline
 62
250
  6
CONTINUOUS
 90
10
 70
0
 10
-1.2441539038
 20
52.745502358
 10
-1.2360228137
 20
52.7473386393
 10
-1.2273996817
 20
52.7479864634
 10
-1.218359726
 20
52.7474402355
 10
-1.2089813988
 20
52.7457046769
 10
-1.1993468655
 20
52.7427949747
 10
-1.1895413804
 20
52.7387371309
 10
-1.1796508923
 20
52.7335672323
 10
-1.1697612088
 20
52.7273306448
 10
-1.1599584742
 20
52.7200821395
  0
LINE
  5
43D
100
AcDbEntity
  8
0
100
AcDbLine
 62
7
  6
CONTINUOUS
 10
-2.4448588419
 20
54.6582601232
 11
-2.2479437607
 21
54.7007303132
  0
LINE
  5
43E
100
AcDbEntity
  8
0
100
AcDbLine
 62
7
  6
CONTINUOUS
 10
-2.2479437607
 20
54.7007303132
 11
-2.1261297367
 21
54.7262950977
  0
LINE
  5
43F
100
AcDbEntity
  8
0
100
AcDbLine
 62
250
  6
CONTINUOUS
 10
-2.4786995096
 20
54.7004429871
 11
-2.4964336221
 21
54.6967508171
  0
LINE
  5
440
100
AcDbEntity
  8
0
100
AcDbLine
 62
7
  6
CONTINUOUS
 10
-2.1261297367
 20
54.7262950977
 11
-2.0347764438
 21
54.7450357629
  0
LINE
  5
441
100
AcDbEntity
  8
0
100
AcDbLine
 62
250
  6
CONTINUOUS
 10
-2.3799110508
 20
54.7201661768
 11
-2.4786995096
 21
54.7004429871
  0
LINE
  5
442
100
AcDbEntity
  8
0
100
AcDbLine
 62
250
  6
CONTINUOUS
 10
-2.2430169413
 20
54.7467052734
 11
-2.3799110508
 21
54.7201661768
  0
LINE
  5
443
100
AcDbEntity
  8
0
100
AcDbLine
 62
250
  6
CONTINUOUS
 10
-2.1554521917
 20
54.7632953183
 11
-2.2430169413
 21
54.7467052734
  0
LWPOLYLINE
  5
444
100
AcDbEntity
  8
0
100
AcDbPolyline
 62
250
  6
CONTINUOUS
 90
5
 70
0
 10
-0.6101700736
 20
51.7837254004
 10
-0.5942803411
 20
51.7866356353
 10
-0.5781391141
 20
51.7920831781
 10
-0.5617773405
 20
51.7999188852
 10
-0.5577348081
 20
51.8021868049
  0
LINE
  5
445
100
AcDbEntity
  8
0
100
AcDbLine
 62
250
  6
CONTINUOUS
 10
-2.0688353526
 20
54.7792002491
 11
-2.1554521917
 21
54.7632953183
  0
LWPOLYLINE
  5
446
100
AcDbEntity
  8
0
100
AcDbPolyline
 62
7
  6
CONTINUOUS
 90
3
 70
0
 10
-2.0851996928
 20
55.4139429196
 10
-2.0967708583
 20
55.4119881334
 10
-2.1078242436
 20
55.4096623459
  0
LWPOLYLINE
  5
447
100
AcDbEntity
  8
0
100
AcDbPolyline
 62
250
  6
CONTINUOUS
 90
7
 70
0
 10
-2.0347050154
 20
54.7450502748
 10
-2.0359458486
 20
54.7448683024
 10
-2.0409070307
 20
54.7455175688
 10
-2.0459970419
 20
54.7483045942
 10
-2.0515543023
 20
54.7531329528
 10
-2.0575069294
 20
54.7599534489
 10
-2.0633621016
 20
54.7686939023
  0
LWPOLYLINE
  5
448
100
AcDbEntity
  8
0
100
AcDbPolyline
 62
7
  6
CONTINUOUS
 90
12
 70
0
 10
-0.6492503606
 20
51.7460984874
 10
-0.6371614148
 20
51.7476822722
 10
-0.6255902492
 20
51.7496370583
 10
-0.614536864
 20
51.7519628459
 10
-0.6040567306
 20
51.7547578373
 10
-0.5940943775
 20
51.7579238301
 10
-0.5844833897
 20
51.761166217
 10
-0.5752215028
 20
51.7644795487
 10
-0.5663109813
 20
51.7678692746
 10
-0.5575922029
 20
51.7710571348
 10
-0.5490119603
 20
51.7739503761
 10
-0.5406234609
 20
51.7766417519
  0
LINE
  5
449
100
AcDbEntity
  8
0
100
AcDbLine
 62
7
  6
CONTINUOUS
 10
-2.073110747
 20
55.4155267043
 11
-2.0851996928
 21
55.4139429196
  0
LWPOLYLINE
  5
44A
100
AcDbEntity
  8
0
100
AcDbPolyline
 62
250
  6
CONTINUOUS
 90
8
 70
0
 10
-2.4448685884
 20
54.6582575191
 10
-2.4467752795
 20
54.658102117
 10
-2.4513319955
 20
54.6595062444
 10
-2.4563080046
 20
54.6632914975
 10
-2.4616217523
 20
54.669395834
 10
-2.4671861504
 20
54.6777192033
 10
-2.4729100041
 20
54.6881251891
 10
-2.4786995052
 20
54.700443243
  0
LWPOLYLINE
  5
44B
100
AcDbEntity
  8
0
100
AcDbPolyline
 62
7
  6
CONTINUOUS
 90
5
 70
0
 10
-2.0641171894
 20
55.4158929475
 10
-2.061707984
 20
55.4160823212
 10
-2.0527131829
 20
55.4164269416
 10
-2.0409498549
 20
55.4162684094
 10
-2.0369400967
 20
55.4160938934
  0
LINE
  5
44C
100
AcDbEntity
  8
0
100
AcDbLine
 62
7
  6
CONTINUOUS
 10
-2.0605413405
 20
55.4161395233
 11
-2.073110747
 21
55.4155267043
  0
LINE
  5
44D
100
AcDbEntity
  8
0
100
AcDbLine
 62
250
  6
CONTINUOUS
 10
-2.0641193811
 20
55.4158928355
 11
-2.0731107471
 21
55.4155267043
  0
LWPOLYLINE
  5
44E
100
AcDbEntity
  8
0
100
AcDbPolyline
 62
250
  6
CONTINUOUS
 90
3
 70
0
 10
-2.0309497933
 20
54.7762562682
 10
-2.0434172052
 20
54.7763801126
 10
-2.0560704456
 20
54.7773677294
  0
LWPOLYLINE
  5
44F
100
AcDbEntity
  8
0
100
AcDbPolyline
 62
7
  6
CONTINUOUS
 90
3
 70
0
 10
-2.0369364382
 20
55.4160827447
 10
-2.0481948627
 20
55.4163136386
 10
-2.0605413405
 20
55.4161395233
  0
LWPOLYLINE
  5
450
100
AcDbEntity
  8
0
100
AcDbPolyline
 62
7
  6
CONTINUOUS
 90
16
 70
0
 10
-0.7737034028
 20
51.7558513783
 10
-0.8565076206
 20
51.7639932498
 10
-0.931099967
 20
51.7768731921
 10
-1.0069285996
 20
51.7953925492
 10
-1.0842642258
 20
51.8196369634
 10
-1.1628361381
 20
51.8495207923
 10
-1.2418322142
 20
51.8847871093
 10
-1.321264544
 20
51.9255135573
 10
-1.4011210376
 20
51.9716224932
 10
-1.4805533024
 20
52.022624061
 10
-1.5595498317
 20
52.078582594
 10
-1.6381221321
 20
52.1394337587
 10
-1.715456331
 20
52.204494699
 10
-1.7912811375
 20
52.2735377961
 10
-1.8658678426
 20
52.3467906688
 10
-1.9498209782
 20
52.4354260434
  0
LWPOLYLINE
  5
451
100
AcDbEntity
  8
0
100
AcDbPolyline
 62
7
  6
CONTINUOUS
 90
4
 70
0
 10
-1.9486576989
 20
55.4057738128
 10
-1.8658513997
 20
55.3976316516
 10
-1.7912569414
 20
55.3847511203
 10
-1.7154261618
 20
55.3662308743
  0
LWPOLYLINE
  5
452
100
AcDbEntity
  8
0
100
AcDbPolyline
 62
7
  6
CONTINUOUS
 90
3
 70
0
 10
-2.0186356685
 20
55.4146941856
 10
-2.0241495656
 20
55.4152421932
 10
-2.0369364382
 20
55.4160827447
  0
LWPOLYLINE
  5
453
100
AcDbEntity
  8
0
100
AcDbPolyline
 62
7
  6
CONTINUOUS
 90
12
 70
0
 10
-0.7737034028
 20
51.7558513783
 10
-0.7639125955
 20
51.7547938657
 10
-0.7537791385
 20
51.7535801843
 10
-0.7432842524
 20
51.7521156087
 10
-0.7324467164
 20
51.7504948644
 10
-0.7213228688
 20
51.7490021279
 10
-0.7099103612
 20
51.7476285593
 10
-0.6982115419
 20
51.7463829985
 10
-0.6862897939
 20
51.7455761414
 10
-0.6741662449
 20
51.7453115531
 10
-0.6618197671
 20
51.7454856685
 10
-0.6492503606
 20
51.7460984874
  0
LWPOLYLINE
  5
454
100
AcDbEntity
  8
0
100
AcDbPolyline
 62
7
  6
CONTINUOUS
 90
7
 70
0
 10
-1.9486576989
 20
55.4057738128
 10
-1.9584485097
 20
55.4068313258
 10
-1.9685819691
 20
55.4080450074
 10
-1.979076856
 20
55.4095095831
 10
-1.9899143915
 20
55.4111303274
 10
-2.0010382387
 20
55.4126230639
 10
-2.0124507463
 20
55.4139966324
  0
LWPOLYLINE
  5
455
100
AcDbEntity
  8
0
100
AcDbPolyline
 62
7
  6
CONTINUOUS
 90
3
 70
0
 10
-2.018634745
 20
55.4146910363
 10
-2.0092640078
 20
55.4136525828
 10
-1.9895713578
 20
55.4109060988
  0
LINE
  5
456
100
AcDbEntity
  8
ASSI
100
AcDbLine
 62
7
  6
CONTINUOUS
 10
1.4232521571
 20
50.7493739137
 11
1.4549601888
 21
50.7450298858
  0
LINE
  5
457
100
AcDbEntity
  8
0
100
AcDbLine
 62
250
  6
CONTINUOUS
 10
-2.0560704456
 20
54.7773677294
 11
-2.0688353526
 21
54.7792002491
  0
LWPOLYLINE
  5
458
100
AcDbEntity
  8
0
100
AcDbPolyline
 62
250
  6
CONTINUOUS
 90
10
 70
0
 10
-0.6832324573
 20
52.4216333478
 10
-0.699786813
 20
52.4244195824
 10
-0.7171476345
 20
52.4259682547
 10
-0.7350094875
 20
52.4264117816
 10
-0.7529994476
 20
52.4260967822
 10
-0.7708609116
 20
52.4250458089
 10
-0.7884492094
 20
52.4229075099
 10
-0.805504771
 20
52.4196974
 10
-0.8216729753
 20
52.4158326258
 10
-0.8366794092
 20
52.4115654055
  0
LWPOLYLINE
  5
459
100
AcDbEntity
  8
0
100
AcDbPolyline
 62
7
  6
CONTINUOUS
 90
14
 70
0
 10
-1.9895713578
 20
55.4109060988
 10
-1.9674433669
 20
55.4070605774
 10
-1.9430957912
 20
55.4020606033
 10
-1.9169882885
 20
55.3959432702
 10
-1.8893609403
 20
55.3887416511
 10
-1.8603787974
 20
55.3804867352
 10
-1.8303931316
 20
55.3712756354
 10
-1.7996034186
 20
55.3611818489
 10
-1.7681697906
 20
55.3502780554
 10
-1.7363773269
 20
55.3386848938
 10
-1.7043525563
 20
55.3264786262
 10
-1.6722334586
 20
55.3137402275
 10
-1.6402712955
 20
55.3006019249
 10
-1.619281639
 20
55.2917357431
  0
LWPOLYLINE
  5
45A
100
AcDbEntity
  8
0
100
AcDbPolyline
 62
250
  6
CONTINUOUS
 90
13
 70
0
 10
-1.9392575962
 20
52.4242956299
 10
-1.9067450443
 20
52.4181906547
 10
-1.8750387396
 20
52.4144075232
 10
-1.8441520946
 20
52.4128883324
 10
-1.8139608348
 20
52.4138109509
 10
-1.7846034371
 20
52.4168844257
 10
-1.7564703276
 20
52.4213443552
 10
-1.7296940819
 20
52.427043403
 10
-1.7041120237
 20
52.4340142001
 10
-1.6796598353
 20
52.4417703675
 10
-1.6563054744
 20
52.4501267938
 10
-1.6340483635
 20
52.4591904076
 10
-1.612871534
 20
52.4689246008
  0
LWPOLYLINE
  5
45B
100
AcDbEntity
  8
0
100
AcDbPolyline
 62
250
  6
CONTINUOUS
 90
10
 70
0
 10
-0.6811622431
 20
52.0321373626
 10
-0.6989865099
 20
52.0355613228
 10
-0.7175768644
 20
52.0379477668
 10
-0.7366286272
 20
52.0392575844
 10
-0.7558295606
 20
52.0394693104
 10
-0.7748649769
 20
52.038579476
 10
-0.793422896
 20
52.0366026677
 10
-0.8111991716
 20
52.0335712868
 10
-0.8279024742
 20
52.0295350165
 10
-0.843259058
 20
52.0245600092
  0
LINE
  5
45C
100
AcDbEntity
  8
0
100
AcDbLine
 62
250
  6
CONTINUOUS
 10
-2.4786995096
 20
54.059101227
 11
-2.4379800632
 21
54.048346856
  0
LWPOLYLINE
  5
45D
100
AcDbEntity
  8
0
100
AcDbPolyline
 62
250
  6
CONTINUOUS
 90
4
 70
0
 10
-2.4379800632
 20
54.048346856
 10
-2.3094857857
 20
54.0131830307
 10
-2.2645694497
 20
54.0007699278
 10
-2.2181021956
 20
53.9876119255
  0
LINE
  5
45E
100
AcDbEntity
  8
0
100
AcDbLine
 62
250
  6
CONTINUOUS
 10
-2.2181021956
 20
53.9876119255
 11
-2.0688353526
 21
53.9444076371
  0
LINE
  5
45F
100
AcDbEntity
  8
0
100
AcDbLine
 62
250
  6
CONTINUOUS
 10
-2.436326318
 20
54.215618424
 11
-2.3534712579
 21
54.1915127621
  0
LWPOLYLINE
  5
460
100
AcDbEntity
  8
0
100
AcDbPolyline
 62
250
  6
CONTINUOUS
 90
4
 70
0
 10
-2.3534712579
 20
54.1915127621
 10
-2.2663237203
 20
54.1655292228
 10
-2.2211605605
 20
54.1518430849
 10
-2.1743967913
 20
54.1374317498
  0
LINE
  5
461
100
AcDbEntity
  8
0
100
AcDbLine
 62
250
  6
CONTINUOUS
 10
-1.2441882115
 20
55.1235063324
 11
-1.2407069516
 21
55.1224601216
  0
LINE
  5
462
100
AcDbEntity
  8
0
100
AcDbLine
 62
7
  6
CONTINUOUS
 10
-1.7154261618
 20
55.3662308743
 11
-1.638088336
 21
55.3419852627
  0
LWPOLYLINE
  5
463
100
AcDbEntity
  8
0
100
AcDbPolyline
 62
250
  6
CONTINUOUS
 90
10
 70
0
 10
-1.7435541878
 20
53.366772625
 10
-1.7532608643
 20
53.3698204687
 10
-1.7646104383
 20
53.3736089605
 10
-1.7773183399
 20
53.378252449
 10
-1.7909157116
 20
53.3839874681
 10
-1.8051945606
 20
53.3907309875
 10
-1.820245759
 20
53.3980946287
 10
-1.835860309
 20
53.4059740072
 10
-1.8515121038
 20
53.414528555
 10
-1.8668215814
 20
53.4237528911
  0
LWPOLYLINE
  5
464
100
AcDbEntity
  8
0
100
AcDbPolyline
 62
250
  6
CONTINUOUS
 90
3
 70
0
 10
-2.1743967913
 20
54.1374317498
 10
-2.0757428151
 20
54.106276117
 10
-2.0240149128
 20
54.0896105049
  0
LWPOLYLINE
  5
465
100
AcDbEntity
  8
0
100
AcDbPolyline
 62
250
  6
CONTINUOUS
 90
10
 70
0
 10
-1.964423411
 20
52.9993720867
 10
-1.9746481469
 20
53.003129141
 10
-1.9864287506
 20
53.0080816965
 10
-1.9995721496
 20
53.0141485855
 10
-2.0138629398
 20
53.0212303785
 10
-2.0290669074
 20
53.029211011
 10
-2.0449348661
 20
53.0379596843
 10
-2.0612067533
 20
53.0473330139
 10
-2.0776158937
 20
53.0571773808
 10
-2.0938933607
 20
53.0673314456
  0
LINE
  5
466
100
AcDbEntity
  8
0
100
AcDbLine
 62
7
  6
CONTINUOUS
 10
-1.2303895759
 20
55.1177471251
 11
-1.2096174201
 21
55.1100124701
  0
LINE
  5
467
100
AcDbEntity
  8
0
100
AcDbLine
 62
250
  6
CONTINUOUS
 10
-1.973864567
 20
55.3430825421
 11
-1.9644233543
 21
55.3395151955
  0
LINE
  5
468
100
AcDbEntity
  8
0
100
AcDbLine
 62
7
  6
CONTINUOUS
 10
-1.638088336
 20
55.3419852627
 11
-1.5595141889
 21
55.3120999365
  0
LINE
  5
469
100
AcDbEntity
  8
0
100
AcDbLine
 62
250
  6
CONTINUOUS
 10
-1.2303577722
 20
55.117735684
 11
-1.2407069516
 21
55.1224601216
  0
LWPOLYLINE
  5
46A
100
AcDbEntity
  8
0
100
AcDbPolyline
 62
250
  6
CONTINUOUS
 90
3
 70
0
 10
-1.6192801416
 20
55.291735104
 10
-1.6184907782
 20
55.2914305562
 10
-1.612871449
 20
55.2907833946
  0
LWPOLYLINE
  5
46B
100
AcDbEntity
  8
0
100
AcDbPolyline
 62
250
  6
CONTINUOUS
 90
11
 70
0
 10
-1.7009752823
 20
55.3271462646
 10
-1.720911981
 20
55.3348919127
 10
-1.7417096528
 20
55.3427743799
 10
-1.763365781
 20
55.3507664914
 10
-1.7859297603
 20
55.3588061479
 10
-1.8094838123
 20
55.3669012422
 10
-1.8339618271
 20
55.3749893996
 10
-1.8591845006
 20
55.3828884649
 10
-1.8850881792
 20
55.3905066655
 10
-1.9117299784
 20
55.3978487457
 10
-1.9391030923
 20
55.4048660309
  0
LINE
  5
46C
100
AcDbEntity
  8
0
100
AcDbLine
 62
7
  6
CONTINUOUS
 10
-1.2096174201
 20
55.1100124701
 11
-1.1886905606
 21
55.1017054407
  0
LWPOLYLINE
  5
46D
100
AcDbEntity
  8
0
100
AcDbPolyline
 62
250
  6
CONTINUOUS
 90
3
 70
0
 10
-1.6635349983
 20
55.3120932499
 10
-1.6818779004
 20
55.3195411336
 10
-1.7009752823
 20
55.3271462646
  0
LWPOLYLINE
  5
46E
100
AcDbEntity
  8
0
100
AcDbPolyline
 62
250
  6
CONTINUOUS
 90
4
 70
0
 10
-1.6192801975
 20
55.2917349737
 10
-1.6290280565
 20
55.2977070615
 10
-1.6459129466
 20
55.3048129109
 10
-1.6635349983
 20
55.3120932499
  0
LWPOLYLINE
  5
46F
100
AcDbEntity
  8
0
100
AcDbPolyline
 62
7
  6
CONTINUOUS
 90
7
 70
0
 10
-1.6192801975
 20
55.2917349737
 10
-1.5579504023
 20
55.2653755918
 10
-1.4975772926
 20
55.239046086
 10
-1.4390658967
 20
55.2131334511
 10
-1.3824182907
 20
55.1876404187
 10
-1.3276355234
 20
55.1625704872
 10
-1.2747189
 20
55.1379290818
  0
LINE
  5
470
100
AcDbEntity
  8
0
100
AcDbLine
 62
250
  6
CONTINUOUS
 10
-1.5579504023
 20
55.2653755918
 11
-1.5779482623
 21
55.2756839342
  0
LINE
  5
471
100
AcDbEntity
  8
0
100
AcDbLine
 62
250
  6
CONTINUOUS
 10
-1.4975772926
 20
55.239046086
 11
-1.5115125449
 21
55.2465982657
  0
LWPOLYLINE
  5
472
100
AcDbEntity
  8
0
100
AcDbPolyline
 62
7
  6
CONTINUOUS
 90
4
 70
0
 10
-1.5595141889
 20
55.3120999365
 10
-1.4805158955
 20
55.2768318487
 10
-1.4010813657
 20
55.2361033527
 10
-1.3613172236
 20
55.2137853312
  0
LINE
  5
473
100
AcDbEntity
  8
0
100
AcDbLine
 62
250
  6
CONTINUOUS
 10
-1.4390658967
 20
55.2131334511
 11
-1.4499620335
 21
55.2192240629
  0
LINE
  5
474
100
AcDbEntity
  8
0
100
AcDbLine
 62
250
  6
CONTINUOUS
 10
-1.3824182907
 20
55.1876404187
 11
-1.3908134144
 21
55.1924894812
  0
LINE
  5
475
100
AcDbEntity
  8
0
100
AcDbLine
 62
250
  6
CONTINUOUS
 10
-1.3276355234
 20
55.1625704872
 11
-1.3324850737
 21
55.165676314
  0
LINE
  5
476
100
AcDbEntity
  8
0
100
AcDbLine
 62
7
  6
CONTINUOUS
 10
-1.2747189
 20
55.1379290818
 11
-1.2439489718
 21
55.1233924035
  0
LINE
  5
477
100
AcDbEntity
  8
0
100
AcDbLine
 62
250
  6
CONTINUOUS
 10
-1.2326755675
 20
55.1186179129
 11
-1.2439489718
 21
55.1233924035
  0
LWPOLYLINE
  5
478
100
AcDbEntity
  8
0
100
AcDbPolyline
 62
250
  6
CONTINUOUS
 90
12
 70
0
 10
-1.2577904598
 20
56.9883608589
 10
-1.3693918558
 20
57.0485795995
 10
-1.5535877007
 20
57.1339844063
 10
-1.736202645
 20
57.2046110589
 10
-1.9164547058
 20
57.2601571234
 10
-2.0935720136
 20
57.3003847416
 10
-2.2667961186
 20
57.3251216515
 10
-2.4353852417
 20
57.3342619273
 10
-2.5986174663
 20
57.3277664313
 10
-2.755793823
 20
57.3056629767
 10
-2.9062412737
 20
57.2680462053
 10
-3.0493155591
 20
57.2150771961
  0
LWPOLYLINE
  5
479
100
AcDbEntity
  8
0
100
AcDbPolyline
 62
7
  6
CONTINUOUS
 90
16
 70
0
 10
42.7622825923
 20
40.4792603299
 10
42.7649682643
 20
40.472114472
 10
42.8939317852
 20
40.105401301
 10
43.0138519255
 20
39.73926056
 10
43.1246956579
 20
39.3736943394
 10
43.2264960097
 20
39.0087005489
 10
43.3188816508
 20
38.6456105503
 10
43.4018181981
 20
38.2844312965
 10
43.4753400347
 20
37.9251558348
 10
43.5391789802
 20
37.5690946687
 10
43.5932996721
 20
37.2162595372
 10
43.637737473
 20
36.8666387013
 10
43.6723302901
 20
36.5215074484
 10
43.6970240927
 20
36.1812908741
 10
43.7118729116
 20
35.8455638827
 10
43.7168767469
 20
35.5143264742
  0
LWPOLYLINE
  5
47A
100
AcDbEntity
  8
0
100
AcDbPolyline
 62
7
  6
CONTINUOUS
 90
7
 70
0
 10
17.1730084035
 20
65.7317183184
 10
17.2170359648
 20
65.7440624378
 10
17.2887976145
 20
65.7565816538
 10
17.3629689934
 20
65.7622778787
 10
17.4392920667
 20
65.7611701795
 10
17.5172797798
 20
65.753310781
 10
17.5965424415
 20
65.7388042358
  0
LWPOLYLINE
  5
47B
100
AcDbEntity
  8
0
100
AcDbPolyline
 62
7
  6
CONTINUOUS
 90
9
 70
0
 10
12.0100153222
 20
63.5912404627
 10
12.1181792105
 20
63.621353306
 10
12.2315498848
 20
63.6391505971
 10
12.3494460728
 20
63.6445624283
 10
12.4711557899
 20
63.6376029453
 10
12.5959411715
 20
63.6183702505
 10
12.72304348
 20
63.5870457373
 10
12.8516882543
 20
63.5438928596
 10
12.9810905653
 20
63.4892553434
  0
LWPOLYLINE
  5
47C
100
AcDbEntity
  8
0
100
AcDbPolyline
 62
7
  6
CONTINUOUS
 90
9
 70
0
 10
15.9700741499
 20
65.8776679079
 10
16.0782517631
 20
65.9077504484
 10
16.1916345232
 20
65.9255171518
 10
16.3095410753
 20
65.930898318
 10
16.4312593642
 20
65.9239083003
 10
16.5560514665
 20
65.904645408
 10
16.6831585987
 20
65.8732912394
 10
16.8118062664
 20
65.8301094494
 10
16.9412095203
 20
65.7754439603
  0
LWPOLYLINE
  5
47D
100
AcDbEntity
  8
0
100
AcDbPolyline
 62
7
  6
CONTINUOUS
 90
9
 70
0
 10
19.9301344121
 20
68.1640957167
 10
20.0383258577
 20
68.1941477722
 10
20.1517208032
 20
68.211883698
 10
20.2696378105
 20
68.2172340022
 10
20.3913647527
 20
68.2102132472
 10
20.5161636467
 20
68.190919951
 10
20.643275662
 20
68.1595359179
 10
20.7719262701
 20
68.1163250057
 10
20.9013305007
 20
68.0616313342
  0
LWPOLYLINE
  5
47E
100
AcDbEntity
  8
0
100
AcDbPolyline
 62
7
  6
CONTINUOUS
 90
19
 70
0
 10
23.8901969315
 20
70.4505241437
 10
23.9984023659
 20
70.4805454232
 10
24.11180964
 20
70.498250271
 10
24.2297372308
 20
70.5035694059
 10
24.3514729382
 20
70.4965176015
 10
24.4762787188
 20
70.4771935862
 10
24.6033956937
 20
70.4457793731
 10
24.7320492994
 20
70.4025390247
 10
24.8614545438
 20
70.347816861
 10
24.990821334
 20
70.282035123
 10
25.1193598375
 20
70.2056911068
 10
25.2462858432
 20
70.119353789
 10
25.3708260829
 20
70.0236599652
 10
25.4922234788
 20
69.9193099287
 10
25.6097422823
 20
69.807062718
 10
25.722673066
 20
69.6877309652
 10
25.8303375391
 20
69.5621753817
 10
25.93209315
 20
69.4312989166
 10
26.0273374474
 20
69.2960406292
  0
LWPOLYLINE
  5
47F
100
AcDbEntity
  8
0
100
AcDbPolyline
 62
7
  6
CONTINUOUS
 90
26
 70
0
 10
21.1320395167
 20
68.0185183458
 10
21.2076241954
 20
68.0366649403
 10
21.289456
 20
68.0469201745
 10
21.3739252397
 20
68.0486168847
 10
21.4616673936
 20
68.0417176885
 10
21.5527885094
 20
68.0259272716
 10
21.6461709609
 20
68.0011708446
 10
21.7406254261
 20
67.9676729925
 10
21.8356883211
 20
67.9255773063
 10
21.9305312748
 20
67.8752424205
 10
22.0234076573
 20
67.8177657464
 10
22.1133230364
 20
67.7541391087
 10
22.2001485848
 20
67.6848348409
 10
22.283518644
 20
67.6104584869
 10
22.36282027
 20
67.531880796
 10
22.4377856875
 20
67.4497007384
 10
22.5085321975
 20
67.364024602
 10
22.5746510127
 20
67.2754978833
 10
22.6357078005
 20
67.1848645385
 10
22.6916480401
 20
67.0923037333
 10
22.7422788774
 20
66.9980732082
 10
22.7868890796
 20
66.9034329275
 10
22.8247833689
 20
66.8100708414
 10
22.8557423833
 20
66.7190480263
 10
22.8798190751
 20
66.6308126659
 10
22.8969907337
 20
66.546076458
  0
LWPOLYLINE
  5
480
100
AcDbEntity
  8
0
100
AcDbPolyline
 62
7
  6
CONTINUOUS
 90
7
 70
0
 10
-2.2813124378
 20
57.4145760518
 10
-2.3163907064
 20
57.4152387007
 10
-2.483267933
 20
57.4030498303
 10
-2.6438043935
 20
57.3756924599
 10
-2.7973117141
 20
57.3335453711
 10
-2.9432231937
 20
57.277045465
 10
-3.0809471085
 20
57.206717492
  0
LINE
  5
481
100
AcDbEntity
  8
0
100
AcDbLine
 62
7
  6
CONTINUOUS
 10
12.9810905653
 20
63.4892553434
 11
13.1104603432
 21
63.4235548541
  0
LWPOLYLINE
  5
482
100
AcDbEntity
  8
RACCORDO
100
AcDbPolyline
 62
7
  6
CONTINUOUS
 90
13
 70
0
 10
-43.0097699657
 20
91.7939454452
 10
-43.0563422321
 20
91.8190255617
 10
-43.102325462
 20
91.8403462866
 10
-43.1477196553
 20
91.8579076197
 10
-43.1927136121
 20
91.8717524421
 10
-43.2371185323
 20
91.8818378729
 10
-43.2803680157
 20
91.8880352688
 10
-43.3224472614
 20
91.8902948248
 10
-43.3633710703
 20
91.8886663459
 10
-43.4026174449
 20
91.8831706039
 10
-43.4401648976
 20
91.8737580599
 10
-43.4760349161
 20
91.8604782529
 10
-43.5097941258
 20
91.8434866229
  0
LINE
  5
483
100
AcDbEntity
  8
RACCORDO
100
AcDbLine
 62
7
  6
CONTINUOUS
 10
40.2874088581
 20
43.6991983512
 11
-43.0097699657
 21
91.7939454452
  0
LINE
  5
484
100
AcDbEntity
  8
RACCORDO
100
AcDbLine
 62
7
  6
CONTINUOUS
 10
42.0551758111
 20
44.7198848345
 11
-41.2420030127
 21
92.8146319285
  0
LINE
  5
485
100
AcDbEntity
  8
0
100
AcDbLine
 62
7
  6
CONTINUOUS
 10
-30.5293352777
 20
87.7725669567
 11
35.5851487632
 21
49.5988924806
  0
LWPOLYLINE
  5
486
100
AcDbEntity
  8
0
100
AcDbPolyline
 62
7
  6
CONTINUOUS
 90
15
 70
0
 10
13.1104603432
 20
63.4235548541
 10
13.2390077386
 20
63.3472881353
 10
13.3659484834
 20
63.2610236376
 10
13.4905092125
 20
63.1653976605
 10
13.611932713
 20
63.0611100345
 10
13.7294830621
 20
62.9489193718
 10
13.8424506222
 20
62.829637918
 10
13.950156856
 20
62.7041260397
 10
14.0519589319
 20
62.5732863858
 10
14.1472540866
 20
62.4380577621
 10
14.2354837151
 20
62.2994087594
 10
14.3161371621
 20
62.158331181
 10
14.3887551877
 20
62.0158333114
 10
14.4529330834
 20
61.872933074
 10
14.4893731618
 20
61.7793289207
  0
LWPOLYLINE
  5
487
100
AcDbEntity
  8
0
100
AcDbPolyline
 62
7
  6
CONTINUOUS
 90
16
 70
0
 10
35.5851487632
 20
49.5988924806
 10
35.869515856
 20
49.4289247401
 10
36.1528481993
 20
49.2481868092
 10
36.4351457931
 20
49.0566786881
 10
36.7167497749
 20
48.8541410205
 10
36.9973190072
 20
48.6408331626
 10
37.2758300776
 20
48.4175331824
 10
37.5522754693
 20
48.1842045879
 10
37.826662699
 20
47.940883871
 10
38.0979909038
 20
47.6884585755
 10
38.3662489119
 20
47.4268954509
 10
38.631447895
 20
47.1562277477
 10
38.8926205057
 20
46.8774427614
 10
39.1497520392
 20
46.590510847
 10
39.4028572003
 20
46.2954616495
 10
39.471864088
 20
46.2114566469
  0
LWPOLYLINE
  5
488
100
AcDbEntity
  8
RACCORDO
100
AcDbPolyline
 62
7
  6
CONTINUOUS
 90
25
 70
0
 10
42.0551758111
 20
44.7198848345
 10
42.1017480775
 20
44.6911844651
 10
42.1477313074
 20
44.6594049087
 10
42.1931255007
 20
44.6245461652
 10
42.2381194575
 20
44.5864330942
 10
42.2825243777
 20
44.5452408361
 10
42.3257738611
 20
44.5014948127
 10
42.3678531068
 20
44.4551623105
 10
42.4087769157
 20
44.4062760429
 10
42.4480232903
 20
44.3554595713
 10
42.485570743
 20
44.3026881701
 10
42.5214407614
 20
44.2479865648
 10
42.5551758111
 20
44.1920524936
 10
42.5867485433
 20
44.1348701687
 10
42.6161863067
 20
44.0764553777
 10
42.6431136123
 20
44.0175532218
 10
42.6674983016
 20
43.9581574579
 10
42.6893725332
 20
43.898274329
 10
42.7084572935
 20
43.8386676653
 10
42.72471685
 20
43.7793410082
 10
42.7381869353
 20
43.7202908163
 10
42.7486957337
 20
43.6622702955
 10
42.7561859734
 20
43.6055305141
 10
42.7607149263
 20
43.5498204038
 10
42.7622825923
 20
43.4951399644
  0
LWPOLYLINE
  5
489
100
AcDbEntity
  8
0
100
AcDbPolyline
 62
7
  6
CONTINUOUS
 90
13
 70
0
 10
25.3783670697
 20
68.9663560169
 10
25.4171996299
 20
68.9126579245
 10
25.4535233921
 20
68.8587203455
 10
25.4872583786
 20
68.804778671
 10
25.518327903
 20
68.7510804604
 10
25.5466820241
 20
68.6978448851
 10
25.5722909729
 20
68.64526337
 10
25.5951208811
 20
68.5935435134
 10
25.6151295176
 20
68.542931719
 10
25.6322895093
 20
68.493671623
 10
25.6465947287
 20
68.4459829634
 10
25.6580556905
 20
68.4000628279
 10
25.6666914818
 20
68.3561084781
  0
LWPOLYLINE
  5
48A
100
AcDbEntity
  8
0
100
AcDbPolyline
 62
7
  6
CONTINUOUS
 90
16
 70
0
 10
26.0273374474
 20
69.2960406292
 10
26.1051482893
 20
69.1543068754
 10
26.1741646529
 20
69.012877778
 10
26.2341500008
 20
68.8727959909
 10
26.2849367803
 20
68.7350765609
 10
26.326426538
 20
68.6006999468
 10
26.358589521
 20
68.4706053999
 10
26.381463773
 20
68.3456847477
 10
26.3951537409
 20
68.2267766244
 10
26.3998284074
 20
68.1146611836
 10
26.3957189714
 20
68.0100553272
 10
26.3831160984
 20
67.9136084802
 10
26.362366769
 20
67.8258989334
 10
26.3338707539
 20
67.7474307761
 10
26.2980767474
 20
67.6786314327
 10
26.2554781936
 20
67.619849814
  0
LWPOLYLINE
  5
48B
100
AcDbEntity
  8
0
100
AcDbPolyline
 62
7
  6
CONTINUOUS
 90
18
 70
0
 10
26.0980481255
 20
69.3368680885
 10
26.1758589674
 20
69.1951343347
 10
26.244875331
 20
69.0537052373
 10
26.3048606789
 20
68.9136234503
 10
26.3556474584
 20
68.7759040202
 10
26.3971372161
 20
68.6415274061
 10
26.4293001991
 20
68.5114328592
 10
26.4521744511
 20
68.3865122071
 10
26.465864419
 20
68.2676040838
 10
26.4705390856
 20
68.1554886429
 10
26.4664296495
 20
68.0508827866
 10
26.4538267765
 20
67.9544359396
 10
26.4330774472
 20
67.8667263927
 10
26.4045814321
 20
67.7882582354
 10
26.3687874255
 20
67.7194588921
 10
26.3261888717
 20
67.6606772734
 10
26.2773195193
 20
67.6121825468
 10
26.2240235283
 20
67.5748962065
  0
LINE
  5
48C
100
AcDbEntity
  8
0
100
AcDbLine
 62
7
  6
CONTINUOUS
 10
26.9230906937
 20
69.911796329
 11
25.9043908648
 21
69.8184122348
  0
LWPOLYLINE
  5
48D
100
AcDbEntity
  8
0
100
AcDbPolyline
 62
7
  6
CONTINUOUS
 90
3
 70
0
 10
25.3917512146
 20
70.1027414805
 10
25.454185091
 20
70.1060282231
 10
25.5188412454
 20
70.1033991951
  0
LWPOLYLINE
  5
48E
100
AcDbEntity
  8
0
100
AcDbPolyline
 62
7
  6
CONTINUOUS
 90
15
 70
0
 10
24.2174692603
 20
69.6632291646
 10
24.298817936
 20
69.664403032
 10
24.3875404301
 20
69.6561021767
 10
24.4778503648
 20
69.6384662627
 10
24.5690376848
 20
69.6117938965
 10
24.6603926805
 20
69.5764641945
 10
24.7512060248
 20
69.5329340981
 10
24.8407723952
 20
69.4817364303
 10
24.9284003021
 20
69.423474426
 10
25.0134201155
 20
69.3588151898
 10
25.0951945531
 20
69.2884792815
 10
25.1731212309
 20
69.2132348749
 10
25.2466335828
 20
69.1338948275
 10
25.315206863
 20
69.0513097659
 10
25.3783670697
 20
68.9663560169
  0
LWPOLYLINE
  5
48F
100
AcDbEntity
  8
0
100
AcDbPolyline
 62
7
  6
CONTINUOUS
 90
13
 70
0
 10
12.553913062
 20
62.8968393253
 10
12.563060442
 20
62.8960150464
 10
12.6536619937
 20
62.8793278625
 10
12.7455375735
 20
62.8541100727
 10
12.8378133978
 20
62.8207075188
 10
12.92971248
 20
62.7795749068
 10
13.0208249115
 20
62.731076017
 10
13.1108235969
 20
62.6755180087
 10
13.1991608933
 20
62.6133446964
 10
13.2852415229
 20
62.5450898743
 10
13.3686623689
 20
62.4711803203
 10
13.4488514941
 20
62.3922215662
 10
13.4724310911
 20
62.366498527
  0
LWPOLYLINE
  5
490
100
AcDbEntity
  8
0
100
AcDbPolyline
 62
7
  6
CONTINUOUS
 90
22
 70
0
 10
17.5965424415
 20
65.7388042358
 10
17.684333523
 20
65.715464036
 10
17.7730885364
 20
65.6843942115
 10
17.8622798284
 20
65.6457794256
 10
17.9516694608
 20
65.5996947332
 10
18.0403957613
 20
65.5465661614
 10
18.1270206917
 20
65.4873956705
 10
18.2106469725
 20
65.4231095307
 10
18.2912513896
 20
65.3540439888
 10
18.368759782
 20
65.2804853771
 10
18.442835695
 20
65.2029216329
 10
18.5129849287
 20
65.1220477062
 10
18.5788929646
 20
65.0384182303
 10
18.6401257414
 20
64.9527949741
 10
18.6964742167
 20
64.8656942316
 10
18.7479217445
 20
64.7772903819
 10
18.794294073
 20
64.6879169913
 10
18.8351000758
 20
64.5985597119
 10
18.8699075852
 20
64.5103666548
 10
18.8985421665
 20
64.4241514436
 10
18.9209847103
 20
64.340401377
 10
18.9371929686
 20
64.2597388564
  0
LINE
  5
491
100
AcDbEntity
  8
0
100
AcDbLine
 62
7
  6
CONTINUOUS
 10
17.6412406485
 20
66.4538116238
 11
17.7695775815
 21
66.4135496802
  0
LWPOLYLINE
  5
492
100
AcDbEntity
  8
0
100
AcDbPolyline
 62
7
  6
CONTINUOUS
 90
32
 70
0
 10
17.7119513267
 20
66.4946390832
 10
17.8402882596
 20
66.4543771395
 10
17.969577179
 20
66.4025383088
 10
18.0990287805
 20
66.3395252669
 10
18.227852656
 20
66.2658165228
 10
18.3552626575
 20
66.1819631716
 10
18.4804822325
 20
66.0885851537
 10
18.6027496935
 20
65.9863670483
 10
18.7213233879
 20
65.8760534272
 10
18.8354867305
 20
65.758443802
 10
18.9445530669
 20
65.634387198
 10
19.0478703335
 20
65.5047763923
 10
19.1448254826
 20
65.3705418555
 10
19.2348486424
 20
65.2326454364
 10
19.3174169852
 20
65.0920738348
 10
19.3920582749
 20
64.9498319057
 10
19.458354072
 20
64.8069358391
 10
19.5159425733
 20
64.6644062643
 10
19.5645210673
 20
64.5232613232
 10
19.6038479882
 20
64.3845097608
 10
19.6337445558
 20
64.2491440795
 10
19.6540959884
 20
64.1181338033
 10
19.6648522818
 20
63.9924188984
 10
19.6660285486
 20
63.8729033942
 10
19.6577049158
 20
63.760449248
 10
19.6400259808
 20
63.6558704955
 10
19.6131998302
 20
63.5599277265
 10
19.5774966276
 20
63.4733229228
 10
19.5332467802
 20
63.396694695
 10
19.4808386964
 20
63.3306139478
 10
19.4207161498
 20
63.2755800062
 10
19.3674915942
 20
63.239849829
  0
LWPOLYLINE
  5
493
100
AcDbEntity
  8
0
100
AcDbPolyline
 62
7
  6
CONTINUOUS
 90
3
 70
0
 10
17.7695775815
 20
66.4135496802
 10
17.8988665008
 20
66.3617108495
 10
18.0283181023
 20
66.2986978075
  0
LINE
  5
494
100
AcDbEntity
  8
0
100
AcDbLine
 62
7
  6
CONTINUOUS
 10
16.9412095203
 20
65.7754439603
 11
17.0705782833
 21
65.7097166273
  0
LWPOLYLINE
  5
495
100
AcDbEntity
  8
0
100
AcDbPolyline
 62
7
  6
CONTINUOUS
 90
27
 70
0
 10
15.9835618
 20
65.1884821473
 10
16.112798698
 20
65.1200702809
 10
16.2410149143
 20
65.0412287715
 10
16.3674284285
 20
64.9525435435
 10
16.4912694539
 20
64.8546673246
 10
16.611785662
 20
64.7483152166
 10
16.7282472878
 20
64.6342598422
 10
16.8399520824
 20
64.5133261017
 10
16.9462300787
 20
64.3863855747
 10
17.0464481382
 20
64.2543506055
 10
17.1400142477
 20
64.1181681114
 10
17.2263815369
 20
63.9788131564
 10
17.3050519896
 20
63.8372823343
 10
17.3755798236
 20
63.6945870051
 10
17.437574516
 20
63.5517464318
 10
17.4907034532
 20
63.4097808629
 10
17.5346941885
 20
63.2697046089
 10
17.5693362907
 20
63.1325191586
 10
17.5944827724
 20
62.9992063824
 10
17.6100510875
 20
62.8707218695
 10
17.6160236913
 20
62.7479884421
 10
17.6124481594
 20
62.6318898935
 10
17.5994368653
 20
62.5232649896
 10
17.5771662175
 20
62.4229017772
 10
17.5458754622
 20
62.331532236
 10
17.50586506
 20
62.2498273105
 10
17.4574946466
 20
62.1783923575
  0
LWPOLYLINE
  5
496
100
AcDbEntity
  8
0
100
AcDbPolyline
 62
7
  6
CONTINUOUS
 90
27
 70
0
 10
19.9436795802
 20
67.4746645535
 10
20.0729149319
 20
67.4062262897
 10
20.2011276627
 20
67.3273597416
 10
20.3275357758
 20
67.2386510032
 10
20.4513695211
 20
67.1407529617
 10
20.5718766193
 20
67.0343808669
 10
20.6883273669
 20
66.9203074768
 10
20.8000195887
 20
66.7993578141
 10
20.9062834028
 20
66.6724035663
 10
21.0064857666
 20
66.5403571709
 10
21.1000347731
 20
66.4041656227
 10
21.1863836678
 20
66.2648040474
 10
21.265034559
 20
66.1232690837
 10
21.335541797
 20
65.9805721202
 10
21.3975149983
 20
65.8377324309
 10
21.450621695
 20
65.6957702589
 10
21.4945895907
 20
65.5556998917
 10
21.5292084092
 20
65.4185227786
 10
21.5543313206
 20
65.2852207341
 10
21.5698759386
 20
65.1567492746
 10
21.5758248789
 20
65.0340311345
 10
21.5722258777
 20
64.9179500037
 10
21.5591914675
 20
64.8093445304
 10
21.5368982134
 20
64.7090026303
 10
21.5055855149
 20
64.6176561387
 10
21.4655539815
 20
64.5359758445
 10
21.4171633921
 20
64.4645669376
  0
LWPOLYLINE
  5
497
100
AcDbEntity
  8
0
100
AcDbPolyline
 62
7
  6
CONTINUOUS
 90
27
 70
0
 10
15.0258971893
 20
64.6008405974
 10
15.1549533112
 20
64.5297763594
 10
15.2827928467
 20
64.4484221155
 10
15.4086363302
 20
64.3573808445
 10
15.5317178422
 20
64.2573212652
 10
15.6512902072
 20
64.1489732985
 10
15.7666300643
 20
64.0331231139
 10
15.8770427764
 20
63.9106077939
 10
15.9818671442
 20
63.7823096536
 10
16.0804798932
 20
63.6491502525
 10
16.1722999041
 20
63.5120841407
 10
16.2567921556
 20
63.3720923809
 10
16.3334713562
 20
63.2301758902
 10
16.4019052367
 20
63.0873486478
 10
16.4617174848
 20
62.9446308134
 10
16.5125902978
 20
62.8030418043
 10
16.5542665402
 20
62.6635933768
 10
16.5865514882
 20
62.5272827604
 10
16.6093141514
 20
62.3950858897
 10
16.6224881618
 20
62.2679507818
 10
16.6260722239
 20
62.1467911025
 10
16.620130124
 20
62.0324799653
 10
16.6047902966
 20
61.925844007
 10
16.5802449534
 20
61.8276577769
 10
16.5467487786
 20
61.738638481
 10
16.5046172006
 20
61.6594411144
 10
16.454224251
 20
61.5906540164
  0
LWPOLYLINE
  5
498
100
AcDbEntity
  8
0
100
AcDbPolyline
 62
7
  6
CONTINUOUS
 90
27
 70
0
 10
18.9860174955
 20
66.8870145841
 10
19.1150714898
 20
66.8159240788
 10
19.2429069471
 20
66.7345449963
 10
19.3687444302
 20
66.6434804827
 10
19.4918180612
 20
66.5433994135
 10
19.6113807189
 20
66.4350318545
 10
19.7267091091
 20
66.3191641068
 10
19.8371086732
 20
66.1966333711
 10
19.9419183018
 20
66.0683220658
 10
20.040514821
 20
65.9351518387
 10
20.132317222
 20
65.798077312
 10
20.2167906036
 20
65.6580796044
 10
20.2934498024
 20
65.5161596722
 10
20.3618626856
 20
65.3733315168
 10
20.4216530832
 20
65.2306153031
 10
20.4725033412
 20
65.0890304362
 10
20.5141564769
 20
64.9495886435
 10
20.5464179235
 20
64.8132871083
 10
20.5691568499
 20
64.6811017029
 10
20.582307049
 20
64.5539803657
 10
20.5858673867
 20
64.4328366683
 10
20.5799018098
 20
64.3185436152
 10
20.564538912
 20
64.2119277197
 10
20.539971061
 20
64.1137633946
 10
20.5064530934
 20
64.0247676968
 10
20.4643005848
 20
63.945595461
 10
20.4138877085
 20
63.8768348556
  0
LWPOLYLINE
  5
499
100
AcDbEntity
  8
0
100
AcDbPolyline
 62
7
  6
CONTINUOUS
 90
25
 70
0
 10
14.0681931849
 20
64.0125337188
 10
14.1970195516
 20
63.938851473
 10
14.3244340364
 20
63.8550231451
 10
14.4496600568
 20
63.7616685032
 10
14.5719358825
 20
63.6594719649
 10
14.6905198041
 20
63.5491779531
 10
14.8046951671
 20
63.4315858439
 10
14.9137752354
 20
63.3075445416
 10
15.0171078516
 20
63.1779467175
 10
15.1140798629
 20
63.0437227523
 10
15.2041212823
 20
62.9058344219
 10
15.2867091571
 20
62.76526837
 10
15.3613711171
 20
62.6230294131
 10
15.427688581
 20
62.4801337207
 10
15.4852995971
 20
62.3376019195
 10
15.533901299
 20
62.1964521667
 10
15.573251962
 20
62.0576932405
 10
15.6031726426
 20
61.9223176942
 10
15.6235483936
 20
61.7912951199
 10
15.6343290438
 20
61.6655655688
 10
15.6355295387
 20
61.5460331715
 10
15.6272298391
 20
61.4335600019
 10
15.6095743782
 20
61.3289602272
 10
15.5827710817
 20
61.2329945821
 10
15.554494062
 20
61.164341462
  0
LWPOLYLINE
  5
49A
100
AcDbEntity
  8
0
100
AcDbPolyline
 62
7
  6
CONTINUOUS
 90
27
 70
0
 10
18.0283181023
 20
66.2986978075
 10
18.1571419779
 20
66.2249890635
 10
18.2845519794
 20
66.1411357122
 10
18.4097715544
 20
66.0477576943
 10
18.5320390154
 20
65.9455395889
 10
18.6506127098
 20
65.8352259679
 10
18.7647760524
 20
65.7176163427
 10
18.8738423888
 20
65.5935597386
 10
18.9771596554
 20
65.463948933
 10
19.0741148044
 20
65.3297143962
 10
19.1641379643
 20
65.191817977
 10
19.2467063071
 20
65.0512463755
 10
19.3213475968
 20
64.9090044464
 10
19.3876433939
 20
64.7661083798
 10
19.4452318952
 20
64.623578805
 10
19.4938103891
 20
64.4824338639
 10
19.5331373101
 20
64.3436823015
 10
19.5630338777
 20
64.2083166201
 10
19.5833853103
 20
64.0773063439
 10
19.5941416037
 20
63.951591439
 10
19.5953178705
 20
63.8320759348
 10
19.5869942377
 20
63.7196217886
 10
19.5693153026
 20
63.6150430362
 10
19.542489152
 20
63.5191002671
 10
19.5067859495
 20
63.4324954635
 10
19.4625361021
 20
63.3558672357
 10
19.4101280182
 20
63.2897864885
  0
LWPOLYLINE
  5
49B
100
AcDbEntity
  8
0
100
AcDbPolyline
 62
7
  6
CONTINUOUS
 90
26
 70
0
 10
17.0705782833
 20
65.7097166273
 10
17.1991227126
 20
65.6334243764
 10
17.3260585593
 20
65.5471358316
 10
17.4506124909
 20
65.4514874557
 10
17.57202734
 20
65.347179232
 10
17.6895672416
 20
65.2349699126
 10
17.8025226284
 20
65.1156718703
 10
17.9102150448
 20
64.990145585
 10
18.0120017525
 20
64.8592938041
 10
18.1072800914
 20
64.7240554162
 10
18.1954915701
 20
64.5853990795
 10
18.2761256558
 20
64.4443166479
 10
18.3487232392
 20
64.3018164397
 10
18.41287975
 20
64.1589163952
 10
18.4682479025
 20
64.0166371683
 10
18.5145400527
 20
63.8759951996
 10
18.5515301502
 20
63.737995819
 10
18.5790552723
 20
63.6036264224
 10
18.5970167295
 20
63.4738497716
 10
18.6053807355
 20
63.3495974597
 10
18.6041786367
 20
63.2317635898
 10
18.5935066989
 20
63.1211987065
 10
18.5735254543
 20
63.0187040241
 10
18.5444586123
 20
62.9250259892
 10
18.506591541
 20
62.8408512148
 10
18.4602693307
 20
62.7668018207
  0
LWPOLYLINE
  5
49C
100
AcDbEntity
  8
0
100
AcDbPolyline
 62
7
  6
CONTINUOUS
 90
26
 70
0
 10
21.0306982692
 20
67.9958769504
 10
21.1592397381
 20
67.9195589643
 10
21.2861706777
 20
67.8332461747
 10
21.4107177878
 20
67.7375752101
 10
21.5321239457
 20
67.6332462074
 10
21.6496533448
 20
67.5210180609
 10
21.7625964874
 20
67.4017032721
 10
21.8702750002
 20
67.2761624355
 10
21.972046238
 20
67.1452983986
 10
22.0673076446
 20
67.0100501344
 10
22.1555008426
 20
66.8713863695
 10
22.2361154223
 20
66.7302990096
 10
22.3086924056
 20
66.5877964081
 10
22.3728273614
 20
66.4448965232
 10
22.4281731494
 20
66.3026200091
 10
22.4744422767
 20
66.1619832898
 10
22.5114088486
 20
66.0239916613
 10
22.5389101013
 20
65.8896324686
 10
22.5568475071
 20
65.7598684058
 10
22.5651874426
 20
65.6356309826
 10
22.5639614172
 20
65.5178142024
 10
22.5532658591
 20
65.4072684957
 10
22.533261461
 20
65.3047949481
 10
22.5041720893
 20
65.2111398644
 10
22.4662832654
 20
65.1269897032
 10
22.4199402276
 20
65.0529664188
  0
LINE
  5
49D
100
AcDbEntity
  8
0
100
AcDbLine
 62
7
  6
CONTINUOUS
 10
25.9089620715
 20
69.7302902461
 11
25.9782307057
 21
69.7284495106
  0
LINE
  5
49E
100
AcDbEntity
  8
0
100
AcDbLine
 62
7
  6
CONTINUOUS
 10
25.8737209868
 20
69.7313377754
 11
25.9089620715
 21
69.7302902461
  0
LWPOLYLINE
  5
49F
100
AcDbEntity
  8
0
100
AcDbPolyline
 62
7
  6
CONTINUOUS
 90
4
 70
0
 10
25.7622735498
 20
69.761431959
 10
25.7975441894
 20
69.7532910248
 10
25.8363386679
 20
69.742818956
 10
25.8737209868
 20
69.7313377754
  0
LWPOLYLINE
  5
4A0
100
AcDbEntity
  8
0
100
AcDbPolyline
 62
7
  6
CONTINUOUS
 90
15
 70
0
 10
24.3500141259
 20
69.5714400196
 10
24.3674955714
 20
69.564003882
 10
24.4460718027
 20
69.5225962686
 10
24.5246480341
 20
69.4732660197
 10
24.6026262528
 20
69.4163885681
 10
24.6794129977
 20
69.3523967858
 10
24.7544238751
 20
69.2817776888
 10
24.8270880071
 20
69.205068731
 10
24.8968523758
 20
69.1228537139
 10
24.963186032
 20
69.0357583435
 10
25.0255841368
 20
68.9444454681
 10
25.0835718027
 20
68.8496100339
 10
25.1367077088
 20
68.7519737957
 10
25.1845874586
 20
68.6522798243
 10
25.1951312933
 20
68.6270816846
  0
LWPOLYLINE
  5
4A1
100
AcDbEntity
  8
0
100
AcDbPolyline
 62
7
  6
CONTINUOUS
 90
13
 70
0
 10
25.5188412454
 20
70.1033991951
 10
25.5674564161
 20
70.0797030098
 10
25.6146572781
 20
70.0537560874
 10
25.660278211
 20
70.0258145758
 10
25.7041644601
 20
69.9961398149
 10
25.7461727153
 20
69.9649971184
 10
25.7861716382
 20
69.9326545455
 10
25.8240423367
 20
69.89938167
 10
25.8596787855
 20
69.86544835
 10
25.8929881903
 20
69.8311235037
 10
25.9238912948
 20
69.7966738952
 10
25.9523226303
 20
69.7623629369
 10
25.9782307057
 20
69.7284495106
  0
LINE
  5
4A2
100
AcDbEntity
  8
0
100
AcDbLine
 62
7
  6
CONTINUOUS
 10
25.4481305672
 20
70.0625717358
 11
25.5058462239
 21
70.0341013885
  0
LINE
  5
4A3
100
AcDbEntity
  8
0
100
AcDbLine
 62
7
  6
CONTINUOUS
 10
20.9013305007
 20
68.0616313342
 11
21.0306982692
 21
67.9958769504
  0
LINE
  5
4A4
100
AcDbEntity
  8
0
100
AcDbLine
 62
7
  6
CONTINUOUS
 10
23.9037979584
 20
69.760846532
 11
24.0330317881
 21
69.6923817961
  0
LWPOLYLINE
  5
4A5
100
AcDbEntity
  8
0
100
AcDbPolyline
 62
7
  6
CONTINUOUS
 90
27
 70
0
 10
22.9461359371
 20
69.1731896753
 10
23.0751878445
 20
69.1020730518
 10
23.2030192757
 20
69.0206692654
 10
23.3288508215
 20
68.9295816292
 10
23.4519166447
 20
68.8294791749
 10
23.5714696774
 20
68.7210921127
 10
23.6867866913
 20
68.6052068754
 10
23.7971732051
 20
68.4826607817
 10
23.9019681984
 20
68.3543363535
 10
24.0005485967
 20
68.2211553268
 10
24.0923335008
 20
68.0840723967
 10
24.1767881284
 20
67.9440687382
 10
24.2534274435
 20
67.8021453473
 10
24.3218194481
 20
67.6593162484
 10
24.381588114
 20
67.5166016122
 10
24.4324159345
 20
67.3750208328
 10
24.4740460791
 20
67.2355856091
 10
24.5062841369
 20
67.0992930798
 10
24.5289994353
 20
66.9671190555
 10
24.5421259272
 20
66.8400113972
 10
24.5456626394
 20
66.7188835834
 10
24.5396736786
 20
66.6046085106
 10
24.5242877969
 20
66.4980125701
 10
24.4996975178
 20
66.3998700392
 10
24.4661578296
 20
66.3108978267
 10
24.4239844551
 20
66.2317506081
 10
24.3735517089
 20
66.1630163822
  0
LWPOLYLINE
  5
4A6
100
AcDbEntity
  8
0
100
AcDbPolyline
 62
7
  6
CONTINUOUS
 90
9
 70
0
 10
25.5058462239
 20
70.0341013885
 10
25.5615124697
 20
70.0025104761
 10
25.6148551217
 20
69.9682336697
 10
25.6656222617
 20
69.9317151348
 10
25.7135855615
 20
69.8934056083
 10
25.7585414592
 20
69.8537594576
 10
25.8003121825
 20
69.8132317407
 10
25.8387466129
 20
69.772275281
 10
25.8737209868
 20
69.7313377754
  0
LWPOLYLINE
  5
4A7
100
AcDbEntity
  8
0
100
AcDbPolyline
 62
7
  6
CONTINUOUS
 90
27
 70
0
 10
21.9884423233
 20
68.5848622696
 10
22.1172634963
 20
68.5111272522
 10
22.2446688233
 20
68.4272491283
 10
22.3698817848
 20
68.3338480052
 10
22.4921407398
 20
68.2316086172
 10
22.6107040947
 20
68.1212756788
 10
22.7248553358
 20
68.003648831
 10
22.8339078921
 20
67.879577214
 10
22.9372097946
 20
67.7499537052
 10
23.0341481008
 20
67.6157088591
 10
23.1241530543
 20
67.4778045928
 10
23.2067019516
 20
67.3372276575
 10
23.2813226893
 20
67.1949829421
 10
23.3475969679
 20
67.052086654
 10
23.4051631306
 20
66.909559422
 10
23.4537186179
 20
66.7684193702
 10
23.4930220205
 20
66.6296752087
 10
23.5228947176
 20
66.494319388
 10
23.5432220896
 20
66.3633213637
 10
23.5539542954
 20
66.2376210172
 10
23.5551066107
 20
66.1181222777
 10
23.5467593248
 20
66.0056869875
 10
23.529057195
 20
65.9011290532
 10
23.5022084649
 20
65.805208922
 10
23.4664834505
 20
65.7186284216
 10
23.4222127063
 20
65.6420259964
 10
23.3697847817
 20
65.5759723756
  0
LINE
  5
4A8
100
AcDbEntity
  8
0
100
AcDbLine
 62
7
  6
CONTINUOUS
 10
24.0330317881
 20
69.6923817961
 11
24.1612410531
 21
69.6134901323
  0
LWPOLYLINE
  5
4A9
100
AcDbEntity
  8
0
100
AcDbPolyline
 62
7
  6
CONTINUOUS
 90
25
 70
0
 10
24.1612410531
 20
69.6134901323
 10
24.2876437793
 20
69.524757805
 10
24.4114702527
 20
69.4268378618
 10
24.5319682428
 20
69.3204457013
 10
24.6484081074
 20
69.206354218
 10
24.7600877445
 20
69.0853885576
 10
24.866337357
 20
68.9584205169
 10
24.966523998
 20
68.8263626274
 10
25.0600558667
 20
68.6901619625
 10
25.1463863242
 20
68.5507937103
 10
25.2250176035
 20
68.4092545558
 10
25.2955041872
 20
68.2665559164
 10
25.3574558316
 20
68.1237170787
 10
25.4105402145
 20
67.9817582806
 10
25.4544851906
 20
67.8416937878
 10
25.4890806386
 20
67.7045250106
 10
25.5141798871
 20
67.5712337077
 10
25.5297007098
 20
67.4427753239
 10
25.5356258838
 20
67.3200725057
 10
25.5320033062
 20
67.2040088398
 10
25.5189456696
 20
67.0954228573
 10
25.4966296964
 20
66.9951023422
 10
25.4652949406
 20
66.9037789858
 10
25.4252421611
 20
66.8221234209
 10
25.3768312813
 20
66.7507406706
  0
LWPOLYLINE
  5
4AA
100
AcDbEntity
  8
0
100
AcDbPolyline
 62
7
  6
CONTINUOUS
 90
28
 70
0
 10
24.2319517312
 20
69.6543175916
 10
24.3583544574
 20
69.5655852644
 10
24.4821809309
 20
69.4676653212
 10
24.6026789209
 20
69.3612731606
 10
24.7191187856
 20
69.2471816773
 10
24.8307984227
 20
69.126216017
 10
24.9370480351
 20
68.9992479763
 10
25.0372346761
 20
68.8671900867
 10
25.1307665448
 20
68.7309894218
 10
25.2170970023
 20
68.5916211696
 10
25.2957282816
 20
68.4500820151
 10
25.3662148653
 20
68.3073833758
 10
25.4281665097
 20
68.1645445381
 10
25.4812508926
 20
68.02258574
 10
25.5251958687
 20
67.8825212472
 10
25.5597913167
 20
67.7453524699
 10
25.5848905652
 20
67.6120611671
 10
25.6004113879
 20
67.4836027833
 10
25.6063365619
 20
67.360899965
 10
25.6027139844
 20
67.2448362992
 10
25.5896563477
 20
67.1362503166
 10
25.5673403745
 20
67.0359298015
 10
25.5360056187
 20
66.9446064452
 10
25.4959528392
 20
66.8629508803
 10
25.4475419594
 20
66.7915681299
 10
25.3911896245
 20
66.7309935014
 10
25.3273663735
 20
66.6816889538
 10
25.3071895861
 20
66.6693570254
  0
LWPOLYLINE
  5
4AB
100
AcDbEntity
  8
RACCORDO
100
AcDbPolyline
 62
7
  6
CONTINUOUS
 90
13
 70
0
 10
40.7874330182
 20
-92.8641731062
 10
40.8189815903
 20
-92.8434641295
 10
40.8484193537
 20
-92.8190433299
 10
40.8753466593
 20
-92.7912361515
 10
40.8997313486
 20
-92.7599992156
 10
40.9216055802
 20
-92.725375901
 10
40.9406903405
 20
-92.6878078401
 10
40.956949897
 20
-92.6472573114
 10
40.9704199823
 20
-92.6037620363
 10
40.9809287808
 20
-92.5578768125
 10
40.9884190205
 20
-92.5097865722
 10
40.9929479733
 20
-92.4593063831
 10
40.9945156393
 20
-92.4064362451
  0
LINE
  5
4AC
100
AcDbEntity
  8
0
100
AcDbLine
 62
7
  6
CONTINUOUS
 10
43.7168767469
 20
-88.670802626
 11
42.7622825923
 21
-89.221973327
  0
LINE
  5
4AD
100
AcDbEntity
  8
RACCORDO
100
AcDbLine
 62
250
  6
CONTINUOUS
 10
40.9945156393
 20
-92.4064362451
 11
42.7622825923
 21
-91.3857497618
  0
LINE
  5
4AE
100
AcDbEntity
  8
RACCORDO
100
AcDbLine
 62
7
  6
CONTINUOUS
 10
40.7874330182
 20
-92.8641731062
 11
42.5551999712
 21
-91.8434866229
  0
LWPOLYLINE
  5
4AF
100
AcDbEntity
  8
0
100
AcDbPolyline
 62
7
  6
CONTINUOUS
 90
16
 70
0
 10
-34.4160506026
 20
88.8734125562
 10
-34.3470437148
 20
88.8777301345
 10
-34.0939385538
 20
88.8804998363
 10
-33.8368070202
 20
88.870502701
 10
-33.5756344096
 20
88.8476921031
 10
-33.3104354264
 20
88.812114668
 10
-33.0421774183
 20
88.763900169
 10
-32.7708492135
 20
88.7030024547
 10
-32.4964619838
 20
88.6294676764
 10
-32.2200165921
 20
88.5435640619
 10
-31.9415055218
 20
88.4452464393
 10
-31.6609362894
 20
88.3345599804
 10
-31.3793323076
 20
88.2119084283
 10
-31.0970347138
 20
88.0774263642
 10
-30.8137023705
 20
87.930979207
 10
-30.5293352777
 20
87.7725669567
  0
ARC
  5
4B0
100
AcDbEntity
  8
0
100
AcDbCircle
 62
7
  6
CONTINUOUS
 10
-0.0786735636
 20
-55.7608346471
 40
0.15
100
AcDbArc
 50
127.4707309722
 51
159.575409763
  0
ARC
  5
4B1
100
AcDbEntity
  8
0
100
AcDbCircle
 62
7
  6
CONTINUOUS
 10
0.1372182596
 20
-55.4537181439
 40
0.15
100
AcDbArc
 50
123.0324544325
 51
159.8205333841
  0
ARC
  5
4B2
100
AcDbEntity
  8
0
100
AcDbCircle
 62
7
  6
CONTINUOUS
 10
-1.1795850036
 20
-52.923430233
 40
0.15
100
AcDbArc
 50
244.5901659822
 51
250.2038832287
  0
ARC
  5
4B3
100
AcDbEntity
  8
0
100
AcDbCircle
 62
7
  6
CONTINUOUS
 10
-2.0646046203
 20
-53.290271559
 40
0.15
100
AcDbArc
 50
281.4749413699
 51
300.0178935284
  0
ARC
  5
4B4
100
AcDbEntity
  8
0
100
AcDbCircle
 62
7
  6
CONTINUOUS
 10
-0.0786735636
 20
52.4214770279
 40
0.15
100
AcDbArc
 50
127.4707309722
 51
159.575409763
  0
ARC
  5
4B5
100
AcDbEntity
  8
0
100
AcDbCircle
 62
7
  6
CONTINUOUS
 10
0.1372182596
 20
52.7285935312
 40
0.15
100
AcDbArc
 50
123.0324544325
 51
159.8205333841
  0
ARC
  5
4B6
100
AcDbEntity
  8
0
100
AcDbCircle
 62
7
  6
CONTINUOUS
 10
-1.1795850036
 20
55.2588814421
 40
0.15
100
AcDbArc
 50
244.5901659822
 51
250.2038832287
  0
ARC
  5
4B7
100
AcDbEntity
  8
0
100
AcDbCircle
 62
7
  6
CONTINUOUS
 10
-2.0646046203
 20
54.892040116
 40
0.15
100
AcDbArc
 50
281.4749413699
 51
300.0178935284
  0
ENDSEC
  0
SECTION
  2
OBJECTS
  0
DICTIONARY
  5
C
100
AcDbDictionary
280
0
281
1
  3
ACAD_GROUP
350
D
  3
ACAD_MLINESTYLE
350
17
  3
ACAD_LAYOUT
350
1A
  3
ACAD_PLOTSETTINGS
350
19
  3
ACAD_PLOTSTYLENAME
350
E
  0
DICTIONARY
  5
D
102
{ACAD_REACTORS
330
C
102
}
100
AcDbDictionary
280
0
281
1
  0
ACDBDICTIONARYWDFLT
  5
E
102
{ACAD_REACTORS
330
C
102
}
100
AcDbDictionary
281
1
  3
Normal
350
F
100
AcDbDictionaryWithDefault
340
F
  0
DICTIONARY
  5
17
102
{ACAD_REACTORS
330
C
102
}
100
AcDbDictionary
280
0
281
1
  3
Standard
350
18
  0
DICTIONARY
  5
19
102
{ACAD_REACTORS
330
C
102
}
100
AcDbDictionary
281
1
  0
DICTIONARY
  5
1A
102
{ACAD_REACTORS
330
C
102
}
100
AcDbDictionary
281
1
  3
Model
350
4B8
  3
Layout1
350
4B9
  0
ACDBPLACEHOLDER
  5
F
102
{ACAD_REACTORS
330
E
102
}
  0
MLINESTYLE
  5
18
102
{ACAD_REACTORS
330
17
102
}
100
AcDbMlineStyle
  2
STANDARD
 70
0
  3

 62
256
 51
90.0
 52
90.0
 71
2
 49
0.5
 62
256
  6
BYLAYER
 49
-0.5
 62
256
  6
BYLAYER
  0
LAYOUT
  5
4B8
102
{ACAD_REACTORS
330
1A
102
}
100
AcDbPlotSettings
  1

  2
none_device
  4

  6

 40
0.0
 41
0.0
 42
0.0
 43
0.0
 44
210.0
 45
297.0
 46
0.0
 47
0.0
 48
0.0
 49
0.0
140
0.0
141
0.0
142
1.0
143
1.0
 70
1024
 72
1
 73
0
 74
0
  7

 75
0
147
1.0
148
0.0
149
0.0
100
AcDbLayout
  1
Model
 70
0
 71
0
 10
0.0
 20
0.0
 11
210.0
 21
297.0
 12
0.0
 22
0.0
 32
0.0
 14
0.0
 24
0.0
 34
0.0
 15
0.0
 25
0.0
 35
0.0
146
0.0
 13
0.0
 23
0.0
 33
0.0
 16
1.0
 26
0.0
 36
0.0
 17
0.0
 27
1.0
 37
0.0
 76
0
330
212
345
0
346
0
  0
LAYOUT
  5
4B9
102
{ACAD_REACTORS
330
1A
102
}
100
AcDbPlotSettings
  1

  2
none_device
  4

  6

 40
0.0
 41
0.0
 42
0.0
 43
0.0
 44
210.0
 45
297.0
 46
0.0
 47
0.0
 48
0.0
 49
0.0
140
0.0
141
0.0
142
1.0
143
1.0
 70
0
 72
1
 73
0
 74
0
  7

 75
0
147
1.0
148
0.0
149
0.0
100
AcDbLayout
  1
Layout1
 70
0
 71
1
 10
0.0
 20
0.0
 11
210.0
 21
297.0
 12
0.0
 22
0.0
 32
0.0
 14
0.0
 24
0.0
 34
0.0
 15
0.0
 25
0.0
 35
0.0
146
0.0
 13
0.0
 23
0.0
 33
0.0
 16
1.0
 26
0.0
 36
0.0
 17
0.0
 27
1.0
 37
0.0
 76
0
330
213
345
0
346
0
  0
ENDSEC
  0
EOF
