  0
SECTION
  2
HEADER
  9
$ACADVER
  1
AC1024
  9
$DWGCODEPAGE
  3
ANSI_1252
  9
$EXTMAX
 10
210.0
 20
297.0
 30
0.0
  9
$EXTMIN
 10
0.0
 20
0.0
 30
0.0
  9
$LIMMIN
 10
0.0
 20
0.0
  9
$LIMMAX
 10
210.0
 20
297.0
  9
$VIEWCTR
 10
105.0
 20
148.5
  9
$VIEWSIZE
 40
297.0
  9
$CLAYER
  8
0
  9
$LTSCALE
 40
19.36
  9
$CELTYPE
  6
BYLAYER
  9
$DIMSCALE
 40
1.0
  9
$DIMASZ
 40
3.0
  9
$DIMEXO
 40
0.5
  9
$DIMDLI
 40
13.376
  9
$DIMEXE
 40
1.5
  9
$DIMCEN
 40
3.168
  9
$DIMLFAC
 40
1.0
  9
$DIMBLK
  1
_FILLED
  9
$DIMALT
 70
0
  9
$DIMALTF
 40
0.0393700787
  9
$DIMTXT
 40
3.0
  9
$DIMTOL
 70
1
  9
$DIMLIM
 70
0
  9
$DIMTFAC
 40
1.0
  9
$DIMTP
 40
0.01
  9
$DIMTM
 40
0.01
  9
$DIMGAP
 40
0.625
  9
$DIMDSEP
 70
44
  9
$AUNITS
 70
0
  9
$PDMODE
 70
3
  9
$PDSIZE
 40
3.0
  9
$HANDSEED
  5
4E7
  9
$TILEMODE
 70
1
  9
$MEASUREMENT
 70
1
  9
$INSUNITS
 70
4
  0
ENDSEC
  0
SECTION
  2
CLASSES
  0
CLASS
  1
ACDBDICTIONARYWDFLT
  2
AcDbDictionaryWithDefault
  3
AutoCAD 2000
 90
0
 91
1
280
0
281
0
  0
CLASS
  1
ACDBPLACEHOLDER
  2
AcDbPlaceHolder
  3
AutoCAD 2000
 90
0
 91
1
280
0
281
0
  0
CLASS
  1
LAYOUT
  2
AcDbLayout
  3
AutoCAD 2000
 90
0
 91
0
280
0
281
0
  0
ENDSEC
  0
SECTION
  2
TABLES
  0
TABLE
  2
VPORT
  5
8
100
AcDbSymbolTable
 70
2
  0
VPORT
  5
1F4
100
AcDbSymbolTableRecord
100
AcDbViewportTableRecord
  2
*ACTIVE
 70
0
 10
0.0
 20
0.0
 11
1.0
 21
1.0
 12
105.0
 22
148.5
 13
0.0
 23
0.0
 14
1.0
 24
1.0
 15
0.0
 25
0.0
 16
0.0
 26
0.0
 36
1.0
 17
0.0
 27
0.0
 37
0.0
 40
297.0
 41
0.7070707071
 42
50.0
 43
0.0
 44
0.0
 50
0.0
 51
0.0
 71
0
 72
100
 73
1
 74
1
 75
0
 76
0
 77
0
 78
0
  0
ENDTAB
  0
TABLE
  2
LTYPE
  5
5
100
AcDbSymbolTable
 70
6
  0
LTYPE
  5
14
100
AcDbSymbolTableRecord
100
AcDbLinetypeTableRecord
  2
BYBLOCK
 70
0
  3

 72
65
 73
0
 40
0.0
  0
LTYPE
  5
15
100
AcDbSymbolTableRecord
100
AcDbLinetypeTableRecord
  2
BYLAYER
 70
0
  3

 72
65
 73
0
 40
0.0
  0
LTYPE
  5
16
100
AcDbSymbolTableRecord
100
AcDbLinetypeTableRecord
  2
CONTINUOUS
 70
64
  3
Solid line
 72
65
 73
0
 40
0.0
  0
LTYPE
  5
1F5
100
AcDbSymbolTableRecord
100
AcDbLinetypeTableRecord
  2
CENTER
 70
64
  3
____ _ ____ _ ____ _ ____ _ ____ _ ____ _ ____
 72
65
 73
4
 40
0.6
 49
0.375
 74
0
 49
-0.075
 74
0
 49
0.075
 74
0
 49
-0.075
 74
0
  0
LTYPE
  5
1F6
100
AcDbSymbolTableRecord
100
AcDbLinetypeTableRecord
  2
HIDDEN
 70
64
  3
- - - - - - - - - - - - - - - - - - - -
 72
65
 73
2
 40
0.2
 49
0.1
 74
0
 49
-0.1
 74
0
  0
LTYPE
  5
1F7
100
AcDbSymbolTableRecord
100
AcDbLinetypeTableRecord
  2
PHANTOM
 70
64
  3
_____ _ _ _____ _ _ _____ _ _ _____
 72
65
 73
6
 40
0.8
 49
0.45
 74
0
 49
-0.05
 74
0
 49
0.1
 74
0
 49
-0.05
 74
0
 49
0.1
 74
0
 49
-0.05
 74
0
  0
LTYPE
  5
1F8
100
AcDbSymbolTableRecord
100
AcDbLinetypeTableRecord
  2
DOT
 70
64
  3
. . . . . . . . . . . . . . . . . . . .
 72
65
 73
2
 40
0.2
 49
0.1
 74
0
 49
-0.1
 74
0
  0
LTYPE
  5
1F9
100
AcDbSymbolTableRecord
100
AcDbLinetypeTableRecord
  2
DASHED
 70
64
  3
- - - - - - - - - - - - - - - - - - - -
 72
65
 73
2
 40
0.2
 49
0.1
 74
0
 49
-0.1
 74
0
  0
ENDTAB
  0
TABLE
  2
LAYER
  5
2
100
AcDbSymbolTable
 70
36
  0
LAYER
  5
10
100
AcDbSymbolTableRecord
100
AcDbLayerTableRecord
  2
0
 70
0
 62
7
  6
CONTINUOUS
370
-3
390
F
  0
LAYER
  5
1FA
100
AcDbSymbolTableRecord
100
AcDbLayerTableRecord
  2
DEFAULT_1
 70
0
 62
7
  6
CENTER
370
-3
390
F
  0
LAYER
  5
1FB
100
AcDbSymbolTableRecord
100
AcDbLayerTableRecord
  2
DEFAULT_2
 70
0
 62
7
  6
HIDDEN
370
-3
390
F
  0
LAYER
  5
1FC
100
AcDbSymbolTableRecord
100
AcDbLayerTableRecord
  2
DEFAULT_3
 70
0
 62
7
  6
PHANTOM
370
-3
390
F
  0
LAYER
  5
1FD
100
AcDbSymbolTableRecord
100
AcDbLayerTableRecord
  2
ASSI
 70
0
 62
7
  6
CONTINUOUS
370
-3
390
F
  0
LAYER
  5
1FE
100
AcDbSymbolTableRecord
100
AcDbLayerTableRecord
  2
COORDINATE
 70
0
 62
7
  6
CONTINUOUS
370
-3
390
F
  0
LAYER
  5
1FF
100
AcDbSymbolTableRecord
100
AcDbLayerTableRecord
  2
COPY_PUBLISH
 70
0
 62
7
  6
CONTINUOUS
370
-3
390
F
  0
LAYER
  5
200
100
AcDbSymbolTableRecord
100
AcDbLayerTableRecord
  2
COSMETICI
 70
0
 62
7
  6
CONTINUOUS
370
-3
390
F
  0
LAYER
  5
201
100
AcDbSymbolTableRecord
100
AcDbLayerTableRecord
  2
CURVE
 70
0
 62
7
  6
CONTINUOUS
370
-3
390
F
  0
LAYER
  5
202
100
AcDbSymbolTableRecord
100
AcDbLayerTableRecord
  2
DRAFT
 70
0
 62
7
  6
CONTINUOUS
370
-3
390
F
  0
LAYER
  5
203
100
AcDbSymbolTableRecord
100
AcDbLayerTableRecord
  2
IMPORT_IGES
 70
0
 62
7
  6
CONTINUOUS
370
-3
390
F
  0
LAYER
  5
204
100
AcDbSymbolTableRecord
100
AcDbLayerTableRecord
  2
NOTE
 70
0
 62
7
  6
CONTINUOUS
370
-3
390
F
  0
LAYER
  5
205
100
AcDbSymbolTableRecord
100
AcDbLayerTableRecord
  2
PIANI
 70
0
 62
7
  6
CONTINUOUS
370
-3
390
F
  0
LAYER
  5
206
100
AcDbSymbolTableRecord
100
AcDbLayerTableRecord
  2
PUNTI
 70
0
 62
7
  6
CONTINUOUS
370
-3
390
F
  0
LAYER
  5
207
100
AcDbSymbolTableRecord
100
AcDbLayerTableRecord
  2
RACCORDO
 70
0
 62
7
  6
CONTINUOUS
370
-3
390
F
  0
LAYER
  5
208
100
AcDbSymbolTableRecord
100
AcDbLayerTableRecord
  2
SIMBOLI
 70
0
 62
7
  6
CONTINUOUS
370
-3
390
F
  0
LAYER
  5
209
100
AcDbSymbolTableRecord
100
AcDbLayerTableRecord
  2
SMUSSO
 70
0
 62
7
  6
CONTINUOUS
370
-3
390
F
  0
LAYER
  5
20A
100
AcDbSymbolTableRecord
100
AcDbLayerTableRecord
  2
SNAPLINE
 70
0
 62
7
  6
CONTINUOUS
370
-3
390
F
  0
LAYER
  5
20B
100
AcDbSymbolTableRecord
100
AcDbLayerTableRecord
  2
SUPERFICI
 70
0
 62
7
  6
CONTINUOUS
370
-3
390
F
  0
LAYER
  5
20C
100
AcDbSymbolTableRecord
100
AcDbLayerTableRecord
  2
TRASH
 70
0
 62
7
  6
CONTINUOUS
370
-3
390
F
  0
ENDTAB
  0
TABLE
  2
STYLE
  5
3
100
AcDbSymbolTable
 70
1
  0
STYLE
  5
11
100
AcDbSymbolTableRecord
100
AcDbTextStyleTableRecord
  2
STANDARD
 70
0
 40
0.0
 41
0.8
 50
0.0
 71
0
 42
0.2
  3
txt
  4

  0
STYLE
  5
20D
100
AcDbSymbolTableRecord
100
AcDbTextStyleTableRecord
  2
TEXTSTYLE_1
 70
0
 40
0.0
 41
0.8
 50
0.0
 71
0
 42
0.2
  3
gdt
  4

  0
ENDTAB
  0
TABLE
  2
VIEW
  5
6
100
AcDbSymbolTable
 70
0
  0
ENDTAB
  0
TABLE
  2
UCS
  5
7
100
AcDbSymbolTable
 70
0
  0
ENDTAB
  0
TABLE
  2
APPID
  5
9
100
AcDbSymbolTable
 70
1
  0
APPID
  5
20E
100
AcDbSymbolTableRecord
100
AcDbRegAppTableRecord
  2
ACAD
 70
0
  0
ENDTAB
  0
TABLE
  2
BLOCK_RECORD
  5
1
100
AcDbSymbolTable
 70
0
  0
BLOCK_RECORD
  5
20F
100
AcDbSymbolTableRecord
100
AcDbBlockTableRecord
  2
*Model_Space
  0
BLOCK_RECORD
  5
210
100
AcDbSymbolTableRecord
100
AcDbBlockTableRecord
  2
*Paper_Space
  0
BLOCK_RECORD
  5
211
100
AcDbSymbolTableRecord
100
AcDbBlockTableRecord
  2
_FILLED
  0
ENDTAB
  0
TABLE
  2
DIMSTYLE
  5
A
100
AcDbSymbolTable
 70
1
100
AcDbDimStyleTable
 71
0
  0
DIMSTYLE
105
212
100
AcDbSymbolTableRecord
100
AcDbDimStyleTableRecord
  2
STANDARD
 70
0
  3

  4

 40
1.0
 41
3.0
 42
0.5
 43
0.38
 44
1.5
 45
0.0
 46
0.0
 47
0.01
 48
0.01
140
3.0
141
0.09
142
0.0
143
25.4
144
1.0
145
0.0
146
1.0
147
0.625
 71
1.0
 72
0.0
 73
0
 74
0
 75
0
 76
0
 77
1
 78
8
 79
2
170
0
171
1
172
0
173
0
174
0
175
0
176
0
177
0
178
0
270
2
179
2
271
2
272
2
273
2
274
2
275
0
280
0
281
0
282
0
283
1
284
8
285
0
286
0
287
3
288
0
340
11
278
44
341
211
342
211
343
211
344
211
  0
ENDTAB
  0
ENDSEC
  0
SECTION
  2
BLOCKS
  0
BLOCK
  5
20
100
AcDbEntity
  8
0
100
AcDbBlockBegin
  2
*Model_Space
 70
0
 10
0.0
 20
0.0
 30
0.0
  3
*Model_Space
  1

  0
ENDBLK
  5
21
100
AcDbEntity
  8
0
100
AcDbBlockEnd
  0
BLOCK
  5
1C
100
AcDbEntity
  8
0
100
AcDbBlockBegin
  2
*Paper_Space
 70
0
 10
0.0
 20
0.0
 30
0.0
  3
*Paper_Space
  1

  0
ENDBLK
  5
1D
100
AcDbEntity
  8
0
100
AcDbBlockEnd
  0
BLOCK
  5
213
100
AcDbEntity
  8
0
100
AcDbBlockBegin
  2
_FILLED
 70
64
 10
0.0
 20
0.0
  3
_FILLED
  1

  0
SOLID
  5
214
100
AcDbEntity
  8
0
  6
BYBLOCK
 62
0
100
AcDbTrace
 10
0.0
 20
0.0
 11
-1.0
 21
0.3166666667
 12
-1.0
 22
-0.3166666667
 13
-1.0
 23
-0.3166666667
  0
ENDBLK
  5
215
100
AcDbEntity
  8
0
  6
BYBLOCK
 62
0
100
AcDbBlockEnd
  0
ENDSEC
  0
SECTION
  2
ENTITIES
  0
LWPOLYLINE
  5
216
100
AcDbEntity
  8
RACCORDO
100
AcDbPolyline
 62
7
  6
CONTINUOUS
 90
13
 70
0
 10
-43.5097941258
 20
91.8434866229
 10
-43.5413426979
 20
91.8227776462
 10
-43.5707804613
 20
91.7983568465
 10
-43.5977077669
 20
91.7705496682
 10
-43.6220924562
 20
91.7393127323
 10
-43.6439666878
 20
91.7046894177
 10
-43.6630514481
 20
91.6671213568
 10
-43.6793110046
 20
91.626570828
 10
-43.6927810899
 20
91.583075553
 10
-43.7032898883
 20
91.5371903291
 10
-43.710780128
 20
91.4891000889
 10
-43.7153090809
 20
91.4386198997
 10
-43.7168767469
 20
91.3857497618
  0
LINE
  5
217
100
AcDbEntity
  8
RACCORDO
100
AcDbLine
 62
7
  6
CONTINUOUS
 10
-43.5097941258
 20
91.8434866229
 11
-41.7420271728
 21
92.8641731062
  0
LINE
  5
218
100
AcDbEntity
  8
RACCORDO
100
AcDbLine
 62
250
  6
CONTINUOUS
 10
-43.0097699657
 20
91.7939454452
 11
-41.2420030127
 21
92.8146319285
  0
LWPOLYLINE
  5
219
100
AcDbEntity
  8
RACCORDO
100
AcDbPolyline
 62
7
  6
CONTINUOUS
 90
13
 70
0
 10
-41.7420271728
 20
92.8641731062
 10
-41.7082679631
 20
92.8811647362
 10
-41.6723979446
 20
92.8944445432
 10
-41.6348504919
 20
92.9038570872
 10
-41.5956041173
 20
92.9093528292
 10
-41.5546803084
 20
92.9109813081
 10
-41.5126010628
 20
92.9087217521
 10
-41.4693515794
 20
92.9025243562
 10
-41.4249466591
 20
92.8924389255
 10
-41.3799527023
 20
92.878594103
 10
-41.334558509
 20
92.8610327699
 10
-41.2885752792
 20
92.8397120451
 10
-41.2420030127
 20
92.8146319285
  0
LINE
  5
21A
100
AcDbEntity
  8
0
100
AcDbLine
 62
250
  6
CONTINUOUS
 10
-30.5293352777
 20
87.7725669567
 11
-31.5193941051
 21
87.2009193982
  0
LWPOLYLINE
  5
21B
100
AcDbEntity
  8
RACCORDO
100
AcDbPolyline
 62
7
  6
CONTINUOUS
 90
13
 70
0
 10
40.2874088581
 20
-92.8146319285
 10
40.3339811246
 20
-92.8397120451
 10
40.3799643544
 20
-92.8610327699
 10
40.4253585477
 20
-92.878594103
 10
40.4703525045
 20
-92.8924389255
 10
40.5147574248
 20
-92.9025243562
 10
40.5580069082
 20
-92.9087217521
 10
40.6000861538
 20
-92.9109813081
 10
40.6410099627
 20
-92.9093528292
 10
40.6802563373
 20
-92.9038570872
 10
40.71780379
 20
-92.8944445432
 10
40.7536738085
 20
-92.8811647362
 10
40.7874330182
 20
-92.8641731062
  0
LWPOLYLINE
  5
21C
100
AcDbEntity
  8
RACCORDO
100
AcDbPolyline
 62
250
  6
CONTINUOUS
 90
3
 70
0
 10
-2.9257576039
 20
57.2618663886
 10
-3.0769911612
 20
57.202659927
 10
-3.184500499
 20
57.1469270621
  0
LWPOLYLINE
  5
21D
100
AcDbEntity
  8
RACCORDO
100
AcDbPolyline
 62
250
  6
CONTINUOUS
 90
16
 70
0
 10
-1.2480101218
 20
-56.2945459355
 10
-1.2376754354
 20
-56.2929633142
 10
-1.2270857963
 20
-56.2908751502
 10
-1.2162461038
 20
-56.2882784458
 10
-1.2051720382
 20
-56.2851936929
 10
-1.1938577648
 20
-56.2815945462
 10
-1.1822766182
 20
-56.2774075712
 10
-1.1704272363
 20
-56.2726312426
 10
-1.1583226277
 20
-56.2672608401
 10
-1.1459587315
 20
-56.261218268
 10
-1.1333337311
 20
-56.2544998132
 10
-1.1204620838
 20
-56.2471038697
 10
-1.1073644206
 20
-56.2389567667
 10
-1.0940405423
 20
-56.2300551519
 10
-1.0805030554
 20
-56.2203993221
 10
-1.066791061
 20
-56.2099234051
  0
LWPOLYLINE
  5
21E
100
AcDbEntity
  8
RACCORDO
100
AcDbPolyline
 62
250
  6
CONTINUOUS
 90
10
 70
0
 10
-0.2200482827
 20
-55.7163507168
 10
-0.2319685759
 20
-55.7169600416
 10
-0.2439059968
 20
-55.7188479877
 10
-0.2556517924
 20
-55.7219089594
 10
-0.2669848705
 20
-55.7258974014
 10
-0.2777479967
 20
-55.7307402464
 10
-0.2878248182
 20
-55.7365810686
 10
-0.2970586984
 20
-55.7433470031
 10
-0.3052836762
 20
-55.7507167348
 10
-0.3123819644
 20
-55.7584586166
  0
LINE
  5
21F
100
AcDbEntity
  8
RACCORDO
100
AcDbLine
 62
250
  6
CONTINUOUS
 10
-2.1996290883
 20
-54.9491799199
 11
-2.1509720744
 21
-54.9468059374
  0
LINE
  5
220
100
AcDbEntity
  8
RACCORDO
100
AcDbLine
 62
250
  6
CONTINUOUS
 10
-2.1509720744
 20
-54.9468059374
 11
-1.8985045816
 21
-54.9366523139
  0
LWPOLYLINE
  5
221
100
AcDbEntity
  8
RACCORDO
100
AcDbPolyline
 62
250
  6
CONTINUOUS
 90
10
 70
0
 10
-0.1697456702
 20
-56.020609553
 10
-0.1826462231
 20
-56.021077493
 10
-0.1954851628
 20
-56.0228066898
 10
-0.2080470155
 20
-56.0257681214
 10
-0.220120959
 20
-56.0299120855
 10
-0.2315043581
 20
-56.0351690334
 10
-0.2420061664
 20
-56.0414507361
 10
-0.2514501352
 20
-56.0486517672
 10
-0.2596777711
 20
-56.0566512722
 10
-0.2665509938
 20
-56.0653149962
  0
LINE
  5
222
100
AcDbEntity
  8
RACCORDO
100
AcDbLine
 62
250
  6
CONTINUOUS
 10
-1.8985045816
 20
-54.9366523139
 11
-1.7442937182
 21
-54.9316907161
  0
LINE
  5
223
100
AcDbEntity
  8
RACCORDO
100
AcDbLine
 62
250
  6
CONTINUOUS
 10
-2.1964343689
 20
-54.8504248176
 11
-2.097706895
 21
-54.8474495609
  0
LINE
  5
224
100
AcDbEntity
  8
RACCORDO
100
AcDbLine
 62
250
  6
CONTINUOUS
 10
-2.097706895
 20
-54.8474495609
 11
-1.9962539637
 21
-54.844867982
  0
LINE
  5
225
100
AcDbEntity
  8
RACCORDO
100
AcDbLine
 62
250
  6
CONTINUOUS
 10
-1.9962539637
 20
-54.844867982
 11
-1.8925856515
 21
-54.8427283016
  0
LWPOLYLINE
  5
226
100
AcDbEntity
  8
RACCORDO
100
AcDbPolyline
 62
250
  6
CONTINUOUS
 90
10
 70
0
 10
-2.3924188441
 20
-54.3453095486
 10
-2.3963624105
 20
-54.3453807582
 10
-2.4011812923
 20
-54.3440729703
 10
-2.4067946063
 20
-54.3414081451
 10
-2.413108141
 20
-54.3374310156
 10
-2.4200159282
 20
-54.3322083419
 10
-2.4274020192
 20
-54.3258277963
 10
-2.4351424456
 20
-54.3183964804
 10
-2.4431073027
 20
-54.3100391208
 10
-2.4511629188
 20
-54.3008959854
  0
LWPOLYLINE
  5
227
100
AcDbEntity
  8
RACCORDO
100
AcDbPolyline
 62
250
  6
CONTINUOUS
 90
3
 70
0
 10
-1.8925856515
 20
-54.8427283016
 10
-1.7887422651
 20
-54.841223403
 10
-1.7366274
 20
-54.8406969416
  0
LWPOLYLINE
  5
228
100
AcDbEntity
  8
RACCORDO
100
AcDbPolyline
 62
250
  6
CONTINUOUS
 90
9
 70
0
 10
-0.6392659823
 20
-55.7989660359
 10
-0.5948234669
 20
-55.8035166369
 10
-0.5512372844
 20
-55.8053138294
 10
-0.5085935591
 20
-55.8043541022
 10
-0.4669764336
 20
-55.8006393903
 10
-0.4264679174
 20
-55.7941770322
 10
-0.3871479552
 20
-55.7849797767
 10
-0.3490942543
 20
-55.773065795
 10
-0.3123819644
 20
-55.7584586166
  0
LWPOLYLINE
  5
229
100
AcDbEntity
  8
RACCORDO
100
AcDbPolyline
 62
250
  6
CONTINUOUS
 90
9
 70
0
 10
-0.5967181502
 20
-55.7434817452
 10
-0.5531271729
 20
-55.7479451999
 10
-0.5103759309
 20
-55.7497080287
 10
-0.4685488525
 20
-55.74876675
 10
-0.4277285408
 20
-55.7451232225
 10
-0.3879956111
 20
-55.7387846416
 10
-0.3494285308
 20
-55.7297635251
 10
-0.312103465
 20
-55.7180776883
 10
-0.2760941259
 20
-55.7037502091
  0
LINE
  5
22A
100
AcDbEntity
  8
RACCORDO
100
AcDbLine
 62
250
  6
CONTINUOUS
 10
-0.647311249
 20
-55.7355256431
 11
-0.6410627763
 21
-55.7363264795
  0
LINE
  5
22B
100
AcDbEntity
  8
RACCORDO
100
AcDbLine
 62
250
  6
CONTINUOUS
 10
-0.684477071
 20
-55.7916709783
 11
-0.6392659823
 21
-55.7989660359
  0
LINE
  5
22C
100
AcDbEntity
  8
RACCORDO
100
AcDbLine
 62
250
  6
CONTINUOUS
 10
-0.6410627763
 20
-55.7363264795
 11
-0.5967181502
 21
-55.7434817452
  0
LINE
  5
22D
100
AcDbEntity
  8
RACCORDO
100
AcDbLine
 62
250
  6
CONTINUOUS
 10
-1.3610167349
 20
-55.3968472337
 11
-1.3721986116
 21
-55.39458918
  0
LWPOLYLINE
  5
22E
100
AcDbEntity
  8
RACCORDO
100
AcDbPolyline
 62
250
  6
CONTINUOUS
 90
3
 70
0
 10
-1.3256626323
 20
-55.4039321045
 10
-1.3374716797
 20
-55.4013712956
 10
-1.3610167349
 20
-55.3968472337
  0
LINE
  5
22F
100
AcDbEntity
  8
RACCORDO
100
AcDbLine
 62
7
  6
CONTINUOUS
 10
-43.0097699657
 20
-44.7198848345
 11
40.2874088581
 21
-92.8146319285
  0
LWPOLYLINE
  5
230
100
AcDbEntity
  8
RACCORDO
100
AcDbPolyline
 62
7
  6
CONTINUOUS
 90
13
 70
0
 10
-3.184500499
 20
57.1469270621
 10
-3.3177060955
 20
57.0603124834
 10
-3.4427741413
 20
56.9587393497
 10
-3.5588421105
 20
56.8424118446
 10
-3.6651565479
 20
56.7115399096
 10
-3.7609108862
 20
56.5665305136
 10
-3.8453328101
 20
56.4079890951
 10
-3.9180024432
 20
56.2360188906
 10
-3.9782448129
 20
56.0513793195
 10
-4.0253179128
 20
55.8559388703
 10
-4.0589977331
 20
55.6509194719
 10
-4.079276598
 20
55.4366510445
 10
-4.0860542879
 20
55.2139109661
  0
LWPOLYLINE
  5
231
100
AcDbEntity
  8
ASSI
100
AcDbPolyline
 62
7
  6
CONTINUOUS
 90
19
 70
0
 10
-3.4862734659
 20
57.261344363
 10
-3.5101503358
 20
57.2472356622
 10
-3.6036632283
 20
57.1856148663
 10
-3.6923510879
 20
57.1166755773
 10
-3.7761839541
 20
57.0403723521
 10
-3.8551917874
 20
56.9567506338
 10
-3.9288850122
 20
56.8663285882
 10
-3.9972306283
 20
56.7690639894
 10
-4.060261636
 20
56.6649990632
 10
-4.1175874609
 20
56.5547786525
 10
-4.1691726773
 20
56.4383645357
 10
-4.2150527109
 20
56.3157949343
 10
-4.2549432641
 20
56.1878293562
 10
-4.2888071459
 20
56.054434296
 10
-4.3166815473
 20
55.9156432591
 10
-4.3383937433
 20
55.7723162704
 10
-4.3538861589
 20
55.6247400046
 10
-4.363216369
 20
55.472627787
 10
-4.3663843738
 20
55.3159796175
  0
LWPOLYLINE
  5
232
100
AcDbEntity
  8
RACCORDO
100
AcDbPolyline
 62
250
  6
CONTINUOUS
 90
8
 70
0
 10
-2.5150996577
 20
55.1571286203
 10
-2.5169780972
 20
55.1560300209
 10
-2.5287761225
 20
55.1483949128
 10
-2.538838717
 20
55.1405688215
 10
-2.5473347741
 20
55.1325824818
 10
-2.5543498498
 20
55.1245211177
 10
-2.5598743112
 20
55.1165073158
 10
-2.5639502681
 20
55.1086348769
  0
LINE
  5
233
100
AcDbEntity
  8
RACCORDO
100
AcDbLine
 62
250
  6
CONTINUOUS
 10
-1.2880102754
 20
55.1615771237
 11
-1.2880954946
 21
55.1615277511
  0
LINE
  5
234
100
AcDbEntity
  8
0
100
AcDbLine
 62
7
  6
CONTINUOUS
 10
-2.9748810913
 20
57.267958681
 11
-3.184500499
 21
57.1469270621
  0
LINE
  5
235
100
AcDbEntity
  8
0
100
AcDbLine
 62
7
  6
CONTINUOUS
 10
18.1448677803
 20
67.1527987113
 11
11.663858929
 21
63.4107454267
  0
LINE
  5
236
100
AcDbEntity
  8
RACCORDO
100
AcDbLine
 62
250
  6
CONTINUOUS
 10
-2.3924188137
 20
54.9267801845
 11
-1.9988222414
 21
55.1540379123
  0
LINE
  5
237
100
AcDbEntity
  8
0
100
AcDbLine
 62
7
  6
CONTINUOUS
 10
18.5673636098
 20
66.9925908099
 11
12.0138420177
 21
63.2086695776
  0
LINE
  5
238
100
AcDbEntity
  8
RACCORDO
100
AcDbLine
 62
7
  6
CONTINUOUS
 10
-1.2880954946
 20
55.1615277511
 11
-1.2801615613
 21
55.1661087048
  0
LINE
  5
239
100
AcDbEntity
  8
RACCORDO
100
AcDbLine
 62
250
  6
CONTINUOUS
 10
-2.031059321
 20
54.7189178313
 11
-1.2825311836
 21
55.1511085966
  0
LINE
  5
23A
100
AcDbEntity
  8
RACCORDO
100
AcDbLine
 62
250
  6
CONTINUOUS
 10
-2.0178566217
 20
54.6453708906
 11
-1.2693284843
 21
55.0775616558
  0
LINE
  5
23B
100
AcDbEntity
  8
RACCORDO
100
AcDbLine
 62
250
  6
CONTINUOUS
 10
-1.2693284843
 20
54.5909524656
 11
-2.0178566217
 21
54.1587617004
  0
LINE
  5
23C
100
AcDbEntity
  8
RACCORDO
100
AcDbLine
 62
250
  6
CONTINUOUS
 10
-1.2825311836
 20
54.5326516712
 11
-2.031059321
 21
54.1004609059
  0
LINE
  5
23D
100
AcDbEntity
  8
RACCORDO
100
AcDbLine
 62
250
  6
CONTINUOUS
 10
-2.3924188137
 20
53.8370020814
 11
-1.4391385026
 21
54.3874141856
  0
LINE
  5
23E
100
AcDbEntity
  8
0
100
AcDbLine
 62
7
  6
CONTINUOUS
 10
-0.7407706499
 20
54.6895969384
 11
-1.6154855798
 21
54.1845475006
  0
LINE
  5
23F
100
AcDbEntity
  8
RACCORDO
100
AcDbLine
 62
250
  6
CONTINUOUS
 10
-2.1964343689
 20
53.3318868574
 11
-1.7354711023
 21
53.5980412704
  0
LINE
  5
240
100
AcDbEntity
  8
RACCORDO
100
AcDbLine
 62
250
  6
CONTINUOUS
 10
-1.7366274
 20
53.3416147334
 11
-1.642075103
 21
53.3962080447
  0
LINE
  5
241
100
AcDbEntity
  8
RACCORDO
100
AcDbLine
 62
7
  6
CONTINUOUS
 10
-2.5149480046
 20
55.1572160971
 11
-2.5150996577
 21
55.1571286203
  0
LWPOLYLINE
  5
242
100
AcDbEntity
  8
RACCORDO
100
AcDbPolyline
 62
7
  6
CONTINUOUS
 90
13
 70
0
 10
-2.5149505158
 20
55.1572083339
 10
-2.5102924589
 20
55.1597660619
 10
-2.4932681221
 20
55.1674890042
 10
-2.4718213784
 20
55.1747611531
 10
-2.4467824958
 20
55.1809704051
 10
-2.4187857105
 20
55.1858215704
 10
-2.3881500047
 20
55.1892033489
 10
-2.3553207083
 20
55.1910469269
 10
-2.3209763291
 20
55.1913403984
 10
-2.2851527296
 20
55.1901254455
 10
-2.2471561852
 20
55.1873515958
 10
-2.206877843
 20
55.1829181029
 10
-2.2004332406
 20
55.1820757996
  0
LWPOLYLINE
  5
243
100
AcDbEntity
  8
RACCORDO
100
AcDbPolyline
 62
250
  6
CONTINUOUS
 90
10
 70
0
 10
-2.0178566223
 20
54.158761702
 10
-2.0243033282
 20
54.1552699102
 10
-2.0311981651
 20
54.1520181504
 10
-2.0385019498
 20
54.1490122022
 10
-2.0461921451
 20
54.1462409335
 10
-2.0542181227
 20
54.1437314174
 10
-2.0624870047
 20
54.1415380177
 10
-2.0709277605
 20
54.1396726364
 10
-2.0795026255
 20
54.138115346
 10
-2.0881544884
 20
54.1368612432
  0
LWPOLYLINE
  5
244
100
AcDbEntity
  8
0
100
AcDbPolyline
 62
7
  6
CONTINUOUS
 90
7
 70
0
 10
20.1361027364
 20
64.0962523617
 10
20.2594500041
 20
64.1616134454
 10
20.3641944989
 20
64.2570561619
 10
20.4480888926
 20
64.3805327557
 10
20.509333203
 20
64.5293939954
 10
20.5466134129
 20
64.7004460132
 10
20.559129663
 20
64.8900188319
  0
LWPOLYLINE
  5
245
100
AcDbEntity
  8
RACCORDO
100
AcDbPolyline
 62
250
  6
CONTINUOUS
 90
10
 70
0
 10
-2.0178566217
 20
54.6453708906
 10
-2.0242755495
 20
54.6420300975
 10
-2.0311746706
 20
54.6391406577
 10
-2.0385020743
 20
54.6367250573
 10
-2.0462034882
 20
54.6348020074
 10
-2.0542197709
 20
54.6333870559
 10
-2.0624869899
 20
54.6324918094
 10
-2.0709410825
 20
54.6321231018
 10
-2.0795186922
 20
54.6322835955
 10
-2.0881544885
 20
54.6329720688
  0
LWPOLYLINE
  5
246
100
AcDbEntity
  8
RACCORDO
100
AcDbPolyline
 62
250
  6
CONTINUOUS
 90
5
 70
0
 10
-1.2919961529
 20
55.1647305274
 10
-1.3028264953
 20
55.1593101133
 10
-1.314104956
 20
55.1551808843
 10
-1.3256626767
 20
55.1523859538
 10
-1.3374717234
 20
55.151009642
  0
LWPOLYLINE
  5
247
100
AcDbEntity
  8
RACCORDO
100
AcDbPolyline
 62
250
  6
CONTINUOUS
 90
5
 70
0
 10
-0.668580188
 20
52.4421946087
 10
-0.664304764
 20
52.4442730431
 10
-0.6589847602
 20
52.4459270199
 10
-0.6533033062
 20
52.4467668511
 10
-0.647311249
 20
52.446786032
  0
LWPOLYLINE
  5
248
100
AcDbEntity
  8
SMUSSO
100
AcDbPolyline
 62
7
  6
CONTINUOUS
 90
10
 70
0
 10
18.1448677803
 20
67.1527987113
 10
18.2358203003
 20
67.1965262821
 10
18.333700335
 20
67.2267427788
 10
18.4377559013
 20
67.2432136282
 10
18.5471951888
 20
67.2458130254
 10
18.6611853252
 20
67.2345207412
 10
18.778858129
 20
67.2094224642
 10
18.8993179318
 20
67.1707090308
 10
19.0216478464
 20
67.1186749154
 10
19.1447794269
 20
67.053795262
  0
LINE
  5
249
100
AcDbEntity
  8
RACCORDO
100
AcDbLine
 62
250
  6
CONTINUOUS
 10
-1.707581256
 20
55.1367377942
 11
-1.7442937182
 21
55.1221305546
  0
LINE
  5
24A
100
AcDbEntity
  8
RACCORDO
100
AcDbLine
 62
250
  6
CONTINUOUS
 10
-1.6869253185
 20
55.1219370245
 11
-1.6931577306
 21
55.1195690526
  0
LWPOLYLINE
  5
24B
100
AcDbEntity
  8
RACCORDO
100
AcDbPolyline
 62
250
  6
CONTINUOUS
 90
10
 70
0
 10
-0.2760941259
 20
52.478561466
 10
-0.2708591196
 20
52.4803882405
 10
-0.2652495463
 20
52.4814037996
 10
-0.2593159465
 20
52.481599007
 10
-0.2531116736
 20
52.4809720997
 10
-0.24669272
 20
52.4795287279
 10
-0.2401172444
 20
52.4772820382
 10
-0.2334446085
 20
52.4742524547
 10
-0.2267348126
 20
52.4704673588
 10
-0.2200482827
 20
52.4659609583
  0
LINE
  5
24C
100
AcDbEntity
  8
RACCORDO
100
AcDbLine
 62
250
  6
CONTINUOUS
 10
-1.6695273753
 20
55.1486518108
 11
-1.707581256
 21
55.1367377942
  0
LWPOLYLINE
  5
24D
100
AcDbEntity
  8
RACCORDO
100
AcDbPolyline
 62
250
  6
CONTINUOUS
 90
8
 70
0
 10
-1.6935887873
 20
-53.0629064002
 10
-1.7004618956
 20
-53.0647083446
 10
-1.7075644564
 20
-53.0657920647
 10
-1.7148446641
 20
-53.0661421349
 10
-1.7222006415
 20
-53.065746147
 10
-1.7295734688
 20
-53.0646125405
 10
-1.7369502764
 20
-53.0627535995
 10
-1.7442937182
 20
-53.0601811204
  0
LWPOLYLINE
  5
24E
100
AcDbEntity
  8
RACCORDO
100
AcDbPolyline
 62
250
  6
CONTINUOUS
 90
4
 70
0
 10
-1.4254128055
 20
-52.9296886473
 10
-1.4355987915
 20
-52.9318280233
 10
-1.4481581343
 20
-52.9328066781
 10
-1.4606544419
 20
-52.932140739
  0
LWPOLYLINE
  5
24F
100
AcDbEntity
  8
RACCORDO
100
AcDbPolyline
 62
250
  6
CONTINUOUS
 90
3
 70
0
 10
-1.5896984654
 20
-53.0180002496
 10
-1.6302072277
 20
-53.0244625994
 10
-1.6695273753
 20
-53.0336598642
  0
LWPOLYLINE
  5
250
100
AcDbEntity
  8
RACCORDO
100
AcDbPolyline
 62
250
  6
CONTINUOUS
 90
5
 70
0
 10
-2.4399806724
 20
-50.7408614523
 10
-2.5564252238
 20
-50.7576445313
 10
-2.7161419522
 20
-50.7994148872
 10
-2.8673749696
 20
-50.8586216159
 10
-2.9748810913
 20
-50.9143529941
  0
LWPOLYLINE
  5
251
100
AcDbEntity
  8
RACCORDO
100
AcDbPolyline
 62
7
  6
CONTINUOUS
 90
5
 70
0
 10
-2.483526735
 20
-50.7348956039
 10
-2.4946897587
 20
-50.7364451177
 10
-2.6638929748
 20
-50.7787838535
 10
-2.8242146301
 20
-50.8383057696
 10
-2.9748810913
 20
-50.9143529941
  0
LWPOLYLINE
  5
252
100
AcDbEntity
  8
RACCORDO
100
AcDbPolyline
 62
250
  6
CONTINUOUS
 90
5
 70
0
 10
-2.4253415914
 20
-52.9821131231
 10
-2.4527839434
 20
-52.9854797021
 10
-2.4784441375
 20
-52.9899592914
 10
-2.5026665013
 20
-52.9955562847
 10
-2.5254194671
 20
-53.0022756452
  0
LWPOLYLINE
  5
253
100
AcDbEntity
  8
RACCORDO
100
AcDbPolyline
 62
250
  6
CONTINUOUS
 90
10
 70
0
 10
-2.031059321
 20
-54.0818507691
 10
-2.0349435451
 20
-54.082153333
 10
-2.0398315941
 20
-54.0814130829
 10
-2.0455396614
 20
-54.0795468444
 10
-2.0517327737
 20
-54.0764419473
 10
-2.058310118
 20
-54.0721520705
 10
-2.0654340033
 20
-54.0668635161
 10
-2.0730080137
 20
-54.0606450287
 10
-2.0806625818
 20
-54.0534824664
 10
-2.0881544884
 20
-54.0454504319
  0
LWPOLYLINE
  5
254
100
AcDbEntity
  8
RACCORDO
100
AcDbPolyline
 62
250
  6
CONTINUOUS
 90
3
 70
0
 10
-1.3374717234
 20
-53.031302033
 10
-1.3493614719
 20
-53.0312229105
 10
-1.3610167546
 20
-53.029751599
  0
LWPOLYLINE
  5
255
100
AcDbEntity
  8
RACCORDO
100
AcDbPolyline
 62
250
  6
CONTINUOUS
 90
6
 70
0
 10
-2.2802643392
 20
-52.9811350626
 10
-2.3089106201
 20
-52.9794968028
 10
-2.3382868673
 20
-52.9785908736
 10
-2.3674733338
 20
-52.9786772623
 10
-2.3965216793
 20
-52.9798576307
 10
-2.4253415914
 20
-52.9821131231
  0
LWPOLYLINE
  5
256
100
AcDbEntity
  8
RACCORDO
100
AcDbPolyline
 62
250
  6
CONTINUOUS
 90
5
 70
0
 10
-1.4174091241
 20
-53.0196737772
 10
-1.4618512709
 20
-53.0151231682
 10
-1.5054372844
 20
-53.0133259184
 10
-1.5480810879
 20
-53.0142855773
 10
-1.5896984654
 20
-53.0180002496
  0
LWPOLYLINE
  5
257
100
AcDbEntity
  8
RACCORDO
100
AcDbPolyline
 62
250
  6
CONTINUOUS
 90
3
 70
0
 10
-2.2257748116
 20
-52.9862745259
 10
-2.2526528761
 20
-52.9833840878
 10
-2.2802643392
 20
-52.9811350626
  0
LINE
  5
258
100
AcDbEntity
  8
RACCORDO
100
AcDbLine
 62
250
  6
CONTINUOUS
 10
-2.1996290883
 20
-52.9897674002
 11
-2.2257748116
 21
-52.9862745259
  0
LWPOLYLINE
  5
259
100
AcDbEntity
  8
RACCORDO
100
AcDbPolyline
 62
7
  6
CONTINUOUS
 90
7
 70
0
 10
-2.2004329644
 20
-53.0002355801
 10
-2.0511610629
 20
-53.0207475217
 10
-1.9813032129
 20
-53.0307929717
 10
-1.9136115889
 20
-53.0408362536
 10
-1.8480863128
 20
-53.0508753178
 10
-1.784730671
 20
-53.0609075134
 10
-1.7436571374
 20
-53.0675986536
  0
LINE
  5
25A
100
AcDbEntity
  8
RACCORDO
100
AcDbLine
 62
250
  6
CONTINUOUS
 10
-2.0517820015
 20
-53.0110846372
 11
-2.1996290883
 21
-52.9897674002
  0
LINE
  5
25B
100
AcDbEntity
  8
RACCORDO
100
AcDbLine
 62
250
  6
CONTINUOUS
 10
-1.9498887366
 20
-53.0265707283
 11
-2.0517820015
 21
-53.0110846372
  0
LINE
  5
25C
100
AcDbEntity
  8
RACCORDO
100
AcDbLine
 62
250
  6
CONTINUOUS
 10
-1.3721986116
 20
-53.0269687587
 11
-1.4174091241
 21
-53.0196737772
  0
LWPOLYLINE
  5
25D
100
AcDbEntity
  8
RACCORDO
100
AcDbPolyline
 62
7
  6
CONTINUOUS
 90
10
 70
0
 10
-1.3567753287
 20
-53.0324230658
 10
-1.396359081
 20
-53.0259747243
 10
-1.4354041566
 20
-53.0218065099
 10
-1.4738080259
 20
-53.0199674812
 10
-1.5114157004
 20
-53.0204971097
 10
-1.5481916843
 20
-53.023426322
 10
-1.5842076707
 20
-53.0288146205
 10
-1.6194200499
 20
-53.0367342306
 10
-1.6536844382
 20
-53.0472348993
 10
-1.6869176442
 20
-53.0603712543
  0
LWPOLYLINE
  5
25E
100
AcDbEntity
  8
RACCORDO
100
AcDbPolyline
 62
250
  6
CONTINUOUS
 90
3
 70
0
 10
-1.7957794421
 20
-53.0513750388
 10
-1.8471976929
 20
-53.0428756839
 10
-1.9498887366
 20
-53.0265707283
  0
LINE
  5
25F
100
AcDbEntity
  8
RACCORDO
100
AcDbLine
 62
250
  6
CONTINUOUS
 10
-1.7442937182
 20
-53.0601811204
 11
-1.7957794421
 21
-53.0513750388
  0
LINE
  5
260
100
AcDbEntity
  8
RACCORDO
100
AcDbLine
 62
250
  6
CONTINUOUS
 10
-1.4606544419
 20
-52.932140739
 11
-1.4728779923
 21
-52.9298413822
  0
LINE
  5
261
100
AcDbEntity
  8
RACCORDO
100
AcDbLine
 62
250
  6
CONTINUOUS
 10
-1.3567753286
 20
-53.0324230658
 11
-1.3572968964
 21
-53.0323212154
  0
LWPOLYLINE
  5
262
100
AcDbEntity
  8
RACCORDO
100
AcDbPolyline
 62
250
  6
CONTINUOUS
 90
10
 70
0
 10
-2.5962270147
 20
-53.078153552
 10
-2.5928825715
 20
-53.0788207789
 10
-2.5892250149
 20
-53.0790000106
 10
-2.5852898492
 20
-53.0786763174
 10
-2.5808490431
 20
-53.077545973
 10
-2.57621114
 20
-53.0758836637
 10
-2.5721668271
 20
-53.0745612606
 10
-2.5689335199
 20
-53.0738871578
 10
-2.5662115597
 20
-53.0735859696
 10
-2.5639501574
 20
-53.0736769226
  0
LWPOLYLINE
  5
263
100
AcDbEntity
  8
RACCORDO
100
AcDbPolyline
 62
250
  6
CONTINUOUS
 90
4
 70
0
 10
-1.3572968964
 20
-53.0323212154
 10
-1.3602325481
 20
-53.0316462415
 10
-1.3663230673
 20
-53.0296711382
 10
-1.3721986117
 20
-53.0269687582
  0
LINE
  5
264
100
AcDbEntity
  8
RACCORDO
100
AcDbLine
 62
250
  6
CONTINUOUS
 10
-1.3610167546
 20
-53.029751599
 11
-1.3721986115
 21
-53.0269687587
  0
LWPOLYLINE
  5
265
100
AcDbEntity
  8
RACCORDO
100
AcDbPolyline
 62
250
  6
CONTINUOUS
 90
4
 70
0
 10
-1.2727697624
 20
-55.4177509908
 10
-1.2819087353
 20
-55.4148142727
 10
-1.2919961322
 20
-55.4120714811
 10
-1.3256626323
 20
-55.4039321045
  0
LWPOLYLINE
  5
266
100
AcDbEntity
  8
RACCORDO
100
AcDbPolyline
 62
250
  6
CONTINUOUS
 90
5
 70
0
 10
-1.7436302503
 20
-53.0676045431
 10
-1.7437495229
 20
-53.0675654684
 10
-1.7443518963
 20
-53.0664788634
 10
-1.7445753947
 20
-53.063987176
 10
-1.7442937182
 20
-53.0601811204
  0
LINE
  5
267
100
AcDbEntity
  8
RACCORDO
100
AcDbLine
 62
250
  6
CONTINUOUS
 10
-1.4728779923
 20
-52.9298413822
 11
-1.4846236409
 21
-52.9259471973
  0
LWPOLYLINE
  5
268
100
AcDbEntity
  8
RACCORDO
100
AcDbPolyline
 62
250
  6
CONTINUOUS
 90
10
 70
0
 10
-1.3790745724
 20
-55.8672472253
 10
-1.3888888722
 20
-55.8637273712
 10
-1.3996348412
 20
-55.8601579357
 10
-1.411132121
 20
-55.856598825
 10
-1.4231877529
 20
-55.8531097699
 10
-1.4355993982
 20
-55.8497493279
 10
-1.4481587321
 20
-55.8465739002
 10
-1.460654968
 20
-55.8436367776
 10
-1.4728783966
 20
-55.840987247
 10
-1.4846238848
 20
-55.8386697698
  0
LWPOLYLINE
  5
269
100
AcDbEntity
  8
RACCORDO
100
AcDbPolyline
 62
250
  6
CONTINUOUS
 90
22
 70
0
 10
-1.4743519696
 20
-52.9084517475
 10
-1.4787692572
 20
-52.9066193248
 10
-1.4829199667
 20
-52.9049898551
 10
-1.4867991317
 20
-52.9035664414
 10
-1.4904176102
 20
-52.9023432997
 10
-1.4937545372
 20
-52.9013323049
 10
-1.4967566969
 20
-52.9005631438
 10
-1.499423437
 20
-52.900036809
 10
-1.5017436929
 20
-52.8997585957
 10
-1.5036476927
 20
-52.8997643436
 10
-1.5051326578
 20
-52.9000555344
 10
-1.5061887923
 20
-52.9006358798
 10
-1.5067356354
 20
-52.9015431744
 10
-1.5067691474
 20
-52.9027783624
 10
-1.5062811601
 20
-52.9043433307
 10
-1.5051858248
 20
-52.9062749234
 10
-1.5034812608
 20
-52.9085714584
 10
-1.501158921
 20
-52.9112341893
 10
-1.4981245893
 20
-52.9143014264
 10
-1.4943447391
 20
-52.9177839644
 10
-1.4898456063
 20
-52.9216667341
 10
-1.4846238455
 20
-52.9259476607
  0
LINE
  5
26A
100
AcDbEntity
  8
RACCORDO
100
AcDbLine
 62
7
  6
CONTINUOUS
 10
-1.4632945424
 20
-52.9134820865
 11
-1.4743376703
 21
-52.9084586696
  0
LWPOLYLINE
  5
26B
100
AcDbEntity
  8
RACCORDO
100
AcDbPolyline
 62
250
  6
CONTINUOUS
 90
10
 70
0
 10
-1.7366274
 20
-54.8406969416
 10
-1.7299383904
 20
-54.843913307
 10
-1.7232262026
 20
-54.8478783315
 10
-1.7165513269
 20
-54.8525563759
 10
-1.7099731277
 20
-54.8579060655
 10
-1.7035517548
 20
-54.8638787179
 10
-1.6973473785
 20
-54.8704180393
 10
-1.6914163783
 20
-54.8774636796
 10
-1.6858110758
 20
-54.8849525154
 10
-1.6805815567
 20
-54.8928167689
  0
LWPOLYLINE
  5
26C
100
AcDbEntity
  8
RACCORDO
100
AcDbPolyline
 62
250
  6
CONTINUOUS
 90
3
 70
0
 10
-2.4511629188
 20
-53.3475863732
 10
-2.4123727894
 20
-53.3681617259
 10
-2.3732136181
 20
-53.3892514718
  0
LWPOLYLINE
  5
26D
100
AcDbEntity
  8
RACCORDO
100
AcDbPolyline
 62
250
  6
CONTINUOUS
 90
25
 70
0
 10
-1.3318908275
 20
-56.2175293343
 10
-1.3254407957
 20
-56.2210276904
 10
-1.3187692455
 20
-56.2241916621
 10
-1.3118819831
 20
-56.2270163268
 10
-1.3047948206
 20
-56.2294958918
 10
-1.2975037604
 20
-56.2316272601
 10
-1.2899852636
 20
-56.2334075623
 10
-1.2822450411
 20
-56.2348317693
 10
-1.2742905211
 20
-56.2358917642
 10
-1.2661015353
 20
-56.2365764477
 10
-1.2576886262
 20
-56.2368789873
 10
-1.2490561814
 20
-56.2367909782
 10
-1.24017596
 20
-56.2362955245
 10
-1.2310668858
 20
-56.2353857212
 10
-1.2217276073
 20
-56.2340502799
 10
-1.2121018232
 20
-56.2322596216
 10
-1.2022065194
 20
-56.2300033206
 10
-1.1920476973
 20
-56.2272655923
 10
-1.1815566182
 20
-56.2239998953
 10
-1.1707444099
 20
-56.2201877953
 10
-1.159631092
 20
-56.2158121246
 10
-1.1481657813
 20
-56.2108205992
 10
-1.1363617747
 20
-56.205190398
 10
-1.1242453598
 20
-56.1989043668
 10
-1.1132260746
 20
-56.1927484824
  0
LWPOLYLINE
  5
26E
100
AcDbEntity
  8
RACCORDO
100
AcDbPolyline
 62
250
  6
CONTINUOUS
 90
3
 70
0
 10
-2.3924188137
 20
-53.2555314906
 10
-2.353884715
 20
-53.2766641081
 10
-2.3149029477
 20
-53.2982914893
  0
LWPOLYLINE
  5
26F
100
AcDbEntity
  8
RACCORDO
100
AcDbPolyline
 62
250
  6
CONTINUOUS
 90
4
 70
0
 10
-2.3732136181
 20
-53.3892514718
 10
-2.2935547239
 20
-53.4328197717
 10
-2.2529856663
 20
-53.4552312957
 10
-2.2121743062
 20
-53.4781167084
  0
LWPOLYLINE
  5
270
100
AcDbEntity
  8
RACCORDO
100
AcDbPolyline
 62
7
  6
CONTINUOUS
 90
13
 70
0
 10
-1.3611722096
 20
-56.2417779905
 10
-1.3501181625
 20
-56.2478872782
 10
-1.3393818101
 20
-56.2535792276
 10
-1.3289631525
 20
-56.2588538386
 10
-1.3188751187
 20
-56.2636467638
 10
-1.3091047798
 20
-56.2680223506
 10
-1.2996133485
 20
-56.2721736415
 10
-1.2904034833
 20
-56.2760989746
 10
-1.2814725258
 20
-56.2798000118
 10
-1.2727737134
 20
-56.2834747813
 10
-1.2642914588
 20
-56.2871892926
 10
-1.2560413495
 20
-56.2908775361
 10
-1.2480233853
 20
-56.294539512
  0
LWPOLYLINE
  5
271
100
AcDbEntity
  8
RACCORDO
100
AcDbPolyline
 62
7
  6
CONTINUOUS
 90
12
 70
0
 10
-1.3611887459
 20
-52.9612202485
 10
-1.3722429223
 20
-52.9551108974
 10
-1.3829793702
 20
-52.9494189013
 10
-1.3933980895
 20
-52.9441442601
 10
-1.4034861463
 20
-52.9393513243
 10
-1.4132564746
 20
-52.9349757434
 10
-1.422747876
 20
-52.9308244662
 10
-1.4319576827
 20
-52.926899157
 10
-1.4408885626
 20
-52.9231981515
 10
-1.4495873208
 20
-52.9195234045
 10
-1.458069559
 20
-52.915808901
 10
-1.4632945424
 20
-52.9134820865
  0
LWPOLYLINE
  5
272
100
AcDbEntity
  8
RACCORDO
100
AcDbPolyline
 62
250
  6
CONTINUOUS
 90
7
 70
0
 10
-2.3149029477
 20
-53.2982914893
 10
-2.2355385019
 20
-53.3430358277
 10
-2.1951558232
 20
-53.3661527848
 10
-2.154499194
 20
-53.3897486505
 10
-2.1136265202
 20
-53.4138181397
 10
-2.0724798959
 20
-53.4383665375
 10
-2.031059321
 20
-53.4633938438
  0
LWPOLYLINE
  5
273
100
AcDbEntity
  8
RACCORDO
100
AcDbPolyline
 62
250
  6
CONTINUOUS
 90
3
 70
0
 10
-2.2121743062
 20
-53.4781167084
 10
-2.1298416283
 20
-53.5252258046
 10
-2.0881544885
 20
-53.5493396062
  0
LWPOLYLINE
  5
274
100
AcDbEntity
  8
RACCORDO
100
AcDbPolyline
 62
250
  6
CONTINUOUS
 90
10
 70
0
 10
-2.6290980156
 20
-54.5951469871
 10
-2.6221830414
 20
-54.599316845
 10
-2.6152578372
 20
-54.6031690932
 10
-2.6083644192
 20
-54.6067045804
 10
-2.6015451039
 20
-54.6099271659
 10
-2.5948423357
 20
-54.6128438274
 10
-2.5882983731
 20
-54.6154647035
 10
-2.5819548281
 20
-54.6178030289
 10
-2.5758524001
 20
-54.6198750776
 10
-2.5700307255
 20
-54.6217001198
  0
LWPOLYLINE
  5
275
100
AcDbEntity
  8
RACCORDO
100
AcDbPolyline
 62
7
  6
CONTINUOUS
 90
25
 70
0
 10
-43.7168767469
 20
-43.4951399644
 10
-43.7153090809
 20
-43.5498204038
 10
-43.710780128
 20
-43.6055305141
 10
-43.7032898883
 20
-43.6622702955
 10
-43.6927810899
 20
-43.7202908163
 10
-43.6793110046
 20
-43.7793410082
 10
-43.6630514481
 20
-43.8386676653
 10
-43.6439666878
 20
-43.898274329
 10
-43.6220924562
 20
-43.9581574579
 10
-43.5977077669
 20
-44.0175532218
 10
-43.5707804613
 20
-44.0764553777
 10
-43.5413426979
 20
-44.1348701687
 10
-43.5097699657
 20
-44.1920524936
 10
-43.4760349161
 20
-44.2479865648
 10
-43.4401648976
 20
-44.3026881701
 10
-43.4026174449
 20
-44.3554595713
 10
-43.3633710703
 20
-44.4062760429
 10
-43.3224472614
 20
-44.4551623105
 10
-43.2803680157
 20
-44.5014948127
 10
-43.2371185323
 20
-44.5452408361
 10
-43.1927136121
 20
-44.5864330942
 10
-43.1477196553
 20
-44.6245461652
 10
-43.102325462
 20
-44.6594049087
 10
-43.0563422321
 20
-44.6911844651
 10
-43.0097699657
 20
-44.7198848345
  0
LINE
  5
276
100
AcDbEntity
  8
RACCORDO
100
AcDbLine
 62
7
  6
CONTINUOUS
 10
-43.7168767469
 20
91.3857497618
 11
-43.7168767469
 21
-43.4951399644
  0
LINE
  5
277
100
AcDbEntity
  8
RACCORDO
100
AcDbLine
 62
7
  6
CONTINUOUS
 10
-2.5254224801
 20
55.1800334193
 11
-2.4627116478
 21
55.240887991
  0
LINE
  5
278
100
AcDbEntity
  8
RACCORDO
100
AcDbLine
 62
7
  6
CONTINUOUS
 10
-2.5483694702
 20
55.158004603
 11
-2.5328927379
 21
55.1728945845
  0
LINE
  5
279
100
AcDbEntity
  8
RACCORDO
100
AcDbLine
 62
7
  6
CONTINUOUS
 10
-2.5328927379
 20
55.1728945845
 11
-2.5254224801
 21
55.1800334193
  0
LINE
  5
27A
100
AcDbEntity
  8
RACCORDO
100
AcDbLine
 62
7
  6
CONTINUOUS
 10
-2.5647731865
 20
55.1426150965
 11
-2.5483694702
 21
55.158004603
  0
LINE
  5
27B
100
AcDbEntity
  8
RACCORDO
100
AcDbLine
 62
7
  6
CONTINUOUS
 10
-1.2825311836
 20
54.5326516712
 11
-1.4391385026
 21
54.3874141856
  0
LWPOLYLINE
  5
27C
100
AcDbEntity
  8
RACCORDO
100
AcDbPolyline
 62
250
  6
CONTINUOUS
 90
3
 70
0
 10
-1.066791061
 20
51.9723882699
 10
-1.0529074604
 20
51.9836825119
 10
-1.0388600315
 20
51.9957966193
  0
LWPOLYLINE
  5
27D
100
AcDbEntity
  8
RACCORDO
100
AcDbPolyline
 62
7
  6
CONTINUOUS
 90
12
 70
0
 10
-2.4627116478
 20
55.240887991
 10
-2.3946031205
 20
55.292282752
 10
-2.3210968985
 20
55.3342177024
 10
-2.2416834059
 20
55.3668686304
 10
-2.1568722186
 20
55.3900597477
 10
-2.0681920633
 20
55.4032636895
 10
-1.9755444635
 20
55.4062249978
 10
-1.8790278959
 20
55.3991991306
 10
-1.7804665171
 20
55.3824250969
 10
-1.6804683794
 20
55.3559825663
 10
-1.5784254304
 20
55.3197918691
 10
-1.4743376703
 20
55.2738530054
  0
LINE
  5
27E
100
AcDbEntity
  8
RACCORDO
100
AcDbLine
 62
250
  6
CONTINUOUS
 10
-2.031059321
 20
54.1004609059
 11
-2.3545110897
 21
53.864505466
  0
LWPOLYLINE
  5
27F
100
AcDbEntity
  8
RACCORDO
100
AcDbPolyline
 62
250
  6
CONTINUOUS
 90
16
 70
0
 10
-2.3545110897
 20
53.864505466
 10
-2.4081275342
 20
53.825636891
 10
-2.4239831549
 20
53.8133352267
 10
-2.4399077185
 20
53.8000214198
 10
-2.4558769896
 20
53.7856014587
 10
-2.4717407715
 20
53.7700267017
 10
-2.4872082736
 20
53.7532790177
 10
-2.5022690183
 20
53.7351603539
 10
-2.5166740846
 20
53.7157178825
 10
-2.529775059
 20
53.6953224704
 10
-2.5414660766
 20
53.673874699
 10
-2.5516108179
 20
53.6514447716
 10
-2.5596135235
 20
53.6287521131
 10
-2.5652865305
 20
53.6061086671
 10
-2.5687670911
 20
53.5833651829
 10
-2.5700308219
 20
53.5606115796
  0
LWPOLYLINE
  5
280
100
AcDbEntity
  8
RACCORDO
100
AcDbPolyline
 62
250
  6
CONTINUOUS
 90
13
 70
0
 10
-2.4511629188
 20
53.8814156908
 10
-2.4698230321
 20
53.8680327713
 10
-2.488436741
 20
53.8532024217
 10
-2.5069774328
 20
53.836887205
 10
-2.5256149521
 20
53.8191027683
 10
-2.5441189325
 20
53.7997552451
 10
-2.5618534398
 20
53.7786420717
 10
-2.5789401004
 20
53.7554978166
 10
-2.5951624743
 20
53.7305041199
 10
-2.6093822502
 20
53.7041634761
 10
-2.6212015564
 20
53.6766596609
 10
-2.6309466246
 20
53.647822159
 10
-2.6385786984
 20
53.61766199
  0
LWPOLYLINE
  5
281
100
AcDbEntity
  8
RACCORDO
100
AcDbPolyline
 62
250
  6
CONTINUOUS
 90
5
 70
0
 10
1.0598185366
 20
50.3604902787
 10
1.1919186545
 20
50.4536207947
 10
1.3134630062
 20
50.5630736426
 10
1.4238595421
 20
50.6883158125
 10
1.4440611466
 20
50.7170536825
  0
LINE
  5
282
100
AcDbEntity
  8
RACCORDO
100
AcDbLine
 62
250
  6
CONTINUOUS
 10
-2.2553102204
 20
54.0191422923
 11
-2.4129996303
 21
53.9080935715
  0
LINE
  5
283
100
AcDbEntity
  8
RACCORDO
100
AcDbLine
 62
250
  6
CONTINUOUS
 10
-2.4129996303
 20
53.9080935715
 11
-2.4511629188
 21
53.8814156908
  0
LWPOLYLINE
  5
284
100
AcDbEntity
  8
RACCORDO
100
AcDbPolyline
 62
250
  6
CONTINUOUS
 90
3
 70
0
 10
-2.0881544885
 20
54.1368612432
 10
-2.1309695605
 20
54.1069594683
 10
-2.2553102204
 20
54.0191422923
  0
LWPOLYLINE
  5
285
100
AcDbEntity
  8
RACCORDO
100
AcDbPolyline
 62
250
  6
CONTINUOUS
 90
8
 70
0
 10
-0.9654541716
 20
53.0587326098
 10
-0.9383914301
 20
53.0772089616
 10
-0.9064714678
 20
53.108282598
 10
-0.8797441958
 20
53.1462999085
 10
-0.8585718544
 20
53.1907461768
 10
-0.8432409169
 20
53.2410199381
 10
-0.8339585955
 20
53.2964415804
 10
-0.8308504679
 20
53.3562615695
  0
LWPOLYLINE
  5
286
100
AcDbEntity
  8
RACCORDO
100
AcDbPolyline
 62
7
  6
CONTINUOUS
 90
10
 70
0
 10
-1.6154855798
 20
54.1845475006
 10
-1.6463994269
 20
54.1638849359
 10
-1.6750893637
 20
54.1386954003
 10
-1.7010943342
 20
54.1090142126
 10
-1.7240435642
 20
54.0748235687
 10
-1.7434624338
 20
54.0363337139
 10
-1.7589071886
 20
53.994008983
 10
-1.7701515015
 20
53.9481328846
 10
-1.7770396862
 20
53.8987930598
 10
-1.7793786053
 20
53.8461910821
  0
LINE
  5
287
100
AcDbEntity
  8
RACCORDO
100
AcDbLine
 62
250
  6
CONTINUOUS
 10
-1.2847614639
 20
55.1695042531
 11
-1.2919961529
 21
55.1647305274
  0
LWPOLYLINE
  5
288
100
AcDbEntity
  8
RACCORDO
100
AcDbPolyline
 62
250
  6
CONTINUOUS
 90
10
 70
0
 10
-0.2760941274
 20
52.4785614653
 10
-0.2820903775
 20
52.4746567845
 10
-0.2876641737
 20
52.4701264724
 10
-0.2927888819
 20
52.465001028
 10
-0.297438717
 20
52.459299062
 10
-0.3015795033
 20
52.4530547934
 10
-0.3051735038
 20
52.4463364254
 10
-0.3081906904
 20
52.4392037552
 10
-0.3106033948
 20
52.4316924727
 10
-0.3123819644
 20
52.4238530585
  0
LWPOLYLINE
  5
289
100
AcDbEntity
  8
RACCORDO
100
AcDbPolyline
 62
7
  6
CONTINUOUS
 90
5
 70
0
 10
1.0253121898
 20
50.3398670452
 10
1.1585177862
 20
50.4264816238
 10
1.2835858319
 20
50.5280547574
 10
1.399653801
 20
50.6443822623
 10
1.4265066313
 20
50.6774378092
  0
LWPOLYLINE
  5
28A
100
AcDbEntity
  8
RACCORDO
100
AcDbPolyline
 62
250
  6
CONTINUOUS
 90
9
 70
0
 10
-0.6410627763
 20
52.4459851955
 10
-0.6471332269
 20
52.4420877209
 10
-0.6529890336
 20
52.4375316183
 10
-0.6585854248
 20
52.432350779
 10
-0.6638801684
 20
52.4265831473
 10
-0.6688318602
 20
52.4202726062
 10
-0.6734007019
 20
52.413469316
 10
-0.677551388
 20
52.4062260493
 10
-0.6812529087
 20
52.3985971414
  0
LWPOLYLINE
  5
28B
100
AcDbEntity
  8
RACCORDO
100
AcDbPolyline
 62
250
  6
CONTINUOUS
 90
7
 70
0
 10
-1.331883584
 20
51.964778537
 10
-1.3369125682
 20
51.9616680285
 10
-1.3419160068
 20
51.9581598063
 10
-1.3468685625
 20
51.9542716539
 10
-1.3517451575
 20
51.9500232777
 10
-1.3565210999
 20
51.945436207
 10
-1.3611722096
 20
51.9405336846
  0
LWPOLYLINE
  5
28C
100
AcDbEntity
  8
RACCORDO
100
AcDbPolyline
 62
250
  6
CONTINUOUS
 90
10
 70
0
 10
-1.315612908
 20
52.8354619876
 10
-1.3218725876
 20
52.8316356613
 10
-1.3282358583
 20
52.8273787492
 10
-1.3346654429
 20
52.822711051
 10
-1.3411292754
 20
52.8176306593
 10
-1.3475855424
 20
52.812174044
 10
-1.3539734359
 20
52.8064234663
 10
-1.3602363713
 20
52.8004249467
 10
-1.3663291847
 20
52.7941825446
 10
-1.3721986116
 20
52.7877224951
  0
LWPOLYLINE
  5
28D
100
AcDbEntity
  8
RACCORDO
100
AcDbPolyline
 62
250
  6
CONTINUOUS
 90
3
 70
0
 10
0.8156927821
 20
50.2188354263
 10
0.8501964358
 20
50.2394569947
 10
0.9822970387
 20
50.3325874123
  0
LINE
  5
28E
100
AcDbEntity
  8
RACCORDO
100
AcDbLine
 62
250
  6
CONTINUOUS
 10
1.0253121898
 20
50.3398670452
 11
1.0598185366
 21
50.3604902787
  0
LWPOLYLINE
  5
28F
100
AcDbEntity
  8
ASSI
100
AcDbPolyline
 62
7
  6
CONTINUOUS
 90
19
 70
0
 10
0.7639123583
 20
49.9002808288
 10
0.7877892283
 20
49.9143895295
 10
0.8813021207
 20
49.9760103255
 10
0.9699899803
 20
50.0449496144
 10
1.0538228465
 20
50.1212528397
 10
1.1328306798
 20
50.2048745579
 10
1.2065239047
 20
50.2952966036
 10
1.2748695208
 20
50.3925612023
 10
1.3379005284
 20
50.4966261285
 10
1.3952263533
 20
50.6068465392
 10
1.4468115697
 20
50.7232606561
 10
1.4926916034
 20
50.8458302575
 10
1.5325821565
 20
50.9737958355
 10
1.5664460384
 20
51.1071908957
 10
1.5943204397
 20
51.2459819326
 10
1.6160326357
 20
51.3893089214
 10
1.6315250513
 20
51.5368851871
 10
1.6408552615
 20
51.6889974047
 10
1.6440232663
 20
51.8456455742
  0
LWPOLYLINE
  5
290
100
AcDbEntity
  8
RACCORDO
100
AcDbPolyline
 62
250
  6
CONTINUOUS
 90
9
 70
0
 10
-1.6869151175
 20
53.2858109304
 10
-1.6935586565
 20
53.2818940273
 10
-1.7004620117
 20
53.2777737141
 10
-1.7075738604
 20
53.2734805587
 10
-1.7148394061
 20
53.2690475771
 10
-1.7222006286
 20
53.2645101433
 10
-1.7296005098
 20
53.2599034116
 10
-1.7369836173
 20
53.2552618996
 10
-1.7442937182
 20
53.250620959
  0
LINE
  5
291
100
AcDbEntity
  8
RACCORDO
100
AcDbLine
 62
7
  6
CONTINUOUS
 10
-1.1132260746
 20
51.9895631927
 11
-1.1131056334
 21
51.9896327591
  0
LINE
  5
292
100
AcDbEntity
  8
RACCORDO
100
AcDbLine
 62
250
  6
CONTINUOUS
 10
-1.6869151175
 20
53.2858109304
 11
-1.6021635469
 21
53.3347724822
  0
LINE
  5
293
100
AcDbEntity
  8
0
100
AcDbLine
 62
7
  6
CONTINUOUS
 10
-0.094105349
 20
53.5618384994
 11
-0.9654541716
 21
53.0587326098
  0
LINE
  5
294
100
AcDbEntity
  8
RACCORDO
100
AcDbLine
 62
250
  6
CONTINUOUS
 10
-0.5670847689
 20
53.2676527517
 11
-1.3156129063
 21
52.8354619864
  0
LINE
  5
295
100
AcDbEntity
  8
RACCORDO
100
AcDbLine
 62
250
  6
CONTINUOUS
 10
-0.5242416249
 20
53.1967514496
 11
-1.2727697624
 21
52.7645606843
  0
LINE
  5
296
100
AcDbEntity
  8
RACCORDO
100
AcDbLine
 62
250
  6
CONTINUOUS
 10
-1.3790744597
 20
52.3150644382
 11
-0.4257941486
 21
52.8654765424
  0
LINE
  5
297
100
AcDbEntity
  8
RACCORDO
100
AcDbLine
 62
7
  6
CONTINUOUS
 10
-0.668580188
 20
52.4421946087
 11
0.0246915347
 21
52.8424810126
  0
LINE
  5
298
100
AcDbEntity
  8
RACCORDO
100
AcDbLine
 62
250
  6
CONTINUOUS
 10
-0.6410627763
 20
52.4459851955
 11
0.0234803075
 21
52.8296840434
  0
LINE
  5
299
100
AcDbEntity
  8
RACCORDO
100
AcDbLine
 62
250
  6
CONTINUOUS
 10
0.0035866179
 20
52.6400456223
 11
-0.2760941259
 21
52.478561466
  0
LINE
  5
29A
100
AcDbEntity
  8
RACCORDO
100
AcDbLine
 62
250
  6
CONTINUOUS
 10
-0.0019867599
 20
52.5918669486
 11
-0.2200482827
 21
52.4659609583
  0
LINE
  5
29B
100
AcDbEntity
  8
0
100
AcDbLine
 62
7
  6
CONTINUOUS
 10
20.2174433383
 20
64.1347530102
 11
15.3136825685
 21
61.3033830003
  0
LINE
  5
29C
100
AcDbEntity
  8
RACCORDO
100
AcDbLine
 62
250
  6
CONTINUOUS
 10
-0.169745661
 20
52.1617021978
 11
-0.0623284322
 21
52.2237235594
  0
LINE
  5
29D
100
AcDbEntity
  8
0
100
AcDbLine
 62
7
  6
CONTINUOUS
 10
20.1449644209
 20
63.6887528934
 11
15.6636656572
 21
61.1013071511
  0
LINE
  5
29E
100
AcDbEntity
  8
0
100
AcDbLine
 62
7
  6
CONTINUOUS
 10
1.0253121898
 20
50.3398670452
 11
0.8156927821
 21
50.2188354263
  0
LWPOLYLINE
  5
29F
100
AcDbEntity
  8
RACCORDO
100
AcDbPolyline
 62
250
  6
CONTINUOUS
 90
11
 70
0
 10
-1.2727439947
 20
-51.1845323226
 10
-1.2831145372
 20
-51.1785445013
 10
-1.4800550021
 20
-51.0807348975
 10
-1.6755550956
 20
-50.9995808317
 10
-1.8686623533
 20
-50.9354776834
 10
-2.0584359633
 20
-50.8887377603
 10
-2.2439513548
 20
-50.8595887739
 10
-2.42430473
 20
-50.8481727287
 10
-2.5986174516
 20
-50.8545452424
 10
-2.7660403087
 20
-50.8786752794
 10
-2.9257576039
 20
-50.9204452864
  0
LWPOLYLINE
  5
2A0
100
AcDbEntity
  8
RACCORDO
100
AcDbPolyline
 62
7
  6
CONTINUOUS
 90
13
 70
0
 10
-1.4743377245
 20
-56.1638684486
 10
-1.4663463706
 20
-56.16944592
 10
-1.4581154353
 20
-56.1752706684
 10
-1.4496449185
 20
-56.1813426938
 10
-1.4409484949
 20
-56.18771138
 10
-1.4320124898
 20
-56.1943273432
 10
-1.4227958794
 20
-56.2010424325
 10
-1.4132979243
 20
-56.2078569058
 10
-1.4035193639
 20
-56.2147705052
 10
-1.3934213927
 20
-56.2216343059
 10
-1.3829910757
 20
-56.2283986662
 10
-1.372241348
 20
-56.2351132277
 10
-1.3611722096
 20
-56.2417779905
  0
LWPOLYLINE
  5
2A1
100
AcDbEntity
  8
RACCORDO
100
AcDbPolyline
 62
7
  6
CONTINUOUS
 90
13
 70
0
 10
-1.2480233546
 20
-53.0391297299
 10
-1.2560128688
 20
-53.0335536011
 10
-1.2642433652
 20
-53.0277291755
 10
-1.2727148437
 20
-53.0216564531
 10
-1.2814145882
 20
-53.0152853363
 10
-1.2903553149
 20
-53.0086659226
 10
-1.2995751721
 20
-53.0019485049
 10
-1.309073676
 20
-52.9951337825
 10
-1.3188513104
 20
-52.9882210559
 10
-1.3289476747
 20
-52.9813585197
 10
-1.3393759686
 20
-52.9745955722
 10
-1.3501229923
 20
-52.9678828151
 10
-1.3611887459
 20
-52.9612202485
  0
LWPOLYLINE
  5
2A2
100
AcDbEntity
  8
RACCORDO
100
AcDbPolyline
 62
7
  6
CONTINUOUS
 90
13
 70
0
 10
-1.4743377245
 20
-56.1638684486
 10
-1.5784254242
 20
-56.0896094176
 10
-1.680468315
 20
-56.0079635255
 10
-1.7804663967
 20
-55.9189307722
 10
-1.8790277205
 20
-55.8218886651
 10
-1.9755442354
 20
-55.7174596969
 10
-2.0681917881
 20
-55.6075113458
 10
-2.1568719766
 20
-55.4919017177
 10
-2.241683203
 20
-55.3707727067
 10
-2.3210965202
 20
-55.2464174741
 10
-2.3946022793
 20
-55.1196004069
 10
-2.4627101293
 20
-54.9895571181
 10
-2.5254200701
 20
-54.8562876076
  0
LWPOLYLINE
  5
2A3
100
AcDbEntity
  8
RACCORDO
100
AcDbPolyline
 62
7
  6
CONTINUOUS
 90
13
 70
0
 10
-1.2480233546
 20
-53.0391297299
 10
-1.1439407275
 20
-53.1133848933
 10
-1.0419025895
 20
-53.1950263398
 10
-0.9419089407
 20
-53.2840540694
 10
-0.8433517757
 20
-53.3810905182
 10
-0.7468390999
 20
-53.4855132502
 10
-0.654194929
 20
-53.5954549569
 10
-0.565518285
 20
-53.7110560618
 10
-0.480710146
 20
-53.8321761415
 10
-0.4012974628
 20
-53.9565266171
 10
-0.3277892192
 20
-54.0833446293
 10
-0.2596764315
 20
-54.2133930374
 10
-0.1969590996
 20
-54.3466718416
  0
LWPOLYLINE
  5
2A4
100
AcDbEntity
  8
RACCORDO
100
AcDbPolyline
 62
250
  6
CONTINUOUS
 90
22
 70
0
 10
-2.5254198801
 20
-54.8562880267
 10
-2.5156645176
 20
-54.8638243903
 10
-2.505371144
 20
-54.8711832558
 10
-2.4945420725
 20
-54.8783580448
 10
-2.4831986501
 20
-54.8853562534
 10
-2.4713243211
 20
-54.8921570872
 10
-2.4588651254
 20
-54.8987108148
 10
-2.4458178386
 20
-54.9050166065
 10
-2.4321919965
 20
-54.9110601098
 10
-2.4179539016
 20
-54.9167704743
 10
-2.4031005227
 20
-54.9221442897
 10
-2.3876427979
 20
-54.9271692112
 10
-2.3715691321
 20
-54.9317612226
 10
-2.3548806252
 20
-54.9359155381
 10
-2.3375853772
 20
-54.9396222137
 10
-2.31968323
 20
-54.9427908285
 10
-2.3011836697
 20
-54.9454187646
 10
-2.2820870462
 20
-54.9474964497
 10
-2.2623801591
 20
-54.9489250286
 10
-2.242062025
 20
-54.9496690104
 10
-2.2211434706
 20
-54.9497552779
 10
-2.1996290883
 20
-54.9491799199
  0
LWPOLYLINE
  5
2A5
100
AcDbEntity
  8
RACCORDO
100
AcDbPolyline
 62
250
  6
CONTINUOUS
 90
3
 70
0
 10
-1.4846238455
 20
-52.9259476607
 10
-1.4719330291
 20
-52.9361007223
 10
-1.4593431604
 20
-52.9464674478
  0
LINE
  5
2A6
100
AcDbEntity
  8
RACCORDO
100
AcDbLine
 62
250
  6
CONTINUOUS
 10
-1.4593431604
 20
-52.9464674478
 11
-1.446796669
 21
-52.9570916007
  0
LWPOLYLINE
  5
2A7
100
AcDbEntity
  8
RACCORDO
100
AcDbPolyline
 62
250
  6
CONTINUOUS
 90
5
 70
0
 10
-1.446796669
 20
-52.9570916007
 10
-1.4341247895
 20
-52.9680756899
 10
-1.4213758006
 20
-52.9794033496
 10
-1.4088255414
 20
-52.9909369437
 10
-1.3965358391
 20
-53.0026549154
  0
LWPOLYLINE
  5
2A8
100
AcDbEntity
  8
RACCORDO
100
AcDbPolyline
 62
7
  6
CONTINUOUS
 90
5
 70
0
 10
-2.5962270207
 20
55.1041581421
 10
-2.5885990208
 20
55.1148311516
 10
-2.5808317174
 20
55.1248247214
 10
-2.5729251107
 20
55.1341388515
 10
-2.5647731865
 20
55.1426150965
  0
LWPOLYLINE
  5
2A9
100
AcDbEntity
  8
ASSI
100
AcDbPolyline
 62
7
  6
CONTINUOUS
 90
6
 70
0
 10
-1.4391385026
 20
54.3874141856
 10
-1.4576185366
 20
54.3643408952
 10
-1.4710466052
 20
54.3372695214
 10
-1.4794227084
 20
54.3062000644
 10
-1.4827049969
 20
54.2701863244
 10
-1.4823180147
 20
54.2614367837
  0
LWPOLYLINE
  5
2AA
100
AcDbEntity
  8
RACCORDO
100
AcDbPolyline
 62
250
  6
CONTINUOUS
 90
6
 70
0
 10
-1.0510525393
 20
53.1312674466
 10
-1.0227910725
 20
53.1648033669
 10
-1.0006392055
 20
53.2042815331
 10
-0.9850738118
 20
53.2489992994
 10
-0.975618018
 20
53.2996593115
 10
-0.9722718241
 20
53.3562615695
  0
LINE
  5
2AB
100
AcDbEntity
  8
RACCORDO
100
AcDbLine
 62
250
  6
CONTINUOUS
 10
-0.7176146114
 20
52.3521798331
 11
-0.684477071
 21
52.3906406967
  0
LINE
  5
2AC
100
AcDbEntity
  8
RACCORDO
100
AcDbLine
 62
250
  6
CONTINUOUS
 10
-0.7842437292
 20
52.2758569334
 11
-0.7176146114
 21
52.3521798331
  0
LINE
  5
2AD
100
AcDbEntity
  8
RACCORDO
100
AcDbLine
 62
250
  6
CONTINUOUS
 10
-0.8843002079
 20
52.1623161805
 11
-0.7842437292
 21
52.2758569334
  0
LINE
  5
2AE
100
AcDbEntity
  8
RACCORDO
100
AcDbLine
 62
250
  6
CONTINUOUS
 10
-0.9815561844
 20
52.0531769209
 11
-0.8843002079
 21
52.1623161805
  0
LINE
  5
2AF
100
AcDbEntity
  8
RACCORDO
100
AcDbLine
 62
7
  6
CONTINUOUS
 10
-0.6933755366
 20
52.421965139
 11
-0.7660811973
 21
52.3404312933
  0
LINE
  5
2B0
100
AcDbEntity
  8
RACCORDO
100
AcDbLine
 62
7
  6
CONTINUOUS
 10
-0.7660811973
 20
52.3404312933
 11
-0.8540404233
 21
52.2427376905
  0
LINE
  5
2B1
100
AcDbEntity
  8
RACCORDO
100
AcDbLine
 62
7
  6
CONTINUOUS
 10
-0.8540404233
 20
52.2427376905
 11
-0.9955311207
 21
52.0873123758
  0
LWPOLYLINE
  5
2B2
100
AcDbEntity
  8
RACCORDO
100
AcDbPolyline
 62
7
  6
CONTINUOUS
 90
7
 70
0
 10
-0.9955334412
 20
52.0873094076
 10
-1.0135929787
 20
52.0683515688
 10
-1.0347088845
 20
52.0480680684
 10
-1.055836254
 20
52.0297349153
 10
-1.0768608558
 20
52.0133915301
 10
-1.0976411258
 20
51.9990844623
 10
-1.1131054657
 20
51.9896327643
  0
LWPOLYLINE
  5
2B3
100
AcDbEntity
  8
RACCORDO
100
AcDbPolyline
 62
7
  6
CONTINUOUS
 90
13
 70
0
 10
-0.1969410454
 20
51.981589457
 10
-0.1924199493
 20
51.9861941702
 10
-0.1877141913
 20
51.9908506043
 10
-0.1828237715
 20
51.9955587593
 10
-0.1777164658
 20
52.0002639629
 10
-0.1724244982
 20
52.0050208873
 10
-0.1670445409
 20
52.0099935494
 10
-0.16157736
 20
52.0151823867
 10
-0.1560221895
 20
52.0205869616
 10
-0.1504734035
 20
52.0263699783
 10
-0.1449624601
 20
52.0325856716
 10
-0.1394579013
 20
52.0391798067
 10
-0.1339597269
 20
52.0461523837
  0
LWPOLYLINE
  5
2B4
100
AcDbEntity
  8
RACCORDO
100
AcDbPolyline
 62
250
  6
CONTINUOUS
 90
4
 70
0
 10
-1.0246935125
 20
52.0087984049
 10
-1.0104249532
 20
52.0227084858
 10
-0.9960447079
 20
52.0375020081
 10
-0.9815561844
 20
52.0531769209
  0
LWPOLYLINE
  5
2B5
100
AcDbEntity
  8
RACCORDO
100
AcDbPolyline
 62
7
  6
CONTINUOUS
 90
13
 70
0
 10
-0.1969410454
 20
51.981589457
 10
-0.2596509614
 20
51.9207358261
 10
-0.3277587938
 20
51.8693417824
 10
-0.4012645426
 20
51.827407326
 10
-0.4806778589
 20
51.7947565977
 10
-0.5654890916
 20
51.7715654568
 10
-0.6541692871
 20
51.7583614806
 10
-0.7468168456
 20
51.7554001978
 10
-0.843333367
 20
51.7624260798
 10
-0.941894697
 20
51.7792001182
 10
-1.0418927844
 20
51.8056426434
 10
-1.1439356805
 20
51.8418333251
 10
-1.2480233853
 20
51.8877721631
  0
LINE
  5
2B6
100
AcDbEntity
  8
RACCORDO
100
AcDbLine
 62
250
  6
CONTINUOUS
 10
-1.0388600315
 20
51.9957966193
 11
-1.0246935125
 21
52.0087984049
  0
LWPOLYLINE
  5
2B7
100
AcDbEntity
  8
RACCORDO
100
AcDbPolyline
 62
250
  6
CONTINUOUS
 90
10
 70
0
 10
0.9822970387
 20
50.3325874123
 10
1.1038417405
 20
50.4420401437
 10
1.2142384166
 20
50.5672820113
 10
1.312949167
 20
50.7077028253
 10
1.3994930232
 20
50.8626183865
 10
1.4734483426
 20
51.0312738981
 10
1.5344548601
 20
51.2128477196
 10
1.5822153807
 20
51.4064552872
 10
1.6164972228
 20
51.6111533846
 10
1.6371333637
 20
51.8259447262
  0
LWPOLYLINE
  5
2B8
100
AcDbEntity
  8
ASSI
100
AcDbPolyline
 62
7
  6
CONTINUOUS
 90
24
 70
0
 10
-0.6165641828
 20
-51.6696590737
 10
-0.7497537661
 20
-51.5571087551
 10
-0.8842167325
 20
-51.4508988112
 10
-1.0199452238
 20
-51.3509901152
 10
-1.1560981925
 20
-51.2580017558
 10
-1.2926782742
 20
-51.1719767039
 10
-1.4296828334
 20
-51.0928719885
 10
-1.5662629151
 20
-51.0211777855
 10
-1.7024158838
 20
-50.9569401095
 10
-1.8381443751
 20
-50.9001129459
 10
-1.9726073414
 20
-50.8510484267
 10
-2.1057969248
 20
-50.809794753
 10
-2.2377209832
 20
-50.7763037237
 10
-2.3675620435
 20
-50.7507828674
 10
-2.4953071716
 20
-50.7332816739
 10
-2.6209693016
 20
-50.7237506534
 10
-2.7437697626
 20
-50.7222488653
 10
-2.8636907855
 20
-50.7288261661
 10
-2.9807501393
 20
-50.7434326993
 10
-3.0942224607
 20
-50.7659779548
 10
-3.2040854766
 20
-50.7965112273
 10
-3.31036146
 20
-50.8349832221
 10
-3.4123918672
 20
-50.8811555459
 10
-3.4862734659
 20
-50.9209673121
  0
LINE
  5
2B9
100
AcDbEntity
  8
RACCORDO
100
AcDbLine
 62
250
  6
CONTINUOUS
 10
-1.3965358391
 20
-53.0026549154
 11
-1.384344043
 21
-53.0146537154
  0
LINE
  5
2BA
100
AcDbEntity
  8
RACCORDO
100
AcDbLine
 62
7
  6
CONTINUOUS
 10
-0.5804383956
 20
-54.9012757816
 11
-0.5670847689
 21
-54.9146589233
  0
LINE
  5
2BB
100
AcDbEntity
  8
RACCORDO
100
AcDbLine
 62
250
  6
CONTINUOUS
 10
-1.384344043
 20
-53.0146537154
 11
-1.3721986116
 21
-53.0269687587
  0
LWPOLYLINE
  5
2BC
100
AcDbEntity
  8
RACCORDO
100
AcDbPolyline
 62
250
  6
CONTINUOUS
 90
10
 70
0
 10
-1.3156129063
 20
-55.3468496886
 10
-1.3093582347
 20
-55.3532711945
 10
-1.303362503
 20
-55.3602152192
 10
-1.2976797204
 20
-55.3676191985
 10
-1.292360991
 20
-55.3754165582
 10
-1.2874543209
 20
-55.383536929
 10
-1.283004115
 20
-55.3919067321
 10
-1.2790504426
 20
-55.4004503976
 10
-1.2756287503
 20
-55.4090910914
 10
-1.2727697624
 20
-55.4177509908
  0
LWPOLYLINE
  5
2BD
100
AcDbEntity
  8
RACCORDO
100
AcDbPolyline
 62
7
  6
CONTINUOUS
 90
10
 70
0
 10
-0.5670847689
 20
-54.9146589233
 10
-0.5607455233
 20
-54.9211907002
 10
-0.554768153
 20
-54.928113375
 10
-0.5491526581
 20
-54.9354269477
 10
-0.5438552402
 20
-54.9432039003
 10
-0.5389196976
 20
-54.9513717508
 10
-0.5344774253
 20
-54.9597130532
 10
-0.5305722216
 20
-54.9681553254
 10
-0.5271602881
 20
-54.9767710495
 10
-0.5242416249
 20
-54.9855602255
  0
LWPOLYLINE
  5
2BE
100
AcDbEntity
  8
RACCORDO
100
AcDbPolyline
 62
250
  6
CONTINUOUS
 90
28
 70
0
 10
-0.2094800513
 20
-52.508586407
 10
-0.391096198
 20
-52.3122565068
 10
-0.5791478894
 20
-52.1276071222
 10
-0.7704964715
 20
-51.9577217338
 10
-0.9651946749
 20
-51.8028507088
 10
-1.163189769
 20
-51.6627436801
 10
-1.3611849072
 20
-51.5397330276
 10
-1.5591801885
 20
-51.4341045962
 10
-1.7571755139
 20
-51.3455725409
 10
-1.9518737406
 20
-51.275611707
 10
-2.1432218879
 20
-51.2245333967
 10
-2.3312729364
 20
-51.1920263077
 10
-2.512888685
 20
-51.1786313779
 10
-2.6879541647
 20
-51.1846660217
 10
-2.8565843444
 20
-51.2098128248
 10
-3.0159859298
 20
-51.2536604818
 10
-3.1660223911
 20
-51.3165383634
 10
-3.3068302582
 20
-51.3981170989
 10
-3.4360258267
 20
-51.4969972709
 10
-3.5533812865
 20
-51.6134201638
 10
-3.6591244476
 20
-51.7471444932
 10
-3.7515550358
 20
-51.8960469885
 10
-3.8304893669
 20
-52.0606601725
 10
-3.8961111251
 20
-52.2404515224
 10
-3.947271088
 20
-52.4317001994
 10
-3.9835861817
 20
-52.6331659239
 10
-4.0054394801
 20
-52.8460889755
 10
-4.0128309832
 20
-53.0704693542
  0
LINE
  5
2BF
100
AcDbEntity
  8
RACCORDO
100
AcDbLine
 62
250
  6
CONTINUOUS
 10
-0.0344148113
 20
-52.7167809489
 11
-0.2094800513
 21
-52.508586407
  0
LWPOLYLINE
  5
2C0
100
AcDbEntity
  8
RACCORDO
100
AcDbPolyline
 62
250
  6
CONTINUOUS
 90
8
 70
0
 10
-0.9955336564
 20
52.0873096037
 10
-0.9962876013
 20
52.0861869577
 10
-0.9968956974
 20
52.0830663696
 10
-0.9962431002
 20
52.0788836942
 10
-0.9943407621
 20
52.073709128
 10
-0.9912206097
 20
52.0676295144
 10
-0.9869350077
 20
52.0607468857
 10
-0.9815558804
 20
52.0531767511
  0
LWPOLYLINE
  5
2C1
100
AcDbEntity
  8
RACCORDO
100
AcDbPolyline
 62
7
  6
CONTINUOUS
 90
4
 70
0
 10
-0.1339597269
 20
52.0461523837
 10
-0.1281763806
 20
52.0545651487
 10
-0.1227754481
 20
52.0629893154
 10
-0.1177569293
 20
52.0714248837
  0
LINE
  5
2C2
100
AcDbEntity
  8
RACCORDO
100
AcDbLine
 62
7
  6
CONTINUOUS
 10
-0.1267614495
 20
52.056808467
 11
-0.1296533059
 21
52.0527549141
  0
LWPOLYLINE
  5
2C3
100
AcDbEntity
  8
RACCORDO
100
AcDbPolyline
 62
250
  6
CONTINUOUS
 90
3
 70
0
 10
-0.1296533059
 20
52.0527549141
 10
-0.130900214
 20
52.0510164951
 10
-0.1339597269
 20
52.0461523837
  0
LWPOLYLINE
  5
2C4
100
AcDbEntity
  8
RACCORDO
100
AcDbPolyline
 62
250
  6
CONTINUOUS
 90
7
 70
0
 10
-0.6933394897
 20
52.4220064545
 10
-0.6939035737
 20
52.4212853459
 10
-0.6951206072
 20
52.4181998331
 10
-0.6951284028
 20
52.4143169794
 10
-0.6941026635
 20
52.4094671447
 10
-0.6920491556
 20
52.4037087
 10
-0.6888423327
 20
52.3973593537
  0
LWPOLYLINE
  5
2C5
100
AcDbEntity
  8
ASSI
100
AcDbPolyline
 62
7
  6
CONTINUOUS
 90
17
 70
0
 10
-3.9878980549
 20
33.3431518637
 10
-4.2627743026
 20
33.172474818
 10
-4.6123558218
 20
32.9167767517
 10
-4.9426390211
 20
32.6292604167
 10
-5.2511706626
 20
32.3120613925
 10
-5.5377887815
 20
31.9649586583
 10
-5.8026553425
 20
31.5881732349
 10
-6.0438030016
 20
31.1845037637
 10
-6.261055145
 20
30.7537500631
 10
-6.4545883864
 20
30.2961123149
 10
-6.6229652229
 20
29.8149897057
 10
-6.7659983369
 20
29.3102073646
 10
-6.883875046
 20
28.7819401626
 10
-6.9757197996
 20
28.2341118994
 10
-7.0412407477
 20
27.6680305084
 10
-7.0807297402
 20
27.0823880562
 10
-7.0941867774
 20
26.4771845429
  0
LINE
  5
2C6
100
AcDbEntity
  8
ASSI
100
AcDbLine
 62
7
  6
CONTINUOUS
 10
-3.2808406805
 20
33.7515120534
 11
-3.9879474617
 21
33.34323746
  0
LWPOLYLINE
  5
2C7
100
AcDbEntity
  8
ASSI
100
AcDbPolyline
 62
7
  6
CONTINUOUS
 90
4
 70
0
 10
-3.100693063
 20
33.7465238259
 10
-3.5054289091
 20
33.5879422997
 10
-3.8937507658
 20
33.3961176932
 10
-3.9878980549
 20
33.3431518637
  0
LWPOLYLINE
  5
2C8
100
AcDbEntity
  8
RACCORDO
100
AcDbPolyline
 62
250
  6
CONTINUOUS
 90
16
 70
0
 10
4.027709106
 20
-27.2794646301
 10
4.1175410117
 20
-27.2873270402
 10
4.2024291592
 20
-27.2838908297
 10
4.2823735485
 20
-27.2691559986
 10
4.3580658995
 20
-27.2428069125
 10
4.4288144923
 20
-27.2051592058
 10
4.4925441672
 20
-27.1571597819
 10
4.5489548219
 20
-27.0985781436
 10
4.5983465587
 20
-27.0296447882
 10
4.6395445255
 20
-26.9519981111
 10
4.6723583707
 20
-26.8652522911
 10
4.696978446
 20
-26.7697931495
 10
4.712800954
 20
-26.6684165451
 10
4.7196246291
 20
-26.5620544308
 10
4.717650737
 20
-26.4497748538
 10
4.7068792776
 20
-26.3315778139
  0
LWPOLYLINE
  5
2C9
100
AcDbEntity
  8
RACCORDO
100
AcDbPolyline
 62
7
  6
CONTINUOUS
 90
10
 70
0
 10
4.3072520213
 20
-27.5698194462
 10
4.3954601925
 20
-27.5798586316
 10
4.4816515634
 20
-27.5834298795
 10
4.5655635627
 20
-27.5807529169
 10
4.6467255011
 20
-27.5721061709
 10
4.725136171
 20
-27.5577597165
 10
4.8011824207
 20
-27.5378202603
 10
4.874773863
 20
-27.5123997492
 10
4.9454250762
 20
-27.4817676696
 10
5.0128793035
 20
-27.4461774792
  0
LINE
  5
2CA
100
AcDbEntity
  8
RACCORDO
100
AcDbLine
 62
250
  6
CONTINUOUS
 10
-0.6888423327
 20
-55.7849523214
 11
-0.684477071
 21
-55.7916709783
  0
LWPOLYLINE
  5
2CB
100
AcDbEntity
  8
RACCORDO
100
AcDbPolyline
 62
250
  6
CONTINUOUS
 90
10
 70
0
 10
-1.7442937182
 20
-54.9316907161
 10
-1.7075825104
 20
-54.9886906933
 10
-1.6695295679
 20
-55.0445471407
 10
-1.6302099961
 20
-55.0991497167
 10
-1.5897012936
 20
-55.1523906933
 10
-1.5480835296
 20
-55.2041647313
 10
-1.5054392155
 20
-55.2543691294
 10
-1.461852684
 20
-55.3029045968
 10
-1.4174098941
 20
-55.3496754074
 10
-1.3721986116
 20
-55.39458918
  0
LWPOLYLINE
  5
2CC
100
AcDbEntity
  8
RACCORDO
100
AcDbPolyline
 62
250
  6
CONTINUOUS
 90
10
 70
0
 10
-1.6805815567
 20
-54.8928167689
 10
-1.644572279
 20
-54.9487268377
 10
-1.6072472618
 20
-55.0035146605
 10
-1.5686802154
 20
-55.0570720372
 10
-1.5289473016
 20
-55.1092931995
 10
-1.4881269878
 20
-55.1600750132
 10
-1.4462998925
 20
-55.2093171832
 10
-1.4035486198
 20
-55.2569224591
 10
-1.3599575957
 20
-55.3027968268
 10
-1.3156129063
 20
-55.3468496886
  0
LWPOLYLINE
  5
2CD
100
AcDbEntity
  8
RACCORDO
100
AcDbPolyline
 62
7
  6
CONTINUOUS
 90
10
 70
0
 10
-2.5254200701
 20
-54.8562876076
 10
-2.5378140823
 20
-54.8314237322
 10
-2.5502176985
 20
-54.8053167558
 10
-2.5626309187
 20
-54.7779666783
 10
-2.5753579618
 20
-54.749099948
 10
-2.5880946088
 20
-54.7189901167
 10
-2.5999282034
 20
-54.6884578394
 10
-2.6105545266
 20
-54.6577766679
 10
-2.6202777973
 20
-54.6266730505
 10
-2.6290980156
 20
-54.5951469871
  0
LWPOLYLINE
  5
2CE
100
AcDbEntity
  8
RACCORDO
100
AcDbPolyline
 62
250
  6
CONTINUOUS
 90
10
 70
0
 10
-2.3924187747
 20
54.9267801965
 10
-2.3963623151
 20
54.9151694461
 10
-2.4011811571
 20
54.9034630057
 10
-2.4067944275
 20
54.8918573413
 10
-2.4131079203
 20
54.8805472279
 10
-2.4200156781
 20
54.8697224801
 10
-2.4274017699
 20
54.8595647668
 10
-2.435142237
 20
54.8502445623
 10
-2.4431071734
 20
54.8419182853
 10
-2.4511629057
 20
54.8347256733
  0
LWPOLYLINE
  5
2CF
100
AcDbEntity
  8
RACCORDO
100
AcDbPolyline
 62
250
  6
CONTINUOUS
 90
10
 70
0
 10
-2.0310593209
 20
54.7189178312
 10
-2.0349435604
 20
54.708311375
 10
-2.0398316269
 20
54.6976537846
 10
-2.0455397103
 20
54.6870816869
 10
-2.0517328346
 20
54.6766989614
 10
-2.0583101845
 20
54.6666488655
 10
-2.0654340665
 20
54.6571344925
 10
-2.0730080639
 20
54.6483036244
 10
-2.0806626102
 20
54.6402242812
 10
-2.0881544885
 20
54.6329720688
  0
LINE
  5
2D0
100
AcDbEntity
  8
RACCORDO
100
AcDbLine
 62
250
  6
CONTINUOUS
 10
-0.6812529087
 20
52.3985971414
 11
-0.684477071
 21
52.3906406967
  0
LWPOLYLINE
  5
2D1
100
AcDbEntity
  8
RACCORDO
100
AcDbPolyline
 62
250
  6
CONTINUOUS
 90
31
 70
0
 10
-2.5639502681
 20
55.1086348769
 10
-2.5659257858
 20
55.1038328347
 10
-2.5675207457
 20
55.0989336904
 10
-2.5687296218
 20
55.0939389474
 10
-2.5695503244
 20
55.0888520245
 10
-2.5699743878
 20
55.0836737966
 10
-2.5699855696
 20
55.078401275
 10
-2.5695800643
 20
55.0730385455
 10
-2.5687490423
 20
55.0675857075
 10
-2.5674649903
 20
55.062031127
 10
-2.5657238517
 20
55.0563764547
 10
-2.563512204
 20
55.0506230382
 10
-2.5607822905
 20
55.0447549796
 10
-2.5575241734
 20
55.0387679252
 10
-2.5537226729
 20
55.0326683189
 10
-2.5493155779
 20
55.0264535094
 10
-2.5442861782
 20
55.0201200333
 10
-2.5386202618
 20
55.0136766552
 10
-2.5322551341
 20
55.0071386428
 10
-2.5251706406
 20
55.0005088035
 10
-2.5173542031
 20
54.9937974266
 10
-2.5087533001
 20
54.9870328205
 10
-2.4993494451
 20
54.9802268407
 10
-2.4891307165
 20
54.9733918236
 10
-2.4780551797
 20
54.9665597476
 10
-2.4661160611
 20
54.9597543464
 10
-2.4532948868
 20
54.9529888969
 10
-2.4395313697
 20
54.9462830278
 10
-2.4247965555
 20
54.9396605421
 10
-2.409095511
 20
54.9331495418
 10
-2.3924188137
 20
54.9267801845
  0
LWPOLYLINE
  5
2D2
100
AcDbEntity
  8
RACCORDO
100
AcDbPolyline
 62
7
  6
CONTINUOUS
 90
4
 70
0
 10
-0.1049958555
 20
52.0967999983
 10
-0.1012339992
 20
52.1050329727
 10
-0.0976892994
 20
52.1131292211
 10
-0.0941891904
 20
52.1209445785
  0
LWPOLYLINE
  5
2D3
100
AcDbEntity
  8
RACCORDO
100
AcDbPolyline
 62
7
  6
CONTINUOUS
 90
4
 70
0
 10
-0.0941891904
 20
52.1209445785
 10
-0.0906761501
 20
52.1284309897
 10
-0.0872077004
 20
52.1356365099
 10
-0.0837838415
 20
52.1425611391
  0
LINE
  5
2D4
100
AcDbEntity
  8
RACCORDO
100
AcDbLine
 62
7
  6
CONTINUOUS
 10
-0.1089773045
 20
52.0884289769
 11
-0.1049958555
 21
52.0967999983
  0
LWPOLYLINE
  5
2D5
100
AcDbEntity
  8
RACCORDO
100
AcDbPolyline
 62
7
  6
CONTINUOUS
 90
5
 70
0
 10
-2.6170717268
 20
55.0655122201
 10
-2.6123947518
 20
55.0752837454
 10
-2.6073188951
 20
55.0849385716
 10
-2.6019296514
 20
55.0945633705
 10
-2.5962270207
 20
55.1041581421
  0
LWPOLYLINE
  5
2D6
100
AcDbEntity
  8
RACCORDO
100
AcDbPolyline
 62
7
  6
CONTINUOUS
 90
5
 70
0
 10
-2.6800102032
 20
54.9317907161
 10
-2.6343556523
 20
55.0278592799
 10
-2.6300772776
 20
55.0368841974
 10
-2.6257420002
 20
55.0461391027
 10
-2.6170717268
 20
55.0655122201
  0
LWPOLYLINE
  5
2D7
100
AcDbEntity
  8
RACCORDO
100
AcDbPolyline
 62
7
  6
CONTINUOUS
 90
3
 70
0
 10
-0.1168350797
 20
52.0730571659
 10
-0.11317591
 20
52.0799212295
 10
-0.1089773045
 20
52.0884289769
  0
LWPOLYLINE
  5
2D8
100
AcDbEntity
  8
RACCORDO
100
AcDbPolyline
 62
7
  6
CONTINUOUS
 90
3
 70
0
 10
-0.1162619022
 20
52.0741661243
 10
-0.1200384424
 20
52.0674761821
 10
-0.1267614495
 20
52.056808467
  0
LWPOLYLINE
  5
2D9
100
AcDbEntity
  8
ASSI
100
AcDbPolyline
 62
7
  6
CONTINUOUS
 90
3
 70
0
 10
-7.4950346073
 20
21.5484191371
 10
-7.5361479441
 20
21.5033823062
 10
-7.5944575405
 20
21.4206206669
  0
LWPOLYLINE
  5
2DA
100
AcDbEntity
  8
ASSI
100
AcDbPolyline
 62
7
  6
CONTINUOUS
 90
3
 70
0
 10
-7.4976400329
 20
21.5476629093
 10
-7.5020889367
 20
21.543239266
 10
-7.5458693123
 20
21.4911425304
  0
LWPOLYLINE
  5
2DB
100
AcDbEntity
  8
ASSI
100
AcDbPolyline
 62
7
  6
CONTINUOUS
 90
18
 70
0
 10
-10.6292368201
 20
23.2978345172
 10
-10.7886942039
 20
23.2018007354
 10
-11.1298498152
 20
22.9675126836
 10
-11.4526858545
 20
22.7042311471
 10
-11.7573255016
 20
22.4121512997
 10
-12.0416957699
 20
22.0932546396
 10
-12.3056595223
 20
21.7473592301
 10
-12.5493538958
 20
21.374647008
 10
-12.771117315
 20
20.9776452815
 10
-12.970802167
 20
20.5561832797
 10
-13.1485560646
 20
20.1104317735
 10
-13.3031602716
 20
19.6434303842
 10
-13.4344550352
 20
19.1550569692
 10
-13.5426001081
 20
18.6454336711
 10
-13.6268560113
 20
18.1179665391
 10
-13.686976252
 20
17.5737909228
 10
-13.7232073231
 20
17.0117714726
 10
-13.7355492245
 20
16.4319081884
  0
LINE
  5
2DC
100
AcDbEntity
  8
0
100
AcDbLine
 62
7
  6
CONTINUOUS
 10
-8.8615429559
 20
24.3186475889
 11
-10.6293099088
 21
23.2979611056
  0
LINE
  5
2DD
100
AcDbEntity
  8
0
100
AcDbLine
 62
250
  6
CONTINUOUS
 10
35.5851487632
 20
49.5988924806
 11
34.5950899359
 21
49.027244922
  0
LWPOLYLINE
  5
2DE
100
AcDbEntity
  8
SMUSSO
100
AcDbPolyline
 62
7
  6
CONTINUOUS
 90
7
 70
0
 10
-7.689530941
 20
21.4728760477
 10
-7.6686094212
 20
21.484472488
 10
-7.5812298919
 20
21.5234008563
 10
-7.4879109334
 20
21.5504867917
 10
-7.3892636814
 20
21.5655564213
 10
-7.2859241566
 20
21.5685159046
 10
-7.2495751552
 20
21.5654117629
  0
LWPOLYLINE
  5
2DF
100
AcDbEntity
  8
RACCORDO
100
AcDbPolyline
 62
250
  6
CONTINUOUS
 90
16
 70
0
 10
4.7068792776
 20
-26.3315778139
 10
4.7453174782
 20
-26.3448595767
 10
4.7872081467
 20
-26.3557592508
 10
4.8320923202
 20
-26.3641574171
 10
4.8794782384
 20
-26.3699620635
 10
4.9288467312
 20
-26.3731095931
 10
4.9796569071
 20
-26.3735655209
 10
5.0313520791
 20
-26.3713248517
 10
5.0833658641
 20
-26.3664121346
 10
5.1351283882
 20
-26.3588811945
 10
5.1860725304
 20
-26.3488145419
 10
5.235640136
 20
-26.3363224692
 10
5.2832881318
 20
-26.321541842
 10
5.3284944766
 20
-26.3046346002
 10
5.3707638801
 20
-26.2857859829
 10
5.4096332299
 20
-26.2652024995
  0
LWPOLYLINE
  5
2E0
100
AcDbEntity
  8
RACCORDO
100
AcDbPolyline
 62
250
  6
CONTINUOUS
 90
8
 70
0
 10
-10.25766751
 20
-17.6912360485
 10
-10.2922321056
 20
-17.6623669118
 10
-10.3225443993
 20
-17.6315775005
 10
-10.3482722833
 20
-17.5992051498
 10
-10.3691338775
 20
-17.5656045379
 10
-10.384900618
 20
-17.5311438002
 10
-10.395399761
 20
-17.4962004957
 10
-10.4005162757
 20
-17.4611574706
  0
LWPOLYLINE
  5
2E1
100
AcDbEntity
  8
RACCORDO
100
AcDbPolyline
 62
250
  6
CONTINUOUS
 90
19
 70
0
 10
-9.5784973383
 20
-19.423411555
 10
-8.8484835746
 20
-20.1383059658
 10
-8.1110244808
 20
-20.8234830122
 10
-7.3661200572
 20
-21.4789426941
 10
-6.6124721408
 20
-22.1057237349
 10
-5.8513788946
 20
-22.7027874111
 10
-5.0867348066
 20
-23.2670175532
 10
-4.3186544268
 20
-23.7981370718
 10
-3.5470232053
 20
-24.2964230562
 10
-2.775391981
 20
-24.7595906051
 10
-2.0037608168
 20
-25.1874832401
 10
-1.2321296498
 20
-25.5802574396
 10
-0.4640491308
 20
-25.9360977372
 10
0.300595707
 20
-26.2548594228
 10
1.0616898968
 20
-26.5366872065
 10
1.8153378868
 20
-26.7801997526
 10
2.5602411597
 20
-26.984936616
 10
3.2976982328
 20
-27.1513582418
 10
4.027709106
 20
-27.2794646301
  0
LWPOLYLINE
  5
2E2
100
AcDbEntity
  8
RACCORDO
100
AcDbPolyline
 62
7
  6
CONTINUOUS
 90
19
 70
0
 10
-9.5793963819
 20
-19.5719263134
 10
-8.8400499685
 20
-20.2960223021
 10
-8.0907643983
 20
-20.9920632165
 10
-7.3326577404
 20
-21.6589727653
 10
-6.5668622463
 20
-22.2957140235
 10
-5.7945216242
 20
-22.9012921224
 10
-5.0167806822
 20
-23.4747619798
 10
-4.2347712166
 20
-24.0152360609
 10
-3.4496767195
 20
-24.5218396279
 10
-2.6627121949
 20
-24.9937330603
 10
-1.8750069473
 20
-25.4301804989
 10
-1.0877568066
 20
-25.8304560016
 10
-0.3022572401
 20
-26.1938441884
 10
0.4803878178
 20
-26.5197782578
 10
1.2589790719
 20
-26.8076970845
 10
2.0321105085
 20
-27.0570354487
 10
2.7985709616
 20
-27.2673763456
 10
3.5573245884
 20
-27.4384031316
 10
4.3072520213
 20
-27.5698194462
  0
LWPOLYLINE
  5
2E3
100
AcDbEntity
  8
RACCORDO
100
AcDbPolyline
 62
7
  6
CONTINUOUS
 90
5
 70
0
 10
-0.1723333993
 20
-54.3986356002
 10
-0.1827804303
 20
-54.3770645676
 10
-0.1876931643
 20
-54.3666634374
 10
-0.1924193874
 20
-54.3565325287
 10
-0.1969590996
 20
-54.3466718416
  0
LINE
  5
2E4
100
AcDbEntity
  8
RACCORDO
100
AcDbLine
 62
7
  6
CONTINUOUS
 10
-1.2876434785
 20
-53.0205583908
 11
-1.2825311836
 21
-53.0312030785
  0
LWPOLYLINE
  5
2E5
100
AcDbEntity
  8
RACCORDO
100
AcDbPolyline
 62
250
  6
CONTINUOUS
 90
10
 70
0
 10
-2.031059321
 20
-53.4633938438
 10
-2.027230462
 20
-53.4719704806
 10
-2.0239414888
 20
-53.4806262098
 10
-2.0212221119
 20
-53.4892830319
 10
-2.0190966897
 20
-53.4978639713
 10
-2.0175848321
 20
-53.5062905811
 10
-2.0167004596
 20
-53.5144838792
 10
-2.0164509133
 20
-53.5223693508
 10
-2.0168376682
 20
-53.5298773675
 10
-2.0178566217
 20
-53.5369407845
  0
LWPOLYLINE
  5
2E6
100
AcDbEntity
  8
RACCORDO
100
AcDbPolyline
 62
7
  6
CONTINUOUS
 90
5
 70
0
 10
-1.2825311836
 20
-53.0312030785
 10
-1.2786623612
 20
-53.0399074454
 10
-1.27538388
 20
-53.0485350811
 10
-1.27269574
 20
-53.0570859857
 10
-1.2705844441
 20
-53.0656353457
  0
LWPOLYLINE
  5
2E7
100
AcDbEntity
  8
RACCORDO
100
AcDbPolyline
 62
7
  6
CONTINUOUS
 90
8
 70
0
 10
-0.1335523746
 20
-54.4850285884
 10
-0.1391069165
 20
-54.4715346021
 10
-0.1446643609
 20
-54.4584289235
 10
-0.1502247077
 20
-54.4457115528
 10
-0.1558200796
 20
-54.4334009058
 10
-0.161418354
 20
-54.4214785665
 10
-0.166923163
 20
-54.4098892878
 10
-0.1723333993
 20
-54.3986356002
  0
LWPOLYLINE
  5
2E8
100
AcDbEntity
  8
0
100
AcDbPolyline
 62
7
  6
CONTINUOUS
 90
46
 70
0
 10
-13.7355492245
 20
16.4319081884
 10
-13.7206825245
 20
15.7794622356
 10
-13.6771542352
 20
15.1157090921
 10
-13.6049643568
 20
14.4406487578
 10
-13.5037585512
 20
13.7523724477
 10
-13.3738911564
 20
13.0527889468
 10
-13.2164251862
 20
12.3476246109
 10
-13.0311341177
 20
11.6368336337
 10
-12.8182444738
 20
10.9204618215
 10
-12.5794988368
 20
10.2043729485
 10
-12.3146849865
 20
9.4885693371
 10
-12.024015143
 20
8.773048665
 10
-11.709868549
 20
8.0636677396
 10
-11.3720525127
 20
7.3604769546
 10
-11.0107597259
 20
6.6634259162
 10
-10.6289475068
 20
5.9782202511
 10
-10.2264474364
 20
5.3049571833
 10
-9.8034279337
 20
4.6435394886
 10
-9.3633515734
 20
3.9993811213
 10
-8.9060783566
 20
3.3726237418
 10
-8.4317482821
 20
2.7631256897
 10
-7.9442439212
 20
2.1758759369
 10
-7.4434571421
 20
1.6110570926
 10
-6.9294960765
 20
1.0684865478
 10
-6.4065676901
 20
0.5526054476
 10
-5.8745983813
 20
0.0636328529
 10
-5.3336617517
 20
-0.3986502971
 10
-4.7881855724
 20
-0.83046004
 10
-4.2381325837
 20
-1.2315462569
 10
-3.6835400452
 20
-1.6021590668
 10
-3.1289475068
 20
-1.9392648634
 10
-2.5743549683
 20
-2.2425886288
 10
-2.0197624298
 20
-2.5124053811
 10
-1.4697094411
 20
-2.7465065679
 10
-0.9242332618
 20
-2.9445990441
 10
-0.3832966322
 20
-3.1069759548
 10
0.1486726766
 20
-3.2323081837
 10
0.671601063
 20
-3.3202916764
 10
1.1855621286
 20
-3.3712304872
 10
1.6863489077
 20
-3.3847076627
 10
2.1738532686
 20
-3.3604157264
 10
2.6481833431
 20
-3.2986621547
 10
3.1054565599
 20
-3.1999524241
 10
3.5455329202
 20
-3.0639832067
 10
3.9685524229
 20
-2.8910578304
 10
4.3714148952
 20
-2.6823825283
  0
LINE
  5
2E9
100
AcDbEntity
  8
RACCORDO
100
AcDbLine
 62
250
  6
CONTINUOUS
 10
-1.3189351362
 20
52.5603527614
 11
-1.3430239847
 21
52.459913825
  0
LWPOLYLINE
  5
2EA
100
AcDbEntity
  8
RACCORDO
100
AcDbPolyline
 62
250
  6
CONTINUOUS
 90
3
 70
0
 10
-1.3721986116
 20
52.7877224951
 10
-1.4088309308
 20
52.6364608253
 10
-1.4213823144
 20
52.5862994442
  0
LWPOLYLINE
  5
2EB
100
AcDbEntity
  8
RACCORDO
100
AcDbPolyline
 62
250
  6
CONTINUOUS
 90
3
 70
0
 10
-1.3430239847
 20
52.459913825
 10
-1.3670459781
 20
52.3626361465
 10
-1.3790744597
 20
52.3150644382
  0
LWPOLYLINE
  5
2EC
100
AcDbEntity
  8
RACCORDO
100
AcDbPolyline
 62
250
  6
CONTINUOUS
 90
22
 70
0
 10
-1.4846238455
 20
52.3436418835
 10
-1.4898949267
 20
52.3225000879
 10
-1.4944365927
 20
52.3017973607
 10
-1.4982507469
 20
52.2815393298
 10
-1.5013166791
 20
52.2616668808
 10
-1.5036589842
 20
52.2422513339
 10
-1.5053519037
 20
52.2234947577
 10
-1.5063908013
 20
52.20546633
 10
-1.5067947801
 20
52.1881109444
 10
-1.5066785948
 20
52.1714436482
 10
-1.5060566916
 20
52.1555050535
 10
-1.5049306257
 20
52.1402661577
 10
-1.5033956952
 20
52.125635555
 10
-1.5014690003
 20
52.1116188494
 10
-1.4991469026
 20
52.098219193
 10
-1.4964915334
 20
52.0853397531
 10
-1.4935123298
 20
52.0729692339
 10
-1.4902106604
 20
52.0611257868
 10
-1.4866348703
 20
52.0497555393
 10
-1.4828039957
 20
52.0388421218
 10
-1.4787083702
 20
52.0284071732
 10
-1.4743526554
 20
52.0184532377
  0
LINE
  5
2ED
100
AcDbEntity
  8
RACCORDO
100
AcDbLine
 62
250
  6
CONTINUOUS
 10
0.0308305456
 20
52.9104563799
 11
0.0314788058
 21
52.9130115443
  0
LWPOLYLINE
  5
2EE
100
AcDbEntity
  8
RACCORDO
100
AcDbPolyline
 62
250
  6
CONTINUOUS
 90
4
 70
0
 10
-1.4213823144
 20
52.5862994442
 10
-1.4593486208
 20
52.4385626861
 10
-1.4719361187
 20
52.3907464524
 10
-1.4846238455
 20
52.3436418835
  0
LWPOLYLINE
  5
2EF
100
AcDbEntity
  8
RACCORDO
100
AcDbPolyline
 62
7
  6
CONTINUOUS
 90
4
 70
0
 10
0.0181548887
 20
52.4239806234
 10
-0.0083735091
 20
52.3236356631
 10
-0.0423530858
 20
52.2298291683
 10
-0.0837838415
 20
52.1425611391
  0
LWPOLYLINE
  5
2F0
100
AcDbEntity
  8
RACCORDO
100
AcDbPolyline
 62
250
  6
CONTINUOUS
 90
7
 70
0
 10
-0.0680813237
 20
52.1941723646
 10
-0.0629639915
 20
52.2132025228
 10
-0.0579194708
 20
52.2331218289
 10
-0.0529872388
 20
52.2538836823
 10
-0.048170078
 20
52.2754719157
 10
-0.0434695734
 20
52.2978731726
 10
-0.038918204
 20
52.3210419982
  0
LWPOLYLINE
  5
2F1
100
AcDbEntity
  8
RACCORDO
100
AcDbPolyline
 62
250
  6
CONTINUOUS
 90
4
 70
0
 10
-0.0837778474
 20
52.1425722636
 10
-0.078487732
 20
52.1588503735
 10
-0.0732536938
 20
52.1760544528
 10
-0.0680813237
 20
52.1941723646
  0
LWPOLYLINE
  5
2F2
100
AcDbEntity
  8
RACCORDO
100
AcDbPolyline
 62
250
  6
CONTINUOUS
 90
34
 70
0
 10
-1.3790744597
 20
52.3150644382
 10
-1.3860167841
 20
52.2956840329
 10
-1.3921118651
 20
52.276750988
 10
-1.3973874974
 20
52.2582935652
 10
-1.4018760574
 20
52.2402800037
 10
-1.4055973685
 20
52.2227919011
 10
-1.4085713098
 20
52.2060215257
 10
-1.4108145267
 20
52.1900605696
 10
-1.4123843272
 20
52.1748431342
 10
-1.4133688056
 20
52.1603181907
 10
-1.4137998441
 20
52.1465140492
 10
-1.4137036558
 20
52.1334117631
 10
-1.413151237
 20
52.1208896027
 10
-1.4121676031
 20
52.108935501
 10
-1.4107672611
 20
52.0975659772
 10
-1.4089970188
 20
52.0867055346
 10
-1.4068733913
 20
52.0763447738
 10
-1.404409397
 20
52.0664944091
 10
-1.4016422477
 20
52.0571112723
 10
-1.398586881
 20
52.0481951547
 10
-1.3952520906
 20
52.0397442486
 10
-1.3916631508
 20
52.0317149218
 10
-1.3878328251
 20
52.024105556
 10
-1.3837669906
 20
52.016915131
 10
-1.3794783101
 20
52.0101039338
 10
-1.3749760413
 20
52.0036685802
 10
-1.370265695
 20
51.9976111164
 10
-1.3653527085
 20
51.9919033157
 10
-1.360245061
 20
51.9865435328
 10
-1.3549471214
 20
51.9815335013
 10
-1.3494579634
 20
51.9768532068
 10
-1.3437808278
 20
51.9724973882
 10
-1.3379233581
 20
51.9684735774
 10
-1.3318908275
 20
51.9647823408
  0
LWPOLYLINE
  5
2F3
100
AcDbEntity
  8
ASSI
100
AcDbPolyline
 62
7
  6
CONTINUOUS
 90
7
 70
0
 10
-7.6218033322
 20
21.3729707052
 10
-7.6539569766
 20
21.3068956155
 10
-7.6819552821
 20
21.2367741239
 10
-7.7057604665
 20
21.1625694384
 10
-7.725410312
 20
21.0843183509
 10
-7.7407266931
 20
21.0027302066
 10
-7.7516502344
 20
20.9180414541
  0
LWPOLYLINE
  5
2F4
100
AcDbEntity
  8
ASSI
100
AcDbPolyline
 62
7
  6
CONTINUOUS
 90
7
 70
0
 10
-7.5944575405
 20
21.4206206669
 10
-7.6443183462
 20
21.3278607157
 10
-7.6858909219
 20
21.2252924604
 10
-7.7183750857
 20
21.1148901174
 10
-7.7415041103
 20
20.997311759
 10
-7.7555447229
 20
20.8718993128
 10
-7.7604969235
 20
20.738652779
  0
LINE
  5
2F5
100
AcDbEntity
  8
SMUSSO
100
AcDbLine
 62
7
  6
CONTINUOUS
 10
-5.3391551033
 20
18.2562012184
 11
-5.3809373155
 21
18.1786454188
  0
LINE
  5
2F6
100
AcDbEntity
  8
ASSI
100
AcDbLine
 62
7
  6
CONTINUOUS
 10
-7.5857858215
 20
21.4344004228
 11
-7.6218033322
 21
21.3729707052
  0
LWPOLYLINE
  5
2F7
100
AcDbEntity
  8
ASSI
100
AcDbPolyline
 62
7
  6
CONTINUOUS
 90
37
 70
0
 10
-5.1980725426
 20
21.3512960413
 10
-5.1833196264
 20
21.3729095464
 10
-5.1211973328
 20
21.4511990867
 10
-5.0522986425
 20
21.5193362243
 10
-4.9765102899
 20
21.5771512647
 10
-4.8939455405
 20
21.6248139023
 10
-4.8059767951
 20
21.6615318835
 10
-4.7125137273
 20
21.6871222713
 10
-4.6136466635
 20
21.7017680027
 10
-4.5110189831
 20
21.7052256345
 10
-4.4045678287
 20
21.6973081609
 10
-4.2943560577
 20
21.6782025878
 10
-4.1822156229
 20
21.6482264902
 10
-4.0681142872
 20
21.6071981703
 10
-3.9520842876
 20
21.555299326
 10
-3.8360542879
 20
21.4933926256
 10
-3.7200242883
 20
21.4213107908
 10
-3.6039942887
 20
21.3392211
 10
-3.489892953
 20
21.2484880574
 10
-3.3777525182
 20
21.1489671918
 10
-3.2675407472
 20
21.0408029744
 10
-3.1610895927
 20
20.9257933231
 10
-3.0584619124
 20
20.8038238185
 10
-2.9595948486
 20
20.67500888
 10
-2.8661317808
 20
20.5414896842
 10
-2.7781630353
 20
20.4031876008
 10
-2.695598286
 20
20.2601812602
 10
-2.6198099333
 20
20.1148477299
 10
-2.550911243
 20
19.9671481117
 10
-2.4887889495
 20
19.8171213039
 10
-2.4344756564
 20
19.6672610692
 10
-2.3881018893
 20
19.5175701919
 10
-2.3495371227
 20
19.3680458876
 10
-2.3194223846
 20
19.2211735664
 10
-2.297971351
 20
19.0777816983
 10
-2.2849703459
 20
18.9370418133
 10
-2.2804193693
 20
18.7989539114
  0
LWPOLYLINE
  5
2F8
100
AcDbEntity
  8
SMUSSO
100
AcDbPolyline
 62
7
  6
CONTINUOUS
 90
5
 70
0
 10
-5.3809373155
 20
18.1786454188
 10
-5.4393143249
 20
18.0955973838
 10
-5.505640923
 20
18.0229412059
 10
-5.5794813816
 20
17.9611529759
 10
-5.6394318844
 20
17.9222290843
  0
LWPOLYLINE
  5
2F9
100
AcDbEntity
  8
ASSI
100
AcDbPolyline
 62
7
  6
CONTINUOUS
 90
29
 70
0
 10
-4.8789970554
 20
13.5020627441
 10
-4.955841604
 20
13.4536982854
 10
-5.0666694386
 20
13.3674116062
 10
-5.1687810714
 20
13.2668947241
 10
-5.2607219036
 20
13.1535795207
 10
-5.342346359
 20
13.0272828115
 10
-5.4138000136
 20
12.8881877809
 10
-5.4740649972
 20
12.7382758631
 10
-5.5229811646
 20
12.5773922343
 10
-5.5607086609
 20
12.4056917184
 10
-5.586710051
 20
12.2256202206
 10
-5.6008174974
 20
12.0370579258
 10
-5.6031988376
 20
11.8401246491
 10
-5.5938201491
 20
11.6376257411
 10
-5.5725131086
 20
11.4294815402
 10
-5.5394460394
 20
11.2157717081
 10
-5.4950899878
 20
10.9995405804
 10
-5.4392833729
 20
10.7807520696
 10
-5.3721877757
 20
10.5594422632
 10
-5.2947589853
 20
10.3387637601
 10
-5.206849101
 20
10.1187255962
 10
-5.1086060235
 20
9.8993187355
 10
-5.0014292433
 20
9.6836686691
 10
-4.8851908912
 20
9.4718291684
 10
-4.7600188364
 20
9.2637464619
 10
-4.6276961778
 20
9.0623847259
 10
-4.4888172818
 20
8.8687320192
 10
-4.342787782
 20
8.681800283
 10
-4.1896076785
 20
8.5015895174
  0
LINE
  5
2FA
100
AcDbEntity
  8
RACCORDO
100
AcDbLine
 62
250
  6
CONTINUOUS
 10
40.2874088581
 20
43.6991983512
 11
42.0551758111
 21
44.7198848345
  0
LINE
  5
2FB
100
AcDbEntity
  8
RACCORDO
100
AcDbLine
 62
250
  6
CONTINUOUS
 10
40.9945156393
 20
42.4744534811
 11
42.7622825923
 21
43.4951399644
  0
LWPOLYLINE
  5
2FC
100
AcDbEntity
  8
SMUSSO
100
AcDbPolyline
 62
7
  6
CONTINUOUS
 90
31
 70
0
 10
-5.6394318844
 20
17.9222290843
 10
-5.6603534041
 20
17.9106326441
 10
-5.7477329335
 20
17.8717042758
 10
-5.841051892
 20
17.8446183404
 10
-5.939699144
 20
17.8295487108
 10
-6.0430386687
 20
17.8265892274
 10
-6.1504155296
 20
17.8357590253
 10
-6.2611416358
 20
17.8570033809
 10
-6.3744929094
 20
17.8901872868
 10
-6.4897292025
 20
17.9350960308
 10
-6.6061040268
 20
17.9914399783
 10
-6.7228616642
 20
18.0588545081
 10
-6.839236586
 20
18.1368976292
 10
-6.954473105
 20
18.2250613347
 10
-7.0678246874
 20
18.3227732347
 10
-7.1785510714
 20
18.429393255
 10
-7.2859282206
 20
18.5442203043
 10
-7.3892679838
 20
18.6665144597
 10
-7.4879151938
 20
18.7954999663
 10
-7.5812337116
 20
18.9303482468
 10
-7.6686126122
 20
19.0701798802
 10
-7.7494840737
 20
19.2140887614
 10
-7.8233241166
 20
19.3611458367
 10
-7.8896503463
 20
19.5103940632
 10
-7.948026992
 20
19.6608540858
 10
-7.9980760018
 20
19.8115506492
 10
-8.039472721
 20
19.9615052166
 10
-8.0719464152
 20
20.1097313056
 10
-8.0952888496
 20
20.2552637806
 10
-8.1093528506
 20
20.3971646885
 10
-8.1140503141
 20
20.5345154823
  0
LWPOLYLINE
  5
2FD
100
AcDbEntity
  8
ASSI
100
AcDbPolyline
 62
7
  6
CONTINUOUS
 90
8
 70
0
 10
0.7276517594
 20
-16.9085254652
 10
0.8742513318
 20
-16.8906773973
 10
1.0197014884
 20
-16.8630517702
 10
1.1612345232
 20
-16.8260374064
 10
1.2981077175
 20
-16.779828545
 10
1.4302965751
 20
-16.7243768519
 10
1.5578255922
 20
-16.6597306611
 10
1.5889523167
 20
-16.6421428012
  0
LWPOLYLINE
  5
2FE
100
AcDbEntity
  8
0
100
AcDbPolyline
 62
7
  6
CONTINUOUS
 90
6
 70
0
 10
0.1810376525
 20
-17.2241335998
 10
0.3368222104
 20
-17.2464566081
 10
0.600869477
 20
-17.2606353219
 10
0.8576663776
 20
-17.2504166168
 10
1.1039373782
 20
-17.2159308358
 10
1.339547644
 20
-17.1568671224
  0
LWPOLYLINE
  5
2FF
100
AcDbEntity
  8
RACCORDO
100
AcDbPolyline
 62
250
  6
CONTINUOUS
 90
16
 70
0
 10
3.2308555445
 20
-14.7187472607
 10
3.2692937451
 20
-14.7320290236
 10
3.3111844136
 20
-14.7429286977
 10
3.3560685871
 20
-14.751326864
 10
3.4034545053
 20
-14.7571315104
 10
3.4528229981
 20
-14.76027904
 10
3.5036331739
 20
-14.7607349678
 10
3.5553283459
 20
-14.7584942985
 10
3.6073421309
 20
-14.7535815815
 10
3.659104655
 20
-14.7460506414
 10
3.7100487972
 20
-14.7359839888
 10
3.7596164028
 20
-14.723491916
 10
3.8072643987
 20
-14.7087112889
 10
3.8524707434
 20
-14.6918040471
 10
3.894740147
 20
-14.6729554298
 10
3.9336094968
 20
-14.6523719464
  0
LWPOLYLINE
  5
300
100
AcDbEntity
  8
SMUSSO
100
AcDbPolyline
 62
7
  6
CONTINUOUS
 90
45
 70
0
 10
-3.5912148817
 20
-17.5023965016
 10
-3.3463935268
 20
-17.6164231426
 10
-3.1045786342
 20
-17.7109023427
 10
-2.8658040606
 20
-17.7855942437
 10
-2.6300359493
 20
-17.8407387038
 10
-2.4001775581
 20
-17.87565487
 10
-2.1763029132
 20
-17.8900921953
 10
-1.9583379883
 20
-17.8843012266
 10
-1.7489639633
 20
-17.8583527518
 10
-1.5482870073
 20
-17.8119977327
 10
-1.356200951
 20
-17.7454852073
 10
-1.175068466
 20
-17.659633078
 10
-1.0050248545
 20
-17.5542024176
 10
-0.8459348143
 20
-17.4294321531
 10
-0.6997551097
 20
-17.2868569684
 10
-0.5666452458
 20
-17.1262569081
 10
-0.4464457176
 20
-16.9478519275
 10
-0.3406347747
 20
-16.7538365758
 10
-0.2493901857
 20
-16.5440180266
 10
-0.172534182
 20
-16.3185891062
 10
-0.1110117084
 20
-16.0803228434
 10
-0.0650122037
 20
-15.829060697
 10
-0.0343462289
 20
-15.5649612081
 10
-0.0193904121
 20
-15.2912730284
 10
-0.0203388313
 20
-15.0078777816
 10
-0.0369974084
 20
-14.714893844
 10
-0.0691605365
 20
-14.4159249965
 10
-0.1170197318
 20
-14.1108974142
 10
-0.1803834782
 20
-13.7998849221
 10
-0.2584716211
 20
-13.4867127756
 10
-0.3514660079
 20
-13.1713544358
 10
-0.4591847912
 20
-12.8538364417
 10
-0.580302274
 20
-12.5380636657
 10
-0.7149838935
 20
-12.2240578234
 10
-0.8630642125
 20
-11.9117971992
 10
-1.0227212228
 20
-11.6051215193
 10
-1.1940977925
 20
-11.3040999699
 10
-1.3770510535
 20
-11.0086633648
 10
-1.5693303932
 20
-10.7224438706
 10
-1.7711281832
 20
-10.4454880109
 10
-1.9822520519
 20
-10.1777492622
 10
-2.1998742718
 20
-9.9227202198
 10
-2.4230522671
 20
-9.6815650823
 10
-2.6527286136
 20
-9.4531196511
 10
-2.8889033113
 20
-9.2373839263
  0
LINE
  5
301
100
AcDbEntity
  8
SMUSSO
100
AcDbLine
 62
7
  6
CONTINUOUS
 10
-3.835669929
 20
-17.3704352711
 11
-3.5912148817
 21
-17.5023965016
  0
LWPOLYLINE
  5
302
100
AcDbEntity
  8
ASSI
100
AcDbPolyline
 62
7
  6
CONTINUOUS
 90
7
 70
0
 10
-0.4257941486
 20
-55.3168351327
 10
-0.4097257775
 20
-55.3614639627
 10
-0.3903205411
 20
-55.403508225
 10
-0.3675784396
 20
-55.4429679198
 10
-0.3407869987
 20
-55.4806735908
 10
-0.3106586926
 20
-55.5157946942
 10
-0.299162633
 20
-55.52682
  0
LWPOLYLINE
  5
303
100
AcDbEntity
  8
RACCORDO
100
AcDbPolyline
 62
250
  6
CONTINUOUS
 90
22
 70
0
 10
-2.6385772196
 20
-53.1632475174
 10
-2.6362102819
 20
-53.1706547601
 10
-2.633306358
 20
-53.1782429995
 10
-2.629862675
 20
-53.1860089016
 10
-2.6259004729
 20
-53.1939472337
 10
-2.6213930144
 20
-53.2020563463
 10
-2.6162655625
 20
-53.2103375092
 10
-2.6105150382
 20
-53.2187920808
 10
-2.604139026
 20
-53.2274097964
 10
-2.5970642027
 20
-53.236173034
 10
-2.5892859992
 20
-53.2450814225
 10
-2.5808045473
 20
-53.2541243949
 10
-2.57155482
 20
-53.2632676157
 10
-2.5615345634
 20
-53.2725076438
 10
-2.5507435667
 20
-53.2818354341
 10
-2.5391217422
 20
-53.2912071626
 10
-2.5266749213
 20
-53.3006159155
 10
-2.5133973109
 20
-53.3100554976
 10
-2.4992135052
 20
-53.3194824721
 10
-2.4840996543
 20
-53.3288779212
 10
-2.4680823409
 20
-53.3382478881
 10
-2.4511629188
 20
-53.3475863732
  0
LWPOLYLINE
  5
304
100
AcDbEntity
  8
RACCORDO
100
AcDbPolyline
 62
7
  6
CONTINUOUS
 90
3
 70
0
 10
-2.6353412836
 20
-54.5746585072
 10
-2.6364066031
 20
-54.5713140924
 10
-2.6385619064
 20
-54.5646923684
  0
LWPOLYLINE
  5
305
100
AcDbEntity
  8
RACCORDO
100
AcDbPolyline
 62
7
  6
CONTINUOUS
 90
4
 70
0
 10
-0.0837864597
 20
-54.6383448646
 10
-0.0872228275
 20
-54.6274279061
 10
-0.0906993709
 20
-54.6161919002
 10
-0.0942160901
 20
-54.6046368468
  0
LINE
  5
306
100
AcDbEntity
  8
RACCORDO
100
AcDbLine
 62
7
  6
CONTINUOUS
 10
-2.6332370869
 20
-54.5814179788
 11
-2.6353412836
 21
-54.5746585072
  0
LWPOLYLINE
  5
307
100
AcDbEntity
  8
RACCORDO
100
AcDbPolyline
 62
7
  6
CONTINUOUS
 90
12
 70
0
 10
-2.6385619064
 20
-54.5646923684
 10
-2.6799962457
 20
-54.4295774792
 10
-2.7139789966
 20
-54.2965274262
 10
-2.7405101591
 20
-54.1655422093
 10
-2.7596895002
 20
-54.0358183824
 10
-2.771417253
 20
-53.9081593916
 10
-2.775394116
 20
-53.7849755758
 10
-2.771420725
 20
-53.6663824072
 10
-2.7596964441
 20
-53.5522644136
 10
-2.7405200646
 20
-53.4446855164
 10
-2.7139911832
 20
-53.3443336894
 10
-2.6800102032
 20
-53.250520959
  0
LWPOLYLINE
  5
308
100
AcDbEntity
  8
RACCORDO
100
AcDbPolyline
 62
7
  6
CONTINUOUS
 90
7
 70
0
 10
-0.0837864597
 20
-54.6383448646
 10
-0.0423508742
 20
-54.7734768746
 10
-0.0083682249
 20
-54.9065374481
 10
0.0181614879
 20
-55.0375265852
 10
0.0373372724
 20
-55.1672454039
 10
0.0490601205
 20
-55.2948927862
 10
0.0530330086
 20
-55.4180482658
  0
LINE
  5
309
100
AcDbEntity
  8
RACCORDO
100
AcDbLine
 62
7
  6
CONTINUOUS
 10
-2.6311568865
 20
-54.5882492405
 11
-2.6332370869
 21
-54.5814179788
  0
LINE
  5
30A
100
AcDbEntity
  8
RACCORDO
100
AcDbLine
 62
7
  6
CONTINUOUS
 10
-0.5242416249
 20
-54.9855602255
 11
-0.4257941486
 21
-55.3168351327
  0
LINE
  5
30B
100
AcDbEntity
  8
RACCORDO
100
AcDbLine
 62
7
  6
CONTINUOUS
 10
-2.6290980156
 20
-54.5951469871
 11
-2.6311568865
 21
-54.5882492405
  0
LWPOLYLINE
  5
30C
100
AcDbEntity
  8
RACCORDO
100
AcDbPolyline
 62
7
  6
CONTINUOUS
 90
9
 70
0
 10
-0.0942160901
 20
-54.6046368468
 10
-0.1012590508
 20
-54.5805934522
 10
-0.1050073021
 20
-54.5680574021
 10
-0.1089665459
 20
-54.5551653198
 10
-0.1131324728
 20
-54.5419184084
 10
-0.1176586612
 20
-54.5282844968
 10
-0.1225963041
 20
-54.514252861
 10
-0.1278942086
 20
-54.4998342249
 10
-0.1335523746
 20
-54.4850285884
  0
LWPOLYLINE
  5
30D
100
AcDbEntity
  8
RACCORDO
100
AcDbPolyline
 62
250
  6
CONTINUOUS
 90
5
 70
0
 10
-2.2004332406
 20
-53.0002358754
 10
-2.2004931475
 20
-52.9999586949
 10
-2.2004253816
 20
-52.9981713215
 10
-2.2001357406
 20
-52.9947551053
 10
-2.1996290881
 20
-52.9897673998
  0
LWPOLYLINE
  5
30E
100
AcDbEntity
  8
ASSI
100
AcDbPolyline
 62
7
  6
CONTINUOUS
 90
6
 70
0
 10
-7.7582403112
 20
20.6446840338
 10
-7.7516502344
 20
20.549048169
 10
-7.7407266931
 20
20.4517451848
 10
-7.725410312
 20
20.3524700677
 10
-7.7057604665
 20
20.2515278311
 10
-7.6819552821
 20
20.1498335153
  0
LWPOLYLINE
  5
30F
100
AcDbEntity
  8
ASSI
100
AcDbPolyline
 62
7
  6
CONTINUOUS
 90
29
 70
0
 10
-7.7604969235
 20
20.738652779
 10
-7.7555447229
 20
20.599687568
 10
-7.7415041103
 20
20.4580613744
 10
-7.7183750857
 20
20.3137741981
 10
-7.6858909219
 20
20.1658599571
 10
-7.6443183462
 20
20.0152847334
 10
-7.5944575405
 20
19.8649467735
 10
-7.5361479441
 20
19.7148506739
 10
-7.4695501177
 20
19.5649918381
 10
-7.395945925
 20
19.4182547237
 10
-7.3151996379
 20
19.2746998052
 10
-7.2274469844
 20
19.1342666081
 10
-7.134377013
 20
18.999658167
 10
-7.0358867157
 20
18.8709873196
 10
-6.9320791005
 20
18.7481412282
 10
-6.8249522386
 20
18.6334844136
 10
-6.7144418294
 20
18.5271755194
 10
-6.6006121736
 20
18.429055902
 10
-6.4856542453
 20
18.3410141512
 10
-6.3695461873
 20
18.2632454967
 10
-6.2523098568
 20
18.1955547088
 10
-6.1362017989
 20
18.1392446884
 10
-6.0212438706
 20
18.094535905
 10
-5.9074142148
 20
18.0612078892
 10
-5.7969038055
 20
18.0399021328
 10
-5.6897769437
 20
18.0308515326
 10
-5.5859693285
 20
18.033823192
 10
-5.4874790312
 20
18.0487599128
 10
-5.4801103496
 20
18.0509081744
  0
LINE
  5
310
100
AcDbEntity
  8
ASSI
100
AcDbLine
 62
7
  6
CONTINUOUS
 10
-7.7604969235
 20
20.738652779
 11
-7.7582403112
 21
20.6446840338
  0
LWPOLYLINE
  5
311
100
AcDbEntity
  8
ASSI
100
AcDbPolyline
 62
7
  6
CONTINUOUS
 90
49
 70
0
 10
-7.0941867774
 20
26.4771845429
 10
-7.0807297402
 20
25.8564411804
 10
-7.0412407477
 20
25.2251978294
 10
-6.9757197996
 20
24.5834544899
 10
-6.883875046
 20
23.9295662074
 10
-6.7659983369
 20
23.2651779365
 10
-6.6229652229
 20
22.5952245406
 10
-6.4545883864
 20
21.9196645811
 10
-6.261055145
 20
21.2385394967
 10
-6.0438030016
 20
20.5569084665
 10
-5.8026553425
 20
19.8747677233
 10
-5.5377887815
 20
19.1921210342
 10
-5.2511706626
 20
18.5140388806
 10
-4.9426390211
 20
17.8405552506
 10
-4.6123558218
 20
17.1716361559
 10
-4.2627743026
 20
16.5122501137
 10
-3.8937507658
 20
15.8624681082
 10
-3.5054289091
 20
15.2222191552
 10
-3.100693063
 20
14.596258819
 10
-2.679421007
 20
13.9846934943
 10
-2.2417349615
 20
13.3874167865
 10
-1.7908859185
 20
12.8088650759
 10
-1.3267758647
 20
12.2491777908
 10
-0.8495028135
 20
11.7082155029
 10
-0.3626117962
 20
11.189996307
 10
0.1339688035
 20
10.6946895507
 10
0.6401673693
 20
10.2221258863
 10
1.1522240201
 20
9.7758153655
 10
1.6701823758
 20
9.3559534724
 10
2.1939988166
 20
8.9623447229
 10
2.7197826014
 20
8.5979127169
 10
3.2475483794
 20
8.2628747079
 10
3.7772815014
 20
7.9570134423
 10
4.3050472794
 20
7.6826007599
 10
4.8308310643
 20
7.4398708304
 10
5.354647505
 20
7.228589484
 10
5.8726058608
 20
7.050326051
 10
6.3846625115
 20
6.9053263866
 10
6.8908610773
 20
6.7933446356
 10
7.387441677
 20
6.7152125625
 10
7.8743326943
 20
6.6711822161
 10
8.3516057456
 20
6.6610015476
 10
8.8157157993
 20
6.6847461759
 10
9.2665648423
 20
6.7426687127
 10
9.7042508878
 20
6.8345165462
 10
10.1255229438
 20
6.9596074601
 10
10.53025879
 20
7.1181889862
 10
10.9185806467
 20
7.3100135928
 10
11.0127279357
 20
7.3629794222
  0
LWPOLYLINE
  5
312
100
AcDbEntity
  8
SMUSSO
100
AcDbPolyline
 62
7
  6
CONTINUOUS
 90
26
 70
0
 10
-7.6542183819
 20
-10.7569050263
 10
-7.6526874247
 20
-10.883904099
 10
-7.6377316384
 20
-11.1748617559
 10
-7.6070658171
 20
-11.47437235
 10
-7.5610665774
 20
-11.7787523688
 10
-7.499544486
 20
-12.0880620305
 10
-7.4226889761
 20
-12.4022411169
 10
-7.3314449647
 20
-12.7174254612
 10
-7.2256346875
 20
-13.0336275222
 10
-7.1054359088
 20
-13.3508348413
 10
-6.9723268381
 20
-13.665145875
 10
-6.8261479726
 20
-13.976524866
 10
-6.6670588152
 20
-14.2850075717
 10
-6.4970160837
 20
-14.5867997213
 10
-6.3158844752
 20
-14.8818186392
 10
-6.1237992926
 20
-15.170147001
 10
-5.9231231629
 20
-15.4482385634
 10
-5.7137499221
 20
-15.7159668909
 10
-5.4957857341
 20
-15.9734584189
 10
-5.2719117175
 20
-16.2175462099
 10
-5.0420543779
 20
-16.4480649052
 10
-4.8062872096
 20
-16.6651798634
 10
-4.5675118146
 20
-16.8662202228
 10
-4.3256921064
 20
-17.0509865013
 10
-4.0808641716
 20
-17.219678181
 10
-3.835669929
 20
-17.3704352711
  0
LWPOLYLINE
  5
313
100
AcDbEntity
  8
RACCORDO
100
AcDbPolyline
 62
250
  6
CONTINUOUS
 90
3
 70
0
 10
-10.4005162757
 20
-17.4611574706
 10
-10.4001941045
 20
-17.4263986636
 10
-10.3986569447
 20
-17.4134279032
  0
LWPOLYLINE
  5
314
100
AcDbEntity
  8
SMUSSO
100
AcDbPolyline
 62
7
  6
CONTINUOUS
 90
14
 70
0
 10
-7.654249934
 20
-10.5117130566
 10
-7.6519539066
 20
-10.3559802857
 10
-7.6344140676
 20
-10.0620361991
 10
-7.5996755816
 20
-9.7800011777
 10
-7.5478875397
 20
-9.5110846245
 10
-7.4792721322
 20
-9.2564399999
 10
-7.3941237967
 20
-9.0171591571
 10
-7.2928078643
 20
-8.7942680497
 10
-7.1757590564
 20
-8.5887225746
 10
-7.0434795504
 20
-8.401403901
 10
-6.8965368277
 20
-8.2331150246
 10
-6.7355613775
 20
-8.084577473
 10
-6.5612437714
 20
-7.9564278192
 10
-6.473998579
 20
-7.9028699422
  0
LWPOLYLINE
  5
315
100
AcDbEntity
  8
RACCORDO
100
AcDbPolyline
 62
250
  6
CONTINUOUS
 90
31
 70
0
 10
-8.4195959493
 20
-9.0903498862
 10
-8.4098760028
 20
-8.715722003
 10
-8.3813825942
 20
-8.3555283265
 10
-8.3341157234
 20
-8.0097688565
 10
-8.2677894628
 20
-7.6773002376
 10
-8.1826897401
 20
-7.3592658252
 10
-8.0796743382
 20
-7.0590956865
 10
-7.9585606564
 20
-6.7770425512
 10
-7.8195312953
 20
-6.5128536895
 10
-7.66399184
 20
-6.2692009799
 10
-7.4917757222
 20
-6.0462943556
 10
-7.3030495102
 20
-5.8439238834
 10
-7.0997184939
 20
-5.6641316417
 10
-6.8816345755
 20
-5.5071459405
 10
-6.6489458528
 20
-5.3727384699
 10
-6.4040019089
 20
-5.262266379
 10
-6.1466785345
 20
-5.1759721393
 10
-5.8770999388
 20
-5.1136132794
 10
-5.5979883332
 20
-5.0758195339
 10
-5.3092471153
 20
-5.0628398074
 10
-5.0109728875
 20
-5.0744251952
 10
-4.7061776682
 20
-5.1104587184
 10
-4.3947953947
 20
-5.1711880942
 10
-4.0768921297
 20
-5.2563656053
 10
-3.755678079
 20
-5.3651311208
 10
-3.4311197015
 20
-5.497723636
 10
-3.1032505382
 20
-5.6539041558
 10
-2.7753814183
 20
-5.8320955636
 10
-2.447512338
 20
-6.0325208793
 10
-2.1196433011
 20
-6.2549570831
 10
-1.7950851484
 20
-6.4971579989
  0
LWPOLYLINE
  5
316
100
AcDbEntity
  8
RACCORDO
100
AcDbPolyline
 62
250
  6
CONTINUOUS
 90
27
 70
0
 10
-8.0660425587
 20
-9.1749062091
 10
-8.0558122941
 20
-8.7973960033
 10
-8.0251598959
 20
-8.4331278039
 10
-7.9742010233
 20
-8.0834837466
 10
-7.9031281205
 20
-7.7497895649
 10
-7.8122103163
 20
-7.4333126567
 10
-7.701793013
 20
-7.1352567293
 10
-7.572295377
 20
-6.8567531567
 10
-7.4242083401
 20
-6.5988576686
 10
-7.2580938777
 20
-6.362548955
 10
-7.0745823217
 20
-6.1487235404
 10
-6.8743697084
 20
-5.9581922894
 10
-6.6582153453
 20
-5.7916777595
 10
-6.4269390861
 20
-5.649811565
 10
-6.181418317
 20
-5.5331319372
 10
-5.9225844347
 20
-5.4420815143
 10
-5.6514193141
 20
-5.3770056863
 10
-5.3689515649
 20
-5.3381512999
 10
-5.0762526821
 20
-5.3256657421
 10
-4.7744329755
 20
-5.3395963765
 10
-4.4646373616
 20
-5.3798903601
 10
-4.1480410117
 20
-5.4463948431
 10
-3.825844893
 20
-5.5388575492
 10
-3.4992712128
 20
-5.6569277337
 10
-3.169558785
 20
-5.8001575129
 10
-2.8379583301
 20
-5.9680035637
 10
-2.6723620368
 20
-6.0606626673
  0
LWPOLYLINE
  5
317
100
AcDbEntity
  8
SMUSSO
100
AcDbPolyline
 62
7
  6
CONTINUOUS
 90
25
 70
0
 10
-10.9424774389
 20
20.5345154823
 10
-10.9361338503
 20
20.7485978329
 10
-10.9177974852
 20
20.9530117857
 10
-10.8874683436
 20
21.1477573405
 10
-10.8449154075
 20
21.3335857857
 10
-10.7903696948
 20
21.5097458331
 10
-10.7245242597
 20
21.6739836178
 10
-10.6472333903
 20
21.8261456493
 10
-10.5586427984
 20
21.9663854182
 10
-10.459882673
 20
22.0929095307
 10
-10.3508218968
 20
22.2055413017
 10
-10.2315915871
 20
22.3044574164
 10
-10.1037152845
 20
22.3883945366
 10
-9.9670828132
 20
22.4571596646
 10
-9.821804349
 20
22.5109457982
 10
-9.6697339608
 20
22.5490685932
 10
-9.5107856077
 20
22.5713276765
 10
-9.3450453306
 20
22.5779234212
 10
-9.1746253211
 20
22.5687726028
 10
-8.9994654732
 20
22.543674129
 10
-8.8196258929
 20
22.502829092
 10
-8.637399089
 20
22.4467575437
 10
-8.452753444
 20
22.3752640235
 10
-8.2657205753
 20
22.288543992
 10
-8.0789717393
 20
22.1878677846
  0
LWPOLYLINE
  5
318
100
AcDbEntity
  8
SMUSSO
100
AcDbPolyline
 62
7
  6
CONTINUOUS
 90
11
 70
0
 10
-8.1140503141
 20
20.5345154823
 10
-8.1093527843
 20
20.6664426735
 10
-8.0952886039
 20
20.7921035188
 10
-8.0719459075
 20
20.9106812174
 10
-8.0394719084
 20
21.0214077546
 10
-7.9980748675
 20
21.1235585061
 10
-7.9480255098
 20
21.2164597132
 10
-7.8896485004
 20
21.2995077482
 10
-7.8233219024
 20
21.3721639262
 10
-7.7494814437
 20
21.4339521562
 10
-7.689530941
 20
21.4728760477
  0
LWPOLYLINE
  5
319
100
AcDbEntity
  8
SMUSSO
100
AcDbPolyline
 62
7
  6
CONTINUOUS
 90
3
 70
0
 10
-7.6350807476
 20
-10.3278590709
 10
-7.6517391037
 20
-10.6016051164
 10
-7.6542183819
 20
-10.7569050263
  0
LWPOLYLINE
  5
31A
100
AcDbEntity
  8
ASSI
100
AcDbPolyline
 62
7
  6
CONTINUOUS
 90
3
 70
0
 10
-7.7516502344
 20
20.9180414541
 10
-7.7582403112
 20
20.8300156449
 10
-7.7604969235
 20
20.738652779
  0
LWPOLYLINE
  5
31B
100
AcDbEntity
  8
RACCORDO
100
AcDbPolyline
 62
250
  6
CONTINUOUS
 90
16
 70
0
 10
-10.25766751
 20
-17.6912360485
 10
-10.2684381562
 20
-17.7970029784
 10
-10.2704115622
 20
-17.9070082492
 10
-10.2635877279
 20
-18.0212518611
 10
-10.247765551
 20
-18.1408964787
 10
-10.2231461339
 20
-18.2647794374
 10
-10.1903327836
 20
-18.3894127427
 10
-10.1491353104
 20
-18.5146321237
 10
-10.0997439042
 20
-18.6406018512
 10
-10.0433324413
 20
-18.7643267442
 10
-9.9795993582
 20
-18.8859244334
 10
-9.9088462185
 20
-19.005277288
 10
-9.8331515899
 20
-19.1190372347
 10
-9.7532083283
 20
-19.2260882493
 10
-9.6683235778
 20
-19.327546356
 10
-9.5784973383
 20
-19.423411555
  0
LWPOLYLINE
  5
31C
100
AcDbEntity
  8
RACCORDO
100
AcDbPolyline
 62
7
  6
CONTINUOUS
 90
16
 70
0
 10
-10.3986569447
 20
-17.4134279032
 10
-10.4138019077
 20
-17.559043404
 10
-10.4168145848
 20
-17.7083043958
 10
-10.4081737032
 20
-17.8603709599
 10
-10.3882579111
 20
-18.0148965316
 10
-10.3574578733
 20
-18.1708546597
 10
-10.3164973406
 20
-18.3262434481
 10
-10.2661585088
 20
-18.4797061878
 10
-10.2068700362
 20
-18.6310114609
 10
-10.1390772753
 20
-18.779577824
 10
-10.0633246756
 20
-18.9245402917
 10
-9.9800885282
 20
-19.0651763849
 10
-9.8896555746
 20
-19.2010118537
 10
-9.7923951009
 20
-19.331343124
 10
-9.6888199736
 20
-19.4552589042
 10
-9.5793963819
 20
-19.5719263134
  0
LINE
  5
31D
100
AcDbEntity
  8
RACCORDO
100
AcDbLine
 62
250
  6
CONTINUOUS
 10
-0.015017111
 20
52.4748156334
 11
-0.0084248542
 21
52.5380283287
  0
LWPOLYLINE
  5
31E
100
AcDbEntity
  8
RACCORDO
100
AcDbPolyline
 62
7
  6
CONTINUOUS
 90
15
 70
0
 10
-0.0084248542
 20
52.5380283287
 10
-0.017857486
 20
52.462712352
 10
-0.0230978282
 20
52.4245936436
 10
-0.028676129
 20
52.3880519208
 10
-0.0345773926
 20
52.353048334
 10
-0.0409024902
 20
52.3189796142
 10
-0.0476641927
 20
52.285884098
 10
-0.0547990228
 20
52.2541425643
 10
-0.0623412042
 20
52.2236719602
 10
-0.0702590306
 20
52.1946762549
 10
-0.078477785
 20
52.1674718232
 10
-0.0869351526
 20
52.1422601922
 10
-0.095572376
 20
52.1191963294
 10
-0.1041902903
 20
52.0987243913
 10
-0.1052831349
 20
52.0963044015
  0
LINE
  5
31F
100
AcDbEntity
  8
RACCORDO
100
AcDbLine
 62
250
  6
CONTINUOUS
 10
-0.0185693761
 20
52.4475645383
 11
-0.015017111
 21
52.4748156334
  0
LINE
  5
320
100
AcDbEntity
  8
RACCORDO
100
AcDbLine
 62
250
  6
CONTINUOUS
 10
-0.0222879145
 20
52.4209443457
 11
-0.0230978282
 21
52.4245936436
  0
LINE
  5
321
100
AcDbEntity
  8
RACCORDO
100
AcDbLine
 62
7
  6
CONTINUOUS
 10
-1.2683126128
 20
55.0847499337
 11
-1.2693284843
 21
55.0775616558
  0
LINE
  5
322
100
AcDbEntity
  8
RACCORDO
100
AcDbLine
 62
7
  6
CONTINUOUS
 10
-8.9226332115
 20
-7.5050725592
 11
-10.3986569447
 21
-17.4134279032
  0
LINE
  5
323
100
AcDbEntity
  8
RACCORDO
100
AcDbLine
 62
250
  6
CONTINUOUS
 10
-8.7816437768
 20
-7.7828807046
 11
-10.25766751
 21
-17.6912360485
  0
LINE
  5
324
100
AcDbEntity
  8
RACCORDO
100
AcDbLine
 62
7
  6
CONTINUOUS
 10
0.036645462
 20
52.9448305283
 11
0.0404604708
 21
52.9688297077
  0
LWPOLYLINE
  5
325
100
AcDbEntity
  8
RACCORDO
100
AcDbPolyline
 62
250
  6
CONTINUOUS
 90
10
 70
0
 10
-2.1964343755
 20
53.3318869185
 10
-2.1975935828
 20
53.3246396439
 10
-2.1985784366
 20
53.316066029
 10
-2.1993724083
 20
53.3063099626
 10
-2.1999621731
 20
53.295535178
 10
-2.2003378333
 20
53.2839225057
 10
-2.2004930846
 20
53.2716668378
 10
-2.2004253214
 20
53.2589738581
 10
-2.2001356812
 20
53.2460565894
 10
-2.1996290251
 20
53.2331318186
  0
LINE
  5
326
100
AcDbEntity
  8
RACCORDO
100
AcDbLine
 62
250
  6
CONTINUOUS
 10
-0.0302547363
 20
52.3696322011
 11
-0.0261775056
 21
52.3949678207
  0
LWPOLYLINE
  5
327
100
AcDbEntity
  8
RACCORDO
100
AcDbPolyline
 62
250
  6
CONTINUOUS
 90
10
 70
0
 10
-2.0881544885
 20
54.6329720688
 10
-2.0966526412
 20
54.5832644847
 10
-2.1030409333
 20
54.5319568507
 10
-2.1073067702
 20
54.4791505109
 10
-2.109441749
 20
54.4249497664
 10
-2.1094416753
 20
54.3694616721
 10
-2.1073065715
 20
54.3127958248
 10
-2.1030406761
 20
54.2550641439
 10
-2.0966524359
 20
54.1963806503
 10
-2.0881544885
 20
54.1368612432
  0
LWPOLYLINE
  5
328
100
AcDbEntity
  8
RACCORDO
100
AcDbPolyline
 62
250
  6
CONTINUOUS
 90
10
 70
0
 10
-2.0178566217
 20
54.6453708906
 10
-2.0261919127
 20
54.5966160176
 10
-2.0324578286
 20
54.5462916024
 10
-2.0366419944
 20
54.4944970287
 10
-2.0387361464
 20
54.4413345835
 10
-2.0387361482
 20
54.3869092556
 10
-2.0366419994
 20
54.3313285283
 10
-2.032457835
 20
54.2747021664
 10
-2.0261919178
 20
54.2171419991
 10
-2.0178566217
 20
54.1587617004
  0
LWPOLYLINE
  5
329
100
AcDbEntity
  8
RACCORDO
100
AcDbPolyline
 62
7
  6
CONTINUOUS
 90
10
 70
0
 10
-1.2693284843
 20
55.0775616558
 10
-1.277674654
 20
55.028709566
 10
-1.2839342814
 20
54.9784544216
 10
-1.2881073664
 20
54.9267962224
 10
-1.2901939092
 20
54.8736027616
 10
-1.2901939095
 20
54.8190062462
 10
-1.2881073673
 20
54.7634032968
 10
-1.2839342822
 20
54.7069261203
 10
-1.2776746546
 20
54.64944251
 10
-1.2693284843
 20
54.5909524656
  0
LINE
  5
32A
100
AcDbEntity
  8
RACCORDO
100
AcDbLine
 62
250
  6
CONTINUOUS
 10
0.0314788058
 20
52.9130115443
 11
0.0399768583
 21
52.9627184473
  0
LINE
  5
32B
100
AcDbEntity
  8
RACCORDO
100
AcDbLine
 62
250
  6
CONTINUOUS
 10
-0.0345128072
 20
52.344968773
 11
-0.0345773926
 21
52.353048334
  0
LINE
  5
32C
100
AcDbEntity
  8
RACCORDO
100
AcDbLine
 62
7
  6
CONTINUOUS
 10
0.0373317012
 20
52.5315519408
 11
0.0181548887
 21
52.4239806234
  0
LWPOLYLINE
  5
32D
100
AcDbEntity
  8
RACCORDO
100
AcDbPolyline
 62
250
  6
CONTINUOUS
 90
3
 70
0
 10
-0.0168616995
 20
52.4704401541
 10
-0.0167058266
 20
52.4712988856
 10
-0.015016616
 20
52.4748155469
  0
LINE
  5
32E
100
AcDbEntity
  8
RACCORDO
100
AcDbLine
 62
7
  6
CONTINUOUS
 10
0.0323374156
 20
52.9212904657
 11
0.036645462
 21
52.9448305283
  0
LWPOLYLINE
  5
32F
100
AcDbEntity
  8
RACCORDO
100
AcDbPolyline
 62
250
  6
CONTINUOUS
 90
3
 70
0
 10
-1.7372872957
 20
53.9126258923
 10
-1.7467430895
 20
53.8619658802
 10
-1.7500892834
 20
53.8053636222
  0
LWPOLYLINE
  5
330
100
AcDbEntity
  8
RACCORDO
100
AcDbPolyline
 62
250
  6
CONTINUOUS
 90
10
 70
0
 10
-1.7366273998
 20
53.3416147334
 10
-1.7380382164
 20
53.3349373578
 10
-1.7395769653
 20
53.3270453377
 10
-1.7410782495
 20
53.3180693032
 10
-1.7422406602
 20
53.3082084358
 10
-1.7430430476
 20
53.2976143783
 10
-1.7437495366
 20
53.2863632438
 10
-1.7443519058
 20
53.2746135921
 10
-1.7445753992
 20
53.26262392
 10
-1.7442937182
 20
53.250620959
  0
LWPOLYLINE
  5
331
100
AcDbEntity
  8
ASSI
100
AcDbPolyline
 62
7
  6
CONTINUOUS
 90
21
 70
0
 10
-3.7556908988
 20
13.5959092804
 10
-3.7929417079
 20
13.4263782017
 10
-3.818943098
 20
13.2463067039
 10
-3.8330505444
 20
13.0577444091
 10
-3.8354318847
 20
12.8608111324
 10
-3.8260531961
 20
12.6583122245
 10
-3.8047461557
 20
12.4501680236
 10
-3.7716790864
 20
12.2364581914
 10
-3.7273230348
 20
12.0202270638
 10
-3.67151642
 20
11.8014385529
 10
-3.6044208228
 20
11.5801287465
 10
-3.5269920323
 20
11.3594502434
 10
-3.439082148
 20
11.1394120795
 10
-3.3408390705
 20
10.9200052189
 10
-3.2336622904
 20
10.7043551524
 10
-3.1174239382
 20
10.4925156517
 10
-2.9922518834
 20
10.2844329452
 10
-2.8599292248
 20
10.0830712092
 10
-2.7210503288
 20
9.8894185026
 10
-2.5750208291
 20
9.7024867664
 10
-2.4218407256
 20
9.5222760007
  0
LWPOLYLINE
  5
332
100
AcDbEntity
  8
RACCORDO
100
AcDbPolyline
 62
250
  6
CONTINUOUS
 90
4
 70
0
 10
-1.2727697624
 20
52.7645606843
 10
-1.2954603214
 20
52.6620595023
 10
-1.307078419
 20
52.6111659971
 10
-1.3189351362
 20
52.5603527614
  0
LWPOLYLINE
  5
333
100
AcDbEntity
  8
ASSI
100
AcDbPolyline
 62
7
  6
CONTINUOUS
 90
47
 70
0
 10
-1.3789258234
 20
7.4401522186
 10
-1.2564657702
 20
7.5213736951
 10
-1.14928899
 20
7.6132587023
 10
-1.0510459125
 20
7.7192169196
 10
-0.9631360282
 20
7.8377389527
 10
-0.8857072378
 20
7.9690046294
 10
-0.8186116406
 20
8.112834122
 10
-0.7628050257
 20
8.2671785528
 10
-0.7184489741
 20
8.4321884239
 10
-0.6853819049
 20
8.6077132333
 10
-0.6640748644
 20
8.791252598
 10
-0.6546961759
 20
8.9829212315
 10
-0.6570775161
 20
9.1826044202
 10
-0.6711849625
 20
9.3874576405
 10
-0.6971863526
 20
9.5975548919
 10
-0.7349138489
 20
9.8128221748
 10
-0.7838300163
 20
10.0301929675
 10
-0.8440949999
 20
10.2496973778
 10
-0.9155486545
 20
10.4713052977
 10
-0.9971731099
 20
10.6918598819
 10
-1.0891139421
 20
10.9113460539
 10
-1.1912255749
 20
11.1297788901
 10
-1.3020534095
 20
11.3440467747
 10
-1.4217222022
 20
11.5540900942
 10
-1.5501071966
 20
11.7599684622
 10
-1.6853795249
 20
11.9587491036
 10
-1.8276377667
 20
12.1503304275
 10
-1.9767833424
 20
12.3348140248
 10
-2.130691646
 20
12.5095718928
 10
-2.2894308472
 20
12.6744648257
 10
-2.4529327762
 20
12.8296320292
 10
-2.6188683182
 20
12.9728631183
 10
-2.7872723057
 20
13.1039872493
 10
-2.9581099062
 20
13.2231752658
 10
-3.1289475068
 20
13.3287293127
 10
-3.2997851073
 20
13.4204542447
 10
-3.4706227078
 20
13.4985452071
 10
-3.6390266953
 20
13.5618897797
 10
-3.8049622373
 20
13.6102768952
 10
-3.9684641663
 20
13.6439176209
 10
-4.1272033675
 20
13.6623327386
 10
-4.2811116711
 20
13.6653043218
 10
-4.4302572468
 20
13.6530502969
 10
-4.5725154886
 20
13.6257452247
 10
-4.7077878169
 20
13.5831736774
 10
-4.8361728113
 20
13.5255510828
 10
-4.8789970554
 20
13.5020627441
  0
LINE
  5
334
100
AcDbEntity
  8
ASSI
100
AcDbLine
 62
7
  6
CONTINUOUS
 10
-2.9873755479
 20
10.2770123916
 11
-1.6440232663
 21
11.0526471628
  0
LINE
  5
335
100
AcDbEntity
  8
ASSI
100
AcDbLine
 62
7
  6
CONTINUOUS
 10
-4.1896076785
 20
8.5015895174
 11
-2.4218407256
 21
9.5222760007
  0
LINE
  5
336
100
AcDbEntity
  8
0
100
AcDbLine
 62
250
  6
CONTINUOUS
 10
43.7168767469
 20
35.5143264742
 11
42.7622825923
 21
34.9631557732
  0
LINE
  5
337
100
AcDbEntity
  8
ASSI
100
AcDbLine
 62
7
  6
CONTINUOUS
 10
-2.068287335
 20
7.2767657374
 11
-0.8941442972
 21
7.9547012119
  0
LINE
  5
338
100
AcDbEntity
  8
SMUSSO
100
AcDbLine
 62
7
  6
CONTINUOUS
 10
-2.8889033113
 20
-9.2373839263
 11
-3.1289475068
 21
-9.3047582986
  0
LWPOLYLINE
  5
339
100
AcDbEntity
  8
ASSI
100
AcDbPolyline
 62
7
  6
CONTINUOUS
 90
14
 70
0
 10
-2.5117528517
 20
-6.2386511954
 10
-2.6503778259
 20
-6.206920306
 10
-2.8152961095
 20
-6.1780324873
 10
-2.9779553473
 20
-6.1584769577
 10
-3.1375019575
 20
-6.1483563379
 10
-3.2939195772
 20
-6.1477202262
 10
-3.4472245692
 20
-6.1565190245
 10
-3.5966124394
 20
-6.1747065594
 10
-3.742062596
 20
-6.2023321865
 10
-3.8835956308
 20
-6.2393465503
 10
-4.0204688251
 20
-6.2855554117
 10
-4.1526576827
 20
-6.3410071049
 10
-4.2801866998
 20
-6.4056532956
 10
-4.3113134242
 20
-6.4232411555
  0
LWPOLYLINE
  5
33A
100
AcDbEntity
  8
SMUSSO
100
AcDbPolyline
 62
7
  6
CONTINUOUS
 90
20
 70
0
 10
-4.783197394
 20
-8.1436490175
 10
-5.0193678067
 20
-8.0866584397
 10
-5.2490407831
 20
-8.0498814016
 10
-5.4722163234
 20
-8.0333179032
 10
-5.689837351
 20
-8.0370436175
 10
-5.9009609424
 20
-8.0609828715
 10
-6.1027583269
 20
-8.1049086463
 10
-6.2950367408
 20
-8.1690896871
 10
-6.4779889477
 20
-8.2532572488
 10
-6.6493644679
 20
-8.3563780769
 10
-6.8090204614
 20
-8.4786863296
 10
-6.9570997682
 20
-8.6199478487
 10
-7.0917804282
 20
-8.7784269057
 10
-7.2128970076
 20
-8.9543362511
 10
-7.3206149403
 20
-9.1474631344
 10
-7.4136085673
 20
-9.3554335754
 10
-7.4916960458
 20
-9.5784310203
 10
-7.5550592187
 20
-9.8162720229
 10
-7.602917956
 20
-10.066032264
 10
-7.6350807476
 20
-10.3278590709
  0
LWPOLYLINE
  5
33B
100
AcDbEntity
  8
ASSI
100
AcDbPolyline
 62
7
  6
CONTINUOUS
 90
25
 70
0
 10
-4.2069800987
 20
-11.1345663675
 10
-4.1320841149
 20
-11.1570735407
 10
-4.0580301498
 20
-11.1804344394
 10
-3.9848182035
 20
-11.2046490637
 10
-3.9123972755
 20
-11.2297366607
 10
-3.8408183663
 20
-11.2556779832
 10
-3.770234477
 20
-11.2824152902
 10
-3.7006891417
 20
-11.3099333834
 10
-3.6321388263
 20
-11.338247461
 10
-3.5646059298
 20
-11.3673453772
 10
-3.4980790516
 20
-11.3972305389
 10
-3.4325695922
 20
-11.4278995391
 10
-3.3681341519
 20
-11.4593300106
 10
-3.3047489569
 20
-11.4915364162
 10
-3.242437781
 20
-11.5245042931
 10
-3.1813285455
 20
-11.5581678864
 10
-3.1214476045
 20
-11.5925152447
 10
-3.0627686038
 20
-11.6275583193
 10
-3.0053404026
 20
-11.6632672096
 10
-2.9491414993
 20
-11.699658917
 10
-2.8941933954
 20
-11.7367164401
 10
-2.840609455
 20
-11.7743588734
 10
-2.7884274663
 20
-11.8125592486
 10
-2.7376096411
 20
-11.851344534
 10
-2.6881559795
 20
-11.8907147297
  0
LWPOLYLINE
  5
33C
100
AcDbEntity
  8
SMUSSO
100
AcDbPolyline
 62
7
  6
CONTINUOUS
 90
4
 70
0
 10
-2.8630623234
 20
-6.124998212
 10
-2.5802991045
 20
-6.2121396856
 10
-2.2938392621
 20
-6.3229332389
 10
-2.1715667258
 20
-6.3796277737
  0
LWPOLYLINE
  5
33D
100
AcDbEntity
  8
RACCORDO
100
AcDbPolyline
 62
250
  6
CONTINUOUS
 90
26
 70
0
 10
-2.4178433152
 20
-5.5463164673
 10
-2.7754173788
 20
-5.3275833531
 10
-3.1329913281
 20
-5.1334021169
 10
-3.490565178
 20
-4.9635204733
 10
-3.8444394275
 20
-4.8196960329
 10
-4.1945756774
 20
-4.7021993154
 10
-4.541012327
 20
-4.6107598011
 10
-4.8801650731
 20
-4.5463235411
 10
-5.2119582968
 20
-4.5091708865
 10
-5.5364676169
 20
-4.4990214862
 10
-5.8503355867
 20
-4.5159803376
 10
-6.1534517687
 20
-4.5603289213
 10
-6.4459266003
 20
-4.6317857567
 10
-6.7247339473
 20
-4.729611399
 10
-6.9897318414
 20
-4.8540796296
 10
-7.2410622509
 20
-5.0049166672
 10
-7.4761249461
 20
-5.1805617232
 10
-7.6947493622
 20
-5.3812678084
 10
-7.897106064
 20
-5.6067819119
 10
-8.0811065164
 20
-5.8547842129
 10
-8.2465659168
 20
-6.1255210604
 10
-8.3936690678
 20
-6.4187461054
 10
-8.520881842
 20
-6.7314004791
 10
-8.6276928637
 20
-7.0624645588
 10
-8.7146135086
 20
-7.4129579673
 10
-8.7816437768
 20
-7.7828807046
  0
LWPOLYLINE
  5
33E
100
AcDbEntity
  8
RACCORDO
100
AcDbPolyline
 62
250
  6
CONTINUOUS
 90
20
 70
0
 10
-1.7950851484
 20
-6.4971579989
 10
-1.4738714315
 20
-6.759323881
 10
-1.1559685988
 20
-7.041254475
 10
-0.8445868361
 20
-7.340102842
 10
-0.5397922112
 20
-7.6560403988
 10
-0.2415186563
 20
-7.9888957284
 10
0.0472218466
 20
-8.3353076408
 10
0.3263327142
 20
-8.6954135081
 10
0.5959105299
 20
-9.0690759582
 10
0.8532330618
 20
-9.4525216837
 10
1.0981760937
 20
-9.8458497174
 10
1.3308638418
 20
-10.2489610266
 10
1.5489467232
 20
-10.6577852052
 10
1.752276627
 20
-11.0723795009
 10
1.9410016641
 20
-11.4926866661
 10
2.1132165845
 20
-11.9144645522
 10
2.2687548849
 20
-12.337731069
 10
2.4077830687
 20
-12.7624683066
 10
2.5288953956
 20
-13.1843803872
 10
2.6319091065
 20
-13.6035094392
  0
LWPOLYLINE
  5
33F
100
AcDbEntity
  8
RACCORDO
100
AcDbPolyline
 62
250
  6
CONTINUOUS
 90
10
 70
0
 10
-8.7816437768
 20
-7.7828807046
 10
-8.8162083724
 20
-7.7540115679
 10
-8.8465206662
 20
-7.7232221565
 10
-8.8722485502
 20
-7.6908498057
 10
-8.8931101445
 20
-7.6572491938
 10
-8.9088768849
 20
-7.622788456
 10
-8.9193760279
 20
-7.5878451515
 10
-8.9244925426
 20
-7.5528021264
 10
-8.9241703713
 20
-7.5180433194
 10
-8.9226332115
 20
-7.5050725592
  0
LWPOLYLINE
  5
340
100
AcDbEntity
  8
ASSI
100
AcDbPolyline
 62
7
  6
CONTINUOUS
 90
6
 70
0
 10
-3.1289475068
 20
-9.3692232921
 10
-2.9952342862
 20
-9.4984370891
 10
-2.8669892374
 20
-9.6354992086
 10
-2.7442123605
 20
-9.7804096505
 10
-2.6262084125
 20
-9.9341667426
 10
-2.5454916345
 20
-10.0484664194
  0
LWPOLYLINE
  5
341
100
AcDbEntity
  8
SMUSSO
100
AcDbPolyline
 62
7
  6
CONTINUOUS
 90
33
 70
0
 10
-2.4612701961
 20
-9.0544142297
 10
-2.2112059614
 20
-9.2962017988
 10
-1.9671955478
 20
-9.553181257
 10
-1.7302852944
 20
-9.8242512365
 10
-1.5014910061
 20
-10.108250041
 10
-1.2817940207
 20
-10.4039602195
 10
-1.0721369501
 20
-10.7101137243
 10
-0.8734189536
 20
-11.025398073
 10
-0.6864923363
 20
-11.3484615832
 10
-0.5121592184
 20
-11.6779186836
 10
-0.3511673253
 20
-12.0123567813
 10
-0.2042072083
 20
-12.3503418896
 10
-0.0719095664
 20
-12.6904242858
 10
0.0451581373
 20
-13.0311456778
 10
0.1464937271
 20
-13.3710450067
 10
0.2316622414
 20
-13.7086642435
 10
0.3002983604
 20
-14.0425555762
 10
0.3521076467
 20
-14.3712871579
 10
0.3868676474
 20
-14.6934488192
 10
0.404429274
 20
-15.0076590044
 10
0.4047171845
 20
-15.3125702473
 10
0.3877300162
 20
-15.6068745718
 10
0.3535406635
 20
-15.8893099084
 10
0.3022957878
 20
-16.1586650852
 10
0.2342151723
 20
-16.413784711
 10
0.149590887
 20
-16.6535748253
 10
0.0487859452
 20
-16.8770072106
 10
-0.0677671958
 20
-17.0831235702
 10
-0.1995685484
 20
-17.2710401922
 10
-0.3460527414
 20
-17.4399514183
 10
-0.5065913137
 20
-17.5891329536
 10
-0.6804956349
 20
-17.7179453661
 10
-0.7735146905
 20
-17.7752801593
  0
LINE
  5
342
100
AcDbEntity
  8
SMUSSO
100
AcDbLine
 62
7
  6
CONTINUOUS
 10
-4.5431610691
 20
-8.4882091119
 11
-4.783197394
 21
-8.1436490175
  0
LWPOLYLINE
  5
343
100
AcDbEntity
  8
ASSI
100
AcDbPolyline
 62
7
  6
CONTINUOUS
 90
25
 70
0
 10
-4.5431610691
 20
-8.7686993625
 10
-4.4789011921
 20
-8.8621908839
 10
-4.4209838954
 20
-8.9564282711
 10
-4.3694091789
 20
-9.0514115241
 10
-4.3246561677
 20
-9.1477355391
 10
-4.2862457367
 20
-9.2448054199
 10
-4.252740511
 20
-9.3408364776
 10
-4.2241466726
 20
-9.4351520686
 10
-4.2004580395
 20
-9.5284288365
 10
-4.1802186909
 20
-9.6209120228
 10
-4.1632324792
 20
-9.7118490102
 10
-4.1496955521
 20
-9.801992416
 10
-4.1387404319
 20
-9.8938453339
 10
-4.130073988
 20
-9.98818075
 10
-4.123989351
 20
-10.0842256781
 10
-4.1204984355
 20
-10.1821642544
 10
-4.1196195206
 20
-10.282437483
 10
-4.1213343272
 20
-10.3846043596
 10
-4.1255999323
 20
-10.487526008
 10
-4.1323166354
 20
-10.5902325057
 10
-4.141584137
 20
-10.6936937752
 10
-4.1536586162
 20
-10.799680707
 10
-4.1686254661
 20
-10.9087835981
 10
-4.1863992936
 20
-11.0204121516
 10
-4.2069800987
 20
-11.1345663675
  0
LWPOLYLINE
  5
344
100
AcDbEntity
  8
ASSI
100
AcDbPolyline
 62
7
  6
CONTINUOUS
 90
5
 70
0
 10
-2.5454916345
 20
-10.0484664194
 10
-2.5136726364
 20
-10.0957721572
 10
-2.4086907609
 20
-10.2622309106
 10
-2.3114036438
 20
-10.4336335326
 10
-2.2234587914
 20
-10.6061751183
  0
LWPOLYLINE
  5
345
100
AcDbEntity
  8
ASSI
100
AcDbPolyline
 62
7
  6
CONTINUOUS
 90
41
 70
0
 10
-2.2234587914
 20
-10.6061751183
 10
-2.1411542667
 20
-10.7877322201
 10
-2.0700270407
 20
-10.9671913248
 10
-2.0081168706
 20
-11.1482371953
 10
-1.9565712761
 20
-11.3275144218
 10
-1.9155835386
 20
-11.504990025
 10
-1.8849603766
 20
-11.6806969841
 10
-1.8652694655
 20
-11.8513788278
 10
-1.8567146714
 20
-12.0169418827
 10
-1.8590921281
 20
-12.1774798222
 10
-1.8723579123
 20
-12.3300171946
 10
-1.8967150953
 20
-12.474404827
 10
-1.9319606057
 20
-12.6107918923
 10
-1.977441307
 20
-12.7366504579
 10
-2.0333480846
 20
-12.8517841632
 10
-2.099490053
 20
-12.9563893687
 10
-2.1746414192
 20
-13.048527223
 10
-2.2589702098
 20
-13.1279652248
 10
-2.3523083981
 20
-13.1949358754
 10
-2.4529261109
 20
-13.2481978265
 10
-2.5609591162
 20
-13.2874954214
 10
-2.676271646
 20
-13.3130843167
 10
-2.7967265226
 20
-13.3244901337
 10
-2.9224196583
 20
-13.3214483639
 10
-3.0532551408
 20
-13.3042235158
 10
-3.186808055
 20
-13.2731347355
 10
-3.3231290903
 20
-13.2279234622
 10
-3.4621675574
 20
-13.1688482568
 10
-3.6013464729
 20
-13.0970039482
 10
-3.7406684662
 20
-13.01215239
 10
-3.8801309079
 20
-12.9145317286
 10
-4.0171489269
 20
-12.8059512328
 10
-4.1516769443
 20
-12.6862064954
 10
-4.2837605391
 20
-12.5555019235
 10
-4.4109515772
 20
-12.4162600072
 10
-4.5331588206
 20
-12.2683215163
 10
-4.6504735072
 20
-12.111845681
 10
-4.7607212171
 20
-11.9497326816
 10
-4.8637701573
 20
-11.7818773751
 10
-4.9597521207
 20
-11.6083849044
 10
-5.046888066
 20
-11.432470879
  0
LWPOLYLINE
  5
346
100
AcDbEntity
  8
ASSI
100
AcDbPolyline
 62
7
  6
CONTINUOUS
 90
22
 70
0
 10
-5.046888066
 20
-11.432470879
 10
-5.1250130187
 20
-11.2540901269
 10
-5.1942919533
 20
-11.0732878201
 10
-5.2534407519
 20
-10.893415084
 10
-5.302270388
 20
-10.714487782
 10
-5.3409698881
 20
-10.5364900508
 10
-5.3688222129
 20
-10.3627254258
 10
-5.3856230645
 20
-10.1932714689
 10
-5.3915767409
 20
-10.0280506183
 10
-5.3865790964
 20
-9.8701337238
 10
-5.3704271546
 20
-9.7196666992
 10
-5.3433238918
 20
-9.5765036307
 10
-5.3057740913
 20
-9.4432776271
 10
-5.2575831454
 20
-9.3201675287
 10
-5.1989456618
 20
-9.2069944952
 10
-5.1309502459
 20
-9.1058551148
 10
-5.0534218888
 20
-9.0169748932
 10
-4.9665355993
 20
-8.9401283247
 10
-4.8719050094
 20
-8.8767354803
 10
-4.7700679964
 20
-8.827269717
 10
-4.660486683
 20
-8.7912576777
 10
-4.5431610691
 20
-8.7686993625
  0
LWPOLYLINE
  5
347
100
AcDbEntity
  8
RACCORDO
100
AcDbPolyline
 62
250
  6
CONTINUOUS
 90
10
 70
0
 10
-7.297906243
 20
-12.8176521424
 10
-7.4242061632
 20
-12.4921347406
 10
-7.5722934417
 20
-12.063232091
 10
-7.7017912972
 20
-11.6351880246
 10
-7.8122087214
 20
-11.2096255678
 10
-7.9031266905
 20
-10.7881597387
 10
-7.974199972
 20
-10.372392061
 10
-8.0251593357
 20
-9.9639004239
 10
-8.055812131
 20
-9.564233211
 10
-8.0660425597
 20
-9.1749062091
  0
LWPOLYLINE
  5
348
100
AcDbEntity
  8
RACCORDO
100
AcDbPolyline
 62
250
  6
CONTINUOUS
 90
10
 70
0
 10
-0.2200482827
 20
-55.7163507168
 10
-0.2131967382
 20
-55.7509289555
 10
-0.2066655038
 20
-55.785397518
 10
-0.2004545794
 20
-55.8197564042
 10
-0.1945702569
 20
-55.8541166158
 10
-0.1890062444
 20
-55.8883671512
 10
-0.1837436661
 20
-55.9221750056
 10
-0.1787762302
 20
-55.9554291772
 10
-0.1741102284
 20
-55.9882406678
 10
-0.169745661
 20
-56.0206094773
  0
LWPOLYLINE
  5
349
100
AcDbEntity
  8
RACCORDO
100
AcDbPolyline
 62
7
  6
CONTINUOUS
 90
3
 70
0
 10
-1.2705844441
 20
-53.0656353457
 10
-1.2690634893
 20
-53.0741079746
 10
-1.2681733668
 20
-53.0822783124
  0
LWPOLYLINE
  5
34A
100
AcDbEntity
  8
RACCORDO
100
AcDbPolyline
 62
250
  6
CONTINUOUS
 90
10
 70
0
 10
-0.3123819644
 20
-55.7584586166
 10
-0.3061874937
 20
-55.7934153001
 10
-0.3002404096
 20
-55.8281691368
 10
-0.2945622863
 20
-55.8627621403
 10
-0.2892015812
 20
-55.8973929328
 10
-0.2841478108
 20
-55.9319503158
 10
-0.2793399026
 20
-55.9660169085
 10
-0.2747761543
 20
-55.9994887375
 10
-0.2705061885
 20
-56.0325711522
 10
-0.2665509416
 20
-56.0653150147
  0
LWPOLYLINE
  5
34B
100
AcDbEntity
  8
RACCORDO
100
AcDbPolyline
 62
250
  6
CONTINUOUS
 90
22
 70
0
 10
-0.2665509416
 20
-56.0653150147
 10
-0.2646390065
 20
-56.079306568
 10
-0.2625086411
 20
-56.092434372
 10
-0.2601643292
 20
-56.104697103
 10
-0.2575987284
 20
-56.1160638207
 10
-0.2548287994
 20
-56.1265629275
 10
-0.2518953155
 20
-56.1362831623
 10
-0.2488019559
 20
-56.1452372237
 10
-0.2455544693
 20
-56.1534123654
 10
-0.2421960986
 20
-56.1608617059
 10
-0.2387336436
 20
-56.1675834812
 10
-0.2351693697
 20
-56.17358328
 10
-0.2315388947
 20
-56.178927843
 10
-0.2278519737
 20
-56.1836176353
 10
-0.2241066884
 20
-56.1876585442
 10
-0.2203201012
 20
-56.1911263591
 10
-0.2164996523
 20
-56.1940294296
 10
-0.2126443707
 20
-56.1963657232
 10
-0.2087578645
 20
-56.1981947628
 10
-0.2048430902
 20
-56.199537855
 10
-0.2009026536
 20
-56.2003787968
 10
-0.1969392925
 20
-56.2007202864
  0
LWPOLYLINE
  5
34C
100
AcDbEntity
  8
RACCORDO
100
AcDbPolyline
 62
250
  6
CONTINUOUS
 90
10
 70
0
 10
-2.0178566217
 20
-54.0235499747
 10
-2.0168369565
 20
-54.0317982551
 10
-2.016450798
 20
-54.0397578389
 10
-2.0167016152
 20
-54.0473570257
 10
-2.0175871587
 20
-54.054527478
 10
-2.0190994422
 20
-54.061204477
 10
-2.0212247119
 20
-54.0673275904
 10
-2.0239436753
 20
-54.0728416723
 10
-2.027231779
 20
-54.0776972704
 10
-2.031059321
 20
-54.0818507691
  0
LWPOLYLINE
  5
34D
100
AcDbEntity
  8
RACCORDO
100
AcDbPolyline
 62
7
  6
CONTINUOUS
 90
10
 70
0
 10
-1.2693284843
 20
-53.5913592094
 10
-1.2683126128
 20
-53.5997205902
 10
-1.2679275736
 20
-53.6076557927
 10
-1.2681733668
 20
-53.615164817
 10
-1.2690634893
 20
-53.6223072636
 10
-1.2705844441
 20
-53.629023532
 10
-1.27269574
 20
-53.6351348204
 10
-1.27538388
 20
-53.6405815282
 10
-1.2786623612
 20
-53.645423256
 10
-1.2825311836
 20
-53.6496600039
  0
LINE
  5
34E
100
AcDbEntity
  8
ASSI
100
AcDbLine
 62
7
  6
CONTINUOUS
 10
-1.5733125881
 20
0.5917061938
 11
-2.068287335
 21
7.2767657374
  0
LWPOLYLINE
  5
34F
100
AcDbEntity
  8
RACCORDO
100
AcDbPolyline
 62
250
  6
CONTINUOUS
 90
20
 70
0
 10
-1.7500892834
 20
-54.3769480529
 10
-1.7462636131
 20
-54.4396387273
 10
-1.7363030647
 20
-54.5029296486
 10
-1.720207638
 20
-54.566820817
 10
-1.6974892892
 20
-54.6324305619
 10
-1.6686360621
 20
-54.6986405537
 10
-1.6351120892
 20
-54.7620958039
 10
-1.5966786553
 20
-54.822645947
 10
-1.5535744755
 20
-54.8804413484
 10
-1.5079798276
 20
-54.9325781163
 10
-1.4597701774
 20
-54.9787616753
 10
-1.409070059
 20
-55.019286601
 10
-1.3584333526
 20
-55.0521327272
 10
-1.3078617049
 20
-55.0769001617
 10
-1.2573534691
 20
-55.0939887968
 10
-1.2094575853
 20
-55.1025781437
 10
-1.1643348243
 20
-55.1022450042
 10
-1.1218244152
 20
-55.0934125765
 10
-1.083992986
 20
-55.0765299659
 10
-1.0510525393
 20
-55.0510442285
  0
LWPOLYLINE
  5
350
100
AcDbEntity
  8
RACCORDO
100
AcDbPolyline
 62
250
  6
CONTINUOUS
 90
23
 70
0
 10
-0.9722718241
 20
-54.8260501055
 10
-0.9760974944
 20
-54.7633594311
 10
-0.9860580429
 20
-54.7000685097
 10
-1.0021534695
 20
-54.6361773414
 10
-1.0248718184
 20
-54.5705675965
 10
-1.0537250455
 20
-54.5043576046
 10
-1.0872490184
 20
-54.4409023544
 10
-1.1256824523
 20
-54.3803522114
 10
-1.168786632
 20
-54.32255681
 10
-1.2143812799
 20
-54.2704200421
 10
-1.2625909302
 20
-54.224236483
 10
-1.3132910486
 20
-54.1837115574
 10
-1.363927755
 20
-54.1508654312
 10
-1.4144994027
 20
-54.1260979967
 10
-1.4650076385
 20
-54.1090093615
 10
-1.5129035222
 20
-54.1004200147
 10
-1.5580262833
 20
-54.1007531541
 10
-1.6005366924
 20
-54.1095855819
 10
-1.6383681215
 20
-54.1264681925
 10
-1.6713085682
 20
-54.1519539299
 10
-1.6995700351
 20
-54.1854898502
 10
-1.721721902
 20
-54.2249680164
 10
-1.7372872957
 20
-54.2696857827
  0
LWPOLYLINE
  5
351
100
AcDbEntity
  8
RACCORDO
100
AcDbPolyline
 62
7
  6
CONTINUOUS
 90
22
 70
0
 10
-1.7793786053
 20
-54.3361205935
 10
-1.7762113136
 20
-54.4001556689
 10
-1.766909081
 20
-54.4656445046
 10
-1.751788422
 20
-54.5318457118
 10
-1.7311834935
 20
-54.5980457414
 10
-1.7054293299
 20
-54.6635817145
 10
-1.6748808774
 20
-54.7277729834
 10
-1.6399533969
 20
-54.7898761518
 10
-1.6010406003
 20
-54.8492526825
 10
-1.5584841708
 20
-54.9053547618
 10
-1.5126188712
 20
-54.9576242054
 10
-1.463970738
 20
-55.0053084634
 10
-1.4131224316
 20
-55.0476955591
 10
-1.3601477163
 20
-55.0844873846
 10
-1.3058383177
 20
-55.1148430931
 10
-1.251798488
 20
-55.1378233866
 10
-1.198623122
 20
-55.1533424147
 10
-1.1465400049
 20
-55.1614498123
 10
-1.0966209883
 20
-55.162154153
 10
-1.0495716849
 20
-55.1557910227
 10
-1.005686046
 20
-55.1427682734
 10
-0.9654541716
 20
-55.1235790653
  0
LWPOLYLINE
  5
352
100
AcDbEntity
  8
RACCORDO
100
AcDbPolyline
 62
7
  6
CONTINUOUS
 90
22
 70
0
 10
-1.7793786053
 20
53.8461910815
 10
-1.7762113136
 20
53.7821560061
 10
-1.766909081
 20
53.7166671705
 10
-1.751788422
 20
53.6504659632
 10
-1.7311834935
 20
53.5842659337
 10
-1.7054293299
 20
53.5187299605
 10
-1.6748808774
 20
53.4545386916
 10
-1.6399533969
 20
53.3924355233
 10
-1.6010406003
 20
53.3330589926
 10
-1.5584841708
 20
53.2769569132
 10
-1.5126188712
 20
53.2246874697
 10
-1.463970738
 20
53.1770032116
 10
-1.4131224316
 20
53.1346161159
 10
-1.3601477163
 20
53.0978242904
 10
-1.3058383177
 20
53.0674685819
 10
-1.251798488
 20
53.0444882884
 10
-1.198623122
 20
53.0289692604
 10
-1.1465400049
 20
53.0208618627
 10
-1.0966209883
 20
53.0201575221
 10
-1.0495716849
 20
53.0265206523
 10
-1.005686046
 20
53.0395434016
 10
-0.9654541716
 20
53.0587326098
  0
LWPOLYLINE
  5
353
100
AcDbEntity
  8
RACCORDO
100
AcDbPolyline
 62
250
  6
CONTINUOUS
 90
22
 70
0
 10
-0.8308504679
 20
-54.8260501055
 10
-0.8339581892
 20
-54.762645177
 10
-0.8432393207
 20
-54.6965089922
 10
-0.8585683437
 20
-54.6285359147
 10
-0.8797379474
 20
-54.5596451664
 10
-0.9064618503
 20
-54.4907683356
 10
-0.9383786876
 20
-54.4228367814
 10
-0.9750568755
 20
-54.3567691055
 10
-1.0160004035
 20
-54.2934587801
 10
-1.0606555608
 20
-54.2337619982
 10
-1.1084184629
 20
-54.1784860427
 10
-1.1586432178
 20
-54.1283783912
 10
-1.2106506238
 20
-54.0841166491
 10
-1.2637374016
 20
-54.0462993423
 10
-1.3171856454
 20
-54.0154378729
 10
-1.3702725181
 20
-53.9919495863
 10
-1.422280099
 20
-53.9761520791
 10
-1.4725051482
 20
-53.9682589149
 10
-1.5202685475
 20
-53.9683767918
 10
-1.5649240855
 20
-53.9765040063
 10
-1.6058682888
 20
-53.9925306111
 10
-1.6154855798
 20
-53.9977641744
  0
LWPOLYLINE
  5
354
100
AcDbEntity
  8
RACCORDO
100
AcDbPolyline
 62
250
  6
CONTINUOUS
 90
43
 70
0
 10
-4.0128309832
 20
-53.0704693542
 10
-4.005437555
 20
-53.3033975192
 10
-3.9835828022
 20
-53.5415644629
 10
-3.9472667248
 20
-53.7849701853
 10
-3.8961064111
 20
-54.0352957103
 10
-3.8304847728
 20
-54.2908600139
 10
-3.7515505459
 20
-54.5466200244
 10
-3.6591200021
 20
-54.8022569901
 10
-3.5533768696
 20
-55.0580896627
 10
-3.4360210684
 20
-55.3100312256
 10
-3.306824387
 20
-55.5581039218
 10
-3.1660150368
 20
-55.8022855082
 10
-3.0159775732
 20
-56.038422439
 10
-2.8565759915
 20
-56.2663421521
 10
-2.6879462963
 20
-56.4862172095
 10
-2.5128810562
 20
-56.6944117514
 10
-2.3312649096
 20
-56.8907416515
 10
-2.1432132181
 20
-57.0753910362
 10
-1.9518646361
 20
-57.2452764246
 10
-1.7571664326
 20
-57.4001474496
 10
-1.5591713386
 20
-57.5402544783
 10
-1.3611762003
 20
-57.6632651308
 10
-1.1631809191
 20
-57.7688935622
 10
-0.9651855937
 20
-57.8574256174
 10
-0.770487367
 20
-57.9273864514
 10
-0.5791392197
 20
-57.9784647617
 10
-0.3910881711
 20
-58.0109718507
 10
-0.2094724225
 20
-58.0243667805
 10
-0.0344069429
 20
-58.0183321366
 10
0.1342232368
 20
-57.9931853336
 10
0.2936248223
 20
-57.9493376766
 10
0.4436612836
 20
-57.886459795
 10
0.5844691507
 20
-57.8048810595
 10
0.7136647191
 20
-57.7060008875
 10
0.8310201789
 20
-57.5895779946
 10
0.9367633401
 20
-57.4558536652
 10
1.0291939282
 20
-57.3069511699
 10
1.1081282594
 20
-57.1423379859
 10
1.1737500175
 20
-56.962546636
 10
1.2249099805
 20
-56.771297959
 10
1.2612250741
 20
-56.5698322345
 10
1.2830783725
 20
-56.3569091829
 10
1.2904698757
 20
-56.1325288042
  0
LWPOLYLINE
  5
355
100
AcDbEntity
  8
RACCORDO
100
AcDbPolyline
 62
250
  6
CONTINUOUS
 90
43
 70
0
 10
-4.0128309832
 20
55.1118423208
 10
-4.005437555
 20
54.8789141558
 10
-3.9835828022
 20
54.6407472121
 10
-3.9472667248
 20
54.3973414897
 10
-3.8961064111
 20
54.1470159648
 10
-3.8304847728
 20
53.8914516611
 10
-3.7515505459
 20
53.6356916506
 10
-3.6591200021
 20
53.3800546849
 10
-3.5533768696
 20
53.1242220123
 10
-3.4360210684
 20
52.8722804495
 10
-3.306824387
 20
52.6242077533
 10
-3.1660150368
 20
52.3800261668
 10
-3.0159775732
 20
52.143889236
 10
-2.8565759915
 20
51.915969523
 10
-2.6879462963
 20
51.6960944656
 10
-2.5128810562
 20
51.4878999237
 10
-2.3312649096
 20
51.2915700235
 10
-2.1432132181
 20
51.1069206388
 10
-1.9518646361
 20
50.9370352505
 10
-1.7571664326
 20
50.7821642255
 10
-1.5591713386
 20
50.6420571968
 10
-1.3611762003
 20
50.5190465443
 10
-1.1631809191
 20
50.4134181129
 10
-0.9651855937
 20
50.3248860576
 10
-0.770487367
 20
50.2549252236
 10
-0.5791392197
 20
50.2038469134
 10
-0.3910881711
 20
50.1713398243
 10
-0.2094724225
 20
50.1579448946
 10
-0.0344069429
 20
50.1639795384
 10
0.1342232368
 20
50.1891263415
 10
0.2936248223
 20
50.2329739985
 10
0.4436612836
 20
50.2958518801
 10
0.5844691507
 20
50.3774306156
 10
0.7136647191
 20
50.4763107875
 10
0.8310201789
 20
50.5927336804
 10
0.9367633401
 20
50.7264580098
 10
1.0291939282
 20
50.8753605052
 10
1.1081282594
 20
51.0399736891
 10
1.1737500175
 20
51.219765039
 10
1.2249099805
 20
51.411013716
 10
1.2612250741
 20
51.6124794406
 10
1.2830783725
 20
51.8254024922
 10
1.2904698757
 20
52.0497828709
  0
LWPOLYLINE
  5
356
100
AcDbEntity
  8
RACCORDO
100
AcDbPolyline
 62
250
  6
CONTINUOUS
 90
15
 70
0
 10
1.2904698757
 20
-56.1325288042
 10
1.2830764474
 20
-55.8996006391
 10
1.2612216946
 20
-55.6614336954
 10
1.2249056173
 20
-55.4180279731
 10
1.1737453035
 20
-55.1677024481
 10
1.1081236653
 20
-54.9121381445
 10
1.0291894383
 20
-54.6563781339
 10
0.9367588945
 20
-54.4007411682
 10
0.831015762
 20
-54.1449084956
 10
0.7136599609
 20
-53.8929669328
 10
0.5844632794
 20
-53.6448942366
 10
0.4436539293
 20
-53.4007126501
 10
0.2936164656
 20
-53.1645757193
 10
0.1342148839
 20
-52.9366560063
 10
-0.0344148113
 20
-52.7167809489
  0
LWPOLYLINE
  5
357
100
AcDbEntity
  8
RACCORDO
100
AcDbPolyline
 62
7
  6
CONTINUOUS
 90
3
 70
0
 10
-1.2681733668
 20
-53.0822783124
 10
-1.2679275736
 20
-53.0900711724
 10
-1.2683126128
 20
-53.0975617413
  0
LWPOLYLINE
  5
358
100
AcDbEntity
  8
RACCORDO
100
AcDbPolyline
 62
7
  6
CONTINUOUS
 90
3
 70
0
 10
-1.2681733668
 20
55.1000333627
 10
-1.2679275736
 20
55.0922405027
 10
-1.2683126128
 20
55.0847499337
  0
LWPOLYLINE
  5
359
100
AcDbEntity
  8
RACCORDO
100
AcDbPolyline
 62
7
  6
CONTINUOUS
 90
34
 70
0
 10
-4.0860542879
 20
-52.968400709
 10
-4.0785838716
 20
-53.2100976532
 10
-4.0563065388
 20
-53.4578474199
 10
-4.0194622766
 20
-53.7104479463
 10
-3.9683255495
 20
-53.9667593131
 10
-3.9032391577
 20
-54.2255107353
 10
-3.8246609905
 20
-54.4852528367
 10
-3.7331116084
 20
-54.7446107216
 10
-3.6290796967
 20
-55.002461002
 10
-3.5130797784
 20
-55.257683136
 10
-3.3857161508
 20
-55.5090425401
 10
-3.24763489
 20
-55.7553296205
 10
-3.09945657
 20
-55.995461912
 10
-2.9418945831
 20
-56.2282724372
 10
-2.7757071403
 20
-56.4526140698
 10
-2.6016077768
 20
-56.6674700205
 10
-2.4203799133
 20
-56.8717899277
 10
-2.2328830372
 20
-57.0645078703
 10
-2.0399462813
 20
-57.2446604479
 10
-1.842343228
 20
-57.4113818582
 10
-1.6410523726
 20
-57.5636863306
 10
-1.437181193
 20
-57.7005970308
 10
-1.2313804729
 20
-57.8215128453
 10
-1.0247841843
 20
-57.9255791457
 10
-0.8191490802
 20
-58.0118366165
 10
-0.6151989136
 20
-58.0799727829
 10
-0.4139109852
 20
-58.1296240672
 10
-0.2173021487
 20
-58.1604059295
 10
-0.0264677042
 20
-58.1724459918
 10
0.1581427307
 20
-58.1660028825
 10
0.3355014495
 20
-58.1413841252
 10
0.5047046656
 20
-58.0990453893
 10
0.6650263208
 20
-58.0395234732
 10
0.8156927821
 20
-57.9634762487
  0
LWPOLYLINE
  5
35A
100
AcDbEntity
  8
RACCORDO
100
AcDbPolyline
 62
7
  6
CONTINUOUS
 90
34
 70
0
 10
-4.0860542879
 20
55.2139109661
 10
-4.0785838716
 20
54.9722140219
 10
-4.0563065388
 20
54.7244642552
 10
-4.0194622766
 20
54.4718637287
 10
-3.9683255495
 20
54.215552362
 10
-3.9032391577
 20
53.9568009397
 10
-3.8246609905
 20
53.6970588384
 10
-3.7331116084
 20
53.4377009534
 10
-3.6290796967
 20
53.1798506731
 10
-3.5130797784
 20
52.924628539
 10
-3.3857161508
 20
52.6732691349
 10
-3.24763489
 20
52.4269820545
 10
-3.09945657
 20
52.186849763
 10
-2.9418945831
 20
51.9540392379
 10
-2.7757071403
 20
51.7296976052
 10
-2.6016077768
 20
51.5148416545
 10
-2.4203799133
 20
51.3105217473
 10
-2.2328830372
 20
51.1178038048
 10
-2.0399462813
 20
50.9376512272
 10
-1.842343228
 20
50.7709298169
 10
-1.6410523726
 20
50.6186253445
 10
-1.437181193
 20
50.4817146442
 10
-1.2313804729
 20
50.3607988297
 10
-1.0247841843
 20
50.2567325294
 10
-0.8191490802
 20
50.1704750586
 10
-0.6151989136
 20
50.1023388922
 10
-0.4139109852
 20
50.0526876078
 10
-0.2173021487
 20
50.0219057455
 10
-0.0264677042
 20
50.0098656832
 10
0.1581427307
 20
50.0163087925
 10
0.3355014495
 20
50.0409275499
 10
0.5047046656
 20
50.0832662857
 10
0.6650263208
 20
50.1427882019
 10
0.8156927821
 20
50.2188354263
  0
LWPOLYLINE
  5
35B
100
AcDbEntity
  8
RACCORDO
100
AcDbPolyline
 62
250
  6
CONTINUOUS
 90
43
 70
0
 10
-2.5700308219
 20
-54.6217000954
 10
-2.5698169867
 20
-54.6307513319
 10
-2.5692245024
 20
-54.6396770484
 10
-2.5682582035
 20
-54.648469363
 10
-2.5669225861
 20
-54.6571105782
 10
-2.5652234038
 20
-54.6656032629
 10
-2.5631659049
 20
-54.6739703933
 10
-2.5607563126
 20
-54.6822052469
 10
-2.5579956769
 20
-54.6903007238
 10
-2.5548783675
 20
-54.6982794362
 10
-2.5514084103
 20
-54.7061370575
 10
-2.5475863169
 20
-54.7138641756
 10
-2.54339831
 20
-54.7214754004
 10
-2.5388463124
 20
-54.7289665104
 10
-2.5339311284
 20
-54.7363269783
 10
-2.5286352113
 20
-54.74356116
 10
-2.5229616303
 20
-54.7506612483
 10
-2.5169095183
 20
-54.7576186186
 10
-2.5104537788
 20
-54.7644352029
 10
-2.5036020316
 20
-54.7710987738
 10
-2.4963486324
 20
-54.7776025853
 10
-2.4886463056
 20
-54.7839544928
 10
-2.4805013884
 20
-54.7901429062
 10
-2.4719082714
 20
-54.7961553655
 10
-2.462798773
 20
-54.8019943481
 10
-2.4531716403
 20
-54.8076487848
 10
-2.4430281239
 20
-54.8130974731
 10
-2.432301603
 20
-54.8183226687
 10
-2.4209872804
 20
-54.8233082678
 10
-2.4090921965
 20
-54.8280287393
 10
-2.3965671575
 20
-54.8324478743
 10
-2.3834094469
 20
-54.8365426194
 10
-2.3696295314
 20
-54.8402858819
 10
-2.3551992821
 20
-54.8436326555
 10
-2.3401230368
 20
-54.8465539861
 10
-2.324412052
 20
-54.849022086
 10
-2.3080506624
 20
-54.8509920748
 10
-2.291060327
 20
-54.8524310947
 10
-2.2734442691
 20
-54.8533102369
 10
-2.2551617053
 20
-54.853586691
 10
-2.2362106193
 20
-54.8532208338
 10
-2.2166280026
 20
-54.8521792739
 10
-2.1964343689
 20
-54.8504248176
  0
LWPOLYLINE
  5
35C
100
AcDbEntity
  8
RACCORDO
100
AcDbPolyline
 62
250
  6
CONTINUOUS
 90
43
 70
0
 10
-2.5700308219
 20
53.5606115796
 10
-2.5698169867
 20
53.5515603431
 10
-2.5692245024
 20
53.5426346266
 10
-2.5682582035
 20
53.533842312
 10
-2.5669225861
 20
53.5252010968
 10
-2.5652234038
 20
53.5167084121
 10
-2.5631659049
 20
53.5083412817
 10
-2.5607563126
 20
53.5001064281
 10
-2.5579956769
 20
53.4920109513
 10
-2.5548783675
 20
53.4840322389
 10
-2.5514084103
 20
53.4761746175
 10
-2.5475863169
 20
53.4684474995
 10
-2.54339831
 20
53.4608362747
 10
-2.5388463124
 20
53.4533451646
 10
-2.5339311284
 20
53.4459846968
 10
-2.5286352113
 20
53.438750515
 10
-2.5229616303
 20
53.4316504267
 10
-2.5169095183
 20
53.4246930565
 10
-2.5104537788
 20
53.4178764722
 10
-2.5036020316
 20
53.4112129013
 10
-2.4963486324
 20
53.4047090898
 10
-2.4886463056
 20
53.3983571823
 10
-2.4805013884
 20
53.3921687688
 10
-2.4719082714
 20
53.3861563095
 10
-2.462798773
 20
53.380317327
 10
-2.4531716403
 20
53.3746628902
 10
-2.4430281239
 20
53.3692142019
 10
-2.432301603
 20
53.3639890064
 10
-2.4209872804
 20
53.3590034072
 10
-2.4090921965
 20
53.3542829358
 10
-2.3965671575
 20
53.3498638008
 10
-2.3834094469
 20
53.3457690557
 10
-2.3696295314
 20
53.3420257932
 10
-2.3551992821
 20
53.3386790196
 10
-2.3401230368
 20
53.3357576889
 10
-2.324412052
 20
53.333289589
 10
-2.3080506624
 20
53.3313196002
 10
-2.291060327
 20
53.3298805804
 10
-2.2734442691
 20
53.3290014382
 10
-2.2551617053
 20
53.328724984
 10
-2.2362106193
 20
53.3290908413
 10
-2.2166280026
 20
53.3301324011
 10
-2.1964343689
 20
53.3318868574
  0
LWPOLYLINE
  5
35D
100
AcDbEntity
  8
ASSI
100
AcDbPolyline
 62
7
  6
CONTINUOUS
 90
53
 70
0
 10
-4.3663843738
 20
-52.8663320575
 10
-4.363216369
 20
-53.0266385596
 10
-4.3538861589
 20
-53.18952507
 10
-4.3383937433
 20
-53.3549915889
 10
-4.3166815473
 20
-53.5233912774
 10
-4.2888071459
 20
-53.6943709743
 10
-4.2549432641
 20
-53.8668711964
 10
-4.2150527109
 20
-54.0409013853
 10
-4.1691726773
 20
-54.2164520996
 10
-4.1175874609
 20
-54.3924355314
 10
-4.060261636
 20
-54.5688543677
 10
-3.9972306283
 20
-54.7457059216
 10
-3.9288850122
 20
-54.9218943246
 10
-3.8551917874
 20
-55.0974154592
 10
-3.7761839541
 20
-55.2722734429
 10
-3.6923510879
 20
-55.4453847607
 10
-3.6036632283
 20
-55.6167385669
 10
-3.5101503358
 20
-55.7863457071
 10
-3.4123918672
 20
-55.9531552032
 10
-3.31036146
 20
-56.1171496838
 10
-3.2040854766
 20
-56.2783465203
 10
-3.0942224607
 20
-56.4357468496
 10
-2.9807501393
 20
-56.5893270977
 10
-2.8636907855
 20
-56.7391108385
 10
-2.7437697626
 20
-56.8841699305
 10
-2.6209693016
 20
-57.0244750367
 10
-2.4953071716
 20
-57.1600554941
 10
-2.3675620435
 20
-57.2900711725
 10
-2.2377209832
 20
-57.4144875181
 10
-2.1057969248
 20
-57.5333390847
 10
-1.9726073414
 20
-57.6458894033
 10
-1.8381443751
 20
-57.7520993472
 10
-1.7024158838
 20
-57.8520080432
 10
-1.5662629151
 20
-57.9449964026
 10
-1.4296828334
 20
-58.0310214545
 10
-1.2926782742
 20
-58.1101261699
 10
-1.1560981925
 20
-58.1818203729
 10
-1.0199452238
 20
-58.2460580489
 10
-0.8842167325
 20
-58.3028852125
 10
-0.7497537661
 20
-58.3519497317
 10
-0.6165641828
 20
-58.3932034054
 10
-0.4846401244
 20
-58.4266944347
 10
-0.354799064
 20
-58.452215291
 10
-0.2270539359
 20
-58.4697164845
 10
-0.1013918059
 20
-58.479247505
 10
0.0214086551
 20
-58.4807492931
 10
0.1413296779
 20
-58.4741719923
 10
0.2583890318
 20
-58.4595654591
 10
0.3718613532
 20
-58.4370202035
 10
0.481724369
 20
-58.4064869311
 10
0.5880003524
 20
-58.3680149363
 10
0.6900307596
 20
-58.3218426125
 10
0.7639123583
 20
-58.2820308463
  0
LWPOLYLINE
  5
35E
100
AcDbEntity
  8
ASSI
100
AcDbPolyline
 62
7
  6
CONTINUOUS
 90
53
 70
0
 10
-4.3663843738
 20
55.3159796175
 10
-4.363216369
 20
55.1556731155
 10
-4.3538861589
 20
54.992786605
 10
-4.3383937433
 20
54.8273200861
 10
-4.3166815473
 20
54.6589203977
 10
-4.2888071459
 20
54.4879407008
 10
-4.2549432641
 20
54.3154404786
 10
-4.2150527109
 20
54.1414102897
 10
-4.1691726773
 20
53.9658595755
 10
-4.1175874609
 20
53.7898761437
 10
-4.060261636
 20
53.6134573074
 10
-3.9972306283
 20
53.4366057535
 10
-3.9288850122
 20
53.2604173504
 10
-3.8551917874
 20
53.0848962159
 10
-3.7761839541
 20
52.9100382321
 10
-3.6923510879
 20
52.7369269143
 10
-3.6036632283
 20
52.5655731082
 10
-3.5101503358
 20
52.395965968
 10
-3.4123918672
 20
52.2291564718
 10
-3.31036146
 20
52.0651619913
 10
-3.2040854766
 20
51.9039651547
 10
-3.0942224607
 20
51.7465648254
 10
-2.9807501393
 20
51.5929845774
 10
-2.8636907855
 20
51.4432008366
 10
-2.7437697626
 20
51.2981417445
 10
-2.6209693016
 20
51.1578366384
 10
-2.4953071716
 20
51.022256181
 10
-2.3675620435
 20
50.8922405026
 10
-2.2377209832
 20
50.767824157
 10
-2.1057969248
 20
50.6489725904
 10
-1.9726073414
 20
50.5364222718
 10
-1.8381443751
 20
50.4302123278
 10
-1.7024158838
 20
50.3303036319
 10
-1.5662629151
 20
50.2373152725
 10
-1.4296828334
 20
50.1512902205
 10
-1.2926782742
 20
50.0721855052
 10
-1.1560981925
 20
50.0004913022
 10
-1.0199452238
 20
49.9362536262
 10
-0.8842167325
 20
49.8794264626
 10
-0.7497537661
 20
49.8303619433
 10
-0.6165641828
 20
49.7891082697
 10
-0.4846401244
 20
49.7556172403
 10
-0.354799064
 20
49.7300963841
 10
-0.2270539359
 20
49.7125951905
 10
-0.1013918059
 20
49.70306417
 10
0.0214086551
 20
49.701562382
 10
0.1413296779
 20
49.7081396827
 10
0.2583890318
 20
49.7227462159
 10
0.3718613532
 20
49.7452914715
 10
0.481724369
 20
49.7758247439
 10
0.5880003524
 20
49.8142967388
 10
0.6900307596
 20
49.8604690625
 10
0.7639123583
 20
49.9002808288
  0
LWPOLYLINE
  5
35F
100
AcDbEntity
  8
ASSI
100
AcDbPolyline
 62
7
  6
CONTINUOUS
 90
30
 70
0
 10
1.6440232663
 20
-56.3366661008
 10
1.6408552615
 20
-56.1763595988
 10
1.6315250513
 20
-56.0134730883
 10
1.6160326357
 20
-55.8480065694
 10
1.5943204397
 20
-55.679606881
 10
1.5664460384
 20
-55.5086271841
 10
1.5325821565
 20
-55.336126962
 10
1.4926916034
 20
-55.162096773
 10
1.4468115697
 20
-54.9865460588
 10
1.3952263533
 20
-54.810562627
 10
1.3379005284
 20
-54.6341437907
 10
1.2748695208
 20
-54.4572922368
 10
1.2065239047
 20
-54.2811038337
 10
1.1328306798
 20
-54.1055826992
 10
1.0538228465
 20
-53.9307247154
 10
0.9699899803
 20
-53.7576133976
 10
0.8813021207
 20
-53.5862595915
 10
0.7877892283
 20
-53.4166524513
 10
0.6900307596
 20
-53.2498429551
 10
0.5880003524
 20
-53.0858484746
 10
0.481724369
 20
-52.924651638
 10
0.3718613532
 20
-52.7672513088
 10
0.2583890318
 20
-52.6136710607
 10
0.1413296779
 20
-52.4638873199
 10
0.0214086551
 20
-52.3188282278
 10
-0.1013918059
 20
-52.1785231217
 10
-0.2270539359
 20
-52.0429426643
 10
-0.354799064
 20
-51.9129269859
 10
-0.4846401244
 20
-51.7885106403
 10
-0.6165641828
 20
-51.6696590737
  0
LINE
  5
360
100
AcDbEntity
  8
SMUSSO
100
AcDbLine
 62
7
  6
CONTINUOUS
 10
-4.783197394
 20
-8.1436490175
 11
-4.7850789857
 21
-8.0007248078
  0
LINE
  5
361
100
AcDbEntity
  8
SMUSSO
100
AcDbLine
 62
7
  6
CONTINUOUS
 10
-4.7850789857
 20
-8.0007248078
 11
-4.7861981177
 21
-7.856779741
  0
LINE
  5
362
100
AcDbEntity
  8
SMUSSO
100
AcDbLine
 62
7
  6
CONTINUOUS
 10
-4.7861981177
 20
-7.856779741
 11
-4.7865547901
 21
-7.7118138171
  0
LINE
  5
363
100
AcDbEntity
  8
SMUSSO
100
AcDbLine
 62
7
  6
CONTINUOUS
 10
-4.5431610691
 20
-8.4882091119
 11
-4.5431610691
 21
-8.7686993625
  0
LINE
  5
364
100
AcDbEntity
  8
SMUSSO
100
AcDbLine
 62
7
  6
CONTINUOUS
 10
-3.1289475068
 20
-9.3047582986
 11
-3.1289475068
 21
-9.3692232921
  0
LINE
  5
365
100
AcDbEntity
  8
ASSI
100
AcDbLine
 62
7
  6
CONTINUOUS
 10
-1.6440232663
 20
11.0526471628
 11
-1.6440232663
 21
7.5217304934
  0
LWPOLYLINE
  5
366
100
AcDbEntity
  8
SMUSSO
100
AcDbPolyline
 62
7
  6
CONTINUOUS
 90
49
 70
0
 10
-5.2149125113
 20
17.2274912764
 10
-5.2212560998
 20
17.0134089258
 10
-5.2395924649
 20
16.8089949731
 10
-5.2699216065
 20
16.6142494182
 10
-5.3124745427
 20
16.428420973
 10
-5.3670202553
 20
16.2522609256
 10
-5.4328656904
 20
16.088023141
 10
-5.5101565598
 20
15.9358611094
 10
-5.5987471517
 20
15.7956213405
 10
-5.6975072771
 20
15.669097228
 10
-5.8065680533
 20
15.556465457
 10
-5.925798363
 20
15.4575493423
 10
-6.0536746656
 20
15.3736122221
 10
-6.1903071369
 20
15.3048470941
 10
-6.3355856011
 20
15.2510609606
 10
-6.4876559893
 20
15.2129381655
 10
-6.6466043424
 20
15.1906790822
 10
-6.8123446195
 20
15.1840833375
 10
-6.9827646291
 20
15.193234156
 10
-7.1579244769
 20
15.2183326298
 10
-7.3377640572
 20
15.2591776668
 10
-7.5199908611
 20
15.315249215
 10
-7.7046365061
 20
15.3867427352
 10
-7.8916693748
 20
15.4734627667
 10
-8.078702106
 20
15.5743028757
 10
-8.2657346223
 20
15.6894443692
 10
-8.4527670011
 20
15.8187059402
 10
-8.6374121142
 20
15.9604372336
 10
-8.8196383548
 20
16.1147971392
 10
-8.9994773297
 20
16.2816267672
 10
-9.1746367308
 20
16.458799094
 10
-9.3450565706
 20
16.646445911
 10
-9.5107968366
 20
16.8444354268
 10
-9.669745183
 20
17.0502452433
 10
-9.8218156041
 20
17.2639765116
 10
-9.9670941056
 20
17.4855280807
 10
-10.1037263595
 20
17.7120740992
 10
-10.2316020768
 20
17.9436802448
 10
-10.3508315464
 20
18.1802808399
 10
-10.4598913066
 20
18.4188530004
 10
-10.5586501851
 20
18.6594218726
 10
-10.647239354
 20
18.9019623103
 10
-10.7245288688
 20
19.1433759899
 10
-10.79037304
 20
19.3836480636
 10
-10.8449175571
 20
19.6227933792
 10
-10.8874695431
 20
19.8577581569
 10
-10.9177980393
 20
20.08752447
 10
-10.9361340046
 20
20.3131102451
 10
-10.9424774389
 20
20.5345154823
  0
LWPOLYLINE
  5
367
100
AcDbEntity
  8
SMUSSO
100
AcDbPolyline
 62
7
  6
CONTINUOUS
 90
25
 70
0
 10
-1.0429825023
 20
3.3880873007
 10
-1.0366389137
 20
3.6021696512
 10
-1.0183025486
 20
3.806583604
 10
-0.987973407
 20
4.0013291588
 10
-0.9454204708
 20
4.1871576041
 10
-0.8908747582
 20
4.3633176514
 10
-0.8250293231
 20
4.5275554361
 10
-0.7477384537
 20
4.6797174677
 10
-0.6591478618
 20
4.8199572365
 10
-0.5603877364
 20
4.9464813491
 10
-0.4513269602
 20
5.05911312
 10
-0.3320966505
 20
5.1580292347
 10
-0.2042203479
 20
5.241966355
 10
-0.0675878766
 20
5.3107314829
 10
0.0776905876
 20
5.3645176165
 10
0.2297609758
 20
5.4026404115
 10
0.3887093289
 20
5.4248994948
 10
0.554449606
 20
5.4314952395
 10
0.7248696156
 20
5.4223444211
 10
0.9000294634
 20
5.3972459473
 10
1.0798690437
 20
5.3564009103
 10
1.2620958476
 20
5.300329362
 10
1.4467414926
 20
5.2288358418
 10
1.6337743613
 20
5.1421158103
 10
1.8205231973
 20
5.0414396029
  0
LINE
  5
368
100
AcDbEntity
  8
RACCORDO
100
AcDbLine
 62
250
  6
CONTINUOUS
 10
1.6371333637
 20
51.8259447262
 11
1.6377457179
 21
51.8458388018
  0
LWPOLYLINE
  5
369
100
AcDbEntity
  8
RACCORDO
100
AcDbPolyline
 62
7
  6
CONTINUOUS
 90
3
 70
0
 10
0.0530330086
 20
52.7642634092
 10
0.0490573349
 20
52.6456617237
 10
0.0373317012
 20
52.5315519408
  0
LWPOLYLINE
  5
36A
100
AcDbEntity
  8
ASSI
100
AcDbPolyline
 62
7
  6
CONTINUOUS
 90
16
 70
0
 10
-2.2804193693
 20
18.7989539114
 10
-2.2849703459
 20
18.6661213632
 10
-2.297971351
 20
18.540394713
 10
-2.3194223846
 20
18.4217739608
 10
-2.3495371227
 20
18.3096773843
 10
-2.3881018893
 20
18.2046867058
 10
-2.4344756564
 20
18.1085470923
 10
-2.4887889495
 20
18.021406487
 10
-2.550911243
 20
17.9431169467
 10
-2.6198099333
 20
17.8749798091
 10
-2.695598286
 20
17.8171647687
 10
-2.7781630353
 20
17.7695021311
 10
-2.8661317808
 20
17.7327841499
 10
-2.9595948486
 20
17.7071937621
 10
-3.0584619124
 20
17.6925480307
 10
-3.0844259627
 20
17.6905886839
  0
LWPOLYLINE
  5
36B
100
AcDbEntity
  8
RACCORDO
100
AcDbPolyline
 62
250
  6
CONTINUOUS
 90
29
 70
0
 10
-0.169745661
 20
52.1617021978
 10
-0.1705933429
 20
52.1504801523
 10
-0.1711804367
 20
52.1399191126
 10
-0.1715206493
 20
52.1300100419
 10
-0.1716230908
 20
52.1207536224
 10
-0.1715025077
 20
52.112127469
 10
-0.1711794373
 20
52.1040896347
 10
-0.1706620179
 20
52.0966227485
 10
-0.1699601245
 20
52.0897254364
 10
-0.1690956313
 20
52.083381458
 10
-0.1680736252
 20
52.07758057
 10
-0.1669017353
 20
52.0723094776
 10
-0.1656043134
 20
52.0675460972
 10
-0.1641864428
 20
52.0632809965
 10
-0.1626508133
 20
52.0594971592
 10
-0.1610175225
 20
52.0561623617
 10
-0.1592918636
 20
52.0532654725
 10
-0.1574733535
 20
52.0507939172
 10
-0.1555740749
 20
52.0487179691
 10
-0.1535986519
 20
52.0470271541
 10
-0.1515464465
 20
52.045713889
 10
-0.1494231912
 20
52.0447584927
 10
-0.1472324237
 20
52.044153056
 10
-0.1449748667
 20
52.0438926058
 10
-0.1426536306
 20
52.0439664581
 10
-0.1402726127
 20
52.0443687573
 10
-0.1378324056
 20
52.045095442
 10
-0.1353326512
 20
52.0461420011
 10
-0.135027929
 20
52.0463027506
  0
LINE
  5
36C
100
AcDbEntity
  8
RACCORDO
100
AcDbLine
 62
250
  6
CONTINUOUS
 10
0.0319427251
 20
52.9189540792
 11
0.0314788058
 21
52.9130115443
  0
LINE
  5
36D
100
AcDbEntity
  8
ASSI
100
AcDbLine
 62
7
  6
CONTINUOUS
 10
-4.1896076785
 20
8.5015895174
 11
-4.6845824254
 21
2.3881144045
  0
LINE
  5
36E
100
AcDbEntity
  8
ASSI
100
AcDbLine
 62
7
  6
CONTINUOUS
 10
-2.4218407256
 20
9.5222760007
 11
-2.9168154724
 21
3.4088008878
  0
LINE
  5
36F
100
AcDbEntity
  8
RACCORDO
100
AcDbLine
 62
250
  6
CONTINUOUS
 10
0.0308467779
 20
52.9106270609
 11
0.0314788058
 21
52.9130115443
  0
LINE
  5
370
100
AcDbEntity
  8
RACCORDO
100
AcDbLine
 62
7
  6
CONTINUOUS
 10
0.0308467779
 20
52.9106270609
 11
0.02675609
 21
52.8642936409
  0
LINE
  5
371
100
AcDbEntity
  8
RACCORDO
100
AcDbLine
 62
7
  6
CONTINUOUS
 10
0.02675609
 20
52.8642936409
 11
0.0209440138
 21
52.8028873608
  0
LWPOLYLINE
  5
372
100
AcDbEntity
  8
RACCORDO
100
AcDbPolyline
 62
7
  6
CONTINUOUS
 90
5
 70
0
 10
0.0209440138
 20
52.8028873608
 10
0.0145218003
 20
52.7395545185
 10
0.007487204
 20
52.6742990708
 10
-0.0001624313
 20
52.6071229122
 10
-0.0084248542
 20
52.5380283287
  0
LINE
  5
373
100
AcDbEntity
  8
RACCORDO
100
AcDbLine
 62
250
  6
CONTINUOUS
 10
0.0126382653
 20
52.7143221701
 11
0.0145218003
 21
52.7395545185
  0
LWPOLYLINE
  5
374
100
AcDbEntity
  8
RACCORDO
100
AcDbPolyline
 62
250
  6
CONTINUOUS
 90
3
 70
0
 10
0.0019058146
 20
52.6164024714
 10
0.0073516179
 20
52.6650567028
 10
0.007487204
 20
52.6742990708
  0
LWPOLYLINE
  5
375
100
AcDbEntity
  8
ASSI
100
AcDbPolyline
 62
7
  6
CONTINUOUS
 90
37
 70
0
 10
-2.6881559795
 20
-11.8907147297
 10
-2.6725788467
 20
-11.8018638075
 10
-2.6588132853
 20
-11.7169221233
 10
-2.6468592954
 20
-11.6358896772
 10
-2.6368968848
 20
-11.5592350826
 10
-2.6287460456
 20
-11.486489726
 10
-2.6218667547
 20
-11.416247767
 10
-2.6161697967
 20
-11.3488193445
 10
-2.6117443869
 20
-11.2838943195
 10
-2.6083181474
 20
-11.2191364342
 10
-2.6057889938
 20
-11.1536188934
 10
-2.6042590104
 20
-11.0882684923
 10
-2.603762073
 20
-11.0235293591
 10
-2.6043202762
 20
-10.9594348111
 10
-2.6059115255
 20
-10.8959515311
 10
-2.6085034125
 20
-10.8334236955
 10
-2.6119887671
 20
-10.7726577334
 10
-2.6164747595
 20
-10.7128472158
 10
-2.6222504919
 20
-10.651917032
 10
-2.6292321239
 20
-10.5894061303
 10
-2.637503496
 20
-10.5257755625
 10
-2.6476052313
 20
-10.4603333735
 10
-2.6595364208
 20
-10.3926725205
 10
-2.6732979737
 20
-10.3232000464
 10
-2.6894332404
 20
-10.2524451254
 10
-2.7079295961
 20
-10.1803515248
 10
-2.7287996656
 20
-10.1069754772
 10
-2.7526246745
 20
-10.033014855
 10
-2.7793625294
 20
-9.9584721463
 10
-2.8090553238
 20
-9.883344863
 10
-2.8424105633
 20
-9.8083234136
 10
-2.8793648558
 20
-9.7333629252
 10
-2.9199815936
 20
-9.6585082708
 10
-2.9651584593
 20
-9.5845844775
 10
-3.0151946805
 20
-9.5118665545
 10
-3.0697910297
 20
-9.4400794927
 10
-3.1289475068
 20
-9.3692232921
  0
LWPOLYLINE
  5
376
100
AcDbEntity
  8
RACCORDO
100
AcDbPolyline
 62
250
  6
CONTINUOUS
 90
8
 70
0
 10
-9.5784973383
 20
-19.423411555
 10
-9.5893977292
 20
-19.4548962995
 10
-9.5963050881
 20
-19.4837995196
 10
-9.5991437367
 20
-19.5098045457
 10
-9.5978825741
 20
-19.5326264611
 10
-9.5925354178
 20
-19.5520152242
 10
-9.5831608525
 20
-19.5677584076
 10
-9.5793963819
 20
-19.5719263134
  0
LWPOLYLINE
  5
377
100
AcDbEntity
  8
SMUSSO
100
AcDbPolyline
 62
7
  6
CONTINUOUS
 90
8
 70
0
 10
-5.872899423
 20
-7.5558028231
 10
-5.814134869
 20
-7.4094312294
 10
-5.6943060755
 20
-7.1732204139
 10
-5.5574306774
 20
-6.9565482462
 10
-5.4040966695
 20
-6.7603478036
 10
-5.234960801
 20
-6.585460158
 10
-5.0507468424
 20
-6.432634346
 10
-4.8523855493
 20
-6.3026073982
  0
LWPOLYLINE
  5
378
100
AcDbEntity
  8
ASSI
100
AcDbPolyline
 62
7
  6
CONTINUOUS
 90
7
 70
0
 10
2.2776916044
 20
4.2265425235
 10
2.24553796
 20
4.1604674339
 10
2.2175396545
 20
4.0903459422
 10
2.1937344701
 20
4.0161412567
 10
2.1740846246
 20
3.9378901692
 10
2.1587682435
 20
3.8563020249
 10
2.1478447022
 20
3.7716132724
  0
LWPOLYLINE
  5
379
100
AcDbEntity
  8
ASSI
100
AcDbPolyline
 62
7
  6
CONTINUOUS
 90
7
 70
0
 10
2.3050373961
 20
4.2741924852
 10
2.2551765904
 20
4.181432534
 10
2.2136040147
 20
4.0788642787
 10
2.1811198509
 20
3.9684619357
 10
2.1579908263
 20
3.8508835773
 10
2.1439502137
 20
3.7254711311
 10
2.1389980131
 20
3.5922245973
  0
LINE
  5
37A
100
AcDbEntity
  8
ASSI
100
AcDbLine
 62
7
  6
CONTINUOUS
 10
2.3137091151
 20
4.2879722411
 11
2.2776916044
 21
4.2265425235
  0
LWPOLYLINE
  5
37B
100
AcDbEntity
  8
ASSI
100
AcDbPolyline
 62
7
  6
CONTINUOUS
 90
3
 70
0
 10
2.4044603293
 20
4.4019909554
 10
2.3633469925
 20
4.3569541245
 10
2.3050373961
 20
4.2741924852
  0
LWPOLYLINE
  5
37C
100
AcDbEntity
  8
ASSI
100
AcDbPolyline
 62
7
  6
CONTINUOUS
 90
3
 70
0
 10
2.4018549037
 20
4.4012347276
 10
2.3974059999
 20
4.3968110843
 10
2.3536256243
 20
4.3447143487
  0
LWPOLYLINE
  5
37D
100
AcDbEntity
  8
RACCORDO
100
AcDbPolyline
 62
7
  6
CONTINUOUS
 90
13
 70
0
 10
-6.9720605828
 20
-4.2643996327
 10
-7.2169765917
 20
-4.4202492807
 10
-7.4498020755
 20
-4.5982544071
 10
-7.6695376154
 20
-4.7981464398
 10
-7.8751945303
 20
-5.0195283695
 10
-8.0659357454
 20
-5.2620225661
 10
-8.241074202
 20
-5.5253694616
 10
-8.4000617751
 20
-5.8095676909
 10
-8.5419010951
 20
-6.1137612054
 10
-8.6655097152
 20
-6.4362633154
 10
-8.7703462236
 20
-6.7759578546
 10
-8.85617418
 20
-7.1324813357
 10
-8.9226332115
 20
-7.5050725592
  0
LWPOLYLINE
  5
37E
100
AcDbEntity
  8
ASSI
100
AcDbPolyline
 62
7
  6
CONTINUOUS
 90
3
 70
0
 10
11.0127279357
 20
7.3629794222
 10
11.2876041834
 20
7.5336564679
 10
11.6371857027
 20
7.7893545343
  0
LWPOLYLINE
  5
37F
100
AcDbEntity
  8
ASSI
100
AcDbPolyline
 62
7
  6
CONTINUOUS
 90
18
 70
0
 10
11.7198105294
 20
7.7712958833
 10
11.8793502419
 20
7.8673810039
 10
12.2205405008
 20
8.1017041222
 10
12.5434059096
 20
8.3650282972
 10
12.848070518
 20
8.6571569931
 10
13.132458377
 20
8.9761033002
 10
13.3964312652
 20
9.3220502489
 10
13.6401274041
 20
9.6948148088
 10
13.8618855088
 20
10.0918609789
 10
14.0615561681
 20
10.5133557515
 10
14.2392887932
 20
10.9591321343
 10
14.3938703336
 20
11.4261531489
 10
14.5251422632
 20
11.9145591067
 10
14.6332631079
 20
12.4242096962
 10
14.7174953952
 20
12.9516470052
 10
14.7775933008
 20
13.4957183962
 10
14.8138026488
 20
14.0575765066
 10
14.8261234394
 20
14.6372213364
  0
LINE
  5
380
100
AcDbEntity
  8
ASSI
100
AcDbLine
 62
250
  6
CONTINUOUS
 10
-2.805855624
 20
4.7792753934
 11
-1.9211886143
 21
5.2900710373
  0
LINE
  5
381
100
AcDbEntity
  8
ASSI
100
AcDbLine
 62
7
  6
CONTINUOUS
 10
-4.6845824254
 20
2.3881144045
 11
-2.9168154724
 21
3.4088008878
  0
LINE
  5
382
100
AcDbEntity
  8
ASSI
100
AcDbLine
 62
7
  6
CONTINUOUS
 10
11.7198841237
 20
7.7711684192
 11
11.0127773425
 21
7.3628938259
  0
LINE
  5
383
100
AcDbEntity
  8
ASSI
100
AcDbLine
 62
7
  6
CONTINUOUS
 10
-5.9114004111
 20
-3.6519877427
 11
-6.9720605828
 21
-4.2643996327
  0
LWPOLYLINE
  5
384
100
AcDbEntity
  8
SMUSSO
100
AcDbPolyline
 62
7
  6
CONTINUOUS
 90
7
 70
0
 10
2.2099639956
 20
4.326447866
 10
2.2308855154
 20
4.3380443063
 10
2.3182650447
 20
4.3769726746
 10
2.4115840033
 20
4.40405861
 10
2.5102312552
 20
4.4191282396
 10
2.61357078
 20
4.4220877229
 10
2.6499197814
 20
4.4189835812
  0
LINE
  5
385
100
AcDbEntity
  8
ASSI
100
AcDbLine
 62
7
  6
CONTINUOUS
 10
-4.6845824254
 20
2.3881144045
 11
-1.5733125881
 21
0.5917061938
  0
LWPOLYLINE
  5
386
100
AcDbEntity
  8
ASSI
100
AcDbPolyline
 62
7
  6
CONTINUOUS
 90
3
 70
0
 10
-7.5458693123
 20
19.738316442
 10
-7.5020889367
 20
19.6356632261
 10
-7.4548415634
 20
19.5341240366
  0
LWPOLYLINE
  5
387
100
AcDbEntity
  8
RACCORDO
100
AcDbPolyline
 62
250
  6
CONTINUOUS
 90
11
 70
0
 10
4.027709106
 20
-27.2794646301
 10
4.0424831018
 20
-27.3257734437
 10
4.0609688355
 20
-27.3693383173
 10
4.0829637736
 20
-27.409681945
 10
4.1082269348
 20
-27.4463623136
 10
4.1364815309
 20
-27.4789775453
 10
4.1674179984
 20
-27.5071703008
 10
4.200697391
 20
-27.5306316945
 10
4.2359550927
 20
-27.5491046783
 10
4.2728048127
 20
-27.5623868584
 10
4.3072520214
 20
-27.5698194462
  0
LWPOLYLINE
  5
388
100
AcDbEntity
  8
ASSI
100
AcDbPolyline
 62
7
  6
CONTINUOUS
 90
3
 70
0
 10
-7.6539569766
 20
20.0473802822
 10
-7.6218033322
 20
19.94417497
 10
-7.5857858215
 20
19.8411531339
  0
LINE
  5
389
100
AcDbEntity
  8
RACCORDO
100
AcDbLine
 62
250
  6
CONTINUOUS
 10
2.6319091065
 20
-13.6035094392
 11
2.7170069607
 21
-14.0198133341
  0
LWPOLYLINE
  5
38A
100
AcDbEntity
  8
RACCORDO
100
AcDbPolyline
 62
250
  6
CONTINUOUS
 90
5
 70
0
 10
2.7170069607
 20
-14.0198133341
 10
2.7833314951
 20
-14.4288698083
 10
2.8305968888
 20
-14.8292047741
 10
2.8590889627
 20
-15.2222923193
 10
2.868807717
 20
-15.6081324438
  0
LWPOLYLINE
  5
38B
100
AcDbEntity
  8
ASSI
100
AcDbPolyline
 62
7
  6
CONTINUOUS
 90
6
 70
0
 10
2.1412546254
 20
3.4982558521
 10
2.1478447022
 20
3.4026199873
 10
2.1587682435
 20
3.3053170031
 10
2.1740846246
 20
3.206041886
 10
2.1937344701
 20
3.1050996494
 10
2.2175396545
 20
3.0034053336
  0
LWPOLYLINE
  5
38C
100
AcDbEntity
  8
RACCORDO
100
AcDbPolyline
 62
250
  6
CONTINUOUS
 90
20
 70
0
 10
-1.7500892834
 20
53.8053636222
 10
-1.7462636131
 20
53.7426729478
 10
-1.7363030647
 20
53.6793820264
 10
-1.720207638
 20
53.615490858
 10
-1.6974892892
 20
53.5498811132
 10
-1.6686360621
 20
53.4836711213
 10
-1.6351120892
 20
53.4202158711
 10
-1.5966786553
 20
53.3596657281
 10
-1.5535744755
 20
53.3018703267
 10
-1.5079798276
 20
53.2497335588
 10
-1.4597701774
 20
53.2035499997
 10
-1.409070059
 20
53.1630250741
 10
-1.3584333526
 20
53.1301789479
 10
-1.3078617049
 20
53.1054115133
 10
-1.2573534691
 20
53.0883228782
 10
-1.2094575853
 20
53.0797335313
 10
-1.1643348243
 20
53.0800666708
 10
-1.1218244152
 20
53.0888990985
 10
-1.083992986
 20
53.1057817092
 10
-1.0510525393
 20
53.1312674466
  0
LWPOLYLINE
  5
38D
100
AcDbEntity
  8
RACCORDO
100
AcDbPolyline
 62
250
  6
CONTINUOUS
 90
23
 70
0
 10
-0.9722718241
 20
53.3562615695
 10
-0.9760974944
 20
53.4189522439
 10
-0.9860580429
 20
53.4822431653
 10
-1.0021534695
 20
53.5461343337
 10
-1.0248718184
 20
53.6117440786
 10
-1.0537250455
 20
53.6779540704
 10
-1.0872490184
 20
53.7414093206
 10
-1.1256824523
 20
53.8019594636
 10
-1.168786632
 20
53.859754865
 10
-1.2143812799
 20
53.9118916329
 10
-1.2625909302
 20
53.958075192
 10
-1.3132910486
 20
53.9986001176
 10
-1.363927755
 20
54.0314462439
 10
-1.4144994027
 20
54.0562136784
 10
-1.4650076385
 20
54.0733023135
 10
-1.5129035222
 20
54.0818916604
 10
-1.5580262833
 20
54.0815585209
 10
-1.6005366924
 20
54.0727260932
 10
-1.6383681215
 20
54.0558434826
 10
-1.6713085682
 20
54.0303577451
 10
-1.6995700351
 20
53.9968218248
 10
-1.721721902
 20
53.9573436587
 10
-1.7372872957
 20
53.9126258923
  0
LWPOLYLINE
  5
38E
100
AcDbEntity
  8
RACCORDO
100
AcDbPolyline
 62
250
  6
CONTINUOUS
 90
22
 70
0
 10
-0.8308504679
 20
53.3562615695
 10
-0.8339581892
 20
53.4196664981
 10
-0.8432393207
 20
53.4858026829
 10
-0.8585683437
 20
53.5537757603
 10
-0.8797379474
 20
53.6226665087
 10
-0.9064618503
 20
53.6915433394
 10
-0.9383786876
 20
53.7594748936
 10
-0.9750568755
 20
53.8255425696
 10
-1.0160004035
 20
53.888852895
 10
-1.0606555608
 20
53.9485496769
 10
-1.1084184629
 20
54.0038256323
 10
-1.1586432178
 20
54.0539332838
 10
-1.2106506238
 20
54.0981950259
 10
-1.2637374016
 20
54.1360123327
 10
-1.3171856454
 20
54.1668738022
 10
-1.3702725181
 20
54.1903620888
 10
-1.422280099
 20
54.2061595959
 10
-1.4725051482
 20
54.2140527602
 10
-1.5202685475
 20
54.2139348832
 10
-1.5649240855
 20
54.2058076687
 10
-1.6058682888
 20
54.189781064
 10
-1.6154855798
 20
54.1845475006
  0
LWPOLYLINE
  5
38F
100
AcDbEntity
  8
ASSI
100
AcDbPolyline
 62
7
  6
CONTINUOUS
 90
29
 70
0
 10
2.1389980131
 20
3.5922245973
 10
2.1439502137
 20
3.4532593863
 10
2.1579908263
 20
3.3116331927
 10
2.1811198509
 20
3.1673460164
 10
2.2136040147
 20
3.0194317754
 10
2.2551765904
 20
2.8688565517
 10
2.3050373961
 20
2.7185185918
 10
2.3633469925
 20
2.5684224922
 10
2.4299448189
 20
2.4185636564
 10
2.5035490116
 20
2.271826542
 10
2.5842952987
 20
2.1282716235
 10
2.6720479522
 20
1.9878384264
 10
2.7651179237
 20
1.8532299853
 10
2.8636082209
 20
1.7245591379
 10
2.9674158361
 20
1.6017130465
 10
3.074542698
 20
1.4870562319
 10
3.1850531072
 20
1.3807473377
 10
3.298882763
 20
1.2826277203
 10
3.4138406913
 20
1.1945859695
 10
3.5299487493
 20
1.116817315
 10
3.6471850798
 20
1.0491265271
 10
3.7632931377
 20
0.9928165067
 10
3.878251066
 20
0.9481077233
 10
3.9920807218
 20
0.9147797075
 10
4.1025911311
 20
0.8934739511
 10
4.2097179929
 20
0.8844233509
 10
4.3135256082
 20
0.8873950103
 10
4.4120159054
 20
0.9023317311
 10
4.419384587
 20
0.9044799927
  0
LWPOLYLINE
  5
390
100
AcDbEntity
  8
RACCORDO
100
AcDbPolyline
 62
250
  6
CONTINUOUS
 90
15
 70
0
 10
1.2904698757
 20
52.0497828709
 10
1.2830764474
 20
52.2827110359
 10
1.2612216946
 20
52.5208779796
 10
1.2249056173
 20
52.764283702
 10
1.1737453035
 20
53.014609227
 10
1.1081236653
 20
53.2701735306
 10
1.0291894383
 20
53.5259335411
 10
0.9367588945
 20
53.7815705068
 10
0.831015762
 20
54.0374031794
 10
0.7136599609
 20
54.2893447423
 10
0.5844632794
 20
54.5374174385
 10
0.4436539293
 20
54.7815990249
 10
0.2936164656
 20
55.0177359557
 10
0.1342148839
 20
55.2456556688
 10
-0.0344148113
 20
55.4655307261
  0
LWPOLYLINE
  5
391
100
AcDbEntity
  8
RACCORDO
100
AcDbPolyline
 62
7
  6
CONTINUOUS
 90
28
 70
0
 10
2.7223611076
 20
-15.4039952613
 10
2.7134714587
 20
-15.045244663
 10
2.6867108204
 20
-14.6755078847
 10
2.6420037156
 20
-14.2961255565
 10
2.5793658359
 20
-13.9085311561
 10
2.4988892497
 20
-13.5141361974
 10
2.4007156876
 20
-13.1142742023
 10
2.2850477432
 20
-12.7103068707
 10
2.1522225736
 20
-12.3038316638
 10
2.0026901464
 20
-11.8965114295
 10
1.8369281274
 20
-11.4898493411
 10
1.655484465
 20
-11.0853496937
 10
1.4590447269
 20
-10.6846474388
 10
1.2483028448
 20
-10.2892201668
 10
1.024010313
 20
-9.9005193707
 10
0.7870537899
 20
-9.5200911414
 10
0.5383067446
 20
-9.1493189489
 10
0.2786952737
 20
-8.7895512273
 10
0.0092874168
 20
-8.4422097829
 10
-0.2688874672
 20
-8.108538155
 10
-0.5547730472
 20
-7.7897090675
 10
-0.8471686296
 20
-7.4869445648
 10
-1.1449109227
 20
-7.2013055648
 10
-1.4468700341
 20
-6.9337208303
 10
-1.7518132
 20
-6.6851127288
 10
-2.0585066913
 20
-6.4562942417
 10
-2.3657577249
 20
-6.2479460694
 10
-2.6723620368
 20
-6.0606626673
  0
LINE
  5
392
100
AcDbEntity
  8
ASSI
100
AcDbLine
 62
7
  6
CONTINUOUS
 10
2.1389980131
 20
3.5922245973
 11
2.1412546254
 21
3.4982558521
  0
LWPOLYLINE
  5
393
100
AcDbEntity
  8
ASSI
100
AcDbPolyline
 62
7
  6
CONTINUOUS
 90
30
 70
0
 10
1.6440232663
 20
51.8456455742
 10
1.6408552615
 20
52.0059520762
 10
1.6315250513
 20
52.1688385867
 10
1.6160326357
 20
52.3343051056
 10
1.5943204397
 20
52.5027047941
 10
1.5664460384
 20
52.6736844909
 10
1.5325821565
 20
52.8461847131
 10
1.4926916034
 20
53.020214902
 10
1.4468115697
 20
53.1957656162
 10
1.3952263533
 20
53.371749048
 10
1.3379005284
 20
53.5481678843
 10
1.2748695208
 20
53.7250194382
 10
1.2065239047
 20
53.9012078413
 10
1.1328306798
 20
54.0767289759
 10
1.0538228465
 20
54.2515869596
 10
0.9699899803
 20
54.4246982774
 10
0.8813021207
 20
54.5960520835
 10
0.7877892283
 20
54.7656592237
 10
0.6900307596
 20
54.9324687199
 10
0.5880003524
 20
55.0964632005
 10
0.481724369
 20
55.257660037
 10
0.3718613532
 20
55.4150603663
 10
0.2583890318
 20
55.5686406144
 10
0.1413296779
 20
55.7184243552
 10
0.0214086551
 20
55.8634834472
 10
-0.1013918059
 20
56.0037885534
 10
-0.2270539359
 20
56.1393690108
 10
-0.354799064
 20
56.2693846892
 10
-0.4846401244
 20
56.3938010348
 10
-0.6165641828
 20
56.5126526013
  0
LWPOLYLINE
  5
394
100
AcDbEntity
  8
ASSI
100
AcDbPolyline
 62
7
  6
CONTINUOUS
 90
6
 70
0
 10
7.477654211
 20
4.1836703886
 10
7.4688309529
 20
4.684410997
 10
7.4429672345
 20
5.192231707
 10
7.4000630556
 20
5.7071325186
 10
7.3401184165
 20
6.2291134319
 10
7.2666185729
 20
6.7342228895
  0
LWPOLYLINE
  5
395
100
AcDbEntity
  8
RACCORDO
100
AcDbPolyline
 62
250
  6
CONTINUOUS
 90
13
 70
0
 10
2.868807717
 20
-15.6081324438
 10
2.8590877705
 20
-15.982760327
 10
2.8305943619
 20
-16.3429540036
 10
2.7833274911
 20
-16.6887134735
 10
2.7170012305
 20
-17.0211820925
 10
2.6319015078
 20
-17.3392165048
 10
2.5288861059
 20
-17.6393866435
 10
2.407772424
 20
-17.9214397789
 10
2.268743063
 20
-18.1856286406
 10
2.1132036077
 20
-18.4292813502
 10
1.9409874899
 20
-18.6521879744
 10
1.7522612779
 20
-18.8545584467
 10
1.5489302616
 20
-19.0343506883
  0
LWPOLYLINE
  5
396
100
AcDbEntity
  8
RACCORDO
100
AcDbPolyline
 62
250
  6
CONTINUOUS
 90
36
 70
0
 10
2.7223611076
 20
-15.4039952612
 10
2.712130843
 20
-15.7815054669
 10
2.6814784448
 20
-16.1457736664
 10
2.6305195722
 20
-16.4954177237
 10
2.5594466693
 20
-16.8291119053
 10
2.4685288652
 20
-17.1455888136
 10
2.3581115619
 20
-17.443644741
 10
2.2286139259
 20
-17.7221483135
 10
2.080526889
 20
-17.9800438016
 10
1.9144124265
 20
-18.2163525153
 10
1.7309008706
 20
-18.4301779298
 10
1.5306882573
 20
-18.6207091808
 10
1.3145338942
 20
-18.7872237107
 10
1.083257635
 20
-18.9290899052
 10
0.8377368658
 20
-19.045769533
 10
0.5789029836
 20
-19.1368199559
 10
0.307737863
 20
-19.2018957839
 10
0.0252701138
 20
-19.2407501703
 10
-0.267428769
 20
-19.2532357281
 10
-0.5692484757
 20
-19.2393050937
 10
-0.8790440895
 20
-19.1990111101
 10
-1.1956404394
 20
-19.1325066271
 10
-1.5178365581
 20
-19.040043921
 10
-1.8444102384
 20
-18.9219737365
 10
-2.1741226661
 20
-18.7787439573
 10
-2.505723121
 20
-18.6108979066
 10
-2.8379537209
 20
-18.419072286
 10
-3.1695541929
 20
-18.2039947608
 10
-3.4992666543
 20
-17.9664811993
 10
-3.825840385
 20
-17.7074325774
 10
-4.1480365724
 20
-17.4278315606
 10
-4.4646330101
 20
-17.128738776
 10
-4.7744287292
 20
-16.8112887939
 10
-5.0762485557
 20
-16.4766858244
 10
-5.3689475708
 20
-16.1261991473
 10
-5.4404706388
 20
-16.033767961
  0
LWPOLYLINE
  5
397
100
AcDbEntity
  8
SMUSSO
100
AcDbPolyline
 62
7
  6
CONTINUOUS
 90
49
 70
0
 10
4.6845824254
 20
0.0810630947
 10
4.6782388368
 20
-0.1330192559
 10
4.6599024717
 20
-0.3374332086
 10
4.6295733301
 20
-0.5321787635
 10
4.587020394
 20
-0.7180072087
 10
4.5324746813
 20
-0.8941672561
 10
4.4666292462
 20
-1.0584050407
 10
4.3893383768
 20
-1.2105670723
 10
4.3007477849
 20
-1.3508068412
 10
4.2019876595
 20
-1.4773309537
 10
4.0929268833
 20
-1.5899627247
 10
3.9736965736
 20
-1.6888788393
 10
3.845820271
 20
-1.7728159596
 10
3.7091877997
 20
-1.8415810876
 10
3.5639093355
 20
-1.8953672211
 10
3.4118389473
 20
-1.9334900162
 10
3.2528905942
 20
-1.9557490994
 10
3.0871503171
 20
-1.9623448442
 10
2.9167303076
 20
-1.9531940257
 10
2.7415704597
 20
-1.9280955519
 10
2.5617308794
 20
-1.8872505149
 10
2.3795040755
 20
-1.8311789667
 10
2.1948584305
 20
-1.7596854464
 10
2.0078255618
 20
-1.672965415
 10
1.8207928306
 20
-1.572125306
 10
1.6337603143
 20
-1.4569838125
 10
1.4467279355
 20
-1.3277222415
 10
1.2620828224
 20
-1.185990948
 10
1.0798565818
 20
-1.0316310425
 10
0.9000176069
 20
-0.8648014145
 10
0.7248582058
 20
-0.6876290877
 10
0.554438366
 20
-0.4999822707
 10
0.3886981001
 20
-0.3019927549
 10
0.2297497536
 20
-0.0961829384
 10
0.0776793325
 20
0.1175483299
 10
-0.067599169
 20
0.339099899
 10
-0.2042314229
 20
0.5656459175
 10
-0.3321071402
 20
0.7972520632
 10
-0.4513366098
 20
1.0338526582
 10
-0.56039637
 20
1.2724248187
 10
-0.6591552484
 20
1.5129936909
 10
-0.7477444174
 20
1.7555341286
 10
-0.8250339322
 20
1.9969478082
 10
-0.8908781034
 20
2.2372198819
 10
-0.9454226205
 20
2.4763651975
 10
-0.9879746065
 20
2.7113299752
 10
-1.0183031027
 20
2.9410962883
 10
-1.036639068
 20
3.1666820634
 10
-1.0429825023
 20
3.3880873007
  0
LINE
  5
398
100
AcDbEntity
  8
RACCORDO
100
AcDbLine
 62
250
  6
CONTINUOUS
 10
1.6371333637
 20
-56.3563669488
 11
1.6377457179
 21
-56.3364728733
  0
LWPOLYLINE
  5
399
100
AcDbEntity
  8
RACCORDO
100
AcDbPolyline
 62
7
  6
CONTINUOUS
 90
3
 70
0
 10
0.0530330086
 20
-55.4180482658
 10
0.0490573349
 20
-55.5366499513
 10
0.0373317012
 20
-55.6507597343
  0
LWPOLYLINE
  5
39A
100
AcDbEntity
  8
SMUSSO
100
AcDbPolyline
 62
7
  6
CONTINUOUS
 90
11
 70
0
 10
1.7854446225
 20
3.3880873007
 10
1.7901421523
 20
3.5200144918
 10
1.8042063327
 20
3.6456753372
 10
1.8275490291
 20
3.7642530358
 10
1.8600230282
 20
3.8749795729
 10
1.9014200691
 20
3.9771303244
 10
1.9514694268
 20
4.0700315315
 10
2.0098464362
 20
4.1530795666
 10
2.0761730342
 20
4.2257357445
 10
2.1500134929
 20
4.2875239745
 10
2.2099639956
 20
4.326447866
  0
LWPOLYLINE
  5
39B
100
AcDbEntity
  8
ASSI
100
AcDbPolyline
 62
7
  6
CONTINUOUS
 90
3
 70
0
 10
2.1478447022
 20
3.7716132724
 10
2.1412546254
 20
3.6835874632
 10
2.1389980131
 20
3.5922245973
  0
LWPOLYLINE
  5
39C
100
AcDbEntity
  8
RACCORDO
100
AcDbPolyline
 62
250
  6
CONTINUOUS
 90
29
 70
0
 10
-0.169745661
 20
-56.0206094773
 10
-0.1705933429
 20
-56.0318315227
 10
-0.1711804367
 20
-56.0423925624
 10
-0.1715206493
 20
-56.0523016331
 10
-0.1716230908
 20
-56.0615580527
 10
-0.1715025077
 20
-56.070184206
 10
-0.1711794373
 20
-56.0782220404
 10
-0.1706620179
 20
-56.0856889265
 10
-0.1699601245
 20
-56.0925862386
 10
-0.1690956313
 20
-56.0989302171
 10
-0.1680736252
 20
-56.1047311051
 10
-0.1669017353
 20
-56.1100021974
 10
-0.1656043134
 20
-56.1147655778
 10
-0.1641864428
 20
-56.1190306785
 10
-0.1626508133
 20
-56.1228145159
 10
-0.1610175225
 20
-56.1261493134
 10
-0.1592918636
 20
-56.1290462026
 10
-0.1574733535
 20
-56.1315177578
 10
-0.1555740749
 20
-56.133593706
 10
-0.1535986519
 20
-56.135284521
 10
-0.1515464465
 20
-56.1365977861
 10
-0.1494231912
 20
-56.1375531823
 10
-0.1472324237
 20
-56.1381586191
 10
-0.1449748667
 20
-56.1384190692
 10
-0.1426536306
 20
-56.138345217
 10
-0.1402726127
 20
-56.1379429178
 10
-0.1378324056
 20
-56.1372162331
 10
-0.1353326512
 20
-56.1361696739
 10
-0.135027929
 20
-56.1360089244
  0
LINE
  5
39D
100
AcDbEntity
  8
RACCORDO
100
AcDbLine
 62
250
  6
CONTINUOUS
 10
0.0319427251
 20
-55.2633575958
 11
0.0314788058
 21
-55.2693001308
  0
LINE
  5
39E
100
AcDbEntity
  8
RACCORDO
100
AcDbLine
 62
250
  6
CONTINUOUS
 10
0.0308467779
 20
-55.2716846142
 11
0.0314788058
 21
-55.2693001308
  0
LINE
  5
39F
100
AcDbEntity
  8
RACCORDO
100
AcDbLine
 62
7
  6
CONTINUOUS
 10
0.0308467779
 20
-55.2716846142
 11
0.02675609
 21
-55.3180180342
  0
LWPOLYLINE
  5
3A0
100
AcDbEntity
  8
SMUSSO
100
AcDbPolyline
 62
7
  6
CONTINUOUS
 90
3
 70
0
 10
2.6964986509
 20
-14.8107408664
 10
2.684416085
 20
-14.9454438122
 10
2.6371324924
 20
-15.248890704
  0
LINE
  5
3A1
100
AcDbEntity
  8
RACCORDO
100
AcDbLine
 62
7
  6
CONTINUOUS
 10
0.02675609
 20
-55.3180180342
 11
0.0209440138
 21
-55.3794243143
  0
LWPOLYLINE
  5
3A2
100
AcDbEntity
  8
RACCORDO
100
AcDbPolyline
 62
7
  6
CONTINUOUS
 90
5
 70
0
 10
0.0209440138
 20
-55.3794243143
 10
0.0145218003
 20
-55.4427571565
 10
0.007487204
 20
-55.5080126043
 10
-0.0001624313
 20
-55.5751887628
 10
-0.0084248542
 20
-55.6442833464
  0
LINE
  5
3A3
100
AcDbEntity
  8
RACCORDO
100
AcDbLine
 62
250
  6
CONTINUOUS
 10
0.0126382653
 20
-55.4679895049
 11
0.0145218003
 21
-55.4427571565
  0
LINE
  5
3A4
100
AcDbEntity
  8
RACCORDO
100
AcDbLine
 62
250
  6
CONTINUOUS
 10
0.0073516179
 20
-55.5172549723
 11
0.007487204
 21
-55.5080126043
  0
LINE
  5
3A5
100
AcDbEntity
  8
RACCORDO
100
AcDbLine
 62
250
  6
CONTINUOUS
 10
-0.015017111
 20
-55.7074960416
 11
-0.0084248542
 21
-55.6442833464
  0
LWPOLYLINE
  5
3A6
100
AcDbEntity
  8
RACCORDO
100
AcDbPolyline
 62
7
  6
CONTINUOUS
 90
15
 70
0
 10
-0.0084248542
 20
-55.6442833464
 10
-0.017857486
 20
-55.719599323
 10
-0.0230978282
 20
-55.7577180315
 10
-0.028676129
 20
-55.7942597542
 10
-0.0345773926
 20
-55.829263341
 10
-0.0409024902
 20
-55.8633320609
 10
-0.0476641927
 20
-55.8964275771
 10
-0.0547990228
 20
-55.9281691107
 10
-0.0623412042
 20
-55.9586397149
 10
-0.0702590306
 20
-55.9876354201
 10
-0.078477785
 20
-56.0148398518
 10
-0.0869351526
 20
-56.0400514828
 10
-0.095572376
 20
-56.0631153456
 10
-0.1041902903
 20
-56.0835872837
 10
-0.1052831349
 20
-56.0860072736
  0
LINE
  5
3A7
100
AcDbEntity
  8
RACCORDO
100
AcDbLine
 62
250
  6
CONTINUOUS
 10
-0.0185693761
 20
-55.7347471368
 11
-0.015017111
 21
-55.7074960416
  0
LINE
  5
3A8
100
AcDbEntity
  8
RACCORDO
100
AcDbLine
 62
250
  6
CONTINUOUS
 10
-0.0222879145
 20
-55.7613673294
 11
-0.0230978282
 21
-55.7577180315
  0
LINE
  5
3A9
100
AcDbEntity
  8
RACCORDO
100
AcDbLine
 62
7
  6
CONTINUOUS
 10
-1.2683126128
 20
-53.0975617413
 11
-1.2693284843
 21
-53.1047500192
  0
LWPOLYLINE
  5
3AA
100
AcDbEntity
  8
RACCORDO
100
AcDbPolyline
 62
250
  6
CONTINUOUS
 90
10
 70
0
 10
-2.1964343755
 20
-54.8504247565
 10
-2.1975935828
 20
-54.8576720312
 10
-2.1985784366
 20
-54.866245646
 10
-2.1993724083
 20
-54.8760017125
 10
-2.1999621731
 20
-54.886776497
 10
-2.2003378333
 20
-54.8983891694
 10
-2.2004930846
 20
-54.9106448372
 10
-2.2004253214
 20
-54.9233378169
 10
-2.2001356812
 20
-54.9362550857
 10
-2.1996290251
 20
-54.9491798564
  0
LWPOLYLINE
  5
3AB
100
AcDbEntity
  8
RACCORDO
100
AcDbPolyline
 62
250
  6
CONTINUOUS
 90
10
 70
0
 10
-2.0881544885
 20
-53.5493396062
 10
-2.0966526412
 20
-53.5990471903
 10
-2.1030409333
 20
-53.6503548243
 10
-2.1073067702
 20
-53.7031611642
 10
-2.109441749
 20
-53.7573619086
 10
-2.1094416753
 20
-53.8128500029
 10
-2.1073065715
 20
-53.8695158503
 10
-2.1030406761
 20
-53.9272475311
 10
-2.0966524359
 20
-53.9859310248
 10
-2.0881544885
 20
-54.0454504319
  0
LWPOLYLINE
  5
3AC
100
AcDbEntity
  8
RACCORDO
100
AcDbPolyline
 62
250
  6
CONTINUOUS
 90
10
 70
0
 10
-2.0178566217
 20
-53.5369407845
 10
-2.0261919127
 20
-53.5856956574
 10
-2.0324578286
 20
-53.6360200726
 10
-2.0366419944
 20
-53.6878146463
 10
-2.0387361464
 20
-53.7409770915
 10
-2.0387361482
 20
-53.7954024194
 10
-2.0366419994
 20
-53.8509831467
 10
-2.032457835
 20
-53.9076095087
 10
-2.0261919178
 20
-53.9651696759
 10
-2.0178566217
 20
-54.0235499747
  0
LWPOLYLINE
  5
3AD
100
AcDbEntity
  8
RACCORDO
100
AcDbPolyline
 62
7
  6
CONTINUOUS
 90
10
 70
0
 10
-1.2693284843
 20
-53.1047500192
 10
-1.277674654
 20
-53.153602109
 10
-1.2839342814
 20
-53.2038572535
 10
-1.2881073664
 20
-53.2555154526
 10
-1.2901939092
 20
-53.3087089134
 10
-1.2901939095
 20
-53.3633054289
 10
-1.2881073673
 20
-53.4189083783
 10
-1.2839342822
 20
-53.4753855547
 10
-1.2776746546
 20
-53.5328691651
 10
-1.2693284843
 20
-53.5913592094
  0
LWPOLYLINE
  5
3AE
100
AcDbEntity
  8
SMUSSO
100
AcDbPolyline
 62
7
  6
CONTINUOUS
 90
10
 70
0
 10
2.6371324924
 20
-15.248890704
 10
2.5712131298
 20
-15.5373196141
 10
2.4869376113
 20
-15.8094901665
 10
2.3846669802
 20
-16.0642273206
 10
2.2648381867
 20
-16.3004381361
 10
2.1279627887
 20
-16.5171103039
 10
1.9746287807
 20
-16.7133107465
 10
1.8054929123
 20
-16.888198392
 10
1.6212789536
 20
-17.0410242041
 10
1.4229176605
 20
-17.1710511518
  0
LINE
  5
3AF
100
AcDbEntity
  8
SMUSSO
100
AcDbLine
 62
7
  6
CONTINUOUS
 10
4.5603398333
 20
1.1097730367
 11
4.5185576211
 21
1.0322172371
  0
LWPOLYLINE
  5
3B0
100
AcDbEntity
  8
SMUSSO
100
AcDbPolyline
 62
7
  6
CONTINUOUS
 90
5
 70
0
 10
4.5185576211
 20
1.0322172371
 10
4.4601806117
 20
0.9491692021
 10
4.3938540137
 20
0.8765130242
 10
4.320013555
 20
0.8147247942
 10
4.2600630522
 20
0.7758009027
  0
LWPOLYLINE
  5
3B1
100
AcDbEntity
  8
0
100
AcDbPolyline
 62
7
  6
CONTINUOUS
 90
6
 70
0
 10
-4.8815214137
 20
-6.3816594483
 10
-5.0504902564
 20
-6.5561494924
 10
-5.2035041819
 20
-6.7521612653
 10
-5.340764985
 20
-6.9694225644
 10
-5.4605218561
 20
-7.2051621464
 10
-5.5192410514
 20
-7.3516049117
  0
LWPOLYLINE
  5
3B2
100
AcDbEntity
  8
ASSI
100
AcDbPolyline
 62
7
  6
CONTINUOUS
 90
15
 70
0
 10
11.6371857027
 20
7.7893545343
 10
11.967468902
 20
8.0768708692
 10
12.2760005434
 20
8.3940698934
 10
12.5626186623
 20
8.7411726276
 10
12.8274852233
 20
9.117958051
 10
13.0686328824
 20
9.5216275222
 10
13.2858850258
 20
9.9523812228
 10
13.4794182673
 20
10.4100189711
 10
13.6477951037
 20
10.8911415802
 10
13.7908282178
 20
11.3959239213
 10
13.9087049268
 20
11.9241911233
 10
14.0005496805
 20
12.4720193865
 10
14.0660706285
 20
13.0381007775
 10
14.1055596211
 20
13.6237432297
 10
14.1190166582
 20
14.228946743
  0
LINE
  5
3B3
100
AcDbEntity
  8
0
100
AcDbLine
 62
7
  6
CONTINUOUS
 10
-4.6967994485
 20
-6.2284189305
 11
-4.8815214137
 21
-6.3816594483
  0
LINE
  5
3B4
100
AcDbEntity
  8
0
100
AcDbLine
 62
7
  6
CONTINUOUS
 10
-4.6689176622
 20
-6.2101168894
 11
-4.6967994485
 21
-6.2284189305
  0
LWPOLYLINE
  5
3B5
100
AcDbEntity
  8
0
100
AcDbPolyline
 62
7
  6
CONTINUOUS
 90
16
 70
0
 10
4.3714148952
 20
-2.6823825283
 10
4.7528647124
 20
-2.4382932698
 10
5.1141574992
 20
-2.1584540856
 10
5.4519735355
 20
-1.8453647916
 10
5.7661201295
 20
-1.4987524786
 10
6.056789973
 20
-1.1188900558
 10
6.3216038233
 20
-0.708886841
 10
6.5603494603
 20
-0.2684954453
 10
6.7732391042
 20
0.2020367424
 10
6.9585301727
 20
0.6988582382
 10
7.1159961429
 20
1.2221848188
 10
7.2458635377
 20
1.7718007074
 10
7.3470693433
 20
2.3432070901
 10
7.4192592217
 20
2.9349043622
 10
7.462787511
 20
3.5483921284
 10
7.477654211
 20
4.1836703886
  0
LWPOLYLINE
  5
3B6
100
AcDbEntity
  8
0
100
AcDbPolyline
 62
7
  6
CONTINUOUS
 90
16
 70
0
 10
6.1391818481
 20
-1.661696045
 10
6.5206316654
 20
-1.4176067865
 10
6.8819244522
 20
-1.1377676023
 10
7.2197404885
 20
-0.8246783083
 10
7.5338870825
 20
-0.4780659952
 10
7.8245569259
 20
-0.0982035725
 10
8.0893707762
 20
0.3117996424
 10
8.3281164133
 20
0.752191038
 10
8.5410060572
 20
1.2227232257
 10
8.7262971257
 20
1.7195447215
 10
8.8837630959
 20
2.2428713021
 10
9.0136304906
 20
2.7924871907
 10
9.1148362962
 20
3.3638935734
 10
9.1870261747
 20
3.9555908455
 10
9.2305544639
 20
4.5690786117
 10
9.245421164
 20
5.2043568719
  0
LWPOLYLINE
  5
3B7
100
AcDbEntity
  8
ASSI
100
AcDbPolyline
 62
7
  6
CONTINUOUS
 90
8
 70
0
 10
-4.3113134242
 20
-6.4232411555
 10
-4.4023866461
 20
-6.4791547421
 10
-4.5192295075
 20
-6.5615579951
 10
-4.6307432982
 20
-6.6528165037
 10
-4.7363428304
 20
-6.7524513735
 10
-4.8359970138
 20
-6.8605066378
 10
-4.9297369389
 20
-6.9769382632
 10
-4.9703359788
 20
-7.0346740022
  0
LINE
  5
3B8
100
AcDbEntity
  8
0
100
AcDbLine
 62
7
  6
CONTINUOUS
 10
-3.450012867
 20
-6.1568584915
 11
-6.4739985833
 21
-7.9028699447
  0
LINE
  5
3B9
100
AcDbEntity
  8
SMUSSO
100
AcDbLine
 62
7
  6
CONTINUOUS
 10
-4.7865547901
 20
-7.7118138171
 11
-2.3460944416
 21
-6.302722598
  0
LINE
  5
3BA
100
AcDbEntity
  8
0
100
AcDbLine
 62
7
  6
CONTINUOUS
 10
6.1391818483
 20
-1.6616960452
 11
4.3714148953
 21
-2.6823825286
  0
LINE
  5
3BB
100
AcDbEntity
  8
SMUSSO
100
AcDbLine
 62
7
  6
CONTINUOUS
 10
-4.5431610691
 20
-8.4882091119
 11
-1.6143720668
 21
-6.7971630483
  0
LINE
  5
3BC
100
AcDbEntity
  8
SMUSSO
100
AcDbLine
 62
7
  6
CONTINUOUS
 10
-0.537785685
 20
-7.8086539376
 11
-3.1289475068
 21
-9.3047582986
  0
LINE
  5
3BD
100
AcDbEntity
  8
SMUSSO
100
AcDbLine
 62
7
  6
CONTINUOUS
 10
-0.4579305552
 20
-7.8977110288
 11
-2.4612701961
 21
-9.0544142297
  0
LINE
  5
3BE
100
AcDbEntity
  8
ASSI
100
AcDbLine
 62
7
  6
CONTINUOUS
 10
-4.2069800987
 20
-11.1345663675
 11
-2.6882425687
 21
-10.257666352
  0
LWPOLYLINE
  5
3BF
100
AcDbEntity
  8
SMUSSO
100
AcDbPolyline
 62
7
  6
CONTINUOUS
 90
31
 70
0
 10
4.2600630522
 20
0.7758009027
 10
4.2391415325
 20
0.7642044624
 10
4.1517620031
 20
0.7252760941
 10
4.0584430446
 20
0.6981901587
 10
3.9597957926
 20
0.6831205291
 10
3.8564562679
 20
0.6801610458
 10
3.749079407
 20
0.6893308436
 10
3.6383533008
 20
0.7105751992
 10
3.5250020272
 20
0.7437591051
 10
3.4097657341
 20
0.7886678491
 10
3.2933909098
 20
0.8450117966
 10
3.1766332724
 20
0.9124263264
 10
3.0602583506
 20
0.9904694475
 10
2.9450218316
 20
1.078633153
 10
2.8316702492
 20
1.1763450531
 10
2.7209438653
 20
1.2829650734
 10
2.613566716
 20
1.3977921227
 10
2.5102269528
 20
1.5200862781
 10
2.4115797428
 20
1.6490717846
 10
2.318261225
 20
1.7839200651
 10
2.2308823244
 20
1.9237516985
 10
2.1500108629
 20
2.0676605797
 10
2.07617082
 20
2.214717655
 10
2.0098445903
 20
2.3639658815
 10
1.9514679446
 20
2.5144259041
 10
1.9014189348
 20
2.6651224675
 10
1.8600222156
 20
2.8150770349
 10
1.8275485215
 20
2.963303124
 10
1.8042060871
 20
3.1088355989
 10
1.790142086
 20
3.2507365068
 10
1.7854446225
 20
3.3880873007
  0
LWPOLYLINE
  5
3C0
100
AcDbEntity
  8
SMUSSO
100
AcDbPolyline
 62
7
  6
CONTINUOUS
 90
9
 70
0
 10
-6.473998579
 20
-7.9028699422
 10
-6.374331742
 20
-7.8492151712
 10
-6.1756271699
 20
-7.7633988944
 10
-5.9659821268
 20
-7.6993464163
 10
-5.7462959923
 20
-7.6573319943
 10
-5.5175118915
 20
-7.6375352685
 10
-5.2806114118
 20
-7.6400402934
 10
-5.0366102524
 20
-7.6648355084
 10
-4.7865547901
 20
-7.7118138171
  0
LWPOLYLINE
  5
3C1
100
AcDbEntity
  8
SMUSSO
100
AcDbPolyline
 62
7
  6
CONTINUOUS
 90
9
 70
0
 10
-4.8523855493
 20
-6.3026073982
 10
-4.6403095554
 20
-6.195694865
 10
-4.4158446265
 20
-6.112595026
 10
-4.1798141789
 20
-6.0535830995
 10
-3.9332295511
 20
-6.0189109977
 10
-3.6771469992
 20
-6.0087263392
 10
-3.4126645777
 20
-6.0230717951
 10
-3.1409149072
 20
-6.0618848649
 10
-2.8630623234
 20
-6.124998212
  0
LINE
  5
3C2
100
AcDbEntity
  8
SMUSSO
100
AcDbLine
 62
7
  6
CONTINUOUS
 10
-2.4612701961
 20
-9.0544142297
 11
-2.8889033113
 21
-9.2373839263
  0
LWPOLYLINE
  5
3C3
100
AcDbEntity
  8
ASSI
100
AcDbPolyline
 62
7
  6
CONTINUOUS
 90
6
 70
0
 10
-2.068287335
 20
7.2767657374
 10
-1.9151072315
 20
7.2800879591
 10
-1.7690777317
 20
7.2983884893
 10
-1.6301988357
 20
7.331667328
 10
-1.4978761771
 20
7.3802261747
 10
-1.3789258234
 20
7.4401522186
  0
LWPOLYLINE
  5
3C4
100
AcDbEntity
  8
ASSI
100
AcDbPolyline
 62
7
  6
CONTINUOUS
 90
9
 70
0
 10
3.8665404259
 20
0.9520856477
 10
3.9444150424
 20
0.9272520997
 10
4.0212013405
 20
0.9080092979
 10
4.0969091265
 20
0.8943068668
 10
4.1708521099
 20
0.8862690188
 10
4.2430142445
 20
0.8839472589
 10
4.3134115767
 20
0.8872900821
 10
4.3814059552
 20
0.8962671857
 10
4.4197056917
 20
0.9048317406
  0
LWPOLYLINE
  5
3C5
100
AcDbEntity
  8
ASSI
100
AcDbPolyline
 62
7
  6
CONTINUOUS
 90
3
 70
0
 10
3.6285893325
 20
1.0590503703
 10
3.7082713656
 20
1.0180985166
 10
3.7875872972
 20
0.9824595665
  0
LINE
  5
3C6
100
AcDbEntity
  8
ASSI
100
AcDbLine
 62
7
  6
CONTINUOUS
 10
-2.9168154724
 20
3.4088008878
 11
-1.7312100498
 21
2.7242471759
  0
LINE
  5
3C7
100
AcDbEntity
  8
0
100
AcDbLine
 62
7
  6
CONTINUOUS
 10
-1.6440232663
 20
8.6352443785
 11
-0.8049033812
 21
8.1507470735
  0
LWPOLYLINE
  5
3C8
100
AcDbEntity
  8
SMUSSO
100
AcDbPolyline
 62
7
  6
CONTINUOUS
 90
25
 70
0
 10
1.8205231973
 20
5.0414396029
 10
2.0078396088
 20
4.9261342078
 10
2.1948719876
 20
4.7968726369
 10
2.3795171007
 20
4.6551413434
 10
2.5617433413
 20
4.5007814378
 10
2.7415823162
 20
4.3339518098
 10
2.9167417173
 20
4.156779483
 10
3.0871615571
 20
3.969132666
 10
3.2529018231
 20
3.7711431503
 10
3.4118501695
 20
3.5653333338
 10
3.5639205906
 20
3.3516020654
 10
3.7091990921
 20
3.1300504963
 10
3.845831346
 20
2.9035044778
 10
3.9737070633
 20
2.6718983322
 10
4.0929365329
 20
2.4352977371
 10
4.2019962931
 20
2.1967255767
 10
4.3007551716
 20
1.9561567044
 10
4.3893443405
 20
1.7136162667
 10
4.4666338553
 20
1.4722025871
 10
4.5324780265
 20
1.2319305135
 10
4.5870225436
 20
0.9927851978
 10
4.6295745296
 20
0.7578204202
 10
4.6599030258
 20
0.5280541071
 10
4.6782389911
 20
0.3024683319
 10
4.6845824254
 20
0.0810630947
  0
LWPOLYLINE
  5
3C9
100
AcDbEntity
  8
ASSI
100
AcDbPolyline
 62
7
  6
CONTINUOUS
 90
3
 70
0
 10
3.3895465319
 20
1.2122833157
 10
3.4688624634
 20
1.1563302163
 10
3.5485444965
 20
1.1052672554
  0
LWPOLYLINE
  5
3CA
100
AcDbEntity
  8
ASSI
100
AcDbPolyline
 62
7
  6
CONTINUOUS
 90
13
 70
0
 10
-7.4040956688
 20
19.4337090027
 10
-7.3498827765
 20
19.3344079952
 10
-7.2926943258
 20
19.2371211768
 10
-7.2325032616
 20
19.1418668614
 10
-7.169336639
 20
19.048626735
 10
-7.1037670628
 20
18.9582460184
 10
-7.0357726843
 20
18.8707507108
 10
-6.9653753521
 20
18.786114813
 10
-6.8932132175
 20
18.7051055487
 10
-6.819270234
 20
18.6277558928
 10
-6.7435624481
 20
18.5540328704
 10
-6.66677615
 20
18.4846047798
 10
-6.5889015334
 20
18.4195106727
  0
LWPOLYLINE
  5
3CB
100
AcDbEntity
  8
ASSI
100
AcDbPolyline
 62
7
  6
CONTINUOUS
 90
13
 70
0
 10
2.4953992678
 20
2.287280821
 10
2.5496121601
 20
2.1879798135
 10
2.6068006108
 20
2.0906929951
 10
2.666991675
 20
1.9954386797
 10
2.7301582976
 20
1.9021985533
 10
2.7957278738
 20
1.8118178367
 10
2.8637222524
 20
1.7243225291
 10
2.9341195845
 20
1.6396866314
 10
3.0062817191
 20
1.558677367
 10
3.0802247026
 20
1.4813277111
 10
3.1559324885
 20
1.4076046887
 10
3.2327187866
 20
1.3381765981
 10
3.3105934032
 20
1.273082491
  0
LWPOLYLINE
  5
3CC
100
AcDbEntity
  8
ASSI
100
AcDbPolyline
 62
7
  6
CONTINUOUS
 90
3
 70
0
 10
2.3536256243
 20
2.5918882603
 10
2.3974059999
 20
2.4892350444
 10
2.4446533732
 20
2.3876958549
  0
LWPOLYLINE
  5
3CD
100
AcDbEntity
  8
ASSI
100
AcDbPolyline
 62
7
  6
CONTINUOUS
 90
3
 70
0
 10
2.24553796
 20
2.9009521006
 10
2.2776916044
 20
2.7977467884
 10
2.3137091151
 20
2.6947249522
  0
LWPOLYLINE
  5
3CE
100
AcDbEntity
  8
ASSI
100
AcDbPolyline
 62
7
  6
CONTINUOUS
 90
11
 70
0
 10
-2.3755532863
 20
12.7561970604
 10
-2.3279637254
 20
12.5903232529
 10
-2.2726878324
 20
12.4168298948
 10
-2.211803402
 20
12.2428419177
 10
-2.1456842877
 20
12.0694276737
 10
-2.0742982805
 20
11.8965906929
 10
-1.9976775894
 20
11.7243274452
 10
-1.9162926944
 20
11.5536956922
 10
-1.8303004222
 20
11.3850480211
 10
-1.7395439462
 20
11.2180318446
 10
-1.6440232663
 20
11.0526471628
  0
LWPOLYLINE
  5
3CF
100
AcDbEntity
  8
ASSI
100
AcDbPolyline
 62
7
  6
CONTINUOUS
 90
36
 70
0
 10
4.9942696686
 20
-14.0399600564
 10
4.9177031205
 20
-13.5343474491
 10
4.8173060015
 20
-13.0248818415
 10
4.6930783116
 20
-12.5115632336
 10
4.5443434676
 20
-11.992340786
 10
4.3717780527
 20
-11.469265338
 10
4.177411816
 20
-10.9484894087
 10
3.9609873225
 20
-10.4300401518
 10
3.7227620073
 20
-9.9138904135
 10
3.4655379244
 20
-9.406111251
 10
3.189090727
 20
-8.9068015083
 10
2.8936447621
 20
-8.4158623414
 10
2.5826751245
 20
-7.9390682757
 10
2.255998503
 20
-7.4765863438
 10
1.9137982089
 20
-7.028249513
 10
1.560099271
 20
-6.5993312117
 10
1.1947659075
 20
-6.1900607435
 10
0.8179339003
 20
-5.8002088047
 10
0.4340356233
 20
-5.4343609124
 10
0.0429876344
 20
-5.0928005183
 10
-0.3551266242
 20
-4.7752441707
 10
-0.7556244525
 20
-4.4854270313
 10
-1.1585339968
 20
-4.2236766586
 10
-1.5638271108
 20
-3.9896654941
 10
-1.9667366551
 20
-3.7861460244
 10
-2.3672344833
 20
-3.6134783105
 10
-2.765348742
 20
-3.4713022913
 10
-3.1563967308
 20
-3.3612902698
 10
-3.5402950078
 20
-3.2838220546
 10
-3.9171270151
 20
-3.2385178371
 10
-4.2824603785
 20
-3.2259104946
 10
-4.6361593164
 20
-3.2463861282
 10
-4.9783596106
 20
-3.2995586368
 10
-5.305036232
 20
-3.3848025947
 10
-5.6160058696
 20
-3.5024967176
 10
-5.9112943657
 20
-3.6521714975
  0
LWPOLYLINE
  5
3D0
100
AcDbEntity
  8
RACCORDO
100
AcDbPolyline
 62
250
  6
CONTINUOUS
 90
24
 70
0
 10
3.2308555445
 20
-14.7187472607
 10
3.1638230854
 20
-14.2714077603
 10
3.0768995506
 20
-13.8205292785
 10
2.9700849401
 20
-13.3661118154
 10
2.8428673407
 20
-12.906544291
 10
2.6957586655
 20
-12.4434377853
 10
2.530294654
 20
-11.9816255381
 10
2.3462912913
 20
-11.5211424694
 10
2.1439325923
 20
-11.0619536594
 10
1.9253063406
 20
-10.6087875879
 10
1.6902417463
 20
-10.1616993164
 10
1.4389095994
 20
-9.7206337836
 10
1.1739100539
 20
-9.2901542848
 10
0.8951010954
 20
-8.8703705778
 10
0.6026247384
 20
-8.4611729049
 10
0.2995071807
 20
-8.0667952884
 10
-0.0143619765
 20
-7.6873917287
 10
-0.3388723343
 20
-7.3228082253
 10
-0.6706664985
 20
-6.9768167994
 10
-1.0098201244
 20
-6.6496104416
 10
-1.3562575567
 20
-6.3409961612
 10
-1.7063944344
 20
-6.0541670073
 10
-2.0602691521
 20
-5.7893491741
 10
-2.4178433152
 20
-5.5463164673
  0
LWPOLYLINE
  5
3D1
100
AcDbEntity
  8
RACCORDO
100
AcDbPolyline
 62
250
  6
CONTINUOUS
 90
39
 70
0
 10
3.9336094968
 20
-14.6523719464
 10
3.8633271333
 20
-14.1817902323
 10
3.771242951
 20
-13.7041437271
 10
3.6576763705
 20
-13.2210892786
 10
3.5230214134
 20
-12.7343027731
 10
3.367745109
 20
-12.2454724849
 10
3.1923857579
 20
-11.7562932125
 10
2.9975511854
 20
-11.2684609637
 10
2.7839174264
 20
-10.7836687991
 10
2.5522262899
 20
-10.303600073
 10
2.3032820654
 20
-9.8299209359
 10
2.0379479425
 20
-9.3642734938
 10
1.7571437173
 20
-8.9082718682
 10
1.4618431111
 20
-8.4634974025
 10
1.1530707068
 20
-8.0314933975
 10
0.8318977615
 20
-7.6137586683
 10
0.499438452
 20
-7.2117423473
 10
0.1568459236
 20
-6.8268388156
 10
-0.1946915054
 20
-6.4603831471
 10
-0.5539544568
 20
-6.1136464725
 10
-0.9196967031
 20
-5.7878315735
 10
-1.290649551
 20
-5.4840686434
 10
-1.6655262414
 20
-5.2034113724
 10
-2.0430264161
 20
-4.9468332925
 10
-2.4218406144
 20
-4.7152244137
 10
-2.8006548143
 20
-4.5093881357
 10
-3.178154993
 20
-4.3300384592
 10
-3.5530316889
 20
-4.1777975077
 10
-3.9239845446
 20
-4.0531933699
 10
-4.2897267999
 20
-3.9566582738
 10
-4.6489897578
 20
-3.8885270816
 10
-5.0005271885
 20
-3.8490361237
 10
-5.3431197167
 20
-3.8383223755
 10
-5.6755790275
 20
-3.8564230029
 10
-5.9967519722
 20
-3.9032752477
 10
-6.3055243777
 20
-3.9787166012
 10
-6.6008249996
 20
-4.0824853146
 10
-6.8816292848
 20
-4.2142212706
 10
-6.9720605828
 20
-4.2643996327
  0
LWPOLYLINE
  5
3D2
100
AcDbEntity
  8
RACCORDO
100
AcDbPolyline
 62
250
  6
CONTINUOUS
 90
22
 70
0
 10
-0.2665509416
 20
52.1169966604
 10
-0.2646390065
 20
52.1030051071
 10
-0.2625086411
 20
52.089877303
 10
-0.2601643292
 20
52.0776145721
 10
-0.2575987284
 20
52.0662478544
 10
-0.2548287994
 20
52.0557487476
 10
-0.2518953155
 20
52.0460285127
 10
-0.2488019559
 20
52.0370744513
 10
-0.2455544693
 20
52.0288993097
 10
-0.2421960986
 20
52.0214499691
 10
-0.2387336436
 20
52.0147281939
 10
-0.2351693697
 20
52.008728395
 10
-0.2315388947
 20
52.0033838321
 10
-0.2278519737
 20
51.9986940397
 10
-0.2241066884
 20
51.9946531308
 10
-0.2203201012
 20
51.9911853159
 10
-0.2164996523
 20
51.9882822455
 10
-0.2126443707
 20
51.9859459518
 10
-0.2087578645
 20
51.9841169122
 10
-0.2048430902
 20
51.98277382
 10
-0.2009026536
 20
51.9819328782
 10
-0.1969392925
 20
51.9815913886
  0
LINE
  5
3D3
100
AcDbEntity
  8
RACCORDO
100
AcDbLine
 62
250
  6
CONTINUOUS
 10
4.7068792776
 20
-26.3315778139
 11
3.2308555445
 21
-14.7187472607
  0
LINE
  5
3D4
100
AcDbEntity
  8
RACCORDO
100
AcDbLine
 62
250
  6
CONTINUOUS
 10
5.4096332299
 20
-26.2652024995
 11
3.9336094968
 21
-14.6523719464
  0
LINE
  5
3D5
100
AcDbEntity
  8
ASSI
100
AcDbLine
 62
7
  6
CONTINUOUS
 10
6.4702934017
 20
-25.6527906095
 11
4.9942696686
 21
-14.0399600564
  0
LWPOLYLINE
  5
3D6
100
AcDbEntity
  8
RACCORDO
100
AcDbPolyline
 62
250
  6
CONTINUOUS
 90
10
 70
0
 10
-2.0178566217
 20
54.1587617004
 10
-2.0168369565
 20
54.1505134199
 10
-2.016450798
 20
54.1425538361
 10
-2.0167016152
 20
54.1349546494
 10
-2.0175871587
 20
54.127784197
 10
-2.0190994422
 20
54.121107198
 10
-2.0212247119
 20
54.1149840846
 10
-2.0239436753
 20
54.1094700027
 10
-2.027231779
 20
54.1046144047
 10
-2.031059321
 20
54.1004609059
  0
LWPOLYLINE
  5
3D7
100
AcDbEntity
  8
RACCORDO
100
AcDbPolyline
 62
7
  6
CONTINUOUS
 90
10
 70
0
 10
-1.2693284843
 20
54.5909524656
 10
-1.2683126128
 20
54.5825910849
 10
-1.2679275736
 20
54.5746558824
 10
-1.2681733668
 20
54.5671468581
 10
-1.2690634893
 20
54.5600044114
 10
-1.2705844441
 20
54.553288143
 10
-1.27269574
 20
54.5471768546
 10
-1.27538388
 20
54.5417301468
 10
-1.2786623612
 20
54.536888419
 10
-1.2825311836
 20
54.5326516712
  0
LWPOLYLINE
  5
3D8
100
AcDbEntity
  8
0
100
AcDbPolyline
 62
7
  6
CONTINUOUS
 90
4
 70
0
 10
9.245421164
 20
5.2043568719
 10
9.2305544639
 20
5.8568028248
 10
9.1870261747
 20
6.5205559683
 10
9.164673658
 20
6.7295783092
  0
LWPOLYLINE
  5
3D9
100
AcDbEntity
  8
ASSI
100
AcDbPolyline
 62
7
  6
CONTINUOUS
 90
46
 70
0
 10
14.1190166582
 20
14.228946743
 10
14.1055596211
 20
14.8496901056
 10
14.0660706285
 20
15.4809334566
 10
14.0005496805
 20
16.122676796
 10
13.9087049268
 20
16.7765650785
 10
13.7908282178
 20
17.4409533494
 10
13.6477951037
 20
18.1109067454
 10
13.4794182673
 20
18.7864667048
 10
13.2858850258
 20
19.4675917892
 10
13.0686328824
 20
20.1492228194
 10
12.8274852233
 20
20.8313635627
 10
12.5626186623
 20
21.5140102517
 10
12.2760005434
 20
22.1920924053
 10
11.967468902
 20
22.8655760354
 10
11.6371857027
 20
23.53449513
 10
11.2876041834
 20
24.1938811722
 10
10.9185806467
 20
24.8436631777
 10
10.53025879
 20
25.4839121307
 10
10.1255229438
 20
26.1098724669
 10
9.7042508878
 20
26.7214377916
 10
9.2665648423
 20
27.3187144994
 10
8.8157157993
 20
27.8972662101
 10
8.3516057456
 20
28.4569534951
 10
7.8743326943
 20
28.997915783
 10
7.387441677
 20
29.5161349789
 10
6.8908610773
 20
30.0114417353
 10
6.3846625115
 20
30.4840053996
 10
5.8726058608
 20
30.9303159204
 10
5.354647505
 20
31.3501778135
 10
4.8308310643
 20
31.743786563
 10
4.3050472794
 20
32.108218569
 10
3.7772815014
 20
32.4432565781
 10
3.2475483794
 20
32.7491178436
 10
2.7197826014
 20
33.023530526
 10
2.1939988166
 20
33.2662604555
 10
1.6701823758
 20
33.4775418019
 10
1.1522240201
 20
33.6558052349
 10
0.6401673693
 20
33.8008048993
 10
0.1339688035
 20
33.9127866504
 10
-0.3626117962
 20
33.9909187234
 10
-0.8495028135
 20
34.0349490698
 10
-1.3267758647
 20
34.0451297383
 10
-1.7908859185
 20
34.02138511
 10
-2.2417349615
 20
33.9634625732
 10
-2.679421007
 20
33.8716147398
 10
-3.100693063
 20
33.7465238259
  0
LINE
  5
3DA
100
AcDbEntity
  8
RACCORDO
100
AcDbLine
 62
7
  6
CONTINUOUS
 10
0.036645462
 20
-55.2374811468
 11
0.0404604708
 21
-55.2134819674
  0
LINE
  5
3DB
100
AcDbEntity
  8
RACCORDO
100
AcDbLine
 62
250
  6
CONTINUOUS
 10
-0.0302547363
 20
-55.812679474
 11
-0.0261775056
 21
-55.7873438543
  0
LINE
  5
3DC
100
AcDbEntity
  8
RACCORDO
100
AcDbLine
 62
250
  6
CONTINUOUS
 10
0.0314788058
 20
-55.2693001308
 11
0.0399768583
 21
-55.2195932278
  0
LINE
  5
3DD
100
AcDbEntity
  8
RACCORDO
100
AcDbLine
 62
250
  6
CONTINUOUS
 10
-0.0345128072
 20
-55.8373429021
 11
-0.0345773926
 21
-55.829263341
  0
LINE
  5
3DE
100
AcDbEntity
  8
RACCORDO
100
AcDbLine
 62
7
  6
CONTINUOUS
 10
0.0373317012
 20
-55.6507597343
 11
0.0181548887
 21
-55.7583310517
  0
LWPOLYLINE
  5
3DF
100
AcDbEntity
  8
RACCORDO
100
AcDbPolyline
 62
250
  6
CONTINUOUS
 90
3
 70
0
 10
-0.0168616995
 20
-55.7118715209
 10
-0.0167058266
 20
-55.7110127895
 10
-0.015016616
 20
-55.7074961281
  0
LINE
  5
3E0
100
AcDbEntity
  8
RACCORDO
100
AcDbLine
 62
7
  6
CONTINUOUS
 10
0.0323374156
 20
-55.2610212093
 11
0.036645462
 21
-55.2374811468
  0
LWPOLYLINE
  5
3E1
100
AcDbEntity
  8
RACCORDO
100
AcDbPolyline
 62
250
  6
CONTINUOUS
 90
3
 70
0
 10
-1.7372872957
 20
-54.2696857827
 10
-1.7467430895
 20
-54.3203457949
 10
-1.7500892834
 20
-54.3769480529
  0
LWPOLYLINE
  5
3E2
100
AcDbEntity
  8
RACCORDO
100
AcDbPolyline
 62
250
  6
CONTINUOUS
 90
10
 70
0
 10
-1.7366273998
 20
-54.8406969416
 10
-1.7380382164
 20
-54.8473743173
 10
-1.7395769653
 20
-54.8552663374
 10
-1.7410782495
 20
-54.8642423719
 10
-1.7422406602
 20
-54.8741032392
 10
-1.7430430476
 20
-54.8846972967
 10
-1.7437495366
 20
-54.8959484312
 10
-1.7443519058
 20
-54.9076980829
 10
-1.7445753992
 20
-54.919687755
 10
-1.7442937182
 20
-54.9316907161
  0
LWPOLYLINE
  5
3E3
100
AcDbEntity
  8
RACCORDO
100
AcDbPolyline
 62
250
  6
CONTINUOUS
 90
4
 70
0
 10
-1.2727697624
 20
-55.4177509908
 10
-1.2954603214
 20
-55.5202521728
 10
-1.307078419
 20
-55.5711456779
 10
-1.3189351362
 20
-55.6219589136
  0
LINE
  5
3E4
100
AcDbEntity
  8
RACCORDO
100
AcDbLine
 62
250
  6
CONTINUOUS
 10
-1.3189351362
 20
-55.6219589136
 11
-1.3430239847
 21
-55.72239785
  0
LWPOLYLINE
  5
3E5
100
AcDbEntity
  8
RACCORDO
100
AcDbPolyline
 62
250
  6
CONTINUOUS
 90
3
 70
0
 10
-1.3721986116
 20
-55.39458918
 10
-1.4088309308
 20
-55.5458508498
 10
-1.4213823144
 20
-55.5960122309
  0
LWPOLYLINE
  5
3E6
100
AcDbEntity
  8
RACCORDO
100
AcDbPolyline
 62
250
  6
CONTINUOUS
 90
3
 70
0
 10
-1.3430239847
 20
-55.72239785
 10
-1.3670459781
 20
-55.8196755285
 10
-1.3790744597
 20
-55.8672472369
  0
LWPOLYLINE
  5
3E7
100
AcDbEntity
  8
RACCORDO
100
AcDbPolyline
 62
250
  6
CONTINUOUS
 90
22
 70
0
 10
-1.4846238455
 20
-55.8386697915
 10
-1.4898949267
 20
-55.8598115871
 10
-1.4944365927
 20
-55.8805143143
 10
-1.4982507469
 20
-55.9007723453
 10
-1.5013166791
 20
-55.9206447943
 10
-1.5036589842
 20
-55.9400603412
 10
-1.5053519037
 20
-55.9588169173
 10
-1.5063908013
 20
-55.976845345
 10
-1.5067947801
 20
-55.9942007306
 10
-1.5066785948
 20
-56.0108680268
 10
-1.5060566916
 20
-56.0268066215
 10
-1.5049306257
 20
-56.0420455174
 10
-1.5033956952
 20
-56.0566761201
 10
-1.5014690003
 20
-56.0706928256
 10
-1.4991469026
 20
-56.0840924821
 10
-1.4964915334
 20
-56.0969719219
 10
-1.4935123298
 20
-56.1093424411
 10
-1.4902106604
 20
-56.1211858882
 10
-1.4866348703
 20
-56.1325561357
 10
-1.4828039957
 20
-56.1434695533
 10
-1.4787083702
 20
-56.1539045018
 10
-1.4743526554
 20
-56.1638584373
  0
LINE
  5
3E8
100
AcDbEntity
  8
RACCORDO
100
AcDbLine
 62
250
  6
CONTINUOUS
 10
0.0308305456
 20
-55.2718552952
 11
0.0314788058
 21
-55.2693001308
  0
LWPOLYLINE
  5
3E9
100
AcDbEntity
  8
RACCORDO
100
AcDbPolyline
 62
250
  6
CONTINUOUS
 90
4
 70
0
 10
-1.4213823144
 20
-55.5960122309
 10
-1.4593486208
 20
-55.743748989
 10
-1.4719361187
 20
-55.7915652226
 10
-1.4846238455
 20
-55.8386697915
  0
LWPOLYLINE
  5
3EA
100
AcDbEntity
  8
RACCORDO
100
AcDbPolyline
 62
7
  6
CONTINUOUS
 90
4
 70
0
 10
0.0181548887
 20
-55.7583310517
 10
-0.0083735091
 20
-55.858676012
 10
-0.0423530858
 20
-55.9524825067
 10
-0.0837838415
 20
-56.039750536
  0
LWPOLYLINE
  5
3EB
100
AcDbEntity
  8
RACCORDO
100
AcDbPolyline
 62
250
  6
CONTINUOUS
 90
7
 70
0
 10
-0.0680813237
 20
-55.9881393104
 10
-0.0629639915
 20
-55.9691091522
 10
-0.0579194708
 20
-55.9491898462
 10
-0.0529872388
 20
-55.9284279927
 10
-0.048170078
 20
-55.9068397594
 10
-0.0434695734
 20
-55.8844385024
 10
-0.038918204
 20
-55.8612696768
  0
LWPOLYLINE
  5
3EC
100
AcDbEntity
  8
ASSI
100
AcDbPolyline
 62
7
  6
CONTINUOUS
 90
3
 70
0
 10
-6.2709056041
 20
18.205478552
 10
-6.191223571
 20
18.1645266983
 10
-6.1119076395
 20
18.1288877482
  0
LWPOLYLINE
  5
3ED
100
AcDbEntity
  8
ASSI
100
AcDbPolyline
 62
7
  6
CONTINUOUS
 90
3
 70
0
 10
-6.5099484047
 20
18.3587114974
 10
-6.4306324732
 20
18.3027583979
 10
-6.3509504401
 20
18.2516954371
  0
LWPOLYLINE
  5
3EE
100
AcDbEntity
  8
RACCORDO
100
AcDbPolyline
 62
250
  6
CONTINUOUS
 90
22
 70
0
 10
-2.6385772196
 20
55.0190641577
 10
-2.6362102819
 20
55.011656915
 10
-2.633306358
 20
55.0040686756
 10
-2.629862675
 20
54.9963027734
 10
-2.6259004729
 20
54.9883644413
 10
-2.6213930144
 20
54.9802553287
 10
-2.6162655625
 20
54.9719741658
 10
-2.6105150382
 20
54.9635195942
 10
-2.604139026
 20
54.9549018787
 10
-2.5970642027
 20
54.946138641
 10
-2.5892859992
 20
54.9372302525
 10
-2.5808045473
 20
54.9281872802
 10
-2.57155482
 20
54.9190440594
 10
-2.5615345634
 20
54.9098040312
 10
-2.5507435667
 20
54.900476241
 10
-2.5391217422
 20
54.8911045124
 10
-2.5266749213
 20
54.8816957595
 10
-2.5133973109
 20
54.8722561774
 10
-2.4992135052
 20
54.862829203
 10
-2.4840996543
 20
54.8534337538
 10
-2.4680823409
 20
54.8440637869
 10
-2.4511629188
 20
54.8347253019
  0
LWPOLYLINE
  5
3EF
100
AcDbEntity
  8
RACCORDO
100
AcDbPolyline
 62
7
  6
CONTINUOUS
 90
3
 70
0
 10
-2.6353412836
 20
53.6076531679
 10
-2.6364066031
 20
53.6109975826
 10
-2.6385619064
 20
53.6176193066
  0
LINE
  5
3F0
100
AcDbEntity
  8
RACCORDO
100
AcDbLine
 62
7
  6
CONTINUOUS
 10
-2.6332370869
 20
53.6008936963
 11
-2.6353412836
 21
53.6076531679
  0
LWPOLYLINE
  5
3F1
100
AcDbEntity
  8
RACCORDO
100
AcDbPolyline
 62
7
  6
CONTINUOUS
 90
12
 70
0
 10
-2.6385619064
 20
53.6176193066
 10
-2.6799962457
 20
53.7527341958
 10
-2.7139789966
 20
53.8857842489
 10
-2.7405101591
 20
54.0167694658
 10
-2.7596895002
 20
54.1464932927
 10
-2.771417253
 20
54.2741522834
 10
-2.775394116
 20
54.3973360993
 10
-2.771420725
 20
54.5159292678
 10
-2.7596964441
 20
54.6300472615
 10
-2.7405200646
 20
54.7376261587
 10
-2.7139911832
 20
54.8379779856
 10
-2.6800102032
 20
54.9317907161
  0
LINE
  5
3F2
100
AcDbEntity
  8
RACCORDO
100
AcDbLine
 62
7
  6
CONTINUOUS
 10
-2.6311568865
 20
53.5940624346
 11
-2.6332370869
 21
53.6008936963
  0
LINE
  5
3F3
100
AcDbEntity
  8
RACCORDO
100
AcDbLine
 62
7
  6
CONTINUOUS
 10
-2.6290980156
 20
53.5871646879
 11
-2.6311568865
 21
53.5940624346
  0
LWPOLYLINE
  5
3F4
100
AcDbEntity
  8
RACCORDO
100
AcDbPolyline
 62
250
  6
CONTINUOUS
 90
5
 70
0
 10
-2.2004332406
 20
55.1820757996
 10
-2.2004931475
 20
55.1823529801
 10
-2.2004253816
 20
55.1841403536
 10
-2.2001357406
 20
55.1875565698
 10
-2.1996290881
 20
55.1925442753
  0
LWPOLYLINE
  5
3F5
100
AcDbEntity
  8
RACCORDO
100
AcDbPolyline
 62
250
  6
CONTINUOUS
 90
10
 70
0
 10
-0.2200482827
 20
52.4659609583
 10
-0.2131967382
 20
52.4313827196
 10
-0.2066655038
 20
52.3969141571
 10
-0.2004545794
 20
52.3625552709
 10
-0.1945702569
 20
52.3281950592
 10
-0.1890062444
 20
52.2939445238
 10
-0.1837436661
 20
52.2601366695
 10
-0.1787762302
 20
52.2268824979
 10
-0.1741102284
 20
52.1940710073
 10
-0.169745661
 20
52.1617021978
  0
LWPOLYLINE
  5
3F6
100
AcDbEntity
  8
RACCORDO
100
AcDbPolyline
 62
7
  6
CONTINUOUS
 90
3
 70
0
 10
-1.2705844441
 20
55.1166763293
 10
-1.2690634893
 20
55.1082037005
 10
-1.2681733668
 20
55.1000333627
  0
LWPOLYLINE
  5
3F7
100
AcDbEntity
  8
RACCORDO
100
AcDbPolyline
 62
250
  6
CONTINUOUS
 90
10
 70
0
 10
-0.3123819644
 20
52.4238530584
 10
-0.3061874937
 20
52.3888963749
 10
-0.3002404096
 20
52.3541425382
 10
-0.2945622863
 20
52.3195495347
 10
-0.2892015812
 20
52.2849187423
 10
-0.2841478108
 20
52.2503613593
 10
-0.2793399026
 20
52.2162947666
 10
-0.2747761543
 20
52.1828229375
 10
-0.2705061885
 20
52.1497405229
 10
-0.2665509416
 20
52.1169966604
  0
LWPOLYLINE
  5
3F8
100
AcDbEntity
  8
ASSI
100
AcDbPolyline
 62
7
  6
CONTINUOUS
 90
49
 70
0
 10
14.8261234394
 20
14.6372213364
 10
14.8126664023
 20
15.2579646989
 10
14.7731774097
 20
15.8892080499
 10
14.7076564617
 20
16.5309513894
 10
14.615811708
 20
17.1848396718
 10
14.497934999
 20
17.8492279428
 10
14.3549018849
 20
18.5191813387
 10
14.1865250484
 20
19.1947412981
 10
13.992991807
 20
19.8758663826
 10
13.7757396636
 20
20.5574974127
 10
13.5345920045
 20
21.239638156
 10
13.2697254435
 20
21.922284845
 10
12.9831073246
 20
22.6003669986
 10
12.6745756832
 20
23.2738506287
 10
12.3442924838
 20
23.9427697233
 10
11.9947109646
 20
24.6021557655
 10
11.6256874278
 20
25.251937771
 10
11.2373655712
 20
25.8921867241
 10
10.832629725
 20
26.5181470603
 10
10.411357669
 20
27.1297123849
 10
9.9736716235
 20
27.7269890927
 10
9.5228225805
 20
28.3055408034
 10
9.0587125268
 20
28.8652280884
 10
8.5814394755
 20
29.4061903763
 10
8.0945484582
 20
29.9244095723
 10
7.5979678585
 20
30.4197163286
 10
7.0917692927
 20
30.892279993
 10
6.5797126419
 20
31.3385905137
 10
6.0617542862
 20
31.7584524068
 10
5.5379378454
 20
32.1520611563
 10
5.0121540606
 20
32.5164931623
 10
4.4843882826
 20
32.8515311714
 10
3.9546551606
 20
33.1573924369
 10
3.4268893826
 20
33.4318051194
 10
2.9011055978
 20
33.6745350489
 10
2.377289157
 20
33.8858163952
 10
1.8593308013
 20
34.0640798282
 10
1.3472741505
 20
34.2090794927
 10
0.8410755847
 20
34.3210612437
 10
0.344494985
 20
34.3991933167
 10
-0.1423960323
 20
34.4432236632
 10
-0.6196690836
 20
34.4534043316
 10
-1.0837791373
 20
34.4296597033
 10
-1.5346281803
 20
34.3717371666
 10
-1.9723142258
 20
34.2798893331
 10
-2.3935862818
 20
34.1547984192
 10
-2.798322128
 20
33.9962168931
 10
-3.1866439846
 20
33.8043922865
 10
-3.2807912737
 20
33.7514264571
  0
LINE
  5
3F9
100
AcDbEntity
  8
SMUSSO
100
AcDbLine
 62
7
  6
CONTINUOUS
 10
20.559129663
 20
65.4207758299
 11
20.559129663
 21
64.6042266707
  0
LWPOLYLINE
  5
3FA
100
AcDbEntity
  8
SMUSSO
100
AcDbPolyline
 62
7
  6
CONTINUOUS
 90
10
 70
0
 10
20.559129663
 20
64.6042266157
 10
20.5537499632
 20
64.4650365276
 10
20.5376512426
 20
64.3331144597
 10
20.5109551669
 20
64.2094647308
 10
20.4738639892
 20
64.0950286746
 10
20.4266591891
 20
63.9906780024
 10
20.3696994979
 20
63.8972079962
 10
20.3034177491
 20
63.815330641
 10
20.2283178111
 20
63.7456698326
 10
20.1449644209
 20
63.6887528934
  0
LWPOLYLINE
  5
3FB
100
AcDbEntity
  8
RACCORDO
100
AcDbPolyline
 62
250
  6
CONTINUOUS
 90
4
 70
0
 10
-0.0837778474
 20
-56.0397394115
 10
-0.078487732
 20
-56.0234613015
 10
-0.0732536938
 20
-56.0062572223
 10
-0.0680813237
 20
-55.9881393104
  0
LWPOLYLINE
  5
3FC
100
AcDbEntity
  8
RACCORDO
100
AcDbPolyline
 62
250
  6
CONTINUOUS
 90
10
 70
0
 10
-2.3924187747
 20
-53.2555314785
 10
-2.3963623151
 20
-53.2671422289
 10
-2.4011811571
 20
-53.2788486694
 10
-2.4067944275
 20
-53.2904543337
 10
-2.4131079203
 20
-53.3017644471
 10
-2.4200156781
 20
-53.312589195
 10
-2.4274017699
 20
-53.3227469082
 10
-2.435142237
 20
-53.3320671127
 10
-2.4431071734
 20
-53.3403933898
 10
-2.4511629057
 20
-53.3475860018
  0
LWPOLYLINE
  5
3FD
100
AcDbEntity
  8
RACCORDO
100
AcDbPolyline
 62
250
  6
CONTINUOUS
 90
34
 70
0
 10
-1.3790744597
 20
-55.8672472369
 10
-1.3860167841
 20
-55.8866276421
 10
-1.3921118651
 20
-55.905560687
 10
-1.3973874974
 20
-55.9240181098
 10
-1.4018760574
 20
-55.9420316714
 10
-1.4055973685
 20
-55.959519774
 10
-1.4085713098
 20
-55.9762901493
 10
-1.4108145267
 20
-55.9922511055
 10
-1.4123843272
 20
-56.0074685408
 10
-1.4133688056
 20
-56.0219934844
 10
-1.4137998441
 20
-56.0357976258
 10
-1.4137036558
 20
-56.048899912
 10
-1.413151237
 20
-56.0614220724
 10
-1.4121676031
 20
-56.0733761741
 10
-1.4107672611
 20
-56.0847456978
 10
-1.4089970188
 20
-56.0956061405
 10
-1.4068733913
 20
-56.1059669012
 10
-1.404409397
 20
-56.1158172659
 10
-1.4016422477
 20
-56.1252004028
 10
-1.398586881
 20
-56.1341165203
 10
-1.3952520906
 20
-56.1425674264
 10
-1.3916631508
 20
-56.1505967533
 10
-1.3878328251
 20
-56.158206119
 10
-1.3837669906
 20
-56.165396544
 10
-1.3794783101
 20
-56.1722077412
 10
-1.3749760413
 20
-56.1786430949
 10
-1.370265695
 20
-56.1847005587
 10
-1.3653527085
 20
-56.1904083594
 10
-1.360245061
 20
-56.1957681422
 10
-1.3549471214
 20
-56.2007781738
 10
-1.3494579634
 20
-56.2054584683
 10
-1.3437808278
 20
-56.2098142869
 10
-1.3379233581
 20
-56.2138380976
 10
-1.3318908275
 20
-56.2175293343
  0
LWPOLYLINE
  5
3FE
100
AcDbEntity
  8
RACCORDO
100
AcDbPolyline
 62
250
  6
CONTINUOUS
 90
10
 70
0
 10
-2.0310593209
 20
-53.4633938439
 10
-2.0349435604
 20
-53.4740003001
 10
-2.0398316269
 20
-53.4846578904
 10
-2.0455397103
 20
-53.4952299881
 10
-2.0517328346
 20
-53.5056127136
 10
-2.0583101845
 20
-53.5156628096
 10
-2.0654340665
 20
-53.5251771826
 10
-2.0730080639
 20
-53.5340080507
 10
-2.0806626102
 20
-53.5420873938
 10
-2.0881544885
 20
-53.5493396062
  0
LINE
  5
3FF
100
AcDbEntity
  8
RACCORDO
100
AcDbLine
 62
250
  6
CONTINUOUS
 10
-0.6812529087
 20
-55.7837145336
 11
-0.684477071
 21
-55.7916709783
  0
LWPOLYLINE
  5
400
100
AcDbEntity
  8
RACCORDO
100
AcDbPolyline
 62
250
  6
CONTINUOUS
 90
31
 70
0
 10
-2.5639502681
 20
-53.0736767981
 10
-2.5659257858
 20
-53.0784788403
 10
-2.5675207457
 20
-53.0833779846
 10
-2.5687296218
 20
-53.0883727276
 10
-2.5695503244
 20
-53.0934596506
 10
-2.5699743878
 20
-53.0986378784
 10
-2.5699855696
 20
-53.1039104001
 10
-2.5695800643
 20
-53.1092731296
 10
-2.5687490423
 20
-53.1147259675
 10
-2.5674649903
 20
-53.120280548
 10
-2.5657238517
 20
-53.1259352204
 10
-2.563512204
 20
-53.1316886368
 10
-2.5607822905
 20
-53.1375566954
 10
-2.5575241734
 20
-53.1435437498
 10
-2.5537226729
 20
-53.1496433562
 10
-2.5493155779
 20
-53.1558581657
 10
-2.5442861782
 20
-53.1621916418
 10
-2.5386202618
 20
-53.1686350198
 10
-2.5322551341
 20
-53.1751730322
 10
-2.5251706406
 20
-53.1818028716
 10
-2.5173542031
 20
-53.1885142485
 10
-2.5087533001
 20
-53.1952788545
 10
-2.4993494451
 20
-53.2020848344
 10
-2.4891307165
 20
-53.2089198514
 10
-2.4780551797
 20
-53.2157519274
 10
-2.4661160611
 20
-53.2225573287
 10
-2.4532948868
 20
-53.2293227782
 10
-2.4395313697
 20
-53.2360286472
 10
-2.4247965555
 20
-53.2426511329
 10
-2.409095511
 20
-53.2491621333
 10
-2.3924188137
 20
-53.2555314906
  0
LWPOLYLINE
  5
401
100
AcDbEntity
  8
RACCORDO
100
AcDbPolyline
 62
7
  6
CONTINUOUS
 90
5
 70
0
 10
-2.6170717268
 20
-53.1167994549
 10
-2.6123947518
 20
-53.1070279297
 10
-2.6073188951
 20
-53.0973731035
 10
-2.6019296514
 20
-53.0877483046
 10
-2.5962270207
 20
-53.078153533
  0
LWPOLYLINE
  5
402
100
AcDbEntity
  8
RACCORDO
100
AcDbPolyline
 62
7
  6
CONTINUOUS
 90
5
 70
0
 10
-2.6800102032
 20
-53.250520959
 10
-2.6343556523
 20
-53.1544523952
 10
-2.6300772776
 20
-53.1454274777
 10
-2.6257420002
 20
-53.1361725723
 10
-2.6170717268
 20
-53.1167994549
  0
LWPOLYLINE
  5
403
100
AcDbEntity
  8
RACCORDO
100
AcDbPolyline
 62
250
  6
CONTINUOUS
 90
43
 70
0
 10
1.5489302616
 20
-19.0343506883
 10
1.3308463432
 20
-19.1913363895
 10
1.0981576205
 20
-19.3257438602
 10
0.8532136766
 20
-19.4362159511
 10
0.5958903021
 20
-19.5225101907
 10
0.3263117065
 20
-19.5848690506
 10
0.0472001009
 20
-19.6226627962
 10
-0.241541117
 20
-19.6356425227
 10
-0.5398153448
 20
-19.6240571348
 10
-0.8446105641
 20
-19.5880236116
 10
-1.1559928376
 20
-19.5272942358
 10
-1.4738961026
 20
-19.4421167248
 10
-1.7951101533
 20
-19.3333512092
 10
-2.1196685309
 20
-19.200758694
 10
-2.4475376941
 20
-19.0445781743
 10
-2.775406814
 20
-18.8663867665
 10
-3.1032758943
 20
-18.6659614507
 10
-3.4311449312
 20
-18.4435252469
 10
-3.7557030839
 20
-18.2013243311
 10
-4.0769168008
 20
-17.939158449
 10
-4.3948196335
 20
-17.657227855
 10
-4.7062013963
 20
-17.3583794881
 10
-5.0109960211
 20
-17.0424419313
 10
-5.309269576
 20
-16.7095866016
 10
-5.5980100789
 20
-16.3631746893
 10
-5.8771209465
 20
-16.0030688219
 10
-6.1466987622
 20
-15.6294063718
 10
-6.4040212941
 20
-15.2459606464
 10
-6.648964326
 20
-14.8526326126
 10
-6.8816520741
 20
-14.4495213035
 10
-7.0997349555
 20
-14.0406971248
 10
-7.3030648593
 20
-13.6261028291
 10
-7.4917898964
 20
-13.205795664
 10
-7.6640048168
 20
-12.7840177779
 10
-7.8195431172
 20
-12.3607512611
 10
-7.958571301
 20
-11.9360140234
 10
-8.0796836279
 20
-11.5141019428
 10
-8.1826973389
 20
-11.0949728908
 10
-8.267795193
 20
-10.678668996
 10
-8.3341197274
 20
-10.2696125217
 10
-8.3813851211
 20
-9.8692775559
 10
-8.4098771951
 20
-9.4761900108
 10
-8.4195959493
 20
-9.0903498862
  0
LWPOLYLINE
  5
404
100
AcDbEntity
  8
ASSI
100
AcDbPolyline
 62
7
  6
CONTINUOUS
 90
14
 70
0
 10
1.5889523167
 20
-16.6421428012
 10
1.6800255386
 20
-16.5862292147
 10
1.7968684
 20
-16.5038259617
 10
1.9083821906
 20
-16.412567453
 10
2.0139817228
 20
-16.3129325832
 10
2.1136359063
 20
-16.2048773189
 10
2.2073758313
 20
-16.0884456935
 10
2.2947095818
 20
-15.9642487018
 10
2.3756034812
 20
-15.8322455223
 10
2.4500912061
 20
-15.6924769765
 10
2.5177818694
 20
-15.5456765237
 10
2.5786397397
 20
-15.391807198
 10
2.6327005485
 20
-15.2309059652
 10
2.6489281228
 20
-15.1731911389
  0
LINE
  5
405
100
AcDbEntity
  8
RACCORDO
100
AcDbLine
 62
250
  6
CONTINUOUS
 10
4.9942696686
 20
-14.0399600564
 11
3.9336094968
 21
-14.6523719464
  0
LINE
  5
406
100
AcDbEntity
  8
0
100
AcDbLine
 62
7
  6
CONTINUOUS
 10
2.2479748712
 20
-16.0307099545
 11
-0.773514687
 21
-17.7752801573
  0
LWPOLYLINE
  5
407
100
AcDbEntity
  8
SMUSSO
100
AcDbPolyline
 62
7
  6
CONTINUOUS
 90
14
 70
0
 10
-0.7735146905
 20
-17.7752801593
 10
-0.8670197704
 20
-17.825836577
 10
-1.0653634822
 20
-17.9123441756
 10
-1.274676043
 20
-17.9770976194
 10
-1.4940597083
 20
-18.0198196489
 10
-1.7225733068
 20
-18.0403275199
 10
-1.9592368227
 20
-18.0385338174
 10
-2.2030352869
 20
-18.0144467425
 10
-2.4529228122
 20
-17.9681702292
 10
-2.7078276782
 20
-17.8999033745
 10
-2.9666569804
 20
-17.8099394736
 10
-3.2283009241
 20
-17.6986648906
 10
-3.4916363047
 20
-17.5665580662
 10
-3.623188977
 20
-17.4930954053
  0
LWPOLYLINE
  5
408
100
AcDbEntity
  8
SMUSSO
100
AcDbPolyline
 62
7
  6
CONTINUOUS
 90
8
 70
0
 10
1.4229176605
 20
-17.1710511518
 10
1.2108416667
 20
-17.2779636851
 10
0.9863767377
 20
-17.361063524
 10
0.7503462902
 20
-17.4200754505
 10
0.5037616624
 20
-17.4547475524
 10
0.2476791104
 20
-17.4649322108
 10
-0.016803311
 20
-17.450586755
 10
-0.1726212465
 20
-17.4283318157
  0
LWPOLYLINE
  5
409
100
AcDbEntity
  8
0
100
AcDbPolyline
 62
7
  6
CONTINUOUS
 90
3
 70
0
 10
1.339547644
 20
-17.1568671224
 10
1.5646320098
 20
-17.0735363332
 10
1.5949910655
 20
-17.0582560632
  0
LWPOLYLINE
  5
40A
100
AcDbEntity
  8
ASSI
100
AcDbPolyline
 62
7
  6
CONTINUOUS
 90
9
 70
0
 10
-6.0329545107
 20
18.0985138294
 10
-5.9550798942
 20
18.0736802814
 10
-5.8782935961
 20
18.0544374796
 10
-5.8025858101
 20
18.0407350485
 10
-5.7286428267
 20
18.0326972005
 10
-5.6564806921
 20
18.0303754406
 10
-5.5860833599
 20
18.0337182638
 10
-5.5180889814
 20
18.0426953674
 10
-5.4797892449
 20
18.0512599223
  0
LWPOLYLINE
  5
40B
100
AcDbEntity
  8
SMUSSO
100
AcDbPolyline
 62
7
  6
CONTINUOUS
 90
25
 70
0
 10
-8.0789717393
 20
22.1878677846
 10
-7.8916553278
 20
22.0725623895
 10
-7.704622949
 20
21.9433008185
 10
-7.5199778359
 20
21.8015695251
 10
-7.3377515953
 20
21.6472096195
 10
-7.1579126204
 20
21.4803799915
 10
-6.9827532193
 20
21.3032076647
 10
-6.8123333795
 20
21.1155608477
 10
-6.6465931136
 20
20.917571332
 10
-6.4876447671
 20
20.7117615155
 10
-6.335574346
 20
20.4980302471
 10
-6.1902958445
 20
20.276478678
 10
-6.0536635906
 20
20.0499326595
 10
-5.9257878733
 20
19.8183265139
 10
-5.8065584037
 20
19.5817259188
 10
-5.6974986435
 20
19.3431537584
 10
-5.5987397651
 20
19.1025848861
 10
-5.5101505961
 20
18.8600444484
 10
-5.4328610813
 20
18.6186307688
 10
-5.3670169101
 20
18.3783586951
 10
-5.312472393
 20
18.1392133795
 10
-5.269920407
 20
17.9042486019
 10
-5.2395919108
 20
17.6744822888
 10
-5.2212559455
 20
17.4488965136
 10
-5.2149125113
 20
17.2274912764
  0
LWPOLYLINE
  5
40C
100
AcDbEntity
  8
RACCORDO
100
AcDbPolyline
 62
250
  6
CONTINUOUS
 90
10
 70
0
 10
-2.031059321
 20
54.7189178313
 10
-2.027230462
 20
54.7103411944
 10
-2.0239414888
 20
54.7016854652
 10
-2.0212221119
 20
54.6930286431
 10
-2.0190966897
 20
54.6844477038
 10
-2.0175848321
 20
54.6760210939
 10
-2.0167004596
 20
54.6678277958
 10
-2.0164509133
 20
54.6599423242
 10
-2.0168376682
 20
54.6524343076
 10
-2.0178566217
 20
54.6453708906
  0
LWPOLYLINE
  5
40D
100
AcDbEntity
  8
RACCORDO
100
AcDbPolyline
 62
7
  6
CONTINUOUS
 90
5
 70
0
 10
-1.2825311836
 20
55.1511085966
 10
-1.2786623612
 20
55.1424042297
 10
-1.27538388
 20
55.1337765939
 10
-1.27269574
 20
55.1252256894
 10
-1.2705844441
 20
55.1166763293
  0
LWPOLYLINE
  5
40E
100
AcDbEntity
  8
RACCORDO
100
AcDbPolyline
 62
7
  6
CONTINUOUS
 90
8
 70
0
 10
-0.1335523746
 20
53.6972830866
 10
-0.1391069165
 20
53.710777073
 10
-0.1446643609
 20
53.7238827515
 10
-0.1502247077
 20
53.7366001222
 10
-0.1558200796
 20
53.7489107693
 10
-0.161418354
 20
53.7608331085
 10
-0.166923163
 20
53.7724223872
 10
-0.1723333993
 20
53.7836760748
  0
LWPOLYLINE
  5
40F
100
AcDbEntity
  8
ASSI
100
AcDbPolyline
 62
7
  6
CONTINUOUS
 90
7
 70
0
 10
-0.4257941486
 20
52.8654765424
 10
-0.4097257775
 20
52.8208477124
 10
-0.3903205411
 20
52.77880345
 10
-0.3675784396
 20
52.7393437552
 10
-0.3407869987
 20
52.7016380842
 10
-0.3106586926
 20
52.6665169808
 10
-0.299162633
 20
52.655491675
  0
LWPOLYLINE
  5
410
100
AcDbEntity
  8
RACCORDO
100
AcDbPolyline
 62
7
  6
CONTINUOUS
 90
4
 70
0
 10
-0.0837864597
 20
53.5439668104
 10
-0.0872228275
 20
53.5548837689
 10
-0.0906993709
 20
53.5661197749
 10
-0.0942160901
 20
53.5776748282
  0
LWPOLYLINE
  5
411
100
AcDbEntity
  8
RACCORDO
100
AcDbPolyline
 62
7
  6
CONTINUOUS
 90
7
 70
0
 10
-0.0837864597
 20
53.5439668104
 10
-0.0423508742
 20
53.4088348004
 10
-0.0083682249
 20
53.2757742269
 10
0.0181614879
 20
53.1447850899
 10
0.0373372724
 20
53.0150662711
 10
0.0490601205
 20
52.8874188889
 10
0.0530330086
 20
52.7642634092
  0
LINE
  5
412
100
AcDbEntity
  8
RACCORDO
100
AcDbLine
 62
7
  6
CONTINUOUS
 10
-0.5242416249
 20
53.1967514496
 11
-0.4257941486
 21
52.8654765424
  0
LWPOLYLINE
  5
413
100
AcDbEntity
  8
RACCORDO
100
AcDbPolyline
 62
7
  6
CONTINUOUS
 90
9
 70
0
 10
-0.0942160901
 20
53.5776748282
 10
-0.1012590508
 20
53.6017182229
 10
-0.1050073021
 20
53.6142542729
 10
-0.1089665459
 20
53.6271463553
 10
-0.1131324728
 20
53.6403932666
 10
-0.1176586612
 20
53.6540271783
 10
-0.1225963041
 20
53.6680588141
 10
-0.1278942086
 20
53.6824774502
 10
-0.1335523746
 20
53.6972830866
  0
LWPOLYLINE
  5
414
100
AcDbEntity
  8
SMUSSO
100
AcDbPolyline
 62
7
  6
CONTINUOUS
 90
3
 70
0
 10
20.5376512258
 20
64.9001416331
 10
20.5537499581
 20
64.7496291167
 10
20.559129663
 20
64.6042266157
  0
LWPOLYLINE
  5
415
100
AcDbEntity
  8
0
100
AcDbPolyline
 62
7
  6
CONTINUOUS
 90
9
 70
0
 10
20.559129663
 20
64.890018831
 10
20.536909544
 20
65.1645162972
 10
20.4710955444
 20
65.4542174767
 10
20.3641944989
 20
65.7480877415
 10
20.217403474
 20
66.0399245042
 10
20.0414481374
 20
66.3084039532
 10
19.8407708913
 20
66.5485167902
 10
19.6230154695
 20
66.7511171916
 10
19.3922907645
 20
66.9109129375
  0
LWPOLYLINE
  5
416
100
AcDbEntity
  8
RACCORDO
100
AcDbPolyline
 62
7
  6
CONTINUOUS
 90
4
 70
0
 10
-0.1049958555
 20
-56.0855116768
 10
-0.1012339992
 20
-56.0772787023
 10
-0.0976892994
 20
-56.0691824539
 10
-0.0941891904
 20
-56.0613670966
  0
LWPOLYLINE
  5
417
100
AcDbEntity
  8
RACCORDO
100
AcDbPolyline
 62
7
  6
CONTINUOUS
 90
4
 70
0
 10
-0.0941891904
 20
-56.0613670966
 10
-0.0906761501
 20
-56.0538806853
 10
-0.0872077004
 20
-56.0466751651
 10
-0.0837838415
 20
-56.039750536
  0
LINE
  5
418
100
AcDbEntity
  8
RACCORDO
100
AcDbLine
 62
7
  6
CONTINUOUS
 10
-0.1089773045
 20
-56.0938826981
 11
-0.1049958555
 21
-56.0855116768
  0
LWPOLYLINE
  5
419
100
AcDbEntity
  8
RACCORDO
100
AcDbPolyline
 62
7
  6
CONTINUOUS
 90
3
 70
0
 10
-0.1168350797
 20
-56.1092545092
 10
-0.11317591
 20
-56.1023904456
 10
-0.1089773045
 20
-56.0938826981
  0
LWPOLYLINE
  5
41A
100
AcDbEntity
  8
RACCORDO
100
AcDbPolyline
 62
7
  6
CONTINUOUS
 90
3
 70
0
 10
-0.1162619022
 20
-56.1081455507
 10
-0.1200384424
 20
-56.114835493
 10
-0.1267614495
 20
-56.1255032081
  0
LWPOLYLINE
  5
41B
100
AcDbEntity
  8
RACCORDO
100
AcDbPolyline
 62
250
  6
CONTINUOUS
 90
14
 70
0
 10
5.0128793035
 20
-27.4461774792
 10
5.0395252668
 20
-27.4299497302
 10
5.110659712
 20
-27.3774093771
 10
5.1754086308
 20
-27.3151946992
 10
5.2333954133
 20
-27.2436675667
 10
5.2842827794
 20
-27.1632440175
 10
5.3277747423
 20
-27.0743918354
 10
5.3636183321
 20
-26.9776278261
 10
5.3916050642
 20
-26.8735148147
 10
5.4115721521
 20
-26.7626583763
 10
5.4234034559
 20
-26.6457033115
 10
5.427030159
 20
-26.5233298914
 10
5.422431167
 20
-26.3962499003
 10
5.4096332299
 20
-26.2652024995
  0
LWPOLYLINE
  5
41C
100
AcDbEntity
  8
ASSI
100
AcDbPolyline
 62
7
  6
CONTINUOUS
 90
12
 70
0
 10
6.0734119108
 20
-26.8335445042
 10
6.1003282321
 20
-26.8171977911
 10
6.1847931005
 20
-26.7533177245
 10
6.2597726446
 20
-26.6753409267
 10
6.3254980502
 20
-26.5836109773
 10
6.380340933
 20
-26.480400538
 10
6.424029427
 20
-26.3654228046
 10
6.4568353982
 20
-26.2389645814
 10
6.4779460599
 20
-26.1041589428
 10
6.4870904833
 20
-25.962050247
 10
6.4845395972
 20
-25.8115941359
 10
6.4702934017
 20
-25.6527906095
  0
LINE
  5
41D
100
AcDbEntity
  8
RACCORDO
100
AcDbLine
 62
250
  6
CONTINUOUS
 10
6.4702934017
 20
-25.6527906095
 11
5.4096332299
 21
-26.2652024995
  0
LINE
  5
41E
100
AcDbEntity
  8
ASSI
100
AcDbLine
 62
7
  6
CONTINUOUS
 10
6.0735394753
 20
-26.8337655892
 11
5.0128793035
 21
-27.4461774792
  0
LWPOLYLINE
  5
41F
100
AcDbEntity
  8
0
100
AcDbPolyline
 62
7
  6
CONTINUOUS
 90
6
 70
0
 10
-7.0132667232
 20
24.9512069242
 10
-7.1383114036
 20
24.934927215
 10
-7.5955846204
 20
24.8362174844
 10
-8.0356609808
 20
24.7002482671
 10
-8.4586804835
 20
24.5273228907
 10
-8.8615429557
 20
24.3186475886
  0
LWPOLYLINE
  5
420
100
AcDbEntity
  8
ASSI
100
AcDbPolyline
 62
7
  6
CONTINUOUS
 90
11
 70
0
 10
-6.883295209
 20
23.9262980732
 10
-7.0378217467
 20
23.9496976875
 10
-7.5025208367
 20
23.9904452306
 10
-7.9582658027
 20
24.000012267
 10
-8.4040474273
 20
23.9784497567
 10
-8.8368380578
 20
23.9259105798
 10
-9.2565494336
 20
23.8421849034
 10
-9.6632698152
 20
23.7274825603
 10
-10.0542363314
 20
23.5825859289
 10
-10.4293422004
 20
23.4072904763
 10
-10.6292368201
 20
23.2978345172
  0
LINE
  5
421
100
AcDbEntity
  8
RACCORDO
100
AcDbLine
 62
250
  6
CONTINUOUS
 10
-0.6888423327
 20
52.3973593537
 11
-0.684477071
 21
52.3906406967
  0
LWPOLYLINE
  5
422
100
AcDbEntity
  8
RACCORDO
100
AcDbPolyline
 62
250
  6
CONTINUOUS
 90
10
 70
0
 10
-1.7442937182
 20
53.250620959
 10
-1.7075825104
 20
53.1936209818
 10
-1.6695295679
 20
53.1377645343
 10
-1.6302099961
 20
53.0831619583
 10
-1.5897012936
 20
53.0299209817
 10
-1.5480835296
 20
52.9781469438
 10
-1.5054392155
 20
52.9279425457
 10
-1.461852684
 20
52.8794070783
 10
-1.4174098941
 20
52.8326362676
 10
-1.3721986116
 20
52.7877224951
  0
LWPOLYLINE
  5
423
100
AcDbEntity
  8
RACCORDO
100
AcDbPolyline
 62
250
  6
CONTINUOUS
 90
10
 70
0
 10
-1.6805815567
 20
53.2894949062
 10
-1.644572279
 20
53.2335848374
 10
-1.6072472618
 20
53.1787970145
 10
-1.5686802154
 20
53.1252396378
 10
-1.5289473016
 20
53.0730184756
 10
-1.4881269878
 20
53.0222366618
 10
-1.4462998925
 20
52.9729944918
 10
-1.4035486198
 20
52.9253892159
 10
-1.3599575957
 20
52.8795148482
 10
-1.3156129063
 20
52.8354619864
  0
LWPOLYLINE
  5
424
100
AcDbEntity
  8
RACCORDO
100
AcDbPolyline
 62
7
  6
CONTINUOUS
 90
10
 70
0
 10
-2.5254200701
 20
53.3260240675
 10
-2.5378140823
 20
53.3508879428
 10
-2.5502176985
 20
53.3769949193
 10
-2.5626309187
 20
53.4043449968
 10
-2.5753579618
 20
53.4332117271
 10
-2.5880946088
 20
53.4633215584
 10
-2.5999282034
 20
53.4938538356
 10
-2.6105545266
 20
53.5245350071
 10
-2.6202777973
 20
53.5556386245
 10
-2.6290980156
 20
53.5871646879
  0
LWPOLYLINE
  5
425
100
AcDbEntity
  8
RACCORDO
100
AcDbPolyline
 62
7
  6
CONTINUOUS
 90
5
 70
0
 10
-0.1723333993
 20
53.7836760748
 10
-0.1827804303
 20
53.8052471074
 10
-0.1876931643
 20
53.8156482377
 10
-0.1924193874
 20
53.8257791464
 10
-0.1969590996
 20
53.8356398335
  0
LINE
  5
426
100
AcDbEntity
  8
RACCORDO
100
AcDbLine
 62
7
  6
CONTINUOUS
 10
-1.2876434785
 20
55.1617532842
 11
-1.2825311836
 21
55.1511085966
  0
LWPOLYLINE
  5
427
100
AcDbEntity
  8
RACCORDO
100
AcDbPolyline
 62
250
  6
CONTINUOUS
 90
8
 70
0
 10
-0.9955336564
 20
-56.0950020714
 10
-0.9962876013
 20
-56.0961247173
 10
-0.9968956974
 20
-56.0992453054
 10
-0.9962431002
 20
-56.1034279809
 10
-0.9943407621
 20
-56.108602547
 10
-0.9912206097
 20
-56.1146821606
 10
-0.9869350077
 20
-56.1215647894
 10
-0.9815558804
 20
-56.1291349239
  0
LWPOLYLINE
  5
428
100
AcDbEntity
  8
RACCORDO
100
AcDbPolyline
 62
7
  6
CONTINUOUS
 90
4
 70
0
 10
-0.1339597269
 20
-56.1361592914
 10
-0.1281763806
 20
-56.1277465263
 10
-0.1227754481
 20
-56.1193223596
 10
-0.1177569293
 20
-56.1108867913
  0
LINE
  5
429
100
AcDbEntity
  8
RACCORDO
100
AcDbLine
 62
7
  6
CONTINUOUS
 10
-0.1267614495
 20
-56.1255032081
 11
-0.1296533059
 21
-56.1295567609
  0
LWPOLYLINE
  5
42A
100
AcDbEntity
  8
RACCORDO
100
AcDbPolyline
 62
7
  6
CONTINUOUS
 90
5
 70
0
 10
-2.5962270207
 20
-53.078153533
 10
-2.5885990208
 20
-53.0674805234
 10
-2.5808317174
 20
-53.0574869536
 10
-2.5729251107
 20
-53.0481728236
 10
-2.5647731865
 20
-53.0396965786
  0
LWPOLYLINE
  5
42B
100
AcDbEntity
  8
RACCORDO
100
AcDbPolyline
 62
250
  6
CONTINUOUS
 90
3
 70
0
 10
-0.1296533059
 20
-56.1295567609
 10
-0.130900214
 20
-56.1312951799
 10
-0.1339597269
 20
-56.1361592914
  0
LWPOLYLINE
  5
42C
100
AcDbEntity
  8
RACCORDO
100
AcDbPolyline
 62
250
  6
CONTINUOUS
 90
7
 70
0
 10
-0.6933394897
 20
-55.7603052205
 10
-0.6939035737
 20
-55.7610263292
 10
-0.6951206072
 20
-55.764111842
 10
-0.6951284028
 20
-55.7679946956
 10
-0.6941026635
 20
-55.7728445304
 10
-0.6920491556
 20
-55.778602975
 10
-0.6888423327
 20
-55.7849523214
  0
LWPOLYLINE
  5
42D
100
AcDbEntity
  8
ASSI
100
AcDbPolyline
 62
7
  6
CONTINUOUS
 90
6
 70
0
 10
-1.4391385026
 20
-53.7948974895
 10
-1.4576185366
 20
-53.8179707799
 10
-1.4710466052
 20
-53.8450421536
 10
-1.4794227084
 20
-53.8761116107
 10
-1.4827049969
 20
-53.9121253506
 10
-1.4823180147
 20
-53.9208748914
  0
LWPOLYLINE
  5
42E
100
AcDbEntity
  8
RACCORDO
100
AcDbPolyline
 62
250
  6
CONTINUOUS
 90
6
 70
0
 10
-1.0510525393
 20
-55.0510442285
 10
-1.0227910725
 20
-55.0175083081
 10
-1.0006392055
 20
-54.978030142
 10
-0.9850738118
 20
-54.9333123757
 10
-0.975618018
 20
-54.8826523635
 10
-0.9722718241
 20
-54.8260501055
  0
LINE
  5
42F
100
AcDbEntity
  8
RACCORDO
100
AcDbLine
 62
7
  6
CONTINUOUS
 10
40.9945156393
 20
-92.4064362451
 11
40.9945156393
 21
42.4744534811
  0
LINE
  5
430
100
AcDbEntity
  8
RACCORDO
100
AcDbLine
 62
250
  6
CONTINUOUS
 10
-0.7176146114
 20
-55.8301318419
 11
-0.684477071
 21
-55.7916709783
  0
LINE
  5
431
100
AcDbEntity
  8
RACCORDO
100
AcDbLine
 62
250
  6
CONTINUOUS
 10
-0.7842437292
 20
-55.9064547416
 11
-0.7176146114
 21
-55.8301318419
  0
LINE
  5
432
100
AcDbEntity
  8
RACCORDO
100
AcDbLine
 62
250
  6
CONTINUOUS
 10
-0.8843002079
 20
-56.0199954946
 11
-0.7842437292
 21
-55.9064547416
  0
LINE
  5
433
100
AcDbEntity
  8
RACCORDO
100
AcDbLine
 62
250
  6
CONTINUOUS
 10
-0.9815561844
 20
-56.1291347541
 11
-0.8843002079
 21
-56.0199954946
  0
LINE
  5
434
100
AcDbEntity
  8
RACCORDO
100
AcDbLine
 62
7
  6
CONTINUOUS
 10
-0.6933755366
 20
-55.760346536
 11
-0.7660811973
 21
-55.8418803818
  0
LINE
  5
435
100
AcDbEntity
  8
RACCORDO
100
AcDbLine
 62
7
  6
CONTINUOUS
 10
-0.7660811973
 20
-55.8418803818
 11
-0.8540404233
 21
-55.9395739846
  0
LINE
  5
436
100
AcDbEntity
  8
RACCORDO
100
AcDbLine
 62
7
  6
CONTINUOUS
 10
-0.8540404233
 20
-55.9395739846
 11
-0.9955311207
 21
-56.0949992992
  0
LWPOLYLINE
  5
437
100
AcDbEntity
  8
RACCORDO
100
AcDbPolyline
 62
7
  6
CONTINUOUS
 90
7
 70
0
 10
-0.9955334412
 20
-56.0950022674
 10
-1.0135929787
 20
-56.1139601063
 10
-1.0347088845
 20
-56.1342436067
 10
-1.055836254
 20
-56.1525767597
 10
-1.0768608558
 20
-56.168920145
 10
-1.0976411258
 20
-56.1832272127
 10
-1.1131054657
 20
-56.1926789108
  0
LWPOLYLINE
  5
438
100
AcDbEntity
  8
RACCORDO
100
AcDbPolyline
 62
7
  6
CONTINUOUS
 90
13
 70
0
 10
-0.1969410454
 20
-56.200722218
 10
-0.1924199493
 20
-56.1961175048
 10
-0.1877141913
 20
-56.1914610707
 10
-0.1828237715
 20
-56.1867529158
 10
-0.1777164658
 20
-56.1820477122
 10
-0.1724244982
 20
-56.1772907877
 10
-0.1670445409
 20
-56.1723181256
 10
-0.16157736
 20
-56.1671292883
 10
-0.1560221895
 20
-56.1617247134
 10
-0.1504734035
 20
-56.1559416967
 10
-0.1449624601
 20
-56.1497260034
 10
-0.1394579013
 20
-56.1431318683
 10
-0.1339597269
 20
-56.1361592914
  0
LWPOLYLINE
  5
439
100
AcDbEntity
  8
RACCORDO
100
AcDbPolyline
 62
250
  6
CONTINUOUS
 90
4
 70
0
 10
-1.0246935125
 20
-56.1735132701
 10
-1.0104249532
 20
-56.1596031893
 10
-0.9960447079
 20
-56.144809667
 10
-0.9815561844
 20
-56.1291347541
  0
LINE
  5
43A
100
AcDbEntity
  8
RACCORDO
100
AcDbLine
 62
7
  6
CONTINUOUS
 10
-2.5254224801
 20
-53.0022782557
 11
-2.4627116478
 21
-52.941423684
  0
LWPOLYLINE
  5
43B
100
AcDbEntity
  8
RACCORDO
100
AcDbPolyline
 62
7
  6
CONTINUOUS
 90
13
 70
0
 10
-0.1969410454
 20
-56.200722218
 10
-0.2596509614
 20
-56.261575849
 10
-0.3277587938
 20
-56.3129698927
 10
-0.4012645426
 20
-56.3549043491
 10
-0.4806778589
 20
-56.3875550773
 10
-0.5654890916
 20
-56.4107462183
 10
-0.6541692871
 20
-56.4239501945
 10
-0.7468168456
 20
-56.4269114772
 10
-0.843333367
 20
-56.4198855953
 10
-0.941894697
 20
-56.4031115569
 10
-1.0418927844
 20
-56.3766690316
 10
-1.1439356805
 20
-56.34047835
 10
-1.2480233853
 20
-56.294539512
  0
LINE
  5
43C
100
AcDbEntity
  8
RACCORDO
100
AcDbLine
 62
7
  6
CONTINUOUS
 10
-2.5483694702
 20
-53.024307072
 11
-2.5328927379
 21
-53.0094170906
  0
LINE
  5
43D
100
AcDbEntity
  8
RACCORDO
100
AcDbLine
 62
7
  6
CONTINUOUS
 10
-2.5328927379
 20
-53.0094170906
 11
-2.5254224801
 21
-53.0022782557
  0
LINE
  5
43E
100
AcDbEntity
  8
RACCORDO
100
AcDbLine
 62
7
  6
CONTINUOUS
 10
-2.5647731865
 20
-53.0396965786
 11
-2.5483694702
 21
-53.024307072
  0
LINE
  5
43F
100
AcDbEntity
  8
RACCORDO
100
AcDbLine
 62
7
  6
CONTINUOUS
 10
-1.2825311836
 20
-53.6496600039
 11
-1.4391385026
 21
-53.7948974895
  0
LINE
  5
440
100
AcDbEntity
  8
RACCORDO
100
AcDbLine
 62
250
  6
CONTINUOUS
 10
-1.0388600315
 20
-56.1865150557
 11
-1.0246935125
 21
-56.1735132701
  0
LWPOLYLINE
  5
441
100
AcDbEntity
  8
RACCORDO
100
AcDbPolyline
 62
7
  6
CONTINUOUS
 90
12
 70
0
 10
-2.4627116478
 20
-52.941423684
 10
-2.3946031205
 20
-52.890028923
 10
-2.3210968985
 20
-52.8480939727
 10
-2.2416834059
 20
-52.8154430447
 10
-2.1568722186
 20
-52.7922519274
 10
-2.0681920633
 20
-52.7790479856
 10
-1.9755444635
 20
-52.7760866772
 10
-1.8790278959
 20
-52.7831125444
 10
-1.7804665171
 20
-52.7998865781
 10
-1.6804683794
 20
-52.8263291088
 10
-1.5784254304
 20
-52.8625198059
 10
-1.4743376703
 20
-52.9084586696
  0
LWPOLYLINE
  5
442
100
AcDbEntity
  8
RACCORDO
100
AcDbPolyline
 62
7
  6
CONTINUOUS
 90
13
 70
0
 10
-3.184500499
 20
-51.035384613
 10
-3.3177060955
 20
-51.1219991917
 10
-3.4427741413
 20
-51.2235723254
 10
-3.5588421105
 20
-51.3398998304
 10
-3.6651565479
 20
-51.4707717655
 10
-3.7609108862
 20
-51.6157811614
 10
-3.8453328101
 20
-51.7743225799
 10
-3.9180024432
 20
-51.9462927844
 10
-3.9782448129
 20
-52.1309323556
 10
-4.0253179128
 20
-52.3263728047
 10
-4.0589977331
 20
-52.5313922031
 10
-4.079276598
 20
-52.7456606305
 10
-4.0860542879
 20
-52.968400709
  0
LWPOLYLINE
  5
443
100
AcDbEntity
  8
RACCORDO
100
AcDbPolyline
 62
7
  6
CONTINUOUS
 90
13
 70
0
 10
-1.4743377245
 20
52.0184432264
 10
-1.4663463706
 20
52.0128657551
 10
-1.4581154353
 20
52.0070410067
 10
-1.4496449185
 20
52.0009689812
 10
-1.4409484949
 20
51.994600295
 10
-1.4320124898
 20
51.9879843318
 10
-1.4227958794
 20
51.9812692426
 10
-1.4132979243
 20
51.9744547692
 10
-1.4035193639
 20
51.9675411698
 10
-1.3934213927
 20
51.9606773692
 10
-1.3829910757
 20
51.9539130089
 10
-1.372241348
 20
51.9471984474
 10
-1.3611722096
 20
51.9405336846
  0
LWPOLYLINE
  5
444
100
AcDbEntity
  8
RACCORDO
100
AcDbPolyline
 62
7
  6
CONTINUOUS
 90
13
 70
0
 10
-1.4743377245
 20
52.0184432264
 10
-1.5784254242
 20
52.0927022575
 10
-1.680468315
 20
52.1743481496
 10
-1.7804663967
 20
52.2633809028
 10
-1.8790277205
 20
52.3604230099
 10
-1.9755442354
 20
52.4648519782
 10
-2.0681917881
 20
52.5748003292
 10
-2.1568719766
 20
52.6904099574
 10
-2.241683203
 20
52.8115389683
 10
-2.3210965202
 20
52.935894201
 10
-2.3946022793
 20
53.0627112681
 10
-2.4627101293
 20
53.192754557
 10
-2.5254200701
 20
53.3260240675
  0
LWPOLYLINE
  5
445
100
AcDbEntity
  8
RACCORDO
100
AcDbPolyline
 62
250
  6
CONTINUOUS
 90
22
 70
0
 10
-2.5254198801
 20
53.3260236484
 10
-2.5156645176
 20
53.3184872848
 10
-2.505371144
 20
53.3111284192
 10
-2.4945420725
 20
53.3039536303
 10
-2.4831986501
 20
53.2969554217
 10
-2.4713243211
 20
53.2901545879
 10
-2.4588651254
 20
53.2836008602
 10
-2.4458178386
 20
53.2772950685
 10
-2.4321919965
 20
53.2712515653
 10
-2.4179539016
 20
53.2655412007
 10
-2.4031005227
 20
53.2601673853
 10
-2.3876427979
 20
53.2551424639
 10
-2.3715691321
 20
53.2505504524
 10
-2.3548806252
 20
53.2463961369
 10
-2.3375853772
 20
53.2426894613
 10
-2.31968323
 20
53.2395208465
 10
-2.3011836697
 20
53.2368929104
 10
-2.2820870462
 20
53.2348152254
 10
-2.2623801591
 20
53.2333866464
 10
-2.242062025
 20
53.2326426646
 10
-2.2211434706
 20
53.2325563971
 10
-2.1996290883
 20
53.2331317552
  0
LINE
  5
446
100
AcDbEntity
  8
RACCORDO
100
AcDbLine
 62
250
  6
CONTINUOUS
 10
-1.4593431604
 20
55.2358442272
 11
-1.446796669
 21
55.2252200743
  0
LWPOLYLINE
  5
447
100
AcDbEntity
  8
RACCORDO
100
AcDbPolyline
 62
250
  6
CONTINUOUS
 90
5
 70
0
 10
-1.446796669
 20
55.2252200743
 10
-1.4341247895
 20
55.2142359852
 10
-1.4213758006
 20
55.2029083254
 10
-1.4088255414
 20
55.1913747314
 10
-1.3965358391
 20
55.1796567597
  0
LINE
  5
448
100
AcDbEntity
  8
RACCORDO
100
AcDbLine
 62
250
  6
CONTINUOUS
 10
-1.3965358391
 20
55.1796567597
 11
-1.384344043
 21
55.1676579596
  0
LINE
  5
449
100
AcDbEntity
  8
RACCORDO
100
AcDbLine
 62
7
  6
CONTINUOUS
 10
-0.5804383956
 20
53.2810358935
 11
-0.5670847689
 21
53.2676527517
  0
LINE
  5
44A
100
AcDbEntity
  8
RACCORDO
100
AcDbLine
 62
250
  6
CONTINUOUS
 10
-1.384344043
 20
55.1676579596
 11
-1.3721986116
 21
55.1553429164
  0
LWPOLYLINE
  5
44B
100
AcDbEntity
  8
RACCORDO
100
AcDbPolyline
 62
250
  6
CONTINUOUS
 90
10
 70
0
 10
-1.3156129063
 20
52.8354619864
 10
-1.3093582347
 20
52.8290404806
 10
-1.303362503
 20
52.8220964559
 10
-1.2976797204
 20
52.8146924765
 10
-1.292360991
 20
52.8068951168
 10
-1.2874543209
 20
52.7987747461
 10
-1.283004115
 20
52.7904049429
 10
-1.2790504426
 20
52.7818612775
 10
-1.2756287503
 20
52.7732205836
 10
-1.2727697624
 20
52.7645606843
  0
LWPOLYLINE
  5
44C
100
AcDbEntity
  8
RACCORDO
100
AcDbPolyline
 62
7
  6
CONTINUOUS
 90
10
 70
0
 10
-0.5670847689
 20
53.2676527517
 10
-0.5607455233
 20
53.2611209749
 10
-0.554768153
 20
53.2541983001
 10
-0.5491526581
 20
53.2468847274
 10
-0.5438552402
 20
53.2391077748
 10
-0.5389196976
 20
53.2309399242
 10
-0.5344774253
 20
53.2225986218
 10
-0.5305722216
 20
53.2141563496
 10
-0.5271602881
 20
53.2055406255
 10
-0.5242416249
 20
53.1967514496
  0
LWPOLYLINE
  5
44D
100
AcDbEntity
  8
RACCORDO
100
AcDbPolyline
 62
250
  6
CONTINUOUS
 90
28
 70
0
 10
-0.2094800513
 20
55.6737252681
 10
-0.391096198
 20
55.8700551682
 10
-0.5791478894
 20
56.0547045529
 10
-0.7704964715
 20
56.2245899413
 10
-0.9651946749
 20
56.3794609663
 10
-1.163189769
 20
56.519567995
 10
-1.3611849072
 20
56.6425786475
 10
-1.5591801885
 20
56.7482070789
 10
-1.7571755139
 20
56.8367391341
 10
-1.9518737406
 20
56.9066999681
 10
-2.1432218879
 20
56.9577782784
 10
-2.3312729364
 20
56.9902853674
 10
-2.512888685
 20
57.0036802972
 10
-2.6879541647
 20
56.9976456533
 10
-2.8565843444
 20
56.9724988502
 10
-3.0159859298
 20
56.9286511932
 10
-3.1660223911
 20
56.8657733117
 10
-3.3068302582
 20
56.7841945762
 10
-3.4360258267
 20
56.6853144042
 10
-3.5533812865
 20
56.5688915113
 10
-3.6591244476
 20
56.4351671819
 10
-3.7515550358
 20
56.2862646866
 10
-3.8304893669
 20
56.1216515026
 10
-3.8961111251
 20
55.9418601527
 10
-3.947271088
 20
55.7506114757
 10
-3.9835861817
 20
55.5491457512
 10
-4.0054394801
 20
55.3362226996
 10
-4.0128309832
 20
55.1118423208
  0
LINE
  5
44E
100
AcDbEntity
  8
RACCORDO
100
AcDbLine
 62
250
  6
CONTINUOUS
 10
-0.0344148113
 20
55.4655307261
 11
-0.2094800513
 21
55.6737252681
  0
LWPOLYLINE
  5
44F
100
AcDbEntity
  8
RACCORDO
100
AcDbPolyline
 62
7
  6
CONTINUOUS
 90
25
 70
0
 10
40.9945156393
 20
42.4744534811
 10
40.9929479733
 20
42.5291339205
 10
40.9884190205
 20
42.5848440308
 10
40.9809287808
 20
42.6415838121
 10
40.9704199823
 20
42.699604333
 10
40.956949897
 20
42.7586545249
 10
40.9406903405
 20
42.817981182
 10
40.9216055802
 20
42.8775878457
 10
40.8997313486
 20
42.9374709746
 10
40.8753466593
 20
42.9968667385
 10
40.8484193537
 20
43.0557688944
 10
40.8189815903
 20
43.1141836853
 10
40.7874088581
 20
43.1713660103
 10
40.7536738085
 20
43.2273000815
 10
40.71780379
 20
43.2820016868
 10
40.6802563373
 20
43.334773088
 10
40.6410099627
 20
43.3855895596
 10
40.6000861538
 20
43.4344758272
 10
40.5580069082
 20
43.4808083293
 10
40.5147574248
 20
43.5245543528
 10
40.4703525045
 20
43.5657466109
 10
40.4253585477
 20
43.6038596819
 10
40.3799643544
 20
43.6387184254
 10
40.3339811246
 20
43.6704979818
 10
40.2874088581
 20
43.6991983512
  0
LINE
  5
450
100
AcDbEntity
  8
RACCORDO
100
AcDbLine
 62
7
  6
CONTINUOUS
 10
42.7622825923
 20
-91.3857497618
 11
42.7622825923
 21
43.4951399644
  0
LINE
  5
451
100
AcDbEntity
  8
0
100
AcDbLine
 62
7
  6
CONTINUOUS
 10
43.7168767469
 20
35.5143264742
 11
43.7168767469
 21
-88.670802626
  0
LWPOLYLINE
  5
452
100
AcDbEntity
  8
RACCORDO
100
AcDbPolyline
 62
7
  6
CONTINUOUS
 90
13
 70
0
 10
42.7622825923
 20
-91.3857497618
 10
42.7607149263
 20
-91.4386198997
 10
42.7561859734
 20
-91.4891000889
 10
42.7486957337
 20
-91.5371903291
 10
42.7381869353
 20
-91.583075553
 10
42.72471685
 20
-91.626570828
 10
42.7084572935
 20
-91.6671213568
 10
42.6893725332
 20
-91.7046894177
 10
42.6674983016
 20
-91.7393127323
 10
42.6431136123
 20
-91.7705496682
 10
42.6161863067
 20
-91.7983568465
 10
42.5867485433
 20
-91.8227776462
 10
42.5551999712
 20
-91.8434866229
  0
LWPOLYLINE
  5
453
100
AcDbEntity
  8
RACCORDO
100
AcDbPolyline
 62
250
  6
CONTINUOUS
 90
10
 70
0
 10
0.9822970387
 20
-57.8497242628
 10
1.1038417405
 20
-57.7402715313
 10
1.2142384166
 20
-57.6150296638
 10
1.312949167
 20
-57.4746088498
 10
1.3994930232
 20
-57.3196932886
 10
1.4734483426
 20
-57.1510377769
 10
1.5344548601
 20
-56.9694639555
 10
1.5822153807
 20
-56.7758563879
 10
1.6164972228
 20
-56.5711582905
 10
1.6371333637
 20
-56.3563669488
  0
LWPOLYLINE
  5
454
100
AcDbEntity
  8
RACCORDO
100
AcDbPolyline
 62
250
  6
CONTINUOUS
 90
3
 70
0
 10
-1.066791061
 20
-56.2099234051
 10
-1.0529074604
 20
-56.1986291631
 10
-1.0388600315
 20
-56.1865150557
  0
LINE
  5
455
100
AcDbEntity
  8
RACCORDO
100
AcDbLine
 62
250
  6
CONTINUOUS
 10
-2.031059321
 20
-54.0818507691
 11
-2.3545110897
 21
-54.3178062091
  0
LWPOLYLINE
  5
456
100
AcDbEntity
  8
RACCORDO
100
AcDbPolyline
 62
250
  6
CONTINUOUS
 90
16
 70
0
 10
-2.3545110897
 20
-54.3178062091
 10
-2.4081275342
 20
-54.3566747841
 10
-2.4239831549
 20
-54.3689764484
 10
-2.4399077185
 20
-54.3822902552
 10
-2.4558769896
 20
-54.3967102163
 10
-2.4717407715
 20
-54.4122849734
 10
-2.4872082736
 20
-54.4290326573
 10
-2.5022690183
 20
-54.4471513211
 10
-2.5166740846
 20
-54.4665937926
 10
-2.529775059
 20
-54.4869892047
 10
-2.5414660766
 20
-54.508436976
 10
-2.5516108179
 20
-54.5308669034
 10
-2.5596135235
 20
-54.5535595619
 10
-2.5652865305
 20
-54.576203008
 10
-2.5687670911
 20
-54.5989464922
 10
-2.5700308219
 20
-54.6217000954
  0
LWPOLYLINE
  5
457
100
AcDbEntity
  8
RACCORDO
100
AcDbPolyline
 62
250
  6
CONTINUOUS
 90
13
 70
0
 10
-2.4511629188
 20
-54.3008959843
 10
-2.4698230321
 20
-54.3142789037
 10
-2.488436741
 20
-54.3291092533
 10
-2.5069774328
 20
-54.3454244701
 10
-2.5256149521
 20
-54.3632089068
 10
-2.5441189325
 20
-54.38255643
 10
-2.5618534398
 20
-54.4036696033
 10
-2.5789401004
 20
-54.4268138584
 10
-2.5951624743
 20
-54.4518075552
 10
-2.6093822502
 20
-54.4781481989
 10
-2.6212015564
 20
-54.5056520141
 10
-2.6309466246
 20
-54.5344895161
 10
-2.6385786984
 20
-54.564649685
  0
LWPOLYLINE
  5
458
100
AcDbEntity
  8
RACCORDO
100
AcDbPolyline
 62
250
  6
CONTINUOUS
 90
5
 70
0
 10
1.0598185366
 20
-57.8218213963
 10
1.1919186545
 20
-57.7286908803
 10
1.3134630062
 20
-57.6192380324
 10
1.4238595421
 20
-57.4939958625
 10
1.4440611466
 20
-57.4652579925
  0
LINE
  5
459
100
AcDbEntity
  8
RACCORDO
100
AcDbLine
 62
250
  6
CONTINUOUS
 10
-2.2553102204
 20
-54.1631693827
 11
-2.4129996303
 21
-54.2742181036
  0
LINE
  5
45A
100
AcDbEntity
  8
RACCORDO
100
AcDbLine
 62
250
  6
CONTINUOUS
 10
-2.4129996303
 20
-54.2742181036
 11
-2.4511629188
 21
-54.3008959843
  0
LWPOLYLINE
  5
45B
100
AcDbEntity
  8
RACCORDO
100
AcDbPolyline
 62
250
  6
CONTINUOUS
 90
3
 70
0
 10
-2.0881544885
 20
-54.0454504319
 10
-2.1309695605
 20
-54.0753522068
 10
-2.2553102204
 20
-54.1631693827
  0
LWPOLYLINE
  5
45C
100
AcDbEntity
  8
RACCORDO
100
AcDbPolyline
 62
250
  6
CONTINUOUS
 90
8
 70
0
 10
-0.9654541716
 20
-55.1235790653
 10
-0.9383914301
 20
-55.1051027134
 10
-0.9064714678
 20
-55.0740290771
 10
-0.8797441958
 20
-55.0360117665
 10
-0.8585718544
 20
-54.9915654983
 10
-0.8432409169
 20
-54.941291737
 10
-0.8339585955
 20
-54.8858700946
 10
-0.8308504679
 20
-54.8260501055
  0
LWPOLYLINE
  5
45D
100
AcDbEntity
  8
RACCORDO
100
AcDbPolyline
 62
7
  6
CONTINUOUS
 90
10
 70
0
 10
-1.6154855798
 20
-53.9977641744
 10
-1.6463994269
 20
-54.0184267391
 10
-1.6750893637
 20
-54.0436162748
 10
-1.7010943342
 20
-54.0732974625
 10
-1.7240435642
 20
-54.1074881064
 10
-1.7434624338
 20
-54.1459779611
 10
-1.7589071886
 20
-54.188302692
 10
-1.7701515015
 20
-54.2341787905
 10
-1.7770396862
 20
-54.2835186152
 10
-1.7793786053
 20
-54.3361205929
  0
LINE
  5
45E
100
AcDbEntity
  8
RACCORDO
100
AcDbLine
 62
250
  6
CONTINUOUS
 10
-1.2847614639
 20
-53.012807422
 11
-1.2919961529
 21
-53.0175811477
  0
LWPOLYLINE
  5
45F
100
AcDbEntity
  8
RACCORDO
100
AcDbPolyline
 62
250
  6
CONTINUOUS
 90
10
 70
0
 10
-0.2760941274
 20
-55.7037502098
 10
-0.2820903775
 20
-55.7076548905
 10
-0.2876641737
 20
-55.7121852026
 10
-0.2927888819
 20
-55.7173106471
 10
-0.297438717
 20
-55.7230126131
 10
-0.3015795033
 20
-55.7292568817
 10
-0.3051735038
 20
-55.7359752496
 10
-0.3081906904
 20
-55.7431079199
 10
-0.3106033948
 20
-55.7506192024
 10
-0.3123819644
 20
-55.7584586166
  0
LWPOLYLINE
  5
460
100
AcDbEntity
  8
RACCORDO
100
AcDbPolyline
 62
250
  6
CONTINUOUS
 90
9
 70
0
 10
-0.6410627763
 20
-55.7363264795
 10
-0.6471332269
 20
-55.7402239541
 10
-0.6529890336
 20
-55.7447800567
 10
-0.6585854248
 20
-55.749960896
 10
-0.6638801684
 20
-55.7557285278
 10
-0.6688318602
 20
-55.7620390688
 10
-0.6734007019
 20
-55.7688423591
 10
-0.677551388
 20
-55.7760856257
 10
-0.6812529087
 20
-55.7837145336
  0
LWPOLYLINE
  5
461
100
AcDbEntity
  8
RACCORDO
100
AcDbPolyline
 62
250
  6
CONTINUOUS
 90
7
 70
0
 10
-1.331883584
 20
-56.217533138
 10
-1.3369125682
 20
-56.2206436466
 10
-1.3419160068
 20
-56.2241518688
 10
-1.3468685625
 20
-56.2280400211
 10
-1.3517451575
 20
-56.2322883973
 10
-1.3565210999
 20
-56.2368754681
 10
-1.3611722096
 20
-56.2417779905
  0
LWPOLYLINE
  5
462
100
AcDbEntity
  8
RACCORDO
100
AcDbPolyline
 62
250
  6
CONTINUOUS
 90
10
 70
0
 10
-1.315612908
 20
-55.3468496875
 10
-1.3218725876
 20
-55.3506760138
 10
-1.3282358583
 20
-55.3549329259
 10
-1.3346654429
 20
-55.359600624
 10
-1.3411292754
 20
-55.3646810158
 10
-1.3475855424
 20
-55.3701376311
 10
-1.3539734359
 20
-55.3758882087
 10
-1.3602363713
 20
-55.3818867284
 10
-1.3663291847
 20
-55.3881291305
 10
-1.3721986116
 20
-55.39458918
  0
LWPOLYLINE
  5
463
100
AcDbEntity
  8
ASSI
100
AcDbPolyline
 62
7
  6
CONTINUOUS
 90
19
 70
0
 10
-3.4862734659
 20
-50.9209673121
 10
-3.5101503358
 20
-50.9350760128
 10
-3.6036632283
 20
-50.9966968088
 10
-3.6923510879
 20
-51.0656360978
 10
-3.7761839541
 20
-51.141939323
 10
-3.8551917874
 20
-51.2255610412
 10
-3.9288850122
 20
-51.3159830869
 10
-3.9972306283
 20
-51.4132476857
 10
-4.060261636
 20
-51.5173126118
 10
-4.1175874609
 20
-51.6275330225
 10
-4.1691726773
 20
-51.7439471394
 10
-4.2150527109
 20
-51.8665167408
 10
-4.2549432641
 20
-51.9944823188
 10
-4.2888071459
 20
-52.1278773791
 10
-4.3166815473
 20
-52.2666684159
 10
-4.3383937433
 20
-52.4099954047
 10
-4.3538861589
 20
-52.5575716704
 10
-4.363216369
 20
-52.709683888
 10
-4.3663843738
 20
-52.8663320575
  0
LWPOLYLINE
  5
464
100
AcDbEntity
  8
RACCORDO
100
AcDbPolyline
 62
250
  6
CONTINUOUS
 90
9
 70
0
 10
-1.6869151175
 20
-54.8965007446
 10
-1.6935586565
 20
-54.9004176477
 10
-1.7004620117
 20
-54.9045379609
 10
-1.7075738604
 20
-54.9088311164
 10
-1.7148394061
 20
-54.913264098
 10
-1.7222006286
 20
-54.9178015318
 10
-1.7296005098
 20
-54.9224082634
 10
-1.7369836173
 20
-54.9270497754
 10
-1.7442937182
 20
-54.9316907161
  0
LWPOLYLINE
  5
465
100
AcDbEntity
  8
RACCORDO
100
AcDbPolyline
 62
250
  6
CONTINUOUS
 90
8
 70
0
 10
-2.5150996577
 20
-53.0251830548
 10
-2.5169780972
 20
-53.0262816541
 10
-2.5287761225
 20
-53.0339167623
 10
-2.538838717
 20
-53.0417428536
 10
-2.5473347741
 20
-53.0497291932
 10
-2.5543498498
 20
-53.0577905574
 10
-2.5598743112
 20
-53.0658043592
 10
-2.5639502681
 20
-53.0736767981
  0
LINE
  5
466
100
AcDbEntity
  8
RACCORDO
100
AcDbLine
 62
250
  6
CONTINUOUS
 10
-1.2880102754
 20
-53.0207345514
 11
-1.2880954946
 21
-53.0207839239
  0
LINE
  5
467
100
AcDbEntity
  8
RACCORDO
100
AcDbLine
 62
7
  6
CONTINUOUS
 10
-1.1132260746
 20
-56.1927484824
 11
-1.1131056334
 21
-56.192678916
  0
LINE
  5
468
100
AcDbEntity
  8
0
100
AcDbLine
 62
7
  6
CONTINUOUS
 10
-2.9748810913
 20
-50.9143529941
 11
-3.184500499
 21
-51.035384613
  0
LINE
  5
469
100
AcDbEntity
  8
RACCORDO
100
AcDbLine
 62
250
  6
CONTINUOUS
 10
-2.3924188137
 20
-53.2555314906
 11
-1.9988222414
 21
-53.0282737627
  0
LINE
  5
46A
100
AcDbEntity
  8
RACCORDO
100
AcDbLine
 62
7
  6
CONTINUOUS
 10
-1.2880954946
 20
-53.0207839239
 11
-1.2801615613
 21
-53.0162029702
  0
LINE
  5
46B
100
AcDbEntity
  8
RACCORDO
100
AcDbLine
 62
250
  6
CONTINUOUS
 10
-2.031059321
 20
-53.4633938438
 11
-1.2825311836
 21
-53.0312030785
  0
LINE
  5
46C
100
AcDbEntity
  8
RACCORDO
100
AcDbLine
 62
250
  6
CONTINUOUS
 10
-2.0178566217
 20
-53.5369407845
 11
-1.2693284843
 21
-53.1047500192
  0
LINE
  5
46D
100
AcDbEntity
  8
RACCORDO
100
AcDbLine
 62
250
  6
CONTINUOUS
 10
-1.2693284843
 20
-53.5913592094
 11
-2.0178566217
 21
-54.0235499747
  0
LINE
  5
46E
100
AcDbEntity
  8
RACCORDO
100
AcDbLine
 62
250
  6
CONTINUOUS
 10
-1.2825311836
 20
-53.6496600039
 11
-2.031059321
 21
-54.0818507691
  0
LINE
  5
46F
100
AcDbEntity
  8
RACCORDO
100
AcDbLine
 62
250
  6
CONTINUOUS
 10
-2.3924188137
 20
-54.3453095937
 11
-1.4391385026
 21
-53.7948974895
  0
LINE
  5
470
100
AcDbEntity
  8
0
100
AcDbLine
 62
7
  6
CONTINUOUS
 10
-0.7407706499
 20
-53.4927147367
 11
-1.6154855798
 21
-53.9977641744
  0
LINE
  5
471
100
AcDbEntity
  8
RACCORDO
100
AcDbLine
 62
250
  6
CONTINUOUS
 10
-2.1964343689
 20
-54.8504248176
 11
-1.7354711023
 21
-54.5842704047
  0
LINE
  5
472
100
AcDbEntity
  8
RACCORDO
100
AcDbLine
 62
250
  6
CONTINUOUS
 10
-1.7366274
 20
-54.8406969416
 11
-1.642075103
 21
-54.7861036304
  0
LINE
  5
473
100
AcDbEntity
  8
RACCORDO
100
AcDbLine
 62
250
  6
CONTINUOUS
 10
-1.6869151175
 20
-54.8965007446
 11
-1.6021635469
 21
-54.8475391929
  0
LINE
  5
474
100
AcDbEntity
  8
0
100
AcDbLine
 62
7
  6
CONTINUOUS
 10
-0.094105349
 20
-54.6204731756
 11
-0.9654541716
 21
-55.1235790653
  0
LINE
  5
475
100
AcDbEntity
  8
RACCORDO
100
AcDbLine
 62
250
  6
CONTINUOUS
 10
-0.5670847689
 20
-54.9146589233
 11
-1.3156129063
 21
-55.3468496886
  0
LINE
  5
476
100
AcDbEntity
  8
RACCORDO
100
AcDbLine
 62
250
  6
CONTINUOUS
 10
-0.5242416249
 20
-54.9855602255
 11
-1.2727697624
 21
-55.4177509908
  0
LINE
  5
477
100
AcDbEntity
  8
RACCORDO
100
AcDbLine
 62
250
  6
CONTINUOUS
 10
-1.3790744597
 20
-55.8672472369
 11
-0.4257941486
 21
-55.3168351327
  0
LINE
  5
478
100
AcDbEntity
  8
RACCORDO
100
AcDbLine
 62
7
  6
CONTINUOUS
 10
-0.668580188
 20
-55.7401170664
 11
0.0246915347
 21
-55.3398306624
  0
LINE
  5
479
100
AcDbEntity
  8
RACCORDO
100
AcDbLine
 62
250
  6
CONTINUOUS
 10
-0.6410627763
 20
-55.7363264795
 11
0.0234803075
 21
-55.3526276316
  0
LINE
  5
47A
100
AcDbEntity
  8
RACCORDO
100
AcDbLine
 62
250
  6
CONTINUOUS
 10
0.0035866179
 20
-55.5422660528
 11
-0.2760941259
 21
-55.7037502091
  0
LINE
  5
47B
100
AcDbEntity
  8
RACCORDO
100
AcDbLine
 62
250
  6
CONTINUOUS
 10
-0.0019867599
 20
-55.5904447264
 11
-0.2200482827
 21
-55.7163507168
  0
LINE
  5
47C
100
AcDbEntity
  8
RACCORDO
100
AcDbLine
 62
250
  6
CONTINUOUS
 10
-0.169745661
 20
-56.0206094773
 11
-0.0623284322
 21
-55.9585881156
  0
LINE
  5
47D
100
AcDbEntity
  8
RACCORDO
100
AcDbLine
 62
7
  6
CONTINUOUS
 10
-2.5149480046
 20
-53.025095578
 11
-2.5150996577
 21
-53.0251830548
  0
LWPOLYLINE
  5
47E
100
AcDbEntity
  8
RACCORDO
100
AcDbPolyline
 62
7
  6
CONTINUOUS
 90
13
 70
0
 10
-2.5149505158
 20
-53.0251033412
 10
-2.5102924589
 20
-53.0225456131
 10
-2.4932681221
 20
-53.0148226709
 10
-2.4718213784
 20
-53.007550522
 10
-2.4467824958
 20
-53.00134127
 10
-2.4187857105
 20
-52.9964901047
 10
-2.3881500047
 20
-52.9931083261
 10
-2.3553207083
 20
-52.9912647482
 10
-2.3209763291
 20
-52.9909712766
 10
-2.2851527296
 20
-52.9921862296
 10
-2.2471561852
 20
-52.9949600793
 10
-2.206877843
 20
-52.9993935721
 10
-2.2004332406
 20
-53.0002358754
  0
LWPOLYLINE
  5
47F
100
AcDbEntity
  8
RACCORDO
100
AcDbPolyline
 62
250
  6
CONTINUOUS
 90
10
 70
0
 10
-2.0178566223
 20
-54.0235499731
 10
-2.0243033282
 20
-54.0270417649
 10
-2.0311981651
 20
-54.0302935247
 10
-2.0385019498
 20
-54.0332994728
 10
-2.0461921451
 20
-54.0360707416
 10
-2.0542181227
 20
-54.0385802577
 10
-2.0624870047
 20
-54.0407736574
 10
-2.0709277605
 20
-54.0426390387
 10
-2.0795026255
 20
-54.0441963291
 10
-2.0881544884
 20
-54.0454504319
  0
LWPOLYLINE
  5
480
100
AcDbEntity
  8
RACCORDO
100
AcDbPolyline
 62
250
  6
CONTINUOUS
 90
10
 70
0
 10
-2.0178566217
 20
-53.5369407845
 10
-2.0242755495
 20
-53.5402815776
 10
-2.0311746706
 20
-53.5431710174
 10
-2.0385020743
 20
-53.5455866177
 10
-2.0462034882
 20
-53.5475096676
 10
-2.0542197709
 20
-53.5489246191
 10
-2.0624869899
 20
-53.5498198657
 10
-2.0709410825
 20
-53.5501885733
 10
-2.0795186922
 20
-53.5500280795
 10
-2.0881544885
 20
-53.5493396062
  0
LWPOLYLINE
  5
481
100
AcDbEntity
  8
RACCORDO
100
AcDbPolyline
 62
250
  6
CONTINUOUS
 90
5
 70
0
 10
-1.2919961529
 20
-53.0175811477
 10
-1.3028264953
 20
-53.0230015618
 10
-1.314104956
 20
-53.0271307908
 10
-1.3256626767
 20
-53.0299257213
 10
-1.3374717234
 20
-53.031302033
  0
LINE
  5
482
100
AcDbEntity
  8
RACCORDO
100
AcDbLine
 62
250
  6
CONTINUOUS
 10
-1.707581256
 20
-53.0455738808
 11
-1.7442937182
 21
-53.0601811204
  0
LWPOLYLINE
  5
483
100
AcDbEntity
  8
RACCORDO
100
AcDbPolyline
 62
250
  6
CONTINUOUS
 90
3
 70
0
 10
-2.9257576039
 20
-50.9204452864
 10
-3.0769911612
 20
-50.979651748
 10
-3.184500499
 20
-51.035384613
  0
LWPOLYLINE
  5
484
100
AcDbEntity
  8
RACCORDO
100
AcDbPolyline
 62
250
  6
CONTINUOUS
 90
10
 70
0
 10
-1.3790745724
 20
52.3150644497
 10
-1.3888888722
 20
52.3185843038
 10
-1.3996348412
 20
52.3221537394
 10
-1.411132121
 20
52.32571285
 10
-1.4231877529
 20
52.3292019051
 10
-1.4355993982
 20
52.3325623471
 10
-1.4481587321
 20
52.3357377749
 10
-1.460654968
 20
52.3386748975
 10
-1.4728783966
 20
52.341324428
 10
-1.4846238848
 20
52.3436419053
  0
LWPOLYLINE
  5
485
100
AcDbEntity
  8
RACCORDO
100
AcDbPolyline
 62
250
  6
CONTINUOUS
 90
10
 70
0
 10
-1.7366274
 20
53.3416147334
 10
-1.7299383904
 20
53.3383983681
 10
-1.7232262026
 20
53.3344333435
 10
-1.7165513269
 20
53.3297552992
 10
-1.7099731277
 20
53.3244056096
 10
-1.7035517548
 20
53.3184329571
 10
-1.6973473785
 20
53.3118936358
 10
-1.6914163783
 20
53.3048479954
 10
-1.6858110758
 20
53.2973591597
 10
-1.6805815567
 20
53.2894949062
  0
LWPOLYLINE
  5
486
100
AcDbEntity
  8
RACCORDO
100
AcDbPolyline
 62
250
  6
CONTINUOUS
 90
3
 70
0
 10
-2.4511629188
 20
54.8347253019
 10
-2.4123727894
 20
54.8141499492
 10
-2.3732136181
 20
54.7930602033
  0
LWPOLYLINE
  5
487
100
AcDbEntity
  8
RACCORDO
100
AcDbPolyline
 62
250
  6
CONTINUOUS
 90
25
 70
0
 10
-1.3318908275
 20
51.9647823408
 10
-1.3254407957
 20
51.9612839847
 10
-1.3187692455
 20
51.9581200129
 10
-1.3118819831
 20
51.9552953483
 10
-1.3047948206
 20
51.9528157832
 10
-1.2975037604
 20
51.950684415
 10
-1.2899852636
 20
51.9489041128
 10
-1.2822450411
 20
51.9474799057
 10
-1.2742905211
 20
51.9464199108
 10
-1.2661015353
 20
51.9457352273
 10
-1.2576886262
 20
51.9454326878
 10
-1.2490561814
 20
51.9455206969
 10
-1.24017596
 20
51.9460161506
 10
-1.2310668858
 20
51.9469259538
 10
-1.2217276073
 20
51.9482613951
 10
-1.2121018232
 20
51.9500520534
 10
-1.2022065194
 20
51.9523083544
 10
-1.1920476973
 20
51.9550460827
 10
-1.1815566182
 20
51.9583117797
 10
-1.1707444099
 20
51.9621238798
 10
-1.159631092
 20
51.9664995505
 10
-1.1481657813
 20
51.9714910759
 10
-1.1363617747
 20
51.9771212771
 10
-1.1242453598
 20
51.9834073083
 10
-1.1132260746
 20
51.9895631927
  0
LWPOLYLINE
  5
488
100
AcDbEntity
  8
RACCORDO
100
AcDbPolyline
 62
250
  6
CONTINUOUS
 90
3
 70
0
 10
-2.3924188137
 20
54.9267801845
 10
-2.353884715
 20
54.9056475669
 10
-2.3149029477
 20
54.8840201857
  0
LWPOLYLINE
  5
489
100
AcDbEntity
  8
RACCORDO
100
AcDbPolyline
 62
250
  6
CONTINUOUS
 90
4
 70
0
 10
-2.3732136181
 20
54.7930602033
 10
-2.2935547239
 20
54.7494919034
 10
-2.2529856663
 20
54.7270803794
 10
-2.2121743062
 20
54.7041949667
  0
LWPOLYLINE
  5
48A
100
AcDbEntity
  8
RACCORDO
100
AcDbPolyline
 62
7
  6
CONTINUOUS
 90
13
 70
0
 10
-1.3611722096
 20
51.9405336846
 10
-1.3501181625
 20
51.9344243968
 10
-1.3393818101
 20
51.9287324474
 10
-1.3289631525
 20
51.9234578364
 10
-1.3188751187
 20
51.9186649112
 10
-1.3091047798
 20
51.9142893244
 10
-1.2996133485
 20
51.9101380335
 10
-1.2904034833
 20
51.9062127004
 10
-1.2814725258
 20
51.9025116632
 10
-1.2727737134
 20
51.8988368937
 10
-1.2642914588
 20
51.8951223825
 10
-1.2560413495
 20
51.8914341389
 10
-1.2480233853
 20
51.8877721631
  0
LWPOLYLINE
  5
48B
100
AcDbEntity
  8
RACCORDO
100
AcDbPolyline
 62
7
  6
CONTINUOUS
 90
12
 70
0
 10
-1.3611887459
 20
55.2210914266
 10
-1.3722429223
 20
55.2272007777
 10
-1.3829793702
 20
55.2328927738
 10
-1.3933980895
 20
55.238167415
 10
-1.4034861463
 20
55.2429603508
 10
-1.4132564746
 20
55.2473359316
 10
-1.422747876
 20
55.2514872089
 10
-1.4319576827
 20
55.255412518
 10
-1.4408885626
 20
55.2591135236
 10
-1.4495873208
 20
55.2627882706
 10
-1.458069559
 20
55.2665027741
 10
-1.4632945424
 20
55.2688295885
  0
LWPOLYLINE
  5
48C
100
AcDbEntity
  8
RACCORDO
100
AcDbPolyline
 62
250
  6
CONTINUOUS
 90
7
 70
0
 10
-2.3149029477
 20
54.8840201857
 10
-2.2355385019
 20
54.8392758474
 10
-2.1951558232
 20
54.8161588902
 10
-2.154499194
 20
54.7925630245
 10
-2.1136265202
 20
54.7684935353
 10
-2.0724798959
 20
54.7439451376
 10
-2.031059321
 20
54.7189178313
  0
LWPOLYLINE
  5
48D
100
AcDbEntity
  8
RACCORDO
100
AcDbPolyline
 62
250
  6
CONTINUOUS
 90
3
 70
0
 10
-2.2121743062
 20
54.7041949667
 10
-2.1298416283
 20
54.6570858705
 10
-2.0881544885
 20
54.6329720688
  0
LWPOLYLINE
  5
48E
100
AcDbEntity
  8
RACCORDO
100
AcDbPolyline
 62
250
  6
CONTINUOUS
 90
11
 70
0
 10
-1.2727439947
 20
56.9977793525
 10
-1.2831145372
 20
57.0037671738
 10
-1.4800550021
 20
57.1015767776
 10
-1.6755550956
 20
57.1827308434
 10
-1.8686623533
 20
57.2468339917
 10
-2.0584359633
 20
57.2935739148
 10
-2.2439513548
 20
57.3227229012
 10
-2.42430473
 20
57.3341389464
 10
-2.5986174516
 20
57.3277664327
 10
-2.7660403087
 20
57.3036363956
 10
-2.9257576039
 20
57.2618663886
  0
LWPOLYLINE
  5
48F
100
AcDbEntity
  8
RACCORDO
100
AcDbPolyline
 62
250
  6
CONTINUOUS
 90
10
 70
0
 10
-2.6290980156
 20
53.5871646879
 10
-2.6221830414
 20
53.5829948301
 10
-2.6152578372
 20
53.5791425819
 10
-2.6083644192
 20
53.5756070946
 10
-2.6015451039
 20
53.5723845091
 10
-2.5948423357
 20
53.5694678476
 10
-2.5882983731
 20
53.5668469716
 10
-2.5819548281
 20
53.5645086462
 10
-2.5758524001
 20
53.5624365975
 10
-2.5700307255
 20
53.5606115552
  0
LWPOLYLINE
  5
490
100
AcDbEntity
  8
RACCORDO
100
AcDbPolyline
 62
7
  6
CONTINUOUS
 90
13
 70
0
 10
-1.2480233546
 20
55.1431819451
 10
-1.2560128688
 20
55.1487580739
 10
-1.2642433652
 20
55.1545824996
 10
-1.2727148437
 20
55.160655222
 10
-1.2814145882
 20
55.1670263388
 10
-1.2903553149
 20
55.1736457524
 10
-1.2995751721
 20
55.1803631701
 10
-1.309073676
 20
55.1871778926
 10
-1.3188513104
 20
55.1940906192
 10
-1.3289476747
 20
55.2009531553
 10
-1.3393759686
 20
55.2077161028
 10
-1.3501229923
 20
55.2144288599
 10
-1.3611887459
 20
55.2210914266
  0
LWPOLYLINE
  5
491
100
AcDbEntity
  8
RACCORDO
100
AcDbPolyline
 62
7
  6
CONTINUOUS
 90
13
 70
0
 10
-1.2480233546
 20
55.1431819451
 10
-1.1439407275
 20
55.0689267817
 10
-1.0419025895
 20
54.9872853353
 10
-0.9419089407
 20
54.8982576056
 10
-0.8433517757
 20
54.8012211568
 10
-0.7468390999
 20
54.6967984249
 10
-0.654194929
 20
54.5868567182
 10
-0.565518285
 20
54.4712556133
 10
-0.480710146
 20
54.3501355336
 10
-0.4012974628
 20
54.2257850579
 10
-0.3277892192
 20
54.0989670458
 10
-0.2596764315
 20
53.9689186376
 10
-0.1969590996
 20
53.8356398335
  0
LWPOLYLINE
  5
492
100
AcDbEntity
  8
RACCORDO
100
AcDbPolyline
 62
250
  6
CONTINUOUS
 90
3
 70
0
 10
-1.4846238455
 20
55.2563640144
 10
-1.4719330291
 20
55.2462109528
 10
-1.4593431604
 20
55.2358442272
  0
LWPOLYLINE
  5
493
100
AcDbEntity
  8
ASSI
100
AcDbPolyline
 62
7
  6
CONTINUOUS
 90
24
 70
0
 10
-0.6165641828
 20
56.5126526013
 10
-0.7497537661
 20
56.62520292
 10
-0.8842167325
 20
56.7314128639
 10
-1.0199452238
 20
56.8313215599
 10
-1.1560981925
 20
56.9243099193
 10
-1.2926782742
 20
57.0103349712
 10
-1.4296828334
 20
57.0894396866
 10
-1.5662629151
 20
57.1611338896
 10
-1.7024158838
 20
57.2253715656
 10
-1.8381443751
 20
57.2821987292
 10
-1.9726073414
 20
57.3312632484
 10
-2.1057969248
 20
57.3725169221
 10
-2.2377209832
 20
57.4060079514
 10
-2.3675620435
 20
57.4315288077
 10
-2.4953071716
 20
57.4490300012
 10
-2.6209693016
 20
57.4585610217
 10
-2.7437697626
 20
57.4600628098
 10
-2.8636907855
 20
57.453485509
 10
-2.9807501393
 20
57.4388789758
 10
-3.0942224607
 20
57.4163337202
 10
-3.2040854766
 20
57.3858004478
 10
-3.31036146
 20
57.347328453
 10
-3.4123918672
 20
57.3011561292
 10
-3.4862734659
 20
57.261344363
  0
LWPOLYLINE
  5
494
100
AcDbEntity
  8
RACCORDO
100
AcDbPolyline
 62
7
  6
CONTINUOUS
 90
5
 70
0
 10
1.0253121898
 20
-57.8424446298
 10
1.1585177862
 20
-57.7558300512
 10
1.2835858319
 20
-57.6542569176
 10
1.399653801
 20
-57.5379294127
 10
1.4265066313
 20
-57.5048738658
  0
LWPOLYLINE
  5
495
100
AcDbEntity
  8
RACCORDO
100
AcDbPolyline
 62
250
  6
CONTINUOUS
 90
3
 70
0
 10
0.8156927821
 20
-57.9634762487
 10
0.8501964358
 20
-57.9428546804
 10
0.9822970387
 20
-57.8497242628
  0
LINE
  5
496
100
AcDbEntity
  8
RACCORDO
100
AcDbLine
 62
250
  6
CONTINUOUS
 10
1.0253121898
 20
-57.8424446298
 11
1.0598185366
 21
-57.8218213963
  0
LWPOLYLINE
  5
497
100
AcDbEntity
  8
ASSI
100
AcDbPolyline
 62
7
  6
CONTINUOUS
 90
19
 70
0
 10
0.7639123583
 20
-58.2820308463
 10
0.7877892283
 20
-58.2679221455
 10
0.8813021207
 20
-58.2063013496
 10
0.9699899803
 20
-58.1373620606
 10
1.0538228465
 20
-58.0610588354
 10
1.1328306798
 20
-57.9774371171
 10
1.2065239047
 20
-57.8870150715
 10
1.2748695208
 20
-57.7897504727
 10
1.3379005284
 20
-57.6856855465
 10
1.3952263533
 20
-57.5754651359
 10
1.4468115697
 20
-57.459051019
 10
1.4926916034
 20
-57.3364814176
 10
1.5325821565
 20
-57.2085158396
 10
1.5664460384
 20
-57.0751207793
 10
1.5943204397
 20
-56.9363297424
 10
1.6160326357
 20
-56.7930027537
 10
1.6315250513
 20
-56.6454264879
 10
1.6408552615
 20
-56.4933142703
 10
1.6440232663
 20
-56.3366661008
  0
LINE
  5
498
100
AcDbEntity
  8
0
100
AcDbLine
 62
7
  6
CONTINUOUS
 10
1.0253121898
 20
-57.8424446298
 11
0.8156927821
 21
-57.9634762487
  0
LWPOLYLINE
  5
499
100
AcDbEntity
  8
RACCORDO
100
AcDbPolyline
 62
250
  6
CONTINUOUS
 90
5
 70
0
 10
-0.668580188
 20
-55.7401170664
 10
-0.664304764
 20
-55.738038632
 10
-0.6589847602
 20
-55.7363846552
 10
-0.6533033062
 20
-55.7355448239
 10
-0.647311249
 20
-55.7355256431
  0
LINE
  5
49A
100
AcDbEntity
  8
RACCORDO
100
AcDbLine
 62
250
  6
CONTINUOUS
 10
-1.6869253185
 20
-53.0603746505
 11
-1.6931577306
 21
-53.0627426225
  0
LWPOLYLINE
  5
49B
100
AcDbEntity
  8
RACCORDO
100
AcDbPolyline
 62
250
  6
CONTINUOUS
 90
10
 70
0
 10
-0.2760941259
 20
-55.7037502091
 10
-0.2708591196
 20
-55.7019234345
 10
-0.2652495463
 20
-55.7009078754
 10
-0.2593159465
 20
-55.700712668
 10
-0.2531116736
 20
-55.7013395754
 10
-0.24669272
 20
-55.7027829471
 10
-0.2401172444
 20
-55.7050296368
 10
-0.2334446085
 20
-55.7080592204
 10
-0.2267348126
 20
-55.7118443162
 10
-0.2200482827
 20
-55.7163507168
  0
LINE
  5
49C
100
AcDbEntity
  8
RACCORDO
100
AcDbLine
 62
250
  6
CONTINUOUS
 10
-1.6695273753
 20
-53.0336598642
 11
-1.707581256
 21
-53.0455738808
  0
LWPOLYLINE
  5
49D
100
AcDbEntity
  8
RACCORDO
100
AcDbPolyline
 62
250
  6
CONTINUOUS
 90
8
 70
0
 10
-1.6935887873
 20
55.1194052749
 10
-1.7004618956
 20
55.1176033304
 10
-1.7075644564
 20
55.1165196103
 10
-1.7148446641
 20
55.1161695401
 10
-1.7222006415
 20
55.116565528
 10
-1.7295734688
 20
55.1176991345
 10
-1.7369502764
 20
55.1195580755
 10
-1.7442937182
 20
55.1221305546
  0
LWPOLYLINE
  5
49E
100
AcDbEntity
  8
RACCORDO
100
AcDbPolyline
 62
250
  6
CONTINUOUS
 90
4
 70
0
 10
-1.4254128055
 20
55.2526230277
 10
-1.4355987915
 20
55.2504836517
 10
-1.4481581343
 20
55.2495049969
 10
-1.4606544419
 20
55.250170936
  0
LWPOLYLINE
  5
49F
100
AcDbEntity
  8
RACCORDO
100
AcDbPolyline
 62
250
  6
CONTINUOUS
 90
3
 70
0
 10
-1.5896984654
 20
55.1643114254
 10
-1.6302072277
 20
55.1578490757
 10
-1.6695273753
 20
55.1486518108
  0
LWPOLYLINE
  5
4A0
100
AcDbEntity
  8
RACCORDO
100
AcDbPolyline
 62
250
  6
CONTINUOUS
 90
16
 70
0
 10
-1.2480101218
 20
51.8877657396
 10
-1.2376754354
 20
51.8893483609
 10
-1.2270857963
 20
51.8914365249
 10
-1.2162461038
 20
51.8940332292
 10
-1.2051720382
 20
51.8971179822
 10
-1.1938577648
 20
51.9007171289
 10
-1.1822766182
 20
51.9049041038
 10
-1.1704272363
 20
51.9096804324
 10
-1.1583226277
 20
51.9150508349
 10
-1.1459587315
 20
51.921093407
 10
-1.1333337311
 20
51.9278118618
 10
-1.1204620838
 20
51.9352078053
 10
-1.1073644206
 20
51.9433549084
 10
-1.0940405423
 20
51.9522565231
 10
-1.0805030554
 20
51.9619123529
 10
-1.066791061
 20
51.9723882699
  0
LWPOLYLINE
  5
4A1
100
AcDbEntity
  8
RACCORDO
100
AcDbPolyline
 62
250
  6
CONTINUOUS
 90
5
 70
0
 10
-2.4253415914
 20
55.2001985519
 10
-2.4527839434
 20
55.1968319729
 10
-2.4784441375
 20
55.1923523837
 10
-2.5026665013
 20
55.1867553904
 10
-2.5254194671
 20
55.1800360298
  0
LWPOLYLINE
  5
4A2
100
AcDbEntity
  8
RACCORDO
100
AcDbPolyline
 62
250
  6
CONTINUOUS
 90
10
 70
0
 10
-2.031059321
 20
54.1004609059
 10
-2.0349435451
 20
54.100158342
 10
-2.0398315941
 20
54.1008985921
 10
-2.0455396614
 20
54.1027648307
 10
-2.0517327737
 20
54.1058697277
 10
-2.058310118
 20
54.1101596045
 10
-2.0654340033
 20
54.1154481589
 10
-2.0730080137
 20
54.1216666464
 10
-2.0806625818
 20
54.1288292087
 10
-2.0881544884
 20
54.1368612432
  0
LWPOLYLINE
  5
4A3
100
AcDbEntity
  8
RACCORDO
100
AcDbPolyline
 62
250
  6
CONTINUOUS
 90
10
 70
0
 10
-0.2200482827
 20
52.4659609583
 10
-0.2319685759
 20
52.4653516335
 10
-0.2439059968
 20
52.4634636874
 10
-0.2556517924
 20
52.4604027156
 10
-0.2669848705
 20
52.4564142736
 10
-0.2777479967
 20
52.4515714287
 10
-0.2878248182
 20
52.4457306065
 10
-0.2970586984
 20
52.4389646719
 10
-0.3052836762
 20
52.4315949402
 10
-0.3123819644
 20
52.4238530585
  0
LINE
  5
4A4
100
AcDbEntity
  8
RACCORDO
100
AcDbLine
 62
250
  6
CONTINUOUS
 10
-2.1996290883
 20
53.2331317552
 11
-2.1509720744
 21
53.2355057376
  0
LINE
  5
4A5
100
AcDbEntity
  8
RACCORDO
100
AcDbLine
 62
250
  6
CONTINUOUS
 10
-2.1509720744
 20
53.2355057376
 11
-1.9498621969
 21
53.2437796762
  0
LWPOLYLINE
  5
4A6
100
AcDbEntity
  8
RACCORDO
100
AcDbPolyline
 62
250
  6
CONTINUOUS
 90
10
 70
0
 10
-0.1697456702
 20
52.1617021221
 10
-0.1826462231
 20
52.1612341821
 10
-0.1954851628
 20
52.1595049852
 10
-0.2080470155
 20
52.1565435536
 10
-0.220120959
 20
52.1523995895
 10
-0.2315043581
 20
52.1471426417
 10
-0.2420061664
 20
52.1408609389
 10
-0.2514501352
 20
52.1336599079
 10
-0.2596777711
 20
52.1256604029
 10
-0.2665509938
 20
52.1169966788
  0
LWPOLYLINE
  5
4A7
100
AcDbEntity
  8
RACCORDO
100
AcDbPolyline
 62
250
  6
CONTINUOUS
 90
3
 70
0
 10
-1.9498621969
 20
53.2437796762
 10
-1.8471809714
 20
53.2473369936
 10
-1.7442937182
 20
53.250620959
  0
LINE
  5
4A8
100
AcDbEntity
  8
RACCORDO
100
AcDbLine
 62
250
  6
CONTINUOUS
 10
-2.1964343689
 20
53.3318868574
 11
-2.097706895
 21
53.3348621141
  0
LINE
  5
4A9
100
AcDbEntity
  8
RACCORDO
100
AcDbLine
 62
250
  6
CONTINUOUS
 10
-2.097706895
 20
53.3348621141
 11
-1.9962539637
 21
53.3374436931
  0
LINE
  5
4AA
100
AcDbEntity
  8
RACCORDO
100
AcDbLine
 62
250
  6
CONTINUOUS
 10
-1.9962539637
 20
53.3374436931
 11
-1.8925856515
 21
53.3395833735
  0
LWPOLYLINE
  5
4AB
100
AcDbEntity
  8
RACCORDO
100
AcDbPolyline
 62
250
  6
CONTINUOUS
 90
10
 70
0
 10
-2.3924188441
 20
53.8370021264
 10
-2.3963624105
 20
53.8369309168
 10
-2.4011812923
 20
53.8382387048
 10
-2.4067946063
 20
53.84090353
 10
-2.413108141
 20
53.8448806594
 10
-2.4200159282
 20
53.8501033331
 10
-2.4274020192
 20
53.8564838787
 10
-2.4351424456
 20
53.8639151946
 10
-2.4431073027
 20
53.8722725543
 10
-2.4511629188
 20
53.8814156896
  0
LWPOLYLINE
  5
4AC
100
AcDbEntity
  8
RACCORDO
100
AcDbPolyline
 62
250
  6
CONTINUOUS
 90
3
 70
0
 10
-1.8925856515
 20
53.3395833735
 10
-1.7887422651
 20
53.3410882721
 10
-1.7366274
 20
53.3416147334
  0
LWPOLYLINE
  5
4AD
100
AcDbEntity
  8
RACCORDO
100
AcDbPolyline
 62
250
  6
CONTINUOUS
 90
3
 70
0
 10
-1.3374717234
 20
55.151009642
 10
-1.3493614719
 20
55.1510887646
 10
-1.3610167546
 20
55.152560076
  0
LWPOLYLINE
  5
4AE
100
AcDbEntity
  8
RACCORDO
100
AcDbPolyline
 62
250
  6
CONTINUOUS
 90
6
 70
0
 10
-2.2802643392
 20
55.2011766124
 10
-2.3089106201
 20
55.2028148723
 10
-2.3382868673
 20
55.2037208015
 10
-2.3674733338
 20
55.2036344128
 10
-2.3965216793
 20
55.2024540443
 10
-2.4253415914
 20
55.2001985519
  0
LWPOLYLINE
  5
4AF
100
AcDbEntity
  8
RACCORDO
100
AcDbPolyline
 62
250
  6
CONTINUOUS
 90
9
 70
0
 10
-0.6392659823
 20
52.3833456391
 10
-0.5948234669
 20
52.3787950381
 10
-0.5512372844
 20
52.3769978457
 10
-0.5085935591
 20
52.3779575728
 10
-0.4669764336
 20
52.3816722848
 10
-0.4264679174
 20
52.3881346429
 10
-0.3871479552
 20
52.3973318984
 10
-0.3490942543
 20
52.40924588
 10
-0.3123819644
 20
52.4238530584
  0
LWPOLYLINE
  5
4B0
100
AcDbEntity
  8
RACCORDO
100
AcDbPolyline
 62
250
  6
CONTINUOUS
 90
9
 70
0
 10
-0.5967181502
 20
52.4388299298
 10
-0.5531271729
 20
52.4343664751
 10
-0.5103759309
 20
52.4326036463
 10
-0.4685488525
 20
52.4335449251
 10
-0.4277285408
 20
52.4371884525
 10
-0.3879956111
 20
52.4435270334
 10
-0.3494285308
 20
52.45254815
 10
-0.312103465
 20
52.4642339868
 10
-0.2760941259
 20
52.478561466
  0
LWPOLYLINE
  5
4B1
100
AcDbEntity
  8
RACCORDO
100
AcDbPolyline
 62
250
  6
CONTINUOUS
 90
5
 70
0
 10
-1.4174091241
 20
55.1626378978
 10
-1.4618512709
 20
55.1671885069
 10
-1.5054372844
 20
55.1689857566
 10
-1.5480810879
 20
55.1680260977
 10
-1.5896984654
 20
55.1643114254
  0
LWPOLYLINE
  5
4B2
100
AcDbEntity
  8
RACCORDO
100
AcDbPolyline
 62
250
  6
CONTINUOUS
 90
3
 70
0
 10
-2.2257748116
 20
55.1960371491
 10
-2.2526528761
 20
55.1989275873
 10
-2.2802643392
 20
55.2011766124
  0
LINE
  5
4B3
100
AcDbEntity
  8
RACCORDO
100
AcDbLine
 62
250
  6
CONTINUOUS
 10
-0.647311249
 20
52.446786032
 11
-0.6410627763
 21
52.4459851955
  0
LINE
  5
4B4
100
AcDbEntity
  8
RACCORDO
100
AcDbLine
 62
250
  6
CONTINUOUS
 10
-2.1996290883
 20
55.1925442749
 11
-2.2257748116
 21
55.1960371491
  0
LWPOLYLINE
  5
4B5
100
AcDbEntity
  8
RACCORDO
100
AcDbPolyline
 62
7
  6
CONTINUOUS
 90
7
 70
0
 10
-2.2004329644
 20
55.182076095
 10
-2.0511610629
 20
55.1615641534
 10
-1.9813032129
 20
55.1515187033
 10
-1.9136115889
 20
55.1414754215
 10
-1.8480863128
 20
55.1314363572
 10
-1.784730671
 20
55.1214041616
 10
-1.7436571374
 20
55.1147130214
  0
LINE
  5
4B6
100
AcDbEntity
  8
RACCORDO
100
AcDbLine
 62
250
  6
CONTINUOUS
 10
-2.0517820015
 20
55.1712270378
 11
-2.1996290883
 21
55.1925442749
  0
LINE
  5
4B7
100
AcDbEntity
  8
RACCORDO
100
AcDbLine
 62
250
  6
CONTINUOUS
 10
-1.9498887366
 20
55.1557409467
 11
-2.0517820015
 21
55.1712270378
  0
LINE
  5
4B8
100
AcDbEntity
  8
RACCORDO
100
AcDbLine
 62
250
  6
CONTINUOUS
 10
-0.684477071
 20
52.3906406967
 11
-0.6392659823
 21
52.3833456391
  0
LINE
  5
4B9
100
AcDbEntity
  8
RACCORDO
100
AcDbLine
 62
250
  6
CONTINUOUS
 10
-0.6410627763
 20
52.4459851955
 11
-0.5967181502
 21
52.4388299298
  0
LINE
  5
4BA
100
AcDbEntity
  8
RACCORDO
100
AcDbLine
 62
250
  6
CONTINUOUS
 10
-1.3721986116
 20
55.1553429164
 11
-1.4174091241
 21
55.1626378978
  0
LWPOLYLINE
  5
4BB
100
AcDbEntity
  8
RACCORDO
100
AcDbPolyline
 62
7
  6
CONTINUOUS
 90
10
 70
0
 10
-1.3567753287
 20
55.1498886093
 10
-1.396359081
 20
55.1563369508
 10
-1.4354041566
 20
55.1605051651
 10
-1.4738080259
 20
55.1623441939
 10
-1.5114157004
 20
55.1618145654
 10
-1.5481916843
 20
55.1588853531
 10
-1.5842076707
 20
55.1534970546
 10
-1.6194200499
 20
55.1455774444
 10
-1.6536844382
 20
55.1350767757
 10
-1.6869176442
 20
55.1219404207
  0
LWPOLYLINE
  5
4BC
100
AcDbEntity
  8
RACCORDO
100
AcDbPolyline
 62
250
  6
CONTINUOUS
 90
3
 70
0
 10
-1.7957794421
 20
55.1309366362
 10
-1.8471976929
 20
55.1394359911
 10
-1.9498887366
 20
55.1557409467
  0
LINE
  5
4BD
100
AcDbEntity
  8
RACCORDO
100
AcDbLine
 62
250
  6
CONTINUOUS
 10
-1.7442937182
 20
55.1221305546
 11
-1.7957794421
 21
55.1309366362
  0
LINE
  5
4BE
100
AcDbEntity
  8
RACCORDO
100
AcDbLine
 62
250
  6
CONTINUOUS
 10
-1.4606544419
 20
55.250170936
 11
-1.4728779923
 21
55.2524702928
  0
LINE
  5
4BF
100
AcDbEntity
  8
RACCORDO
100
AcDbLine
 62
250
  6
CONTINUOUS
 10
-1.3567753286
 20
55.1498886093
 11
-1.3572968964
 21
55.1499904596
  0
LWPOLYLINE
  5
4C0
100
AcDbEntity
  8
RACCORDO
100
AcDbPolyline
 62
250
  6
CONTINUOUS
 90
10
 70
0
 10
-2.5962270147
 20
55.104158123
 10
-2.5928825715
 20
55.1034908961
 10
-2.5892250149
 20
55.1033116645
 10
-2.5852898492
 20
55.1036353577
 10
-2.5808490431
 20
55.1047657021
 10
-2.57621114
 20
55.1064280113
 10
-2.5721668271
 20
55.1077504144
 10
-2.5689335199
 20
55.1084245173
 10
-2.5662115597
 20
55.1087257055
 10
-2.5639501574
 20
55.1086347525
  0
LINE
  5
4C1
100
AcDbEntity
  8
RACCORDO
100
AcDbLine
 62
250
  6
CONTINUOUS
 10
-1.3610167349
 20
52.7854644414
 11
-1.3721986116
 21
52.7877224951
  0
LWPOLYLINE
  5
4C2
100
AcDbEntity
  8
RACCORDO
100
AcDbPolyline
 62
250
  6
CONTINUOUS
 90
3
 70
0
 10
-1.3256626323
 20
52.7783795706
 10
-1.3374716797
 20
52.7809403794
 10
-1.3610167349
 20
52.7854644414
  0
LWPOLYLINE
  5
4C3
100
AcDbEntity
  8
RACCORDO
100
AcDbPolyline
 62
250
  6
CONTINUOUS
 90
4
 70
0
 10
-1.3572968964
 20
55.1499904596
 10
-1.3602325481
 20
55.1506654336
 10
-1.3663230673
 20
55.1526405368
 10
-1.3721986117
 20
55.1553429169
  0
LINE
  5
4C4
100
AcDbEntity
  8
RACCORDO
100
AcDbLine
 62
250
  6
CONTINUOUS
 10
-1.3610167546
 20
55.152560076
 11
-1.3721986115
 21
55.1553429163
  0
LWPOLYLINE
  5
4C5
100
AcDbEntity
  8
RACCORDO
100
AcDbPolyline
 62
250
  6
CONTINUOUS
 90
4
 70
0
 10
-1.2727697624
 20
52.7645606843
 10
-1.2819087353
 20
52.7674974023
 10
-1.2919961322
 20
52.770240194
 10
-1.3256626323
 20
52.7783795706
  0
LWPOLYLINE
  5
4C6
100
AcDbEntity
  8
RACCORDO
100
AcDbPolyline
 62
250
  6
CONTINUOUS
 90
5
 70
0
 10
-1.7436302503
 20
55.114707132
 10
-1.7437495229
 20
55.1147462067
 10
-1.7443518963
 20
55.1158328117
 10
-1.7445753947
 20
55.1183244991
 10
-1.7442937182
 20
55.1221305546
  0
LINE
  5
4C7
100
AcDbEntity
  8
RACCORDO
100
AcDbLine
 62
250
  6
CONTINUOUS
 10
-1.4728779923
 20
55.2524702928
 11
-1.4846236409
 21
55.2563644778
  0
LWPOLYLINE
  5
4C8
100
AcDbEntity
  8
RACCORDO
100
AcDbPolyline
 62
250
  6
CONTINUOUS
 90
22
 70
0
 10
-1.4743519696
 20
55.2738599276
 10
-1.4787692572
 20
55.2756923502
 10
-1.4829199667
 20
55.2773218199
 10
-1.4867991317
 20
55.2787452337
 10
-1.4904176102
 20
55.2799683754
 10
-1.4937545372
 20
55.2809793701
 10
-1.4967566969
 20
55.2817485313
 10
-1.499423437
 20
55.282274866
 10
-1.5017436929
 20
55.2825530793
 10
-1.5036476927
 20
55.2825473315
 10
-1.5051326578
 20
55.2822561407
 10
-1.5061887923
 20
55.2816757952
 10
-1.5067356354
 20
55.2807685007
 10
-1.5067691474
 20
55.2795333127
 10
-1.5062811601
 20
55.2779683444
 10
-1.5051858248
 20
55.2760367517
 10
-1.5034812608
 20
55.2737402167
 10
-1.501158921
 20
55.2710774858
 10
-1.4981245893
 20
55.2680102486
 10
-1.4943447391
 20
55.2645277107
 10
-1.4898456063
 20
55.260644941
 10
-1.4846238455
 20
55.2563640144
  0
LINE
  5
4C9
100
AcDbEntity
  8
RACCORDO
100
AcDbLine
 62
7
  6
CONTINUOUS
 10
-1.4632945424
 20
55.2688295885
 11
-1.4743376703
 21
55.2738530054
  0
LWPOLYLINE
  5
4CA
100
AcDbEntity
  8
0
100
AcDbPolyline
 62
7
  6
CONTINUOUS
 90
16
 70
0
 10
42.7622825923
 20
40.4792603299
 10
42.7649682643
 20
40.472114472
 10
42.8939317852
 20
40.105401301
 10
43.0138519255
 20
39.73926056
 10
43.1246956579
 20
39.3736943394
 10
43.2264960097
 20
39.0087005489
 10
43.3188816508
 20
38.6456105503
 10
43.4018181981
 20
38.2844312965
 10
43.4753400347
 20
37.9251558348
 10
43.5391789802
 20
37.5690946687
 10
43.5932996721
 20
37.2162595372
 10
43.637737473
 20
36.8666387013
 10
43.6723302901
 20
36.5215074484
 10
43.6970240927
 20
36.1812908741
 10
43.7118729116
 20
35.8455638827
 10
43.7168767469
 20
35.5143264742
  0
LWPOLYLINE
  5
4CB
100
AcDbEntity
  8
RACCORDO
100
AcDbPolyline
 62
250
  6
CONTINUOUS
 90
5
 70
0
 10
-2.4399806724
 20
57.4414502227
 10
-2.5564252238
 20
57.4246671437
 10
-2.7161419522
 20
57.3828967878
 10
-2.8673749696
 20
57.3236900592
 10
-2.9748810913
 20
57.267958681
  0
LWPOLYLINE
  5
4CC
100
AcDbEntity
  8
RACCORDO
100
AcDbPolyline
 62
7
  6
CONTINUOUS
 90
5
 70
0
 10
-2.483526735
 20
57.4474160711
 10
-2.4946897587
 20
57.4458665574
 10
-2.6638929748
 20
57.4035278216
 10
-2.8242146301
 20
57.3440059054
 10
-2.9748810913
 20
57.267958681
  0
LWPOLYLINE
  5
4CD
100
AcDbEntity
  8
RACCORDO
100
AcDbPolyline
 62
7
  6
CONTINUOUS
 90
13
 70
0
 10
-43.0097699657
 20
91.7939454452
 10
-43.0563422321
 20
91.8190255617
 10
-43.102325462
 20
91.8403462866
 10
-43.1477196553
 20
91.8579076197
 10
-43.1927136121
 20
91.8717524421
 10
-43.2371185323
 20
91.8818378729
 10
-43.2803680157
 20
91.8880352688
 10
-43.3224472614
 20
91.8902948248
 10
-43.3633710703
 20
91.8886663459
 10
-43.4026174449
 20
91.8831706039
 10
-43.4401648976
 20
91.8737580599
 10
-43.4760349161
 20
91.8604782529
 10
-43.5097941258
 20
91.8434866229
  0
LINE
  5
4CE
100
AcDbEntity
  8
RACCORDO
100
AcDbLine
 62
7
  6
CONTINUOUS
 10
40.2874088581
 20
43.6991983512
 11
-43.0097699657
 21
91.7939454452
  0
LINE
  5
4CF
100
AcDbEntity
  8
RACCORDO
100
AcDbLine
 62
7
  6
CONTINUOUS
 10
42.0551758111
 20
44.7198848345
 11
-41.2420030127
 21
92.8146319285
  0
LINE
  5
4D0
100
AcDbEntity
  8
0
100
AcDbLine
 62
7
  6
CONTINUOUS
 10
-30.5293352777
 20
87.7725669567
 11
35.5851487632
 21
49.5988924806
  0
LWPOLYLINE
  5
4D1
100
AcDbEntity
  8
0
100
AcDbPolyline
 62
7
  6
CONTINUOUS
 90
16
 70
0
 10
35.5851487632
 20
49.5988924806
 10
35.869515856
 20
49.4289247401
 10
36.1528481993
 20
49.2481868092
 10
36.4351457931
 20
49.0566786881
 10
36.7167497749
 20
48.8541410205
 10
36.9973190072
 20
48.6408331626
 10
37.2758300776
 20
48.4175331824
 10
37.5522754693
 20
48.1842045879
 10
37.826662699
 20
47.940883871
 10
38.0979909038
 20
47.6884585755
 10
38.3662489119
 20
47.4268954509
 10
38.631447895
 20
47.1562277477
 10
38.8926205057
 20
46.8774427614
 10
39.1497520392
 20
46.590510847
 10
39.4028572003
 20
46.2954616495
 10
39.471864088
 20
46.2114566469
  0
LWPOLYLINE
  5
4D2
100
AcDbEntity
  8
RACCORDO
100
AcDbPolyline
 62
7
  6
CONTINUOUS
 90
25
 70
0
 10
42.0551758111
 20
44.7198848345
 10
42.1017480775
 20
44.6911844651
 10
42.1477313074
 20
44.6594049087
 10
42.1931255007
 20
44.6245461652
 10
42.2381194575
 20
44.5864330942
 10
42.2825243777
 20
44.5452408361
 10
42.3257738611
 20
44.5014948127
 10
42.3678531068
 20
44.4551623105
 10
42.4087769157
 20
44.4062760429
 10
42.4480232903
 20
44.3554595713
 10
42.485570743
 20
44.3026881701
 10
42.5214407614
 20
44.2479865648
 10
42.5551758111
 20
44.1920524936
 10
42.5867485433
 20
44.1348701687
 10
42.6161863067
 20
44.0764553777
 10
42.6431136123
 20
44.0175532218
 10
42.6674983016
 20
43.9581574579
 10
42.6893725332
 20
43.898274329
 10
42.7084572935
 20
43.8386676653
 10
42.72471685
 20
43.7793410082
 10
42.7381869353
 20
43.7202908163
 10
42.7486957337
 20
43.6622702955
 10
42.7561859734
 20
43.6055305141
 10
42.7607149263
 20
43.5498204038
 10
42.7622825923
 20
43.4951399644
  0
LWPOLYLINE
  5
4D3
100
AcDbEntity
  8
0
100
AcDbPolyline
 62
7
  6
CONTINUOUS
 90
7
 70
0
 10
19.3922907182
 20
66.9109129642
 10
19.2218530335
 20
66.994850473
 10
19.0511779219
 20
67.0489639704
 10
18.8881760306
 20
67.0696773519
 10
18.7365128217
 20
67.0565248308
 10
18.5995987819
 20
67.0098021708
 10
18.4780477838
 20
66.9284047674
  0
LINE
  5
4D4
100
AcDbEntity
  8
SMUSSO
100
AcDbLine
 62
7
  6
CONTINUOUS
 10
19.851954545
 20
66.6455601255
 11
19.1447794269
 21
67.053795262
  0
LWPOLYLINE
  5
4D5
100
AcDbEntity
  8
SMUSSO
100
AcDbPolyline
 62
7
  6
CONTINUOUS
 90
17
 70
0
 10
19.1447794269
 20
67.053795262
 10
19.268184318
 20
66.9763278503
 10
19.3905142356
 20
66.887098448
 10
19.5109740392
 20
66.7867079234
 10
19.6286468399
 20
66.6759206029
 10
19.7426369715
 20
66.5555799446
 10
19.852076256
 20
66.4266028102
 10
19.9561318222
 20
66.2899712075
 10
20.0540118586
 20
66.1467253047
 10
20.1449711565
 20
65.997956311
 10
20.2283177786
 20
65.8447966969
 10
20.3034177239
 20
65.6884123551
 10
20.3696994748
 20
65.5299945011
 10
20.4266591595
 20
65.3707489022
 10
20.4738639541
 20
65.2118873512
 10
20.5109551372
 20
65.0546193464
 10
20.5376512258
 20
64.9001416331
  0
LWPOLYLINE
  5
4D6
100
AcDbEntity
  8
SMUSSO
100
AcDbPolyline
 62
7
  6
CONTINUOUS
 90
16
 70
0
 10
19.851954545
 20
66.6455601252
 10
19.925667794
 20
66.5984095636
 10
19.9993124688
 20
66.5424151846
 10
20.0705694201
 20
66.4793592853
 10
20.1393509271
 20
66.4090229435
 10
20.2057447105
 20
66.3316250813
 10
20.267626241
 20
66.2496443336
 10
20.3248568438
 20
66.162923989
 10
20.3775751937
 20
66.0716207588
 10
20.4240727859
 20
65.9786834121
 10
20.4641458876
 20
65.8840528207
 10
20.4979982316
 20
65.7877881127
 10
20.5245325118
 20
65.6930154416
 10
20.5433829593
 20
65.6007768584
 10
20.5549153431
 20
65.510030312
 10
20.559129663
 20
65.4207758024
  0
LWPOLYLINE
  5
4D7
100
AcDbEntity
  8
RACCORDO
100
AcDbPolyline
 62
7
  6
CONTINUOUS
 90
13
 70
0
 10
40.7874330182
 20
-92.8641731062
 10
40.8189815903
 20
-92.8434641295
 10
40.8484193537
 20
-92.8190433299
 10
40.8753466593
 20
-92.7912361515
 10
40.8997313486
 20
-92.7599992156
 10
40.9216055802
 20
-92.725375901
 10
40.9406903405
 20
-92.6878078401
 10
40.956949897
 20
-92.6472573114
 10
40.9704199823
 20
-92.6037620363
 10
40.9809287808
 20
-92.5578768125
 10
40.9884190205
 20
-92.5097865722
 10
40.9929479733
 20
-92.4593063831
 10
40.9945156393
 20
-92.4064362451
  0
LINE
  5
4D8
100
AcDbEntity
  8
0
100
AcDbLine
 62
7
  6
CONTINUOUS
 10
43.7168767469
 20
-88.670802626
 11
42.7622825923
 21
-89.221973327
  0
LINE
  5
4D9
100
AcDbEntity
  8
RACCORDO
100
AcDbLine
 62
250
  6
CONTINUOUS
 10
40.9945156393
 20
-92.4064362451
 11
42.7622825923
 21
-91.3857497618
  0
LINE
  5
4DA
100
AcDbEntity
  8
RACCORDO
100
AcDbLine
 62
7
  6
CONTINUOUS
 10
40.7874330182
 20
-92.8641731062
 11
42.5551999712
 21
-91.8434866229
  0
LWPOLYLINE
  5
4DB
100
AcDbEntity
  8
0
100
AcDbPolyline
 62
7
  6
CONTINUOUS
 90
16
 70
0
 10
-34.4160506026
 20
88.8734125562
 10
-34.3470437148
 20
88.8777301345
 10
-34.0939385538
 20
88.8804998363
 10
-33.8368070202
 20
88.870502701
 10
-33.5756344096
 20
88.8476921031
 10
-33.3104354264
 20
88.812114668
 10
-33.0421774183
 20
88.763900169
 10
-32.7708492135
 20
88.7030024547
 10
-32.4964619838
 20
88.6294676764
 10
-32.2200165921
 20
88.5435640619
 10
-31.9415055218
 20
88.4452464393
 10
-31.6609362894
 20
88.3345599804
 10
-31.3793323076
 20
88.2119084283
 10
-31.0970347138
 20
88.0774263642
 10
-30.8137023705
 20
87.930979207
 10
-30.5293352777
 20
87.7725669567
  0
ARC
  5
4DC
100
AcDbEntity
  8
0
100
AcDbCircle
 62
7
  6
CONTINUOUS
 10
-3.2255854335
 20
20.0496350823
 40
2.3633333333
100
AcDbArc
 50
146.578339156
 51
273.4248577137
  0
ARC
  5
4DD
100
AcDbEntity
  8
RACCORDO
100
AcDbCircle
 62
7
  6
CONTINUOUS
 10
-1.7273978044
 20
-52.9689308003
 40
0.1
100
AcDbArc
 50
260.6589419289
 51
293.8852197874
  0
ARC
  5
4DE
100
AcDbEntity
  8
RACCORDO
100
AcDbCircle
 62
7
  6
CONTINUOUS
 10
-1.3380979106
 20
-52.9341827785
 40
0.1
100
AcDbArc
 50
258.9309290999
 51
300.0580281168
  0
ARC
  5
4DF
100
AcDbEntity
  8
RACCORDO
100
AcDbCircle
 62
7
  6
CONTINUOUS
 10
-0.618577772
 20
-55.8267182118
 40
0.1
100
AcDbArc
 50
120.0015984395
 51
138.3843903248
  0
ARC
  5
4E0
100
AcDbEntity
  8
RACCORDO
100
AcDbCircle
 62
7
  6
CONTINUOUS
 10
0.1304821911
 20
-55.2801941865
 40
0.1
100
AcDbArc
 50
168.9437288081
 51
175.235068963
  0
ARC
  5
4E1
100
AcDbEntity
  8
RACCORDO
100
AcDbCircle
 62
7
  6
CONTINUOUS
 10
-1.7273978044
 20
55.2133808748
 40
0.1
100
AcDbArc
 50
260.6589419289
 51
293.8852197874
  0
ARC
  5
4E2
100
AcDbEntity
  8
RACCORDO
100
AcDbCircle
 62
7
  6
CONTINUOUS
 10
-1.3380979106
 20
55.2481288966
 40
0.1
100
AcDbArc
 50
258.9309290999
 51
300.0580281168
  0
ARC
  5
4E3
100
AcDbEntity
  8
RACCORDO
100
AcDbCircle
 62
7
  6
CONTINUOUS
 10
-0.618577772
 20
52.3555934632
 40
0.1
100
AcDbArc
 50
120.0015984395
 51
138.3843903248
  0
ARC
  5
4E4
100
AcDbEntity
  8
RACCORDO
100
AcDbCircle
 62
7
  6
CONTINUOUS
 10
0.1304821911
 20
52.9021174885
 40
0.1
100
AcDbArc
 50
168.9437288081
 51
175.235068963
  0
ENDSEC
  0
SECTION
  2
OBJECTS
  0
DICTIONARY
  5
C
100
AcDbDictionary
280
0
281
1
  3
ACAD_GROUP
350
D
  3
ACAD_MLINESTYLE
350
17
  3
ACAD_LAYOUT
350
1A
  3
ACAD_PLOTSETTINGS
350
19
  3
ACAD_PLOTSTYLENAME
350
E
  0
DICTIONARY
  5
D
102
{ACAD_REACTORS
330
C
102
}
100
AcDbDictionary
280
0
281
1
  0
ACDBDICTIONARYWDFLT
  5
E
102
{ACAD_REACTORS
330
C
102
}
100
AcDbDictionary
281
1
  3
Normal
350
F
100
AcDbDictionaryWithDefault
340
F
  0
DICTIONARY
  5
17
102
{ACAD_REACTORS
330
C
102
}
100
AcDbDictionary
280
0
281
1
  3
Standard
350
18
  0
DICTIONARY
  5
19
102
{ACAD_REACTORS
330
C
102
}
100
AcDbDictionary
281
1
  0
DICTIONARY
  5
1A
102
{ACAD_REACTORS
330
C
102
}
100
AcDbDictionary
281
1
  3
Model
350
4E5
  3
Layout1
350
4E6
  0
ACDBPLACEHOLDER
  5
F
102
{ACAD_REACTORS
330
E
102
}
  0
MLINESTYLE
  5
18
102
{ACAD_REACTORS
330
17
102
}
100
AcDbMlineStyle
  2
STANDARD
 70
0
  3

 62
256
 51
90.0
 52
90.0
 71
2
 49
0.5
 62
256
  6
BYLAYER
 49
-0.5
 62
256
  6
BYLAYER
  0
LAYOUT
  5
4E5
102
{ACAD_REACTORS
330
1A
102
}
100
AcDbPlotSettings
  1

  2
none_device
  4

  6

 40
0.0
 41
0.0
 42
0.0
 43
0.0
 44
210.0
 45
297.0
 46
0.0
 47
0.0
 48
0.0
 49
0.0
140
0.0
141
0.0
142
1.0
143
1.0
 70
1024
 72
1
 73
0
 74
0
  7

 75
0
147
1.0
148
0.0
149
0.0
100
AcDbLayout
  1
Model
 70
0
 71
0
 10
0.0
 20
0.0
 11
210.0
 21
297.0
 12
0.0
 22
0.0
 32
0.0
 14
0.0
 24
0.0
 34
0.0
 15
0.0
 25
0.0
 35
0.0
146
0.0
 13
0.0
 23
0.0
 33
0.0
 16
1.0
 26
0.0
 36
0.0
 17
0.0
 27
1.0
 37
0.0
 76
0
330
20F
345
0
346
0
  0
LAYOUT
  5
4E6
102
{ACAD_REACTORS
330
1A
102
}
100
AcDbPlotSettings
  1

  2
none_device
  4

  6

 40
0.0
 41
0.0
 42
0.0
 43
0.0
 44
210.0
 45
297.0
 46
0.0
 47
0.0
 48
0.0
 49
0.0
140
0.0
141
0.0
142
1.0
143
1.0
 70
0
 72
1
 73
0
 74
0
  7

 75
0
147
1.0
148
0.0
149
0.0
100
AcDbLayout
  1
Layout1
 70
0
 71
1
 10
0.0
 20
0.0
 11
210.0
 21
297.0
 12
0.0
 22
0.0
 32
0.0
 14
0.0
 24
0.0
 34
0.0
 15
0.0
 25
0.0
 35
0.0
146
0.0
 13
0.0
 23
0.0
 33
0.0
 16
1.0
 26
0.0
 36
0.0
 17
0.0
 27
1.0
 37
0.0
 76
0
330
210
345
0
346
0
  0
ENDSEC
  0
EOF
