  0
SECTION
  2
HEADER
  9
$ACADVER
  1
AC1024
  9
$DWGCODEPAGE
  3
ANSI_1252
  9
$EXTMAX
 10
210.0
 20
297.0
 30
0.0
  9
$EXTMIN
 10
0.0
 20
0.0
 30
0.0
  9
$LIMMIN
 10
0.0
 20
0.0
  9
$LIMMAX
 10
210.0
 20
297.0
  9
$VIEWCTR
 10
105.0
 20
148.5
  9
$VIEWSIZE
 40
297.0
  9
$CLAYER
  8
0
  9
$LTSCALE
 40
19.36
  9
$CELTYPE
  6
BYLAYER
  9
$DIMSCALE
 40
1.0
  9
$DIMASZ
 40
3.0
  9
$DIMEXO
 40
0.5
  9
$DIMDLI
 40
13.376
  9
$DIMEXE
 40
1.5
  9
$DIMCEN
 40
3.168
  9
$DIMLFAC
 40
1.0
  9
$DIMBLK
  1
_FILLED
  9
$DIMALT
 70
0
  9
$DIMALTF
 40
0.0393700787
  9
$DIMTXT
 40
3.0
  9
$DIMTOL
 70
1
  9
$DIMLIM
 70
0
  9
$DIMTFAC
 40
1.0
  9
$DIMTP
 40
0.01
  9
$DIMTM
 40
0.01
  9
$DIMGAP
 40
0.625
  9
$DIMDSEP
 70
44
  9
$AUNITS
 70
0
  9
$PDMODE
 70
3
  9
$PDSIZE
 40
3.0
  9
$HANDSEED
  5
2DC
  9
$TILEMODE
 70
1
  9
$MEASUREMENT
 70
1
  9
$INSUNITS
 70
4
  0
ENDSEC
  0
SECTION
  2
CLASSES
  0
CLASS
  1
ACDBDICTIONARYWDFLT
  2
AcDbDictionaryWithDefault
  3
AutoCAD 2000
 90
0
 91
1
280
0
281
0
  0
CLASS
  1
ACDBPLACEHOLDER
  2
AcDbPlaceHolder
  3
AutoCAD 2000
 90
0
 91
1
280
0
281
0
  0
CLASS
  1
LAYOUT
  2
AcDbLayout
  3
AutoCAD 2000
 90
0
 91
0
280
0
281
0
  0
ENDSEC
  0
SECTION
  2
TABLES
  0
TABLE
  2
VPORT
  5
8
100
AcDbSymbolTable
 70
2
  0
VPORT
  5
1F4
100
AcDbSymbolTableRecord
100
AcDbViewportTableRecord
  2
*ACTIVE
 70
0
 10
0.0
 20
0.0
 11
1.0
 21
1.0
 12
105.0
 22
148.5
 13
0.0
 23
0.0
 14
1.0
 24
1.0
 15
0.0
 25
0.0
 16
0.0
 26
0.0
 36
1.0
 17
0.0
 27
0.0
 37
0.0
 40
297.0
 41
0.7070707071
 42
50.0
 43
0.0
 44
0.0
 50
0.0
 51
0.0
 71
0
 72
100
 73
1
 74
1
 75
0
 76
0
 77
0
 78
0
  0
ENDTAB
  0
TABLE
  2
LTYPE
  5
5
100
AcDbSymbolTable
 70
6
  0
LTYPE
  5
14
100
AcDbSymbolTableRecord
100
AcDbLinetypeTableRecord
  2
BYBLOCK
 70
0
  3

 72
65
 73
0
 40
0.0
  0
LTYPE
  5
15
100
AcDbSymbolTableRecord
100
AcDbLinetypeTableRecord
  2
BYLAYER
 70
0
  3

 72
65
 73
0
 40
0.0
  0
LTYPE
  5
16
100
AcDbSymbolTableRecord
100
AcDbLinetypeTableRecord
  2
CONTINUOUS
 70
64
  3
Solid line
 72
65
 73
0
 40
0.0
  0
LTYPE
  5
1F5
100
AcDbSymbolTableRecord
100
AcDbLinetypeTableRecord
  2
CENTER
 70
64
  3
____ _ ____ _ ____ _ ____ _ ____ _ ____ _ ____
 72
65
 73
4
 40
0.6
 49
0.375
 74
0
 49
-0.075
 74
0
 49
0.075
 74
0
 49
-0.075
 74
0
  0
LTYPE
  5
1F6
100
AcDbSymbolTableRecord
100
AcDbLinetypeTableRecord
  2
HIDDEN
 70
64
  3
- - - - - - - - - - - - - - - - - - - -
 72
65
 73
2
 40
0.2
 49
0.1
 74
0
 49
-0.1
 74
0
  0
LTYPE
  5
1F7
100
AcDbSymbolTableRecord
100
AcDbLinetypeTableRecord
  2
PHANTOM
 70
64
  3
_____ _ _ _____ _ _ _____ _ _ _____
 72
65
 73
6
 40
0.8
 49
0.45
 74
0
 49
-0.05
 74
0
 49
0.1
 74
0
 49
-0.05
 74
0
 49
0.1
 74
0
 49
-0.05
 74
0
  0
LTYPE
  5
1F8
100
AcDbSymbolTableRecord
100
AcDbLinetypeTableRecord
  2
DOT
 70
64
  3
. . . . . . . . . . . . . . . . . . . .
 72
65
 73
2
 40
0.2
 49
0.1
 74
0
 49
-0.1
 74
0
  0
LTYPE
  5
1F9
100
AcDbSymbolTableRecord
100
AcDbLinetypeTableRecord
  2
DASHED
 70
64
  3
- - - - - - - - - - - - - - - - - - - -
 72
65
 73
2
 40
0.2
 49
0.1
 74
0
 49
-0.1
 74
0
  0
ENDTAB
  0
TABLE
  2
LAYER
  5
2
100
AcDbSymbolTable
 70
36
  0
LAYER
  5
10
100
AcDbSymbolTableRecord
100
AcDbLayerTableRecord
  2
0
 70
0
 62
7
  6
CONTINUOUS
370
-3
390
F
  0
LAYER
  5
1FA
100
AcDbSymbolTableRecord
100
AcDbLayerTableRecord
  2
DEFAULT_1
 70
0
 62
7
  6
CENTER
370
-3
390
F
  0
LAYER
  5
1FB
100
AcDbSymbolTableRecord
100
AcDbLayerTableRecord
  2
DEFAULT_2
 70
0
 62
7
  6
HIDDEN
370
-3
390
F
  0
LAYER
  5
1FC
100
AcDbSymbolTableRecord
100
AcDbLayerTableRecord
  2
DEFAULT_3
 70
0
 62
7
  6
PHANTOM
370
-3
390
F
  0
LAYER
  5
1FD
100
AcDbSymbolTableRecord
100
AcDbLayerTableRecord
  2
ASSI
 70
0
 62
7
  6
CONTINUOUS
370
-3
390
F
  0
LAYER
  5
1FE
100
AcDbSymbolTableRecord
100
AcDbLayerTableRecord
  2
COORDINATE
 70
0
 62
7
  6
CONTINUOUS
370
-3
390
F
  0
LAYER
  5
1FF
100
AcDbSymbolTableRecord
100
AcDbLayerTableRecord
  2
COPY_PUBLISH
 70
0
 62
7
  6
CONTINUOUS
370
-3
390
F
  0
LAYER
  5
200
100
AcDbSymbolTableRecord
100
AcDbLayerTableRecord
  2
COSMETICI
 70
0
 62
7
  6
CONTINUOUS
370
-3
390
F
  0
LAYER
  5
201
100
AcDbSymbolTableRecord
100
AcDbLayerTableRecord
  2
CURVE
 70
0
 62
7
  6
CONTINUOUS
370
-3
390
F
  0
LAYER
  5
202
100
AcDbSymbolTableRecord
100
AcDbLayerTableRecord
  2
DRAFT
 70
0
 62
7
  6
CONTINUOUS
370
-3
390
F
  0
LAYER
  5
203
100
AcDbSymbolTableRecord
100
AcDbLayerTableRecord
  2
IMPORT_IGES
 70
0
 62
7
  6
CONTINUOUS
370
-3
390
F
  0
LAYER
  5
204
100
AcDbSymbolTableRecord
100
AcDbLayerTableRecord
  2
NOTE
 70
0
 62
7
  6
CONTINUOUS
370
-3
390
F
  0
LAYER
  5
205
100
AcDbSymbolTableRecord
100
AcDbLayerTableRecord
  2
PIANI
 70
0
 62
7
  6
CONTINUOUS
370
-3
390
F
  0
LAYER
  5
206
100
AcDbSymbolTableRecord
100
AcDbLayerTableRecord
  2
PUNTI
 70
0
 62
7
  6
CONTINUOUS
370
-3
390
F
  0
LAYER
  5
207
100
AcDbSymbolTableRecord
100
AcDbLayerTableRecord
  2
RACCORDO
 70
0
 62
7
  6
CONTINUOUS
370
-3
390
F
  0
LAYER
  5
208
100
AcDbSymbolTableRecord
100
AcDbLayerTableRecord
  2
SIMBOLI
 70
0
 62
7
  6
CONTINUOUS
370
-3
390
F
  0
LAYER
  5
209
100
AcDbSymbolTableRecord
100
AcDbLayerTableRecord
  2
SMUSSO
 70
0
 62
7
  6
CONTINUOUS
370
-3
390
F
  0
LAYER
  5
20A
100
AcDbSymbolTableRecord
100
AcDbLayerTableRecord
  2
SNAPLINE
 70
0
 62
7
  6
CONTINUOUS
370
-3
390
F
  0
LAYER
  5
20B
100
AcDbSymbolTableRecord
100
AcDbLayerTableRecord
  2
SUPERFICI
 70
0
 62
7
  6
CONTINUOUS
370
-3
390
F
  0
LAYER
  5
20C
100
AcDbSymbolTableRecord
100
AcDbLayerTableRecord
  2
TRASH
 70
0
 62
7
  6
CONTINUOUS
370
-3
390
F
  0
ENDTAB
  0
TABLE
  2
STYLE
  5
3
100
AcDbSymbolTable
 70
1
  0
STYLE
  5
11
100
AcDbSymbolTableRecord
100
AcDbTextStyleTableRecord
  2
STANDARD
 70
0
 40
0.0
 41
0.8
 50
0.0
 71
0
 42
0.2
  3
txt
  4

  0
STYLE
  5
20D
100
AcDbSymbolTableRecord
100
AcDbTextStyleTableRecord
  2
TEXTSTYLE_1
 70
0
 40
0.0
 41
0.8
 50
0.0
 71
0
 42
0.2
  3
gdt
  4

  0
ENDTAB
  0
TABLE
  2
VIEW
  5
6
100
AcDbSymbolTable
 70
0
  0
ENDTAB
  0
TABLE
  2
UCS
  5
7
100
AcDbSymbolTable
 70
0
  0
ENDTAB
  0
TABLE
  2
APPID
  5
9
100
AcDbSymbolTable
 70
1
  0
APPID
  5
20E
100
AcDbSymbolTableRecord
100
AcDbRegAppTableRecord
  2
ACAD
 70
0
  0
ENDTAB
  0
TABLE
  2
BLOCK_RECORD
  5
1
100
AcDbSymbolTable
 70
0
  0
BLOCK_RECORD
  5
20F
100
AcDbSymbolTableRecord
100
AcDbBlockTableRecord
  2
*Model_Space
  0
BLOCK_RECORD
  5
210
100
AcDbSymbolTableRecord
100
AcDbBlockTableRecord
  2
*Paper_Space
  0
BLOCK_RECORD
  5
211
100
AcDbSymbolTableRecord
100
AcDbBlockTableRecord
  2
_FILLED
  0
ENDTAB
  0
TABLE
  2
DIMSTYLE
  5
A
100
AcDbSymbolTable
 70
1
100
AcDbDimStyleTable
 71
0
  0
DIMSTYLE
105
212
100
AcDbSymbolTableRecord
100
AcDbDimStyleTableRecord
  2
STANDARD
 70
0
  3

  4

 40
1.0
 41
3.0
 42
0.5
 43
0.38
 44
1.5
 45
0.0
 46
0.0
 47
0.01
 48
0.01
140
3.0
141
0.09
142
0.0
143
25.4
144
1.0
145
0.0
146
1.0
147
0.625
 71
1.0
 72
0.0
 73
0
 74
0
 75
0
 76
0
 77
1
 78
8
 79
2
170
0
171
1
172
0
173
0
174
0
175
0
176
0
177
0
178
0
270
2
179
2
271
2
272
2
273
2
274
2
275
0
280
0
281
0
282
0
283
1
284
8
285
0
286
0
287
3
288
0
340
11
278
44
341
211
342
211
343
211
344
211
  0
ENDTAB
  0
ENDSEC
  0
SECTION
  2
BLOCKS
  0
BLOCK
  5
20
100
AcDbEntity
  8
0
100
AcDbBlockBegin
  2
*Model_Space
 70
0
 10
0.0
 20
0.0
 30
0.0
  3
*Model_Space
  1

  0
ENDBLK
  5
21
100
AcDbEntity
  8
0
100
AcDbBlockEnd
  0
BLOCK
  5
1C
100
AcDbEntity
  8
0
100
AcDbBlockBegin
  2
*Paper_Space
 70
0
 10
0.0
 20
0.0
 30
0.0
  3
*Paper_Space
  1

  0
ENDBLK
  5
1D
100
AcDbEntity
  8
0
100
AcDbBlockEnd
  0
BLOCK
  5
213
100
AcDbEntity
  8
0
100
AcDbBlockBegin
  2
_FILLED
 70
64
 10
0.0
 20
0.0
  3
_FILLED
  1

  0
SOLID
  5
214
100
AcDbEntity
  8
0
  6
BYBLOCK
 62
0
100
AcDbTrace
 10
0.0
 20
0.0
 11
-1.0
 21
0.3166666667
 12
-1.0
 22
-0.3166666667
 13
-1.0
 23
-0.3166666667
  0
ENDBLK
  5
215
100
AcDbEntity
  8
0
  6
BYBLOCK
 62
0
100
AcDbBlockEnd
  0
ENDSEC
  0
SECTION
  2
ENTITIES
  0
LINE
  5
216
100
AcDbEntity
  8
ASSI
100
AcDbLine
 62
7
  6
CONTINUOUS
 10
-41.6485894119
 20
144.0685831454
 11
-43.0628029743
 21
143.2520339588
  0
LINE
  5
217
100
AcDbEntity
  8
ASSI
100
AcDbLine
 62
7
  6
CONTINUOUS
 10
-30.3348809129
 20
147.8659605851
 11
-31.7490944753
 21
147.0494113984
  0
LINE
  5
218
100
AcDbEntity
  8
RACCORDO
100
AcDbLine
 62
250
  6
CONTINUOUS
 10
-34.5079838124
 20
141.3995021279
 11
-35.9221973748
 21
140.5829529412
  0
LWPOLYLINE
  5
219
100
AcDbEntity
  8
RACCORDO
100
AcDbPolyline
 62
7
  6
CONTINUOUS
 90
18
 70
0
 10
-34.0360242934
 20
140.6277227238
 10
-34.0507760196
 20
140.6193028109
 10
-34.1475643091
 20
140.5688081876
 10
-34.2477792397
 20
140.5246099536
 10
-34.3514061894
 20
140.4866812412
 10
-34.4580017057
 20
140.4551843594
 10
-34.5675785102
 20
140.4301468714
 10
-34.6801238814
 20
140.411541214
 10
-34.7951562018
 20
140.3994470067
 10
-34.9126861292
 20
140.3938921538
 10
-35.0327030059
 20
140.3948487511
 10
-35.1546932417
 20
140.4023127049
 10
-35.2786652934
 20
140.4163119021
 10
-35.4046107041
 20
140.4368184557
 10
-35.5319905136
 20
140.4637446119
 10
-35.6606250685
 20
140.4970611192
 10
-35.7906940222
 20
140.536797229
 10
-35.9221973748
 20
140.5829529412
  0
LINE
  5
21A
100
AcDbEntity
  8
RACCORDO
100
AcDbLine
 62
250
  6
CONTINUOUS
 10
-28.1074945522
 20
118.5733853709
 11
-27.7539582466
 21
118.7775128029
  0
LWPOLYLINE
  5
21B
100
AcDbEntity
  8
RACCORDO
100
AcDbPolyline
 62
7
  6
CONTINUOUS
 90
18
 70
0
 10
-33.8805039157
 20
109.5894853663
 10
-33.8563400634
 20
109.6027833078
 10
-33.8065782566
 20
109.6262994368
 10
-33.7547074587
 20
109.6457875194
 10
-33.7007418844
 20
109.6612747047
 10
-33.6450469016
 20
109.6726561381
 10
-33.5876107751
 20
109.6799039595
 10
-33.5284452401
 20
109.683046029
 10
-33.4679508706
 20
109.6820610738
 10
-33.4061186493
 20
109.676921089
 10
-33.3429575934
 20
109.6676540795
 10
-33.278895328
 20
109.6543227864
 10
-33.2139257377
 20
109.6368996308
 10
-33.1480549379
 20
109.6154121917
 10
-33.0817288996
 20
109.5900059475
 10
-33.0150962799
 20
109.5607293909
 10
-32.9480084218
 20
109.5275340292
 10
-32.8804653252
 20
109.4904198624
  0
LWPOLYLINE
  5
21C
100
AcDbEntity
  8
RACCORDO
100
AcDbPolyline
 62
7
  6
CONTINUOUS
 90
13
 70
0
 10
-28.0039532416
 20
118.8022538015
 10
-27.9870736368
 20
118.8107496164
 10
-27.9691386275
 20
118.81738952
 10
-27.9503649012
 20
118.822095792
 10
-27.9307417139
 20
118.8248436629
 10
-27.9102798094
 20
118.8256579024
 10
-27.8892401866
 20
118.8245281244
 10
-27.8676154449
 20
118.8214294265
 10
-27.8454129848
 20
118.8163867111
 10
-27.8229160064
 20
118.8094642999
 10
-27.8002189097
 20
118.8006836333
 10
-27.7772272948
 20
118.7900232709
 10
-27.7539411616
 20
118.7774832126
  0
LINE
  5
21D
100
AcDbEntity
  8
RACCORDO
100
AcDbLine
 62
7
  6
CONTINUOUS
 10
34.5079838124
 20
-141.3995021279
 11
41.6485894119
 21
-144.0685831454
  0
LWPOLYLINE
  5
21E
100
AcDbEntity
  8
RACCORDO
100
AcDbPolyline
 62
7
  6
CONTINUOUS
 90
18
 70
0
 10
-28.521669524
 20
107.4520500401
 10
-28.498166346
 20
107.4662691251
 10
-28.4529168167
 20
107.497600748
 10
-28.4101011928
 20
107.532772852
 10
-28.3697030699
 20
107.5717595523
 10
-28.331995959
 20
107.6142968939
 10
-28.2969981206
 20
107.6604089702
 10
-28.2646912943
 20
107.7100716877
 10
-28.2352942099
 20
107.7629488104
 10
-28.2088266121
 20
107.8190621502
 10
-28.1852687563
 20
107.8783898951
 10
-28.1647801383
 20
107.9405303731
 10
-28.147381585
 20
108.0055026706
 10
-28.1330522696
 20
108.0732877011
 10
-28.1218892071
 20
108.1434265335
 10
-28.1139247359
 20
108.2157661908
 10
-28.1091265176
 20
108.2904596499
 10
-28.1074945522
 20
108.367506911
  0
LINE
  5
21F
100
AcDbEntity
  8
RACCORDO
100
AcDbLine
 62
250
  6
CONTINUOUS
 10
-34.2946788875
 20
108.6740284954
 11
-32.8804653252
 21
109.4905776821
  0
LINE
  5
220
100
AcDbEntity
  8
RACCORDO
100
AcDbLine
 62
250
  6
CONTINUOUS
 10
-26.6932809898
 20
109.1840560976
 11
-28.1074945522
 21
108.367506911
  0
LINE
  5
221
100
AcDbEntity
  8
RACCORDO
100
AcDbLine
 62
7
  6
CONTINUOUS
 10
-27.1074462319
 20
108.2685823754
 11
-28.5216597943
 21
107.4520331887
  0
LINE
  5
222
100
AcDbEntity
  8
RACCORDO
100
AcDbLine
 62
7
  6
CONTINUOUS
 10
-43.0628029743
 20
-95.1572868647
 11
-35.9221973748
 21
-100.7339982079
  0
LINE
  5
223
100
AcDbEntity
  8
CURVE
100
AcDbLine
 62
250
  6
CONTINUOUS
 10
3.1324577719
 20
112.8501095351
 11
2.8490746217
 21
112.6865192484
  0
LINE
  5
224
100
AcDbEntity
  8
CURVE
100
AcDbLine
 62
250
  6
CONTINUOUS
 10
3.1003913394
 20
112.1388003197
 11
3.481141122
 21
112.3585980249
  0
LINE
  5
225
100
AcDbEntity
  8
CURVE
100
AcDbLine
 62
250
  6
CONTINUOUS
 10
9.3926925073
 20
113.3865272685
 11
9.1314459892
 21
113.2357161907
  0
LINE
  5
226
100
AcDbEntity
  8
CURVE
100
AcDbLine
 62
250
  6
CONTINUOUS
 10
9.3827626042
 20
112.6879972597
 11
9.7635126818
 21
112.907794752
  0
LWPOLYLINE
  5
227
100
AcDbEntity
  8
RACCORDO
100
AcDbPolyline
 62
7
  6
CONTINUOUS
 90
16
 70
0
 10
-0.7778174593
 20
-108.5905823229
 10
-0.814992053
 20
-108.5702625806
 10
-0.85186401
 20
-108.5523238761
 10
-0.8884333303
 20
-108.5367662092
 10
-0.924798409
 20
-108.5235600442
 10
-0.9608608509
 20
-108.5127349168
 10
-0.9963254715
 20
-108.5043794349
 10
-1.031187364
 20
-108.4985138687
 10
-1.065451435
 20
-108.495117948
 10
-1.0988372203
 20
-108.4942194696
 10
-1.131337511
 20
-108.495838932
 10
-1.162959516
 20
-108.4999558368
 10
-1.1934443971
 20
-108.5065364855
 10
-1.2227828211
 20
-108.5156011
 10
-1.2509841213
 20
-108.5271294584
 10
-1.2778416194
 20
-108.5410411452
  0
LWPOLYLINE
  5
228
100
AcDbEntity
  8
RACCORDO
100
AcDbPolyline
 62
7
  6
CONTINUOUS
 90
18
 70
0
 10
28.1074945522
 20
-122.8191886299
 10
28.0399514556
 20
-122.7820744631
 10
27.9728635974
 20
-122.7488791014
 10
27.9062309778
 20
-122.7196025448
 10
27.8399049395
 20
-122.6941963006
 10
27.7740341396
 20
-122.6727088615
 10
27.7090645493
 20
-122.6552857059
 10
27.6450022839
 20
-122.6419544128
 10
27.581841228
 20
-122.6326874033
 10
27.5200090068
 20
-122.6275474185
 10
27.4595146372
 20
-122.6265624633
 10
27.4003491022
 20
-122.6297045328
 10
27.3429129757
 20
-122.6369523542
 10
27.2872179929
 20
-122.6483337876
 10
27.2332524186
 20
-122.6638209729
 10
27.1813816208
 20
-122.6833090555
 10
27.131619814
 20
-122.7068251846
 10
27.1074559617
 20
-122.720123126
  0
LINE
  5
229
100
AcDbEntity
  8
RACCORDO
100
AcDbLine
 62
7
  6
CONTINUOUS
 10
-27.7539411616
 20
-95.4643174178
 11
-1.8384776311
 21
-110.4275812633
  0
LINE
  5
22A
100
AcDbEntity
  8
RACCORDO
100
AcDbLine
 62
7
  6
CONTINUOUS
 10
0.4242640687
 20
-111.7340599619
 11
26.3397275992
 21
-126.6973238074
  0
LINE
  5
22B
100
AcDbEntity
  8
RACCORDO
100
AcDbLine
 62
7
  6
CONTINUOUS
 10
-26.3397275992
 20
-94.6477682312
 11
-1.4848559003
 21
-108.9986596454
  0
LINE
  5
22C
100
AcDbEntity
  8
RACCORDO
100
AcDbLine
 62
7
  6
CONTINUOUS
 10
1.8384776311
 20
-110.9175107753
 11
26.6932809898
 21
-125.2683627307
  0
LINE
  5
22D
100
AcDbEntity
  8
RACCORDO
100
AcDbLine
 62
7
  6
CONTINUOUS
 10
-0.6363961031
 20
-108.6722372415
 11
-0.7778174593
 21
-108.5905823229
  0
LINE
  5
22E
100
AcDbEntity
  8
RACCORDO
100
AcDbLine
 62
7
  6
CONTINUOUS
 10
0.7778174593
 20
-107.8556880549
 11
0.6363961031
 21
-107.7740331362
  0
LINE
  5
22F
100
AcDbEntity
  8
RACCORDO
100
AcDbLine
 62
7
  6
CONTINUOUS
 10
-32.8804653252
 20
-87.6055049554
 11
-29.5217081145
 21
-89.5448092737
  0
LINE
  5
230
100
AcDbEntity
  8
RACCORDO
100
AcDbLine
 62
7
  6
CONTINUOUS
 10
28.1074945522
 20
-122.8191886299
 11
31.4662517628
 21
-124.7584929482
  0
LWPOLYLINE
  5
231
100
AcDbEntity
  8
RACCORDO
100
AcDbPolyline
 62
7
  6
CONTINUOUS
 90
34
 70
0
 10
-32.8804653252
 20
-87.6055049554
 10
-32.9480084218
 20
-87.5646220474
 10
-33.0150962799
 20
-87.5203460321
 10
-33.0817288996
 20
-87.4726769097
 10
-33.1480549379
 20
-87.4214915074
 10
-33.2139257377
 20
-87.366912998
 10
-33.278895328
 20
-87.3093108992
 10
-33.3429575934
 20
-87.2486646939
 10
-33.4061186493
 20
-87.1849948994
 10
-33.4679508706
 20
-87.1187325849
 10
-33.5284452401
 20
-87.0498601585
 10
-33.5876107751
 20
-86.9783952122
 10
-33.6450469016
 20
-86.9048215917
 10
-33.7007418844
 20
-86.8291249881
 10
-33.7547074587
 20
-86.7513197103
 10
-33.8065782566
 20
-86.6719325305
 10
-33.8563400634
 20
-86.5909527143
 10
-33.9040070937
 20
-86.5083909961
 10
-33.949256623
 20
-86.424806351
 10
-33.9920722469
 20
-86.3401918377
 10
-34.0324703698
 20
-86.2545543976
 10
-34.0701774807
 20
-86.1684738296
 10
-34.1051753191
 20
-86.0819471267
 10
-34.1374821454
 20
-85.994977296
 10
-34.1668792298
 20
-85.9081531572
 10
-34.1933468276
 20
-85.8214756989
 10
-34.2169046834
 20
-85.7349439325
 10
-34.2373933015
 20
-85.649143712
 10
-34.2547918547
 20
-85.5640800013
 10
-34.2691211701
 20
-85.4797478365
 10
-34.2802842326
 20
-85.3967181793
 10
-34.2882487038
 20
-85.3151813503
 10
-34.2930469221
 20
-85.234947029
 10
-34.2946788875
 20
-85.1560152152
  0
LWPOLYLINE
  5
232
100
AcDbEntity
  8
RACCORDO
100
AcDbPolyline
 62
7
  6
CONTINUOUS
 90
31
 70
0
 10
0.7778174593
 20
-107.8556880549
 10
0.814992053
 20
-107.8782966016
 10
0.85186401
 20
-107.9029367088
 10
0.8884333303
 20
-107.9296083765
 10
0.924798409
 20
-107.9583956926
 10
0.9608608509
 20
-107.9892145693
 10
0.9963254715
 20
-108.0218127423
 10
1.031187364
 20
-108.0562048156
 10
1.065451435
 20
-108.0923761853
 10
1.0988372203
 20
-108.1300307749
 10
1.131337511
 20
-108.1691807584
 10
1.162959516
 20
-108.2098139619
 10
1.1934443971
 20
-108.2515977872
 10
1.2227828211
 20
-108.2945416784
 10
1.2509841213
 20
-108.3386361913
 10
1.2778174593
 20
-108.3835203959
 10
1.3032716072
 20
-108.4292007735
 10
1.327357793
 20
-108.4756708428
 10
1.3498788621
 20
-108.5225502284
 10
1.3708219684
 20
-108.5698422901
 10
1.390199958
 20
-108.6175436683
 10
1.4078542146
 20
-108.665263909
 10
1.4237705904
 20
-108.7130031672
 10
1.4379632334
 20
-108.760761288
 10
1.4503159713
 20
-108.8081473532
 10
1.4608137026
 20
-108.8551583089
 10
1.4694715289
 20
-108.901797209
 10
1.4762185826
 20
-108.9476822963
 10
1.4810312412
 20
-108.9926863186
 10
1.4839331272
 20
-109.0369365282
 10
1.4849242405
 20
-109.080432925
  0
LWPOLYLINE
  5
233
100
AcDbEntity
  8
RACCORDO
100
AcDbPolyline
 62
7
  6
CONTINUOUS
 90
25
 70
0
 10
-27.7539411616
 20
-95.4643174178
 10
-27.7772272948
 20
-95.4499672331
 10
-27.8002189097
 20
-95.4340774549
 10
-27.8229160064
 20
-95.4166480832
 10
-27.8454129848
 20
-95.3975915476
 10
-27.8676154449
 20
-95.3769954186
 10
-27.8892401866
 20
-95.3551224069
 10
-27.9102798094
 20
-95.3319561558
 10
-27.9307417139
 20
-95.307513022
 10
-27.9503649012
 20
-95.2821047862
 10
-27.9691386275
 20
-95.2557190856
 10
-27.9870736368
 20
-95.228368283
 10
-28.0039411616
 20
-95.2004012473
 10
-28.0197275277
 20
-95.1718100849
 10
-28.0344464094
 20
-95.1426026894
 10
-28.0479100622
 20
-95.1131516115
 10
-28.0601024068
 20
-95.0834537295
 10
-28.0710395226
 20
-95.053512165
 10
-28.0805819028
 20
-95.0237088332
 10
-28.088711681
 20
-94.9940455046
 10
-28.0954467237
 20
-94.9645204087
 10
-28.1007011229
 20
-94.9355101483
 10
-28.1044462428
 20
-94.9071402576
 10
-28.1067107192
 20
-94.8792852024
 10
-28.1074945522
 20
-94.8519449827
  0
LWPOLYLINE
  5
234
100
AcDbEntity
  8
RACCORDO
100
AcDbPolyline
 62
7
  6
CONTINUOUS
 90
25
 70
0
 10
0.4242640687
 20
-111.7340599619
 10
0.4009779355
 20
-111.7197097772
 10
0.3779863205
 20
-111.703819999
 10
0.3552892239
 20
-111.6863906273
 10
0.3327922455
 20
-111.6673340917
 10
0.3105897854
 20
-111.6467379627
 10
0.2889650437
 20
-111.624864951
 10
0.2679254208
 20
-111.6016986999
 10
0.2474635164
 20
-111.5772555661
 10
0.2278403291
 20
-111.5518473303
 10
0.2090666028
 20
-111.5254616297
 10
0.1911315935
 20
-111.4981108271
 10
0.1742640687
 20
-111.4701437914
 10
0.1584777026
 20
-111.441552629
 10
0.1437588209
 20
-111.4123452335
 10
0.1302951681
 20
-111.3828941556
 10
0.1181028234
 20
-111.3531962736
 10
0.1071657077
 20
-111.3232547091
 10
0.0976233275
 20
-111.2934513773
 10
0.0894935492
 20
-111.2637880488
 10
0.0827585066
 20
-111.2342629528
 10
0.0775041074
 20
-111.2052526924
 10
0.0737589875
 20
-111.1768828017
 10
0.0714945111
 20
-111.1490277465
 10
0.0707106781
 20
-111.1216875269
  0
LWPOLYLINE
  5
235
100
AcDbEntity
  8
RACCORDO
100
AcDbPolyline
 62
7
  6
CONTINUOUS
 90
31
 70
0
 10
-35.9221973748
 20
-100.7339982079
 10
-35.7906940222
 20
-100.8396992709
 10
-35.6606250685
 20
-100.9501635286
 10
-35.5319905136
 20
-101.0653909809
 10
-35.4046107041
 20
-101.1855598359
 10
-35.2786652934
 20
-101.3104918856
 10
-35.1546932417
 20
-101.4396525062
 10
-35.0327030059
 20
-101.573059819
 10
-34.9126861292
 20
-101.7106957026
 10
-34.7951562018
 20
-101.8519711696
 10
-34.6801238814
 20
-101.9969018172
 10
-34.5675785102
 20
-102.1454720481
 10
-34.4580017057
 20
-102.2970460833
 10
-34.3514061894
 20
-102.4516367955
 10
-34.2477792397
 20
-102.6092313119
 10
-34.1475643091
 20
-102.7691552358
 10
-34.0507760196
 20
-102.9314185497
 10
-33.9573997492
 20
-103.0960112711
 10
-33.8678350846
 20
-103.2622290555
 10
-33.7820983601
 20
-103.4300788672
 10
-33.7001732414
 20
-103.5995537419
 10
-33.622410312
 20
-103.7699284431
 10
-33.5488274086
 20
-103.9412068269
 10
-33.4794066945
 20
-104.1133850371
 10
-33.4144452429
 20
-104.2857262687
 10
-33.3539621637
 20
-104.4582312203
 10
-33.2979383469
 20
-104.6308991932
 10
-33.2466135363
 20
-104.8029912866
 10
-33.2000676465
 20
-104.9742612001
 10
-33.1582207627
 20
-105.144955234
 10
-33.1210728852
 20
-105.3150733884
  0
LWPOLYLINE
  5
236
100
AcDbEntity
  8
ASSI
100
AcDbPolyline
 62
7
  6
CONTINUOUS
 90
43
 70
0
 10
-31.7490944753
 20
-112.0194512909
 10
-30.3355107387
 20
-113.4628519013
 10
-28.9133525199
 20
-114.8815410061
 10
-27.4826198188
 20
-116.2755186053
 10
-26.0428489717
 20
-117.6452152738
 10
-24.5945036423
 20
-118.9902004367
 10
-23.138974822
 20
-120.3091823698
 10
-21.6762556095
 20
-121.6021360916
 10
-20.2063529061
 20
-122.8690865837
 10
-18.7306784069
 20
-124.1088170664
 10
-17.2492265668
 20
-125.3213013891
 10
-15.7620029308
 20
-126.5065657024
 10
-14.2704358291
 20
-127.6634716779
 10
-12.7745210888
 20
-128.7919920717
 10
-11.2742628827
 20
-129.8921541278
 10
-9.7711020594
 20
-130.9629012502
 10
-8.2650358302
 20
-132.0042051797
 10
-6.7560669837
 20
-133.0160941755
 10
-5.2456447341
 20
-133.9975964191
 10
-3.7337676852
 20
-134.9486827176
 10
-2.2204372332
 20
-135.8693822639
 10
-0.7071067812
 20
-136.7588108177
 10
0.8062236708
 20
-137.6169383369
 10
2.3195541228
 20
-138.4437948636
 10
3.8314311718
 20
-139.2385862847
 10
5.3418534213
 20
-140.0012817949
 10
6.8508222678
 20
-140.7319121993
 10
8.356888497
 20
-141.4297758004
 10
9.8600493203
 20
-142.0948411187
 10
11.3603075264
 20
-142.7271396337
 10
12.8562222667
 20
-143.3260640856
 10
14.3477893685
 20
-143.8915824116
 10
15.8350130044
 20
-144.4237266746
 10
17.3164648445
 20
-144.9219858029
 10
18.7921393438
 20
-145.3863272429
 10
20.2620420471
 20
-145.8167835483
 10
21.7247612596
 20
-146.2129413086
 10
23.1802900799
 20
-146.5747675731
 10
24.6286354093
 20
-146.9022952925
 10
26.0684062564
 20
-147.1952099092
 10
27.4991389575
 20
-147.4534065706
 10
28.9212971763
 20
-147.6769901292
 10
30.3348809129
 20
-147.8659605851
  0
LWPOLYLINE
  5
237
100
AcDbEntity
  8
RACCORDO
100
AcDbPolyline
 62
7
  6
CONTINUOUS
 90
16
 70
0
 10
2.833476538
 20
99.3146823969
 10
2.8589065259
 20
99.3309550141
 10
2.8829927116
 20
99.3496109597
 10
2.9055137807
 20
99.3704835793
 10
2.926456887
 20
99.3935910669
 10
2.9458348766
 20
99.4189152284
 10
2.9634891333
 20
99.446248776
 10
2.9794055091
 20
99.4756082024
 10
2.993598152
 20
99.5069770149
 10
3.0059508899
 20
99.540098448
 10
3.0164486212
 20
99.5749868867
 10
3.0251064475
 20
99.6116279459
 10
3.0318535012
 20
99.6497217048
 10
3.0366661598
 20
99.6891681896
 10
3.0395680458
 20
99.730067374
 10
3.0405591591
 20
99.772419258
  0
LINE
  5
238
100
AcDbEntity
  8
RACCORDO
100
AcDbLine
 62
250
  6
CONTINUOUS
 10
3.3940954647
 20
100.7930169668
 11
3.0405591591
 21
100.5888895348
  0
LINE
  5
239
100
AcDbEntity
  8
RACCORDO
100
AcDbLine
 62
250
  6
CONTINUOUS
 10
3.0405591591
 20
99.772419258
 11
4.1011168306
 21
100.3847719656
  0
LINE
  5
23A
100
AcDbEntity
  8
RACCORDO
100
AcDbLine
 62
7
  6
CONTINUOUS
 10
2.8334765381
 20
99.3146823969
 11
4.2476901004
 21
100.1312315835
  0
LINE
  5
23B
100
AcDbEntity
  8
ASSI
100
AcDbLine
 62
7
  6
CONTINUOUS
 10
31.7490944753
 20
112.0194512909
 11
30.3348809129
 21
111.2029021043
  0
LWPOLYLINE
  5
23C
100
AcDbEntity
  8
RACCORDO
100
AcDbPolyline
 62
7
  6
CONTINUOUS
 90
13
 70
0
 10
3.1441004696
 20
100.8177579654
 10
3.1609800745
 20
100.8262537804
 10
3.1789150837
 20
100.8328936839
 10
3.1976888101
 20
100.8375999559
 10
3.2173119974
 20
100.8403478269
 10
3.2377739018
 20
100.8411620663
 10
3.2588135247
 20
100.8400322883
 10
3.2804382664
 20
100.8369335904
 10
3.3026407265
 20
100.831890875
 10
3.3251377049
 20
100.8249684638
 10
3.3478348015
 20
100.8161877972
 10
3.3708264165
 20
100.8055274348
 10
3.3941125497
 20
100.7929873765
  0
LINE
  5
23D
100
AcDbEntity
  8
RACCORDO
100
AcDbLine
 62
7
  6
CONTINUOUS
 10
-31.4662517628
 20
-86.7889557688
 11
-28.1074945522
 21
-88.7282600871
  0
LINE
  5
23E
100
AcDbEntity
  8
RACCORDO
100
AcDbLine
 62
7
  6
CONTINUOUS
 10
29.5217081145
 20
-122.0026394433
 11
32.8804653252
 21
-123.9419437616
  0
LWPOLYLINE
  5
23F
100
AcDbEntity
  8
RACCORDO
100
AcDbPolyline
 62
7
  6
CONTINUOUS
 90
34
 70
0
 10
-28.1074945522
 20
-88.7282600871
 10
-28.0399514556
 20
-88.7691429951
 10
-27.9728635974
 20
-88.8134190104
 10
-27.9062309778
 20
-88.8610881328
 10
-27.8399049395
 20
-88.9122735351
 10
-27.7740341396
 20
-88.9668520446
 10
-27.7090645493
 20
-89.0244541433
 10
-27.6450022839
 20
-89.0851003486
 10
-27.581841228
 20
-89.1487701431
 10
-27.5200090068
 20
-89.2150324576
 10
-27.4595146372
 20
-89.283904884
 10
-27.4003491022
 20
-89.3553698303
 10
-27.3429129757
 20
-89.4289434508
 10
-27.2872179929
 20
-89.5046400544
 10
-27.2332524186
 20
-89.5824453322
 10
-27.1813816208
 20
-89.661832512
 10
-27.131619814
 20
-89.7428123282
 10
-27.0839527837
 20
-89.8253740464
 10
-27.0387032544
 20
-89.9089586915
 10
-26.9958876305
 20
-89.9935732048
 10
-26.9554895075
 20
-90.0792106449
 10
-26.9177823966
 20
-90.1652912129
 10
-26.8827845583
 20
-90.2518179158
 10
-26.8504777319
 20
-90.3387877465
 10
-26.8210806476
 20
-90.4256118853
 10
-26.7946130498
 20
-90.5122893436
 10
-26.7710551939
 20
-90.59882111
 10
-26.7505665759
 20
-90.6846213305
 10
-26.7331680226
 20
-90.7696850412
 10
-26.7188387072
 20
-90.854017206
 10
-26.7076756447
 20
-90.9370468632
 10
-26.6997111735
 20
-91.0185836922
 10
-26.6949129552
 20
-91.0988180135
 10
-26.6932809898
 20
-91.1777498273
  0
LWPOLYLINE
  5
240
100
AcDbEntity
  8
RACCORDO
100
AcDbPolyline
 62
7
  6
CONTINUOUS
 90
15
 70
0
 10
-33.1210728852
 20
141.9293597737
 10
-33.1582207627
 20
141.8021390573
 10
-33.2000676465
 20
141.6797687557
 10
-33.2466135363
 20
141.5622488692
 10
-33.2979383469
 20
141.4494253806
 10
-33.3539621637
 20
141.3414523069
 10
-33.4144452429
 20
141.2387916992
 10
-33.4794066945
 20
141.1414663236
 10
-33.5488274086
 20
141.0494534139
 10
-33.622410312
 20
140.9631467225
 10
-33.7001732414
 20
140.882570703
 10
-33.7820983601
 20
140.8077009019
 10
-33.8678350846
 20
140.7388577106
 10
-33.9573997492
 20
140.6760669558
 10
-34.0360242934
 20
140.6277227238
  0
LINE
  5
241
100
AcDbEntity
  8
CURVE
100
AcDbLine
 62
250
  6
CONTINUOUS
 10
-7.9973502524
 20
125.4946172987
 11
-6.5483172501
 21
127.5972568002
  0
LINE
  5
242
100
AcDbEntity
  8
CURVE
100
AcDbLine
 62
250
  6
CONTINUOUS
 10
-6.3639610307
 20
126.8131237116
 11
-7.6297468499
 21
125.0378002922
  0
LINE
  5
243
100
AcDbEntity
  8
RACCORDO
100
AcDbLine
 62
250
  6
CONTINUOUS
 10
33.1210728852
 20
105.3150733884
 11
31.7068593228
 21
104.4985242017
  0
LINE
  5
244
100
AcDbEntity
  8
RACCORDO
100
AcDbLine
 62
7
  6
CONTINUOUS
 10
-31.7490944753
 20
147.0494113984
 11
-33.1210728852
 21
141.9293597737
  0
LWPOLYLINE
  5
245
100
AcDbEntity
  8
CURVE
100
AcDbPolyline
 62
250
  6
CONTINUOUS
 90
16
 70
0
 10
-7.9973502524
 20
125.4946172987
 10
-8.0149145108
 20
125.4586670454
 10
-8.0240213138
 20
125.4138098563
 10
-8.023905212
 20
125.3625363661
 10
-8.0145712796
 20
125.3070874722
 10
-7.9964274542
 20
125.2498865574
 10
-7.9707626661
 20
125.1943548293
 10
-7.9378318321
 20
125.1410438598
 10
-7.8994449873
 20
125.0932377721
 10
-7.8572798209
 20
125.0530259215
 10
-7.8131791531
 20
125.0221657589
 10
-7.769795094
 20
125.0022488783
 10
-7.7275585583
 20
124.9934731053
 10
-7.6890559628
 20
124.9966517641
 10
-7.6559700557
 20
125.0116459321
 10
-7.6297468495
 20
125.0378002928
  0
LINE
  5
246
100
AcDbEntity
  8
RACCORDO
100
AcDbLine
 62
250
  6
CONTINUOUS
 10
35.9221973748
 20
100.7339982079
 11
34.5079838124
 21
99.9174490212
  0
LINE
  5
247
100
AcDbEntity
  8
ASSI
100
AcDbLine
 62
7
  6
CONTINUOUS
 10
43.0628029743
 20
95.1572868647
 11
41.6485894119
 21
94.3407376781
  0
LINE
  5
248
100
AcDbEntity
  8
CURVE
100
AcDbLine
 62
250
  6
CONTINUOUS
 10
3.2785583721
 20
113.1031471546
 11
3.1324577719
 21
112.8501095351
  0
LINE
  5
249
100
AcDbEntity
  8
CURVE
100
AcDbLine
 62
250
  6
CONTINUOUS
 10
3.481141122
 20
112.3585980249
 11
3.6715158658
 21
112.6883158489
  0
LWPOLYLINE
  5
24A
100
AcDbEntity
  8
RACCORDO
100
AcDbPolyline
 62
7
  6
CONTINUOUS
 90
6
 70
0
 10
4.359944251
 20
100.2353282569
 10
4.3406704494
 20
100.2101402535
 10
4.3197273431
 20
100.187032766
 10
4.297206274
 20
100.1661601464
 10
4.2731200882
 20
100.1475042008
 10
4.2476901004
 20
100.1312315835
  0
LINE
  5
24B
100
AcDbEntity
  8
RACCORDO
100
AcDbLine
 62
7
  6
CONTINUOUS
 10
-33.1210728852
 20
-105.3150733884
 11
-31.7490944753
 21
-112.0194512909
  0
LINE
  5
24C
100
AcDbEntity
  8
ASSI
100
AcDbLine
 62
7
  6
CONTINUOUS
 10
-43.0628029743
 20
143.2520339588
 11
-43.0628029743
 21
-95.1572868647
  0
LWPOLYLINE
  5
24D
100
AcDbEntity
  8
RACCORDO
100
AcDbPolyline
 62
7
  6
CONTINUOUS
 90
34
 70
0
 10
-32.8804653252
 20
-84.3394660285
 10
-32.8788333598
 20
-84.4183978423
 10
-32.8740351415
 20
-84.4986321637
 10
-32.8660706702
 20
-84.5801689927
 10
-32.8549076077
 20
-84.6631986499
 10
-32.8405782923
 20
-84.7475308147
 10
-32.8231797391
 20
-84.8325945253
 10
-32.8026911211
 20
-84.9183947458
 10
-32.7791332652
 20
-85.0049265122
 10
-32.7526656674
 20
-85.0916039705
 10
-32.723268583
 20
-85.1784281093
 10
-32.6909617567
 20
-85.2653979401
 10
-32.6559639183
 20
-85.3519246429
 10
-32.6182568075
 20
-85.438005211
 10
-32.5778586845
 20
-85.5236426511
 10
-32.5350430606
 20
-85.6082571643
 10
-32.4897935313
 20
-85.6918418094
 10
-32.442126501
 20
-85.7744035276
 10
-32.3923646942
 20
-85.8553833438
 10
-32.3404938964
 20
-85.9347705237
 10
-32.286528322
 20
-86.0125758015
 10
-32.2308333392
 20
-86.088272405
 10
-32.1733972127
 20
-86.1618460255
 10
-32.1142316778
 20
-86.2333109718
 10
-32.0537373082
 20
-86.3021833982
 10
-31.9919050869
 20
-86.3684457127
 10
-31.9287440311
 20
-86.4321155073
 10
-31.8646817656
 20
-86.4927617125
 10
-31.7997121753
 20
-86.5503638113
 10
-31.7338413755
 20
-86.6049423207
 10
-31.6675153372
 20
-86.656127723
 10
-31.6008827175
 20
-86.7037968454
 10
-31.5337948594
 20
-86.7480728607
 10
-31.4662517628
 20
-86.7889557688
  0
LWPOLYLINE
  5
24E
100
AcDbEntity
  8
RACCORDO
100
AcDbPolyline
 62
7
  6
CONTINUOUS
 90
34
 70
0
 10
-28.1074945522
 20
-91.994299014
 10
-28.1091265176
 20
-91.9153672002
 10
-28.1139247359
 20
-91.8351328788
 10
-28.1218892071
 20
-91.7535960498
 10
-28.1330522696
 20
-91.6705663926
 10
-28.147381585
 20
-91.5862342278
 10
-28.1647801383
 20
-91.5011705172
 10
-28.1852687563
 20
-91.4153702967
 10
-28.2088266121
 20
-91.3288385303
 10
-28.2352942099
 20
-91.242161072
 10
-28.2646912943
 20
-91.1553369332
 10
-28.2969981206
 20
-91.0683671024
 10
-28.331995959
 20
-90.9818403996
 10
-28.3697030699
 20
-90.8957598316
 10
-28.4101011928
 20
-90.8101223914
 10
-28.4529168167
 20
-90.7255078782
 10
-28.498166346
 20
-90.6419232331
 10
-28.5458333763
 20
-90.5593615149
 10
-28.5955951831
 20
-90.4783816987
 10
-28.647465981
 20
-90.3989945188
 10
-28.7014315553
 20
-90.3211892411
 10
-28.7571265381
 20
-90.2454926375
 10
-28.8145626646
 20
-90.171919017
 10
-28.8737281996
 20
-90.1004540707
 10
-28.9342225691
 20
-90.0315816443
 10
-28.9960547904
 20
-89.9653193298
 10
-29.0592158463
 20
-89.9016495352
 10
-29.1232781117
 20
-89.84100333
 10
-29.188247702
 20
-89.7834012312
 10
-29.2541185018
 20
-89.7288227218
 10
-29.3204445401
 20
-89.6776373195
 10
-29.3870771598
 20
-89.6299681971
 10
-29.454165018
 20
-89.5856921818
 10
-29.5217081145
 20
-89.5448092737
  0
LINE
  5
24F
100
AcDbEntity
  8
RACCORDO
100
AcDbLine
 62
7
  6
CONTINUOUS
 10
-34.2946788875
 20
-85.1560152152
 11
-34.2946788875
 21
108.6740284954
  0
LINE
  5
250
100
AcDbEntity
  8
RACCORDO
100
AcDbLine
 62
7
  6
CONTINUOUS
 10
-32.8804653252
 20
109.4905776821
 11
-32.8804653252
 21
-84.3394660285
  0
LWPOLYLINE
  5
251
100
AcDbEntity
  8
RACCORDO
100
AcDbPolyline
 62
7
  6
CONTINUOUS
 90
18
 70
0
 10
-34.2946788875
 20
108.6740284954
 10
-34.2930469221
 20
108.7510757565
 10
-34.2882487038
 20
108.8257692156
 10
-34.2802842326
 20
108.8981088729
 10
-34.2691211701
 20
108.9682477053
 10
-34.2547918547
 20
109.0360327358
 10
-34.2373933015
 20
109.1010050333
 10
-34.2169046834
 20
109.1631455113
 10
-34.1933468276
 20
109.2224732562
 10
-34.1668792298
 20
109.278586596
 10
-34.1374821454
 20
109.3314637187
 10
-34.1051753191
 20
109.3811264362
 10
-34.0701774807
 20
109.4272385125
 10
-34.0324703698
 20
109.4697758541
 10
-33.9920722469
 20
109.5087625545
 10
-33.949256623
 20
109.5439346584
 10
-33.9040070937
 20
109.5752662813
 10
-33.8805039157
 20
109.5894853663
  0
LWPOLYLINE
  5
252
100
AcDbEntity
  8
RACCORDO
100
AcDbPolyline
 62
7
  6
CONTINUOUS
 90
13
 70
0
 10
-28.1074945522
 20
118.5733853709
 10
-28.1067107192
 20
118.5998204399
 10
-28.1044462428
 20
118.6250605345
 10
-28.1007011229
 20
118.6491056546
 10
-28.0954467237
 20
118.6720482665
 10
-28.088711681
 20
118.693795904
 10
-28.0805819028
 20
118.7140711684
 10
-28.0710395226
 20
118.7328551988
 10
-28.0601024068
 20
118.7501668562
 10
-28.0479100622
 20
118.7657853241
 10
-28.0344464094
 20
118.7796889133
 10
-28.0197275277
 20
118.7918993131
 10
-28.0039532416
 20
118.8022538015
  0
LINE
  5
253
100
AcDbEntity
  8
CURVE
100
AcDbLine
 62
250
  6
CONTINUOUS
 10
3.4376268358
 20
113.5623142318
 11
3.2785583721
 21
113.1031471546
  0
LINE
  5
254
100
AcDbEntity
  8
CURVE
100
AcDbLine
 62
250
  6
CONTINUOUS
 10
3.6715158658
 20
112.6883158489
 11
3.8618909046
 21
113.2378524954
  0
LWPOLYLINE
  5
255
100
AcDbEntity
  8
RACCORDO
100
AcDbPolyline
 62
7
  6
CONTINUOUS
 90
25
 70
0
 10
-26.6932809898
 20
-94.0353957961
 10
-26.6924971568
 20
-94.0627360158
 10
-26.6902326804
 20
-94.090591071
 10
-26.6864875605
 20
-94.1189609616
 10
-26.6812331613
 20
-94.1479712221
 10
-26.6744981187
 20
-94.177496318
 10
-26.6663683404
 20
-94.2071596465
 10
-26.6568259603
 20
-94.2369629784
 10
-26.6458888445
 20
-94.2669045428
 10
-26.6336964998
 20
-94.2966024248
 10
-26.620232847
 20
-94.3260535028
 10
-26.6055139653
 20
-94.3552608982
 10
-26.5897275992
 20
-94.3838520607
 10
-26.5728600744
 20
-94.4118190963
 10
-26.5549250652
 20
-94.4391698989
 10
-26.5361513388
 20
-94.4655555995
 10
-26.5165281515
 20
-94.4909638353
 10
-26.4960662471
 20
-94.5154069691
 10
-26.4750266242
 20
-94.5385732202
 10
-26.4534018825
 20
-94.560446232
 10
-26.4311994224
 20
-94.581042361
 10
-26.408702444
 20
-94.6000988965
 10
-26.3860053474
 20
-94.6175282682
 10
-26.3630137324
 20
-94.6334180464
 10
-26.3397275992
 20
-94.6477682312
  0
LINE
  5
256
100
AcDbEntity
  8
RACCORDO
100
AcDbLine
 62
7
  6
CONTINUOUS
 10
-28.1074945522
 20
118.5733853709
 11
-28.1074945522
 21
108.367506911
  0
LINE
  5
257
100
AcDbEntity
  8
RACCORDO
100
AcDbLine
 62
7
  6
CONTINUOUS
 10
-28.1074945522
 20
-91.994299014
 11
-28.1074945522
 21
-94.8519449827
  0
LINE
  5
258
100
AcDbEntity
  8
RACCORDO
100
AcDbLine
 62
7
  6
CONTINUOUS
 10
-26.6932809898
 20
118.1650713226
 11
-26.6932809898
 21
109.1840560976
  0
LINE
  5
259
100
AcDbEntity
  8
RACCORDO
100
AcDbLine
 62
7
  6
CONTINUOUS
 10
-26.6932809898
 20
-91.1777498273
 11
-26.6932809898
 21
-94.0353957961
  0
LWPOLYLINE
  5
25A
100
AcDbEntity
  8
RACCORDO
100
AcDbPolyline
 62
7
  6
CONTINUOUS
 90
18
 70
0
 10
-26.6932809898
 20
109.1840560976
 10
-26.6949129552
 20
109.1070088366
 10
-26.6997111735
 20
109.0323153775
 10
-26.7076756447
 20
108.9599757202
 10
-26.7188387072
 20
108.8898368878
 10
-26.7331680226
 20
108.8220518572
 10
-26.7505665759
 20
108.7570795598
 10
-26.7710551939
 20
108.6949390818
 10
-26.7946130498
 20
108.6356113368
 10
-26.8210806476
 20
108.579497997
 10
-26.8504777319
 20
108.5266208744
 10
-26.8827845583
 20
108.4769581569
 10
-26.9177823966
 20
108.4308460805
 10
-26.9554895075
 20
108.388308739
 10
-26.9958876305
 20
108.3493220386
 10
-27.0387032544
 20
108.3141499346
 10
-27.0839527837
 20
108.2828183118
 10
-27.1074559617
 20
108.2685992267
  0
LINE
  5
25B
100
AcDbEntity
  8
CURVE
100
AcDbLine
 62
250
  6
CONTINUOUS
 10
9.4886938767
 20
113.6636438638
 11
9.3926925073
 21
113.3865272685
  0
LINE
  5
25C
100
AcDbEntity
  8
CURVE
100
AcDbLine
 62
250
  6
CONTINUOUS
 10
9.7635126818
 20
112.907794752
 11
9.8911859526
 21
113.276335142
  0
LWPOLYLINE
  5
25D
100
AcDbEntity
  8
CURVE
100
AcDbPolyline
 62
250
  6
CONTINUOUS
 90
17
 70
0
 10
9.8911859526
 20
113.276335142
 10
9.9003829318
 20
113.3176346001
 10
9.9015642015
 20
113.3647372095
 10
9.8946847676
 20
113.4158488462
 10
9.87967667
 20
113.4699786259
 10
9.8576365143
 20
113.5231714155
 10
9.829208847
 20
113.5743385228
 10
9.795476469
 20
113.6215310086
 10
9.7570221651
 20
113.6636284855
 10
9.7166556989
 20
113.6975549918
 10
9.6752716365
 20
113.7228135996
 10
9.634446284
 20
113.7384422163
 10
9.5950717835
 20
113.7438472593
 10
9.5600251352
 20
113.7386337951
 10
9.5299269002
 20
113.7231877535
 10
9.505923511
 20
113.6980974694
 10
9.4886938564
 20
113.6636438608
  0
LWPOLYLINE
  5
25E
100
AcDbEntity
  8
RACCORDO
100
AcDbPolyline
 62
7
  6
CONTINUOUS
 90
25
 70
0
 10
1.4849242405
 20
-110.3051383402
 10
1.4857080735
 20
-110.3324785599
 10
1.4879725499
 20
-110.3603336151
 10
1.4917176698
 20
-110.3887035057
 10
1.496972069
 20
-110.4177137662
 10
1.5037071116
 20
-110.4472388621
 10
1.5118368899
 20
-110.4769021906
 10
1.52137927
 20
-110.5067055225
 10
1.5323163858
 20
-110.536647087
 10
1.5445087305
 20
-110.5663449689
 10
1.5579723833
 20
-110.5957960469
 10
1.572691265
 20
-110.6250034423
 10
1.5884776311
 20
-110.6535946048
 10
1.6053451559
 20
-110.6815616404
 10
1.6232801651
 20
-110.708912443
 10
1.6420538915
 20
-110.7352981436
 10
1.6616770788
 20
-110.7607063795
 10
1.6821389832
 20
-110.7851495132
 10
1.703178606
 20
-110.8083157643
 10
1.7248033478
 20
-110.8301887761
 10
1.7470058079
 20
-110.8507849051
 10
1.7695027863
 20
-110.8698414406
 10
1.7921998829
 20
-110.8872708123
 10
1.8151914979
 20
-110.9031605906
 10
1.8384776311
 20
-110.9175107753
  0
LWPOLYLINE
  5
25F
100
AcDbEntity
  8
RACCORDO
100
AcDbPolyline
 62
7
  6
CONTINUOUS
 90
31
 70
0
 10
0.0707106781
 20
-109.8969821117
 10
0.0697195648
 20
-109.8534857148
 10
0.0668176788
 20
-109.8092355052
 10
0.0620050203
 20
-109.764231483
 10
0.0552579666
 20
-109.7183463956
 10
0.0466001402
 20
-109.6717074956
 10
0.0361024089
 20
-109.6246965398
 10
0.023749671
 20
-109.5773104747
 10
0.0095570281
 20
-109.5295523539
 10
-0.0063593477
 20
-109.4818130957
 10
-0.0240136044
 20
-109.4340928549
 10
-0.043391594
 20
-109.3863914768
 10
-0.0643347003
 20
-109.3390994151
 10
-0.0868557693
 20
-109.2922200294
 10
-0.1109419551
 20
-109.2457499602
 10
-0.1363961031
 20
-109.2000695825
 10
-0.1632294411
 20
-109.155185378
 10
-0.1914307413
 20
-109.111090865
 10
-0.2207691653
 20
-109.0681469739
 10
-0.2512540464
 20
-109.0263631486
 10
-0.2828760514
 20
-108.9857299451
 10
-0.3153763421
 20
-108.9465799616
 10
-0.3487621274
 20
-108.908925372
 10
-0.3830261984
 20
-108.8727540023
 10
-0.4178880908
 20
-108.8383619289
 10
-0.4533527114
 20
-108.805763756
 10
-0.4894151534
 20
-108.7749448793
 10
-0.525780232
 20
-108.7461575631
 10
-0.5623495524
 20
-108.7194858954
 10
-0.5992215094
 20
-108.6948457883
 10
-0.6363961031
 20
-108.6722372415
  0
LWPOLYLINE
  5
260
100
AcDbEntity
  8
RACCORDO
100
AcDbPolyline
 62
7
  6
CONTINUOUS
 90
31
 70
0
 10
-4.4547727215
 20
104.1001299473
 10
-4.4537816081
 20
104.0566335504
 10
-4.4508797222
 20
104.0123833409
 10
-4.4460670636
 20
103.9673793186
 10
-4.4393200099
 20
103.9214942312
 10
-4.4306621836
 20
103.8748553312
 10
-4.4201644523
 20
103.8278443755
 10
-4.4078117144
 20
103.7804583103
 10
-4.3936190714
 20
103.7327001895
 10
-4.3777026956
 20
103.6849609313
 10
-4.3600484389
 20
103.6372406905
 10
-4.3406704494
 20
103.5895393124
 10
-4.3197273431
 20
103.5422472507
 10
-4.297206274
 20
103.495367865
 10
-4.2731200882
 20
103.4488977958
 10
-4.2476659403
 20
103.4032174181
 10
-4.2208326023
 20
103.3583332136
 10
-4.1926313021
 20
103.3142387006
 10
-4.1632928781
 20
103.2712948095
 10
-4.1328079969
 20
103.2295109842
 10
-4.101185992
 20
103.1888777807
 10
-4.0686857012
 20
103.1497277972
 10
-4.035299916
 20
103.1120732076
 10
-4.0010358449
 20
103.0759018379
 10
-3.9661739525
 20
103.0415097646
 10
-3.9307093319
 20
103.0089115916
 10
-3.89464689
 20
102.9780927149
 10
-3.8582818113
 20
102.9493053987
 10
-3.821712491
 20
102.9226337311
 10
-3.784840534
 20
102.8979936239
 10
-3.7476659403
 20
102.8753850772
  0
LINE
  5
261
100
AcDbEntity
  8
CURVE
100
AcDbLine
 62
250
  6
CONTINUOUS
 10
-6.576093065
 20
123.8180054966
 11
-6.576093065
 21
117.2862432823
  0
LINE
  5
262
100
AcDbEntity
  8
CURVE
100
AcDbLine
 62
250
  6
CONTINUOUS
 10
-6.1518289963
 20
123.5730407406
 11
-6.1518289963
 21
117.0412785263
  0
LINE
  5
263
100
AcDbEntity
  8
RACCORDO
100
AcDbLine
 62
7
  6
CONTINUOUS
 10
-4.4547727215
 20
104.9166002241
 11
-4.4547727215
 21
104.1001299473
  0
LINE
  5
264
100
AcDbEntity
  8
RACCORDO
100
AcDbLine
 62
7
  6
CONTINUOUS
 10
-1.4849242405
 20
-108.9987780063
 11
-1.4849242405
 21
-110.2234834215
  0
LINE
  5
265
100
AcDbEntity
  8
CURVE
100
AcDbLine
 62
250
  6
CONTINUOUS
 10
-0.7071067812
 20
121.5661044286
 11
-0.7071067812
 21
115.8759344962
  0
LINE
  5
266
100
AcDbEntity
  8
CURVE
100
AcDbLine
 62
250
  6
CONTINUOUS
 10
-0.2828427125
 20
115.7104666694
 11
-0.2828427125
 21
121.3211396726
  0
LINE
  5
267
100
AcDbEntity
  8
RACCORDO
100
AcDbLine
 62
7
  6
CONTINUOUS
 10
0.0707106781
 20
-111.1216875269
 11
0.0707106781
 21
-109.8969821117
  0
LWPOLYLINE
  5
268
100
AcDbEntity
  8
RACCORDO
100
AcDbPolyline
 62
7
  6
CONTINUOUS
 90
13
 70
0
 10
3.0405591591
 20
100.5888895348
 10
3.0413429921
 20
100.6153246038
 10
3.0436074685
 20
100.6405646984
 10
3.0473525884
 20
100.6646098185
 10
3.0526069876
 20
100.6875524304
 10
3.0593420302
 20
100.7093000679
 10
3.0674718085
 20
100.7295753323
 10
3.0770141886
 20
100.7483593628
 10
3.0879513044
 20
100.7656710201
 10
3.1001436491
 20
100.781289488
 10
3.1136073019
 20
100.7951930772
 10
3.1283261836
 20
100.807403477
 10
3.1441004696
 20
100.8177579654
  0
LWPOLYLINE
  5
269
100
AcDbEntity
  8
CURVE
100
AcDbPolyline
 62
250
  6
CONTINUOUS
 90
17
 70
0
 10
-6.576093065
 20
117.2862432823
 10
-6.5720530434
 20
117.2363346521
 10
-6.5600868616
 20
117.1836617104
 10
-6.5406503079
 20
117.1302307531
 10
-6.5139610307
 20
117.0771695235
 10
-6.4819691513
 20
117.0283550783
 10
-6.4454823793
 20
116.9846981988
 10
-6.4058904844
 20
116.9478617622
 10
-6.3639610307
 20
116.9188198213
 10
-6.3227577026
 20
116.8996944009
 10
-6.2831237965
 20
116.8906271916
 10
-6.2465689555
 20
116.8919635606
 10
-6.2139610307
 20
116.9039532834
 10
-6.1876826047
 20
116.9257202999
 10
-6.1681185692
 20
116.956554209
 10
-6.1560141122
 20
116.9952805567
 10
-6.1518289963
 20
117.0412785477
  0
LWPOLYLINE
  5
26A
100
AcDbEntity
  8
CURVE
100
AcDbPolyline
 62
250
  6
CONTINUOUS
 90
17
 70
0
 10
-6.1518289963
 20
123.5730407406
 10
-6.155869018
 20
123.6229493708
 10
-6.1678351997
 20
123.6756223126
 10
-6.1872717534
 20
123.7290532698
 10
-6.2139610307
 20
123.7821144994
 10
-6.2459529101
 20
123.8309289447
 10
-6.2824396821
 20
123.8745858241
 10
-6.322031577
 20
123.9114222607
 10
-6.3639610307
 20
123.9404642017
 10
-6.4051643587
 20
123.959589622
 10
-6.4447982648
 20
123.9686568313
 10
-6.4813531058
 20
123.9673204623
 10
-6.5139610307
 20
123.9553307395
 10
-6.5402394567
 20
123.9335637231
 10
-6.5598034922
 20
123.902729814
 10
-6.5719079492
 20
123.8640034662
 10
-6.576093065
 20
123.8180054752
  0
LWPOLYLINE
  5
26B
100
AcDbEntity
  8
CURVE
100
AcDbPolyline
 62
250
  6
CONTINUOUS
 90
17
 70
0
 10
-0.2828427125
 20
121.3211396726
 10
-0.2868827341
 20
121.3710483028
 10
-0.2988489159
 20
121.4237212445
 10
-0.3182854696
 20
121.4771522017
 10
-0.3449747468
 20
121.5302134313
 10
-0.3769666262
 20
121.5790278766
 10
-0.4134533982
 20
121.622684756
 10
-0.4530452931
 20
121.6595211927
 10
-0.4949747468
 20
121.6885631336
 10
-0.5361780749
 20
121.707688554
 10
-0.575811981
 20
121.7167557632
 10
-0.612366822
 20
121.7154193943
 10
-0.6449747468
 20
121.7034296714
 10
-0.6712531728
 20
121.681662655
 10
-0.6908172083
 20
121.6508287459
 10
-0.7029216653
 20
121.6121023981
 10
-0.7071067812
 20
121.5661044072
  0
LINE
  5
26C
100
AcDbEntity
  8
RACCORDO
100
AcDbLine
 62
7
  6
CONTINUOUS
 10
1.4849242405
 20
-110.3051383402
 11
1.4849242405
 21
-109.080432925
  0
LINE
  5
26D
100
AcDbEntity
  8
RACCORDO
100
AcDbLine
 62
7
  6
CONTINUOUS
 10
3.0405591591
 20
99.772419258
 11
3.0405591591
 21
100.5888895348
  0
LINE
  5
26E
100
AcDbEntity
  8
CURVE
100
AcDbLine
 62
250
  6
CONTINUOUS
 10
3.4376268358
 20
119.1729871838
 11
3.4376268358
 21
113.5623142318
  0
LINE
  5
26F
100
AcDbEntity
  8
CURVE
100
AcDbLine
 62
250
  6
CONTINUOUS
 10
3.8618909046
 20
113.2378524954
 11
3.8618909046
 21
118.9280224278
  0
LINE
  5
270
100
AcDbEntity
  8
CURVE
100
AcDbLine
 62
250
  6
CONTINUOUS
 10
5.3848903298
 20
118.0486616473
 11
5.3848903298
 21
110.6250624595
  0
LINE
  5
271
100
AcDbEntity
  8
CURVE
100
AcDbLine
 62
250
  6
CONTINUOUS
 10
5.8091543985
 20
110.3800977035
 11
5.8091543985
 21
117.8036968913
  0
LWPOLYLINE
  5
272
100
AcDbEntity
  8
RACCORDO
100
AcDbPolyline
 62
7
  6
CONTINUOUS
 90
13
 70
0
 10
-1.4849242405
 20
-110.2234834215
 10
-1.4857080735
 20
-110.2499184905
 10
-1.4879725499
 20
-110.2751585851
 10
-1.4917176698
 20
-110.2992037052
 10
-1.496972069
 20
-110.3221463172
 10
-1.5037071116
 20
-110.3438939547
 10
-1.5118368899
 20
-110.3641692191
 10
-1.52137927
 20
-110.3829532495
 10
-1.5323163858
 20
-110.4002649068
 10
-1.5445087305
 20
-110.4158833748
 10
-1.5579723833
 20
-110.4297869639
 10
-1.572691265
 20
-110.4419973637
 10
-1.588465551
 20
-110.4523518521
  0
LWPOLYLINE
  5
273
100
AcDbEntity
  8
CURVE
100
AcDbPolyline
 62
250
  6
CONTINUOUS
 90
17
 70
0
 10
3.8618909046
 20
118.9280224278
 10
3.8578508829
 20
118.977931058
 10
3.8458847012
 20
119.0306039997
 10
3.8264481475
 20
119.084034957
 10
3.7997588702
 20
119.1370961866
 10
3.7677669908
 20
119.1859106318
 10
3.7312802188
 20
119.2295675113
 10
3.6916883239
 20
119.2664039479
 10
3.6497588702
 20
119.2954458888
 10
3.6085555421
 20
119.3145713092
 10
3.568921636
 20
119.3236385185
 10
3.5323667951
 20
119.3223021495
 10
3.4997588702
 20
119.3103124267
 10
3.4734804442
 20
119.2885454102
 10
3.4539164087
 20
119.2577115011
 10
3.4418119517
 20
119.2189851534
 10
3.4376268358
 20
119.1729871624
  0
LWPOLYLINE
  5
274
100
AcDbEntity
  8
CURVE
100
AcDbPolyline
 62
250
  6
CONTINUOUS
 90
17
 70
0
 10
5.3848903298
 20
110.6250624595
 10
5.3889303515
 20
110.5751538292
 10
5.4008965332
 20
110.5224808875
 10
5.4203330869
 20
110.4690499303
 10
5.4470223642
 20
110.4159887007
 10
5.4790142436
 20
110.3671742554
 10
5.5155010156
 20
110.323517376
 10
5.5550929105
 20
110.2866809394
 10
5.5970223642
 20
110.2576389984
 10
5.6382256922
 20
110.2385135781
 10
5.6778595984
 20
110.2294463688
 10
5.7144144393
 20
110.2307827378
 10
5.7470223642
 20
110.2427724606
 10
5.7733007902
 20
110.264539477
 10
5.7928648257
 20
110.2953733861
 10
5.8049692827
 20
110.3340997339
 10
5.8091543985
 20
110.3800977249
  0
LWPOLYLINE
  5
275
100
AcDbEntity
  8
CURVE
100
AcDbPolyline
 62
250
  6
CONTINUOUS
 90
17
 70
0
 10
5.8091543985
 20
117.8036968913
 10
5.8051143769
 20
117.8536055215
 10
5.7931481951
 20
117.9062784633
 10
5.7737116414
 20
117.9597094205
 10
5.7470223642
 20
118.0127706501
 10
5.7150304848
 20
118.0615850954
 10
5.6785437128
 20
118.1052419748
 10
5.6389518179
 20
118.1420784114
 10
5.5970223642
 20
118.1711203524
 10
5.5558190361
 20
118.1902457727
 10
5.51618513
 20
118.199312982
 10
5.479630289
 20
118.197976613
 10
5.4470223642
 20
118.1859868902
 10
5.4207439382
 20
118.1642198737
 10
5.4011799027
 20
118.1333859646
 10
5.3890754457
 20
118.0946596169
 10
5.3848903298
 20
118.0486616259
  0
LWPOLYLINE
  5
276
100
AcDbEntity
  8
RACCORDO
100
AcDbPolyline
 62
7
  6
CONTINUOUS
 90
34
 70
0
 10
26.6932809898
 20
76.7262259281
 10
26.6949129552
 20
76.6472941143
 10
26.6997111735
 20
76.5670597929
 10
26.7076756447
 20
76.4855229639
 10
26.7188387072
 20
76.4024933067
 10
26.7331680226
 20
76.3181611419
 10
26.7505665759
 20
76.2330974313
 10
26.7710551939
 20
76.1472972108
 10
26.7946130498
 20
76.0607654444
 10
26.8210806476
 20
75.9740879861
 10
26.8504777319
 20
75.8872638473
 10
26.8827845583
 20
75.8002940165
 10
26.9177823966
 20
75.7137673137
 10
26.9554895075
 20
75.6276867457
 10
26.9958876305
 20
75.5420493055
 10
27.0387032544
 20
75.4574347923
 10
27.0839527837
 20
75.3738501472
 10
27.131619814
 20
75.291288429
 10
27.1813816208
 20
75.2103086128
 10
27.2332524186
 20
75.130921433
 10
27.2872179929
 20
75.0531161552
 10
27.3429129757
 20
74.9774195516
 10
27.4003491022
 20
74.9038459311
 10
27.4595146372
 20
74.8323809848
 10
27.5200090068
 20
74.7635085584
 10
27.581841228
 20
74.6972462439
 10
27.6450022839
 20
74.6335764493
 10
27.7090645493
 20
74.5729302441
 10
27.7740341396
 20
74.5153281453
 10
27.8399049395
 20
74.4607496359
 10
27.9062309778
 20
74.4095642336
 10
27.9728635974
 20
74.3618951112
 10
28.0399514556
 20
74.3176190959
 10
28.1074945522
 20
74.2767361878
  0
LINE
  5
277
100
AcDbEntity
  8
RACCORDO
100
AcDbLine
 62
7
  6
CONTINUOUS
 10
26.6932809898
 20
-126.4932259656
 11
26.6932809898
 21
-123.6355799969
  0
LINE
  5
278
100
AcDbEntity
  8
RACCORDO
100
AcDbLine
 62
7
  6
CONTINUOUS
 10
26.6932809898
 20
76.7262259281
 11
26.6932809898
 21
86.932104388
  0
LWPOLYLINE
  5
279
100
AcDbEntity
  8
RACCORDO
100
AcDbPolyline
 62
7
  6
CONTINUOUS
 90
13
 70
0
 10
26.6932809898
 20
-126.4932259656
 10
26.6924971568
 20
-126.5196610346
 10
26.6902326804
 20
-126.5449011292
 10
26.6864875605
 20
-126.5689462493
 10
26.6812331613
 20
-126.5918888613
 10
26.6744981187
 20
-126.6136364988
 10
26.6663683404
 20
-126.6339117632
 10
26.6568259603
 20
-126.6526957936
 10
26.6458888445
 20
-126.6700074509
 10
26.6336964998
 20
-126.6856259189
 10
26.620232847
 20
-126.699529508
 10
26.6055139653
 20
-126.7117399079
 10
26.5897396793
 20
-126.7220943962
  0
LINE
  5
27A
100
AcDbEntity
  8
CURVE
100
AcDbLine
 62
250
  6
CONTINUOUS
 10
-0.7071067812
 20
115.8759344962
 11
-0.5167318715
 21
115.1065576014
  0
LINE
  5
27B
100
AcDbEntity
  8
CURVE
100
AcDbLine
 62
250
  6
CONTINUOUS
 10
-0.1237743875
 20
115.0676115047
 11
-0.2828427125
 21
115.7104666694
  0
LINE
  5
27C
100
AcDbEntity
  8
RACCORDO
100
AcDbLine
 62
7
  6
CONTINUOUS
 10
32.8804653252
 20
69.8879421293
 11
32.8804653252
 21
-123.9421015813
  0
LINE
  5
27D
100
AcDbEntity
  8
ASSI
100
AcDbLine
 62
7
  6
CONTINUOUS
 10
41.6485894119
 20
-144.0685831454
 11
41.6485894119
 21
94.3407376781
  0
LWPOLYLINE
  5
27E
100
AcDbEntity
  8
RACCORDO
100
AcDbPolyline
 62
7
  6
CONTINUOUS
 90
18
 70
0
 10
32.8804653252
 20
-123.9421015813
 10
32.8788333598
 20
-124.0191488424
 10
32.8740351415
 20
-124.0938423015
 10
32.8660706702
 20
-124.1661819588
 10
32.8549076077
 20
-124.2363207912
 10
32.8405782923
 20
-124.3041058217
 10
32.8231797391
 20
-124.3690781192
 10
32.8026911211
 20
-124.4312185972
 10
32.7791332652
 20
-124.4905463421
 10
32.7526656674
 20
-124.5466596819
 10
32.723268583
 20
-124.5995368046
 10
32.6909617567
 20
-124.6491995221
 10
32.6559639183
 20
-124.6953115984
 10
32.6182568075
 20
-124.73784894
 10
32.5778586845
 20
-124.7768356403
 10
32.5350430606
 20
-124.8120077443
 10
32.4897935313
 20
-124.8433393672
 10
32.4662903533
 20
-124.8575584522
  0
LINE
  5
27F
100
AcDbEntity
  8
CURVE
100
AcDbLine
 62
250
  6
CONTINUOUS
 10
-6.3639610307
 20
126.8131237116
 11
-5.0981752115
 21
123.5761025562
  0
LINE
  5
280
100
AcDbEntity
  8
CURVE
100
AcDbLine
 62
250
  6
CONTINUOUS
 10
-4.7305718089
 20
123.6084203677
 11
-6.1796048112
 21
127.3843668591
  0
LINE
  5
281
100
AcDbEntity
  8
CURVE
100
AcDbLine
 62
250
  6
CONTINUOUS
 10
-0.5167318715
 20
115.1065576014
 11
-0.3263569617
 21
114.5569996993
  0
LINE
  5
282
100
AcDbEntity
  8
CURVE
100
AcDbLine
 62
250
  6
CONTINUOUS
 10
0.0223263308
 20
114.6458605275
 11
-0.1237743875
 21
115.0676115047
  0
LINE
  5
283
100
AcDbEntity
  8
CURVE
100
AcDbLine
 62
250
  6
CONTINUOUS
 10
9.3926925083
 20
114.8356466708
 11
9.4886938921
 21
114.4476698707
  0
LINE
  5
284
100
AcDbEntity
  8
CURVE
100
AcDbLine
 62
250
  6
CONTINUOUS
 10
9.8911859954
 20
114.3701907467
 11
9.7635126818
 21
114.8861654311
  0
LINE
  5
285
100
AcDbEntity
  8
ASSI
100
AcDbLine
 62
7
  6
CONTINUOUS
 10
43.0628029743
 20
-143.2520339588
 11
43.0628029743
 21
95.1572868647
  0
LWPOLYLINE
  5
286
100
AcDbEntity
  8
CURVE
100
AcDbPolyline
 62
250
  6
CONTINUOUS
 90
16
 70
0
 10
-5.0981752115
 20
123.5761025562
 10
-5.0724489225
 20
123.5205871017
 10
-5.0394662969
 20
123.467312645
 10
-5.0010407514
 20
123.4195616108
 10
-4.9588516668
 20
123.3794209483
 10
-4.9147429083
 20
123.3486449971
 10
-4.8713666734
 20
123.3288200567
 10
-4.8291537989
 20
123.3201430395
 10
-4.7906896698
 20
123.3234214626
 10
-4.7576553532
 20
123.3385120433
 10
-4.7314946071
 20
123.3647552507
 10
-4.7135826733
 20
123.4003260244
 10
-4.7040974631
 20
123.4448710555
 10
-4.7038265603
 20
123.4959203142
 10
-4.7127818046
 20
123.5512427029
 10
-4.7305718093
 20
123.6084203687
  0
LWPOLYLINE
  5
287
100
AcDbEntity
  8
CURVE
100
AcDbPolyline
 62
250
  6
CONTINUOUS
 90
11
 70
0
 10
-6.1796048112
 20
127.3843668591
 10
-6.2054520669
 20
127.4409008617
 10
-6.238226925
 20
127.4943203949
 10
-6.2771721085
 20
127.5430317539
 10
-6.3193132281
 20
127.5833146701
 10
-6.3634056709
 20
127.6142589501
 10
-6.4082468186
 20
127.6347534232
 10
-6.450411985
 20
127.6432328498
 10
-6.4887988298
 20
127.6397549283
 10
-6.5222236994
 20
127.6241200221
 10
-6.548317254
 20
127.5972567946
  0
LWPOLYLINE
  5
288
100
AcDbEntity
  8
CURVE
100
AcDbPolyline
 62
250
  6
CONTINUOUS
 90
17
 70
0
 10
9.4886938842
 20
114.4476698722
 10
9.5055562568
 20
114.3942743971
 10
9.5294417466
 20
114.3414371612
 10
9.5594405627
 20
114.2911707183
 10
9.5950717865
 20
114.2446239255
 10
9.6337319298
 20
114.2051978451
 10
9.6745330188
 20
114.173531871
 10
9.7159209526
 20
114.1508321502
 10
9.7570221663
 20
114.1378264302
 10
9.7948334927
 20
114.1354650076
 10
9.8286494564
 20
114.1435197934
 10
9.8571820176
 20
114.1616839833
 10
9.8796766877
 20
114.1898379105
 10
9.894489835
 20
114.2259244351
 10
9.9015117404
 20
114.2689815966
 10
9.9004749416
 20
114.317369361
 10
9.8911859896
 20
114.3701907704
  0
LINE
  5
289
100
AcDbEntity
  8
RACCORDO
100
AcDbLine
 62
7
  6
CONTINUOUS
 10
31.7068593228
 20
104.4985242017
 11
30.3348809129
 21
111.2029021043
  0
LINE
  5
28A
100
AcDbEntity
  8
RACCORDO
100
AcDbLine
 62
250
  6
CONTINUOUS
 10
-34.2946788875
 20
-85.1560152152
 11
-32.8804653252
 21
-84.3394660285
  0
LINE
  5
28B
100
AcDbEntity
  8
RACCORDO
100
AcDbLine
 62
250
  6
CONTINUOUS
 10
-32.8804653252
 20
-87.6055049554
 11
-31.4662517628
 21
-86.7889557688
  0
LINE
  5
28C
100
AcDbEntity
  8
RACCORDO
100
AcDbLine
 62
250
  6
CONTINUOUS
 10
-28.1074945522
 20
-88.7282600871
 11
-29.5217081145
 21
-89.5448092737
  0
LINE
  5
28D
100
AcDbEntity
  8
CURVE
100
AcDbLine
 62
250
  6
CONTINUOUS
 10
-0.3263569617
 20
114.5569996993
 11
0.0543928577
 21
113.8975216677
  0
LINE
  5
28E
100
AcDbEntity
  8
CURVE
100
AcDbLine
 62
250
  6
CONTINUOUS
 10
0.3057095652
 20
114.1550263679
 11
0.0223263308
 21
114.6458605275
  0
LWPOLYLINE
  5
28F
100
AcDbEntity
  8
RACCORDO
100
AcDbPolyline
 62
7
  6
CONTINUOUS
 90
31
 70
0
 10
33.1210728852
 20
105.3150733884
 10
33.1582207627
 20
105.144955234
 10
33.2000676465
 20
104.9742612001
 10
33.2466135363
 20
104.8029912866
 10
33.2979383469
 20
104.6308991932
 10
33.3539621637
 20
104.4582312203
 10
33.4144452429
 20
104.2857262687
 10
33.4794066945
 20
104.1133850371
 10
33.5488274086
 20
103.9412068269
 10
33.622410312
 20
103.7699284431
 10
33.7001732414
 20
103.5995537419
 10
33.7820983601
 20
103.4300788672
 10
33.8678350846
 20
103.2622290555
 10
33.9573997492
 20
103.0960112711
 10
34.0507760196
 20
102.9314185497
 10
34.1475643091
 20
102.7691552358
 10
34.2477792397
 20
102.6092313119
 10
34.3514061894
 20
102.4516367955
 10
34.4580017057
 20
102.2970460833
 10
34.5675785102
 20
102.1454720481
 10
34.6801238814
 20
101.9969018172
 10
34.7951562018
 20
101.8519711696
 10
34.9126861292
 20
101.7106957026
 10
35.0327030059
 20
101.573059819
 10
35.1546932417
 20
101.4396525062
 10
35.2786652934
 20
101.3104918856
 10
35.4046107041
 20
101.1855598359
 10
35.5319905136
 20
101.0653909809
 10
35.6606250685
 20
100.9501635286
 10
35.7906940222
 20
100.8396992709
 10
35.9221973748
 20
100.7339982079
  0
LINE
  5
290
100
AcDbEntity
  8
RACCORDO
100
AcDbLine
 62
7
  6
CONTINUOUS
 10
33.1210728852
 20
105.3150733884
 11
31.7490944753
 21
112.0194512909
  0
LINE
  5
291
100
AcDbEntity
  8
RACCORDO
100
AcDbLine
 62
7
  6
CONTINUOUS
 10
30.3348809129
 20
-147.8659605851
 11
31.7068593228
 21
-142.7459089604
  0
LINE
  5
292
100
AcDbEntity
  8
RACCORDO
100
AcDbLine
 62
7
  6
CONTINUOUS
 10
31.7490944753
 20
-147.0494113984
 11
33.1210728852
 21
-141.9293597737
  0
LWPOLYLINE
  5
293
100
AcDbEntity
  8
RACCORDO
100
AcDbPolyline
 62
7
  6
CONTINUOUS
 90
15
 70
0
 10
31.7068593228
 20
-142.7459089604
 10
31.7440072004
 20
-142.6186882439
 10
31.7858540841
 20
-142.4963179424
 10
31.832399974
 20
-142.3787980558
 10
31.8837247845
 20
-142.2659745672
 10
31.9397486013
 20
-142.1580014936
 10
32.0002316805
 20
-142.0553408858
 10
32.0651931321
 20
-141.9580155102
 10
32.1346138462
 20
-141.8660026006
 10
32.2081967496
 20
-141.7796959092
 10
32.285959679
 20
-141.6991198897
 10
32.3678847978
 20
-141.6242500885
 10
32.4536215222
 20
-141.5554068972
 10
32.5431861868
 20
-141.4926161424
 10
32.6218107311
 20
-141.4442719104
  0
LINE
  5
294
100
AcDbEntity
  8
RACCORDO
100
AcDbLine
 62
250
  6
CONTINUOUS
 10
-26.6932809898
 20
-91.1777498273
 11
-28.1074945522
 21
-91.994299014
  0
LINE
  5
295
100
AcDbEntity
  8
RACCORDO
100
AcDbLine
 62
250
  6
CONTINUOUS
 10
-28.1074945522
 20
-94.8519449827
 11
-26.6932809898
 21
-94.0353957961
  0
LINE
  5
296
100
AcDbEntity
  8
RACCORDO
100
AcDbLine
 62
250
  6
CONTINUOUS
 10
-27.7539411616
 20
-95.4643174178
 11
-26.3397275992
 21
-94.6477682312
  0
LINE
  5
297
100
AcDbEntity
  8
CURVE
100
AcDbLine
 62
250
  6
CONTINUOUS
 10
9.1314459462
 20
115.2881385217
 11
9.3926925083
 21
114.8356466708
  0
LINE
  5
298
100
AcDbEntity
  8
CURVE
100
AcDbLine
 62
250
  6
CONTINUOUS
 10
9.7635126818
 20
114.8861654311
 11
9.3827626042
 21
115.5456432285
  0
LWPOLYLINE
  5
299
100
AcDbEntity
  8
RACCORDO
100
AcDbPolyline
 62
7
  6
CONTINUOUS
 90
18
 70
0
 10
-29.5217081145
 20
107.5511155441
 10
-29.454165018
 20
107.5140013772
 10
-29.3870771598
 20
107.4808060155
 10
-29.3204445401
 20
107.4515294589
 10
-29.2541185018
 20
107.4261232147
 10
-29.188247702
 20
107.4046357756
 10
-29.1232781117
 20
107.38721262
 10
-29.0592158463
 20
107.3738813269
 10
-28.9960547904
 20
107.3646143174
 10
-28.9342225691
 20
107.3594743326
 10
-28.8737281996
 20
107.3584893774
 10
-28.8145626646
 20
107.361631447
 10
-28.7571265381
 20
107.3688792683
 10
-28.7014315553
 20
107.3802607018
 10
-28.647465981
 20
107.395747887
 10
-28.5955951831
 20
107.4152359696
 10
-28.5458333763
 20
107.4387520987
 10
-28.521669524
 20
107.4520500401
  0
LINE
  5
29A
100
AcDbEntity
  8
RACCORDO
100
AcDbLine
 62
7
  6
CONTINUOUS
 10
31.4662517628
 20
72.3374318695
 11
28.1074945522
 21
74.2767361878
  0
LINE
  5
29B
100
AcDbEntity
  8
RACCORDO
100
AcDbLine
 62
7
  6
CONTINUOUS
 10
-29.5217081145
 20
107.5511155441
 11
-32.8804653252
 21
109.4904198624
  0
LWPOLYLINE
  5
29C
100
AcDbEntity
  8
RACCORDO
100
AcDbPolyline
 62
7
  6
CONTINUOUS
 90
34
 70
0
 10
31.4662517628
 20
72.3374318695
 10
31.5337948594
 20
72.2965489615
 10
31.6008827175
 20
72.2522729462
 10
31.6675153372
 20
72.2046038238
 10
31.7338413755
 20
72.1534184215
 10
31.7997121753
 20
72.0988399121
 10
31.8646817656
 20
72.0412378133
 10
31.9287440311
 20
71.980591608
 10
31.9919050869
 20
71.9169218135
 10
32.0537373082
 20
71.850659499
 10
32.1142316778
 20
71.7817870726
 10
32.1733972127
 20
71.7103221263
 10
32.2308333392
 20
71.6367485058
 10
32.286528322
 20
71.5610519022
 10
32.3404938964
 20
71.4832466244
 10
32.3923646942
 20
71.4038594446
 10
32.442126501
 20
71.3228796284
 10
32.4897935313
 20
71.2403179102
 10
32.5350430606
 20
71.1567332651
 10
32.5778586845
 20
71.0721187519
 10
32.6182568075
 20
70.9864813117
 10
32.6559639183
 20
70.9004007437
 10
32.6909617567
 20
70.8138740408
 10
32.723268583
 20
70.7269042101
 10
32.7526656674
 20
70.6400800713
 10
32.7791332652
 20
70.553402613
 10
32.8026911211
 20
70.4668708466
 10
32.8231797391
 20
70.3810706261
 10
32.8405782923
 20
70.2960069154
 10
32.8549076077
 20
70.2116747506
 10
32.8660706702
 20
70.1286450934
 10
32.8740351415
 20
70.0471082645
 10
32.8788333598
 20
69.9668739431
 10
32.8804653252
 20
69.8879421293
  0
LINE
  5
29D
100
AcDbEntity
  8
CURVE
100
AcDbLine
 62
250
  6
CONTINUOUS
 10
0.0543928577
 20
113.8975216677
 11
0.4351426402
 21
113.4578625863
  0
LINE
  5
29E
100
AcDbEntity
  8
CURVE
100
AcDbLine
 62
250
  6
CONTINUOUS
 10
0.5832236983
 20
113.8345754722
 11
0.3057095652
 21
114.1550263679
  0
LINE
  5
29F
100
AcDbEntity
  8
CURVE
100
AcDbLine
 62
250
  6
CONTINUOUS
 10
8.7424555653
 20
115.7373135064
 11
9.1314459462
 21
115.2881385217
  0
LINE
  5
2A0
100
AcDbEntity
  8
CURVE
100
AcDbLine
 62
250
  6
CONTINUOUS
 10
9.3827626042
 20
115.5456432285
 11
9.0020131166
 21
115.9853022886
  0
LWPOLYLINE
  5
2A1
100
AcDbEntity
  8
RACCORDO
100
AcDbPolyline
 62
7
  6
CONTINUOUS
 90
16
 70
0
 10
-1.2778416194
 20
-108.5410411452
 10
-1.3032716072
 20
-108.5573137625
 10
-1.327357793
 20
-108.5759697081
 10
-1.3498788621
 20
-108.5968423277
 10
-1.3708219684
 20
-108.6199498152
 10
-1.390199958
 20
-108.6452739767
 10
-1.4078542146
 20
-108.6726075244
 10
-1.4237705904
 20
-108.7019669508
 10
-1.4379632334
 20
-108.7333357633
 10
-1.4503159713
 20
-108.7664571963
 10
-1.4608137026
 20
-108.801345635
 10
-1.4694715289
 20
-108.8379866943
 10
-1.4762185826
 20
-108.8760804531
 10
-1.4810312412
 20
-108.9155269379
 10
-1.4839331272
 20
-108.9564261223
 10
-1.4849242405
 20
-108.9987780063
  0
LINE
  5
2A2
100
AcDbEntity
  8
RACCORDO
100
AcDbLine
 62
7
  6
CONTINUOUS
 10
-1.2778416194
 20
-108.5410411452
 11
0.1363719429
 21
-107.7244919585
  0
LINE
  5
2A3
100
AcDbEntity
  8
RACCORDO
100
AcDbLine
 62
250
  6
CONTINUOUS
 10
-0.7778174593
 20
-108.5905823229
 11
0.6363961031
 21
-107.7740331362
  0
LWPOLYLINE
  5
2A4
100
AcDbEntity
  8
RACCORDO
100
AcDbPolyline
 62
7
  6
CONTINUOUS
 90
16
 70
0
 10
2.3334523779
 20
99.3642235746
 10
2.3706269716
 20
99.3439038323
 10
2.4074989286
 20
99.3259651278
 10
2.444068249
 20
99.3104074609
 10
2.4804333276
 20
99.2972012958
 10
2.5164957696
 20
99.2863761685
 10
2.5519603901
 20
99.2780206865
 10
2.5868222826
 20
99.2721551203
 10
2.6210863536
 20
99.2687591996
 10
2.6544721389
 20
99.2678607213
 10
2.6869724296
 20
99.2694801837
 10
2.7185944346
 20
99.2735970885
 10
2.7490793157
 20
99.2801777372
 10
2.7784177397
 20
99.2892423517
 10
2.8066190399
 20
99.3007707101
 10
2.833476538
 20
99.3146823969
  0
LINE
  5
2A5
100
AcDbEntity
  8
RACCORDO
100
AcDbLine
 62
7
  6
CONTINUOUS
 10
-3.7476659403
 20
102.8753850772
 11
2.3334523779
 21
99.3642235746
  0
LINE
  5
2A6
100
AcDbEntity
  8
RACCORDO
100
AcDbLine
 62
7
  6
CONTINUOUS
 10
26.3397275992
 20
87.5444768231
 11
3.3941125497
 21
100.7929873765
  0
LINE
  5
2A7
100
AcDbEntity
  8
RACCORDO
100
AcDbLine
 62
7
  6
CONTINUOUS
 10
-4.8083261121
 20
105.5289726591
 11
-27.7539411616
 21
118.7774832126
  0
LWPOLYLINE
  5
2A8
100
AcDbEntity
  8
RACCORDO
100
AcDbPolyline
 62
7
  6
CONTINUOUS
 90
25
 70
0
 10
-4.8083261121
 20
105.5289726591
 10
-4.7850399788
 20
105.5146224744
 10
-4.7620483639
 20
105.4987326962
 10
-4.7393512672
 20
105.4813033245
 10
-4.7168542888
 20
105.462246789
 10
-4.6946518287
 20
105.4416506599
 10
-4.673027087
 20
105.4197776482
 10
-4.6519874642
 20
105.3966113971
 10
-4.6315255598
 20
105.3721682633
 10
-4.6119023725
 20
105.3467600275
 10
-4.5931286461
 20
105.3203743269
 10
-4.5751936369
 20
105.2930235243
 10
-4.5583261121
 20
105.2650564887
 10
-4.542539746
 20
105.2364653262
 10
-4.5278208643
 20
105.2072579307
 10
-4.5143572115
 20
105.1778068528
 10
-4.5021648668
 20
105.1481089708
 10
-4.491227751
 20
105.1181674064
 10
-4.4816853708
 20
105.0883640745
 10
-4.4735555926
 20
105.058700746
 10
-4.46682055
 20
105.02917565
 10
-4.4615661507
 20
105.0001653896
 10
-4.4578210309
 20
104.9717954989
 10
-4.4555565545
 20
104.9439404438
 10
-4.4547727215
 20
104.9166002241
  0
LWPOLYLINE
  5
2A9
100
AcDbEntity
  8
RACCORDO
100
AcDbPolyline
 62
7
  6
CONTINUOUS
 90
25
 70
0
 10
26.3397275992
 20
87.5444768231
 10
26.3630137324
 20
87.5301266384
 10
26.3860053474
 20
87.5142368601
 10
26.408702444
 20
87.4968074884
 10
26.4311994224
 20
87.4777509529
 10
26.4534018825
 20
87.4571548239
 10
26.4750266242
 20
87.4352818121
 10
26.4960662471
 20
87.412115561
 10
26.5165281515
 20
87.3876724272
 10
26.5361513388
 20
87.3622641914
 10
26.5549250652
 20
87.3358784908
 10
26.5728600744
 20
87.3085276882
 10
26.5897275992
 20
87.2805606526
 10
26.6055139653
 20
87.2519694901
 10
26.620232847
 20
87.2227620947
 10
26.6336964998
 20
87.1933110167
 10
26.6458888445
 20
87.1636131347
 10
26.6568259603
 20
87.1336715703
 10
26.6663683404
 20
87.1038682384
 10
26.6744981187
 20
87.0742049099
 10
26.6812331613
 20
87.044679814
 10
26.6864875605
 20
87.0156695535
 10
26.6902326804
 20
86.9872996629
 10
26.6924971568
 20
86.9594446077
 10
26.6932809898
 20
86.932104388
  0
LWPOLYLINE
  5
2AA
100
AcDbEntity
  8
CURVE
100
AcDbPolyline
 62
250
  6
CONTINUOUS
 90
17
 70
0
 10
1.0486454826
 20
112.9265364241
 10
1.0895984315
 20
112.8958774202
 10
1.1309511936
 20
112.8743058702
 10
1.1711286551
 20
112.862643428
 10
1.2092360894
 20
112.8614059292
 10
1.2424890778
 20
112.8706837949
 10
1.2703183221
 20
112.890008732
 10
1.2916638153
 20
112.9186446597
 10
1.3058933603
 20
112.9562255396
 10
1.3119672385
 20
113.0000054271
 10
1.3099709713
 20
113.0489065652
 10
1.2999805956
 20
113.1010663247
 10
1.2819967769
 20
113.1554512136
 10
1.2573335495
 20
113.2080874585
 10
1.2266811569
 20
113.2579191741
 10
1.1912071391
 20
113.3030482858
 10
1.1515446157
 20
113.3423792688
  0
LINE
  5
2AB
100
AcDbEntity
  8
CURVE
100
AcDbLine
 62
250
  6
CONTINUOUS
 10
0.4351426402
 20
113.4578625863
 11
1.0486454826
 21
112.9265364241
  0
LINE
  5
2AC
100
AcDbEntity
  8
CURVE
100
AcDbLine
 62
250
  6
CONTINUOUS
 10
1.151544633
 20
113.3423792504
 11
0.5832236983
 21
113.8345754722
  0
LINE
  5
2AD
100
AcDbEntity
  8
CURVE
100
AcDbLine
 62
250
  6
CONTINUOUS
 10
8.2997607372
 20
116.120710923
 11
8.7424555653
 21
115.7373135064
  0
LINE
  5
2AE
100
AcDbEntity
  8
CURVE
100
AcDbLine
 62
250
  6
CONTINUOUS
 10
9.0020131166
 20
115.9853022886
 11
8.2405135515
 21
116.6448016715
  0
LINE
  5
2AF
100
AcDbEntity
  8
RACCORDO
100
AcDbLine
 62
250
  6
CONTINUOUS
 10
-0.6363961031
 20
-108.6722372415
 11
0.7778174593
 21
-107.8556880549
  0
LINE
  5
2B0
100
AcDbEntity
  8
RACCORDO
100
AcDbLine
 62
250
  6
CONTINUOUS
 10
-1.4849413255
 20
-110.2234538313
 11
-1.8384776311
 21
-110.4275812633
  0
LINE
  5
2B1
100
AcDbEntity
  8
RACCORDO
100
AcDbLine
 62
250
  6
CONTINUOUS
 10
0.0707106781
 20
-109.8969821117
 11
1.4849242405
 21
-109.080432925
  0
LINE
  5
2B2
100
AcDbEntity
  8
RACCORDO
100
AcDbLine
 62
250
  6
CONTINUOUS
 10
0.0707106781
 20
-111.1216875269
 11
1.4849242405
 21
-110.3051383402
  0
LINE
  5
2B3
100
AcDbEntity
  8
RACCORDO
100
AcDbLine
 62
250
  6
CONTINUOUS
 10
0.4242640687
 20
-111.7340599619
 11
1.8384776311
 21
-110.9175107753
  0
LWPOLYLINE
  5
2B4
100
AcDbEntity
  8
RACCORDO
100
AcDbPolyline
 62
7
  6
CONTINUOUS
 90
16
 70
0
 10
0.1363719429
 20
-107.7244919586
 10
0.1632294411
 20
-107.7105802718
 10
0.1914307413
 20
-107.6990519133
 10
0.2207691653
 20
-107.6899872988
 10
0.2512540464
 20
-107.6834066501
 10
0.2828760514
 20
-107.6792897454
 10
0.3153763421
 20
-107.6776702829
 10
0.3487621274
 20
-107.6785687613
 10
0.3830261984
 20
-107.681964682
 10
0.4178880908
 20
-107.6878302482
 10
0.4533527114
 20
-107.6961857301
 10
0.4894151534
 20
-107.7070108575
 10
0.525780232
 20
-107.7202170226
 10
0.5623495524
 20
-107.7357746894
 10
0.5992215094
 20
-107.753713394
 10
0.6363961031
 20
-107.7740331362
  0
LWPOLYLINE
  5
2B5
100
AcDbEntity
  8
RACCORDO
100
AcDbPolyline
 62
7
  6
CONTINUOUS
 90
13
 70
0
 10
-1.588465551
 20
-110.4523518521
 10
-1.6053451559
 20
-110.4608476671
 10
-1.6232801651
 20
-110.4674875706
 10
-1.6420538915
 20
-110.4721938426
 10
-1.6616770788
 20
-110.4749417136
 10
-1.6821389832
 20
-110.475755953
 10
-1.703178606
 20
-110.4746261751
 10
-1.7248033478
 20
-110.4715274771
 10
-1.7470058079
 20
-110.4664847617
 10
-1.7695027863
 20
-110.4595623505
 10
-1.7921998829
 20
-110.4507816839
 10
-1.8151914979
 20
-110.4401213215
 10
-1.8384776311
 20
-110.4275812633
  0
LINE
  5
2B6
100
AcDbEntity
  8
CURVE
100
AcDbLine
 62
250
  6
CONTINUOUS
 10
6.4809058407
 20
113.923855171
 11
8.2405135515
 21
112.9078797318
  0
LINE
  5
2B7
100
AcDbEntity
  8
CURVE
100
AcDbLine
 62
250
  6
CONTINUOUS
 10
8.2750935769
 20
113.3777958246
 11
6.4809058407
 21
114.4137373371
  0
LINE
  5
2B8
100
AcDbEntity
  8
RACCORDO
100
AcDbLine
 62
7
  6
CONTINUOUS
 10
41.6485894119
 20
94.3407376781
 11
34.5079838124
 21
99.9174490212
  0
LINE
  5
2B9
100
AcDbEntity
  8
RACCORDO
100
AcDbLine
 62
7
  6
CONTINUOUS
 10
43.0628029743
 20
95.1572868647
 11
35.9221973748
 21
100.7339982079
  0
LWPOLYLINE
  5
2BA
100
AcDbEntity
  8
RACCORDO
100
AcDbPolyline
 62
7
  6
CONTINUOUS
 90
31
 70
0
 10
34.5079838124
 20
99.9174490212
 10
34.3764804599
 20
100.0231500842
 10
34.2464115061
 20
100.1336143419
 10
34.1177769512
 20
100.2488417943
 10
33.9903971417
 20
100.3690106493
 10
33.864451731
 20
100.493942699
 10
33.7404796794
 20
100.6231033196
 10
33.6184894435
 20
100.7565106323
 10
33.4984725668
 20
100.894146516
 10
33.3809426394
 20
101.035421983
 10
33.265910319
 20
101.1803526305
 10
33.1533649479
 20
101.3289228615
 10
33.0437881434
 20
101.4804968967
 10
32.937192627
 20
101.6350876088
 10
32.8335656773
 20
101.7926821253
 10
32.7333507467
 20
101.9526060492
 10
32.6365624572
 20
102.1148693631
 10
32.5431861868
 20
102.2794620844
 10
32.4536215222
 20
102.4456798689
 10
32.3678847978
 20
102.6135296805
 10
32.285959679
 20
102.7830045553
 10
32.2081967496
 20
102.9533792565
 10
32.1346138462
 20
103.1246576402
 10
32.0651931321
 20
103.2968358505
 10
32.0002316805
 20
103.4691770821
 10
31.9397486013
 20
103.6416820336
 10
31.8837247845
 20
103.8143500066
 10
31.832399974
 20
103.9864420999
 10
31.7858540841
 20
104.1577120134
 10
31.7440072004
 20
104.3284060473
 10
31.7068593228
 20
104.4985242017
  0
LWPOLYLINE
  5
2BB
100
AcDbEntity
  8
ASSI
100
AcDbPolyline
 62
7
  6
CONTINUOUS
 90
43
 70
0
 10
30.3348809129
 20
111.2029021043
 10
28.9212971763
 20
112.6463027146
 10
27.4991389575
 20
114.0649918194
 10
26.0684062564
 20
115.4589694187
 10
24.6286354093
 20
116.8286660871
 10
23.1802900799
 20
118.17365125
 10
21.7247612596
 20
119.4926331831
 10
20.2620420471
 20
120.785586905
 10
18.7921393438
 20
122.0525373971
 10
17.3164648445
 20
123.2922678797
 10
15.8350130044
 20
124.5047522024
 10
14.3477893685
 20
125.6900165157
 10
12.8562222667
 20
126.8469224913
 10
11.3603075264
 20
127.9754428851
 10
9.8600493203
 20
129.0756049412
 10
8.356888497
 20
130.1463520636
 10
6.8508222678
 20
131.1876559931
 10
5.3418534213
 20
132.1995449889
 10
3.8314311718
 20
133.1810472324
 10
2.3195541228
 20
134.132133531
 10
0.8062236708
 20
135.0528330772
 10
-0.7071067812
 20
135.9422616311
 10
-2.2204372332
 20
136.8003891502
 10
-3.7337676852
 20
137.627245677
 10
-5.2456447341
 20
138.422037098
 10
-6.7560669837
 20
139.1847326082
 10
-8.2650358302
 20
139.9153630127
 10
-9.7711020594
 20
140.6132266137
 10
-11.2742628827
 20
141.2782919321
 10
-12.7745210888
 20
141.9105904471
 10
-14.2704358291
 20
142.5095148989
 10
-15.7620029308
 20
143.075033225
 10
-17.2492265668
 20
143.6071774879
 10
-18.7306784069
 20
144.1054366163
 10
-20.2063529061
 20
144.5697780563
 10
-21.6762556095
 20
145.0002343616
 10
-23.138974822
 20
145.396392122
 10
-24.5945036423
 20
145.7582183864
 10
-26.0428489717
 20
146.0857461058
 10
-27.4826198188
 20
146.3786607225
 10
-28.9133525199
 20
146.6368573839
 10
-30.3355107387
 20
146.8604409425
 10
-31.7490944753
 20
147.0494113984
  0
LWPOLYLINE
  5
2BC
100
AcDbEntity
  8
ASSI
100
AcDbPolyline
 62
7
  6
CONTINUOUS
 90
43
 70
0
 10
31.7490944753
 20
112.0194512909
 10
30.3355107387
 20
113.4628519013
 10
28.9133525199
 20
114.8815410061
 10
27.4826198188
 20
116.2755186053
 10
26.0428489717
 20
117.6452152738
 10
24.5945036423
 20
118.9902004367
 10
23.138974822
 20
120.3091823698
 10
21.6762556095
 20
121.6021360916
 10
20.2063529061
 20
122.8690865837
 10
18.7306784069
 20
124.1088170664
 10
17.2492265668
 20
125.3213013891
 10
15.7620029308
 20
126.5065657024
 10
14.2704358291
 20
127.6634716779
 10
12.7745210888
 20
128.7919920717
 10
11.2742628827
 20
129.8921541278
 10
9.7711020594
 20
130.9629012502
 10
8.2650358302
 20
132.0042051797
 10
6.7560669837
 20
133.0160941755
 10
5.2456447341
 20
133.9975964191
 10
3.7337676852
 20
134.9486827176
 10
2.2204372332
 20
135.8693822639
 10
0.7071067812
 20
136.7588108177
 10
-0.8062236708
 20
137.6169383369
 10
-2.3195541228
 20
138.4437948636
 10
-3.8314311718
 20
139.2385862847
 10
-5.3418534213
 20
140.0012817949
 10
-6.8508222678
 20
140.7319121993
 10
-8.356888497
 20
141.4297758004
 10
-9.8600493203
 20
142.0948411187
 10
-11.3603075264
 20
142.7271396337
 10
-12.8562222667
 20
143.3260640856
 10
-14.3477893685
 20
143.8915824116
 10
-15.8350130044
 20
144.4237266746
 10
-17.3164648445
 20
144.9219858029
 10
-18.7921393438
 20
145.3863272429
 10
-20.2620420471
 20
145.8167835483
 10
-21.7247612596
 20
146.2129413086
 10
-23.1802900799
 20
146.5747675731
 10
-24.6286354093
 20
146.9022952925
 10
-26.0684062564
 20
147.1952099092
 10
-27.4991389575
 20
147.4534065706
 10
-28.9212971763
 20
147.6769901292
 10
-30.3348809129
 20
147.8659605851
  0
LWPOLYLINE
  5
2BD
100
AcDbEntity
  8
RACCORDO
100
AcDbPolyline
 62
7
  6
CONTINUOUS
 90
8
 70
0
 10
33.4312474345
 20
-141.2136186225
 10
33.4144452429
 20
-141.2387916992
 10
33.3539621637
 20
-141.3414523069
 10
33.2979383469
 20
-141.4494253806
 10
33.2466135363
 20
-141.5622488692
 10
33.2000676465
 20
-141.6797687557
 10
33.1582207627
 20
-141.8021390573
 10
33.1210728852
 20
-141.9293597737
  0
LINE
  5
2BE
100
AcDbEntity
  8
CURVE
100
AcDbLine
 62
250
  6
CONTINUOUS
 10
2.7196415569
 20
112.1388215434
 11
3.1003913394
 21
112.1388003197
  0
LINE
  5
2BF
100
AcDbEntity
  8
CURVE
100
AcDbLine
 62
250
  6
CONTINUOUS
 10
2.8490746217
 20
112.6865192484
 11
2.571560516
 21
112.6865347175
  0
LINE
  5
2C0
100
AcDbEntity
  8
CURVE
100
AcDbLine
 62
250
  6
CONTINUOUS
 10
9.0020131166
 20
112.6880185046
 11
9.3827626042
 21
112.6879972597
  0
LINE
  5
2C1
100
AcDbEntity
  8
CURVE
100
AcDbLine
 62
250
  6
CONTINUOUS
 10
9.1314459892
 20
113.2357161907
 11
8.767122575
 21
113.2357365192
  0
LWPOLYLINE
  5
2C2
100
AcDbEntity
  8
CURVE
100
AcDbPolyline
 62
250
  6
CONTINUOUS
 90
17
 70
0
 10
2.0032396325
 20
112.850621238
 10
1.9642463823
 20
112.8570709991
 10
1.9286980714
 20
112.8530924181
 10
1.8979487239
 20
112.838837038
 10
1.8727874915
 20
112.8143360587
 10
1.8550528449
 20
112.781379708
 10
1.8449222856
 20
112.740878073
 10
1.8427816833
 20
112.6943738484
 10
1.8488909117
 20
112.6427055575
 10
1.8628035843
 20
112.5896484783
 10
1.8840251207
 20
112.5363490977
 10
1.9117471995
 20
112.4848375727
 10
1.9455481856
 20
112.4362685542
 10
1.9829583223
 20
112.3941908639
 10
2.0231006664
 20
112.3593157921
 10
2.0644462084
 20
112.3329717194
 10
2.106138811
 20
112.3159530405
  0
LINE
  5
2C3
100
AcDbEntity
  8
CURVE
100
AcDbLine
 62
250
  6
CONTINUOUS
 10
2.106138793
 20
112.3159530457
 11
2.7196415569
 21
112.1388215434
  0
LINE
  5
2C4
100
AcDbEntity
  8
CURVE
100
AcDbLine
 62
250
  6
CONTINUOUS
 10
2.571560516
 20
112.6865347175
 11
2.0032396332
 21
112.8506212346
  0
LINE
  5
2C5
100
AcDbEntity
  8
CURVE
100
AcDbLine
 62
250
  6
CONTINUOUS
 10
8.2405135515
 20
112.9078797318
 11
9.0020131166
 21
112.6880185046
  0
LINE
  5
2C6
100
AcDbEntity
  8
CURVE
100
AcDbLine
 62
250
  6
CONTINUOUS
 10
8.767122575
 20
113.2357365192
 11
8.2750935769
 21
113.3777958246
  0
LWPOLYLINE
  5
2C7
100
AcDbEntity
  8
CURVE
100
AcDbPolyline
 62
250
  6
CONTINUOUS
 90
17
 70
0
 10
6.4809058407
 20
114.4137373371
 10
6.4397025126
 20
114.4328627574
 10
6.4000686065
 20
114.4419299667
 10
6.3635137655
 20
114.4405935977
 10
6.3309058407
 20
114.4286038749
 10
6.3046274147
 20
114.4068368584
 10
6.2850633792
 20
114.3760029493
 10
6.2729589222
 20
114.3372766016
 10
6.2687738063
 20
114.291278632
 10
6.2728138279
 20
114.2413700018
 10
6.2847800097
 20
114.1886970601
 10
6.3042165634
 20
114.1352661028
 10
6.3309058407
 20
114.0822048733
 10
6.36289772
 20
114.033390428
 10
6.3993844921
 20
113.9897335485
 10
6.4389763869
 20
113.9528971119
 10
6.4809058592
 20
113.9238551603
  0
LWPOLYLINE
  5
2C8
100
AcDbEntity
  8
CURVE
100
AcDbPolyline
 62
250
  6
CONTINUOUS
 90
17
 70
0
 10
6.4809058407
 20
117.6607771107
 10
6.4397025126
 20
117.6799025311
 10
6.4000686065
 20
117.6889697403
 10
6.3635137655
 20
117.6876333714
 10
6.3309058407
 20
117.6756436485
 10
6.3046274147
 20
117.6538766321
 10
6.2850633792
 20
117.623042723
 10
6.2729589222
 20
117.5843163752
 10
6.2687738063
 20
117.5383184057
 10
6.2728138279
 20
117.4884097754
 10
6.2847800097
 20
117.4357368337
 10
6.3042165634
 20
117.3823058765
 10
6.3309058407
 20
117.3292446469
 10
6.36289772
 20
117.2804302016
 10
6.3993844921
 20
117.2367733222
 10
6.4389763869
 20
117.1999368856
 10
6.4809058592
 20
117.1708949339
  0
LINE
  5
2C9
100
AcDbEntity
  8
CURVE
100
AcDbLine
 62
250
  6
CONTINUOUS
 10
6.4809058407
 20
117.1708949446
 11
8.2997607372
 21
116.120710923
  0
LINE
  5
2CA
100
AcDbEntity
  8
CURVE
100
AcDbLine
 62
250
  6
CONTINUOUS
 10
8.2405135515
 20
116.6448016715
 11
6.4809058407
 21
117.6607771107
  0
LWPOLYLINE
  5
2CB
100
AcDbEntity
  8
RACCORDO
100
AcDbPolyline
 62
7
  6
CONTINUOUS
 90
18
 70
0
 10
27.1074559617
 20
-122.720123126
 10
27.0839527837
 20
-122.734342211
 10
27.0387032544
 20
-122.7656738339
 10
26.9958876305
 20
-122.8008459378
 10
26.9554895075
 20
-122.8398326382
 10
26.9177823966
 20
-122.8823699798
 10
26.8827845583
 20
-122.9284820561
 10
26.8504777319
 20
-122.9781447736
 10
26.8210806476
 20
-123.0310218963
 10
26.7946130498
 20
-123.0871352361
 10
26.7710551939
 20
-123.146462981
 10
26.7505665759
 20
-123.208603459
 10
26.7331680226
 20
-123.2735757565
 10
26.7188387072
 20
-123.341360787
 10
26.7076756447
 20
-123.4114996194
 10
26.6997111735
 20
-123.4838392767
 10
26.6949129552
 20
-123.5585327358
 10
26.6932809898
 20
-123.6355799969
  0
LINE
  5
2CC
100
AcDbEntity
  8
RACCORDO
100
AcDbLine
 62
7
  6
CONTINUOUS
 10
27.1074462319
 20
-122.7201062746
 11
28.5216597943
 21
-121.9035570879
  0
LINE
  5
2CD
100
AcDbEntity
  8
RACCORDO
100
AcDbLine
 62
250
  6
CONTINUOUS
 10
28.1074945522
 20
-122.8191886299
 11
29.5217081145
 21
-122.0026394433
  0
LINE
  5
2CE
100
AcDbEntity
  8
RACCORDO
100
AcDbLine
 62
250
  6
CONTINUOUS
 10
26.3397275992
 20
-126.6973238074
 11
26.6932639048
 21
-126.4931963754
  0
LINE
  5
2CF
100
AcDbEntity
  8
RACCORDO
100
AcDbLine
 62
250
  6
CONTINUOUS
 10
31.4662517628
 20
-124.7584929482
 11
32.8804653252
 21
-123.9419437616
  0
LWPOLYLINE
  5
2D0
100
AcDbEntity
  8
RACCORDO
100
AcDbPolyline
 62
7
  6
CONTINUOUS
 90
18
 70
0
 10
28.521669524
 20
-121.9035739393
 10
28.5458333763
 20
-121.8902759979
 10
28.5955951831
 20
-121.8667598689
 10
28.647465981
 20
-121.8472717862
 10
28.7014315553
 20
-121.831784601
 10
28.7571265381
 20
-121.8204031675
 10
28.8145626646
 20
-121.8131553462
 10
28.8737281996
 20
-121.8100132766
 10
28.9342225691
 20
-121.8109982318
 10
28.9960547904
 20
-121.8161382166
 10
29.0592158463
 20
-121.8254052262
 10
29.1232781117
 20
-121.8387365192
 10
29.188247702
 20
-121.8561596748
 10
29.2541185018
 20
-121.8776471139
 10
29.3204445401
 20
-121.9030533582
 10
29.3870771598
 20
-121.9323299148
 10
29.454165018
 20
-121.9655252765
 10
29.5217081145
 20
-122.0026394433
  0
LWPOLYLINE
  5
2D1
100
AcDbEntity
  8
RACCORDO
100
AcDbPolyline
 62
7
  6
CONTINUOUS
 90
10
 70
0
 10
-34.5079838124
 20
141.3995021279
 10
-34.3764804599
 20
141.3533464156
 10
-34.2464115061
 20
141.3136103058
 10
-34.1177769512
 20
141.2802937985
 10
-33.9903971417
 20
141.2533676424
 10
-33.864451731
 20
141.2328610887
 10
-33.7404796794
 20
141.2188618916
 10
-33.6184894435
 20
141.2113979378
 10
-33.4984725668
 20
141.2104413405
 10
-33.4312474345
 20
141.2136186225
  0
LINE
  5
2D2
100
AcDbEntity
  8
RACCORDO
100
AcDbLine
 62
7
  6
CONTINUOUS
 10
-35.9221973748
 20
140.5829529412
 11
-43.0628029743
 21
143.2520339588
  0
LINE
  5
2D3
100
AcDbEntity
  8
RACCORDO
100
AcDbLine
 62
7
  6
CONTINUOUS
 10
-34.5079838124
 20
141.3995021279
 11
-41.6485894119
 21
144.0685831454
  0
LWPOLYLINE
  5
2D4
100
AcDbEntity
  8
RACCORDO
100
AcDbPolyline
 62
7
  6
CONTINUOUS
 90
18
 70
0
 10
32.4662903533
 20
-124.8575584522
 10
32.442126501
 20
-124.8708563936
 10
32.3923646942
 20
-124.8943725227
 10
32.3404938964
 20
-124.9138606053
 10
32.286528322
 20
-124.9293477906
 10
32.2308333392
 20
-124.940729224
 10
32.1733972127
 20
-124.9479770454
 10
32.1142316778
 20
-124.9511191149
 10
32.0537373082
 20
-124.9501341597
 10
31.9919050869
 20
-124.9449941749
 10
31.9287440311
 20
-124.9357271654
 10
31.8646817656
 20
-124.9223958723
 10
31.7997121753
 20
-124.9049727167
 10
31.7338413755
 20
-124.8834852776
 10
31.6675153372
 20
-124.8580790334
 10
31.6008827175
 20
-124.8288024768
 10
31.5337948594
 20
-124.7956071151
 10
31.4662517628
 20
-124.7584929482
  0
LWPOLYLINE
  5
2D5
100
AcDbEntity
  8
RACCORDO
100
AcDbPolyline
 62
7
  6
CONTINUOUS
 90
13
 70
0
 10
26.5897396793
 20
-126.7220943962
 10
26.5728600744
 20
-126.7305902112
 10
26.5549250652
 20
-126.7372301147
 10
26.5361513388
 20
-126.7419363867
 10
26.5165281515
 20
-126.7446842577
 10
26.4960662471
 20
-126.7454984972
 10
26.4750266242
 20
-126.7443687192
 10
26.4534018825
 20
-126.7412700212
 10
26.4311994224
 20
-126.7362273058
 10
26.408702444
 20
-126.7293048946
 10
26.3860053474
 20
-126.7205242281
 10
26.3630137324
 20
-126.7098638656
 10
26.3397275992
 20
-126.6973238074
  0
LINE
  5
2D6
100
AcDbEntity
  8
RACCORDO
100
AcDbLine
 62
250
  6
CONTINUOUS
 10
33.1210728852
 20
-141.9293597737
 11
31.7068593228
 21
-142.7459089604
  0
LINE
  5
2D7
100
AcDbEntity
  8
ASSI
100
AcDbLine
 62
7
  6
CONTINUOUS
 10
31.7490944753
 20
-147.0494113984
 11
30.3348809129
 21
-147.8659605851
  0
LINE
  5
2D8
100
AcDbEntity
  8
ASSI
100
AcDbLine
 62
7
  6
CONTINUOUS
 10
43.0628029743
 20
-143.2520339588
 11
41.6485894119
 21
-144.0685831454
  0
LWPOLYLINE
  5
2D9
100
AcDbEntity
  8
RACCORDO
100
AcDbPolyline
 62
7
  6
CONTINUOUS
 90
18
 70
0
 10
32.6218107311
 20
-141.4442719104
 10
32.6365624572
 20
-141.4358519975
 10
32.7333507467
 20
-141.3853573743
 10
32.8335656773
 20
-141.3411591403
 10
32.937192627
 20
-141.3032304279
 10
33.0437881434
 20
-141.2717335461
 10
33.1533649479
 20
-141.2466960581
 10
33.265910319
 20
-141.2280904006
 10
33.3809426394
 20
-141.2159961933
 10
33.4984725668
 20
-141.2104413405
 10
33.6184894435
 20
-141.2113979378
 10
33.7404796794
 20
-141.2188618916
 10
33.864451731
 20
-141.2328610887
 10
33.9903971417
 20
-141.2533676424
 10
34.1177769512
 20
-141.2802937985
 10
34.2464115061
 20
-141.3136103058
 10
34.3764804599
 20
-141.3533464156
 10
34.5079838124
 20
-141.3995021279
  0
ENDSEC
  0
SECTION
  2
OBJECTS
  0
DICTIONARY
  5
C
100
AcDbDictionary
280
0
281
1
  3
ACAD_GROUP
350
D
  3
ACAD_MLINESTYLE
350
17
  3
ACAD_LAYOUT
350
1A
  3
ACAD_PLOTSETTINGS
350
19
  3
ACAD_PLOTSTYLENAME
350
E
  0
DICTIONARY
  5
D
102
{ACAD_REACTORS
330
C
102
}
100
AcDbDictionary
280
0
281
1
  0
ACDBDICTIONARYWDFLT
  5
E
102
{ACAD_REACTORS
330
C
102
}
100
AcDbDictionary
281
1
  3
Normal
350
F
100
AcDbDictionaryWithDefault
340
F
  0
DICTIONARY
  5
17
102
{ACAD_REACTORS
330
C
102
}
100
AcDbDictionary
280
0
281
1
  3
Standard
350
18
  0
DICTIONARY
  5
19
102
{ACAD_REACTORS
330
C
102
}
100
AcDbDictionary
281
1
  0
DICTIONARY
  5
1A
102
{ACAD_REACTORS
330
C
102
}
100
AcDbDictionary
281
1
  3
Model
350
2DA
  3
Layout1
350
2DB
  0
ACDBPLACEHOLDER
  5
F
102
{ACAD_REACTORS
330
E
102
}
  0
MLINESTYLE
  5
18
102
{ACAD_REACTORS
330
17
102
}
100
AcDbMlineStyle
  2
STANDARD
 70
0
  3

 62
256
 51
90.0
 52
90.0
 71
2
 49
0.5
 62
256
  6
BYLAYER
 49
-0.5
 62
256
  6
BYLAYER
  0
LAYOUT
  5
2DA
102
{ACAD_REACTORS
330
1A
102
}
100
AcDbPlotSettings
  1

  2
none_device
  4

  6

 40
0.0
 41
0.0
 42
0.0
 43
0.0
 44
210.0
 45
297.0
 46
0.0
 47
0.0
 48
0.0
 49
0.0
140
0.0
141
0.0
142
1.0
143
1.0
 70
1024
 72
1
 73
0
 74
0
  7

 75
0
147
1.0
148
0.0
149
0.0
100
AcDbLayout
  1
Model
 70
0
 71
0
 10
0.0
 20
0.0
 11
210.0
 21
297.0
 12
0.0
 22
0.0
 32
0.0
 14
0.0
 24
0.0
 34
0.0
 15
0.0
 25
0.0
 35
0.0
146
0.0
 13
0.0
 23
0.0
 33
0.0
 16
1.0
 26
0.0
 36
0.0
 17
0.0
 27
1.0
 37
0.0
 76
0
330
20F
345
0
346
0
  0
LAYOUT
  5
2DB
102
{ACAD_REACTORS
330
1A
102
}
100
AcDbPlotSettings
  1

  2
none_device
  4

  6

 40
0.0
 41
0.0
 42
0.0
 43
0.0
 44
210.0
 45
297.0
 46
0.0
 47
0.0
 48
0.0
 49
0.0
140
0.0
141
0.0
142
1.0
143
1.0
 70
0
 72
1
 73
0
 74
0
  7

 75
0
147
1.0
148
0.0
149
0.0
100
AcDbLayout
  1
Layout1
 70
0
 71
1
 10
0.0
 20
0.0
 11
210.0
 21
297.0
 12
0.0
 22
0.0
 32
0.0
 14
0.0
 24
0.0
 34
0.0
 15
0.0
 25
0.0
 35
0.0
146
0.0
 13
0.0
 23
0.0
 33
0.0
 16
1.0
 26
0.0
 36
0.0
 17
0.0
 27
1.0
 37
0.0
 76
0
330
210
345
0
346
0
  0
ENDSEC
  0
EOF
