  0
SECTION
  2
HEADER
  9
$ACADVER
  1
AC1024
  9
$DWGCODEPAGE
  3
ANSI_1252
  9
$EXTMAX
 10
210.0
 20
297.0
 30
0.0
  9
$EXTMIN
 10
0.0
 20
0.0
 30
0.0
  9
$LIMMIN
 10
0.0
 20
0.0
  9
$LIMMAX
 10
210.0
 20
297.0
  9
$VIEWCTR
 10
105.0
 20
148.5
  9
$VIEWSIZE
 40
297.0
  9
$CLAYER
  8
0
  9
$LTSCALE
 40
19.36
  9
$CELTYPE
  6
BYLAYER
  9
$DIMSCALE
 40
1.0
  9
$DIMASZ
 40
3.0
  9
$DIMEXO
 40
0.5
  9
$DIMDLI
 40
13.376
  9
$DIMEXE
 40
1.5
  9
$DIMCEN
 40
3.168
  9
$DIMLFAC
 40
1.0
  9
$DIMBLK
  1
_FILLED
  9
$DIMALT
 70
0
  9
$DIMALTF
 40
0.0393700787
  9
$DIMTXT
 40
3.0
  9
$DIMTOL
 70
1
  9
$DIMLIM
 70
0
  9
$DIMTFAC
 40
1.0
  9
$DIMTP
 40
0.01
  9
$DIMTM
 40
0.01
  9
$DIMGAP
 40
0.625
  9
$DIMDSEP
 70
44
  9
$AUNITS
 70
0
  9
$PDMODE
 70
3
  9
$PDSIZE
 40
3.0
  9
$HANDSEED
  5
2DC
  9
$TILEMODE
 70
1
  9
$MEASUREMENT
 70
1
  9
$INSUNITS
 70
4
  0
ENDSEC
  0
SECTION
  2
CLASSES
  0
CLASS
  1
ACDBDICTIONARYWDFLT
  2
AcDbDictionaryWithDefault
  3
AutoCAD 2000
 90
0
 91
1
280
0
281
0
  0
CLASS
  1
ACDBPLACEHOLDER
  2
AcDbPlaceHolder
  3
AutoCAD 2000
 90
0
 91
1
280
0
281
0
  0
CLASS
  1
LAYOUT
  2
AcDbLayout
  3
AutoCAD 2000
 90
0
 91
0
280
0
281
0
  0
ENDSEC
  0
SECTION
  2
TABLES
  0
TABLE
  2
VPORT
  5
8
100
AcDbSymbolTable
 70
2
  0
VPORT
  5
1F4
100
AcDbSymbolTableRecord
100
AcDbViewportTableRecord
  2
*ACTIVE
 70
0
 10
0.0
 20
0.0
 11
1.0
 21
1.0
 12
105.0
 22
148.5
 13
0.0
 23
0.0
 14
1.0
 24
1.0
 15
0.0
 25
0.0
 16
0.0
 26
0.0
 36
1.0
 17
0.0
 27
0.0
 37
0.0
 40
297.0
 41
0.7070707071
 42
50.0
 43
0.0
 44
0.0
 50
0.0
 51
0.0
 71
0
 72
100
 73
1
 74
1
 75
0
 76
0
 77
0
 78
0
  0
ENDTAB
  0
TABLE
  2
LTYPE
  5
5
100
AcDbSymbolTable
 70
6
  0
LTYPE
  5
14
100
AcDbSymbolTableRecord
100
AcDbLinetypeTableRecord
  2
BYBLOCK
 70
0
  3

 72
65
 73
0
 40
0.0
  0
LTYPE
  5
15
100
AcDbSymbolTableRecord
100
AcDbLinetypeTableRecord
  2
BYLAYER
 70
0
  3

 72
65
 73
0
 40
0.0
  0
LTYPE
  5
16
100
AcDbSymbolTableRecord
100
AcDbLinetypeTableRecord
  2
CONTINUOUS
 70
64
  3
Solid line
 72
65
 73
0
 40
0.0
  0
LTYPE
  5
1F5
100
AcDbSymbolTableRecord
100
AcDbLinetypeTableRecord
  2
CENTER
 70
64
  3
____ _ ____ _ ____ _ ____ _ ____ _ ____ _ ____
 72
65
 73
4
 40
0.6
 49
0.375
 74
0
 49
-0.075
 74
0
 49
0.075
 74
0
 49
-0.075
 74
0
  0
LTYPE
  5
1F6
100
AcDbSymbolTableRecord
100
AcDbLinetypeTableRecord
  2
HIDDEN
 70
64
  3
- - - - - - - - - - - - - - - - - - - -
 72
65
 73
2
 40
0.2
 49
0.1
 74
0
 49
-0.1
 74
0
  0
LTYPE
  5
1F7
100
AcDbSymbolTableRecord
100
AcDbLinetypeTableRecord
  2
PHANTOM
 70
64
  3
_____ _ _ _____ _ _ _____ _ _ _____
 72
65
 73
6
 40
0.8
 49
0.45
 74
0
 49
-0.05
 74
0
 49
0.1
 74
0
 49
-0.05
 74
0
 49
0.1
 74
0
 49
-0.05
 74
0
  0
LTYPE
  5
1F8
100
AcDbSymbolTableRecord
100
AcDbLinetypeTableRecord
  2
DOT
 70
64
  3
. . . . . . . . . . . . . . . . . . . .
 72
65
 73
2
 40
0.2
 49
0.1
 74
0
 49
-0.1
 74
0
  0
LTYPE
  5
1F9
100
AcDbSymbolTableRecord
100
AcDbLinetypeTableRecord
  2
DASHED
 70
64
  3
- - - - - - - - - - - - - - - - - - - -
 72
65
 73
2
 40
0.2
 49
0.1
 74
0
 49
-0.1
 74
0
  0
ENDTAB
  0
TABLE
  2
LAYER
  5
2
100
AcDbSymbolTable
 70
36
  0
LAYER
  5
10
100
AcDbSymbolTableRecord
100
AcDbLayerTableRecord
  2
0
 70
0
 62
7
  6
CONTINUOUS
370
-3
390
F
  0
LAYER
  5
1FA
100
AcDbSymbolTableRecord
100
AcDbLayerTableRecord
  2
DEFAULT_1
 70
0
 62
7
  6
CENTER
370
-3
390
F
  0
LAYER
  5
1FB
100
AcDbSymbolTableRecord
100
AcDbLayerTableRecord
  2
DEFAULT_2
 70
0
 62
7
  6
HIDDEN
370
-3
390
F
  0
LAYER
  5
1FC
100
AcDbSymbolTableRecord
100
AcDbLayerTableRecord
  2
DEFAULT_3
 70
0
 62
7
  6
PHANTOM
370
-3
390
F
  0
LAYER
  5
1FD
100
AcDbSymbolTableRecord
100
AcDbLayerTableRecord
  2
ASSI
 70
0
 62
7
  6
CONTINUOUS
370
-3
390
F
  0
LAYER
  5
1FE
100
AcDbSymbolTableRecord
100
AcDbLayerTableRecord
  2
COORDINATE
 70
0
 62
7
  6
CONTINUOUS
370
-3
390
F
  0
LAYER
  5
1FF
100
AcDbSymbolTableRecord
100
AcDbLayerTableRecord
  2
COPY_PUBLISH
 70
0
 62
7
  6
CONTINUOUS
370
-3
390
F
  0
LAYER
  5
200
100
AcDbSymbolTableRecord
100
AcDbLayerTableRecord
  2
COSMETICI
 70
0
 62
7
  6
CONTINUOUS
370
-3
390
F
  0
LAYER
  5
201
100
AcDbSymbolTableRecord
100
AcDbLayerTableRecord
  2
CURVE
 70
0
 62
7
  6
CONTINUOUS
370
-3
390
F
  0
LAYER
  5
202
100
AcDbSymbolTableRecord
100
AcDbLayerTableRecord
  2
DRAFT
 70
0
 62
7
  6
CONTINUOUS
370
-3
390
F
  0
LAYER
  5
203
100
AcDbSymbolTableRecord
100
AcDbLayerTableRecord
  2
IMPORT_IGES
 70
0
 62
7
  6
CONTINUOUS
370
-3
390
F
  0
LAYER
  5
204
100
AcDbSymbolTableRecord
100
AcDbLayerTableRecord
  2
NOTE
 70
0
 62
7
  6
CONTINUOUS
370
-3
390
F
  0
LAYER
  5
205
100
AcDbSymbolTableRecord
100
AcDbLayerTableRecord
  2
PIANI
 70
0
 62
7
  6
CONTINUOUS
370
-3
390
F
  0
LAYER
  5
206
100
AcDbSymbolTableRecord
100
AcDbLayerTableRecord
  2
PUNTI
 70
0
 62
7
  6
CONTINUOUS
370
-3
390
F
  0
LAYER
  5
207
100
AcDbSymbolTableRecord
100
AcDbLayerTableRecord
  2
RACCORDO
 70
0
 62
7
  6
CONTINUOUS
370
-3
390
F
  0
LAYER
  5
208
100
AcDbSymbolTableRecord
100
AcDbLayerTableRecord
  2
SIMBOLI
 70
0
 62
7
  6
CONTINUOUS
370
-3
390
F
  0
LAYER
  5
209
100
AcDbSymbolTableRecord
100
AcDbLayerTableRecord
  2
SMUSSO
 70
0
 62
7
  6
CONTINUOUS
370
-3
390
F
  0
LAYER
  5
20A
100
AcDbSymbolTableRecord
100
AcDbLayerTableRecord
  2
SNAPLINE
 70
0
 62
7
  6
CONTINUOUS
370
-3
390
F
  0
LAYER
  5
20B
100
AcDbSymbolTableRecord
100
AcDbLayerTableRecord
  2
SUPERFICI
 70
0
 62
7
  6
CONTINUOUS
370
-3
390
F
  0
LAYER
  5
20C
100
AcDbSymbolTableRecord
100
AcDbLayerTableRecord
  2
TRASH
 70
0
 62
7
  6
CONTINUOUS
370
-3
390
F
  0
ENDTAB
  0
TABLE
  2
STYLE
  5
3
100
AcDbSymbolTable
 70
1
  0
STYLE
  5
11
100
AcDbSymbolTableRecord
100
AcDbTextStyleTableRecord
  2
STANDARD
 70
0
 40
0.0
 41
0.8
 50
0.0
 71
0
 42
0.2
  3
txt
  4

  0
STYLE
  5
20D
100
AcDbSymbolTableRecord
100
AcDbTextStyleTableRecord
  2
TEXTSTYLE_1
 70
0
 40
0.0
 41
0.8
 50
0.0
 71
0
 42
0.2
  3
gdt
  4

  0
ENDTAB
  0
TABLE
  2
VIEW
  5
6
100
AcDbSymbolTable
 70
0
  0
ENDTAB
  0
TABLE
  2
UCS
  5
7
100
AcDbSymbolTable
 70
0
  0
ENDTAB
  0
TABLE
  2
APPID
  5
9
100
AcDbSymbolTable
 70
1
  0
APPID
  5
20E
100
AcDbSymbolTableRecord
100
AcDbRegAppTableRecord
  2
ACAD
 70
0
  0
ENDTAB
  0
TABLE
  2
BLOCK_RECORD
  5
1
100
AcDbSymbolTable
 70
0
  0
BLOCK_RECORD
  5
20F
100
AcDbSymbolTableRecord
100
AcDbBlockTableRecord
  2
*Model_Space
  0
BLOCK_RECORD
  5
210
100
AcDbSymbolTableRecord
100
AcDbBlockTableRecord
  2
*Paper_Space
  0
BLOCK_RECORD
  5
211
100
AcDbSymbolTableRecord
100
AcDbBlockTableRecord
  2
_FILLED
  0
ENDTAB
  0
TABLE
  2
DIMSTYLE
  5
A
100
AcDbSymbolTable
 70
1
100
AcDbDimStyleTable
 71
0
  0
DIMSTYLE
105
212
100
AcDbSymbolTableRecord
100
AcDbDimStyleTableRecord
  2
STANDARD
 70
0
  3

  4

 40
1.0
 41
3.0
 42
0.5
 43
0.38
 44
1.5
 45
0.0
 46
0.0
 47
0.01
 48
0.01
140
3.0
141
0.09
142
0.0
143
25.4
144
1.0
145
0.0
146
1.0
147
0.625
 71
1.0
 72
0.0
 73
0
 74
0
 75
0
 76
0
 77
1
 78
8
 79
2
170
0
171
1
172
0
173
0
174
0
175
0
176
0
177
0
178
0
270
2
179
2
271
2
272
2
273
2
274
2
275
0
280
0
281
0
282
0
283
1
284
8
285
0
286
0
287
3
288
0
340
11
278
44
341
211
342
211
343
211
344
211
  0
ENDTAB
  0
ENDSEC
  0
SECTION
  2
BLOCKS
  0
BLOCK
  5
20
100
AcDbEntity
  8
0
100
AcDbBlockBegin
  2
*Model_Space
 70
0
 10
0.0
 20
0.0
 30
0.0
  3
*Model_Space
  1

  0
ENDBLK
  5
21
100
AcDbEntity
  8
0
100
AcDbBlockEnd
  0
BLOCK
  5
1C
100
AcDbEntity
  8
0
100
AcDbBlockBegin
  2
*Paper_Space
 70
0
 10
0.0
 20
0.0
 30
0.0
  3
*Paper_Space
  1

  0
ENDBLK
  5
1D
100
AcDbEntity
  8
0
100
AcDbBlockEnd
  0
BLOCK
  5
213
100
AcDbEntity
  8
0
100
AcDbBlockBegin
  2
_FILLED
 70
64
 10
0.0
 20
0.0
  3
_FILLED
  1

  0
SOLID
  5
214
100
AcDbEntity
  8
0
  6
BYBLOCK
 62
0
100
AcDbTrace
 10
0.0
 20
0.0
 11
-1.0
 21
0.3166666667
 12
-1.0
 22
-0.3166666667
 13
-1.0
 23
-0.3166666667
  0
ENDBLK
  5
215
100
AcDbEntity
  8
0
  6
BYBLOCK
 62
0
100
AcDbBlockEnd
  0
ENDSEC
  0
SECTION
  2
ENTITIES
  0
LINE
  5
216
100
AcDbEntity
  8
ASSI
100
AcDbLine
 62
7
  6
CONTINUOUS
 10
-41.6485894119
 20
190.8115064918
 11
-43.0628029743
 21
189.9949573051
  0
LINE
  5
217
100
AcDbEntity
  8
ASSI
100
AcDbLine
 62
7
  6
CONTINUOUS
 10
-30.3348809129
 20
194.6088839315
 11
-31.7490944753
 21
193.7923347448
  0
LINE
  5
218
100
AcDbEntity
  8
RACCORDO
100
AcDbLine
 62
250
  6
CONTINUOUS
 10
-34.5079838124
 20
188.1424254743
 11
-35.9221973748
 21
187.3258762876
  0
LWPOLYLINE
  5
219
100
AcDbEntity
  8
RACCORDO
100
AcDbPolyline
 62
7
  6
CONTINUOUS
 90
19
 70
0
 10
-34.0360161233
 20
187.3706319211
 10
-34.1030840483
 20
187.3339425459
 10
-34.1927613822
 20
187.2908376515
 10
-34.2850966964
 20
187.252984512
 10
-34.3800994063
 20
187.2204017308
 10
-34.4777600964
 20
187.1930707044
 10
-34.5777332276
 20
187.1710881343
 10
-34.6800269915
 20
187.1544729666
 10
-34.7846331965
 20
187.1432062552
 10
-34.8911817293
 20
187.1373278636
 10
-34.9996794703
 20
187.136856879
 10
-35.110119539
 20
187.1417742142
 10
-35.2221111811
 20
187.1520624708
 10
-35.3356598925
 20
187.1677406744
 10
-35.4507601773
 20
187.1887897995
 10
-35.5670047922
 20
187.2151353709
 10
-35.6842579896
 20
187.2467525635
 10
-35.8026555171
 20
187.2836662024
 10
-35.9221973748
 20
187.3258762876
  0
LWPOLYLINE
  5
21A
100
AcDbEntity
  8
RACCORDO
100
AcDbPolyline
 62
7
  6
CONTINUOUS
 90
15
 70
0
 10
-28.0039478182
 20
165.5451677547
 10
-27.9965431393
 20
165.549199587
 10
-27.9812009004
 20
165.5561146048
 10
-27.9650836494
 20
165.5615156663
 10
-27.948199157
 20
165.5654179512
 10
-27.9307178569
 20
165.5677820695
 10
-27.9126337043
 20
165.5685924425
 10
-27.8939527439
 20
165.5678646489
 10
-27.8748635429
 20
165.5656060352
 10
-27.8553619666
 20
165.5618010969
 10
-27.8354521497
 20
165.5564653385
 10
-27.8153350636
 20
165.5496526195
 10
-27.7950776987
 20
165.5413808932
 10
-27.7746130647
 20
165.5316322064
 10
-27.7539411616
 20
165.520406559
  0
LINE
  5
21B
100
AcDbEntity
  8
RACCORDO
100
AcDbLine
 62
7
  6
CONTINUOUS
 10
34.5079838124
 20
-188.1424254743
 11
41.6485894119
 21
-190.8115064918
  0
LWPOLYLINE
  5
21C
100
AcDbEntity
  8
RACCORDO
100
AcDbPolyline
 62
7
  6
CONTINUOUS
 90
19
 70
0
 10
-28.5216597943
 20
154.1949565351
 10
-28.47907266
 20
154.2217487564
 10
-28.4383383474
 20
154.2518617488
 10
-28.3997370609
 20
154.2850961944
 10
-28.3632809663
 20
154.321469896
 10
-28.3289578978
 20
154.3609650507
 10
-28.2969632431
 20
154.4033568282
 10
-28.2673102822
 20
154.4486617491
 10
-28.2399857351
 20
154.4968632929
 10
-28.2151451497
 20
154.5476870673
 10
-28.1928026929
 20
154.6011480279
 10
-28.1729441977
 20
154.6572312191
 10
-28.1556827108
 20
154.7156173814
 10
-28.1410330438
 20
154.7763196498
 10
-28.1289803849
 20
154.8393248894
 10
-28.1195933452
 20
154.9042744363
 10
-28.1128947951
 20
154.971048736
 10
-28.108861864
 20
155.039767343
 10
-28.1074945522
 20
155.1104302574
  0
LINE
  5
21D
100
AcDbEntity
  8
RACCORDO
100
AcDbLine
 62
250
  6
CONTINUOUS
 10
-28.1074945522
 20
165.3163087173
 11
-27.7539582466
 21
165.5204361493
  0
LINE
  5
21E
100
AcDbEntity
  8
RACCORDO
100
AcDbLine
 62
250
  6
CONTINUOUS
 10
-34.2946788875
 20
155.4169518418
 11
-32.8804653252
 21
156.2335010285
  0
LINE
  5
21F
100
AcDbEntity
  8
RACCORDO
100
AcDbLine
 62
250
  6
CONTINUOUS
 10
-26.6932809898
 20
155.926979444
 11
-28.1074945522
 21
155.1104302574
  0
LINE
  5
220
100
AcDbEntity
  8
RACCORDO
100
AcDbLine
 62
7
  6
CONTINUOUS
 10
-27.1074462319
 20
155.0115057217
 11
-28.5216597943
 21
154.1949565351
  0
LWPOLYLINE
  5
221
100
AcDbEntity
  8
RACCORDO
100
AcDbPolyline
 62
7
  6
CONTINUOUS
 90
19
 70
0
 10
-33.8805136454
 20
156.3324255641
 10
-33.8359178857
 20
156.355961924
 10
-33.7894693043
 20
156.3761775126
 10
-33.7413839943
 20
156.3929851476
 10
-33.6916526208
 20
156.4063653918
 10
-33.6402845188
 20
156.4163376823
 10
-33.5875721064
 20
156.4228452508
 10
-33.5335077164
 20
156.4258683365
 10
-33.4780990162
 20
156.4254267001
 10
-33.4216614253
 20
156.4215228559
 10
-33.3641890757
 20
156.4141370572
 10
-33.3056878354
 20
156.4032890506
 10
-33.246490729
 20
156.3890405894
 10
-33.1865937874
 20
156.3713722795
 10
-33.1260009797
 20
156.350303515
 10
-33.0650572365
 20
156.325954232
 10
-33.0038775348
 20
156.2983644094
 10
-32.9423468977
 20
156.2674940683
 10
-32.8804653252
 20
156.2333432088
  0
LINE
  5
222
100
AcDbEntity
  8
CURVE
100
AcDbLine
 62
250
  6
CONTINUOUS
 10
3.1324577719
 20
159.5930328817
 11
2.8490746218
 21
159.429442595
  0
LINE
  5
223
100
AcDbEntity
  8
CURVE
100
AcDbLine
 62
250
  6
CONTINUOUS
 10
3.1003913394
 20
158.8817236661
 11
3.481141122
 21
159.1015213713
  0
LINE
  5
224
100
AcDbEntity
  8
CURVE
100
AcDbLine
 62
250
  6
CONTINUOUS
 10
9.3926925051
 20
160.1294506108
 11
9.1314460009
 21
159.9786395411
  0
LINE
  5
225
100
AcDbEntity
  8
CURVE
100
AcDbLine
 62
250
  6
CONTINUOUS
 10
9.3827626042
 20
159.4309206061
 11
9.7635126818
 21
159.6507180983
  0
LWPOLYLINE
  5
226
100
AcDbEntity
  8
RACCORDO
100
AcDbPolyline
 62
7
  6
CONTINUOUS
 90
16
 70
0
 10
-0.7778174593
 20
-155.3335056693
 10
-0.814992053
 20
-155.313185927
 10
-0.85186401
 20
-155.2952472225
 10
-0.8884333303
 20
-155.2796895556
 10
-0.924798409
 20
-155.2664833906
 10
-0.9608608509
 20
-155.2556582632
 10
-0.9963254715
 20
-155.2473027813
 10
-1.031187364
 20
-155.2414372151
 10
-1.065451435
 20
-155.2380412943
 10
-1.0988372203
 20
-155.237142816
 10
-1.131337511
 20
-155.2387622784
 10
-1.162959516
 20
-155.2428791832
 10
-1.1934443971
 20
-155.2494598319
 10
-1.2227828211
 20
-155.2585244464
 10
-1.2509841213
 20
-155.2700528048
 10
-1.2778416194
 20
-155.2839644916
  0
LWPOLYLINE
  5
227
100
AcDbEntity
  8
RACCORDO
100
AcDbPolyline
 62
7
  6
CONTINUOUS
 90
19
 70
0
 10
28.1074945522
 20
-169.5621119763
 10
28.0456129797
 20
-169.5279611168
 10
27.9840823426
 20
-169.4970907757
 10
27.9229026409
 20
-169.469500953
 10
27.8619588977
 20
-169.4451516701
 10
27.8013660899
 20
-169.4240829056
 10
27.7414691484
 20
-169.4064145956
 10
27.6822720419
 20
-169.3921661345
 10
27.6237708017
 20
-169.3813181279
 10
27.566298452
 20
-169.3739323292
 10
27.5098608612
 20
-169.3700284849
 10
27.4544521609
 20
-169.3695868486
 10
27.400387771
 20
-169.3726099343
 10
27.3476753586
 20
-169.3791175028
 10
27.2963072565
 20
-169.3890897933
 10
27.246575883
 20
-169.4024700375
 10
27.198490573
 20
-169.4192776724
 10
27.1520419916
 20
-169.4394932611
 10
27.1074462319
 20
-169.463029621
  0
LINE
  5
228
100
AcDbEntity
  8
RACCORDO
100
AcDbLine
 62
7
  6
CONTINUOUS
 10
-27.7539411616
 20
-142.2072407642
 11
-1.8384776311
 21
-157.1705046097
  0
LINE
  5
229
100
AcDbEntity
  8
RACCORDO
100
AcDbLine
 62
7
  6
CONTINUOUS
 10
0.4242640687
 20
-158.4769833083
 11
26.3397275992
 21
-173.4402471538
  0
LINE
  5
22A
100
AcDbEntity
  8
RACCORDO
100
AcDbLine
 62
7
  6
CONTINUOUS
 10
-26.3397275992
 20
-141.3906915775
 11
-1.4848559003
 21
-155.7415829918
  0
LINE
  5
22B
100
AcDbEntity
  8
RACCORDO
100
AcDbLine
 62
7
  6
CONTINUOUS
 10
1.8384776311
 20
-157.6604341217
 11
26.6932809898
 21
-172.0112860771
  0
LINE
  5
22C
100
AcDbEntity
  8
RACCORDO
100
AcDbLine
 62
7
  6
CONTINUOUS
 10
-0.6363961031
 20
-155.4151605879
 11
-0.7778174593
 21
-155.3335056693
  0
LINE
  5
22D
100
AcDbEntity
  8
RACCORDO
100
AcDbLine
 62
7
  6
CONTINUOUS
 10
0.7778174593
 20
-154.5986114013
 11
0.6363961031
 21
-154.5169564826
  0
LINE
  5
22E
100
AcDbEntity
  8
RACCORDO
100
AcDbLine
 62
7
  6
CONTINUOUS
 10
-32.8804653252
 20
-134.3484283018
 11
-29.5217081145
 21
-136.2877326201
  0
LINE
  5
22F
100
AcDbEntity
  8
RACCORDO
100
AcDbLine
 62
7
  6
CONTINUOUS
 10
28.1074945522
 20
-169.5621119763
 11
31.4662517628
 21
-171.5014162946
  0
LINE
  5
230
100
AcDbEntity
  8
RACCORDO
100
AcDbLine
 62
7
  6
CONTINUOUS
 10
-31.4662517628
 20
-133.5318791152
 11
-28.1074945522
 21
-135.4711834335
  0
LINE
  5
231
100
AcDbEntity
  8
RACCORDO
100
AcDbLine
 62
7
  6
CONTINUOUS
 10
29.5217081145
 20
-168.7455627897
 11
32.8804653252
 21
-170.684867108
  0
LWPOLYLINE
  5
232
100
AcDbEntity
  8
RACCORDO
100
AcDbPolyline
 62
7
  6
CONTINUOUS
 90
37
 70
0
 10
-32.8804653252
 20
-134.3484283018
 10
-32.9423468977
 20
-134.3111198725
 10
-33.0038775348
 20
-134.2709361762
 10
-33.0650572365
 20
-134.2278772129
 10
-33.1260009797
 20
-134.1818501888
 10
-33.1865937874
 20
-134.1329478977
 10
-33.246490729
 20
-134.081448721
 10
-33.3056878354
 20
-134.0273378474
 10
-33.3641890757
 20
-133.9706300882
 10
-33.4216614253
 20
-133.9116482581
 10
-33.4780990162
 20
-133.8503793871
 10
-33.5335077164
 20
-133.7868364452
 10
-33.5875721064
 20
-133.7213811572
 10
-33.6402845188
 20
-133.6540026161
 10
-33.6916526208
 20
-133.584711729
 10
-33.7413839943
 20
-133.5139029412
 10
-33.7894693043
 20
-133.4415675956
 10
-33.8359178857
 20
-133.3677143494
 10
-33.8804653252
 20
-133.2927636199
 10
-33.9231007797
 20
-133.2167091476
 10
-33.9638350923
 20
-133.1395571919
 10
-34.0024363788
 20
-133.0617469484
 10
-34.0388924734
 20
-132.9832746625
 10
-34.0732155419
 20
-132.9041440887
 10
-34.1052101966
 20
-132.8248056859
 10
-34.1348631575
 20
-132.745258269
 10
-34.1621877046
 20
-132.6655030231
 10
-34.1870282901
 20
-132.5859939633
 10
-34.2093707468
 20
-132.5067324936
 10
-34.229229242
 20
-132.4277172101
 10
-34.246490729
 20
-132.3493979152
 10
-34.261140396
 20
-132.2717785786
 10
-34.2731930548
 20
-132.1948552307
 10
-34.2825800945
 20
-132.1190657656
 10
-34.2892786447
 20
-132.0445561481
 10
-34.2933115757
 20
-131.9711804134
 10
-34.2946788875
 20
-131.8989385616
  0
LWPOLYLINE
  5
233
100
AcDbEntity
  8
RACCORDO
100
AcDbPolyline
 62
7
  6
CONTINUOUS
 90
31
 70
0
 10
0.7778174593
 20
-154.5986114013
 10
0.814992053
 20
-154.621219948
 10
0.85186401
 20
-154.6458600552
 10
0.8884333303
 20
-154.6725317228
 10
0.924798409
 20
-154.701319039
 10
0.9608608509
 20
-154.7321379157
 10
0.9963254715
 20
-154.7647360887
 10
1.031187364
 20
-154.799128162
 10
1.065451435
 20
-154.8352995317
 10
1.0988372203
 20
-154.8729541213
 10
1.131337511
 20
-154.9121041048
 10
1.162959516
 20
-154.9527373083
 10
1.1934443971
 20
-154.9945211336
 10
1.2227828211
 20
-155.0374650247
 10
1.2509841213
 20
-155.0815595377
 10
1.2778174593
 20
-155.1264437422
 10
1.3032716072
 20
-155.1721241199
 10
1.327357793
 20
-155.2185941891
 10
1.3498788621
 20
-155.2654735748
 10
1.3708219684
 20
-155.3127656365
 10
1.390199958
 20
-155.3604670146
 10
1.4078542146
 20
-155.4081872554
 10
1.4237705904
 20
-155.4559265136
 10
1.4379632334
 20
-155.5036846344
 10
1.4503159713
 20
-155.5510706996
 10
1.4608137026
 20
-155.5980816553
 10
1.4694715289
 20
-155.6447205554
 10
1.4762185826
 20
-155.6906056427
 10
1.4810312412
 20
-155.735609665
 10
1.4839331272
 20
-155.7798598745
 10
1.4849242405
 20
-155.8233562714
  0
LWPOLYLINE
  5
234
100
AcDbEntity
  8
RACCORDO
100
AcDbPolyline
 62
7
  6
CONTINUOUS
 90
28
 70
0
 10
-27.7539411616
 20
-142.2072407642
 10
-27.7746130647
 20
-142.1945950159
 10
-27.7950776987
 20
-142.1807116564
 10
-27.8153350636
 20
-142.1655906856
 10
-27.8354521497
 20
-142.1491726978
 10
-27.8553619666
 20
-142.1315170987
 10
-27.8748635429
 20
-142.1128021054
 10
-27.8939527439
 20
-142.0930169883
 10
-27.9126337043
 20
-142.0721724771
 10
-27.9307178569
 20
-142.050478978
 10
-27.948199157
 20
-142.0279278924
 10
-27.9650836494
 20
-142.004527819
 10
-27.9812009004
 20
-141.9805149601
 10
-27.9965431393
 20
-141.9558831093
 10
-28.0111181369
 20
-141.930638473
 10
-28.0247787718
 20
-141.9050358729
 10
-28.0375157832
 20
-141.8790716832
 10
-28.0493384321
 20
-141.8527495296
 10
-28.0601273794
 20
-141.8263351102
 10
-28.0698721558
 20
-141.7998274905
 10
-28.0785832307
 20
-141.7732276049
 10
-28.0861726738
 20
-141.746803955
 10
-28.092629125
 20
-141.7205583258
 10
-28.0979639443
 20
-141.6944889323
 10
-28.1021232817
 20
-141.6688589212
 10
-28.1050891872
 20
-141.6437560081
 10
-28.1068796106
 20
-141.6190924774
 10
-28.1074945522
 20
-141.5948683291
  0
LWPOLYLINE
  5
235
100
AcDbEntity
  8
RACCORDO
100
AcDbPolyline
 62
7
  6
CONTINUOUS
 90
28
 70
0
 10
0.4242640687
 20
-158.4769833083
 10
0.4035921655
 20
-158.4643375601
 10
0.3831275315
 20
-158.4504542005
 10
0.3628701667
 20
-158.4353332297
 10
0.3427530806
 20
-158.4189152419
 10
0.3228432637
 20
-158.4012596428
 10
0.3033416874
 20
-158.3825446495
 10
0.2842524864
 20
-158.3627595325
 10
0.265571526
 20
-158.3419150212
 10
0.2474873734
 20
-158.3202215221
 10
0.2300060732
 20
-158.2976704365
 10
0.2131215809
 20
-158.2742703631
 10
0.1970043299
 20
-158.2502575042
 10
0.181662091
 20
-158.2256256534
 10
0.1670870934
 20
-158.2003810172
 10
0.1534264585
 20
-158.174778417
 10
0.140689447
 20
-158.1488142273
 10
0.1288667982
 20
-158.1224920738
 10
0.1180778509
 20
-158.0960776543
 10
0.1083330745
 20
-158.0695700346
 10
0.0996219996
 20
-158.042970149
 10
0.0920325565
 20
-158.0165464992
 10
0.0855761053
 20
-157.9903008699
 10
0.080241286
 20
-157.9642314764
 10
0.0760819486
 20
-157.9386014653
 10
0.0731160431
 20
-157.9134985522
 10
0.0713256196
 20
-157.8888350215
 10
0.0707106781
 20
-157.8646108732
  0
LINE
  5
236
100
AcDbEntity
  8
RACCORDO
100
AcDbLine
 62
7
  6
CONTINUOUS
 10
-43.0628029743
 20
-141.9002102111
 11
-35.9221973748
 21
-147.4769215543
  0
LWPOLYLINE
  5
237
100
AcDbEntity
  8
RACCORDO
100
AcDbPolyline
 62
7
  6
CONTINUOUS
 90
34
 70
0
 10
-35.9221973748
 20
-147.4769215543
 10
-35.8026555171
 20
-147.5727554099
 10
-35.6842579896
 20
-147.6725642681
 10
-35.5670047922
 20
-147.7763481287
 10
-35.4507601773
 20
-147.8842389249
 10
-35.3356598925
 20
-147.9961047235
 10
-35.2221111811
 20
-148.1115497257
 10
-35.110119539
 20
-148.2305866101
 10
-34.9996794703
 20
-148.3532026981
 10
-34.8911817293
 20
-148.4789641544
 10
-34.7846331965
 20
-148.6078821209
 10
-34.6800269915
 20
-148.7399454558
 10
-34.5777332276
 20
-148.8746868979
 10
-34.4777600964
 20
-149.012115934
 10
-34.3800994063
 20
-149.1522230774
 10
-34.2850966964
 20
-149.2945126066
 10
-34.1927613822
 20
-149.4389922525
 10
-34.1030840483
 20
-149.5856542843
 10
-34.0163819871
 20
-149.7339797884
 10
-33.9326657383
 20
-149.8839746575
 10
-33.8519247624
 20
-150.0356329988
 10
-33.7744447337
 20
-150.1884182211
 10
-33.7002372037
 20
-150.3423343162
 10
-33.629290621
 20
-150.4973772924
 10
-33.5618560058
 20
-150.6529985828
 10
-33.4979457988
 20
-150.8092002361
 10
-33.4375475593
 20
-150.9659802037
 10
-33.380874986
 20
-151.1227837732
 10
-33.3279412764
 20
-151.2796110281
 10
-33.2787332329
 20
-151.4364618849
 10
-33.2334249615
 20
-151.5927813803
 10
-33.1920744974
 20
-151.7483845265
 10
-33.1546238052
 20
-151.9034563113
 10
-33.1210728852
 20
-152.0579967347
  0
LWPOLYLINE
  5
238
100
AcDbEntity
  8
ASSI
100
AcDbPolyline
 62
7
  6
CONTINUOUS
 90
46
 70
0
 10
-31.7490944753
 20
-158.7623746373
 10
-30.4301424663
 20
-160.1101966357
 10
-29.1036408433
 20
-161.4365687614
 10
-27.7695896064
 20
-162.7414910144
 10
-26.4276123834
 20
-164.0253154608
 10
-25.0780855465
 20
-165.2876900345
 10
-23.722138212
 20
-166.5275585372
 10
-22.3597650068
 20
-167.7449021333
 10
-20.990971304
 20
-168.9397396585
 10
-19.6169023404
 20
-170.1110714209
 10
-18.2375537011
 20
-171.2588777485
 10
-16.8529298008
 20
-172.3831783135
 10
-15.4641891211
 20
-173.4830324406
 10
-14.0713282165
 20
-174.5584196705
 10
-12.6743505324
 20
-175.6093604627
 10
-11.2744248862
 20
-176.6349755203
 10
-9.8715488108
 20
-177.635243648
 10
-8.4657247734
 20
-178.6101860411
 10
-7.0581289929
 20
-179.558986989
 10
-5.6487599866
 20
-180.4816246136
 10
-4.2376192372
 20
-181.3781207929
 10
-2.8258874122
 20
-182.2477254502
 10
-1.4135640168
 20
-183.0904160799
 10
-0.0006495456
 20
-183.9062151875
 10
1.4116738498
 20
-184.6944402138
 10
2.8234056749
 20
-185.4550680817
 10
4.2345464242
 20
-186.1881218683
 10
5.6439154306
 20
-186.8929882451
 10
7.051511211
 20
-187.5696436219
 10
8.4573352485
 20
-188.2181115889
 10
9.8602113239
 20
-188.8378495888
 10
11.26013697
 20
-189.428833577
 10
12.6571146541
 20
-189.991087598
 10
14.0499755587
 20
-190.5241412274
 10
15.4387162385
 20
-191.0279700272
 10
16.8233401387
 20
-191.5025984354
 10
18.2026887781
 20
-191.9476293419
 10
19.5767577417
 20
-192.3630379764
 10
20.9455514444
 20
-192.7488491091
 10
22.3079246497
 20
-193.1047399413
 10
23.6638719841
 20
-193.4306854324
 10
25.013398821
 20
-193.726710623
 10
26.3553760441
 20
-193.9925678358
 10
27.689427281
 20
-194.228174512
 10
29.0159289039
 20
-194.4336132106
 10
30.3348809129
 20
-194.6088839315
  0
LWPOLYLINE
  5
239
100
AcDbEntity
  8
RACCORDO
100
AcDbPolyline
 62
7
  6
CONTINUOUS
 90
16
 70
0
 10
2.833476538
 20
146.0576057433
 10
2.8589065259
 20
146.0738783605
 10
2.8829927116
 20
146.0925343061
 10
2.9055137807
 20
146.1134069257
 10
2.926456887
 20
146.1365144133
 10
2.9458348766
 20
146.1618385748
 10
2.9634891333
 20
146.1891721224
 10
2.9794055091
 20
146.2185315488
 10
2.993598152
 20
146.2499003613
 10
3.0059508899
 20
146.2830217944
 10
3.0164486212
 20
146.3179102331
 10
3.0251064475
 20
146.3545512923
 10
3.0318535012
 20
146.3926450512
 10
3.0366661598
 20
146.432091536
 10
3.0395680458
 20
146.4729907204
 10
3.0405591591
 20
146.5153426044
  0
LINE
  5
23A
100
AcDbEntity
  8
RACCORDO
100
AcDbLine
 62
250
  6
CONTINUOUS
 10
3.3940954647
 20
147.5359403132
 11
3.0405591591
 21
147.3318128812
  0
LINE
  5
23B
100
AcDbEntity
  8
RACCORDO
100
AcDbLine
 62
250
  6
CONTINUOUS
 10
3.0405591591
 20
146.5153426044
 11
4.1011168306
 21
147.127695312
  0
LINE
  5
23C
100
AcDbEntity
  8
RACCORDO
100
AcDbLine
 62
7
  6
CONTINUOUS
 10
2.8334765381
 20
146.0576057433
 11
4.2476901004
 21
146.8741549299
  0
LINE
  5
23D
100
AcDbEntity
  8
ASSI
100
AcDbLine
 62
7
  6
CONTINUOUS
 10
31.7490944753
 20
158.7623746373
 11
30.3348809129
 21
157.9458254506
  0
LWPOLYLINE
  5
23E
100
AcDbEntity
  8
RACCORDO
100
AcDbPolyline
 62
7
  6
CONTINUOUS
 90
15
 70
0
 10
3.1441058931
 20
147.5606719186
 10
3.151510572
 20
147.5647037509
 10
3.1668528109
 20
147.5716187688
 10
3.1829700619
 20
147.5770198302
 10
3.1998545542
 20
147.5809221151
 10
3.2173358544
 20
147.5832862334
 10
3.235420007
 20
147.5840966064
 10
3.2541009674
 20
147.5833688128
 10
3.2731901684
 20
147.5811101991
 10
3.2926917447
 20
147.5773052608
 10
3.3126015616
 20
147.5719695024
 10
3.3327186477
 20
147.5651567834
 10
3.3529760125
 20
147.5568850571
 10
3.3734406465
 20
147.5471363703
 10
3.3941125497
 20
147.5359107229
  0
LWPOLYLINE
  5
23F
100
AcDbEntity
  8
RACCORDO
100
AcDbPolyline
 62
7
  6
CONTINUOUS
 90
37
 70
0
 10
-28.1074945522
 20
-135.4711834335
 10
-28.0456129797
 20
-135.5084918628
 10
-27.9840823426
 20
-135.5486755591
 10
-27.9229026409
 20
-135.5917345224
 10
-27.8619588977
 20
-135.6377615465
 10
-27.8013660899
 20
-135.6866638376
 10
-27.7414691484
 20
-135.7381630143
 10
-27.6822720419
 20
-135.7922738879
 10
-27.6237708017
 20
-135.8489816471
 10
-27.566298452
 20
-135.9079634772
 10
-27.5098608612
 20
-135.9692323482
 10
-27.4544521609
 20
-136.0327752901
 10
-27.400387771
 20
-136.0982305781
 10
-27.3476753586
 20
-136.1656091192
 10
-27.2963072565
 20
-136.2349000063
 10
-27.246575883
 20
-136.3057087941
 10
-27.198490573
 20
-136.3780441397
 10
-27.1520419916
 20
-136.4518973859
 10
-27.1074945522
 20
-136.5268481154
 10
-27.0648590976
 20
-136.6029025877
 10
-27.024124785
 20
-136.6800545434
 10
-26.9855234986
 20
-136.7578647869
 10
-26.9490674039
 20
-136.8363370728
 10
-26.9147443354
 20
-136.9154676466
 10
-26.8827496808
 20
-136.9948060493
 10
-26.8530967199
 20
-137.0743534663
 10
-26.8257721728
 20
-137.1541087122
 10
-26.8009315873
 20
-137.233617772
 10
-26.7785891305
 20
-137.3128792416
 10
-26.7587306354
 20
-137.3918945252
 10
-26.7414691484
 20
-137.4702138201
 10
-26.7268194814
 20
-137.5478331567
 10
-26.7147668225
 20
-137.6247565046
 10
-26.7053797829
 20
-137.7005459696
 10
-26.6986812327
 20
-137.7750555872
 10
-26.6946483017
 20
-137.8484313218
 10
-26.6932809898
 20
-137.9206731737
  0
LINE
  5
240
100
AcDbEntity
  8
CURVE
100
AcDbLine
 62
250
  6
CONTINUOUS
 10
-8.0317491658
 20
172.2596246246
 11
-6.5472082137
 21
174.341762281
  0
LINE
  5
241
100
AcDbEntity
  8
CURVE
100
AcDbLine
 62
250
  6
CONTINUOUS
 10
-6.3639610307
 20
173.6263504523
 11
-7.6652547996
 21
171.8012254837
  0
LINE
  5
242
100
AcDbEntity
  8
RACCORDO
100
AcDbLine
 62
250
  6
CONTINUOUS
 10
33.1210728852
 20
152.0579967347
 11
31.7068593228
 21
151.2414475481
  0
LINE
  5
243
100
AcDbEntity
  8
RACCORDO
100
AcDbLine
 62
250
  6
CONTINUOUS
 10
35.9221973748
 20
147.4769215543
 11
34.5079838124
 21
146.6603723676
  0
LINE
  5
244
100
AcDbEntity
  8
ASSI
100
AcDbLine
 62
7
  6
CONTINUOUS
 10
43.0628029743
 20
141.9002102111
 11
41.6485894119
 21
141.0836610245
  0
LINE
  5
245
100
AcDbEntity
  8
RACCORDO
100
AcDbLine
 62
7
  6
CONTINUOUS
 10
-31.7490944753
 20
193.7923347448
 11
-33.1210728852
 21
188.6722831201
  0
LWPOLYLINE
  5
246
100
AcDbEntity
  8
RACCORDO
100
AcDbPolyline
 62
7
  6
CONTINUOUS
 90
17
 70
0
 10
-33.1210728852
 20
188.6722831201
 10
-33.1546238052
 20
188.5564864583
 10
-33.1920744974
 20
188.444661794
 10
-33.2334249615
 20
188.3368091272
 10
-33.2787332329
 20
188.232810488
 10
-33.3279412764
 20
188.1327838464
 10
-33.380874986
 20
188.0370831125
 10
-33.4375475593
 20
187.9457236101
 10
-33.4979457988
 20
187.8586900155
 10
-33.5618560058
 20
187.7762902673
 10
-33.629290621
 20
187.6985407801
 10
-33.7002372037
 20
187.6254251394
 10
-33.7744447337
 20
187.5572020399
 10
-33.8519247624
 20
187.4938888125
 10
-33.9326657383
 20
187.4354681264
 10
-34.0163819871
 20
187.3821466831
 10
-34.0360161233
 20
187.3706319211
  0
LWPOLYLINE
  5
247
100
AcDbEntity
  8
CURVE
100
AcDbPolyline
 62
250
  6
CONTINUOUS
 90
17
 70
0
 10
-8.0317491658
 20
172.2596246246
 10
-8.0490164161
 20
172.2261466669
 10
-8.0586461339
 20
172.1852137337
 10
-8.0602715263
 20
172.1383849479
 10
-8.053643405
 20
172.0865086635
 10
-8.0392460709
 20
172.033375356
 10
-8.0175833537
 20
171.9801296725
 10
-7.9894803797
 20
171.9287997244
 10
-7.9553685813
 20
171.8805396846
 10
-7.9177404258
 20
171.8388757983
 10
-7.8774749995
 20
171.8045079637
 10
-7.8361060001
 20
171.7787452408
 10
-7.7944927535
 20
171.7623715225
 10
-7.7556758398
 20
171.7565831969
 10
-7.720394645
 20
171.7612254225
 10
-7.689993019
 20
171.7761213785
 10
-7.6652547903
 20
171.8012254968
  0
LWPOLYLINE
  5
248
100
AcDbEntity
  8
RACCORDO
100
AcDbPolyline
 62
7
  6
CONTINUOUS
 90
6
 70
0
 10
4.359944251
 20
146.9782516033
 10
4.3406704494
 20
146.9530635999
 10
4.3197273431
 20
146.9299561124
 10
4.297206274
 20
146.9090834928
 10
4.2731200882
 20
146.8904275472
 10
4.2476901004
 20
146.8741549299
  0
LINE
  5
249
100
AcDbEntity
  8
CURVE
100
AcDbLine
 62
250
  6
CONTINUOUS
 10
3.2785583723
 20
159.8460705016
 11
3.1324577719
 21
159.5930328817
  0
LINE
  5
24A
100
AcDbEntity
  8
CURVE
100
AcDbLine
 62
250
  6
CONTINUOUS
 10
3.481141122
 20
159.1015213713
 11
3.6715158658
 21
159.4312391953
  0
LINE
  5
24B
100
AcDbEntity
  8
RACCORDO
100
AcDbLine
 62
7
  6
CONTINUOUS
 10
-33.1210728852
 20
-152.0579967347
 11
-31.7490944753
 21
-158.7623746373
  0
LINE
  5
24C
100
AcDbEntity
  8
ASSI
100
AcDbLine
 62
7
  6
CONTINUOUS
 10
-43.0628029743
 20
189.9949573051
 11
-43.0628029743
 21
-141.9002102111
  0
LINE
  5
24D
100
AcDbEntity
  8
CURVE
100
AcDbLine
 62
250
  6
CONTINUOUS
 10
3.4376268358
 20
160.3052375781
 11
3.2785583723
 21
159.8460705016
  0
LINE
  5
24E
100
AcDbEntity
  8
CURVE
100
AcDbLine
 62
250
  6
CONTINUOUS
 10
3.6715158658
 20
159.4312391953
 11
3.8618909046
 21
159.9807758418
  0
LINE
  5
24F
100
AcDbEntity
  8
CURVE
100
AcDbLine
 62
250
  6
CONTINUOUS
 10
9.4886938777
 20
160.4065672152
 11
9.3926925051
 21
160.1294506108
  0
LINE
  5
250
100
AcDbEntity
  8
CURVE
100
AcDbLine
 62
250
  6
CONTINUOUS
 10
9.7635126818
 20
159.6507180983
 11
9.8911859542
 21
160.0192584928
  0
LWPOLYLINE
  5
251
100
AcDbEntity
  8
RACCORDO
100
AcDbPolyline
 62
7
  6
CONTINUOUS
 90
28
 70
0
 10
-26.6932809898
 20
-140.7783191425
 10
-26.6926660483
 20
-140.8025432908
 10
-26.6908756248
 20
-140.8272068214
 10
-26.6879097194
 20
-140.8523097346
 10
-26.6837503819
 20
-140.8779397457
 10
-26.6784155626
 20
-140.9040091392
 10
-26.6719591114
 20
-140.9302547684
 10
-26.6643696683
 20
-140.9566784183
 10
-26.6556585934
 20
-140.9832783038
 10
-26.645913817
 20
-141.0097859236
 10
-26.6351248697
 20
-141.036200343
 10
-26.6233022209
 20
-141.0625224966
 10
-26.6105652094
 20
-141.0884866862
 10
-26.5969045745
 20
-141.1140892864
 10
-26.5823295769
 20
-141.1393339226
 10
-26.566987338
 20
-141.1639657734
 10
-26.550870087
 20
-141.1879786323
 10
-26.5339855947
 20
-141.2113787058
 10
-26.5165042945
 20
-141.2339297914
 10
-26.4984201419
 20
-141.2556232905
 10
-26.4797391815
 20
-141.2764678017
 10
-26.4606499805
 20
-141.2962529188
 10
-26.4411484042
 20
-141.314967912
 10
-26.4212385873
 20
-141.3326235111
 10
-26.4011215012
 20
-141.3490414989
 10
-26.3808641364
 20
-141.3641624698
 10
-26.3603995024
 20
-141.3780458293
 10
-26.3397275992
 20
-141.3906915775
  0
LWPOLYLINE
  5
252
100
AcDbEntity
  8
RACCORDO
100
AcDbPolyline
 62
7
  6
CONTINUOUS
 90
37
 70
0
 10
-32.8804653252
 20
-131.0823893749
 10
-32.8790980133
 20
-131.1546312268
 10
-32.8750650823
 20
-131.2280069615
 10
-32.8683665321
 20
-131.302516579
 10
-32.8589794924
 20
-131.378306044
 10
-32.8469268336
 20
-131.4552293919
 10
-32.8322771666
 20
-131.5328487285
 10
-32.8150156796
 20
-131.6111680234
 10
-32.7951571844
 20
-131.690183307
 10
-32.7728147277
 20
-131.7694447766
 10
-32.7479741422
 20
-131.8489538364
 10
-32.7206495951
 20
-131.9287090823
 10
-32.6909966342
 20
-132.0082564993
 10
-32.6590019795
 20
-132.087594902
 10
-32.6246789111
 20
-132.1667254758
 10
-32.5882228164
 20
-132.2451977617
 10
-32.54962153
 20
-132.3230080053
 10
-32.5088872173
 20
-132.4001599609
 10
-32.4662517628
 20
-132.4762144332
 10
-32.4217043233
 20
-132.5511651628
 10
-32.3752557419
 20
-132.6250184089
 10
-32.327170432
 20
-132.6973537545
 10
-32.2774390585
 20
-132.7681625423
 10
-32.2260709564
 20
-132.8374534295
 10
-32.173358544
 20
-132.9048319705
 10
-32.1192941541
 20
-132.9702872585
 10
-32.0638854538
 20
-133.0338302004
 10
-32.0074478629
 20
-133.0950990714
 10
-31.9499755133
 20
-133.1540809015
 10
-31.8914742731
 20
-133.2107886607
 10
-31.8322771666
 20
-133.2648995343
 10
-31.7723802251
 20
-133.3163987111
 10
-31.7117874173
 20
-133.3653010022
 10
-31.6508436741
 20
-133.4113280263
 10
-31.5896639724
 20
-133.4543869896
 10
-31.5281333353
 20
-133.4945706859
 10
-31.4662517628
 20
-133.5318791152
  0
LWPOLYLINE
  5
253
100
AcDbEntity
  8
RACCORDO
100
AcDbPolyline
 62
7
  6
CONTINUOUS
 90
37
 70
0
 10
-28.1074945522
 20
-138.7372223604
 10
-28.108861864
 20
-138.6649805085
 10
-28.1128947951
 20
-138.5916047738
 10
-28.1195933452
 20
-138.5170951563
 10
-28.1289803849
 20
-138.4413056912
 10
-28.1410330438
 20
-138.3643823434
 10
-28.1556827108
 20
-138.2867630067
 10
-28.1729441977
 20
-138.2084437119
 10
-28.1928026929
 20
-138.1294284283
 10
-28.2151451497
 20
-138.0501669587
 10
-28.2399857351
 20
-137.9706578988
 10
-28.2673102822
 20
-137.890902653
 10
-28.2969632431
 20
-137.811355236
 10
-28.3289578978
 20
-137.7320168333
 10
-28.3632809663
 20
-137.6528862595
 10
-28.3997370609
 20
-137.5744139736
 10
-28.4383383474
 20
-137.49660373
 10
-28.47907266
 20
-137.4194517744
 10
-28.5217081145
 20
-137.343397302
 10
-28.566255554
 20
-137.2684465725
 10
-28.6127041354
 20
-137.1945933263
 10
-28.6607894454
 20
-137.1222579807
 10
-28.7105208189
 20
-137.051449193
 10
-28.7618889209
 20
-136.9821583058
 10
-28.8146013334
 20
-136.9147797648
 10
-28.8686657233
 20
-136.8493244768
 10
-28.9240744235
 20
-136.7857815349
 10
-28.9805120144
 20
-136.7245126639
 10
-29.037984364
 20
-136.6655308338
 10
-29.0964856043
 20
-136.6088230745
 10
-29.1556827108
 20
-136.554712201
 10
-29.2155796523
 20
-136.5032130242
 10
-29.2761724601
 20
-136.4543107331
 10
-29.3371162033
 20
-136.408283709
 10
-29.3982959049
 20
-136.3652247457
 10
-29.459826542
 20
-136.3250410494
 10
-29.5217081145
 20
-136.2877326201
  0
LINE
  5
254
100
AcDbEntity
  8
RACCORDO
100
AcDbLine
 62
7
  6
CONTINUOUS
 10
-34.2946788875
 20
-131.8989385616
 11
-34.2946788875
 21
155.4169518418
  0
LINE
  5
255
100
AcDbEntity
  8
RACCORDO
100
AcDbLine
 62
7
  6
CONTINUOUS
 10
-32.8804653252
 20
156.2335010285
 11
-32.8804653252
 21
-131.0823893749
  0
LINE
  5
256
100
AcDbEntity
  8
RACCORDO
100
AcDbLine
 62
7
  6
CONTINUOUS
 10
-28.1074945522
 20
165.3163087173
 11
-28.1074945522
 21
155.1104302574
  0
LINE
  5
257
100
AcDbEntity
  8
RACCORDO
100
AcDbLine
 62
7
  6
CONTINUOUS
 10
-28.1074945522
 20
-138.7372223604
 11
-28.1074945522
 21
-141.5948683291
  0
LINE
  5
258
100
AcDbEntity
  8
RACCORDO
100
AcDbLine
 62
7
  6
CONTINUOUS
 10
-26.6932809898
 20
164.907994669
 11
-26.6932809898
 21
155.926979444
  0
LINE
  5
259
100
AcDbEntity
  8
RACCORDO
100
AcDbLine
 62
7
  6
CONTINUOUS
 10
-26.6932809898
 20
-137.9206731737
 11
-26.6932809898
 21
-140.7783191425
  0
LWPOLYLINE
  5
25A
100
AcDbEntity
  8
RACCORDO
100
AcDbPolyline
 62
7
  6
CONTINUOUS
 90
19
 70
0
 10
-34.2946788875
 20
155.4169518418
 10
-34.2933115757
 20
155.4876147562
 10
-34.2892786447
 20
155.5563333632
 10
-34.2825800945
 20
155.6231076629
 10
-34.2731930548
 20
155.6880572098
 10
-34.261140396
 20
155.7510624494
 10
-34.246490729
 20
155.8117647178
 10
-34.229229242
 20
155.8701508801
 10
-34.2093707468
 20
155.9262340713
 10
-34.1870282901
 20
155.9796950319
 10
-34.1621877046
 20
156.0305188063
 10
-34.1348631575
 20
156.0787203501
 10
-34.1052101966
 20
156.124025271
 10
-34.0732155419
 20
156.1664170485
 10
-34.0388924734
 20
156.2059122032
 10
-34.0024363788
 20
156.2422859048
 10
-33.9638350923
 20
156.2755203504
 10
-33.9231007797
 20
156.3056333428
 10
-33.8805136454
 20
156.3324255641
  0
LWPOLYLINE
  5
25B
100
AcDbEntity
  8
RACCORDO
100
AcDbPolyline
 62
7
  6
CONTINUOUS
 90
19
 70
0
 10
-26.6932809898
 20
155.926979444
 10
-26.6946483017
 20
155.8563165296
 10
-26.6986812327
 20
155.7875979226
 10
-26.7053797829
 20
155.7208236229
 10
-26.7147668225
 20
155.655874076
 10
-26.7268194814
 20
155.5928688364
 10
-26.7414691484
 20
155.5321665681
 10
-26.7587306354
 20
155.4737804057
 10
-26.7785891305
 20
155.4176972146
 10
-26.8009315873
 20
155.364236254
 10
-26.8257721728
 20
155.3134124796
 10
-26.8530967199
 20
155.2652109358
 10
-26.8827496808
 20
155.2199060148
 10
-26.9147443354
 20
155.1775142373
 10
-26.9490674039
 20
155.1380190827
 10
-26.9855234986
 20
155.1016453811
 10
-27.024124785
 20
155.0684109355
 10
-27.0648590976
 20
155.038297943
 10
-27.1074462319
 20
155.0115057218
  0
LWPOLYLINE
  5
25C
100
AcDbEntity
  8
RACCORDO
100
AcDbPolyline
 62
7
  6
CONTINUOUS
 90
15
 70
0
 10
-28.1074945522
 20
165.3163087173
 10
-28.1068796106
 20
165.3398227465
 10
-28.1050891872
 20
165.362418741
 10
-28.1021232817
 20
165.3840967009
 10
-28.0979639443
 20
165.4049236134
 10
-28.092629125
 20
165.4248324912
 10
-28.0861726738
 20
165.4436223725
 10
-28.0785832307
 20
165.4612819237
 10
-28.0698721558
 20
165.4778224783
 10
-28.0601273794
 20
165.4930770746
 10
-28.0493384321
 20
165.507032688
 10
-28.0375157832
 20
165.5197023431
 10
-28.0247787718
 20
165.5309581512
 10
-28.0111181369
 20
165.5407857926
 10
-28.0039478182
 20
165.5451677547
  0
LWPOLYLINE
  5
25D
100
AcDbEntity
  8
CURVE
100
AcDbPolyline
 62
250
  6
CONTINUOUS
 90
17
 70
0
 10
9.8911859681
 20
160.0192584794
 10
9.9003829472
 20
160.0605579376
 10
9.9015642169
 20
160.1076605469
 10
9.894684783
 20
160.1587721837
 10
9.8796766854
 20
160.2129019634
 10
9.8576365297
 20
160.2660947529
 10
9.8292088624
 20
160.3172618603
 10
9.7954764845
 20
160.3644543461
 10
9.7570221805
 20
160.4065518229
 10
9.7166557143
 20
160.4404783292
 10
9.6752716519
 20
160.465736937
 10
9.6344462994
 20
160.4813655538
 10
9.5950717989
 20
160.4867705968
 10
9.5600251506
 20
160.4815571325
 10
9.5299269157
 20
160.4661110909
 10
9.5059235264
 20
160.4410208069
 10
9.4886938718
 20
160.4065671982
  0
LWPOLYLINE
  5
25E
100
AcDbEntity
  8
RACCORDO
100
AcDbPolyline
 62
7
  6
CONTINUOUS
 90
28
 70
0
 10
1.4849242405
 20
-157.0480616866
 10
1.485539182
 20
-157.0722858349
 10
1.4873296055
 20
-157.0969493656
 10
1.4902955109
 20
-157.1220522787
 10
1.4944548483
 20
-157.1476822898
 10
1.4997896677
 20
-157.1737516833
 10
1.5062461189
 20
-157.1999973125
 10
1.513835562
 20
-157.2264209624
 10
1.5225466369
 20
-157.2530208479
 10
1.5322914132
 20
-157.2795284677
 10
1.5430803606
 20
-157.3059428871
 10
1.5549030094
 20
-157.3322650407
 10
1.5676400209
 20
-157.3582292303
 10
1.5813006558
 20
-157.3838318305
 10
1.5958756533
 20
-157.4090764668
 10
1.6112178922
 20
-157.4337083175
 10
1.6273351433
 20
-157.4577211765
 10
1.6442196356
 20
-157.4811212499
 10
1.6617009358
 20
-157.5036723355
 10
1.6797850884
 20
-157.5253658346
 10
1.6984660488
 20
-157.5462103458
 10
1.7175552498
 20
-157.5659954629
 10
1.7370568261
 20
-157.5847104561
 10
1.756966643
 20
-157.6023660552
 10
1.7770837291
 20
-157.618784043
 10
1.7973410939
 20
-157.6339050139
 10
1.8178057279
 20
-157.6477883734
 10
1.8384776311
 20
-157.6604341217
  0
LWPOLYLINE
  5
25F
100
AcDbEntity
  8
RACCORDO
100
AcDbPolyline
 62
7
  6
CONTINUOUS
 90
31
 70
0
 10
0.0707106781
 20
-156.6399054581
 10
0.0697195648
 20
-156.5964090612
 10
0.0668176788
 20
-156.5521588516
 10
0.0620050203
 20
-156.5071548294
 10
0.0552579666
 20
-156.461269742
 10
0.0466001402
 20
-156.4146308419
 10
0.0361024089
 20
-156.3676198862
 10
0.023749671
 20
-156.3202338211
 10
0.0095570281
 20
-156.2724757003
 10
-0.0063593477
 20
-156.2247364421
 10
-0.0240136044
 20
-156.1770162013
 10
-0.043391594
 20
-156.1293148232
 10
-0.0643347003
 20
-156.0820227615
 10
-0.0868557693
 20
-156.0351433758
 10
-0.1109419551
 20
-155.9886733066
 10
-0.1363961031
 20
-155.9429929289
 10
-0.1632294411
 20
-155.8981087244
 10
-0.1914307413
 20
-155.8540142114
 10
-0.2207691653
 20
-155.8110703202
 10
-0.2512540464
 20
-155.769286495
 10
-0.2828760514
 20
-155.7286532915
 10
-0.3153763421
 20
-155.689503308
 10
-0.3487621274
 20
-155.6518487183
 10
-0.3830261984
 20
-155.6156773487
 10
-0.4178880908
 20
-155.5812852753
 10
-0.4533527114
 20
-155.5486871024
 10
-0.4894151534
 20
-155.5178682257
 10
-0.525780232
 20
-155.4890809095
 10
-0.5623495524
 20
-155.4624092418
 10
-0.5992215094
 20
-155.4377691346
 10
-0.6363961031
 20
-155.4151605879
  0
LWPOLYLINE
  5
260
100
AcDbEntity
  8
RACCORDO
100
AcDbPolyline
 62
7
  6
CONTINUOUS
 90
31
 70
0
 10
-4.4547727215
 20
150.8430532937
 10
-4.4537816081
 20
150.7995568968
 10
-4.4508797222
 20
150.7553066873
 10
-4.4460670636
 20
150.710302665
 10
-4.4393200099
 20
150.6644175776
 10
-4.4306621836
 20
150.6177786776
 10
-4.4201644523
 20
150.5707677218
 10
-4.4078117144
 20
150.5233816567
 10
-4.3936190714
 20
150.4756235359
 10
-4.3777026956
 20
150.4278842777
 10
-4.3600484389
 20
150.3801640369
 10
-4.3406704494
 20
150.3324626588
 10
-4.3197273431
 20
150.2851705971
 10
-4.297206274
 20
150.2382912114
 10
-4.2731200882
 20
150.1918211422
 10
-4.2476659403
 20
150.1461407645
 10
-4.2208326023
 20
150.10125656
 10
-4.1926313021
 20
150.057162047
 10
-4.1632928781
 20
150.0142181559
 10
-4.1328079969
 20
149.9724343306
 10
-4.101185992
 20
149.9318011271
 10
-4.0686857012
 20
149.8926511436
 10
-4.035299916
 20
149.854996554
 10
-4.0010358449
 20
149.8188251843
 10
-3.9661739525
 20
149.784433111
 10
-3.9307093319
 20
149.751834938
 10
-3.89464689
 20
149.7210160613
 10
-3.8582818113
 20
149.6922287451
 10
-3.821712491
 20
149.6655570775
 10
-3.784840534
 20
149.6409169703
 10
-3.7476659403
 20
149.6183084236
  0
LINE
  5
261
100
AcDbEntity
  8
CURVE
100
AcDbLine
 62
250
  6
CONTINUOUS
 10
-6.576093065
 20
170.560928843
 11
-6.576093065
 21
164.0291666287
  0
LINE
  5
262
100
AcDbEntity
  8
CURVE
100
AcDbLine
 62
250
  6
CONTINUOUS
 10
-6.1518289963
 20
170.315964087
 11
-6.1518289963
 21
163.7842018727
  0
LINE
  5
263
100
AcDbEntity
  8
RACCORDO
100
AcDbLine
 62
7
  6
CONTINUOUS
 10
-4.4547727215
 20
151.6595235705
 11
-4.4547727215
 21
150.8430532937
  0
LINE
  5
264
100
AcDbEntity
  8
RACCORDO
100
AcDbLine
 62
7
  6
CONTINUOUS
 10
-1.4849242405
 20
-155.7417013527
 11
-1.4849242405
 21
-156.9664067679
  0
LINE
  5
265
100
AcDbEntity
  8
CURVE
100
AcDbLine
 62
250
  6
CONTINUOUS
 10
-0.7071067812
 20
168.309027775
 11
-0.7071067812
 21
162.6188578425
  0
LINE
  5
266
100
AcDbEntity
  8
CURVE
100
AcDbLine
 62
250
  6
CONTINUOUS
 10
-0.2828427125
 20
162.4533900167
 11
-0.2828427125
 21
168.064063019
  0
LINE
  5
267
100
AcDbEntity
  8
RACCORDO
100
AcDbLine
 62
7
  6
CONTINUOUS
 10
0.0707106781
 20
-157.8646108732
 11
0.0707106781
 21
-156.6399054581
  0
LINE
  5
268
100
AcDbEntity
  8
RACCORDO
100
AcDbLine
 62
7
  6
CONTINUOUS
 10
1.4849242405
 20
-157.0480616866
 11
1.4849242405
 21
-155.8233562714
  0
LWPOLYLINE
  5
269
100
AcDbEntity
  8
RACCORDO
100
AcDbPolyline
 62
7
  6
CONTINUOUS
 90
15
 70
0
 10
3.0405591591
 20
147.3318128812
 10
3.0411741006
 20
147.3553269104
 10
3.0429645241
 20
147.3779229049
 10
3.0459304295
 20
147.3996008648
 10
3.050089767
 20
147.4204277773
 10
3.0554245863
 20
147.4403366552
 10
3.0618810375
 20
147.4591265364
 10
3.0694704806
 20
147.4767860876
 10
3.0781815555
 20
147.4933266423
 10
3.0879263318
 20
147.5085812385
 10
3.0987152792
 20
147.522536852
 10
3.110537928
 20
147.535206507
 10
3.1232749395
 20
147.5464623151
 10
3.1369355744
 20
147.5562899565
 10
3.1441058931
 20
147.5606719186
  0
LWPOLYLINE
  5
26A
100
AcDbEntity
  8
CURVE
100
AcDbPolyline
 62
250
  6
CONTINUOUS
 90
17
 70
0
 10
-6.576093065
 20
164.0291666287
 10
-6.5720530434
 20
163.9792579985
 10
-6.5600868616
 20
163.9265850567
 10
-6.5406503079
 20
163.8731540995
 10
-6.5139610307
 20
163.8200928699
 10
-6.4819691513
 20
163.7712784246
 10
-6.4454823793
 20
163.7276215452
 10
-6.4058904844
 20
163.6907851086
 10
-6.3639610307
 20
163.6617431676
 10
-6.3227577026
 20
163.6426177473
 10
-6.2831237965
 20
163.633550538
 10
-6.2465689555
 20
163.634886907
 10
-6.2139610307
 20
163.6468766298
 10
-6.1876826047
 20
163.6686436463
 10
-6.1681185692
 20
163.6994775554
 10
-6.1560141122
 20
163.7382039031
 10
-6.1518289963
 20
163.7842018941
  0
LWPOLYLINE
  5
26B
100
AcDbEntity
  8
CURVE
100
AcDbPolyline
 62
250
  6
CONTINUOUS
 90
17
 70
0
 10
-6.1518289963
 20
170.315964087
 10
-6.155869018
 20
170.3658727172
 10
-6.1678351997
 20
170.418545659
 10
-6.1872717534
 20
170.4719766162
 10
-6.2139610307
 20
170.5250378458
 10
-6.2459529101
 20
170.5738522911
 10
-6.2824396821
 20
170.6175091705
 10
-6.322031577
 20
170.6543456071
 10
-6.3639610307
 20
170.6833875481
 10
-6.4051643587
 20
170.7025129684
 10
-6.4447982648
 20
170.7115801777
 10
-6.4813531058
 20
170.7102438087
 10
-6.5139610307
 20
170.6982540859
 10
-6.5402394567
 20
170.6764870694
 10
-6.5598034922
 20
170.6456531603
 10
-6.5719079492
 20
170.6069268126
 10
-6.576093065
 20
170.5609288216
  0
LWPOLYLINE
  5
26C
100
AcDbEntity
  8
CURVE
100
AcDbPolyline
 62
250
  6
CONTINUOUS
 90
17
 70
0
 10
-0.2828427125
 20
168.064063019
 10
-0.2868827341
 20
168.1139716492
 10
-0.2988489159
 20
168.1666445909
 10
-0.3182854696
 20
168.2200755481
 10
-0.3449747468
 20
168.2731367777
 10
-0.3769666262
 20
168.321951223
 10
-0.4134533982
 20
168.3656081024
 10
-0.4530452931
 20
168.4024445391
 10
-0.4949747468
 20
168.43148648
 10
-0.5361780749
 20
168.4506119003
 10
-0.575811981
 20
168.4596791096
 10
-0.612366822
 20
168.4583427407
 10
-0.6449747468
 20
168.4463530178
 10
-0.6712531728
 20
168.4245860014
 10
-0.6908172083
 20
168.3937520923
 10
-0.7029216653
 20
168.3550257445
 10
-0.7071067812
 20
168.3090277535
  0
LINE
  5
26D
100
AcDbEntity
  8
RACCORDO
100
AcDbLine
 62
7
  6
CONTINUOUS
 10
3.0405591591
 20
146.5153426044
 11
3.0405591591
 21
147.3318128812
  0
LINE
  5
26E
100
AcDbEntity
  8
CURVE
100
AcDbLine
 62
250
  6
CONTINUOUS
 10
3.4376268358
 20
165.9159105302
 11
3.4376268358
 21
160.3052375781
  0
LINE
  5
26F
100
AcDbEntity
  8
CURVE
100
AcDbLine
 62
250
  6
CONTINUOUS
 10
3.8618909046
 20
159.9807758418
 11
3.8618909046
 21
165.6709457742
  0
LINE
  5
270
100
AcDbEntity
  8
CURVE
100
AcDbLine
 62
250
  6
CONTINUOUS
 10
5.3848903298
 20
164.7915849937
 11
5.3848903298
 21
157.3679858059
  0
LINE
  5
271
100
AcDbEntity
  8
CURVE
100
AcDbLine
 62
250
  6
CONTINUOUS
 10
5.8091543985
 20
157.1230210499
 11
5.8091543985
 21
164.5466202377
  0
LWPOLYLINE
  5
272
100
AcDbEntity
  8
RACCORDO
100
AcDbPolyline
 62
7
  6
CONTINUOUS
 90
15
 70
0
 10
-1.4849242405
 20
-156.9664067679
 10
-1.485539182
 20
-156.9899207971
 10
-1.4873296055
 20
-157.0125167917
 10
-1.4902955109
 20
-157.0341947515
 10
-1.4944548483
 20
-157.055021664
 10
-1.4997896677
 20
-157.0749305419
 10
-1.5062461189
 20
-157.0937204231
 10
-1.513835562
 20
-157.1113799744
 10
-1.5225466369
 20
-157.127920529
 10
-1.5322914132
 20
-157.1431751252
 10
-1.5430803606
 20
-157.1571307387
 10
-1.5549030094
 20
-157.1698003937
 10
-1.5676400209
 20
-157.1810562018
 10
-1.5813006558
 20
-157.1908838432
 10
-1.5884709745
 20
-157.1952658053
  0
LWPOLYLINE
  5
273
100
AcDbEntity
  8
CURVE
100
AcDbPolyline
 62
250
  6
CONTINUOUS
 90
17
 70
0
 10
3.8618909046
 20
165.6709457742
 10
3.8578508829
 20
165.7208544044
 10
3.8458847012
 20
165.7735273461
 10
3.8264481475
 20
165.8269583034
 10
3.7997588702
 20
165.8800195329
 10
3.7677669908
 20
165.9288339782
 10
3.7312802188
 20
165.9724908577
 10
3.6916883239
 20
166.0093272943
 10
3.6497588702
 20
166.0383692352
 10
3.6085555421
 20
166.0574946556
 10
3.568921636
 20
166.0665618649
 10
3.5323667951
 20
166.0652254959
 10
3.4997588702
 20
166.0532357731
 10
3.4734804442
 20
166.0314687566
 10
3.4539164087
 20
166.0006348475
 10
3.4418119517
 20
165.9619084998
 10
3.4376268358
 20
165.9159105088
  0
LWPOLYLINE
  5
274
100
AcDbEntity
  8
CURVE
100
AcDbPolyline
 62
250
  6
CONTINUOUS
 90
17
 70
0
 10
5.3848903298
 20
157.3679858059
 10
5.3889303515
 20
157.3180771756
 10
5.4008965332
 20
157.2654042339
 10
5.4203330869
 20
157.2119732767
 10
5.4470223642
 20
157.1589120471
 10
5.4790142436
 20
157.1100976018
 10
5.5155010156
 20
157.0664407224
 10
5.5550929105
 20
157.0296042857
 10
5.5970223642
 20
157.0005623448
 10
5.6382256922
 20
156.9814369245
 10
5.6778595984
 20
156.9723697152
 10
5.7144144393
 20
156.9737060842
 10
5.7470223642
 20
156.985695807
 10
5.7733007902
 20
157.0074628234
 10
5.7928648257
 20
157.0382967325
 10
5.8049692827
 20
157.0770230803
 10
5.8091543985
 20
157.1230210713
  0
LWPOLYLINE
  5
275
100
AcDbEntity
  8
CURVE
100
AcDbPolyline
 62
250
  6
CONTINUOUS
 90
17
 70
0
 10
5.8091543985
 20
164.5466202377
 10
5.8051143769
 20
164.5965288679
 10
5.7931481951
 20
164.6492018096
 10
5.7737116414
 20
164.7026327669
 10
5.7470223642
 20
164.7556939965
 10
5.7150304848
 20
164.8045084417
 10
5.6785437128
 20
164.8481653212
 10
5.6389518179
 20
164.8850017578
 10
5.5970223642
 20
164.9140436988
 10
5.5558190361
 20
164.9331691191
 10
5.51618513
 20
164.9422363284
 10
5.479630289
 20
164.9408999594
 10
5.4470223642
 20
164.9289102366
 10
5.4207439382
 20
164.9071432201
 10
5.4011799027
 20
164.876309311
 10
5.3890754457
 20
164.8375829633
 10
5.3848903298
 20
164.7915849723
  0
LINE
  5
276
100
AcDbEntity
  8
RACCORDO
100
AcDbLine
 62
7
  6
CONTINUOUS
 10
26.6932809898
 20
-173.236149312
 11
26.6932809898
 21
-170.3785033433
  0
LINE
  5
277
100
AcDbEntity
  8
RACCORDO
100
AcDbLine
 62
7
  6
CONTINUOUS
 10
26.6932809898
 20
123.4691492745
 11
26.6932809898
 21
133.6750277344
  0
LWPOLYLINE
  5
278
100
AcDbEntity
  8
RACCORDO
100
AcDbPolyline
 62
7
  6
CONTINUOUS
 90
37
 70
0
 10
26.6932809898
 20
123.4691492745
 10
26.6946483017
 20
123.3969074226
 10
26.6986812327
 20
123.3235316879
 10
26.7053797829
 20
123.2490220704
 10
26.7147668225
 20
123.1732326054
 10
26.7268194814
 20
123.0963092575
 10
26.7414691484
 20
123.0186899209
 10
26.7587306354
 20
122.940370626
 10
26.7785891305
 20
122.8613553424
 10
26.8009315873
 20
122.7820938728
 10
26.8257721728
 20
122.702584813
 10
26.8530967199
 20
122.6228295671
 10
26.8827496808
 20
122.5432821501
 10
26.9147443354
 20
122.4639437474
 10
26.9490674039
 20
122.3848131736
 10
26.9855234986
 20
122.3063408877
 10
27.024124785
 20
122.2285306441
 10
27.0648590976
 20
122.1513786885
 10
27.1074945522
 20
122.0753242162
 10
27.1520419916
 20
122.0003734866
 10
27.198490573
 20
121.9265202404
 10
27.246575883
 20
121.8541848949
 10
27.2963072565
 20
121.7833761071
 10
27.3476753586
 20
121.7140852199
 10
27.400387771
 20
121.6467066789
 10
27.4544521609
 20
121.5812513909
 10
27.5098608612
 20
121.517708449
 10
27.566298452
 20
121.456439578
 10
27.6237708017
 20
121.3974577479
 10
27.6822720419
 20
121.3407499887
 10
27.7414691484
 20
121.2866391151
 10
27.8013660899
 20
121.2351399383
 10
27.8619588977
 20
121.1862376472
 10
27.9229026409
 20
121.1402106231
 10
27.9840823426
 20
121.0971516598
 10
28.0456129797
 20
121.0569679635
 10
28.1074945522
 20
121.0196595342
  0
LINE
  5
279
100
AcDbEntity
  8
RACCORDO
100
AcDbLine
 62
7
  6
CONTINUOUS
 10
32.8804653252
 20
116.6308654757
 11
32.8804653252
 21
-170.6850249277
  0
LWPOLYLINE
  5
27A
100
AcDbEntity
  8
RACCORDO
100
AcDbPolyline
 62
7
  6
CONTINUOUS
 90
19
 70
0
 10
32.8804653252
 20
-170.6850249277
 10
32.8790980133
 20
-170.7556878421
 10
32.8750650823
 20
-170.8244064491
 10
32.8683665321
 20
-170.8911807488
 10
32.8589794924
 20
-170.9561302957
 10
32.8469268336
 20
-171.0191355353
 10
32.8322771666
 20
-171.0798378037
 10
32.8150156796
 20
-171.138223966
 10
32.7951571844
 20
-171.1943071572
 10
32.7728147277
 20
-171.2477681178
 10
32.7479741422
 20
-171.2985918921
 10
32.7206495951
 20
-171.3467934359
 10
32.6909966342
 20
-171.3920983569
 10
32.6590019795
 20
-171.4344901344
 10
32.6246789111
 20
-171.4739852891
 10
32.5882228164
 20
-171.5103589907
 10
32.54962153
 20
-171.5435934362
 10
32.5088872173
 20
-171.5737064287
 10
32.4663000831
 20
-171.60049865
  0
LWPOLYLINE
  5
27B
100
AcDbEntity
  8
RACCORDO
100
AcDbPolyline
 62
7
  6
CONTINUOUS
 90
15
 70
0
 10
26.6932809898
 20
-173.236149312
 10
26.6926660483
 20
-173.2596633412
 10
26.6908756248
 20
-173.2822593358
 10
26.6879097194
 20
-173.3039372956
 10
26.6837503819
 20
-173.3247642082
 10
26.6784155626
 20
-173.344673086
 10
26.6719591114
 20
-173.3634629672
 10
26.6643696683
 20
-173.3811225185
 10
26.6556585934
 20
-173.3976630731
 10
26.645913817
 20
-173.4129176693
 10
26.6351248697
 20
-173.4268732828
 10
26.6233022209
 20
-173.4395429378
 10
26.6105652094
 20
-173.4507987459
 10
26.5969045745
 20
-173.4606263873
 10
26.5897342558
 20
-173.4650083494
  0
LINE
  5
27C
100
AcDbEntity
  8
CURVE
100
AcDbLine
 62
250
  6
CONTINUOUS
 10
-0.7071067812
 20
162.6188578425
 11
-0.5167318715
 21
161.8494809477
  0
LINE
  5
27D
100
AcDbEntity
  8
CURVE
100
AcDbLine
 62
250
  6
CONTINUOUS
 10
-0.1237743859
 20
161.8105348456
 11
-0.2828427125
 21
162.4533900167
  0
LINE
  5
27E
100
AcDbEntity
  8
ASSI
100
AcDbLine
 62
7
  6
CONTINUOUS
 10
41.6485894119
 20
-190.8115064918
 11
41.6485894119
 21
141.0836610245
  0
LINE
  5
27F
100
AcDbEntity
  8
ASSI
100
AcDbLine
 62
7
  6
CONTINUOUS
 10
43.0628029743
 20
-189.9949573051
 11
43.0628029743
 21
141.9002102111
  0
LINE
  5
280
100
AcDbEntity
  8
CURVE
100
AcDbLine
 62
250
  6
CONTINUOUS
 10
-0.5167318715
 20
161.8494809477
 11
-0.3263569617
 21
161.2999230457
  0
LINE
  5
281
100
AcDbEntity
  8
CURVE
100
AcDbLine
 62
250
  6
CONTINUOUS
 10
0.0223263305
 20
161.3887838738
 11
-0.1237743859
 21
161.8105348456
  0
LINE
  5
282
100
AcDbEntity
  8
CURVE
100
AcDbLine
 62
250
  6
CONTINUOUS
 10
9.3926925088
 20
161.5785700128
 11
9.4886938915
 21
161.1905932172
  0
LINE
  5
283
100
AcDbEntity
  8
CURVE
100
AcDbLine
 62
250
  6
CONTINUOUS
 10
9.8911859954
 20
161.1131140931
 11
9.7635126818
 21
161.6290887775
  0
LWPOLYLINE
  5
284
100
AcDbEntity
  8
CURVE
100
AcDbPolyline
 62
250
  6
CONTINUOUS
 90
11
 70
0
 10
-6.1807138476
 20
174.1301530273
 10
-6.2064401366
 20
174.1856684818
 10
-6.2394227621
 20
174.2389429384
 10
-6.2778483076
 20
174.2866939727
 10
-6.3200373923
 20
174.3268346352
 10
-6.3634056709
 20
174.3571822965
 10
-6.4075223857
 20
174.3774355268
 10
-6.4497352602
 20
174.386112544
 10
-6.4881993893
 20
174.3828341208
 10
-6.5207358316
 20
174.3680889642
 10
-6.5472082253
 20
174.3417622649
  0
LWPOLYLINE
  5
285
100
AcDbEntity
  8
CURVE
100
AcDbPolyline
 62
250
  6
CONTINUOUS
 90
17
 70
0
 10
-5.0626672617
 20
170.2985240574
 10
-5.0384201832
 20
170.2457763216
 10
-5.00811684
 20
170.1957077403
 10
-4.9729114772
 20
170.1502254103
 10
-4.9334293079
 20
170.1104293465
 10
-4.8925551994
 20
170.079227352
 10
-4.8511807783
 20
170.0570483105
 10
-4.8108819834
 20
170.0447370149
 10
-4.7725534801
 20
170.0428221352
 10
-4.7389958401
 20
170.0514435872
 10
-4.7107869158
 20
170.0701462672
 10
-4.6890011762
 20
170.098217796
 10
-4.6742786563
 20
170.1353058109
 10
-4.6676950953
 20
170.1787003798
 10
-4.669176073
 20
170.2273290051
 10
-4.6786651796
 20
170.2793394374
 10
-4.6961729049
 20
170.3337047147
  0
LINE
  5
286
100
AcDbEntity
  8
CURVE
100
AcDbLine
 62
250
  6
CONTINUOUS
 10
-6.3639610307
 20
173.6263504523
 11
-5.0626672617
 21
170.2985240574
  0
LINE
  5
287
100
AcDbEntity
  8
CURVE
100
AcDbLine
 62
250
  6
CONTINUOUS
 10
-4.6961728956
 20
170.3337046908
 11
-6.1807138476
 21
174.1301530273
  0
LWPOLYLINE
  5
288
100
AcDbEntity
  8
CURVE
100
AcDbPolyline
 62
250
  6
CONTINUOUS
 90
17
 70
0
 10
9.4886938842
 20
161.1905932186
 10
9.5055562568
 20
161.1371977435
 10
9.5294417466
 20
161.0843605076
 10
9.5594405627
 20
161.0340940647
 10
9.5950717865
 20
160.9875472719
 10
9.6337319298
 20
160.9481211915
 10
9.6745330188
 20
160.9164552174
 10
9.7159209526
 20
160.8937554966
 10
9.7570221663
 20
160.8807497766
 10
9.7948334927
 20
160.878388354
 10
9.8286494564
 20
160.8864431398
 10
9.8571820176
 20
160.9046073297
 10
9.8796766877
 20
160.9327612569
 10
9.894489835
 20
160.9688477815
 10
9.9015117404
 20
161.011904943
 10
9.9004749416
 20
161.0602927074
 10
9.8911859896
 20
161.1131141168
  0
LWPOLYLINE
  5
289
100
AcDbEntity
  8
RACCORDO
100
AcDbPolyline
 62
7
  6
CONTINUOUS
 90
34
 70
0
 10
33.1210728852
 20
152.0579967347
 10
33.1546238052
 20
151.9034563113
 10
33.1920744974
 20
151.7483845265
 10
33.2334249615
 20
151.5927813803
 10
33.2787332329
 20
151.4364618849
 10
33.3279412764
 20
151.2796110281
 10
33.380874986
 20
151.1227837732
 10
33.4375475593
 20
150.9659802037
 10
33.4979457988
 20
150.8092002361
 10
33.5618560058
 20
150.6529985828
 10
33.629290621
 20
150.4973772924
 10
33.7002372037
 20
150.3423343162
 10
33.7744447337
 20
150.1884182211
 10
33.8519247624
 20
150.0356329988
 10
33.9326657383
 20
149.8839746575
 10
34.0163819871
 20
149.7339797884
 10
34.1030840483
 20
149.5856542843
 10
34.1927613822
 20
149.4389922525
 10
34.2850966964
 20
149.2945126066
 10
34.3800994063
 20
149.1522230774
 10
34.4777600964
 20
149.012115934
 10
34.5777332276
 20
148.8746868979
 10
34.6800269915
 20
148.7399454558
 10
34.7846331965
 20
148.6078821209
 10
34.8911817293
 20
148.4789641544
 10
34.9996794703
 20
148.3532026981
 10
35.110119539
 20
148.2305866101
 10
35.2221111811
 20
148.1115497257
 10
35.3356598925
 20
147.9961047235
 10
35.4507601773
 20
147.8842389249
 10
35.5670047922
 20
147.7763481287
 10
35.6842579896
 20
147.6725642681
 10
35.8026555171
 20
147.5727554099
 10
35.9221973748
 20
147.4769215543
  0
LINE
  5
28A
100
AcDbEntity
  8
RACCORDO
100
AcDbLine
 62
7
  6
CONTINUOUS
 10
31.7068593228
 20
151.2414475481
 11
30.3348809129
 21
157.9458254506
  0
LINE
  5
28B
100
AcDbEntity
  8
RACCORDO
100
AcDbLine
 62
7
  6
CONTINUOUS
 10
33.1210728852
 20
152.0579967347
 11
31.7490944753
 21
158.7623746373
  0
LINE
  5
28C
100
AcDbEntity
  8
RACCORDO
100
AcDbLine
 62
7
  6
CONTINUOUS
 10
30.3348809129
 20
-194.6088839315
 11
31.7068593228
 21
-189.4888323068
  0
LINE
  5
28D
100
AcDbEntity
  8
RACCORDO
100
AcDbLine
 62
7
  6
CONTINUOUS
 10
31.7490944753
 20
-193.7923347448
 11
33.1210728852
 21
-188.6722831201
  0
LINE
  5
28E
100
AcDbEntity
  8
CURVE
100
AcDbLine
 62
250
  6
CONTINUOUS
 10
-0.3263569617
 20
161.2999230457
 11
0.0543928577
 21
160.6404450141
  0
LINE
  5
28F
100
AcDbEntity
  8
CURVE
100
AcDbLine
 62
250
  6
CONTINUOUS
 10
0.3057095651
 20
160.8979497139
 11
0.0223263305
 21
161.3887838738
  0
LWPOLYLINE
  5
290
100
AcDbEntity
  8
RACCORDO
100
AcDbPolyline
 62
7
  6
CONTINUOUS
 90
17
 70
0
 10
31.7068593228
 20
-189.4888323068
 10
31.7404102429
 20
-189.3730356449
 10
31.777860935
 20
-189.2612109806
 10
31.8192113991
 20
-189.1533583139
 10
31.8645196706
 20
-189.0493596747
 10
31.913727714
 20
-188.9493330331
 10
31.9666614236
 20
-188.8536322991
 10
32.023333997
 20
-188.7622727968
 10
32.0837322364
 20
-188.6752392022
 10
32.1476424434
 20
-188.5928394539
 10
32.2150770586
 20
-188.5150899668
 10
32.2860236413
 20
-188.4419743261
 10
32.3602311713
 20
-188.3737512265
 10
32.4377112
 20
-188.3104379992
 10
32.5184521759
 20
-188.252017313
 10
32.6021684248
 20
-188.1986958697
 10
32.6218025609
 20
-188.1871811078
  0
LINE
  5
291
100
AcDbEntity
  8
CURVE
100
AcDbLine
 62
250
  6
CONTINUOUS
 10
9.1314459475
 20
162.0310618623
 11
9.3926925088
 21
161.5785700128
  0
LINE
  5
292
100
AcDbEntity
  8
CURVE
100
AcDbLine
 62
250
  6
CONTINUOUS
 10
9.7635126818
 20
161.6290887775
 11
9.3827626042
 21
162.2885665749
  0
LINE
  5
293
100
AcDbEntity
  8
RACCORDO
100
AcDbLine
 62
250
  6
CONTINUOUS
 10
-34.2946788875
 20
-131.8989385616
 11
-32.8804653252
 21
-131.0823893749
  0
LINE
  5
294
100
AcDbEntity
  8
RACCORDO
100
AcDbLine
 62
250
  6
CONTINUOUS
 10
-32.8804653252
 20
-134.3484283018
 11
-31.4662517628
 21
-133.5318791152
  0
LINE
  5
295
100
AcDbEntity
  8
RACCORDO
100
AcDbLine
 62
250
  6
CONTINUOUS
 10
-28.1074945522
 20
-135.4711834335
 11
-29.5217081145
 21
-136.2877326201
  0
LINE
  5
296
100
AcDbEntity
  8
RACCORDO
100
AcDbLine
 62
250
  6
CONTINUOUS
 10
-26.6932809898
 20
-137.9206731737
 11
-28.1074945522
 21
-138.7372223604
  0
LINE
  5
297
100
AcDbEntity
  8
CURVE
100
AcDbLine
 62
250
  6
CONTINUOUS
 10
0.0543928577
 20
160.6404450141
 11
0.4351426402
 21
160.2007859327
  0
LINE
  5
298
100
AcDbEntity
  8
CURVE
100
AcDbLine
 62
250
  6
CONTINUOUS
 10
0.5832236958
 20
160.5774988211
 11
0.3057095651
 21
160.8979497139
  0
LINE
  5
299
100
AcDbEntity
  8
RACCORDO
100
AcDbLine
 62
250
  6
CONTINUOUS
 10
-28.1074945522
 20
-141.5948683291
 11
-26.6932809898
 21
-140.7783191425
  0
LINE
  5
29A
100
AcDbEntity
  8
RACCORDO
100
AcDbLine
 62
250
  6
CONTINUOUS
 10
-27.7539411616
 20
-142.2072407642
 11
-26.3397275992
 21
-141.3906915775
  0
LWPOLYLINE
  5
29B
100
AcDbEntity
  8
RACCORDO
100
AcDbPolyline
 62
7
  6
CONTINUOUS
 90
19
 70
0
 10
-29.5217081145
 20
154.2940388904
 10
-29.459826542
 20
154.2598880309
 10
-29.3982959049
 20
154.2290176898
 10
-29.3371162033
 20
154.2014278672
 10
-29.2761724601
 20
154.1770785842
 10
-29.2155796523
 20
154.1560098197
 10
-29.1556827108
 20
154.1383415098
 10
-29.0964856043
 20
154.1240930486
 10
-29.037984364
 20
154.113245042
 10
-28.9805120144
 20
154.1058592433
 10
-28.9240744235
 20
154.1019553991
 10
-28.8686657233
 20
154.1015137627
 10
-28.8146013334
 20
154.1045368484
 10
-28.7618889209
 20
154.1110444169
 10
-28.7105208189
 20
154.1210167074
 10
-28.6607894454
 20
154.1343969516
 10
-28.6127041354
 20
154.1512045866
 10
-28.566255554
 20
154.1714201752
 10
-28.5216597943
 20
154.1949565351
  0
LINE
  5
29C
100
AcDbEntity
  8
RACCORDO
100
AcDbLine
 62
7
  6
CONTINUOUS
 10
31.4662517628
 20
119.0803552159
 11
28.1074945522
 21
121.0196595342
  0
LINE
  5
29D
100
AcDbEntity
  8
RACCORDO
100
AcDbLine
 62
7
  6
CONTINUOUS
 10
-29.5217081145
 20
154.2940388904
 11
-32.8804653252
 21
156.2333432088
  0
LWPOLYLINE
  5
29E
100
AcDbEntity
  8
RACCORDO
100
AcDbPolyline
 62
7
  6
CONTINUOUS
 90
37
 70
0
 10
31.4662517628
 20
119.0803552159
 10
31.5281333353
 20
119.0430467866
 10
31.5896639724
 20
119.0028630903
 10
31.6508436741
 20
118.959804127
 10
31.7117874173
 20
118.9137771029
 10
31.7723802251
 20
118.8648748118
 10
31.8322771666
 20
118.8133756351
 10
31.8914742731
 20
118.7592647615
 10
31.9499755133
 20
118.7025570023
 10
32.0074478629
 20
118.6435751722
 10
32.0638854538
 20
118.5823063012
 10
32.1192941541
 20
118.5187633593
 10
32.173358544
 20
118.4533080713
 10
32.2260709564
 20
118.3859295302
 10
32.2774390585
 20
118.3166386431
 10
32.327170432
 20
118.2458298553
 10
32.3752557419
 20
118.1734945097
 10
32.4217043233
 20
118.0996412635
 10
32.4662517628
 20
118.024690534
 10
32.5088872173
 20
117.9486360617
 10
32.54962153
 20
117.871484106
 10
32.5882228164
 20
117.7936738625
 10
32.6246789111
 20
117.7152015766
 10
32.6590019795
 20
117.6360710028
 10
32.6909966342
 20
117.5567326001
 10
32.7206495951
 20
117.4771851831
 10
32.7479741422
 20
117.3974299372
 10
32.7728147277
 20
117.3179208774
 10
32.7951571844
 20
117.2386594077
 10
32.8150156796
 20
117.1596441242
 10
32.8322771666
 20
117.0813248293
 10
32.8469268336
 20
117.0037054927
 10
32.8589794924
 20
116.9267821448
 10
32.8683665321
 20
116.8509926798
 10
32.8750650823
 20
116.7764830622
 10
32.8790980133
 20
116.7031073275
 10
32.8804653252
 20
116.6308654757
  0
LINE
  5
29F
100
AcDbEntity
  8
CURVE
100
AcDbLine
 62
250
  6
CONTINUOUS
 10
8.796818417
 20
162.4174629747
 11
9.1314459475
 21
162.0310618623
  0
LINE
  5
2A0
100
AcDbEntity
  8
CURVE
100
AcDbLine
 62
250
  6
CONTINUOUS
 10
9.3827626042
 20
162.2885665749
 11
9.0020131166
 21
162.7282256349
  0
LWPOLYLINE
  5
2A1
100
AcDbEntity
  8
RACCORDO
100
AcDbPolyline
 62
7
  6
CONTINUOUS
 90
8
 70
0
 10
33.4309136081
 20
-187.9564179274
 10
33.380874986
 20
-188.0370831125
 10
33.3279412764
 20
-188.1327838464
 10
33.2787332329
 20
-188.232810488
 10
33.2334249615
 20
-188.3368091272
 10
33.1920744974
 20
-188.444661794
 10
33.1546238052
 20
-188.5564864583
 10
33.1210728852
 20
-188.6722831201
  0
LWPOLYLINE
  5
2A2
100
AcDbEntity
  8
RACCORDO
100
AcDbPolyline
 62
7
  6
CONTINUOUS
 90
16
 70
0
 10
-1.2778416194
 20
-155.2839644916
 10
-1.3032716072
 20
-155.3002371088
 10
-1.327357793
 20
-155.3188930545
 10
-1.3498788621
 20
-155.3397656741
 10
-1.3708219684
 20
-155.3628731616
 10
-1.390199958
 20
-155.3881973231
 10
-1.4078542146
 20
-155.4155308708
 10
-1.4237705904
 20
-155.4448902971
 10
-1.4379632334
 20
-155.4762591097
 10
-1.4503159713
 20
-155.5093805427
 10
-1.4608137026
 20
-155.5442689814
 10
-1.4694715289
 20
-155.5809100407
 10
-1.4762185826
 20
-155.6190037995
 10
-1.4810312412
 20
-155.6584502843
 10
-1.4839331272
 20
-155.6993494687
 10
-1.4849242405
 20
-155.7417013527
  0
LINE
  5
2A3
100
AcDbEntity
  8
RACCORDO
100
AcDbLine
 62
7
  6
CONTINUOUS
 10
-1.2778416194
 20
-155.2839644916
 11
0.1363719429
 21
-154.4674153049
  0
LINE
  5
2A4
100
AcDbEntity
  8
RACCORDO
100
AcDbLine
 62
250
  6
CONTINUOUS
 10
-0.7778174593
 20
-155.3335056693
 11
0.6363961031
 21
-154.5169564826
  0
LINE
  5
2A5
100
AcDbEntity
  8
RACCORDO
100
AcDbLine
 62
250
  6
CONTINUOUS
 10
-0.6363961031
 20
-155.4151605879
 11
0.7778174593
 21
-154.5986114013
  0
LWPOLYLINE
  5
2A6
100
AcDbEntity
  8
RACCORDO
100
AcDbPolyline
 62
7
  6
CONTINUOUS
 90
16
 70
0
 10
2.3334523779
 20
146.1071469209
 10
2.3706269716
 20
146.0868271787
 10
2.4074989286
 20
146.0688884742
 10
2.444068249
 20
146.0533308073
 10
2.4804333276
 20
146.0401246422
 10
2.5164957696
 20
146.0292995148
 10
2.5519603901
 20
146.0209440329
 10
2.5868222826
 20
146.0150784667
 10
2.6210863536
 20
146.011682546
 10
2.6544721389
 20
146.0107840676
 10
2.6869724296
 20
146.0124035301
 10
2.7185944346
 20
146.0165204349
 10
2.7490793157
 20
146.0231010836
 10
2.7784177397
 20
146.0321656981
 10
2.8066190399
 20
146.0436940565
 10
2.833476538
 20
146.0576057433
  0
LINE
  5
2A7
100
AcDbEntity
  8
RACCORDO
100
AcDbLine
 62
7
  6
CONTINUOUS
 10
-3.7476659403
 20
149.6183084236
 11
2.3334523779
 21
146.1071469209
  0
LINE
  5
2A8
100
AcDbEntity
  8
RACCORDO
100
AcDbLine
 62
7
  6
CONTINUOUS
 10
26.3397275992
 20
134.2874001694
 11
3.3941125497
 21
147.5359107229
  0
LINE
  5
2A9
100
AcDbEntity
  8
RACCORDO
100
AcDbLine
 62
7
  6
CONTINUOUS
 10
-4.8083261121
 20
152.2718960055
 11
-27.7539411616
 21
165.520406559
  0
LWPOLYLINE
  5
2AA
100
AcDbEntity
  8
RACCORDO
100
AcDbPolyline
 62
7
  6
CONTINUOUS
 90
28
 70
0
 10
-4.8083261121
 20
152.2718960055
 10
-4.7876542089
 20
152.2592502573
 10
-4.7671895749
 20
152.2453668977
 10
-4.7469322101
 20
152.2302459269
 10
-4.726815124
 20
152.2138279391
 10
-4.7069053071
 20
152.19617234
 10
-4.6874037307
 20
152.1774573468
 10
-4.6683145297
 20
152.1576722297
 10
-4.6496335693
 20
152.1368277184
 10
-4.6315494168
 20
152.1151342194
 10
-4.6140681166
 20
152.0925831338
 10
-4.5971836242
 20
152.0691830603
 10
-4.5810663732
 20
152.0451702014
 10
-4.5657241343
 20
152.0205383506
 10
-4.5511491368
 20
151.9952937144
 10
-4.5374885019
 20
151.9696911142
 10
-4.5247514904
 20
151.9437269246
 10
-4.5129288416
 20
151.917404771
 10
-4.5021398942
 20
151.8909903516
 10
-4.4923951178
 20
151.8644827318
 10
-4.483684043
 20
151.8378828462
 10
-4.4760945999
 20
151.8114591964
 10
-4.4696381487
 20
151.7852135672
 10
-4.4643033293
 20
151.7591441736
 10
-4.4601439919
 20
151.7335141625
 10
-4.4571780865
 20
151.7084112494
 10
-4.455387663
 20
151.6837477187
 10
-4.4547727215
 20
151.6595235705
  0
LWPOLYLINE
  5
2AB
100
AcDbEntity
  8
RACCORDO
100
AcDbPolyline
 62
7
  6
CONTINUOUS
 90
28
 70
0
 10
26.3397275992
 20
134.2874001694
 10
26.3603995024
 20
134.2747544212
 10
26.3808641364
 20
134.2608710617
 10
26.4011215012
 20
134.2457500908
 10
26.4212385873
 20
134.229332103
 10
26.4411484042
 20
134.2116765039
 10
26.4606499805
 20
134.1929615107
 10
26.4797391815
 20
134.1731763936
 10
26.4984201419
 20
134.1523318824
 10
26.5165042945
 20
134.1306383833
 10
26.5339855947
 20
134.1080872977
 10
26.550870087
 20
134.0846872242
 10
26.566987338
 20
134.0606743653
 10
26.5823295769
 20
134.0360425146
 10
26.5969045745
 20
134.0107978783
 10
26.6105652094
 20
133.9851952781
 10
26.6233022209
 20
133.9592310885
 10
26.6351248697
 20
133.9329089349
 10
26.645913817
 20
133.9064945155
 10
26.6556585934
 20
133.8799868957
 10
26.6643696683
 20
133.8533870102
 10
26.6719591114
 20
133.8269633603
 10
26.6784155626
 20
133.8007177311
 10
26.6837503819
 20
133.7746483376
 10
26.6879097194
 20
133.7490183265
 10
26.6908756248
 20
133.7239154133
 10
26.6926660483
 20
133.6992518827
 10
26.6932809898
 20
133.6750277344
  0
LWPOLYLINE
  5
2AC
100
AcDbEntity
  8
CURVE
100
AcDbPolyline
 62
250
  6
CONTINUOUS
 90
17
 70
0
 10
1.0486454826
 20
159.6694597672
 10
1.0895984315
 20
159.6388007633
 10
1.1309511936
 20
159.6172292133
 10
1.1711286551
 20
159.6055667711
 10
1.2092360894
 20
159.6043292723
 10
1.2424890778
 20
159.613607138
 10
1.2703183221
 20
159.6329320751
 10
1.2916638153
 20
159.6615680028
 10
1.3058933603
 20
159.6991488827
 10
1.3119672385
 20
159.7429287702
 10
1.3099709713
 20
159.7918299083
 10
1.2999805956
 20
159.8439896678
 10
1.2819967769
 20
159.8983745567
 10
1.2573335495
 20
159.9510108016
 10
1.2266811569
 20
160.0008425172
 10
1.1912071391
 20
160.0459716289
 10
1.1515446157
 20
160.0853026119
  0
LINE
  5
2AD
100
AcDbEntity
  8
CURVE
100
AcDbLine
 62
250
  6
CONTINUOUS
 10
0.4351426402
 20
160.2007859327
 11
1.0486454833
 21
159.6694597699
  0
LINE
  5
2AE
100
AcDbEntity
  8
CURVE
100
AcDbLine
 62
250
  6
CONTINUOUS
 10
1.1515446337
 20
160.0853025964
 11
0.5832236958
 21
160.5774988211
  0
LINE
  5
2AF
100
AcDbEntity
  8
CURVE
100
AcDbLine
 62
250
  6
CONTINUOUS
 10
8.2453977864
 20
162.8950227558
 11
8.796818417
 21
162.4174629747
  0
LINE
  5
2B0
100
AcDbEntity
  8
CURVE
100
AcDbLine
 62
250
  6
CONTINUOUS
 10
9.0020131166
 20
162.7282256349
 11
8.2405135515
 21
163.3877250179
  0
LWPOLYLINE
  5
2B1
100
AcDbEntity
  8
ASSI
100
AcDbPolyline
 62
7
  6
CONTINUOUS
 90
46
 70
0
 10
30.3348809129
 20
157.9458254506
 10
29.0159289039
 20
159.293647449
 10
27.689427281
 20
160.6200195747
 10
26.3553760441
 20
161.9249418277
 10
25.013398821
 20
163.2087662741
 10
23.6638719841
 20
164.4711408478
 10
22.3079246497
 20
165.7110093505
 10
20.9455514444
 20
166.9283529466
 10
19.5767577417
 20
168.1231904718
 10
18.2026887781
 20
169.2945222343
 10
16.8233401387
 20
170.4423285619
 10
15.4387162385
 20
171.5666291268
 10
14.0499755587
 20
172.666483254
 10
12.6571146541
 20
173.7418704839
 10
11.26013697
 20
174.792811276
 10
9.8602113239
 20
175.8184263336
 10
8.4573352485
 20
176.8186944613
 10
7.051511211
 20
177.7936368545
 10
5.6439154306
 20
178.7424378024
 10
4.2345464242
 20
179.6650754269
 10
2.8234056749
 20
180.5615716063
 10
1.4116738498
 20
181.4311762636
 10
-0.0006495456
 20
182.2738668932
 10
-1.4135640168
 20
183.0896660009
 10
-2.8258874122
 20
183.8778910272
 10
-4.2376192372
 20
184.6385188951
 10
-5.6487599866
 20
185.3715726817
 10
-7.0581289929
 20
186.0764390585
 10
-8.4657247734
 20
186.7530944353
 10
-9.8715488108
 20
187.4015624023
 10
-11.2744248862
 20
188.0213004021
 10
-12.6743505324
 20
188.6122843903
 10
-14.0713282165
 20
189.1745384113
 10
-15.4641891211
 20
189.7075920408
 10
-16.8529298008
 20
190.2114208405
 10
-18.2375537011
 20
190.6860492488
 10
-19.6169023404
 20
191.1310801553
 10
-20.990971304
 20
191.5464887897
 10
-22.3597650068
 20
191.9322999225
 10
-23.722138212
 20
192.2881907547
 10
-25.0780855465
 20
192.6141362457
 10
-26.4276123834
 20
192.9101614363
 10
-27.7695896064
 20
193.1760186492
 10
-29.1036408433
 20
193.4116253254
 10
-30.4301424663
 20
193.6170640239
 10
-31.7490944753
 20
193.7923347448
  0
LWPOLYLINE
  5
2B2
100
AcDbEntity
  8
ASSI
100
AcDbPolyline
 62
7
  6
CONTINUOUS
 90
46
 70
0
 10
31.7490944753
 20
158.7623746373
 10
30.4301424663
 20
160.1101966357
 10
29.1036408433
 20
161.4365687614
 10
27.7695896064
 20
162.7414910144
 10
26.4276123834
 20
164.0253154608
 10
25.0780855465
 20
165.2876900345
 10
23.722138212
 20
166.5275585372
 10
22.3597650068
 20
167.7449021333
 10
20.990971304
 20
168.9397396585
 10
19.6169023404
 20
170.1110714209
 10
18.2375537011
 20
171.2588777485
 10
16.8529298008
 20
172.3831783135
 10
15.4641891211
 20
173.4830324406
 10
14.0713282165
 20
174.5584196705
 10
12.6743505324
 20
175.6093604627
 10
11.2744248862
 20
176.6349755203
 10
9.8715488108
 20
177.635243648
 10
8.4657247734
 20
178.6101860411
 10
7.0581289929
 20
179.558986989
 10
5.6487599866
 20
180.4816246136
 10
4.2376192372
 20
181.3781207929
 10
2.8258874122
 20
182.2477254502
 10
1.4135640168
 20
183.0904160799
 10
0.0006495456
 20
183.9062151875
 10
-1.4116738498
 20
184.6944402138
 10
-2.8234056749
 20
185.4550680817
 10
-4.2345464242
 20
186.1881218683
 10
-5.6439154306
 20
186.8929882451
 10
-7.051511211
 20
187.5696436219
 10
-8.4573352485
 20
188.2181115889
 10
-9.8602113239
 20
188.8378495888
 10
-11.26013697
 20
189.428833577
 10
-12.6571146541
 20
189.991087598
 10
-14.0499755587
 20
190.5241412274
 10
-15.4387162385
 20
191.0279700272
 10
-16.8233401387
 20
191.5025984354
 10
-18.2026887781
 20
191.9476293419
 10
-19.5767577417
 20
192.3630379764
 10
-20.9455514444
 20
192.7488491091
 10
-22.3079246497
 20
193.1047399413
 10
-23.6638719841
 20
193.4306854324
 10
-25.013398821
 20
193.726710623
 10
-26.3553760441
 20
193.9925678358
 10
-27.689427281
 20
194.228174512
 10
-29.0159289039
 20
194.4336132106
 10
-30.3348809129
 20
194.6088839315
  0
LINE
  5
2B3
100
AcDbEntity
  8
RACCORDO
100
AcDbLine
 62
250
  6
CONTINUOUS
 10
-1.4849413255
 20
-156.9663771777
 11
-1.8384776311
 21
-157.1705046097
  0
LINE
  5
2B4
100
AcDbEntity
  8
RACCORDO
100
AcDbLine
 62
250
  6
CONTINUOUS
 10
0.0707106781
 20
-156.6399054581
 11
1.4849242405
 21
-155.8233562714
  0
LINE
  5
2B5
100
AcDbEntity
  8
RACCORDO
100
AcDbLine
 62
250
  6
CONTINUOUS
 10
0.0707106781
 20
-157.8646108732
 11
1.4849242405
 21
-157.0480616866
  0
LINE
  5
2B6
100
AcDbEntity
  8
RACCORDO
100
AcDbLine
 62
250
  6
CONTINUOUS
 10
0.4242640687
 20
-158.4769833083
 11
1.8384776311
 21
-157.6604341217
  0
LWPOLYLINE
  5
2B7
100
AcDbEntity
  8
RACCORDO
100
AcDbPolyline
 62
7
  6
CONTINUOUS
 90
15
 70
0
 10
-1.5884709745
 20
-157.1952658053
 10
-1.5958756533
 20
-157.1992976376
 10
-1.6112178922
 20
-157.2062126555
 10
-1.6273351433
 20
-157.2116137169
 10
-1.6442196356
 20
-157.2155160018
 10
-1.6617009358
 20
-157.2178801202
 10
-1.6797850884
 20
-157.2186904931
 10
-1.6984660488
 20
-157.2179626996
 10
-1.7175552498
 20
-157.2157040858
 10
-1.7370568261
 20
-157.2118991475
 10
-1.756966643
 20
-157.2065633891
 10
-1.7770837291
 20
-157.1997506702
 10
-1.7973410939
 20
-157.1914789439
 10
-1.8178057279
 20
-157.181730257
 10
-1.8384776311
 20
-157.1705046097
  0
LWPOLYLINE
  5
2B8
100
AcDbEntity
  8
RACCORDO
100
AcDbPolyline
 62
7
  6
CONTINUOUS
 90
16
 70
0
 10
0.1363719429
 20
-154.467415305
 10
0.1632294411
 20
-154.4535036181
 10
0.1914307413
 20
-154.4419752597
 10
0.2207691653
 20
-154.4329106452
 10
0.2512540464
 20
-154.4263299965
 10
0.2828760514
 20
-154.4222130918
 10
0.3153763421
 20
-154.4205936293
 10
0.3487621274
 20
-154.4214921077
 10
0.3830261984
 20
-154.4248880284
 10
0.4178880908
 20
-154.4307535946
 10
0.4533527114
 20
-154.4391090765
 10
0.4894151534
 20
-154.4499342039
 10
0.525780232
 20
-154.463140369
 10
0.5623495524
 20
-154.4786980358
 10
0.5992215094
 20
-154.4966367404
 10
0.6363961031
 20
-154.5169564826
  0
LINE
  5
2B9
100
AcDbEntity
  8
CURVE
100
AcDbLine
 62
250
  6
CONTINUOUS
 10
6.4809058407
 20
160.6667785174
 11
8.2405135515
 21
159.6508030782
  0
LINE
  5
2BA
100
AcDbEntity
  8
CURVE
100
AcDbLine
 62
250
  6
CONTINUOUS
 10
8.2453977864
 20
160.1378651483
 11
6.4809058407
 21
161.1566606834
  0
LINE
  5
2BB
100
AcDbEntity
  8
CURVE
100
AcDbLine
 62
250
  6
CONTINUOUS
 10
6.4809058407
 20
163.913818291
 11
8.2453977864
 21
162.8950227558
  0
LINE
  5
2BC
100
AcDbEntity
  8
CURVE
100
AcDbLine
 62
250
  6
CONTINUOUS
 10
8.2405135515
 20
163.3877250179
 11
6.4809058407
 21
164.4037004571
  0
LINE
  5
2BD
100
AcDbEntity
  8
RACCORDO
100
AcDbLine
 62
7
  6
CONTINUOUS
 10
41.6485894119
 20
141.0836610245
 11
34.5079838124
 21
146.6603723676
  0
LINE
  5
2BE
100
AcDbEntity
  8
RACCORDO
100
AcDbLine
 62
7
  6
CONTINUOUS
 10
43.0628029743
 20
141.9002102111
 11
35.9221973748
 21
147.4769215543
  0
LWPOLYLINE
  5
2BF
100
AcDbEntity
  8
RACCORDO
100
AcDbPolyline
 62
7
  6
CONTINUOUS
 90
34
 70
0
 10
34.5079838124
 20
146.6603723676
 10
34.3884419547
 20
146.7562062233
 10
34.2700444272
 20
146.8560150814
 10
34.1527912298
 20
146.9597989421
 10
34.0365466149
 20
147.0676897382
 10
33.9214463302
 20
147.1795555368
 10
33.8078976187
 20
147.295000539
 10
33.6959059767
 20
147.4140374235
 10
33.5854659079
 20
147.5366535114
 10
33.476968167
 20
147.6624149677
 10
33.3704196341
 20
147.7913329343
 10
33.2658134291
 20
147.9233962691
 10
33.1635196653
 20
148.0581377112
 10
33.063546534
 20
148.1955667473
 10
32.9658858439
 20
148.3356738907
 10
32.8708831341
 20
148.47796342
 10
32.7785478199
 20
148.6224430659
 10
32.6888704859
 20
148.7691050977
 10
32.6021684248
 20
148.9174306018
 10
32.5184521759
 20
149.0674254708
 10
32.4377112
 20
149.2190838121
 10
32.3602311713
 20
149.3718690345
 10
32.2860236413
 20
149.5257851296
 10
32.2150770586
 20
149.6808281057
 10
32.1476424434
 20
149.8364493961
 10
32.0837322364
 20
149.9926510494
 10
32.023333997
 20
150.1494310171
 10
31.9666614236
 20
150.3062345865
 10
31.913727714
 20
150.4630618415
 10
31.8645196706
 20
150.6199126983
 10
31.8192113991
 20
150.7762321936
 10
31.777860935
 20
150.9318353399
 10
31.7404102429
 20
151.0869071247
 10
31.7068593228
 20
151.2414475481
  0
LWPOLYLINE
  5
2C0
100
AcDbEntity
  8
RACCORDO
100
AcDbPolyline
 62
7
  6
CONTINUOUS
 90
19
 70
0
 10
27.1074462319
 20
-169.463029621
 10
27.0648590976
 20
-169.4898218422
 10
27.024124785
 20
-169.5199348347
 10
26.9855234986
 20
-169.5531692803
 10
26.9490674039
 20
-169.5895429819
 10
26.9147443354
 20
-169.6290381366
 10
26.8827496808
 20
-169.671429914
 10
26.8530967199
 20
-169.716734835
 10
26.8257721728
 20
-169.7649363788
 10
26.8009315873
 20
-169.8157601532
 10
26.7785891305
 20
-169.8692211138
 10
26.7587306354
 20
-169.925304305
 10
26.7414691484
 20
-169.9836904673
 10
26.7268194814
 20
-170.0443927357
 10
26.7147668225
 20
-170.1073979752
 10
26.7053797829
 20
-170.1723475222
 10
26.6986812327
 20
-170.2391218218
 10
26.6946483017
 20
-170.3078404289
 10
26.6932809898
 20
-170.3785033433
  0
LINE
  5
2C1
100
AcDbEntity
  8
RACCORDO
100
AcDbLine
 62
7
  6
CONTINUOUS
 10
27.1074462319
 20
-169.463029621
 11
28.5216597943
 21
-168.6464804343
  0
LINE
  5
2C2
100
AcDbEntity
  8
RACCORDO
100
AcDbLine
 62
250
  6
CONTINUOUS
 10
28.1074945522
 20
-169.5621119763
 11
29.5217081145
 21
-168.7455627897
  0
LINE
  5
2C3
100
AcDbEntity
  8
CURVE
100
AcDbLine
 62
250
  6
CONTINUOUS
 10
2.7196415569
 20
158.8817448898
 11
3.1003913394
 21
158.8817236661
  0
LINE
  5
2C4
100
AcDbEntity
  8
CURVE
100
AcDbLine
 62
250
  6
CONTINUOUS
 10
2.8490746218
 20
159.429442595
 11
2.571560516
 21
159.4294580641
  0
LINE
  5
2C5
100
AcDbEntity
  8
CURVE
100
AcDbLine
 62
250
  6
CONTINUOUS
 10
9.0020131166
 20
159.430941851
 11
9.3827626042
 21
159.4309206061
  0
LINE
  5
2C6
100
AcDbEntity
  8
CURVE
100
AcDbLine
 62
250
  6
CONTINUOUS
 10
9.1314460009
 20
159.9786395411
 11
8.7968183977
 21
159.9786582126
  0
LWPOLYLINE
  5
2C7
100
AcDbEntity
  8
CURVE
100
AcDbPolyline
 62
250
  6
CONTINUOUS
 90
17
 70
0
 10
2.0032396325
 20
159.5935445844
 10
1.9642463823
 20
159.5999943454
 10
1.9286980714
 20
159.5960157645
 10
1.8979487239
 20
159.5817603844
 10
1.8727874915
 20
159.5572594051
 10
1.8550528449
 20
159.5243030544
 10
1.8449222856
 20
159.4838014194
 10
1.8427816833
 20
159.4372971948
 10
1.8488909117
 20
159.3856289039
 10
1.8628035843
 20
159.3325718246
 10
1.8840251207
 20
159.2792724441
 10
1.9117471995
 20
159.2277609191
 10
1.9455481856
 20
159.1791919006
 10
1.9829583223
 20
159.1371142103
 10
2.0231006664
 20
159.1022391385
 10
2.0644462084
 20
159.0758950658
 10
2.106138811
 20
159.0588763869
  0
LINE
  5
2C8
100
AcDbEntity
  8
CURVE
100
AcDbLine
 62
250
  6
CONTINUOUS
 10
2.106138793
 20
159.0588763921
 11
2.7196415569
 21
158.8817448898
  0
LINE
  5
2C9
100
AcDbEntity
  8
CURVE
100
AcDbLine
 62
250
  6
CONTINUOUS
 10
2.571560516
 20
159.4294580641
 11
2.0032396331
 21
159.5935445812
  0
LINE
  5
2CA
100
AcDbEntity
  8
CURVE
100
AcDbLine
 62
250
  6
CONTINUOUS
 10
8.2405135515
 20
159.6508030782
 11
9.0020131166
 21
159.430941851
  0
LINE
  5
2CB
100
AcDbEntity
  8
CURVE
100
AcDbLine
 62
250
  6
CONTINUOUS
 10
8.7968183977
 20
159.9786582126
 11
8.2453977864
 21
160.1378651483
  0
LWPOLYLINE
  5
2CC
100
AcDbEntity
  8
CURVE
100
AcDbPolyline
 62
250
  6
CONTINUOUS
 90
17
 70
0
 10
6.4809058407
 20
161.1566606834
 10
6.4397025126
 20
161.1757861038
 10
6.4000686065
 20
161.1848533131
 10
6.3635137655
 20
161.1835169441
 10
6.3309058407
 20
161.1715272213
 10
6.3046274147
 20
161.1497602048
 10
6.2850633792
 20
161.1189262957
 10
6.2729589222
 20
161.080199948
 10
6.2687738063
 20
161.0342019784
 10
6.2728138279
 20
160.9842933482
 10
6.2847800097
 20
160.9316204065
 10
6.3042165634
 20
160.8781894492
 10
6.3309058407
 20
160.8251282197
 10
6.36289772
 20
160.7763137744
 10
6.3993844921
 20
160.7326568949
 10
6.4389763869
 20
160.6958204583
 10
6.4809058592
 20
160.6667785067
  0
LWPOLYLINE
  5
2CD
100
AcDbEntity
  8
CURVE
100
AcDbPolyline
 62
250
  6
CONTINUOUS
 90
17
 70
0
 10
6.4809058407
 20
164.4037004571
 10
6.4397025126
 20
164.4228258774
 10
6.4000686065
 20
164.4318930867
 10
6.3635137655
 20
164.4305567178
 10
6.3309058407
 20
164.4185669949
 10
6.3046274147
 20
164.3967999785
 10
6.2850633792
 20
164.3659660694
 10
6.2729589222
 20
164.3272397216
 10
6.2687738063
 20
164.2812417521
 10
6.2728138279
 20
164.2313331218
 10
6.2847800097
 20
164.1786601801
 10
6.3042165634
 20
164.1252292229
 10
6.3309058407
 20
164.0721679933
 10
6.36289772
 20
164.023353548
 10
6.3993844921
 20
163.9796966686
 10
6.4389763869
 20
163.9428602319
 10
6.4809058592
 20
163.9138182803
  0
LINE
  5
2CE
100
AcDbEntity
  8
RACCORDO
100
AcDbLine
 62
250
  6
CONTINUOUS
 10
26.3397275992
 20
-173.4402471538
 11
26.6932639048
 21
-173.2361197218
  0
LINE
  5
2CF
100
AcDbEntity
  8
RACCORDO
100
AcDbLine
 62
250
  6
CONTINUOUS
 10
31.4662517628
 20
-171.5014162946
 11
32.8804653252
 21
-170.684867108
  0
LWPOLYLINE
  5
2D0
100
AcDbEntity
  8
RACCORDO
100
AcDbPolyline
 62
7
  6
CONTINUOUS
 90
15
 70
0
 10
26.5897342558
 20
-173.4650083494
 10
26.5823295769
 20
-173.4690401817
 10
26.566987338
 20
-173.4759551996
 10
26.550870087
 20
-173.481356261
 10
26.5339855947
 20
-173.4852585459
 10
26.5165042945
 20
-173.4876226643
 10
26.4984201419
 20
-173.4884330372
 10
26.4797391815
 20
-173.4877052437
 10
26.4606499805
 20
-173.4854466299
 10
26.4411484042
 20
-173.4816416917
 10
26.4212385873
 20
-173.4763059332
 10
26.4011215012
 20
-173.4694932143
 10
26.3808641364
 20
-173.461221488
 10
26.3603995024
 20
-173.4514728011
 10
26.3397275992
 20
-173.4402471538
  0
LWPOLYLINE
  5
2D1
100
AcDbEntity
  8
RACCORDO
100
AcDbPolyline
 62
7
  6
CONTINUOUS
 90
19
 70
0
 10
28.5216597943
 20
-168.6464804343
 10
28.566255554
 20
-168.6229440744
 10
28.6127041354
 20
-168.6027284858
 10
28.6607894454
 20
-168.5859208509
 10
28.7105208189
 20
-168.5725406066
 10
28.7618889209
 20
-168.5625683161
 10
28.8146013334
 20
-168.5560607477
 10
28.8686657233
 20
-168.553037662
 10
28.9240744235
 20
-168.5534792983
 10
28.9805120144
 20
-168.5573831426
 10
29.037984364
 20
-168.5647689412
 10
29.0964856043
 20
-168.5756169478
 10
29.1556827108
 20
-168.589865409
 10
29.2155796523
 20
-168.6075337189
 10
29.2761724601
 20
-168.6286024834
 10
29.3371162033
 20
-168.6529517664
 10
29.3982959049
 20
-168.6805415891
 10
29.459826542
 20
-168.7114119301
 10
29.5217081145
 20
-168.7455627897
  0
LWPOLYLINE
  5
2D2
100
AcDbEntity
  8
RACCORDO
100
AcDbPolyline
 62
7
  6
CONTINUOUS
 90
19
 70
0
 10
32.4663000831
 20
-171.60049865
 10
32.4217043233
 20
-171.6240350099
 10
32.3752557419
 20
-171.6442505985
 10
32.327170432
 20
-171.6610582335
 10
32.2774390585
 20
-171.6744384777
 10
32.2260709564
 20
-171.6844107682
 10
32.173358544
 20
-171.6909183367
 10
32.1192941541
 20
-171.6939414223
 10
32.0638854538
 20
-171.693499786
 10
32.0074478629
 20
-171.6895959418
 10
31.9499755133
 20
-171.6822101431
 10
31.8914742731
 20
-171.6713621365
 10
31.8322771666
 20
-171.6571136753
 10
31.7723802251
 20
-171.6394453654
 10
31.7117874173
 20
-171.6183766009
 10
31.6508436741
 20
-171.5940273179
 10
31.5896639724
 20
-171.5664374953
 10
31.5281333353
 20
-171.5355671542
 10
31.4662517628
 20
-171.5014162946
  0
LWPOLYLINE
  5
2D3
100
AcDbEntity
  8
RACCORDO
100
AcDbPolyline
 62
7
  6
CONTINUOUS
 90
11
 70
0
 10
-34.5079838124
 20
188.1424254743
 10
-34.3884419547
 20
188.1002153891
 10
-34.2700444272
 20
188.0633017502
 10
-34.1527912298
 20
188.0316845576
 10
-34.0365466149
 20
188.0053389862
 10
-33.9214463302
 20
187.9842898611
 10
-33.8078976187
 20
187.9686116574
 10
-33.6959059767
 20
187.9583234009
 10
-33.5854659079
 20
187.9534060657
 10
-33.476968167
 20
187.9538770503
 10
-33.4309136081
 20
187.9564179274
  0
LINE
  5
2D4
100
AcDbEntity
  8
RACCORDO
100
AcDbLine
 62
7
  6
CONTINUOUS
 10
-35.9221973748
 20
187.3258762876
 11
-43.0628029743
 21
189.9949573051
  0
LINE
  5
2D5
100
AcDbEntity
  8
RACCORDO
100
AcDbLine
 62
7
  6
CONTINUOUS
 10
-34.5079838124
 20
188.1424254743
 11
-41.6485894119
 21
190.8115064918
  0
LINE
  5
2D6
100
AcDbEntity
  8
RACCORDO
100
AcDbLine
 62
250
  6
CONTINUOUS
 10
33.1210728852
 20
-188.6722831201
 11
31.7068593228
 21
-189.4888323068
  0
LINE
  5
2D7
100
AcDbEntity
  8
ASSI
100
AcDbLine
 62
7
  6
CONTINUOUS
 10
31.7490944753
 20
-193.7923347448
 11
30.3348809129
 21
-194.6088839315
  0
LINE
  5
2D8
100
AcDbEntity
  8
ASSI
100
AcDbLine
 62
7
  6
CONTINUOUS
 10
43.0628029743
 20
-189.9949573051
 11
41.6485894119
 21
-190.8115064918
  0
LWPOLYLINE
  5
2D9
100
AcDbEntity
  8
RACCORDO
100
AcDbPolyline
 62
7
  6
CONTINUOUS
 90
19
 70
0
 10
32.6218025609
 20
-188.1871811078
 10
32.6888704859
 20
-188.1504917325
 10
32.7785478199
 20
-188.1073868382
 10
32.8708831341
 20
-188.0695336986
 10
32.9658858439
 20
-188.0369509174
 10
33.063546534
 20
-188.009619891
 10
33.1635196653
 20
-187.9876373209
 10
33.2658134291
 20
-187.9710221533
 10
33.3704196341
 20
-187.9597554419
 10
33.476968167
 20
-187.9538770503
 10
33.5854659079
 20
-187.9534060657
 10
33.6959059767
 20
-187.9583234009
 10
33.8078976187
 20
-187.9686116574
 10
33.9214463302
 20
-187.9842898611
 10
34.0365466149
 20
-188.0053389862
 10
34.1527912298
 20
-188.0316845576
 10
34.2700444272
 20
-188.0633017502
 10
34.3884419547
 20
-188.1002153891
 10
34.5079838124
 20
-188.1424254743
  0
ENDSEC
  0
SECTION
  2
OBJECTS
  0
DICTIONARY
  5
C
100
AcDbDictionary
280
0
281
1
  3
ACAD_GROUP
350
D
  3
ACAD_MLINESTYLE
350
17
  3
ACAD_LAYOUT
350
1A
  3
ACAD_PLOTSETTINGS
350
19
  3
ACAD_PLOTSTYLENAME
350
E
  0
DICTIONARY
  5
D
102
{ACAD_REACTORS
330
C
102
}
100
AcDbDictionary
280
0
281
1
  0
ACDBDICTIONARYWDFLT
  5
E
102
{ACAD_REACTORS
330
C
102
}
100
AcDbDictionary
281
1
  3
Normal
350
F
100
AcDbDictionaryWithDefault
340
F
  0
DICTIONARY
  5
17
102
{ACAD_REACTORS
330
C
102
}
100
AcDbDictionary
280
0
281
1
  3
Standard
350
18
  0
DICTIONARY
  5
19
102
{ACAD_REACTORS
330
C
102
}
100
AcDbDictionary
281
1
  0
DICTIONARY
  5
1A
102
{ACAD_REACTORS
330
C
102
}
100
AcDbDictionary
281
1
  3
Model
350
2DA
  3
Layout1
350
2DB
  0
ACDBPLACEHOLDER
  5
F
102
{ACAD_REACTORS
330
E
102
}
  0
MLINESTYLE
  5
18
102
{ACAD_REACTORS
330
17
102
}
100
AcDbMlineStyle
  2
STANDARD
 70
0
  3

 62
256
 51
90.0
 52
90.0
 71
2
 49
0.5
 62
256
  6
BYLAYER
 49
-0.5
 62
256
  6
BYLAYER
  0
LAYOUT
  5
2DA
102
{ACAD_REACTORS
330
1A
102
}
100
AcDbPlotSettings
  1

  2
none_device
  4

  6

 40
0.0
 41
0.0
 42
0.0
 43
0.0
 44
210.0
 45
297.0
 46
0.0
 47
0.0
 48
0.0
 49
0.0
140
0.0
141
0.0
142
1.0
143
1.0
 70
1024
 72
1
 73
0
 74
0
  7

 75
0
147
1.0
148
0.0
149
0.0
100
AcDbLayout
  1
Model
 70
0
 71
0
 10
0.0
 20
0.0
 11
210.0
 21
297.0
 12
0.0
 22
0.0
 32
0.0
 14
0.0
 24
0.0
 34
0.0
 15
0.0
 25
0.0
 35
0.0
146
0.0
 13
0.0
 23
0.0
 33
0.0
 16
1.0
 26
0.0
 36
0.0
 17
0.0
 27
1.0
 37
0.0
 76
0
330
20F
345
0
346
0
  0
LAYOUT
  5
2DB
102
{ACAD_REACTORS
330
1A
102
}
100
AcDbPlotSettings
  1

  2
none_device
  4

  6

 40
0.0
 41
0.0
 42
0.0
 43
0.0
 44
210.0
 45
297.0
 46
0.0
 47
0.0
 48
0.0
 49
0.0
140
0.0
141
0.0
142
1.0
143
1.0
 70
0
 72
1
 73
0
 74
0
  7

 75
0
147
1.0
148
0.0
149
0.0
100
AcDbLayout
  1
Layout1
 70
0
 71
1
 10
0.0
 20
0.0
 11
210.0
 21
297.0
 12
0.0
 22
0.0
 32
0.0
 14
0.0
 24
0.0
 34
0.0
 15
0.0
 25
0.0
 35
0.0
146
0.0
 13
0.0
 23
0.0
 33
0.0
 16
1.0
 26
0.0
 36
0.0
 17
0.0
 27
1.0
 37
0.0
 76
0
330
210
345
0
346
0
  0
ENDSEC
  0
EOF
