  0
SECTION
  2
HEADER
  9
$ACADVER
  1
AC1024
  9
$DWGCODEPAGE
  3
ANSI_1252
  9
$EXTMAX
 10
210.0
 20
297.0
 30
0.0
  9
$EXTMIN
 10
0.0
 20
0.0
 30
0.0
  9
$LIMMIN
 10
0.0
 20
0.0
  9
$LIMMAX
 10
210.0
 20
297.0
  9
$VIEWCTR
 10
105.0
 20
148.5
  9
$VIEWSIZE
 40
297.0
  9
$CLAYER
  8
0
  9
$LTSCALE
 40
19.36
  9
$CELTYPE
  6
BYLAYER
  9
$DIMSCALE
 40
1.0
  9
$DIMASZ
 40
3.0
  9
$DIMEXO
 40
0.5
  9
$DIMDLI
 40
13.376
  9
$DIMEXE
 40
1.5
  9
$DIMCEN
 40
3.168
  9
$DIMLFAC
 40
1.0
  9
$DIMBLK
  1
_FILLED
  9
$DIMALT
 70
0
  9
$DIMALTF
 40
0.0393700787
  9
$DIMTXT
 40
3.0
  9
$DIMTOL
 70
1
  9
$DIMLIM
 70
0
  9
$DIMTFAC
 40
1.0
  9
$DIMTP
 40
0.01
  9
$DIMTM
 40
0.01
  9
$DIMGAP
 40
0.625
  9
$DIMDSEP
 70
44
  9
$AUNITS
 70
0
  9
$PDMODE
 70
3
  9
$PDSIZE
 40
3.0
  9
$HANDSEED
  5
303
  9
$TILEMODE
 70
1
  9
$MEASUREMENT
 70
1
  9
$INSUNITS
 70
4
  0
ENDSEC
  0
SECTION
  2
CLASSES
  0
CLASS
  1
ACDBDICTIONARYWDFLT
  2
AcDbDictionaryWithDefault
  3
AutoCAD 2000
 90
0
 91
1
280
0
281
0
  0
CLASS
  1
ACDBPLACEHOLDER
  2
AcDbPlaceHolder
  3
AutoCAD 2000
 90
0
 91
1
280
0
281
0
  0
CLASS
  1
LAYOUT
  2
AcDbLayout
  3
AutoCAD 2000
 90
0
 91
0
280
0
281
0
  0
ENDSEC
  0
SECTION
  2
TABLES
  0
TABLE
  2
VPORT
  5
8
100
AcDbSymbolTable
 70
2
  0
VPORT
  5
1F4
100
AcDbSymbolTableRecord
100
AcDbViewportTableRecord
  2
*ACTIVE
 70
0
 10
0.0
 20
0.0
 11
1.0
 21
1.0
 12
105.0
 22
148.5
 13
0.0
 23
0.0
 14
1.0
 24
1.0
 15
0.0
 25
0.0
 16
0.0
 26
0.0
 36
1.0
 17
0.0
 27
0.0
 37
0.0
 40
297.0
 41
0.7070707071
 42
50.0
 43
0.0
 44
0.0
 50
0.0
 51
0.0
 71
0
 72
100
 73
1
 74
1
 75
0
 76
0
 77
0
 78
0
  0
ENDTAB
  0
TABLE
  2
LTYPE
  5
5
100
AcDbSymbolTable
 70
6
  0
LTYPE
  5
14
100
AcDbSymbolTableRecord
100
AcDbLinetypeTableRecord
  2
BYBLOCK
 70
0
  3

 72
65
 73
0
 40
0.0
  0
LTYPE
  5
15
100
AcDbSymbolTableRecord
100
AcDbLinetypeTableRecord
  2
BYLAYER
 70
0
  3

 72
65
 73
0
 40
0.0
  0
LTYPE
  5
16
100
AcDbSymbolTableRecord
100
AcDbLinetypeTableRecord
  2
CONTINUOUS
 70
64
  3
Solid line
 72
65
 73
0
 40
0.0
  0
LTYPE
  5
1F5
100
AcDbSymbolTableRecord
100
AcDbLinetypeTableRecord
  2
CENTER
 70
64
  3
____ _ ____ _ ____ _ ____ _ ____ _ ____ _ ____
 72
65
 73
4
 40
0.6
 49
0.375
 74
0
 49
-0.075
 74
0
 49
0.075
 74
0
 49
-0.075
 74
0
  0
LTYPE
  5
1F6
100
AcDbSymbolTableRecord
100
AcDbLinetypeTableRecord
  2
HIDDEN
 70
64
  3
- - - - - - - - - - - - - - - - - - - -
 72
65
 73
2
 40
0.2
 49
0.1
 74
0
 49
-0.1
 74
0
  0
LTYPE
  5
1F7
100
AcDbSymbolTableRecord
100
AcDbLinetypeTableRecord
  2
PHANTOM
 70
64
  3
_____ _ _ _____ _ _ _____ _ _ _____
 72
65
 73
6
 40
0.8
 49
0.45
 74
0
 49
-0.05
 74
0
 49
0.1
 74
0
 49
-0.05
 74
0
 49
0.1
 74
0
 49
-0.05
 74
0
  0
LTYPE
  5
1F8
100
AcDbSymbolTableRecord
100
AcDbLinetypeTableRecord
  2
DOT
 70
64
  3
. . . . . . . . . . . . . . . . . . . .
 72
65
 73
2
 40
0.2
 49
0.1
 74
0
 49
-0.1
 74
0
  0
LTYPE
  5
1F9
100
AcDbSymbolTableRecord
100
AcDbLinetypeTableRecord
  2
DASHED
 70
64
  3
- - - - - - - - - - - - - - - - - - - -
 72
65
 73
2
 40
0.2
 49
0.1
 74
0
 49
-0.1
 74
0
  0
ENDTAB
  0
TABLE
  2
LAYER
  5
2
100
AcDbSymbolTable
 70
36
  0
LAYER
  5
10
100
AcDbSymbolTableRecord
100
AcDbLayerTableRecord
  2
0
 70
0
 62
7
  6
CONTINUOUS
370
-3
390
F
  0
LAYER
  5
1FA
100
AcDbSymbolTableRecord
100
AcDbLayerTableRecord
  2
DEFAULT_1
 70
0
 62
7
  6
CENTER
370
-3
390
F
  0
LAYER
  5
1FB
100
AcDbSymbolTableRecord
100
AcDbLayerTableRecord
  2
DEFAULT_2
 70
0
 62
7
  6
HIDDEN
370
-3
390
F
  0
LAYER
  5
1FC
100
AcDbSymbolTableRecord
100
AcDbLayerTableRecord
  2
DEFAULT_3
 70
0
 62
7
  6
PHANTOM
370
-3
390
F
  0
LAYER
  5
1FD
100
AcDbSymbolTableRecord
100
AcDbLayerTableRecord
  2
ASSI
 70
0
 62
7
  6
CONTINUOUS
370
-3
390
F
  0
LAYER
  5
1FE
100
AcDbSymbolTableRecord
100
AcDbLayerTableRecord
  2
COLOR5
 70
0
 62
7
  6
CONTINUOUS
370
-3
390
F
  0
LAYER
  5
1FF
100
AcDbSymbolTableRecord
100
AcDbLayerTableRecord
  2
COORDINATE
 70
0
 62
7
  6
CONTINUOUS
370
-3
390
F
  0
LAYER
  5
200
100
AcDbSymbolTableRecord
100
AcDbLayerTableRecord
  2
COORD_ORIGINE
 70
0
 62
7
  6
CONTINUOUS
370
-3
390
F
  0
LAYER
  5
201
100
AcDbSymbolTableRecord
100
AcDbLayerTableRecord
  2
COPY_PUBLISH
 70
0
 62
7
  6
CONTINUOUS
370
-3
390
F
  0
LAYER
  5
202
100
AcDbSymbolTableRecord
100
AcDbLayerTableRecord
  2
COSMETICI
 70
0
 62
7
  6
CONTINUOUS
370
-3
390
F
  0
LAYER
  5
203
100
AcDbSymbolTableRecord
100
AcDbLayerTableRecord
  2
CURVE
 70
0
 62
7
  6
CONTINUOUS
370
-3
390
F
  0
LAYER
  5
204
100
AcDbSymbolTableRecord
100
AcDbLayerTableRecord
  2
DRAFT
 70
0
 62
7
  6
CONTINUOUS
370
-3
390
F
  0
LAYER
  5
205
100
AcDbSymbolTableRecord
100
AcDbLayerTableRecord
  2
IMPORT_IGES
 70
0
 62
7
  6
CONTINUOUS
370
-3
390
F
  0
LAYER
  5
206
100
AcDbSymbolTableRecord
100
AcDbLayerTableRecord
  2
NOTE
 70
0
 62
7
  6
CONTINUOUS
370
-3
390
F
  0
LAYER
  5
207
100
AcDbSymbolTableRecord
100
AcDbLayerTableRecord
  2
PIANI
 70
0
 62
7
  6
CONTINUOUS
370
-3
390
F
  0
LAYER
  5
208
100
AcDbSymbolTableRecord
100
AcDbLayerTableRecord
  2
PIANI_ORIGINE
 70
0
 62
7
  6
CONTINUOUS
370
-3
390
F
  0
LAYER
  5
209
100
AcDbSymbolTableRecord
100
AcDbLayerTableRecord
  2
PUNTI
 70
0
 62
7
  6
CONTINUOUS
370
-3
390
F
  0
LAYER
  5
20A
100
AcDbSymbolTableRecord
100
AcDbLayerTableRecord
  2
RACCORDO
 70
0
 62
7
  6
CONTINUOUS
370
-3
390
F
  0
LAYER
  5
20B
100
AcDbSymbolTableRecord
100
AcDbLayerTableRecord
  2
SIMBOLI
 70
0
 62
7
  6
CONTINUOUS
370
-3
390
F
  0
LAYER
  5
20C
100
AcDbSymbolTableRecord
100
AcDbLayerTableRecord
  2
SMUSSO
 70
0
 62
7
  6
CONTINUOUS
370
-3
390
F
  0
LAYER
  5
20D
100
AcDbSymbolTableRecord
100
AcDbLayerTableRecord
  2
SNAPLINE
 70
0
 62
7
  6
CONTINUOUS
370
-3
390
F
  0
LAYER
  5
20E
100
AcDbSymbolTableRecord
100
AcDbLayerTableRecord
  2
SUPERFICI
 70
0
 62
7
  6
CONTINUOUS
370
-3
390
F
  0
LAYER
  5
20F
100
AcDbSymbolTableRecord
100
AcDbLayerTableRecord
  2
TRASH
 70
0
 62
7
  6
CONTINUOUS
370
-3
390
F
  0
ENDTAB
  0
TABLE
  2
STYLE
  5
3
100
AcDbSymbolTable
 70
1
  0
STYLE
  5
11
100
AcDbSymbolTableRecord
100
AcDbTextStyleTableRecord
  2
STANDARD
 70
0
 40
0.0
 41
0.8
 50
0.0
 71
0
 42
0.2
  3
txt
  4

  0
STYLE
  5
210
100
AcDbSymbolTableRecord
100
AcDbTextStyleTableRecord
  2
TEXTSTYLE_1
 70
0
 40
0.0
 41
0.8
 50
0.0
 71
0
 42
0.2
  3
gdt
  4

  0
ENDTAB
  0
TABLE
  2
VIEW
  5
6
100
AcDbSymbolTable
 70
0
  0
ENDTAB
  0
TABLE
  2
UCS
  5
7
100
AcDbSymbolTable
 70
0
  0
ENDTAB
  0
TABLE
  2
APPID
  5
9
100
AcDbSymbolTable
 70
1
  0
APPID
  5
211
100
AcDbSymbolTableRecord
100
AcDbRegAppTableRecord
  2
ACAD
 70
0
  0
ENDTAB
  0
TABLE
  2
BLOCK_RECORD
  5
1
100
AcDbSymbolTable
 70
0
  0
BLOCK_RECORD
  5
212
100
AcDbSymbolTableRecord
100
AcDbBlockTableRecord
  2
*Model_Space
  0
BLOCK_RECORD
  5
213
100
AcDbSymbolTableRecord
100
AcDbBlockTableRecord
  2
*Paper_Space
  0
BLOCK_RECORD
  5
214
100
AcDbSymbolTableRecord
100
AcDbBlockTableRecord
  2
_FILLED
  0
ENDTAB
  0
TABLE
  2
DIMSTYLE
  5
A
100
AcDbSymbolTable
 70
1
100
AcDbDimStyleTable
 71
0
  0
DIMSTYLE
105
215
100
AcDbSymbolTableRecord
100
AcDbDimStyleTableRecord
  2
STANDARD
 70
0
  3

  4

 40
1.0
 41
3.0
 42
0.5
 43
0.38
 44
1.5
 45
0.0
 46
0.0
 47
0.01
 48
0.01
140
3.0
141
0.09
142
0.0
143
25.4
144
1.0
145
0.0
146
1.0
147
0.625
 71
1.0
 72
0.0
 73
0
 74
0
 75
0
 76
0
 77
1
 78
8
 79
2
170
0
171
1
172
0
173
0
174
0
175
0
176
0
177
0
178
0
270
2
179
2
271
2
272
2
273
2
274
2
275
0
280
0
281
0
282
0
283
1
284
8
285
0
286
0
287
3
288
0
340
11
278
44
341
214
342
214
343
214
344
214
  0
ENDTAB
  0
ENDSEC
  0
SECTION
  2
BLOCKS
  0
BLOCK
  5
20
100
AcDbEntity
  8
0
100
AcDbBlockBegin
  2
*Model_Space
 70
0
 10
0.0
 20
0.0
 30
0.0
  3
*Model_Space
  1

  0
ENDBLK
  5
21
100
AcDbEntity
  8
0
100
AcDbBlockEnd
  0
BLOCK
  5
1C
100
AcDbEntity
  8
0
100
AcDbBlockBegin
  2
*Paper_Space
 70
0
 10
0.0
 20
0.0
 30
0.0
  3
*Paper_Space
  1

  0
ENDBLK
  5
1D
100
AcDbEntity
  8
0
100
AcDbBlockEnd
  0
BLOCK
  5
216
100
AcDbEntity
  8
0
100
AcDbBlockBegin
  2
_FILLED
 70
64
 10
0.0
 20
0.0
  3
_FILLED
  1

  0
SOLID
  5
217
100
AcDbEntity
  8
0
  6
BYBLOCK
 62
0
100
AcDbTrace
 10
0.0
 20
0.0
 11
-1.0
 21
0.3166666667
 12
-1.0
 22
-0.3166666667
 13
-1.0
 23
-0.3166666667
  0
ENDBLK
  5
218
100
AcDbEntity
  8
0
  6
BYBLOCK
 62
0
100
AcDbBlockEnd
  0
ENDSEC
  0
SECTION
  2
ENTITIES
  0
LINE
  5
219
100
AcDbEntity
  8
ASSI
100
AcDbLine
 62
7
  6
CONTINUOUS
 10
-40.2343758495
 20
144.8851323321
 11
-44.4770165366
 21
142.4354847721
  0
LINE
  5
21A
100
AcDbEntity
  8
ASSI
100
AcDbLine
 62
7
  6
CONTINUOUS
 10
-28.9206673505
 20
148.6825097717
 11
-33.1633080376
 21
146.2328622118
  0
LINE
  5
21B
100
AcDbEntity
  8
RACCORDO
100
AcDbLine
 62
250
  6
CONTINUOUS
 10
-34.4494001165
 20
141.4333276197
 11
-37.3364109371
 21
139.7664037546
  0
LWPOLYLINE
  5
21C
100
AcDbEntity
  8
RACCORDO
100
AcDbPolyline
 62
7
  6
CONTINUOUS
 90
18
 70
0
 10
-35.4502378558
 20
139.8111735371
 10
-35.4649895819
 20
139.8027536242
 10
-35.5617778714
 20
139.752259001
 10
-35.661992802
 20
139.7080607669
 10
-35.7656197518
 20
139.6701320545
 10
-35.8722152681
 20
139.6386351728
 10
-35.9817920726
 20
139.6135976847
 10
-36.0943374437
 20
139.5949920273
 10
-36.2093697642
 20
139.58289782
 10
-36.3268996916
 20
139.5773429672
 10
-36.4469165683
 20
139.5782995645
 10
-36.5689068041
 20
139.5857635183
 10
-36.6928788557
 20
139.5997627154
 10
-36.8188242664
 20
139.6202692691
 10
-36.946204076
 20
139.6471954252
 10
-37.0748386309
 20
139.6805119325
 10
-37.2049075846
 20
139.7202480423
 10
-37.3364109371
 20
139.7664037546
  0
LINE
  5
21D
100
AcDbEntity
  8
RACCORDO
100
AcDbLine
 62
250
  6
CONTINUOUS
 10
-29.5924187927
 20
120.1246039324
 11
-28.8853461815
 21
120.5328587964
  0
LWPOLYLINE
  5
21E
100
AcDbEntity
  8
RACCORDO
100
AcDbPolyline
 62
7
  6
CONTINUOUS
 90
16
 70
0
 10
-29.3853361716
 20
120.5823407936
 10
-29.3584786734
 20
120.5962524804
 10
-29.3302773733
 20
120.6077808388
 10
-29.3009389492
 20
120.6168454533
 10
-29.2704540681
 20
120.623426102
 10
-29.2388320632
 20
120.6275430068
 10
-29.2063317724
 20
120.6291624692
 10
-29.1729459872
 20
120.6282639908
 10
-29.1386819161
 20
120.6248680701
 10
-29.1038200237
 20
120.6190025039
 10
-29.0683554031
 20
120.610647022
 10
-29.0322929611
 20
120.5998218946
 10
-28.9959278825
 20
120.5866157295
 10
-28.9593585621
 20
120.5710580627
 10
-28.9224866051
 20
120.5531193581
 10
-28.8853120115
 20
120.5327996159
  0
LWPOLYLINE
  5
21F
100
AcDbEntity
  8
RACCORDO
100
AcDbPolyline
 62
7
  6
CONTINUOUS
 90
12
 70
0
 10
31.7834012177
 20
-120.1275376426
 10
31.6972059332
 20
-120.1189948062
 10
31.573304413
 20
-120.1005504104
 10
31.4477644236
 20
-120.0757532998
 10
31.3205928046
 20
-120.0446299931
 10
31.1923218978
 20
-120.0073107727
 10
31.0629470952
 20
-119.9637696663
 10
30.9324730048
 20
-119.9140326462
 10
30.8014457925
 20
-119.8583079121
 10
30.6700475138
 20
-119.796664864
 10
30.5380961133
 20
-119.729034102
 10
30.405591591
 20
-119.655415626
  0
LINE
  5
220
100
AcDbEntity
  8
RACCORDO
100
AcDbLine
 62
7
  6
CONTINUOUS
 10
33.09377025
 20
-142.2160513145
 11
40.2343758495
 21
-144.8851323321
  0
LWPOLYLINE
  5
221
100
AcDbEntity
  8
RACCORDO
100
AcDbPolyline
 62
7
  6
CONTINUOUS
 90
18
 70
0
 10
-30.0065937645
 20
106.349740202
 10
-29.9830905865
 20
106.3639592871
 10
-29.9378410572
 20
106.3952909099
 10
-29.8950254333
 20
106.4304630139
 10
-29.8546273104
 20
106.4694497143
 10
-29.8169201995
 20
106.5119870558
 10
-29.7819223611
 20
106.5580991322
 10
-29.7496155348
 20
106.6077618497
 10
-29.7202184504
 20
106.6606389723
 10
-29.6937508526
 20
106.7167523121
 10
-29.6701929968
 20
106.7760800571
 10
-29.6497043787
 20
106.8382205351
 10
-29.6323058255
 20
106.9031928325
 10
-29.6179765101
 20
106.9709778631
 10
-29.6068134476
 20
107.0411166955
 10
-29.5988489764
 20
107.1134563528
 10
-29.5940507581
 20
107.1881498119
 10
-29.5924187927
 20
107.2651970729
  0
LINE
  5
222
100
AcDbEntity
  8
RACCORDO
100
AcDbLine
 62
250
  6
CONTINUOUS
 10
-36.0624458405
 20
105.2856176643
 11
-32.5270827849
 21
107.3268919841
  0
LINE
  5
223
100
AcDbEntity
  8
RACCORDO
100
AcDbLine
 62
250
  6
CONTINUOUS
 10
-27.4710984491
 20
108.4900208529
 11
-29.5924187927
 21
107.2651970729
  0
LINE
  5
224
100
AcDbEntity
  8
RACCORDO
100
AcDbLine
 62
7
  6
CONTINUOUS
 10
-27.8852636912
 20
107.5745471306
 11
-30.0065840348
 21
106.3497233507
  0
LWPOLYLINE
  5
225
100
AcDbEntity
  8
RACCORDO
100
AcDbPolyline
 62
7
  6
CONTINUOUS
 90
22
 70
0
 10
-35.0270327353
 20
107.57430197
 10
-34.9317239025
 20
107.6252710692
 10
-34.8330426538
 20
107.6701199974
 10
-34.7312812691
 20
107.7087307587
 10
-34.6264268369
 20
107.7410772035
 10
-34.5184922689
 20
107.7671854813
 10
-34.4079293801
 20
107.7869463026
 10
-34.2947271532
 20
107.8003330598
 10
-34.1788966057
 20
107.8073723606
 10
-34.0609226055
 20
107.8080347382
 10
-33.9407961675
 20
107.8022934616
 10
-33.8185262768
 20
107.7901752619
 10
-33.6946247565
 20
107.771730866
 10
-33.5690847671
 20
107.7469337555
 10
-33.4419131481
 20
107.7158104487
 10
-33.3136422414
 20
107.6784912284
 10
-33.1842674387
 20
107.6349501219
 10
-33.0537933483
 20
107.5852131018
 10
-32.9227661361
 20
107.5294883678
 10
-32.7913678574
 20
107.4678453197
 10
-32.6594164569
 20
107.4002145576
 10
-32.5269119346
 20
107.3265960817
  0
LWPOLYLINE
  5
226
100
AcDbEntity
  8
ASSI
100
AcDbPolyline
 62
7
  6
CONTINUOUS
 90
13
 70
0
 10
19.301991306
 20
-117.7452319246
 10
19.3588848532
 20
-117.7627918074
 10
19.4147774489
 20
-117.7766361062
 10
19.4696690932
 20
-117.7867648211
 10
19.5236910604
 20
-117.7931846473
 10
19.5767120763
 20
-117.7958888895
 10
19.6283383176
 20
-117.7948574614
 10
19.6785593986
 20
-117.7900625469
 10
19.7273857051
 20
-117.7815319621
 10
19.7744545709
 20
-117.7693290695
 10
19.8197529098
 20
-117.7534265247
 10
19.863293808
 20
-117.733851672
 10
19.8914295582
 20
-117.7186923924
  0
LWPOLYLINE
  5
227
100
AcDbEntity
  8
ASSI
100
AcDbPolyline
 62
7
  6
CONTINUOUS
 90
13
 70
0
 10
16.4069011439
 20
-114.0118486171
 10
16.3500075968
 20
-113.9942887342
 10
16.294115001
 20
-113.9804444354
 10
16.2392233567
 20
-113.9703157206
 10
16.1852013895
 20
-113.9638958944
 10
16.1321803736
 20
-113.9611916522
 10
16.0805541324
 20
-113.9622230803
 10
16.0303330513
 20
-113.9670179948
 10
15.9815067448
 20
-113.9755485796
 10
15.934437879
 20
-113.9877514722
 10
15.8891395401
 20
-114.003654017
 10
15.8455986419
 20
-114.0232288696
 10
15.8174628918
 20
-114.0383881493
  0
LINE
  5
228
100
AcDbEntity
  8
ASSI
100
AcDbLine
 62
7
  6
CONTINUOUS
 10
16.8781014482
 20
-116.9227604228
 11
19.301991306
 21
-117.7452319246
  0
LINE
  5
229
100
AcDbEntity
  8
ASSI
100
AcDbLine
 62
7
  6
CONTINUOUS
 10
18.9994217918
 20
-115.6979366428
 11
20.0091143159
 21
-116.0405443418
  0
LINE
  5
22A
100
AcDbEntity
  8
ASSI
100
AcDbLine
 62
7
  6
CONTINUOUS
 10
18.8307910017
 20
-114.8343201188
 11
16.4069011439
 21
-114.0118486171
  0
LINE
  5
22B
100
AcDbEntity
  8
RACCORDO
100
AcDbLine
 62
7
  6
CONTINUOUS
 10
-44.4770165366
 20
-95.9738360514
 11
-37.3364109371
 21
-101.5505473946
  0
LWPOLYLINE
  5
22C
100
AcDbEntity
  8
RACCORDO
100
AcDbPolyline
 62
7
  6
CONTINUOUS
 90
31
 70
0
 10
-37.3364109371
 20
-101.5505473946
 10
-37.2049075846
 20
-101.6562484575
 10
-37.0748386309
 20
-101.7667127152
 10
-36.946204076
 20
-101.8819401676
 10
-36.8188242664
 20
-102.0021090226
 10
-36.6928788557
 20
-102.1270410723
 10
-36.5689068041
 20
-102.2562016929
 10
-36.4469165683
 20
-102.3896090056
 10
-36.3268996916
 20
-102.5272448893
 10
-36.2093697642
 20
-102.6685203563
 10
-36.0943374437
 20
-102.8134510038
 10
-35.9817920726
 20
-102.9620212348
 10
-35.8722152681
 20
-103.11359527
 10
-35.7656197518
 20
-103.2681859821
 10
-35.661992802
 20
-103.4257804986
 10
-35.5617778714
 20
-103.5857044225
 10
-35.4649895819
 20
-103.7479677364
 10
-35.3716133116
 20
-103.9125604577
 10
-35.282048647
 20
-104.0787782422
 10
-35.1963119225
 20
-104.2466280538
 10
-35.1143868038
 20
-104.4161029286
 10
-35.0366238743
 20
-104.5864776298
 10
-34.963040971
 20
-104.7577560135
 10
-34.8936202569
 20
-104.9299342238
 10
-34.8286588053
 20
-105.1022754554
 10
-34.768175726
 20
-105.2747804069
 10
-34.7121519093
 20
-105.4474483799
 10
-34.6608270987
 20
-105.6195404732
 10
-34.6142812088
 20
-105.7908103867
 10
-34.5724343251
 20
-105.9615044206
 10
-34.5352864475
 20
-106.131622575
  0
LWPOLYLINE
  5
22D
100
AcDbEntity
  8
ASSI
100
AcDbPolyline
 62
7
  6
CONTINUOUS
 90
43
 70
0
 10
-33.1633080376
 20
-112.8360004776
 10
-31.7497243011
 20
-114.2794010879
 10
-30.3275660823
 20
-115.6980901927
 10
-28.8968333812
 20
-117.092067792
 10
-27.457062534
 20
-118.4617644604
 10
-26.0087172047
 20
-119.8067496233
 10
-24.5531883843
 20
-121.1257315564
 10
-23.0904691719
 20
-122.4186852783
 10
-21.6205664685
 20
-123.6856357704
 10
-20.1448919693
 20
-124.925366253
 10
-18.6634401292
 20
-126.1378505758
 10
-17.1762164932
 20
-127.323114889
 10
-15.6846493915
 20
-128.4800208646
 10
-14.1887346512
 20
-129.6085412584
 10
-12.6884764451
 20
-130.7087033145
 10
-11.1853156217
 20
-131.7794504369
 10
-9.6792493925
 20
-132.8207543664
 10
-8.1702805461
 20
-133.8326433622
 10
-6.6598582965
 20
-134.8141456058
 10
-5.1479812476
 20
-135.7652319043
 10
-3.6346507956
 20
-136.6859314505
 10
-2.1213203436
 20
-137.5753600044
 10
-0.6079898915
 20
-138.4334875235
 10
0.9053405605
 20
-139.2603440503
 10
2.4172176094
 20
-140.0551354714
 10
3.927639859
 20
-140.8178309815
 10
5.4366087054
 20
-141.548461386
 10
6.9426749346
 20
-142.246324987
 10
8.445835758
 20
-142.9113903054
 10
9.946093964
 20
-143.5436888204
 10
11.4420087044
 20
-144.1426132723
 10
12.9335758061
 20
-144.7081315983
 10
14.420799442
 20
-145.2402758613
 10
15.9022512821
 20
-145.7385349896
 10
17.3779257814
 20
-146.2028764296
 10
18.8478284848
 20
-146.6333327349
 10
20.3105476972
 20
-147.0294904953
 10
21.7660765175
 20
-147.3913167597
 10
23.2144218469
 20
-147.7188444792
 10
24.6541926941
 20
-148.0117590959
 10
26.0849253951
 20
-148.2699557572
 10
27.507083614
 20
-148.4935393159
 10
28.9206673505
 20
-148.6825097717
  0
LWPOLYLINE
  5
22E
100
AcDbEntity
  8
ASSI
100
AcDbPolyline
 62
7
  6
CONTINUOUS
 90
53
 70
0
 10
-19.8914295582
 20
106.614696628
 10
-19.9047538575
 20
106.606754143
 10
-19.9441175643
 20
106.5800992045
 10
-19.9814004224
 20
106.5499173539
 10
-20.0163255067
 20
106.5164327723
 10
-20.0488752611
 20
106.4796208674
 10
-20.0790672417
 20
106.4395062315
 10
-20.1066771922
 20
106.3963868234
 10
-20.1316858865
 20
106.3502402691
 10
-20.1541125506
 20
106.3010889426
 10
-20.1737906066
 20
106.2492979242
 10
-20.1906995879
 20
106.1948475584
 10
-20.204859961
 20
106.1377575006
 10
-20.2161665471
 20
106.0784517977
 10
-20.2245980967
 20
106.0169139515
 10
-20.2301758594
 20
105.9531604602
 10
-20.2328584053
 20
105.8876648641
 10
-20.2326241764
 20
105.8204141914
 10
-20.2294947306
 20
105.751421414
 10
-20.2234933127
 20
105.6811989882
 10
-20.2145985374
 20
105.6097377579
 10
-20.2028317899
 20
105.5370468791
 10
-20.1882804698
 20
105.4636662766
 10
-20.1709238429
 20
105.3895908144
 10
-20.1507826433
 20
105.3148256284
 10
-20.1280064735
 20
105.2399260504
 10
-20.1025757132
 20
105.1648910798
 10
-20.0745099827
 20
105.0897217173
 10
-20.0440177453
 20
105.0149762967
 10
-20.0110809328
 20
104.9406579749
 10
-19.9757176134
 20
104.8667635952
 10
-19.9381904544
 20
104.7938420213
 10
-19.8984833437
 20
104.7219004968
 10
-19.8566123935
 20
104.6509317782
 10
-19.8128886078
 20
104.5814629984
 10
-19.7672981902
 20
104.513505326
 10
-19.719854937
 20
104.4470475924
 10
-19.6709112416
 20
104.3825834244
 10
-19.6204559316
 20
104.3201276663
 10
-19.5685001794
 20
104.2596654737
 10
-19.5154298956
 20
104.2016459405
 10
-19.4612367815
 20
104.1460872549
 10
-19.4059291358
 20
104.0929712288
 10
-19.3499177662
 20
104.0426923909
 10
-19.2931974325
 20
103.9952718673
 10
-19.2357733748
 20
103.9506885318
 10
-19.1780721207
 20
103.9092735354
 10
-19.120091606
 20
103.8710504698
 10
-19.0618338949
 20
103.8359957431
 10
-19.0037317069
 20
103.8043697307
 10
-18.945929282
 20
103.7762592244
 10
-18.8882823803
 20
103.7515774323
 10
-18.8307910017
 20
103.7303243545
  0
LWPOLYLINE
  5
22F
100
AcDbEntity
  8
ASSI
100
AcDbPolyline
 62
7
  6
CONTINUOUS
 90
53
 70
0
 10
-15.8174628918
 20
102.9343923849
 10
-15.8041385924
 20
102.9423348699
 10
-15.7647748857
 20
102.9689898085
 10
-15.7274920276
 20
102.999171659
 10
-15.6925669432
 20
103.0326562406
 10
-15.6600171888
 20
103.0694681455
 10
-15.6298252082
 20
103.1095827814
 10
-15.6022152577
 20
103.1527021895
 10
-15.5772065635
 20
103.1988487438
 10
-15.5547798993
 20
103.2480000703
 10
-15.5351018433
 20
103.2997910888
 10
-15.518192862
 20
103.3542414546
 10
-15.504032489
 20
103.4113315123
 10
-15.4927259028
 20
103.4706372152
 10
-15.4842943532
 20
103.5321750614
 10
-15.4787165905
 20
103.5959285527
 10
-15.4760340446
 20
103.6614241488
 10
-15.4762682736
 20
103.7286748215
 10
-15.4793977193
 20
103.7976675989
 10
-15.4853991373
 20
103.8678900247
 10
-15.4942939125
 20
103.939351255
 10
-15.50606066
 20
104.0120421338
 10
-15.5206119801
 20
104.0854227364
 10
-15.5379686071
 20
104.1594981985
 10
-15.5581098066
 20
104.2342633845
 10
-15.5808859764
 20
104.3091629625
 10
-15.6063167367
 20
104.3841979331
 10
-15.6343824672
 20
104.4593672957
 10
-15.6648747047
 20
104.5341127162
 10
-15.6978115171
 20
104.608431038
 10
-15.7331748365
 20
104.6823254177
 10
-15.7707019955
 20
104.7552469916
 10
-15.8104091062
 20
104.8271885161
 10
-15.8522800564
 20
104.8981572347
 10
-15.8960038421
 20
104.9676260146
 10
-15.9415942598
 20
105.0355836869
 10
-15.9890375129
 20
105.1020414205
 10
-16.0379812083
 20
105.1665055885
 10
-16.0884365183
 20
105.2289613467
 10
-16.1403922706
 20
105.2894235392
 10
-16.1934625543
 20
105.3474430725
 10
-16.2476556684
 20
105.403001758
 10
-16.3029633141
 20
105.4561177841
 10
-16.3589746838
 20
105.506396622
 10
-16.4156950174
 20
105.5538171456
 10
-16.4731190751
 20
105.5984004811
 10
-16.5308203292
 20
105.6398154775
 10
-16.5888008439
 20
105.6780385431
 10
-16.647058555
 20
105.7130932698
 10
-16.705160743
 20
105.7447192822
 10
-16.7629631679
 20
105.7728297886
 10
-16.8206100696
 20
105.7975115806
 10
-16.8781014482
 20
105.8187646584
  0
LINE
  5
230
100
AcDbEntity
  8
ASSI
100
AcDbLine
 62
250
  6
CONTINUOUS
 10
-16.7094706582
 20
104.9551481344
 11
-18.8307910017
 21
103.7303243545
  0
LINE
  5
231
100
AcDbEntity
  8
ASSI
100
AcDbLine
 62
250
  6
CONTINUOUS
 10
-15.5002135155
 20
103.4313629258
 11
-16.4069011439
 21
102.9078528527
  0
LWPOLYLINE
  5
232
100
AcDbEntity
  8
0
100
AcDbPolyline
 62
7
  6
CONTINUOUS
 90
8
 70
0
 10
0.1864593976
 20
-96.8707858137
 10
-0.0971848125
 20
-96.7807346993
 10
-0.3617784721
 20
-96.7671004384
 10
-0.5997905241
 20
-96.832185767
 10
-0.7932551894
 20
-96.9710778722
 10
-0.9402508694
 20
-97.1823972007
 10
-1.0296819416
 20
-97.4501928106
 10
-1.0606601718
 20
-97.772216959
  0
LWPOLYLINE
  5
233
100
AcDbEntity
  8
RACCORDO
100
AcDbPolyline
 62
7
  6
CONTINUOUS
 90
18
 70
0
 10
26.7639916679
 20
-124.4930355527
 10
26.6964485713
 20
-124.4559213859
 10
26.6293607132
 20
-124.4227260242
 10
26.5627280935
 20
-124.3934494676
 10
26.4964020552
 20
-124.3680432234
 10
26.4305312554
 20
-124.3465557843
 10
26.3655616651
 20
-124.3291326287
 10
26.3014993996
 20
-124.3158013356
 10
26.2383383438
 20
-124.306534326
 10
26.1765061225
 20
-124.3013943413
 10
26.1160117529
 20
-124.300409386
 10
26.056846218
 20
-124.3035514556
 10
25.9994100915
 20
-124.3107992769
 10
25.9437151087
 20
-124.3221807104
 10
25.8897495343
 20
-124.3376678956
 10
25.8378787365
 20
-124.3571559783
 10
25.7881169297
 20
-124.3806721073
 10
25.7639530774
 20
-124.3939700487
  0
LINE
  5
234
100
AcDbEntity
  8
RACCORDO
100
AcDbLine
 62
7
  6
CONTINUOUS
 10
-28.8853120115
 20
-96.8524115802
 11
24.6426713244
 21
-127.7587982951
  0
LINE
  5
235
100
AcDbEntity
  8
RACCORDO
100
AcDbLine
 62
7
  6
CONTINUOUS
 10
-26.7639916679
 20
-95.6275878002
 11
25.3497781055
 21
-125.7174253285
  0
LINE
  5
236
100
AcDbEntity
  8
RACCORDO
100
AcDbLine
 62
7
  6
CONTINUOUS
 10
26.7639916679
 20
-124.4930355527
 11
28.8853120115
 21
-125.7178593327
  0
LINE
  5
237
100
AcDbEntity
  8
RACCORDO
100
AcDbLine
 62
7
  6
CONTINUOUS
 10
28.8853120115
 20
-123.2682117727
 11
30.2995255738
 21
-124.0847609594
  0
LWPOLYLINE
  5
238
100
AcDbEntity
  8
RACCORDO
100
AcDbPolyline
 62
7
  6
CONTINUOUS
 90
31
 70
0
 10
-28.8853120115
 20
-96.8524115802
 10
-28.9224866051
 20
-96.8298030335
 10
-28.9593585621
 20
-96.8051629263
 10
-28.9959278825
 20
-96.7784912586
 10
-29.0322929611
 20
-96.7497039424
 10
-29.0683554031
 20
-96.7188850658
 10
-29.1038200237
 20
-96.6862868928
 10
-29.1386819161
 20
-96.6518948194
 10
-29.1729459872
 20
-96.6157234498
 10
-29.2063317724
 20
-96.5780688602
 10
-29.2388320632
 20
-96.5389188767
 10
-29.2704540681
 20
-96.4982856732
 10
-29.3009389492
 20
-96.4565018479
 10
-29.3302773733
 20
-96.4135579567
 10
-29.3584786734
 20
-96.3694634438
 10
-29.3853120115
 20
-96.3245792392
 10
-29.4107661594
 20
-96.2788988616
 10
-29.4348523452
 20
-96.2324287923
 10
-29.4573734143
 20
-96.1855494067
 10
-29.4783165206
 20
-96.138257345
 10
-29.4976945101
 20
-96.0905559668
 10
-29.5153487668
 20
-96.0428357261
 10
-29.5312651426
 20
-95.9950964679
 10
-29.5454577855
 20
-95.9473383471
 10
-29.5578105234
 20
-95.8999522819
 10
-29.5683082548
 20
-95.8529413262
 10
-29.5769660811
 20
-95.8063024261
 10
-29.5837131348
 20
-95.7604173388
 10
-29.5885257934
 20
-95.7154133165
 10
-29.5914276793
 20
-95.6711631069
 10
-29.5924187927
 20
-95.6276667101
  0
LWPOLYLINE
  5
239
100
AcDbEntity
  8
0
100
AcDbPolyline
 62
7
  6
CONTINUOUS
 90
12
 70
0
 10
1.4053723661
 20
97.5835893916
 10
1.4499248905
 20
97.612077732
 10
1.4919991497
 20
97.6446663328
 10
1.5314375408
 20
97.6812414609
 10
1.568131966
 20
97.7217028666
 10
1.6019818484
 20
97.765939648
 10
1.6328944077
 20
97.8138305552
 10
1.6607849149
 20
97.8652443223
 10
1.685576924
 20
97.9200400281
 10
1.7072024818
 20
97.9780674811
 10
1.7256023142
 20
98.0391676321
 10
1.7407259885
 20
98.10317301
  0
LWPOLYLINE
  5
23A
100
AcDbEntity
  8
0
100
AcDbPolyline
 62
7
  6
CONTINUOUS
 90
13
 70
0
 10
-0.3447121944
 20
100.6146294823
 10
-0.2976767953
 20
100.6390126401
 10
-0.2484141672
 20
100.6591506207
 10
-0.1970170552
 20
100.6750126367
 10
-0.1436263353
 20
100.6865552117
 10
-0.0883883476
 20
100.6937467081
 10
-0.0314544958
 20
100.6965674146
 10
0.0270191686
 20
100.6950095998
 10
0.0868723731
 20
100.6890775336
 10
0.1479410645
 20
100.6787874754
 10
0.2100578576
 20
100.6641676294
 10
0.2730524946
 20
100.6452580678
 10
0.2891726624
 20
100.6394002685
  0
LWPOLYLINE
  5
23B
100
AcDbEntity
  8
RACCORDO
100
AcDbPolyline
 62
7
  6
CONTINUOUS
 90
18
 70
0
 10
-7.4246212025
 20
-90.4644923919
 10
-7.492164299
 20
-90.427378225
 10
-7.5592521572
 20
-90.3941828633
 10
-7.6258847769
 20
-90.3649063068
 10
-7.6922108152
 20
-90.3395000625
 10
-7.758081615
 20
-90.3180126234
 10
-7.8230512053
 20
-90.3005894678
 10
-7.8871134707
 20
-90.2872581747
 10
-7.9502745266
 20
-90.2779911652
 10
-8.0121067479
 20
-90.2728511804
 10
-8.0726011174
 20
-90.2718662252
 10
-8.1317666524
 20
-90.2750082948
 10
-8.1892027789
 20
-90.2822561161
 10
-8.2448977617
 20
-90.2936375496
 10
-8.298863336
 20
-90.3091247348
 10
-8.3507341339
 20
-90.3286128175
 10
-8.4004959407
 20
-90.3521289465
 10
-8.424659793
 20
-90.3654268879
  0
LWPOLYLINE
  5
23C
100
AcDbEntity
  8
RACCORDO
100
AcDbPolyline
 62
7
  6
CONTINUOUS
 90
11
 70
0
 10
-10.2530483272
 20
-93.7299789497
 10
-10.1205438049
 20
-93.8035974257
 10
-9.9885924044
 20
-93.8712281877
 10
-9.8571941257
 20
-93.9328712358
 10
-9.7261669135
 20
-93.9885959699
 10
-9.595692823
 20
-94.03833299
 10
-9.4663180204
 20
-94.0818740964
 10
-9.3380471136
 20
-94.1191933168
 10
-9.2108754947
 20
-94.1503166235
 10
-9.0853355052
 20
-94.1751137341
 10
-9.0501677761
 20
-94.1803489202
  0
LWPOLYLINE
  5
23D
100
AcDbEntity
  8
0
100
AcDbPolyline
 62
7
  6
CONTINUOUS
 90
36
 70
0
 10
-0.0001708407
 20
-96.7516457948
 10
-0.0402954586
 20
-96.7290052033
 10
-0.1206366831
 20
-96.6868321427
 10
-0.2007266647
 20
-96.6490452745
 10
-0.2805669537
 20
-96.6156175312
 10
-0.3596628163
 20
-96.5867560493
 10
-0.43800963
 20
-96.5624891824
 10
-0.5156120173
 20
-96.5427885769
 10
-0.5919891116
 20
-96.5277763085
 10
-0.6671333046
 20
-96.5174814888
 10
-0.7410522046
 20
-96.5118750062
 10
-0.8132877699
 20
-96.5109916014
 10
-0.8838295481
 20
-96.5148606019
 10
-0.9526879915
 20
-96.5234526802
 10
-1.0194364159
 20
-96.5367145953
 10
-1.0840617193
 20
-96.5546753437
 10
-1.1465770036
 20
-96.5773059289
 10
-1.2065948902
 20
-96.6044661194
 10
-1.2640998718
 20
-96.6361840411
 10
-1.3191074556
 20
-96.6724315682
 10
-1.3712767848
 20
-96.7129840911
 10
-1.4205902355
 20
-96.7578683412
 10
-1.4670654315
 20
-96.8070575873
 10
-1.5104143873
 20
-96.8602470259
 10
-1.5506176909
 20
-96.9174614957
 10
-1.5876947542
 20
-96.9786761582
 10
-1.6214158277
 20
-97.0435116939
 10
-1.6517600727
 20
-97.1119905862
 10
-1.6787483277
 20
-97.1840903517
 10
-1.702213359
 20
-97.2593642211
 10
-1.7221332895
 20
-97.3378319036
 10
-1.7385299962
 20
-97.41947369
 10
-1.7513018762
 20
-97.5037836834
 10
-1.7604150618
 20
-97.5905932515
 10
-1.7659034207
 20
-97.6800710266
 10
-1.767766953
 20
-97.7722170086
  0
LINE
  5
23E
100
AcDbEntity
  8
RACCORDO
100
AcDbLine
 62
7
  6
CONTINUOUS
 10
-32.5269119346
 20
-85.7686243798
 11
-31.006632355
 21
-86.6464147555
  0
LINE
  5
23F
100
AcDbEntity
  8
RACCORDO
100
AcDbLine
 62
7
  6
CONTINUOUS
 10
-30.405591591
 20
-84.5438005999
 11
-12.3743686708
 21
-94.9548027297
  0
LINE
  5
240
100
AcDbEntity
  8
RACCORDO
100
AcDbLine
 62
7
  6
CONTINUOUS
 10
12.3743686708
 20
-109.2444134962
 11
30.405591591
 21
-119.655415626
  0
LINE
  5
241
100
AcDbEntity
  8
RACCORDO
100
AcDbLine
 62
7
  6
CONTINUOUS
 10
-28.2842712475
 20
-83.3189768199
 11
-10.2530483272
 21
-93.7299789497
  0
LINE
  5
242
100
AcDbEntity
  8
RACCORDO
100
AcDbLine
 62
7
  6
CONTINUOUS
 10
14.4956890143
 20
-108.0195897162
 11
31.8198051534
 21
-118.0223172527
  0
LINE
  5
243
100
AcDbEntity
  8
RACCORDO
100
AcDbLine
 62
7
  6
CONTINUOUS
 10
7.4246212025
 20
-99.0382588517
 11
-7.4246212025
 21
-90.4644923919
  0
LWPOLYLINE
  5
244
100
AcDbEntity
  8
RACCORDO
100
AcDbPolyline
 62
7
  6
CONTINUOUS
 90
43
 70
0
 10
-32.5269119346
 20
-85.7686243798
 10
-32.6594164569
 20
-85.6892299548
 10
-32.7913678574
 20
-85.604486547
 10
-32.9227661361
 20
-85.5143941564
 10
-33.0537933483
 20
-85.4188119501
 10
-33.1842674387
 20
-85.3178807611
 10
-33.3136422414
 20
-85.2120230883
 10
-33.4419131481
 20
-85.1012182808
 10
-33.5690847671
 20
-84.9854869896
 10
-33.6946247565
 20
-84.8653136671
 10
-33.8185262768
 20
-84.7406796931
 10
-33.9407961675
 20
-84.6116036878
 10
-34.0609226055
 20
-84.478625965
 10
-34.1788966057
 20
-84.341730169
 10
-34.2947271532
 20
-84.2009326554
 10
-34.4079293801
 20
-84.056822804
 10
-34.5184922689
 20
-83.9093867302
 10
-34.6264268369
 20
-83.7586383186
 10
-34.7312812691
 20
-83.6052086039
 10
-34.8330426538
 20
-83.4490863463
 10
-34.9317239025
 20
-83.2902827855
 10
-35.0269119346
 20
-83.129462675
 10
-35.1185921068
 20
-82.9666175617
 10
-35.2067790623
 20
-82.8017558986
 10
-35.2911036496
 20
-82.6355677986
 10
-35.371549678
 20
-82.4680477013
 10
-35.4481333381
 20
-82.2992011671
 10
-35.5205340499
 20
-82.1297349892
 10
-35.588734279
 20
-81.9596465704
 10
-35.6527515598
 20
-81.7889385081
 10
-35.7123179152
 20
-81.618325388
 10
-35.7674146876
 20
-81.4478076082
 10
-35.8180605346
 20
-81.2773847707
 10
-35.8640434521
 20
-81.1077702674
 10
-35.9053438939
 20
-80.9389674866
 10
-35.9419814061
 20
-80.77097304
 10
-35.9738026239
 20
-80.6044901542
 10
-36.000787358
 20
-80.4395251654
 10
-36.0229557976
 20
-80.2760717374
 10
-36.0402151454
 20
-80.1148140879
 10
-36.0525344689
 20
-79.9559802898
 10
-36.0599447006
 20
-79.7993422702
 10
-36.0624458405
 20
-79.6449000292
  0
LINE
  5
245
100
AcDbEntity
  8
RACCORDO
100
AcDbLine
 62
7
  6
CONTINUOUS
 10
-30.405591591
 20
-84.5438005999
 11
-30.5380961133
 21
-84.4644061748
  0
LWPOLYLINE
  5
246
100
AcDbEntity
  8
RACCORDO
100
AcDbPolyline
 62
7
  6
CONTINUOUS
 90
43
 70
0
 10
12.3743686708
 20
-109.2444134962
 10
12.2418641484
 20
-109.1650190711
 10
12.1099127479
 20
-109.0802756633
 10
11.9785144692
 20
-108.9901832728
 10
11.847487257
 20
-108.8946010665
 10
11.7170131666
 20
-108.7936698774
 10
11.587638364
 20
-108.6878122047
 10
11.4593674572
 20
-108.5770073971
 10
11.3321958382
 20
-108.4612761059
 10
11.2066558488
 20
-108.3411027835
 10
11.0827543285
 20
-108.2164688094
 10
10.9604844379
 20
-108.0873928042
 10
10.8403579999
 20
-107.9544150813
 10
10.7223839996
 20
-107.8175192853
 10
10.6065534521
 20
-107.6767217717
 10
10.4933512252
 20
-107.5326119204
 10
10.3827883365
 20
-107.3851758465
 10
10.2748537684
 20
-107.234427435
 10
10.1699993363
 20
-107.0809977202
 10
10.0682379516
 20
-106.9248754626
 10
9.9695567028
 20
-106.7660719019
 10
9.8743686708
 20
-106.6052517914
 10
9.7826884985
 20
-106.442406678
 10
9.694501543
 20
-106.277545015
 10
9.6101769558
 20
-106.1113569149
 10
9.5297309273
 20
-105.9438368177
 10
9.4531472672
 20
-105.7749902834
 10
9.3807465554
 20
-105.6055241056
 10
9.3125463263
 20
-105.4354356868
 10
9.2485290455
 20
-105.2647276244
 10
9.1889626901
 20
-105.0941145044
 10
9.1338659177
 20
-104.9235967246
 10
9.0832200707
 20
-104.7531738871
 10
9.0372371532
 20
-104.5835593837
 10
8.9959367115
 20
-104.414756603
 10
8.9592991992
 20
-104.2467621564
 10
8.9274779814
 20
-104.0802792706
 10
8.9004932473
 20
-103.9153142818
 10
8.8783248077
 20
-103.7518608537
 10
8.8610654599
 20
-103.5906032043
 10
8.8487461364
 20
-103.4317694061
 10
8.8413359047
 20
-103.2751313865
 10
8.8388347648
 20
-103.1206891456
  0
LWPOLYLINE
  5
247
100
AcDbEntity
  8
RACCORDO
100
AcDbPolyline
 62
7
  6
CONTINUOUS
 90
34
 70
0
 10
-28.8853120115
 20
-85.4215909755
 10
-28.8177689149
 20
-85.4624738836
 10
-28.7506810568
 20
-85.5067498988
 10
-28.6840484371
 20
-85.5544190213
 10
-28.6177223988
 20
-85.6056044235
 10
-28.5518515989
 20
-85.660182933
 10
-28.4868820086
 20
-85.7177850317
 10
-28.4228197432
 20
-85.778431237
 10
-28.3596586873
 20
-85.8421010316
 10
-28.2978264661
 20
-85.908363346
 10
-28.2373320965
 20
-85.9772357724
 10
-28.1781665616
 20
-86.0487007187
 10
-28.1207304351
 20
-86.1222743392
 10
-28.0650354523
 20
-86.1979709428
 10
-28.0110698779
 20
-86.2757762206
 10
-27.9591990801
 20
-86.3551634004
 10
-27.9094372733
 20
-86.4361432166
 10
-27.861770243
 20
-86.5187049348
 10
-27.8165207137
 20
-86.6022895799
 10
-27.7737050898
 20
-86.6869040932
 10
-27.7333069668
 20
-86.7725415333
 10
-27.6955998559
 20
-86.8586221013
 10
-27.6606020176
 20
-86.9451488042
 10
-27.6282951913
 20
-87.0321186349
 10
-27.5988981069
 20
-87.1189427738
 10
-27.5724305091
 20
-87.205620232
 10
-27.5488726532
 20
-87.2921519984
 10
-27.5283840352
 20
-87.377952219
 10
-27.5109854819
 20
-87.4630159296
 10
-27.4966561665
 20
-87.5473480944
 10
-27.485493104
 20
-87.6303777516
 10
-27.4775286328
 20
-87.7119145806
 10
-27.4727304145
 20
-87.792148902
 10
-27.4710984491
 20
-87.8710807157
  0
LWPOLYLINE
  5
248
100
AcDbEntity
  8
RACCORDO
100
AcDbPolyline
 62
7
  6
CONTINUOUS
 90
41
 70
0
 10
-30.5380961133
 20
-84.4644061748
 10
-30.6700475138
 20
-84.379662767
 10
-30.8014457925
 20
-84.2895703765
 10
-30.9324730048
 20
-84.1939881702
 10
-31.0629470952
 20
-84.0930569811
 10
-31.1923218978
 20
-83.9871993084
 10
-31.3205928046
 20
-83.8763945008
 10
-31.4477644236
 20
-83.7606632096
 10
-31.573304413
 20
-83.6404898871
 10
-31.6972059332
 20
-83.5158559131
 10
-31.8194758239
 20
-83.3867799079
 10
-31.9396022619
 20
-83.253802185
 10
-32.0575762621
 20
-83.116906389
 10
-32.1734068097
 20
-82.9761088754
 10
-32.2866090366
 20
-82.8319990241
 10
-32.3971719253
 20
-82.6845629502
 10
-32.5051064934
 20
-82.5338145386
 10
-32.6099609255
 20
-82.3803848239
 10
-32.7117223102
 20
-82.2242625663
 10
-32.810403559
 20
-82.0654590055
 10
-32.905591591
 20
-81.904638895
 10
-32.9972717633
 20
-81.7417937817
 10
-33.0854587188
 20
-81.5769321187
 10
-33.169783306
 20
-81.4107440186
 10
-33.2502293344
 20
-81.2432239213
 10
-33.3268129946
 20
-81.0743773871
 10
-33.3992137064
 20
-80.9049112093
 10
-33.4674139355
 20
-80.7348227904
 10
-33.5314312163
 20
-80.5641147281
 10
-33.5909975717
 20
-80.393501608
 10
-33.646094344
 20
-80.2229838282
 10
-33.696740191
 20
-80.0525609907
 10
-33.7427231086
 20
-79.8829464874
 10
-33.7840235503
 20
-79.7141437066
 10
-33.8206610626
 20
-79.5461492601
 10
-33.8524822804
 20
-79.3796663742
 10
-33.8794670145
 20
-79.2147013854
 10
-33.9016354541
 20
-79.0512479574
 10
-33.9188948018
 20
-78.889990308
 10
-33.9312141254
 20
-78.7311565098
 10
-33.9386243571
 20
-78.5745184902
  0
LWPOLYLINE
  5
249
100
AcDbEntity
  8
ASSI
100
AcDbPolyline
 62
7
  6
CONTINUOUS
 90
21
 70
0
 10
-16.8781014482
 20
-97.432351935
 10
-16.8206100696
 20
-97.4774884601
 10
-16.7629631679
 20
-97.5193758652
 10
-16.705160743
 20
-97.5580141503
 10
-16.647058555
 20
-97.5934830881
 10
-16.5888008439
 20
-97.625702906
 10
-16.5308203292
 20
-97.6544342854
 10
-16.4731190751
 20
-97.6796512509
 10
-16.4156950174
 20
-97.7013797779
 10
-16.3589746838
 20
-97.7194584738
 10
-16.3029633141
 20
-97.7338601616
 10
-16.2476556684
 20
-97.7446120183
 10
-16.1934625543
 20
-97.7516341827
 10
-16.1403922706
 20
-97.7548988828
 10
-16.0884365183
 20
-97.7544338906
 10
-16.0379812083
 20
-97.7502426598
 10
-15.9890375129
 20
-97.7422974444
 10
-15.9415942598
 20
-97.7306259903
 10
-15.8960038421
 20
-97.7153149895
 10
-15.8522800564
 20
-97.6963373414
 10
-15.8174701953
 20
-97.6778649018
  0
LWPOLYLINE
  5
24A
100
AcDbEntity
  8
ASSI
100
AcDbPolyline
 62
7
  6
CONTINUOUS
 90
21
 70
0
 10
-18.8307910017
 20
-93.0889946805
 10
-18.8882823803
 20
-93.0438581555
 10
-18.945929282
 20
-93.0019707504
 10
-19.0037317069
 20
-92.9633324653
 10
-19.0618338949
 20
-92.9278635274
 10
-19.120091606
 20
-92.8956437096
 10
-19.1780721207
 20
-92.8669123302
 10
-19.2357733748
 20
-92.8416953647
 10
-19.2931974325
 20
-92.8199668377
 10
-19.3499177662
 20
-92.8018881418
 10
-19.4059291358
 20
-92.787486454
 10
-19.4612367815
 20
-92.7767345972
 10
-19.5154298956
 20
-92.7697124329
 10
-19.5685001794
 20
-92.7664477327
 10
-19.6204559316
 20
-92.766912725
 10
-19.6709112416
 20
-92.7711039558
 10
-19.719854937
 20
-92.7790491712
 10
-19.7672981902
 20
-92.7907206253
 10
-19.8128886078
 20
-92.8060316261
 10
-19.8566123935
 20
-92.8250092741
 10
-19.8914222546
 20
-92.8434817138
  0
LINE
  5
24B
100
AcDbEntity
  8
ASSI
100
AcDbLine
 62
7
  6
CONTINUOUS
 10
-19.301991306
 20
-95.4557761859
 11
-16.8781014482
 21
-97.432351935
  0
LINE
  5
24C
100
AcDbEntity
  8
ASSI
100
AcDbLine
 62
7
  6
CONTINUOUS
 10
-16.4069011439
 20
-95.0655704296
 11
-18.8307910017
 21
-93.0889946805
  0
LWPOLYLINE
  5
24D
100
AcDbEntity
  8
RACCORDO
100
AcDbPolyline
 62
7
  6
CONTINUOUS
 90
15
 70
0
 10
-34.5352864475
 20
141.1128105871
 10
-34.5724343251
 20
140.9855898706
 10
-34.6142812088
 20
140.8632195691
 10
-34.6608270987
 20
140.7456996825
 10
-34.7121519093
 20
140.6328761939
 10
-34.768175726
 20
140.5249031203
 10
-34.8286588053
 20
140.4222425125
 10
-34.8936202569
 20
140.3249171369
 10
-34.963040971
 20
140.2329042272
 10
-35.0366238743
 20
140.1465975359
 10
-35.1143868038
 20
140.0660215164
 10
-35.1963119225
 20
139.9911517152
 10
-35.282048647
 20
139.9223085239
 10
-35.3716133116
 20
139.8595177691
 10
-35.4502378558
 20
139.8111735371
  0
LINE
  5
24E
100
AcDbEntity
  8
ASSI
100
AcDbLine
 62
7
  6
CONTINUOUS
 10
33.1633080376
 20
112.8360004776
 11
28.9206673505
 21
110.3863529176
  0
LINE
  5
24F
100
AcDbEntity
  8
RACCORDO
100
AcDbLine
 62
250
  6
CONTINUOUS
 10
34.5352864475
 20
106.131622575
 11
30.2926457604
 21
103.681975015
  0
LINE
  5
250
100
AcDbEntity
  8
RACCORDO
100
AcDbLine
 62
7
  6
CONTINUOUS
 10
9.545941546
 20
-97.8134350718
 11
-5.3033008589
 21
-89.2396686119
  0
LWPOLYLINE
  5
251
100
AcDbEntity
  8
RACCORDO
100
AcDbPolyline
 62
7
  6
CONTINUOUS
 90
34
 70
0
 10
9.545941546
 20
-97.8134350718
 10
9.6134846426
 20
-97.8543179798
 10
9.6805725007
 20
-97.8985939951
 10
9.7472051204
 20
-97.9462631175
 10
9.8135311587
 20
-97.9974485198
 10
9.8794019586
 20
-98.0520270292
 10
9.9443715489
 20
-98.109629128
 10
10.0084338143
 20
-98.1702753333
 10
10.0715948702
 20
-98.2339451278
 10
10.1334270914
 20
-98.3002074423
 10
10.193921461
 20
-98.3690798687
 10
10.2530869959
 20
-98.440544815
 10
10.3105231224
 20
-98.5141184355
 10
10.3662181052
 20
-98.5898150391
 10
10.4201836796
 20
-98.6676203169
 10
10.4720544774
 20
-98.7470074967
 10
10.5218162842
 20
-98.8279873129
 10
10.5694833145
 20
-98.9105490311
 10
10.6147328438
 20
-98.9941336762
 10
10.6575484677
 20
-99.0787481894
 10
10.6979465907
 20
-99.1643856296
 10
10.7356537015
 20
-99.2504661976
 10
10.7706515399
 20
-99.3369929005
 10
10.8029583662
 20
-99.4239627312
 10
10.8323554506
 20
-99.51078687
 10
10.8588230484
 20
-99.5974643283
 10
10.8823809043
 20
-99.6839960947
 10
10.9028695223
 20
-99.7697963152
 10
10.9202680756
 20
-99.8548600259
 10
10.934597391
 20
-99.9391921907
 10
10.9457604535
 20
-100.0222218479
 10
10.9537249247
 20
-100.1037586769
 10
10.958523143
 20
-100.1839929982
 10
10.9601551084
 20
-100.262924812
  0
LINE
  5
252
100
AcDbEntity
  8
RACCORDO
100
AcDbLine
 62
7
  6
CONTINUOUS
 10
-33.1633080376
 20
146.2328622118
 11
-34.5352864475
 21
141.1128105871
  0
LWPOLYLINE
  5
253
100
AcDbEntity
  8
RACCORDO
100
AcDbPolyline
 62
7
  6
CONTINUOUS
 90
11
 70
0
 10
-33.7297924857
 20
107.7769660521
 10
-33.7427231086
 20
107.7442015775
 10
-33.7840235503
 20
107.6230915116
 10
-33.8206610626
 20
107.4974051459
 10
-33.8524822804
 20
107.3676686047
 10
-33.8794670145
 20
107.2338649104
 10
-33.9016354541
 20
107.0960110408
 10
-33.9188948018
 20
106.9546840536
 10
-33.9312141254
 20
106.8100763014
 10
-33.9386243571
 20
106.6619954316
 10
-33.941125497
 20
106.5104414443
  0
LWPOLYLINE
  5
254
100
AcDbEntity
  8
ASSI
100
AcDbPolyline
 62
7
  6
CONTINUOUS
 90
45
 70
0
 10
15.8174701953
 20
86.5738691374
 10
15.8104091062
 20
86.5697243822
 10
15.7707019955
 20
86.5436356339
 10
15.7331748365
 20
86.5140494825
 10
15.6978115171
 20
86.4809917776
 10
15.6648747047
 20
86.4447080612
 10
15.6343824672
 20
86.4051743122
 10
15.6063167367
 20
86.3624145518
 10
15.5808859764
 20
86.3167463857
 10
15.5581098066
 20
86.2681481577
 10
15.5379686071
 20
86.2166415241
 10
15.5206119801
 20
86.1626090596
 10
15.50606066
 20
86.1060319568
 10
15.4942939125
 20
86.0469290231
 10
15.4853991373
 20
85.9857392562
 10
15.4793977193
 20
85.9224471175
 10
15.4762682736
 20
85.8570681456
 10
15.4760340446
 20
85.7900879546
 10
15.4787165905
 20
85.7214946218
 10
15.4842943532
 20
85.6513000699
 10
15.4927259028
 20
85.5800256816
 10
15.504032489
 20
85.5076634164
 10
15.518192862
 20
85.4342213147
 10
15.5351018433
 20
85.3602448812
 10
15.5547798993
 20
85.285730137
 10
15.5772065635
 20
85.2106810608
 10
15.6022152577
 20
85.1356550933
 10
15.6298252082
 20
85.0606524064
 10
15.6600171888
 20
84.9856728281
 10
15.6925669432
 20
84.9112732827
 10
15.7274920276
 20
84.8374580892
 10
15.7647748857
 20
84.7642229285
 10
15.8041385924
 20
84.6921117682
 10
15.8455986419
 20
84.6211329775
 10
15.8891395401
 20
84.5512781871
 10
15.934437879
 20
84.4830662559
 10
15.9815067448
 20
84.416509417
 10
16.0303330513
 20
84.3515954373
 10
16.0805541324
 20
84.2888064772
 10
16.1321803736
 20
84.2281583598
 10
16.1852013895
 20
84.1696352619
 10
16.2392233567
 20
84.1136718744
 10
16.294115001
 20
84.0604130943
 10
16.3500075968
 20
84.0097140246
 10
16.4069011439
 20
83.9615746653
  0
LINE
  5
255
100
AcDbEntity
  8
RACCORDO
100
AcDbLine
 62
250
  6
CONTINUOUS
 10
37.3364109371
 20
101.5505473946
 11
33.09377025
 21
99.1008998346
  0
LINE
  5
256
100
AcDbEntity
  8
ASSI
100
AcDbLine
 62
250
  6
CONTINUOUS
 10
18.3820150376
 20
85.1019806735
 11
16.4069011439
 21
83.9615746653
  0
LINE
  5
257
100
AcDbEntity
  8
ASSI
100
AcDbLine
 62
250
  6
CONTINUOUS
 10
20.2087758276
 20
82.7806300844
 11
18.8307910017
 21
81.9849989162
  0
LINE
  5
258
100
AcDbEntity
  8
ASSI
100
AcDbLine
 62
7
  6
CONTINUOUS
 10
44.4770165366
 20
95.9738360514
 11
40.2343758495
 21
93.5241884914
  0
LWPOLYLINE
  5
259
100
AcDbEntity
  8
ASSI
100
AcDbPolyline
 62
7
  6
CONTINUOUS
 90
45
 70
0
 10
19.8914222546
 20
81.7394859494
 10
19.8984833437
 20
81.7436307046
 10
19.9381904544
 20
81.7697194529
 10
19.9757176134
 20
81.7993056044
 10
20.0110809328
 20
81.8323633093
 10
20.0440177453
 20
81.8686470256
 10
20.0745099827
 20
81.9081807746
 10
20.1025757132
 20
81.9509405351
 10
20.1280064735
 20
81.9966087011
 10
20.1507826433
 20
82.0452069291
 10
20.1709238429
 20
82.0967135627
 10
20.1882804698
 20
82.1507460272
 10
20.2028317899
 20
82.20732313
 10
20.2145985374
 20
82.2664260637
 10
20.2234933127
 20
82.3276158306
 10
20.2294947306
 20
82.3909079693
 10
20.2326241764
 20
82.4562869412
 10
20.2328584053
 20
82.5232671322
 10
20.2301758594
 20
82.591860465
 10
20.2245980967
 20
82.6620550169
 10
20.2161665471
 20
82.7333294052
 10
20.204859961
 20
82.8056916705
 10
20.1906995879
 20
82.8791337721
 10
20.1737906066
 20
82.9531102056
 10
20.1541125506
 20
83.0276249498
 10
20.1316858865
 20
83.102674026
 10
20.1066771922
 20
83.1776999935
 10
20.0790672417
 20
83.2527026804
 10
20.0488752611
 20
83.3276822587
 10
20.0163255067
 20
83.4020818041
 10
19.9814004224
 20
83.4758969977
 10
19.9441175643
 20
83.5491321583
 10
19.9047538575
 20
83.6212433186
 10
19.863293808
 20
83.6922221093
 10
19.8197529098
 20
83.7620768997
 10
19.7744545709
 20
83.8302888309
 10
19.7273857051
 20
83.8968456698
 10
19.6785593986
 20
83.9617596495
 10
19.6283383176
 20
84.0245486096
 10
19.5767120763
 20
84.085196727
 10
19.5236910604
 20
84.1437198249
 10
19.4696690932
 20
84.1996832124
 10
19.4147774489
 20
84.2529419925
 10
19.3588848532
 20
84.3036410622
 10
19.301991306
 20
84.3517804216
  0
LINE
  5
25A
100
AcDbEntity
  8
RACCORDO
100
AcDbLine
 62
7
  6
CONTINUOUS
 10
-34.5352864475
 20
-106.131622575
 11
-33.1633080376
 21
-112.8360004776
  0
LWPOLYLINE
  5
25B
100
AcDbEntity
  8
CURVE
100
AcDbPolyline
 62
250
  6
CONTINUOUS
 90
17
 70
0
 10
-41.3657466994
 20
-94.9125982933
 10
-41.3320798524
 20
-95.328503545
 10
-41.2323616712
 20
-95.767444726
 10
-41.0703903902
 20
-96.212702703
 10
-40.8479797464
 20
-96.6548796162
 10
-40.5813807516
 20
-97.0616666602
 10
-40.277324318
 20
-97.4254739889
 10
-39.9473918608
 20
-97.7324442941
 10
-39.5979797464
 20
-97.9744604686
 10
-39.2546186792
 20
-98.1338389715
 10
-38.9243361284
 20
-98.2093990489
 10
-38.6197124536
 20
-98.1982626408
 10
-38.3479797464
 20
-98.0983482838
 10
-38.1289928632
 20
-97.9169564801
 10
-37.965959234
 20
-97.6600072376
 10
-37.865088759
 20
-97.337287673
 10
-37.8302127935
 20
-96.9539710815
  0
LWPOLYLINE
  5
25C
100
AcDbEntity
  8
CURVE
100
AcDbPolyline
 62
250
  6
CONTINUOUS
 90
17
 70
0
 10
-37.8302127935
 20
-96.9539712599
 10
-37.8638796405
 20
-96.5380660081
 10
-37.9635978217
 20
-96.0991248272
 10
-38.1255691027
 20
-95.6538668502
 10
-38.3479797464
 20
-95.211689937
 10
-38.6145787413
 20
-94.804902893
 10
-38.9186351749
 20
-94.4410955643
 10
-39.2485676321
 20
-94.1341252591
 10
-39.5979797464
 20
-93.8921090846
 10
-39.9413408137
 20
-93.7327305817
 10
-40.2716233645
 20
-93.6571705043
 10
-40.5762470392
 20
-93.6683069124
 10
-40.8479797464
 20
-93.7682212694
 10
-41.0669666297
 20
-93.949613073
 10
-41.2300002589
 20
-94.2065623156
 10
-41.3308707339
 20
-94.5292818801
 10
-41.3657466994
 20
-94.9125984717
  0
LWPOLYLINE
  5
25D
100
AcDbEntity
  8
CURVE
100
AcDbPolyline
 62
250
  6
CONTINUOUS
 90
17
 70
0
 10
-41.3657466994
 20
-48.3737925161
 10
-41.3320798524
 20
-48.7896977679
 10
-41.2323616712
 20
-49.2286389488
 10
-41.0703903902
 20
-49.6738969258
 10
-40.8479797464
 20
-50.116073839
 10
-40.5813807516
 20
-50.522860883
 10
-40.277324318
 20
-50.8866682117
 10
-39.9473918608
 20
-51.1936385169
 10
-39.5979797464
 20
-51.4356546914
 10
-39.2546186792
 20
-51.5950331943
 10
-38.9243361284
 20
-51.6705932717
 10
-38.6197124536
 20
-51.6594568636
 10
-38.3479797464
 20
-51.5595425066
 10
-38.1289928632
 20
-51.378150703
 10
-37.965959234
 20
-51.1212014604
 10
-37.865088759
 20
-50.7984818958
 10
-37.8302127935
 20
-50.4151653043
  0
LWPOLYLINE
  5
25E
100
AcDbEntity
  8
CURVE
100
AcDbPolyline
 62
250
  6
CONTINUOUS
 90
17
 70
0
 10
-37.8302127935
 20
-50.4151654827
 10
-37.8638796405
 20
-49.9992602309
 10
-37.9635978217
 20
-49.56031905
 10
-38.1255691027
 20
-49.115061073
 10
-38.3479797464
 20
-48.6728841598
 10
-38.6145787413
 20
-48.2660971158
 10
-38.9186351749
 20
-47.9022897871
 10
-39.2485676321
 20
-47.5953194819
 10
-39.5979797464
 20
-47.3533033074
 10
-39.9413408137
 20
-47.1939248045
 10
-40.2716233645
 20
-47.1183647271
 10
-40.5762470392
 20
-47.1295011352
 10
-40.8479797464
 20
-47.2294154922
 10
-41.0669666297
 20
-47.4108072958
 10
-41.2300002589
 20
-47.6677565384
 10
-41.3308707339
 20
-47.990476103
 10
-41.3657466994
 20
-48.3737926945
  0
LWPOLYLINE
  5
25F
100
AcDbEntity
  8
CURVE
100
AcDbPolyline
 62
250
  6
CONTINUOUS
 90
17
 70
0
 10
-41.3657466994
 20
-1.8349867389
 10
-41.3320798524
 20
-2.2508919907
 10
-41.2323616712
 20
-2.6898331716
 10
-41.0703903902
 20
-3.1350911486
 10
-40.8479797464
 20
-3.5772680618
 10
-40.5813807516
 20
-3.9840551058
 10
-40.277324318
 20
-4.3478624345
 10
-39.9473918608
 20
-4.6548327397
 10
-39.5979797464
 20
-4.8968489142
 10
-39.2546186792
 20
-5.0562274171
 10
-38.9243361284
 20
-5.1317874945
 10
-38.6197124536
 20
-5.1206510864
 10
-38.3479797464
 20
-5.0207367294
 10
-38.1289928632
 20
-4.8393449258
 10
-37.965959234
 20
-4.5823956832
 10
-37.865088759
 20
-4.2596761187
 10
-37.8302127935
 20
-3.8763595271
  0
LINE
  5
260
100
AcDbEntity
  8
ASSI
100
AcDbLine
 62
7
  6
CONTINUOUS
 10
-44.4770165366
 20
142.4354847721
 11
-44.4770165366
 21
-95.9738360514
  0
LWPOLYLINE
  5
261
100
AcDbEntity
  8
0
100
AcDbPolyline
 62
7
  6
CONTINUOUS
 90
5
 70
0
 10
1.1922883863
 20
-97.9748166693
 10
1.2142149319
 20
-98.016174857
 10
1.2572676778
 20
-98.0919827577
 10
1.3025718944
 20
-98.1666784689
 10
1.306186922
 20
-98.1722694336
  0
LWPOLYLINE
  5
262
100
AcDbEntity
  8
CURVE
100
AcDbPolyline
 62
250
  6
CONTINUOUS
 90
17
 70
0
 10
-37.8302127935
 20
-3.8763597055
 10
-37.8638796405
 20
-3.4604544538
 10
-37.9635978217
 20
-3.0215132728
 10
-38.1255691027
 20
-2.5762552958
 10
-38.3479797464
 20
-2.1340783826
 10
-38.6145787413
 20
-1.7272913386
 10
-38.9186351749
 20
-1.3634840099
 10
-39.2485676321
 20
-1.0565137047
 10
-39.5979797464
 20
-0.8144975302
 10
-39.9413408137
 20
-0.6551190273
 10
-40.2716233645
 20
-0.5795589499
 10
-40.5762470392
 20
-0.590695358
 10
-40.8479797464
 20
-0.690609715
 10
-41.0669666297
 20
-0.8720015187
 10
-41.2300002589
 20
-1.1289507612
 10
-41.3308707339
 20
-1.4516703258
 10
-41.3657466994
 20
-1.8349869173
  0
LWPOLYLINE
  5
263
100
AcDbEntity
  8
CURVE
100
AcDbPolyline
 62
250
  6
CONTINUOUS
 90
17
 70
0
 10
-41.3657466994
 20
44.7038190383
 10
-41.3320798524
 20
44.2879137865
 10
-41.2323616712
 20
43.8489726056
 10
-41.0703903902
 20
43.4037146286
 10
-40.8479797464
 20
42.9615377154
 10
-40.5813807516
 20
42.5547506714
 10
-40.277324318
 20
42.1909433427
 10
-39.9473918608
 20
41.8839730374
 10
-39.5979797464
 20
41.641956863
 10
-39.2546186792
 20
41.4825783601
 10
-38.9243361284
 20
41.4070182827
 10
-38.6197124536
 20
41.4181546908
 10
-38.3479797464
 20
41.5180690478
 10
-38.1289928632
 20
41.6994608514
 10
-37.965959234
 20
41.956410094
 10
-37.865088759
 20
42.2791296585
 10
-37.8302127935
 20
42.6624462501
  0
LWPOLYLINE
  5
264
100
AcDbEntity
  8
CURVE
100
AcDbPolyline
 62
250
  6
CONTINUOUS
 90
17
 70
0
 10
-37.8302127935
 20
42.6624460717
 10
-37.8638796405
 20
43.0783513234
 10
-37.9635978217
 20
43.5172925044
 10
-38.1255691027
 20
43.9625504814
 10
-38.3479797464
 20
44.4047273946
 10
-38.6145787413
 20
44.8115144386
 10
-38.9186351749
 20
45.1753217673
 10
-39.2485676321
 20
45.4822920725
 10
-39.5979797464
 20
45.724308247
 10
-39.9413408137
 20
45.8836867499
 10
-40.2716233645
 20
45.9592468272
 10
-40.5762470392
 20
45.9481104192
 10
-40.8479797464
 20
45.8481960622
 10
-41.0669666297
 20
45.6668042585
 10
-41.2300002589
 20
45.409855016
 10
-41.3308707339
 20
45.0871354514
 10
-41.3657466994
 20
44.7038188599
  0
LWPOLYLINE
  5
265
100
AcDbEntity
  8
CURVE
100
AcDbPolyline
 62
250
  6
CONTINUOUS
 90
17
 70
0
 10
-41.3657466994
 20
91.2426248155
 10
-41.3320798524
 20
90.8267195637
 10
-41.2323616712
 20
90.3877783827
 10
-41.0703903902
 20
89.9425204058
 10
-40.8479797464
 20
89.5003434926
 10
-40.5813807516
 20
89.0935564485
 10
-40.277324318
 20
88.7297491199
 10
-39.9473918608
 20
88.4227788146
 10
-39.5979797464
 20
88.1807626402
 10
-39.2546186792
 20
88.0213841373
 10
-38.9243361284
 20
87.9458240599
 10
-38.6197124536
 20
87.956960468
 10
-38.3479797464
 20
88.056874825
 10
-38.1289928632
 20
88.2382666286
 10
-37.965959234
 20
88.4952158711
 10
-37.865088759
 20
88.8179354357
 10
-37.8302127935
 20
89.2012520273
  0
LWPOLYLINE
  5
266
100
AcDbEntity
  8
CURVE
100
AcDbPolyline
 62
250
  6
CONTINUOUS
 90
17
 70
0
 10
-37.8302127935
 20
89.2012518489
 10
-37.8638796405
 20
89.6171571006
 10
-37.9635978217
 20
90.0560982816
 10
-38.1255691027
 20
90.5013562586
 10
-38.3479797464
 20
90.9435331717
 10
-38.6145787413
 20
91.3503202158
 10
-38.9186351749
 20
91.7141275445
 10
-39.2485676321
 20
92.0210978497
 10
-39.5979797464
 20
92.2631140242
 10
-39.9413408137
 20
92.4224925271
 10
-40.2716233645
 20
92.4980526044
 10
-40.5762470392
 20
92.4869161963
 10
-40.8479797464
 20
92.3870018394
 10
-41.0669666297
 20
92.2056100357
 10
-41.2300002589
 20
91.9486607932
 10
-41.3308707339
 20
91.6259412286
 10
-41.3657466994
 20
91.242624637
  0
LWPOLYLINE
  5
267
100
AcDbEntity
  8
CURVE
100
AcDbPolyline
 62
250
  6
CONTINUOUS
 90
17
 70
0
 10
-41.3657466994
 20
137.7814305927
 10
-41.3320798524
 20
137.3655253409
 10
-41.2323616712
 20
136.9265841599
 10
-41.0703903902
 20
136.481326183
 10
-40.8479797464
 20
136.0391492698
 10
-40.5813807516
 20
135.6323622257
 10
-40.277324318
 20
135.268554897
 10
-39.9473918608
 20
134.9615845918
 10
-39.5979797464
 20
134.7195684174
 10
-39.2546186792
 20
134.5601899145
 10
-38.9243361284
 20
134.4846298371
 10
-38.6197124536
 20
134.4957662452
 10
-38.3479797464
 20
134.5956806021
 10
-38.1289928632
 20
134.7770724058
 10
-37.965959234
 20
135.0340216483
 10
-37.865088759
 20
135.3567412129
 10
-37.8302127935
 20
135.7400578045
  0
LWPOLYLINE
  5
268
100
AcDbEntity
  8
RACCORDO
100
AcDbPolyline
 62
7
  6
CONTINUOUS
 90
34
 70
0
 10
-29.5924187927
 20
-89.0959044957
 10
-29.5940507581
 20
-89.016972682
 10
-29.5988489764
 20
-88.9367383606
 10
-29.6068134476
 20
-88.8552015316
 10
-29.6179765101
 20
-88.7721718744
 10
-29.6323058255
 20
-88.6878397096
 10
-29.6497043787
 20
-88.6027759989
 10
-29.6701929968
 20
-88.5169757784
 10
-29.6937508526
 20
-88.430444012
 10
-29.7202184504
 20
-88.3437665537
 10
-29.7496155348
 20
-88.2569424149
 10
-29.7819223611
 20
-88.1699725842
 10
-29.8169201995
 20
-88.0834458813
 10
-29.8546273104
 20
-87.9973653133
 10
-29.8950254333
 20
-87.9117278732
 10
-29.9378410572
 20
-87.8271133599
 10
-29.9830905865
 20
-87.7435287148
 10
-30.0307576168
 20
-87.6609669966
 10
-30.0805194236
 20
-87.5799871804
 10
-30.1323902215
 20
-87.5006000006
 10
-30.1863557958
 20
-87.4227947228
 10
-30.2420507786
 20
-87.3470981192
 10
-30.2994869051
 20
-87.2735244987
 10
-30.3586524401
 20
-87.2020595524
 10
-30.4191468096
 20
-87.133187126
 10
-30.4809790309
 20
-87.0669248116
 10
-30.5441400868
 20
-87.003255017
 10
-30.6082023522
 20
-86.9426088117
 10
-30.6731719425
 20
-86.885006713
 10
-30.7390427423
 20
-86.8304282035
 10
-30.8053687806
 20
-86.7792428013
 10
-30.8720014003
 20
-86.7315736788
 10
-30.9390892585
 20
-86.6872976636
 10
-31.006632355
 20
-86.6464147555
  0
LINE
  5
269
100
AcDbEntity
  8
RACCORDO
100
AcDbLine
 62
7
  6
CONTINUOUS
 10
-33.9386243571
 20
-78.5745184902
 11
-33.941125497
 21
-78.4200762492
  0
LWPOLYLINE
  5
26A
100
AcDbEntity
  8
RACCORDO
100
AcDbPolyline
 62
7
  6
CONTINUOUS
 90
43
 70
0
 10
-31.8198051534
 20
-77.1952524693
 10
-31.8173040135
 20
-77.3496947102
 10
-31.8098937818
 20
-77.5063327298
 10
-31.7975744583
 20
-77.665166528
 10
-31.7803151105
 20
-77.8264241774
 10
-31.7581466709
 20
-77.9898776054
 10
-31.7311619368
 20
-78.1548425943
 10
-31.699340719
 20
-78.3213254801
 10
-31.6627032067
 20
-78.4893199267
 10
-31.621402765
 20
-78.6581227074
 10
-31.5754198475
 20
-78.8277372108
 10
-31.5247740005
 20
-78.9981600483
 10
-31.4696772281
 20
-79.168677828
 10
-31.4101108727
 20
-79.3392909481
 10
-31.3460935919
 20
-79.5099990105
 10
-31.2778933628
 20
-79.6800874293
 10
-31.205492651
 20
-79.8495536071
 10
-31.1289089909
 20
-80.0184001414
 10
-31.0484629625
 20
-80.1859202386
 10
-30.9641383752
 20
-80.3521083387
 10
-30.8759514197
 20
-80.5169700017
 10
-30.7842712475
 20
-80.679815115
 10
-30.6890832154
 20
-80.8406352255
 10
-30.5904019666
 20
-80.9994387863
 10
-30.4886405819
 20
-81.1555610439
 10
-30.3837861498
 20
-81.3089907586
 10
-30.2758515817
 20
-81.4597391702
 10
-30.165288693
 20
-81.6071752441
 10
-30.0520864661
 20
-81.7512850954
 10
-29.9362559186
 20
-81.892082609
 10
-29.8182819183
 20
-82.028978405
 10
-29.6981554804
 20
-82.1619561279
 10
-29.5758855897
 20
-82.2910321331
 10
-29.4519840694
 20
-82.4156661072
 10
-29.32644408
 20
-82.5358394296
 10
-29.199272461
 20
-82.6515707208
 10
-29.0710015542
 20
-82.7623755284
 10
-28.9416267516
 20
-82.8682332011
 10
-28.8111526612
 20
-82.9691643902
 10
-28.680125449
 20
-83.0647465965
 10
-28.5487271703
 20
-83.154838987
 10
-28.4167757698
 20
-83.2395823948
 10
-28.2842712475
 20
-83.3189768199
  0
LINE
  5
26B
100
AcDbEntity
  8
RACCORDO
100
AcDbLine
 62
7
  6
CONTINUOUS
 10
-36.0624458405
 20
105.2856176643
 11
-36.0624458405
 21
-79.6449000292
  0
LINE
  5
26C
100
AcDbEntity
  8
RACCORDO
100
AcDbLine
 62
7
  6
CONTINUOUS
 10
-33.941125497
 20
106.5104414443
 11
-33.941125497
 21
-78.4200762492
  0
LINE
  5
26D
100
AcDbEntity
  8
RACCORDO
100
AcDbLine
 62
7
  6
CONTINUOUS
 10
-31.8198051534
 20
106.9183214883
 11
-31.8198051534
 21
-77.1952524693
  0
LWPOLYLINE
  5
26E
100
AcDbEntity
  8
RACCORDO
100
AcDbPolyline
 62
7
  6
CONTINUOUS
 90
22
 70
0
 10
-36.0624458405
 20
105.2856176643
 10
-36.0599447006
 20
105.4371716516
 10
-36.0525344689
 20
105.5852525214
 10
-36.0402151454
 20
105.7298602736
 10
-36.0229557976
 20
105.8711872608
 10
-36.000787358
 20
106.0090411305
 10
-35.9738026239
 20
106.1428448248
 10
-35.9419814061
 20
106.2725813659
 10
-35.9053438939
 20
106.3982677317
 10
-35.8640434521
 20
106.5193777975
 10
-35.8180605346
 20
106.6358923803
 10
-35.7674146876
 20
106.7478306632
 10
-35.7123179152
 20
106.8547240713
 10
-35.6527515598
 20
106.9565514572
 10
-35.588734279
 20
107.0533339684
 10
-35.5205340499
 20
107.1446664721
 10
-35.4481333381
 20
107.2305261227
 10
-35.371549678
 20
107.3109357659
 10
-35.2911036496
 20
107.385558806
 10
-35.2067790623
 20
107.4543709864
 10
-35.1185921068
 20
107.5173965637
 10
-35.0270327353
 20
107.57430197
  0
LWPOLYLINE
  5
26F
100
AcDbEntity
  8
RACCORDO
100
AcDbPolyline
 62
7
  6
CONTINUOUS
 90
18
 70
0
 10
-27.4710984491
 20
108.4900208529
 10
-27.4727304145
 20
108.4129735919
 10
-27.4775286328
 20
108.3382801327
 10
-27.485493104
 20
108.2659404755
 10
-27.4966561665
 20
108.1958016431
 10
-27.5109854819
 20
108.1280166125
 10
-27.5283840352
 20
108.063044315
 10
-27.5488726532
 20
108.000903837
 10
-27.5724305091
 20
107.9415760921
 10
-27.5988981069
 20
107.8854627523
 10
-27.6282951913
 20
107.8325856297
 10
-27.6606020176
 20
107.7829229122
 10
-27.6955998559
 20
107.7368108358
 10
-27.7333069668
 20
107.6942734943
 10
-27.7737050898
 20
107.6552867939
 10
-27.8165207137
 20
107.6201146899
 10
-27.861770243
 20
107.5887830671
 10
-27.885273421
 20
107.574563982
  0
LWPOLYLINE
  5
270
100
AcDbEntity
  8
RACCORDO
100
AcDbPolyline
 62
7
  6
CONTINUOUS
 90
16
 70
0
 10
-29.5924187927
 20
120.1246039324
 10
-29.5914276793
 20
120.1669558164
 10
-29.5885257934
 20
120.2078550009
 10
-29.5837131348
 20
120.2473014857
 10
-29.5769660811
 20
120.2853952445
 10
-29.5683082548
 20
120.3220363038
 10
-29.5578105234
 20
120.3569247425
 10
-29.5454577855
 20
120.3900461755
 10
-29.5312651426
 20
120.421414988
 10
-29.5153487668
 20
120.4507744144
 10
-29.4976945101
 20
120.4781079621
 10
-29.4783165206
 20
120.5034321236
 10
-29.4573734143
 20
120.5265396111
 10
-29.4348523452
 20
120.5474122307
 10
-29.4107661594
 20
120.5660681763
 10
-29.3853361716
 20
120.5823407936
  0
LWPOLYLINE
  5
271
100
AcDbEntity
  8
ASSI
100
AcDbPolyline
 62
7
  6
CONTINUOUS
 90
24
 70
0
 10
17.8210984776
 20
-114.4917124199
 10
17.8544951801
 20
-114.5614974021
 10
17.8920223391
 20
-114.634418976
 10
17.9317294497
 20
-114.7063605005
 10
17.9736003999
 20
-114.7773292191
 10
18.0173241857
 20
-114.846797999
 10
18.0629146033
 20
-114.9147556713
 10
18.1103578565
 20
-114.9812134049
 10
18.1593015518
 20
-115.0456775729
 10
18.2097568619
 20
-115.1081333311
 10
18.2617126141
 20
-115.1685955236
 10
18.3147828978
 20
-115.2266150569
 10
18.368976012
 20
-115.2821737424
 10
18.4242836577
 20
-115.3352897685
 10
18.4802950273
 20
-115.3855686064
 10
18.537015361
 20
-115.43298913
 10
18.5944394187
 20
-115.4775724655
 10
18.6521406728
 20
-115.5189874619
 10
18.7101211875
 20
-115.5572105275
 10
18.7683788986
 20
-115.5922652542
 10
18.8264810865
 20
-115.6238912666
 10
18.8842835114
 20
-115.652001773
 10
18.9419304132
 20
-115.676683565
 10
18.9994217918
 20
-115.6979366428
  0
LWPOLYLINE
  5
272
100
AcDbEntity
  8
CURVE
100
AcDbPolyline
 62
250
  6
CONTINUOUS
 90
17
 70
0
 10
-37.8302127935
 20
135.740057626
 10
-37.8638796405
 20
136.1559628778
 10
-37.9635978217
 20
136.5949040588
 10
-38.1255691027
 20
137.0401620358
 10
-38.3479797464
 20
137.4823389489
 10
-38.6145787413
 20
137.889125993
 10
-38.9186351749
 20
138.2529333217
 10
-39.2485676321
 20
138.5599036269
 10
-39.5979797464
 20
138.8019198013
 10
-39.9413408137
 20
138.9612983043
 10
-40.2716233645
 20
139.0368583816
 10
-40.5762470392
 20
139.0257219735
 10
-40.8479797464
 20
138.9258076166
 10
-41.0669666297
 20
138.7444158129
 10
-41.2300002589
 20
138.4874665704
 10
-41.3308707339
 20
138.1647470058
 10
-41.3657466994
 20
137.7814304142
  0
LWPOLYLINE
  5
273
100
AcDbEntity
  8
RACCORDO
100
AcDbPolyline
 62
7
  6
CONTINUOUS
 90
31
 70
0
 10
-27.4710984491
 20
-94.4028429301
 10
-27.4701073358
 20
-94.4463393269
 10
-27.4672054498
 20
-94.4905895365
 10
-27.4623927912
 20
-94.5355935588
 10
-27.4556457375
 20
-94.5814786461
 10
-27.4469879112
 20
-94.6281175462
 10
-27.4364901799
 20
-94.6751285019
 10
-27.424137442
 20
-94.7225145671
 10
-27.409944799
 20
-94.7702726879
 10
-27.3940284232
 20
-94.8180119461
 10
-27.3763741666
 20
-94.8657321868
 10
-27.356996177
 20
-94.913433565
 10
-27.3360530707
 20
-94.9607256267
 10
-27.3135320016
 20
-95.0076050123
 10
-27.2894458159
 20
-95.0540750816
 10
-27.2639916679
 20
-95.0997554592
 10
-27.2371583299
 20
-95.1446396638
 10
-27.2089570297
 20
-95.1887341767
 10
-27.1796186057
 20
-95.2316780679
 10
-27.1491337246
 20
-95.2734618932
 10
-27.1175117196
 20
-95.3140950967
 10
-27.0850114289
 20
-95.3532450802
 10
-27.0516256436
 20
-95.3908996698
 10
-27.0173615726
 20
-95.4270710395
 10
-26.9824996801
 20
-95.4614631128
 10
-26.9470350595
 20
-95.4940612858
 10
-26.9109726176
 20
-95.5248801625
 10
-26.874607539
 20
-95.5536674787
 10
-26.8380382186
 20
-95.5803391463
 10
-26.8011662616
 20
-95.6049792535
 10
-26.7639916679
 20
-95.6275878002
  0
LINE
  5
274
100
AcDbEntity
  8
RACCORDO
100
AcDbLine
 62
7
  6
CONTINUOUS
 10
-29.5924187927
 20
120.1246039324
 11
-29.5924187927
 21
107.2651970729
  0
LINE
  5
275
100
AcDbEntity
  8
RACCORDO
100
AcDbLine
 62
7
  6
CONTINUOUS
 10
-29.5924187927
 20
-89.0959044957
 11
-29.5924187927
 21
-95.6276667101
  0
LINE
  5
276
100
AcDbEntity
  8
RACCORDO
100
AcDbLine
 62
7
  6
CONTINUOUS
 10
-27.4710984491
 20
119.7162504292
 11
-27.4710984491
 21
108.4900208529
  0
LINE
  5
277
100
AcDbEntity
  8
RACCORDO
100
AcDbLine
 62
7
  6
CONTINUOUS
 10
-27.4710984491
 20
-87.8710807157
 11
-27.4710984491
 21
-94.4028429301
  0
LWPOLYLINE
  5
278
100
AcDbEntity
  8
0
100
AcDbPolyline
 62
7
  6
CONTINUOUS
 90
16
 70
0
 10
-1.0606601718
 20
-97.7722170086
 10
-1.0327593994
 20
-98.1110892517
 10
-0.9482370574
 20
-98.4751694111
 10
-0.8105372255
 20
-98.8438899424
 10
-0.6288418981
 20
-99.1961825996
 10
-0.4042201299
 20
-99.5299745717
 10
-0.1486436917
 20
-99.8253186515
 10
0.1274472466
 20
-100.0701501806
 10
0.4078419508
 20
-100.2518486695
 10
0.6908906414
 20
-100.3693450447
 10
0.9601592736
 20
-100.4141056628
 10
1.2007006878
 20
-100.3854451556
 10
1.4110995921
 20
-100.2835321551
 10
1.578298262
 20
-100.1123888111
 10
1.6954667153
 20
-99.8790062439
 10
1.7577584803
 20
-99.5934652916
  0
LWPOLYLINE
  5
279
100
AcDbEntity
  8
CURVE
100
AcDbPolyline
 62
250
  6
CONTINUOUS
 90
17
 70
0
 10
-3.8890872965
 20
-131.6558518603
 10
-3.8554204495
 20
-132.0717571121
 10
-3.7557022683
 20
-132.5106982931
 10
-3.5937309873
 20
-132.95595627
 10
-3.3713203436
 20
-133.3981331832
 10
-3.1047213487
 20
-133.8049202273
 10
-2.8006649151
 20
-134.1687275559
 10
-2.4707324579
 20
-134.4756978612
 10
-2.1213203436
 20
-134.7177140356
 10
-1.7779592763
 20
-134.8770925385
 10
-1.4476767255
 20
-134.9526526159
 10
-1.1430530508
 20
-134.9415162078
 10
-0.8713203436
 20
-134.8416018508
 10
-0.6523334603
 20
-134.6602100472
 10
-0.4892998311
 20
-134.4032608047
 10
-0.3884293561
 20
-134.0805412401
 10
-0.3535533906
 20
-133.6972246485
  0
LWPOLYLINE
  5
27A
100
AcDbEntity
  8
CURVE
100
AcDbPolyline
 62
250
  6
CONTINUOUS
 90
17
 70
0
 10
-0.3535533906
 20
-133.6972248269
 10
-0.3872202376
 20
-133.2813195752
 10
-0.4869384188
 20
-132.8423783942
 10
-0.6489096998
 20
-132.3971204172
 10
-0.8713203436
 20
-131.9549435041
 10
-1.1379193384
 20
-131.54815646
 10
-1.441975772
 20
-131.1843491313
 10
-1.7719082292
 20
-130.8773788261
 10
-2.1213203436
 20
-130.6353626516
 10
-2.4646814108
 20
-130.4759841487
 10
-2.7949639616
 20
-130.4004240714
 10
-3.0995876364
 20
-130.4115604795
 10
-3.3713203436
 20
-130.5114748364
 10
-3.5903072268
 20
-130.6928666401
 10
-3.753340856
 20
-130.9498158826
 10
-3.854211331
 20
-131.2725354472
 10
-3.8890872965
 20
-131.6558520388
  0
LINE
  5
27B
100
AcDbEntity
  8
0
100
AcDbLine
 62
7
  6
CONTINUOUS
 10
1.7407259885
 20
98.10317301
 11
1.7435985685
 21
98.119410609
  0
LWPOLYLINE
  5
27C
100
AcDbEntity
  8
0
100
AcDbPolyline
 62
7
  6
CONTINUOUS
 90
31
 70
0
 10
1.7221332895
 20
-99.3265082595
 10
1.702213359
 20
-99.2250375406
 10
1.6787483277
 20
-99.1226668412
 10
1.6517600727
 20
-99.0194017152
 10
1.6214158277
 20
-98.9158820495
 10
1.5876947542
 20
-98.8121062634
 10
1.5506176909
 20
-98.7080759376
 10
1.5104143873
 20
-98.6044357005
 10
1.4670654315
 20
-98.5011879743
 10
1.4205902355
 20
-98.3983303368
 10
1.3712767848
 20
-98.2965001499
 10
1.3191074556
 20
-98.1957037933
 10
1.2640998718
 20
-98.0959348873
 10
1.2065948902
 20
-97.9978116543
 10
1.1465770036
 20
-97.9013443127
 10
1.0840617193
 20
-97.8065226442
 10
1.0194364159
 20
-97.7139342152
 10
0.9526879915
 20
-97.6235928928
 10
0.8838295481
 20
-97.53548481
 10
0.8132877699
 20
-97.4501559323
 10
0.7410522046
 20
-97.3676235169
 10
0.6671333046
 20
-97.2878703067
 10
0.5919891116
 20
-97.2113904959
 10
0.5156120173
 20
-97.1382044102
 10
0.43800963
 20
-97.068291724
 10
0.3596628163
 20
-97.0020856542
 10
0.2805669537
 20
-96.9396092166
 10
0.2007266647
 20
-96.8808393955
 10
0.1206366831
 20
-96.8261403605
 10
0.0402954586
 20
-96.7755373888
 10
-0.0001708407
 20
-96.7516457948
  0
LINE
  5
27D
100
AcDbEntity
  8
0
100
AcDbLine
 62
7
  6
CONTINUOUS
 10
1.7385299962
 20
-99.4270845518
 11
1.7221332895
 21
-99.3265082595
  0
LWPOLYLINE
  5
27E
100
AcDbEntity
  8
0
100
AcDbPolyline
 62
7
  6
CONTINUOUS
 90
46
 70
0
 10
-0.7071067812
 20
-97.7722170086
 10
-0.705410917
 20
-97.8479749965
 10
-0.7003279726
 20
-97.9254836786
 10
-0.6918718799
 20
-98.0045306089
 10
-0.6800658167
 20
-98.0848991252
 10
-0.6649421424
 20
-98.166368943
 10
-0.64654231
 20
-98.2487167593
 10
-0.6249167522
 20
-98.3317168644
 10
-0.6001247431
 20
-98.4151417608
 10
-0.5722342359
 20
-98.4987627866
 10
-0.5413216766
 20
-98.5823507424
 10
-0.5074717942
 20
-98.6656765195
 10
-0.470777369
 20
-98.7485117276
 10
-0.4313389779
 20
-98.8306293213
 10
-0.3892647187
 20
-98.9118042219
 10
-0.3446699141
 20
-98.9918139346
 10
-0.2976767953
 20
-99.0704391585
 10
-0.2484141672
 20
-99.1474643871
 10
-0.1970170552
 20
-99.2226784998
 10
-0.1436263353
 20
-99.2958753398
 10
-0.0883883476
 20
-99.3668542798
 10
-0.0314544958
 20
-99.4354207713
 10
0.0270191686
 20
-99.5013868784
 10
0.0868723731
 20
-99.5645717926
 10
0.1479410645
 20
-99.6248023284
 10
0.2100578576
 20
-99.6819133981
 10
0.2730524946
 20
-99.7357484642
 10
0.3367523116
 20
-99.7861599686
 10
0.4009827118
 20
-99.8330097368
 10
0.4655676442
 20
-99.8761693569
 10
0.5303300859
 20
-99.9155205313
 10
0.5950925276
 20
-99.9509554013
 10
0.65967746
 20
-99.9823768422
 10
0.7239078602
 20
-100.0096987302
 10
0.7876076772
 20
-100.0328461778
 10
0.8506023142
 20
-100.0517557394
 10
0.9127191073
 20
-100.0663755854
 10
0.9737877986
 20
-100.0766656436
 10
1.0336410032
 20
-100.0825977098
 10
1.0921146676
 20
-100.0841555246
 10
1.1490485194
 20
-100.0813348181
 10
1.2042865071
 20
-100.0741433217
 10
1.257677227
 20
-100.0626007467
 10
1.309074339
 20
-100.0467387307
 10
1.3583369671
 20
-100.0266007501
 10
1.4053723661
 20
-100.0022175923
  0
LWPOLYLINE
  5
27F
100
AcDbEntity
  8
0
100
AcDbPolyline
 62
7
  6
CONTINUOUS
 90
70
 70
0
 10
-1.767766953
 20
-97.7722170086
 10
-1.7659034207
 20
-97.866514951
 10
-1.7604150618
 20
-97.9623305454
 10
-1.7513018762
 20
-98.0596637918
 10
-1.7385299962
 20
-98.158722432
 10
-1.7221332895
 20
-98.2592987243
 10
-1.702213359
 20
-98.3607694432
 10
-1.6787483277
 20
-98.4631401426
 10
-1.6517600727
 20
-98.5664052686
 10
-1.6214158277
 20
-98.6699249344
 10
-1.5876947542
 20
-98.7737007204
 10
-1.5506176909
 20
-98.8777310463
 10
-1.5104143873
 20
-98.9813712834
 10
-1.4670654315
 20
-99.0846190096
 10
-1.4205902355
 20
-99.1874766471
 10
-1.3712767848
 20
-99.289306834
 10
-1.3191074556
 20
-99.3901031906
 10
-1.2640998718
 20
-99.4898720966
 10
-1.2065948902
 20
-99.5879953296
 10
-1.1465770036
 20
-99.6844626711
 10
-1.0840617193
 20
-99.7792843397
 10
-1.0194364159
 20
-99.8718727686
 10
-0.9526879915
 20
-99.962214091
 10
-0.8838295481
 20
-100.0503221739
 10
-0.8132877699
 20
-100.1356510515
 10
-0.7410522046
 20
-100.2181834669
 10
-0.6671333046
 20
-100.2979366772
 10
-0.5919891116
 20
-100.374416488
 10
-0.5156120173
 20
-100.4476025736
 10
-0.43800963
 20
-100.5175152599
 10
-0.3596628163
 20
-100.5837213296
 10
-0.2805669537
 20
-100.6461977672
 10
-0.2007266647
 20
-100.7049675884
 10
-0.1206366831
 20
-100.7596666233
 10
-0.0402954586
 20
-100.8102695951
 10
0.0402954586
 20
-100.8568017806
 10
0.1206366831
 20
-100.8989748412
 10
0.2007266647
 20
-100.9367617094
 10
0.2805669537
 20
-100.9701894527
 10
0.3596628163
 20
-100.9990509346
 10
0.43800963
 20
-101.0233178015
 10
0.5156120173
 20
-101.0430184069
 10
0.5919891116
 20
-101.0580306753
 10
0.6671333046
 20
-101.0683254951
 10
0.7410522046
 20
-101.0739319777
 10
0.8132877699
 20
-101.0748153825
 10
0.8838295481
 20
-101.070946382
 10
0.9526879915
 20
-101.0623543037
 10
1.0194364159
 20
-101.0490923886
 10
1.0840617193
 20
-101.0311316401
 10
1.1465770036
 20
-101.0085010549
 10
1.2065948902
 20
-100.9813408645
 10
1.2640998718
 20
-100.9496229427
 10
1.3191074556
 20
-100.9133754157
 10
1.3712767848
 20
-100.8728228928
 10
1.4205902355
 20
-100.8279386426
 10
1.4670654315
 20
-100.7787493966
 10
1.5104143873
 20
-100.725559958
 10
1.5506176909
 20
-100.6683454881
 10
1.5876947542
 20
-100.6071308257
 10
1.6214158277
 20
-100.54229529
 10
1.6517600727
 20
-100.4738163977
 10
1.6787483277
 20
-100.4017166322
 10
1.702213359
 20
-100.3264427627
 10
1.7221332895
 20
-100.2479750802
 10
1.7385299962
 20
-100.1663332938
 10
1.7513018762
 20
-100.0820233005
 10
1.7604150618
 20
-99.9952137324
 10
1.7659034207
 20
-99.9057359573
 10
1.767766953
 20
-99.8135899753
  0
LWPOLYLINE
  5
280
100
AcDbEntity
  8
0
100
AcDbPolyline
 62
7
  6
CONTINUOUS
 90
5
 70
0
 10
1.767766953
 20
-99.8135899753
 10
1.7659034207
 20
-99.7192920329
 10
1.7604150618
 20
-99.6234764385
 10
1.7513018762
 20
-99.5261431921
 10
1.7385299962
 20
-99.4270845518
  0
LWPOLYLINE
  5
281
100
AcDbEntity
  8
0
100
AcDbPolyline
 62
7
  6
CONTINUOUS
 90
70
 70
0
 10
-1.767766953
 20
99.8135899753
 10
-1.7659034207
 20
99.7192920329
 10
-1.7604150618
 20
99.6234764385
 10
-1.7513018762
 20
99.5261431921
 10
-1.7385299962
 20
99.4270845518
 10
-1.7221332895
 20
99.3265082595
 10
-1.702213359
 20
99.2250375406
 10
-1.6787483277
 20
99.1226668412
 10
-1.6517600727
 20
99.0194017152
 10
-1.6214158277
 20
98.9158820495
 10
-1.5876947542
 20
98.8121062634
 10
-1.5506176909
 20
98.7080759376
 10
-1.5104143873
 20
98.6044357005
 10
-1.4670654315
 20
98.5011879743
 10
-1.4205902355
 20
98.3983303368
 10
-1.3712767848
 20
98.2965001499
 10
-1.3191074556
 20
98.1957037933
 10
-1.2640998718
 20
98.0959348873
 10
-1.2065948902
 20
97.9978116543
 10
-1.1465770036
 20
97.9013443127
 10
-1.0840617193
 20
97.8065226442
 10
-1.0194364159
 20
97.7139342152
 10
-0.9526879915
 20
97.6235928928
 10
-0.8838295481
 20
97.53548481
 10
-0.8132877699
 20
97.4501559323
 10
-0.7410522046
 20
97.3676235169
 10
-0.6671333046
 20
97.2878703067
 10
-0.5919891116
 20
97.2113904959
 10
-0.5156120173
 20
97.1382044102
 10
-0.43800963
 20
97.068291724
 10
-0.3596628163
 20
97.0020856542
 10
-0.2805669537
 20
96.9396092166
 10
-0.2007266647
 20
96.8808393955
 10
-0.1206366831
 20
96.8261403605
 10
-0.0402954586
 20
96.7755373888
 10
0.0402954586
 20
96.7290052033
 10
0.1206366831
 20
96.6868321427
 10
0.2007266647
 20
96.6490452745
 10
0.2805669537
 20
96.6156175312
 10
0.3596628163
 20
96.5867560493
 10
0.43800963
 20
96.5624891824
 10
0.5156120173
 20
96.5427885769
 10
0.5919891116
 20
96.5277763085
 10
0.6671333046
 20
96.5174814888
 10
0.7410522046
 20
96.5118750062
 10
0.8132877699
 20
96.5109916014
 10
0.8838295481
 20
96.5148606019
 10
0.9526879915
 20
96.5234526802
 10
1.0194364159
 20
96.5367145953
 10
1.0840617193
 20
96.5546753437
 10
1.1465770036
 20
96.5773059289
 10
1.2065948902
 20
96.6044661194
 10
1.2640998718
 20
96.6361840411
 10
1.3191074556
 20
96.6724315682
 10
1.3712767848
 20
96.7129840911
 10
1.4205902355
 20
96.7578683412
 10
1.4670654315
 20
96.8070575873
 10
1.5104143873
 20
96.8602470259
 10
1.5506176909
 20
96.9174614957
 10
1.5876947542
 20
96.9786761582
 10
1.6214158277
 20
97.0435116939
 10
1.6517600727
 20
97.1119905862
 10
1.6787483277
 20
97.1840903517
 10
1.702213359
 20
97.2593642211
 10
1.7221332895
 20
97.3378319036
 10
1.7385299962
 20
97.41947369
 10
1.7513018762
 20
97.5037836834
 10
1.7604150618
 20
97.5905932515
 10
1.7659034207
 20
97.6800710266
 10
1.767766953
 20
97.7722170086
  0
LINE
  5
282
100
AcDbEntity
  8
RACCORDO
100
AcDbLine
 62
7
  6
CONTINUOUS
 10
-8.8388347648
 20
-91.2808837588
 11
-8.8388347648
 21
-92.9138243124
  0
LWPOLYLINE
  5
283
100
AcDbEntity
  8
RACCORDO
100
AcDbPolyline
 62
7
  6
CONTINUOUS
 90
22
 70
0
 10
-8.8388347648
 20
-92.9138243124
 10
-8.8413359047
 20
-93.0653782997
 10
-8.8487461364
 20
-93.2134591694
 10
-8.8610654599
 20
-93.3580669216
 10
-8.8783248077
 20
-93.4993939088
 10
-8.9004932473
 20
-93.6372477785
 10
-8.9274779814
 20
-93.7710514728
 10
-8.9592991992
 20
-93.9007880139
 10
-8.9959367115
 20
-94.0264743797
 10
-9.0372371532
 20
-94.1475844456
 10
-9.0832200707
 20
-94.2640990283
 10
-9.1338659177
 20
-94.3760373112
 10
-9.1889626901
 20
-94.4829307193
 10
-9.2485290455
 20
-94.5847581053
 10
-9.3125463263
 20
-94.6815406164
 10
-9.3807465554
 20
-94.7728731201
 10
-9.4531472672
 20
-94.8587327707
 10
-9.5297309273
 20
-94.9391424139
 10
-9.6101769558
 20
-95.013765454
 10
-9.694501543
 20
-95.0825776344
 10
-9.7826884985
 20
-95.1456032117
 10
-9.8742478701
 20
-95.2025086181
  0
LWPOLYLINE
  5
284
100
AcDbEntity
  8
0
100
AcDbPolyline
 62
7
  6
CONTINUOUS
 90
16
 70
0
 10
-0.7071067812
 20
99.8135899753
 10
-0.705410917
 20
99.8873896217
 10
-0.7003279726
 20
99.9590286469
 10
-0.6918718799
 20
100.0283106934
 10
-0.6800658167
 20
100.0950458638
 10
-0.6649421424
 20
100.1590512417
 10
-0.64654231
 20
100.2201513928
 10
-0.6249167522
 20
100.2781788458
 10
-0.6001247431
 20
100.3329745515
 10
-0.5722342359
 20
100.3843883187
 10
-0.5413216766
 20
100.4322792258
 10
-0.5074717942
 20
100.4765160072
 10
-0.470777369
 20
100.5169774129
 10
-0.4313389779
 20
100.5535525411
 10
-0.3892647187
 20
100.5861411418
 10
-0.3447121944
 20
100.6146294823
  0
LWPOLYLINE
  5
285
100
AcDbEntity
  8
0
100
AcDbPolyline
 62
7
  6
CONTINUOUS
 90
16
 70
0
 10
-1.0606601718
 20
99.8135899753
 10
-1.0327593994
 20
99.4747177321
 10
-0.9482370574
 20
99.1106375727
 10
-0.8105372255
 20
98.7419170414
 10
-0.6288418981
 20
98.3896243842
 10
-0.4042201299
 20
98.0558324121
 10
-0.1486436917
 20
97.7604883324
 10
0.1274472466
 20
97.5156568032
 10
0.4078419508
 20
97.3339583144
 10
0.6908906414
 20
97.2164619392
 10
0.9601592736
 20
97.1717013211
 10
1.2007006878
 20
97.2003618283
 10
1.4110995921
 20
97.3022748288
 10
1.578298262
 20
97.4734181727
 10
1.6954667153
 20
97.7068007399
 10
1.7577584803
 20
97.9923416923
  0
LWPOLYLINE
  5
286
100
AcDbEntity
  8
CURVE
100
AcDbPolyline
 62
250
  6
CONTINUOUS
 90
17
 70
0
 10
-3.8890872965
 20
131.247577267
 10
-3.8554204495
 20
130.8316720152
 10
-3.7557022683
 20
130.3927308342
 10
-3.5937309873
 20
129.9474728573
 10
-3.3713203436
 20
129.5052959441
 10
-3.1047213487
 20
129.0985089
 10
-2.8006649151
 20
128.7347015713
 10
-2.4707324579
 20
128.4277312661
 10
-2.1213203436
 20
128.1857150917
 10
-1.7779592763
 20
128.0263365888
 10
-1.4476767255
 20
127.9507765114
 10
-1.1430530508
 20
127.9619129195
 10
-0.8713203436
 20
128.0618272764
 10
-0.6523334603
 20
128.2432190801
 10
-0.4892998311
 20
128.5001683226
 10
-0.3884293561
 20
128.8228878872
 10
-0.3535533906
 20
129.2062044788
  0
LWPOLYLINE
  5
287
100
AcDbEntity
  8
CURVE
100
AcDbPolyline
 62
250
  6
CONTINUOUS
 90
17
 70
0
 10
-0.3535533906
 20
129.2062043003
 10
-0.3872202376
 20
129.6221095521
 10
-0.4869384188
 20
130.0610507331
 10
-0.6489096998
 20
130.5063087101
 10
-0.8713203436
 20
130.9484856232
 10
-1.1379193384
 20
131.3552726673
 10
-1.441975772
 20
131.719079996
 10
-1.7719082292
 20
132.0260503012
 10
-2.1213203436
 20
132.2680664756
 10
-2.4646814108
 20
132.4274449786
 10
-2.7949639616
 20
132.5030050559
 10
-3.0995876364
 20
132.4918686478
 10
-3.3713203436
 20
132.3919542909
 10
-3.5903072268
 20
132.2105624872
 10
-3.753340856
 20
131.9536132447
 10
-3.854211331
 20
131.6308936801
 10
-3.8890872965
 20
131.2475770885
  0
LWPOLYLINE
  5
288
100
AcDbEntity
  8
0
100
AcDbPolyline
 62
7
  6
CONTINUOUS
 90
46
 70
0
 10
-0.7071067812
 20
99.8135899753
 10
-0.705410917
 20
99.7378319873
 10
-0.7003279726
 20
99.6603233053
 10
-0.6918718799
 20
99.581276375
 10
-0.6800658167
 20
99.5009078587
 10
-0.6649421424
 20
99.4194380408
 10
-0.64654231
 20
99.3370902245
 10
-0.6249167522
 20
99.2540901194
 10
-0.6001247431
 20
99.1706652231
 10
-0.5722342359
 20
99.0870441973
 10
-0.5413216766
 20
99.0034562414
 10
-0.5074717942
 20
98.9201304644
 10
-0.470777369
 20
98.8372952562
 10
-0.4313389779
 20
98.7551776625
 10
-0.3892647187
 20
98.674002762
 10
-0.3446699141
 20
98.5939930492
 10
-0.2976767953
 20
98.5153678254
 10
-0.2484141672
 20
98.4383425967
 10
-0.1970170552
 20
98.3631284841
 10
-0.1436263353
 20
98.289931644
 10
-0.0883883476
 20
98.2189527041
 10
-0.0314544958
 20
98.1503862126
 10
0.0270191686
 20
98.0844201055
 10
0.0868723731
 20
98.0212351913
 10
0.1479410645
 20
97.9610046555
 10
0.2100578576
 20
97.9038935858
 10
0.2730524946
 20
97.8500585197
 10
0.3367523116
 20
97.7996470153
 10
0.4009827118
 20
97.7527972471
 10
0.4655676442
 20
97.709637627
 10
0.5303300859
 20
97.6702864525
 10
0.5950925276
 20
97.6348515826
 10
0.65967746
 20
97.6034301416
 10
0.7239078602
 20
97.5761082537
 10
0.7876076772
 20
97.5529608061
 10
0.8506023142
 20
97.5340512444
 10
0.9127191073
 20
97.5194313985
 10
0.9737877986
 20
97.5091413403
 10
1.0336410032
 20
97.5032092741
 10
1.0921146676
 20
97.5016514593
 10
1.1490485194
 20
97.5044721658
 10
1.2042865071
 20
97.5116636622
 10
1.257677227
 20
97.5232062371
 10
1.309074339
 20
97.5390682532
 10
1.3583369671
 20
97.5592062337
 10
1.4053723661
 20
97.5835893916
  0
LWPOLYLINE
  5
289
100
AcDbEntity
  8
RACCORDO
100
AcDbPolyline
 62
7
  6
CONTINUOUS
 90
34
 70
0
 10
8.8388347648
 20
-101.487748592
 10
8.8372027994
 20
-101.4088167782
 10
8.8324045811
 20
-101.3285824568
 10
8.8244401099
 20
-101.2470456278
 10
8.8132770474
 20
-101.1640159707
 10
8.798947732
 20
-101.0796838059
 10
8.7815491787
 20
-100.9946200952
 10
8.7610605607
 20
-100.9088198747
 10
8.7375027049
 20
-100.8222881083
 10
8.7110351071
 20
-100.73561065
 10
8.6816380227
 20
-100.6487865112
 10
8.6493311964
 20
-100.5618166804
 10
8.614333358
 20
-100.4752899776
 10
8.5766262471
 20
-100.3892094096
 10
8.5362281242
 20
-100.3035719694
 10
8.4934125003
 20
-100.2189574562
 10
8.4481629709
 20
-100.1353728111
 10
8.4004959407
 20
-100.0528110929
 10
8.3507341339
 20
-99.9718312767
 10
8.298863336
 20
-99.8924440969
 10
8.2448977617
 20
-99.8146388191
 10
8.1892027789
 20
-99.7389422155
 10
8.1317666524
 20
-99.665368595
 10
8.0726011174
 20
-99.5939036487
 10
8.0121067479
 20
-99.5250312223
 10
7.9502745266
 20
-99.4587689078
 10
7.8871134707
 20
-99.3950991132
 10
7.8230512053
 20
-99.334452908
 10
7.758081615
 20
-99.2768508092
 10
7.6922108152
 20
-99.2222722998
 10
7.6258847769
 20
-99.1710868975
 10
7.5592521572
 20
-99.1234177751
 10
7.492164299
 20
-99.0791417598
 10
7.4246212025
 20
-99.0382588517
  0
LWPOLYLINE
  5
28A
100
AcDbEntity
  8
0
100
AcDbPolyline
 62
7
  6
CONTINUOUS
 90
5
 70
0
 10
1.767766953
 20
97.7722170086
 10
1.7659034207
 20
97.866514951
 10
1.7604150618
 20
97.9623305454
 10
1.7513018762
 20
98.0596637918
 10
1.7385299962
 20
98.158722432
  0
LWPOLYLINE
  5
28B
100
AcDbEntity
  8
RACCORDO
100
AcDbPolyline
 62
7
  6
CONTINUOUS
 90
43
 70
0
 10
10.9601551084
 20
-101.8958653656
 10
10.9626562483
 20
-102.0503076065
 10
10.97006648
 20
-102.2069456261
 10
10.9823858035
 20
-102.3657794243
 10
10.9996451513
 20
-102.5270370737
 10
11.0218135909
 20
-102.6904905018
 10
11.048798325
 20
-102.8554554906
 10
11.0806195428
 20
-103.0219383764
 10
11.117257055
 20
-103.189932823
 10
11.1585574968
 20
-103.3587356037
 10
11.2045404143
 20
-103.5283501071
 10
11.2551862613
 20
-103.6987729446
 10
11.3102830337
 20
-103.8692907244
 10
11.3698493891
 20
-104.0399038444
 10
11.4338666699
 20
-104.2106119068
 10
11.502066899
 20
-104.3807003256
 10
11.5744676108
 20
-104.5501665034
 10
11.6510512709
 20
-104.7190130377
 10
11.7314972993
 20
-104.886533135
 10
11.8158218866
 20
-105.052721235
 10
11.9040088421
 20
-105.2175828981
 10
11.9956890143
 20
-105.3804280114
 10
12.0908770464
 20
-105.5412481219
 10
12.1895582951
 20
-105.7000516826
 10
12.2913196798
 20
-105.8561739402
 10
12.396174112
 20
-106.009603655
 10
12.5041086801
 20
-106.1603520665
 10
12.6146715688
 20
-106.3077881404
 10
12.7278737957
 20
-106.4518979917
 10
12.8437043432
 20
-106.5926955053
 10
12.9616783434
 20
-106.7295913013
 10
13.0818047814
 20
-106.8625690242
 10
13.2040746721
 20
-106.9916450295
 10
13.3279761924
 20
-107.1162790035
 10
13.4535161818
 20
-107.2364523259
 10
13.5806878008
 20
-107.3521836172
 10
13.7089587075
 20
-107.4629884247
 10
13.8383335102
 20
-107.5688460974
 10
13.9688076006
 20
-107.6697772865
 10
14.0998348128
 20
-107.7653594928
 10
14.2312330915
 20
-107.8554518834
 10
14.363184492
 20
-107.9401952911
 10
14.4956890143
 20
-108.0195897162
  0
LINE
  5
28C
100
AcDbEntity
  8
RACCORDO
100
AcDbLine
 62
7
  6
CONTINUOUS
 10
8.8388347648
 20
-103.1206891456
 11
8.8388347648
 21
-101.487748592
  0
LINE
  5
28D
100
AcDbEntity
  8
RACCORDO
100
AcDbLine
 62
7
  6
CONTINUOUS
 10
10.9601551084
 20
-101.8958653656
 11
10.9601551084
 21
-100.262924812
  0
LWPOLYLINE
  5
28E
100
AcDbEntity
  8
0
100
AcDbPolyline
 62
7
  6
CONTINUOUS
 90
16
 70
0
 10
-0.7071067812
 20
-97.7722170086
 10
-0.705410917
 20
-97.6984173622
 10
-0.7003279726
 20
-97.6267783369
 10
-0.6918718799
 20
-97.5574962905
 10
-0.6800658167
 20
-97.49076112
 10
-0.6649421424
 20
-97.4267557421
 10
-0.64654231
 20
-97.3656555911
 10
-0.6249167522
 20
-97.3076281381
 10
-0.6001247431
 20
-97.2528324324
 10
-0.5722342359
 20
-97.2014186652
 10
-0.5413216766
 20
-97.153527758
 10
-0.5074717942
 20
-97.1092909767
 10
-0.470777369
 20
-97.0688295709
 10
-0.4313389779
 20
-97.0322544428
 10
-0.3892647187
 20
-96.9996658421
 10
-0.3447121944
 20
-96.9711775016
  0
LINE
  5
28F
100
AcDbEntity
  8
0
100
AcDbLine
 62
7
  6
CONTINUOUS
 10
1.7407259885
 20
-99.4826339738
 11
1.7435985685
 21
-99.4663963749
  0
LWPOLYLINE
  5
290
100
AcDbEntity
  8
0
100
AcDbPolyline
 62
7
  6
CONTINUOUS
 90
31
 70
0
 10
1.7221332895
 20
98.2592987243
 10
1.702213359
 20
98.3607694432
 10
1.6787483277
 20
98.4631401426
 10
1.6517600727
 20
98.5664052686
 10
1.6214158277
 20
98.6699249344
 10
1.5876947542
 20
98.7737007204
 10
1.5506176909
 20
98.8777310463
 10
1.5104143873
 20
98.9813712834
 10
1.4670654315
 20
99.0846190096
 10
1.4205902355
 20
99.1874766471
 10
1.3712767848
 20
99.289306834
 10
1.3191074556
 20
99.3901031906
 10
1.2640998718
 20
99.4898720966
 10
1.2065948902
 20
99.5879953296
 10
1.1465770036
 20
99.6844626711
 10
1.0840617193
 20
99.7792843397
 10
1.0194364159
 20
99.8718727686
 10
0.9526879915
 20
99.962214091
 10
0.8838295481
 20
100.0503221739
 10
0.8132877699
 20
100.1356510515
 10
0.7410522046
 20
100.2181834669
 10
0.6671333046
 20
100.2979366772
 10
0.5919891116
 20
100.374416488
 10
0.5156120173
 20
100.4476025736
 10
0.43800963
 20
100.5175152599
 10
0.3596628163
 20
100.5837213296
 10
0.2805669537
 20
100.6461977672
 10
0.2007266647
 20
100.7049675884
 10
0.1206366831
 20
100.7596666233
 10
0.0402954586
 20
100.8102695951
 10
-0.0001708407
 20
100.8341611891
  0
LINE
  5
291
100
AcDbEntity
  8
0
100
AcDbLine
 62
7
  6
CONTINUOUS
 10
1.7385299962
 20
98.158722432
 11
1.7221332895
 21
98.2592987243
  0
LWPOLYLINE
  5
292
100
AcDbEntity
  8
CURVE
100
AcDbPolyline
 62
250
  6
CONTINUOUS
 90
17
 70
0
 10
33.5875721064
 20
-138.189705186
 10
33.6212389534
 20
-138.6056104378
 10
33.7209571346
 20
-139.0445516188
 10
33.8829284156
 20
-139.4898095957
 10
34.1053390593
 20
-139.9319865089
 10
34.3719380542
 20
-140.338773553
 10
34.6759944877
 20
-140.7025808816
 10
35.005926945
 20
-141.0095511869
 10
35.3553390593
 20
-141.2515673613
 10
35.6987001265
 20
-141.4109458642
 10
36.0289826774
 20
-141.4865059416
 10
36.3336063521
 20
-141.4753695335
 10
36.6053390593
 20
-141.3754551765
 10
36.8243259425
 20
-141.1940633729
 10
36.9873595718
 20
-140.9371141304
 10
37.0882300468
 20
-140.6143945658
 10
37.1231060123
 20
-140.2310779742
  0
LWPOLYLINE
  5
293
100
AcDbEntity
  8
CURVE
100
AcDbPolyline
 62
250
  6
CONTINUOUS
 90
17
 70
0
 10
37.1231060123
 20
-140.2310781526
 10
37.0894391653
 20
-139.8151729009
 10
36.989720984
 20
-139.3762317199
 10
36.8277497031
 20
-138.9309737429
 10
36.6053390593
 20
-138.4887968298
 10
36.3387400645
 20
-138.0820097857
 10
36.0346836309
 20
-137.718202457
 10
35.7047511737
 20
-137.4112321518
 10
35.3553390593
 20
-137.1692159773
 10
35.0119779921
 20
-137.0098374744
 10
34.6816954413
 20
-136.9342773971
 10
34.3770717665
 20
-136.9454138052
 10
34.1053390593
 20
-137.0453281621
 10
33.8863521761
 20
-137.2267199658
 10
33.7233185469
 20
-137.4836692083
 10
33.6224480719
 20
-137.8063887729
 10
33.5875721064
 20
-138.1897053645
  0
LWPOLYLINE
  5
294
100
AcDbEntity
  8
CURVE
100
AcDbPolyline
 62
250
  6
CONTINUOUS
 90
17
 70
0
 10
33.5875721064
 20
-91.6508994088
 10
33.6212389534
 20
-92.0668046606
 10
33.7209571346
 20
-92.5057458416
 10
33.8829284156
 20
-92.9510038185
 10
34.1053390593
 20
-93.3931807317
 10
34.3719380542
 20
-93.7999677758
 10
34.6759944877
 20
-94.1637751045
 10
35.005926945
 20
-94.4707454097
 10
35.3553390593
 20
-94.7127615841
 10
35.6987001265
 20
-94.872140087
 10
36.0289826774
 20
-94.9477001644
 10
36.3336063521
 20
-94.9365637563
 10
36.6053390593
 20
-94.8366493994
 10
36.8243259425
 20
-94.6552575957
 10
36.9873595718
 20
-94.3983083532
 10
37.0882300468
 20
-94.0755887886
 10
37.1231060123
 20
-93.692272197
  0
LWPOLYLINE
  5
295
100
AcDbEntity
  8
CURVE
100
AcDbPolyline
 62
250
  6
CONTINUOUS
 90
17
 70
0
 10
37.1231060123
 20
-93.6922723755
 10
37.0894391653
 20
-93.2763671237
 10
36.989720984
 20
-92.8374259427
 10
36.8277497031
 20
-92.3921679657
 10
36.6053390593
 20
-91.9499910526
 10
36.3387400645
 20
-91.5432040085
 10
36.0346836309
 20
-91.1793966798
 10
35.7047511737
 20
-90.8724263746
 10
35.3553390593
 20
-90.6304102002
 10
35.0119779921
 20
-90.4710316972
 10
34.6816954413
 20
-90.3954716199
 10
34.3770717665
 20
-90.406608028
 10
34.1053390593
 20
-90.5065223849
 10
33.8863521761
 20
-90.6879141886
 10
33.7233185469
 20
-90.9448634311
 10
33.6224480719
 20
-91.2675829957
 10
33.5875721064
 20
-91.6508995873
  0
LWPOLYLINE
  5
296
100
AcDbEntity
  8
CURVE
100
AcDbPolyline
 62
250
  6
CONTINUOUS
 90
17
 70
0
 10
33.5875721064
 20
-45.1120936316
 10
33.6212389534
 20
-45.5279988834
 10
33.7209571346
 20
-45.9669400644
 10
33.8829284156
 20
-46.4121980413
 10
34.1053390593
 20
-46.8543749545
 10
34.3719380542
 20
-47.2611619986
 10
34.6759944877
 20
-47.6249693273
 10
35.005926945
 20
-47.9319396325
 10
35.3553390593
 20
-48.1739558069
 10
35.6987001265
 20
-48.3333343099
 10
36.0289826774
 20
-48.4088943872
 10
36.3336063521
 20
-48.3977579791
 10
36.6053390593
 20
-48.2978436222
 10
36.8243259425
 20
-48.1164518185
 10
36.9873595718
 20
-47.859502576
 10
37.0882300468
 20
-47.5367830114
 10
37.1231060123
 20
-47.1534664198
  0
LWPOLYLINE
  5
297
100
AcDbEntity
  8
RACCORDO
100
AcDbPolyline
 62
7
  6
CONTINUOUS
 90
34
 70
0
 10
25.3497781055
 20
75.5422611714
 10
25.3514100709
 20
75.4633293576
 10
25.3562082893
 20
75.3830950362
 10
25.3641727605
 20
75.3015582072
 10
25.375335823
 20
75.21852855
 10
25.3896651384
 20
75.1341963852
 10
25.4070636916
 20
75.0491326746
 10
25.4275523097
 20
74.9633324541
 10
25.4511101655
 20
74.8768006877
 10
25.4775777633
 20
74.7901232294
 10
25.5069748477
 20
74.7032990906
 10
25.539281674
 20
74.6163292598
 10
25.5742795124
 20
74.529802557
 10
25.6119866233
 20
74.443721989
 10
25.6523847462
 20
74.3580845488
 10
25.6952003701
 20
74.2734700356
 10
25.7404498994
 20
74.1898853905
 10
25.7881169297
 20
74.1073236723
 10
25.8378787365
 20
74.0263438561
 10
25.8897495343
 20
73.9469566763
 10
25.9437151087
 20
73.8691513985
 10
25.9994100915
 20
73.7934547949
 10
26.056846218
 20
73.7198811744
 10
26.1160117529
 20
73.6484162281
 10
26.1765061225
 20
73.5795438017
 10
26.2383383438
 20
73.5132814872
 10
26.3014993996
 20
73.4496116926
 10
26.3655616651
 20
73.3889654874
 10
26.4305312554
 20
73.3313633886
 10
26.4964020552
 20
73.2767848792
 10
26.5627280935
 20
73.2255994769
 10
26.6293607132
 20
73.1779303545
 10
26.6964485713
 20
73.1336543392
 10
26.7639916679
 20
73.0927714311
  0
LINE
  5
298
100
AcDbEntity
  8
RACCORDO
100
AcDbLine
 62
7
  6
CONTINUOUS
 10
25.3497781055
 20
-127.3506026116
 11
25.3497781055
 21
-125.3094269197
  0
LINE
  5
299
100
AcDbEntity
  8
RACCORDO
100
AcDbLine
 62
7
  6
CONTINUOUS
 10
25.3497781055
 20
75.5422611714
 11
25.3497781055
 21
88.4016680309
  0
LINE
  5
29A
100
AcDbEntity
  8
RACCORDO
100
AcDbLine
 62
7
  6
CONTINUOUS
 10
30.2995255738
 20
-124.9014679658
 11
30.2995255738
 21
-122.8107330875
  0
LINE
  5
29B
100
AcDbEntity
  8
RACCORDO
100
AcDbLine
 62
7
  6
CONTINUOUS
 10
31.8198051534
 20
-119.5673700269
 11
31.8198051534
 21
66.0912567049
  0
LWPOLYLINE
  5
29C
100
AcDbEntity
  8
RACCORDO
100
AcDbPolyline
 62
7
  6
CONTINUOUS
 90
16
 70
0
 10
25.3497781055
 20
-127.3506026116
 10
25.3487869922
 20
-127.3929544957
 10
25.3458851062
 20
-127.4338536801
 10
25.3410724477
 20
-127.4733001649
 10
25.334325394
 20
-127.5113939237
 10
25.3256675677
 20
-127.548034983
 10
25.3151698363
 20
-127.5829234217
 10
25.3028170984
 20
-127.6160448547
 10
25.2886244555
 20
-127.6474136672
 10
25.2727080797
 20
-127.6767730936
 10
25.255053823
 20
-127.7041066413
 10
25.2356758334
 20
-127.7294308028
 10
25.2147327272
 20
-127.7525382903
 10
25.1922116581
 20
-127.7734109099
 10
25.1681254723
 20
-127.7920668555
 10
25.1426954845
 20
-127.8083394728
  0
LWPOLYLINE
  5
29D
100
AcDbEntity
  8
ASSI
100
AcDbPolyline
 62
7
  6
CONTINUOUS
 90
24
 70
0
 10
-17.8877939723
 20
106.1613723574
 10
-17.8543972698
 20
106.0915873752
 10
-17.8168701109
 20
106.0186658013
 10
-17.7771630002
 20
105.9467242768
 10
-17.73529205
 20
105.8757555582
 10
-17.6915682643
 20
105.8062867783
 10
-17.6459778466
 20
105.738329106
 10
-17.5985345934
 20
105.6718713724
 10
-17.5495908981
 20
105.6074072044
 10
-17.499135588
 20
105.5449514462
 10
-17.4471798358
 20
105.4844892536
 10
-17.3941095521
 20
105.4264697204
 10
-17.3399164379
 20
105.3709110349
 10
-17.2846087923
 20
105.3177950088
 10
-17.2285974226
 20
105.2675161709
 10
-17.1718770889
 20
105.2200956472
 10
-17.1144530313
 20
105.1755123118
 10
-17.0567517771
 20
105.1340973154
 10
-16.9987712625
 20
105.0958742497
 10
-16.9405135513
 20
105.0608195231
 10
-16.8824113634
 20
105.0291935107
 10
-16.8246089385
 20
105.0010830043
 10
-16.7669620367
 20
104.9764012123
 10
-16.7094706582
 20
104.9551481344
  0
LWPOLYLINE
  5
29E
100
AcDbEntity
  8
CURVE
100
AcDbPolyline
 62
250
  6
CONTINUOUS
 90
17
 70
0
 10
37.1231060123
 20
-47.1534665983
 10
37.0894391653
 20
-46.7375613465
 10
36.989720984
 20
-46.2986201655
 10
36.8277497031
 20
-45.8533621885
 10
36.6053390593
 20
-45.4111852754
 10
36.3387400645
 20
-45.0043982313
 10
36.0346836309
 20
-44.6405909026
 10
35.7047511737
 20
-44.3336205974
 10
35.3553390593
 20
-44.091604423
 10
35.0119779921
 20
-43.93222592
 10
34.6816954413
 20
-43.8566658427
 10
34.3770717665
 20
-43.8678022508
 10
34.1053390593
 20
-43.9677166077
 10
33.8863521761
 20
-44.1491084114
 10
33.7233185469
 20
-44.4060576539
 10
33.6224480719
 20
-44.7287772185
 10
33.5875721064
 20
-45.1120938101
  0
LWPOLYLINE
  5
29F
100
AcDbEntity
  8
CURVE
100
AcDbPolyline
 62
250
  6
CONTINUOUS
 90
17
 70
0
 10
33.5875721064
 20
1.4267121456
 10
33.6212389534
 20
1.0108068938
 10
33.7209571346
 20
0.5718657128
 10
33.8829284156
 20
0.1266077358
 10
34.1053390593
 20
-0.3155691773
 10
34.3719380542
 20
-0.7223562214
 10
34.6759944877
 20
-1.0861635501
 10
35.005926945
 20
-1.3931338553
 10
35.3553390593
 20
-1.6351500297
 10
35.6987001265
 20
-1.7945285327
 10
36.0289826774
 20
-1.87008861
 10
36.3336063521
 20
-1.8589522019
 10
36.6053390593
 20
-1.759037845
 10
36.8243259425
 20
-1.5776460413
 10
36.9873595718
 20
-1.3206967988
 10
37.0882300468
 20
-0.9979772342
 10
37.1231060123
 20
-0.6146606426
  0
LWPOLYLINE
  5
2A0
100
AcDbEntity
  8
CURVE
100
AcDbPolyline
 62
250
  6
CONTINUOUS
 90
17
 70
0
 10
37.1231060123
 20
-0.6146608211
 10
37.0894391653
 20
-0.1987555693
 10
36.989720984
 20
0.2401856117
 10
36.8277497031
 20
0.6854435886
 10
36.6053390593
 20
1.1276205018
 10
36.3387400645
 20
1.5344075459
 10
36.0346836309
 20
1.8982148746
 10
35.7047511737
 20
2.2051851798
 10
35.3553390593
 20
2.4472013542
 10
35.0119779921
 20
2.6065798572
 10
34.6816954413
 20
2.6821399345
 10
34.3770717665
 20
2.6710035264
 10
34.1053390593
 20
2.5710891695
 10
33.8863521761
 20
2.3896973658
 10
33.7233185469
 20
2.1327481233
 10
33.6224480719
 20
1.8100285587
 10
33.5875721064
 20
1.4267119671
  0
LWPOLYLINE
  5
2A1
100
AcDbEntity
  8
CURVE
100
AcDbPolyline
 62
250
  6
CONTINUOUS
 90
17
 70
0
 10
33.5875721064
 20
47.9655179228
 10
33.6212389534
 20
47.549612671
 10
33.7209571346
 20
47.11067149
 10
33.8829284156
 20
46.665413513
 10
34.1053390593
 20
46.2232365999
 10
34.3719380542
 20
45.8164495558
 10
34.6759944877
 20
45.4526422271
 10
35.005926945
 20
45.1456719219
 10
35.3553390593
 20
44.9036557475
 10
35.6987001265
 20
44.7442772445
 10
36.0289826774
 20
44.6687171672
 10
36.3336063521
 20
44.6798535753
 10
36.6053390593
 20
44.7797679322
 10
36.8243259425
 20
44.9611597359
 10
36.9873595718
 20
45.2181089784
 10
37.0882300468
 20
45.540828543
 10
37.1231060123
 20
45.9241451346
  0
LWPOLYLINE
  5
2A2
100
AcDbEntity
  8
CURVE
100
AcDbPolyline
 62
250
  6
CONTINUOUS
 90
17
 70
0
 10
37.1231060123
 20
45.9241449561
 10
37.0894391653
 20
46.3400502079
 10
36.989720984
 20
46.7789913889
 10
36.8277497031
 20
47.2242493658
 10
36.6053390593
 20
47.666426279
 10
36.3387400645
 20
48.0732133231
 10
36.0346836309
 20
48.4370206518
 10
35.7047511737
 20
48.743990957
 10
35.3553390593
 20
48.9860071314
 10
35.0119779921
 20
49.1453856343
 10
34.6816954413
 20
49.2209457117
 10
34.3770717665
 20
49.2098093036
 10
34.1053390593
 20
49.1098949466
 10
33.8863521761
 20
48.928503143
 10
33.7233185469
 20
48.6715539005
 10
33.6224480719
 20
48.3488343359
 10
33.5875721064
 20
47.9655177443
  0
LWPOLYLINE
  5
2A3
100
AcDbEntity
  8
CURVE
100
AcDbPolyline
 62
250
  6
CONTINUOUS
 90
17
 70
0
 10
33.5875721064
 20
94.5043236999
 10
33.6212389534
 20
94.0884184482
 10
33.7209571346
 20
93.6494772672
 10
33.8829284156
 20
93.2042192902
 10
34.1053390593
 20
92.7620423771
 10
34.3719380542
 20
92.355255333
 10
34.6759944877
 20
91.9914480043
 10
35.005926945
 20
91.6844776991
 10
35.3553390593
 20
91.4424615246
 10
35.6987001265
 20
91.2830830217
 10
36.0289826774
 20
91.2075229444
 10
36.3336063521
 20
91.2186593525
 10
36.6053390593
 20
91.3185737094
 10
36.8243259425
 20
91.4999655131
 10
36.9873595718
 20
91.7569147556
 10
37.0882300468
 20
92.0796343202
 10
37.1231060123
 20
92.4629509118
  0
LINE
  5
2A4
100
AcDbEntity
  8
ASSI
100
AcDbLine
 62
7
  6
CONTINUOUS
 10
40.2343758495
 20
-144.8851323321
 11
40.2343758495
 21
93.5241884914
  0
LINE
  5
2A5
100
AcDbEntity
  8
ASSI
100
AcDbLine
 62
7
  6
CONTINUOUS
 10
42.3556961931
 20
-143.6603085521
 11
42.3556961931
 21
94.7490122714
  0
LWPOLYLINE
  5
2A6
100
AcDbEntity
  8
RACCORDO
100
AcDbPolyline
 62
7
  6
CONTINUOUS
 90
25
 70
0
 10
31.8198051534
 20
-119.5673700269
 10
31.81779501
 20
-119.7034487422
 10
31.8118269464
 20
-119.8367768259
 10
31.8019009627
 20
-119.967354278
 10
31.7879969332
 20
-120.0953207561
 10
31.7701349836
 20
-120.2205366026
 10
31.7483754907
 20
-120.3425828452
 10
31.7227052201
 20
-120.4614499836
 10
31.6931374062
 20
-120.5771475181
 10
31.6597721298
 20
-120.6892849772
 10
31.6225966335
 20
-120.7978500514
 10
31.5816236748
 20
-120.9028550502
 10
31.5369916057
 20
-121.0039464304
 10
31.4886881086
 20
-121.1011109979
 10
31.4367255013
 20
-121.1943619467
 10
31.3812790896
 20
-121.2833853161
 10
31.3223371463
 20
-121.3681668593
 10
31.2599113986
 20
-121.4487208229
 10
31.194212334
 20
-121.5247759859
 10
31.1252289335
 20
-121.5963171921
 10
31.0529722161
 20
-121.6633595977
 10
30.9776857264
 20
-121.7256774494
 10
30.8994506459
 20
-121.783195496
 10
30.8181857931
 20
-121.8359889886
 10
30.7843847176
 20
-121.8560416375
  0
LWPOLYLINE
  5
2A7
100
AcDbEntity
  8
RACCORDO
100
AcDbPolyline
 62
7
  6
CONTINUOUS
 90
18
 70
0
 10
30.2995255738
 20
-124.9014679658
 10
30.2978936084
 20
-124.9785152268
 10
30.2930953901
 20
-125.053208686
 10
30.2851309189
 20
-125.1255483432
 10
30.2739678564
 20
-125.1956871757
 10
30.259638541
 20
-125.2634722062
 10
30.2422399878
 20
-125.3284445037
 10
30.2217513697
 20
-125.3905849817
 10
30.1981935139
 20
-125.4499127266
 10
30.1717259161
 20
-125.5060260664
 10
30.1423288317
 20
-125.558903189
 10
30.1100220054
 20
-125.6085659065
 10
30.075024167
 20
-125.6546779829
 10
30.0373170561
 20
-125.6972153244
 10
29.9969189332
 20
-125.7362020248
 10
29.9541033093
 20
-125.7713741288
 10
29.90885378
 20
-125.8027057516
 10
29.885350602
 20
-125.8169248367
  0
LWPOLYLINE
  5
2A8
100
AcDbEntity
  8
CURVE
100
AcDbPolyline
 62
250
  6
CONTINUOUS
 90
17
 70
0
 10
37.1231060123
 20
92.4629507333
 10
37.0894391653
 20
92.8788559851
 10
36.989720984
 20
93.3177971661
 10
36.8277497031
 20
93.763055143
 10
36.6053390593
 20
94.2052320562
 10
36.3387400645
 20
94.6120191003
 10
36.0346836309
 20
94.9758264289
 10
35.7047511737
 20
95.2827967342
 10
35.3553390593
 20
95.5248129086
 10
35.0119779921
 20
95.6841914115
 10
34.6816954413
 20
95.7597514889
 10
34.3770717665
 20
95.7486150808
 10
34.1053390593
 20
95.6487007238
 10
33.8863521761
 20
95.4673089202
 10
33.7233185469
 20
95.2103596776
 10
33.6224480719
 20
94.8876401131
 10
33.5875721064
 20
94.5043235215
  0
LINE
  5
2A9
100
AcDbEntity
  8
ASSI
100
AcDbLine
 62
7
  6
CONTINUOUS
 10
44.4770165366
 20
-142.4354847721
 11
44.4770165366
 21
95.9738360514
  0
LINE
  5
2AA
100
AcDbEntity
  8
RACCORDO
100
AcDbLine
 62
250
  6
CONTINUOUS
 10
-36.0624458405
 20
-79.6449000292
 11
-31.8198051534
 21
-77.1952524693
  0
LWPOLYLINE
  5
2AB
100
AcDbEntity
  8
0
100
AcDbPolyline
 62
7
  6
CONTINUOUS
 90
5
 70
0
 10
1.1922883863
 20
99.6109903145
 10
1.2142149319
 20
99.5696321268
 10
1.2572676778
 20
99.4938242262
 10
1.3025718944
 20
99.419128515
 10
1.306186922
 20
99.4135375502
  0
LINE
  5
2AC
100
AcDbEntity
  8
RACCORDO
100
AcDbLine
 62
7
  6
CONTINUOUS
 10
30.2926457604
 20
103.681975015
 11
28.9206673505
 21
110.3863529176
  0
LINE
  5
2AD
100
AcDbEntity
  8
RACCORDO
100
AcDbLine
 62
7
  6
CONTINUOUS
 10
32.413966104
 20
104.906798795
 11
31.0419876941
 21
111.6111766976
  0
LINE
  5
2AE
100
AcDbEntity
  8
RACCORDO
100
AcDbLine
 62
250
  6
CONTINUOUS
 10
-32.5269119346
 20
-85.7686243798
 11
-28.2842712475
 21
-83.3189768199
  0
LINE
  5
2AF
100
AcDbEntity
  8
RACCORDO
100
AcDbLine
 62
250
  6
CONTINUOUS
 10
-31.006632355
 20
-86.6464147555
 11
-28.8853120115
 21
-85.4215909755
  0
LINE
  5
2B0
100
AcDbEntity
  8
RACCORDO
100
AcDbLine
 62
250
  6
CONTINUOUS
 10
-29.5924187927
 20
-89.0959044957
 11
-27.4710984491
 21
-87.8710807157
  0
LWPOLYLINE
  5
2B1
100
AcDbEntity
  8
RACCORDO
100
AcDbPolyline
 62
7
  6
CONTINUOUS
 90
25
 70
0
 10
32.413966104
 20
104.906798795
 10
32.4511139815
 20
104.7366806407
 10
32.4929608653
 20
104.5659866067
 10
32.5395067552
 20
104.3947166933
 10
32.5908315657
 20
104.2226245999
 10
32.6468553825
 20
104.0499566269
 10
32.7073384617
 20
103.8774516754
 10
32.7722999133
 20
103.7051104438
 10
32.8417206274
 20
103.5329322336
 10
32.9153035308
 20
103.3616538498
 10
32.9930664602
 20
103.1912791486
 10
33.0749915789
 20
103.0218042738
 10
33.1607283034
 20
102.8539544622
 10
33.250292968
 20
102.6877366777
 10
33.3436692384
 20
102.5231439564
 10
33.4404575279
 20
102.3608806425
 10
33.5406724585
 20
102.2009567186
 10
33.6442994082
 20
102.0433622021
 10
33.7508949245
 20
101.88877149
 10
33.8604717291
 20
101.7371974548
 10
33.9730171002
 20
101.5886272239
 10
34.0880494206
 20
101.4436965763
 10
34.205579348
 20
101.3024211093
 10
34.3255962247
 20
101.1647852257
 10
34.4475864605
 20
101.0313779129
  0
LWPOLYLINE
  5
2B2
100
AcDbEntity
  8
RACCORDO
100
AcDbPolyline
 62
7
  6
CONTINUOUS
 90
31
 70
0
 10
34.5352864475
 20
106.131622575
 10
34.5724343251
 20
105.9615044206
 10
34.6142812088
 20
105.7908103867
 10
34.6608270987
 20
105.6195404732
 10
34.7121519093
 20
105.4474483799
 10
34.768175726
 20
105.2747804069
 10
34.8286588053
 20
105.1022754554
 10
34.8936202569
 20
104.9299342238
 10
34.963040971
 20
104.7577560135
 10
35.0366238743
 20
104.5864776298
 10
35.1143868038
 20
104.4161029286
 10
35.1963119225
 20
104.2466280538
 10
35.282048647
 20
104.0787782422
 10
35.3716133116
 20
103.9125604577
 10
35.4649895819
 20
103.7479677364
 10
35.5617778714
 20
103.5857044225
 10
35.661992802
 20
103.4257804986
 10
35.7656197518
 20
103.2681859821
 10
35.8722152681
 20
103.11359527
 10
35.9817920726
 20
102.9620212348
 10
36.0943374437
 20
102.8134510038
 10
36.2093697642
 20
102.6685203563
 10
36.3268996916
 20
102.5272448893
 10
36.4469165683
 20
102.3896090056
 10
36.5689068041
 20
102.2562016929
 10
36.6928788557
 20
102.1270410723
 10
36.8188242664
 20
102.0021090226
 10
36.946204076
 20
101.8819401676
 10
37.0748386309
 20
101.7667127152
 10
37.2049075846
 20
101.6562484575
 10
37.3364109371
 20
101.5505473946
  0
LINE
  5
2B3
100
AcDbEntity
  8
RACCORDO
100
AcDbLine
 62
7
  6
CONTINUOUS
 10
34.5352864475
 20
106.131622575
 11
33.1633080376
 21
112.8360004776
  0
LINE
  5
2B4
100
AcDbEntity
  8
RACCORDO
100
AcDbLine
 62
7
  6
CONTINUOUS
 10
28.9206673505
 20
-148.6825097717
 11
30.2926457604
 21
-143.562458147
  0
LINE
  5
2B5
100
AcDbEntity
  8
RACCORDO
100
AcDbLine
 62
7
  6
CONTINUOUS
 10
31.0419876941
 20
-147.4576859918
 11
32.413966104
 21
-142.3376343671
  0
LINE
  5
2B6
100
AcDbEntity
  8
RACCORDO
100
AcDbLine
 62
7
  6
CONTINUOUS
 10
33.1633080376
 20
-146.2328622118
 11
34.1353355778
 21
-142.6053771506
  0
LWPOLYLINE
  5
2B7
100
AcDbEntity
  8
RACCORDO
100
AcDbPolyline
 62
7
  6
CONTINUOUS
 90
15
 70
0
 10
30.2926457604
 20
-143.562458147
 10
30.329793638
 20
-143.4352374306
 10
30.3716405217
 20
-143.312867129
 10
30.4181864116
 20
-143.1953472425
 10
30.4695112222
 20
-143.0825237539
 10
30.5255350389
 20
-142.9745506802
 10
30.5860181182
 20
-142.8718900725
 10
30.6509795697
 20
-142.7745646969
 10
30.7204002838
 20
-142.6825517872
 10
30.7939831872
 20
-142.5962450958
 10
30.8717461167
 20
-142.5156690764
 10
30.9536712354
 20
-142.4407992752
 10
31.0394079599
 20
-142.3719560839
 10
31.1289726245
 20
-142.3091653291
 10
31.2075971687
 20
-142.2608210971
  0
LINE
  5
2B8
100
AcDbEntity
  8
RACCORDO
100
AcDbLine
 62
7
  6
CONTINUOUS
 10
32.413966104
 20
-142.3376343671
 11
32.4511139815
 21
-142.2104136506
  0
LWPOLYLINE
  5
2B9
100
AcDbEntity
  8
RACCORDO
100
AcDbPolyline
 62
7
  6
CONTINUOUS
 90
18
 70
0
 10
-8.424659793
 20
-90.3654268879
 10
-8.4481629709
 20
-90.3796459729
 10
-8.4934125003
 20
-90.4109775958
 10
-8.5362281242
 20
-90.4461496998
 10
-8.5766262471
 20
-90.4851364001
 10
-8.614333358
 20
-90.5276737417
 10
-8.6493311964
 20
-90.573785818
 10
-8.6816380227
 20
-90.6234485355
 10
-8.7110351071
 20
-90.6763256582
 10
-8.7375027049
 20
-90.732438998
 10
-8.7610605607
 20
-90.7917667429
 10
-8.7815491787
 20
-90.8539072209
 10
-8.798947732
 20
-90.9188795184
 10
-8.8132770474
 20
-90.9866645489
 10
-8.8244401099
 20
-91.0568033814
 10
-8.8324045811
 20
-91.1291430386
 10
-8.8372027994
 20
-91.2038364978
 10
-8.8388347648
 20
-91.2808837588
  0
LWPOLYLINE
  5
2BA
100
AcDbEntity
  8
ASSI
100
AcDbPolyline
 62
7
  6
CONTINUOUS
 90
45
 70
0
 10
-19.8914222546
 20
-92.8434817138
 10
-19.8984833437
 20
-92.847626469
 10
-19.9381904544
 20
-92.8737152173
 10
-19.9757176134
 20
-92.9033013687
 10
-20.0110809328
 20
-92.9363590736
 10
-20.0440177453
 20
-92.97264279
 10
-20.0745099827
 20
-93.012176539
 10
-20.1025757132
 20
-93.0549362994
 10
-20.1280064735
 20
-93.1006044655
 10
-20.1507826433
 20
-93.1492026935
 10
-20.1709238429
 20
-93.2007093271
 10
-20.1882804698
 20
-93.2547417915
 10
-20.2028317899
 20
-93.3113188944
 10
-20.2145985374
 20
-93.3704218281
 10
-20.2234933127
 20
-93.4316115949
 10
-20.2294947306
 20
-93.4949037337
 10
-20.2326241764
 20
-93.5602827056
 10
-20.2328584053
 20
-93.6272628966
 10
-20.2301758594
 20
-93.6958562294
 10
-20.2245980967
 20
-93.7660507813
 10
-20.2161665471
 20
-93.8373251696
 10
-20.204859961
 20
-93.9096874348
 10
-20.1906995879
 20
-93.9831295365
 10
-20.1737906066
 20
-94.05710597
 10
-20.1541125506
 20
-94.1316207142
 10
-20.1316858865
 20
-94.2066697903
 10
-20.1066771922
 20
-94.2816957579
 10
-20.0790672417
 20
-94.3566984448
 10
-20.0488752611
 20
-94.4316780231
 10
-20.0163255067
 20
-94.5060775685
 10
-19.9814004224
 20
-94.579892762
 10
-19.9441175643
 20
-94.6531279226
 10
-19.9047538575
 20
-94.725239083
 10
-19.863293808
 20
-94.7962178737
 10
-19.8197529098
 20
-94.8660726641
 10
-19.7744545709
 20
-94.9342845953
 10
-19.7273857051
 20
-95.0008414342
 10
-19.6785593986
 20
-95.0657554139
 10
-19.6283383176
 20
-95.128544374
 10
-19.5767120763
 20
-95.1891924914
 10
-19.5236910604
 20
-95.2477155893
 10
-19.4696690932
 20
-95.3036789768
 10
-19.4147774489
 20
-95.3569377569
 10
-19.3588848532
 20
-95.4076368266
 10
-19.301991306
 20
-95.4557761859
  0
LINE
  5
2BB
100
AcDbEntity
  8
RACCORDO
100
AcDbLine
 62
250
  6
CONTINUOUS
 10
-29.5924187927
 20
-95.6276667101
 11
-27.4710984491
 21
-94.4028429301
  0
LINE
  5
2BC
100
AcDbEntity
  8
RACCORDO
100
AcDbLine
 62
250
  6
CONTINUOUS
 10
-28.8853120115
 20
-96.8524115802
 11
-26.7639916679
 21
-95.6275878002
  0
LINE
  5
2BD
100
AcDbEntity
  8
ASSI
100
AcDbLine
 62
250
  6
CONTINUOUS
 10
-17.3268774124
 20
-94.3153701777
 11
-19.301991306
 21
-95.4557761859
  0
LWPOLYLINE
  5
2BE
100
AcDbEntity
  8
RACCORDO
100
AcDbPolyline
 62
7
  6
CONTINUOUS
 90
3
 70
0
 10
32.4511139815
 20
-142.2104136506
 10
32.4929608653
 20
-142.0880433491
 10
32.5047470191
 20
-142.0582854592
  0
LWPOLYLINE
  5
2BF
100
AcDbEntity
  8
ASSI
100
AcDbPolyline
 62
7
  6
CONTINUOUS
 90
45
 70
0
 10
-15.8174701953
 20
-97.6778649018
 10
-15.8104091062
 20
-97.6737201466
 10
-15.7707019955
 20
-97.6476313983
 10
-15.7331748365
 20
-97.6180452468
 10
-15.6978115171
 20
-97.5849875419
 10
-15.6648747047
 20
-97.5487038256
 10
-15.6343824672
 20
-97.5091700766
 10
-15.6063167367
 20
-97.4664103161
 10
-15.5808859764
 20
-97.4207421501
 10
-15.5581098066
 20
-97.3721439221
 10
-15.5379686071
 20
-97.3206372885
 10
-15.5206119801
 20
-97.266604824
 10
-15.50606066
 20
-97.2100277211
 10
-15.4942939125
 20
-97.1509247875
 10
-15.4853991373
 20
-97.0897350206
 10
-15.4793977193
 20
-97.0264428819
 10
-15.4762682736
 20
-96.96106391
 10
-15.4760340446
 20
-96.894083719
 10
-15.4787165905
 20
-96.8254903862
 10
-15.4842943532
 20
-96.7552958343
 10
-15.4927259028
 20
-96.684021446
 10
-15.504032489
 20
-96.6116591807
 10
-15.518192862
 20
-96.5382170791
 10
-15.5351018433
 20
-96.4642406456
 10
-15.5547798993
 20
-96.3897259014
 10
-15.5772065635
 20
-96.3146768252
 10
-15.6022152577
 20
-96.2396508577
 10
-15.6298252082
 20
-96.1646481708
 10
-15.6600171888
 20
-96.0896685925
 10
-15.6925669432
 20
-96.0152690471
 10
-15.7274920276
 20
-95.9414538535
 10
-15.7647748857
 20
-95.8682186929
 10
-15.8041385924
 20
-95.7961075326
 10
-15.8455986419
 20
-95.7251287419
 10
-15.8891395401
 20
-95.6552739515
 10
-15.934437879
 20
-95.5870620203
 10
-15.9815067448
 20
-95.5205051814
 10
-16.0303330513
 20
-95.4555912017
 10
-16.0805541324
 20
-95.3928022416
 10
-16.1321803736
 20
-95.3321541241
 10
-16.1852013895
 20
-95.2736310263
 10
-16.2392233567
 20
-95.2176676388
 10
-16.294115001
 20
-95.1644088587
 10
-16.3500075968
 20
-95.113709789
 10
-16.4069011439
 20
-95.0655704296
  0
LINE
  5
2C0
100
AcDbEntity
  8
RACCORDO
100
AcDbLine
 62
7
  6
CONTINUOUS
 10
-8.4246695227
 20
-90.3654100365
 11
-6.3033491792
 21
-89.1405862565
  0
LINE
  5
2C1
100
AcDbEntity
  8
RACCORDO
100
AcDbLine
 62
250
  6
CONTINUOUS
 10
-7.4246212025
 20
-90.4644923919
 11
-5.3033008589
 21
-89.2396686119
  0
LINE
  5
2C2
100
AcDbEntity
  8
ASSI
100
AcDbLine
 62
250
  6
CONTINUOUS
 10
-15.5001166223
 20
-96.6367207668
 11
-16.8781014482
 21
-97.432351935
  0
LINE
  5
2C3
100
AcDbEntity
  8
RACCORDO
100
AcDbLine
 62
250
  6
CONTINUOUS
 10
-10.2530483272
 20
-93.7299789497
 11
-12.3743686708
 21
-94.9548027297
  0
LWPOLYLINE
  5
2C4
100
AcDbEntity
  8
RACCORDO
100
AcDbPolyline
 62
7
  6
CONTINUOUS
 90
18
 70
0
 10
-6.3033394494
 20
-89.1406031079
 10
-6.2791755971
 20
-89.1273051665
 10
-6.2294137903
 20
-89.1037890375
 10
-6.1775429925
 20
-89.0843009548
 10
-6.1235774181
 20
-89.0688137696
 10
-6.0678824353
 20
-89.0574323361
 10
-6.0104463088
 20
-89.0501845148
 10
-5.9512807739
 20
-89.0470424452
 10
-5.8907864043
 20
-89.0480274004
 10
-5.828954183
 20
-89.0531673852
 10
-5.7657931272
 20
-89.0624343948
 10
-5.7017308617
 20
-89.0757656878
 10
-5.6367612714
 20
-89.0931888434
 10
-5.5708904716
 20
-89.1146762825
 10
-5.5045644333
 20
-89.1400825268
 10
-5.4379318136
 20
-89.1693590833
 10
-5.3708439555
 20
-89.202554445
 10
-5.3033008589
 20
-89.2396686119
  0
LWPOLYLINE
  5
2C5
100
AcDbEntity
  8
RACCORDO
100
AcDbPolyline
 62
7
  6
CONTINUOUS
 90
22
 70
0
 10
-9.8742478701
 20
-95.2025086181
 10
-9.9695567028
 20
-95.2534777172
 10
-10.0682379516
 20
-95.2983266454
 10
-10.1699993363
 20
-95.3369374067
 10
-10.2748537684
 20
-95.3692838515
 10
-10.3827883365
 20
-95.3953921293
 10
-10.4933512252
 20
-95.4151529507
 10
-10.6065534521
 20
-95.4285397079
 10
-10.7223839996
 20
-95.4355790086
 10
-10.8403579999
 20
-95.4362413862
 10
-10.9604844379
 20
-95.4305001096
 10
-11.0827543285
 20
-95.4183819099
 10
-11.2066558488
 20
-95.3999375141
 10
-11.3321958382
 20
-95.3751404035
 10
-11.4593674572
 20
-95.3440170968
 10
-11.587638364
 20
-95.3066978764
 10
-11.7170131666
 20
-95.26315677
 10
-11.847487257
 20
-95.2134197499
 10
-11.9785144692
 20
-95.1576950158
 10
-12.1099127479
 20
-95.0960519677
 10
-12.2418641484
 20
-95.0284212057
 10
-12.3743686708
 20
-94.9548027297
  0
LWPOLYLINE
  5
2C6
100
AcDbEntity
  8
RACCORDO
100
AcDbPolyline
 62
7
  6
CONTINUOUS
 90
18
 70
0
 10
-31.006632355
 20
106.448805706
 10
-30.9390892585
 20
106.4116915392
 10
-30.8720014003
 20
106.3784961775
 10
-30.8053687806
 20
106.3492196209
 10
-30.7390427423
 20
106.3238133767
 10
-30.6731719425
 20
106.3023259376
 10
-30.6082023522
 20
106.284902782
 10
-30.5441400868
 20
106.2715714889
 10
-30.4809790309
 20
106.2623044793
 10
-30.4191468096
 20
106.2571644946
 10
-30.3586524401
 20
106.2561795393
 10
-30.2994869051
 20
106.2593216089
 10
-30.2420507786
 20
106.2665694302
 10
-30.1863557958
 20
106.2779508637
 10
-30.1323902215
 20
106.2934380489
 10
-30.0805194236
 20
106.3129261316
 10
-30.0307576168
 20
106.3364422606
 10
-30.0065937645
 20
106.349740202
  0
LINE
  5
2C7
100
AcDbEntity
  8
RACCORDO
100
AcDbLine
 62
7
  6
CONTINUOUS
 10
28.2842712475
 20
72.2149810555
 11
26.7639916679
 21
73.0927714311
  0
LINE
  5
2C8
100
AcDbEntity
  8
RACCORDO
100
AcDbLine
 62
7
  6
CONTINUOUS
 10
-31.006632355
 20
106.448805706
 11
-32.5269119346
 21
107.3265960817
  0
LINE
  5
2C9
100
AcDbEntity
  8
RACCORDO
100
AcDbLine
 62
7
  6
CONTINUOUS
 10
25.3497781055
 20
76.3589681778
 11
-28.2994855426
 21
107.335380625
  0
LWPOLYLINE
  5
2CA
100
AcDbEntity
  8
RACCORDO
100
AcDbPolyline
 62
7
  6
CONTINUOUS
 90
43
 70
0
 10
28.2842712475
 20
72.2149810555
 10
28.4167757698
 20
72.1355866304
 10
28.5487271703
 20
72.0508432226
 10
28.680125449
 20
71.9607508321
 10
28.8111526612
 20
71.8651686258
 10
28.9416267516
 20
71.7642374367
 10
29.0710015542
 20
71.658379764
 10
29.199272461
 20
71.5475749564
 10
29.32644408
 20
71.4318436652
 10
29.4519840694
 20
71.3116703428
 10
29.5758855897
 20
71.1870363688
 10
29.6981554804
 20
71.0579603635
 10
29.8182819183
 20
70.9249826406
 10
29.9362559186
 20
70.7880868446
 10
30.0520864661
 20
70.647289331
 10
30.165288693
 20
70.5031794797
 10
30.2758515817
 20
70.3557434058
 10
30.3837861498
 20
70.2049949943
 10
30.4886405819
 20
70.0515652795
 10
30.5904019666
 20
69.8954430219
 10
30.6890832154
 20
69.7366394612
 10
30.7842712475
 20
69.5758193507
 10
30.8759514197
 20
69.4129742373
 10
30.9641383752
 20
69.2481125743
 10
31.0484629625
 20
69.0819244742
 10
31.1289089909
 20
68.914404377
 10
31.205492651
 20
68.7455578427
 10
31.2778933628
 20
68.5760916649
 10
31.3460935919
 20
68.4060032461
 10
31.4101108727
 20
68.2352951837
 10
31.4696772281
 20
68.0646820637
 10
31.5247740005
 20
67.8941642839
 10
31.5754198475
 20
67.7237414464
 10
31.621402765
 20
67.554126943
 10
31.6627032067
 20
67.3853241623
 10
31.699340719
 20
67.2173297157
 10
31.7311619368
 20
67.0508468299
 10
31.7581466709
 20
66.8858818411
 10
31.7803151105
 20
66.722428413
 10
31.7975744583
 20
66.5611707636
 10
31.8098937818
 20
66.4023369654
 10
31.8173040135
 20
66.2456989458
 10
31.8198051534
 20
66.0912567049
  0
LWPOLYLINE
  5
2CB
100
AcDbEntity
  8
ASSI
100
AcDbPolyline
 62
7
  6
CONTINUOUS
 90
21
 70
0
 10
18.8307910017
 20
81.9849989162
 10
18.8882823803
 20
81.9398623911
 10
18.945929282
 20
81.897974986
 10
19.0037317069
 20
81.8593367009
 10
19.0618338949
 20
81.823867763
 10
19.120091606
 20
81.7916479452
 10
19.1780721207
 20
81.7629165658
 10
19.2357733748
 20
81.7376996003
 10
19.2931974325
 20
81.7159710733
 10
19.3499177662
 20
81.6978923774
 10
19.4059291358
 20
81.6834906896
 10
19.4612367815
 20
81.6727388329
 10
19.5154298956
 20
81.6657166685
 10
19.5685001794
 20
81.6624519683
 10
19.6204559316
 20
81.6629169606
 10
19.6709112416
 20
81.6671081914
 10
19.719854937
 20
81.6750534068
 10
19.7672981902
 20
81.6867248609
 10
19.8128886078
 20
81.7020358617
 10
19.8566123935
 20
81.7210135098
 10
19.8914222546
 20
81.7394859494
  0
LWPOLYLINE
  5
2CC
100
AcDbEntity
  8
ASSI
100
AcDbPolyline
 62
7
  6
CONTINUOUS
 90
21
 70
0
 10
16.8781014482
 20
86.3283561706
 10
16.8206100696
 20
86.3734926957
 10
16.7629631679
 20
86.4153801008
 10
16.705160743
 20
86.4540183859
 10
16.647058555
 20
86.4894873238
 10
16.5888008439
 20
86.5217071416
 10
16.5308203292
 20
86.550438521
 10
16.4731190751
 20
86.5756554865
 10
16.4156950174
 20
86.5973840135
 10
16.3589746838
 20
86.6154627094
 10
16.3029633141
 20
86.6298643972
 10
16.2476556684
 20
86.6406162539
 10
16.1934625543
 20
86.6476384183
 10
16.1403922706
 20
86.6509031185
 10
16.0884365183
 20
86.6504381262
 10
16.0379812083
 20
86.6462468954
 10
15.9890375129
 20
86.63830168
 10
15.9415942598
 20
86.6266302259
 10
15.8960038421
 20
86.6113192251
 10
15.8522800564
 20
86.5923415771
 10
15.8174701953
 20
86.5738691374
  0
LINE
  5
2CD
100
AcDbEntity
  8
ASSI
100
AcDbLine
 62
7
  6
CONTINUOUS
 10
16.4069011439
 20
83.9615746653
 11
18.8307910017
 21
81.9849989162
  0
LINE
  5
2CE
100
AcDbEntity
  8
ASSI
100
AcDbLine
 62
7
  6
CONTINUOUS
 10
19.301991306
 20
84.3517804216
 11
16.8781014482
 21
86.3283561706
  0
LINE
  5
2CF
100
AcDbEntity
  8
0
100
AcDbLine
 62
7
  6
CONTINUOUS
 10
34.2758167767
 20
107.3995599675
 11
37.9125103299
 21
101.1006219682
  0
LWPOLYLINE
  5
2D0
100
AcDbEntity
  8
0
100
AcDbPolyline
 62
7
  6
CONTINUOUS
 90
12
 70
0
 10
1.4053723661
 20
-100.0022175923
 10
1.4499248905
 20
-99.9737292518
 10
1.4919991497
 20
-99.9411406511
 10
1.5314375408
 20
-99.9045655229
 10
1.568131966
 20
-99.8641041172
 10
1.6019818484
 20
-99.8198673358
 10
1.6328944077
 20
-99.7719764287
 10
1.6607849149
 20
-99.7205626615
 10
1.685576924
 20
-99.6657669558
 10
1.7072024818
 20
-99.6077395028
 10
1.7256023142
 20
-99.5466393517
 10
1.7407259885
 20
-99.4826339738
  0
LINE
  5
2D1
100
AcDbEntity
  8
RACCORDO
100
AcDbLine
 62
250
  6
CONTINUOUS
 10
7.4246212025
 20
-99.0382588517
 11
9.545941546
 21
-97.8134350718
  0
LINE
  5
2D2
100
AcDbEntity
  8
RACCORDO
100
AcDbLine
 62
250
  6
CONTINUOUS
 10
8.8388347648
 20
-101.487748592
 11
10.9601551084
 21
-100.262924812
  0
LINE
  5
2D3
100
AcDbEntity
  8
RACCORDO
100
AcDbLine
 62
250
  6
CONTINUOUS
 10
8.8388347648
 20
-103.1206891456
 11
10.9601551084
 21
-101.8958653656
  0
LWPOLYLINE
  5
2D4
100
AcDbEntity
  8
0
100
AcDbPolyline
 62
7
  6
CONTINUOUS
 90
13
 70
0
 10
-0.3447121944
 20
-96.9711775016
 10
-0.2976767953
 20
-96.9467943437
 10
-0.2484141672
 20
-96.9266563632
 10
-0.1970170552
 20
-96.9107943471
 10
-0.1436263353
 20
-96.8992517722
 10
-0.0883883476
 20
-96.8920602758
 10
-0.0314544958
 20
-96.8892395693
 10
0.0270191686
 20
-96.8907973841
 10
0.0868723731
 20
-96.8967294503
 10
0.1479410645
 20
-96.9070195085
 10
0.2100578576
 20
-96.9216393544
 10
0.2730524946
 20
-96.9405489161
 10
0.2891726624
 20
-96.9464067154
  0
LWPOLYLINE
  5
2D5
100
AcDbEntity
  8
ASSI
100
AcDbPolyline
 62
7
  6
CONTINUOUS
 90
13
 70
0
 10
-16.4069011439
 20
102.9078528527
 10
-16.3500075968
 20
102.8902929699
 10
-16.294115001
 20
102.876448671
 10
-16.2392233567
 20
102.8663199562
 10
-16.1852013895
 20
102.85990013
 10
-16.1321803736
 20
102.8571958878
 10
-16.0805541324
 20
102.8582273159
 10
-16.0303330513
 20
102.8630222304
 10
-15.9815067448
 20
102.8715528152
 10
-15.934437879
 20
102.8837557078
 10
-15.8891395401
 20
102.8996582526
 10
-15.8455986419
 20
102.9192331052
 10
-15.8174628918
 20
102.9343923849
  0
LINE
  5
2D6
100
AcDbEntity
  8
ASSI
100
AcDbLine
 62
7
  6
CONTINUOUS
 10
-18.8307910017
 20
103.7303243545
 11
-16.4069011439
 21
102.9078528527
  0
LINE
  5
2D7
100
AcDbEntity
  8
ASSI
100
AcDbLine
 62
7
  6
CONTINUOUS
 10
-16.7094706582
 20
104.9551481344
 11
-15.6997781341
 21
104.6125404355
  0
LWPOLYLINE
  5
2D8
100
AcDbEntity
  8
0
100
AcDbPolyline
 62
7
  6
CONTINUOUS
 90
36
 70
0
 10
-0.0001708407
 20
100.8341611891
 10
-0.0402954586
 20
100.8568017806
 10
-0.1206366831
 20
100.8989748412
 10
-0.2007266647
 20
100.9367617094
 10
-0.2805669537
 20
100.9701894527
 10
-0.3596628163
 20
100.9990509346
 10
-0.43800963
 20
101.0233178015
 10
-0.5156120173
 20
101.0430184069
 10
-0.5919891116
 20
101.0580306753
 10
-0.6671333046
 20
101.0683254951
 10
-0.7410522046
 20
101.0739319777
 10
-0.8132877699
 20
101.0748153825
 10
-0.8838295481
 20
101.070946382
 10
-0.9526879915
 20
101.0623543037
 10
-1.0194364159
 20
101.0490923886
 10
-1.0840617193
 20
101.0311316401
 10
-1.1465770036
 20
101.0085010549
 10
-1.2065948902
 20
100.9813408645
 10
-1.2640998718
 20
100.9496229427
 10
-1.3191074556
 20
100.9133754157
 10
-1.3712767848
 20
100.8728228928
 10
-1.4205902355
 20
100.8279386426
 10
-1.4670654315
 20
100.7787493966
 10
-1.5104143873
 20
100.725559958
 10
-1.5506176909
 20
100.6683454881
 10
-1.5876947542
 20
100.6071308257
 10
-1.6214158277
 20
100.54229529
 10
-1.6517600727
 20
100.4738163977
 10
-1.6787483277
 20
100.4017166322
 10
-1.702213359
 20
100.3264427627
 10
-1.7221332895
 20
100.2479750802
 10
-1.7385299962
 20
100.1663332938
 10
-1.7513018762
 20
100.0820233005
 10
-1.7604150618
 20
99.9952137324
 10
-1.7659034207
 20
99.9057359573
 10
-1.767766953
 20
99.8135899753
  0
LINE
  5
2D9
100
AcDbEntity
  8
RACCORDO
100
AcDbLine
 62
7
  6
CONTINUOUS
 10
24.6426713244
 20
89.626412901
 11
-28.8853120115
 21
120.5327996159
  0
LWPOLYLINE
  5
2DA
100
AcDbEntity
  8
RACCORDO
100
AcDbPolyline
 62
7
  6
CONTINUOUS
 90
31
 70
0
 10
24.6426713244
 20
89.626412901
 10
24.679845918
 20
89.6038043543
 10
24.716717875
 20
89.5791642471
 10
24.7532871954
 20
89.5524925794
 10
24.789652274
 20
89.5237052632
 10
24.825714716
 20
89.4928863866
 10
24.8611793366
 20
89.4602882136
 10
24.896041229
 20
89.4258961402
 10
24.9303053
 20
89.3897247706
 10
24.9636910853
 20
89.352070181
 10
24.996191376
 20
89.3129201975
 10
25.027813381
 20
89.272286994
 10
25.0582982621
 20
89.2305031687
 10
25.0876366862
 20
89.1875592775
 10
25.1158379863
 20
89.1434647645
 10
25.1426713244
 20
89.09858056
 10
25.1681254723
 20
89.0529001823
 10
25.1922116581
 20
89.0064301131
 10
25.2147327272
 20
88.9595507275
 10
25.2356758334
 20
88.9122586658
 10
25.255053823
 20
88.8645572876
 10
25.2727080797
 20
88.8168370469
 10
25.2886244555
 20
88.7690977887
 10
25.3028170984
 20
88.7213396678
 10
25.3151698363
 20
88.6739536027
 10
25.3256675677
 20
88.626942647
 10
25.334325394
 20
88.5803037469
 10
25.3410724477
 20
88.5344186596
 10
25.3458851062
 20
88.4894146373
 10
25.3487869922
 20
88.4451644277
 10
25.3497781055
 20
88.4016680309
  0
LINE
  5
2DB
100
AcDbEntity
  8
RACCORDO
100
AcDbLine
 62
250
  6
CONTINUOUS
 10
12.3743686708
 20
-109.2444134962
 11
14.4956890143
 21
-108.0195897162
  0
LWPOLYLINE
  5
2DC
100
AcDbEntity
  8
ASSI
100
AcDbPolyline
 62
7
  6
CONTINUOUS
 90
13
 70
0
 10
-19.301991306
 20
106.6412361602
 10
-19.3588848532
 20
106.658796043
 10
-19.4147774489
 20
106.6726403419
 10
-19.4696690932
 20
106.6827690567
 10
-19.5236910604
 20
106.6891888829
 10
-19.5767120763
 20
106.6918931251
 10
-19.6283383176
 20
106.690861697
 10
-19.6785593986
 20
106.6860667825
 10
-19.7273857051
 20
106.6775361977
 10
-19.7744545709
 20
106.6653333051
 10
-19.8197529098
 20
106.6494307603
 10
-19.863293808
 20
106.6298559077
 10
-19.8914295582
 20
106.614696628
  0
LWPOLYLINE
  5
2DD
100
AcDbEntity
  8
0
100
AcDbPolyline
 62
7
  6
CONTINUOUS
 90
8
 70
0
 10
0.1864593976
 20
100.7150211702
 10
-0.0971848125
 20
100.8050722845
 10
-0.3617784721
 20
100.8187065454
 10
-0.5997905241
 20
100.7536212169
 10
-0.7932551894
 20
100.6147291116
 10
-0.9402508694
 20
100.4034097832
 10
-1.0296819416
 20
100.1356141732
 10
-1.0606601718
 20
99.8135900248
  0
LINE
  5
2DE
100
AcDbEntity
  8
ASSI
100
AcDbLine
 62
7
  6
CONTINUOUS
 10
-16.8781014482
 20
105.8187646584
 11
-19.301991306
 21
106.6412361602
  0
LINE
  5
2DF
100
AcDbEntity
  8
RACCORDO
100
AcDbLine
 62
7
  6
CONTINUOUS
 10
40.2343758495
 20
93.5241884914
 11
33.09377025
 21
99.1008998346
  0
LINE
  5
2E0
100
AcDbEntity
  8
RACCORDO
100
AcDbLine
 62
7
  6
CONTINUOUS
 10
42.3556961931
 20
94.7490122714
 11
35.2150905936
 21
100.3257236146
  0
LINE
  5
2E1
100
AcDbEntity
  8
RACCORDO
100
AcDbLine
 62
7
  6
CONTINUOUS
 10
44.4770165366
 20
95.9738360514
 11
37.3364109371
 21
101.5505473946
  0
LWPOLYLINE
  5
2E2
100
AcDbEntity
  8
RACCORDO
100
AcDbPolyline
 62
7
  6
CONTINUOUS
 90
31
 70
0
 10
33.09377025
 20
99.1008998346
 10
32.9622668975
 20
99.2066008976
 10
32.8321979438
 20
99.3170651552
 10
32.7035633889
 20
99.4322926076
 10
32.5761835793
 20
99.5524614626
 10
32.4502381686
 20
99.6773935123
 10
32.326266117
 20
99.8065541329
 10
32.2042758812
 20
99.9399614457
 10
32.0842590044
 20
100.0775973293
 10
31.966729077
 20
100.2188727963
 10
31.8516967566
 20
100.3638034439
 10
31.7391513855
 20
100.5123736748
 10
31.629574581
 20
100.66394771
 10
31.5229790647
 20
100.8185384222
 10
31.4193521149
 20
100.9761329386
 10
31.3191371843
 20
101.1360568625
 10
31.2223488948
 20
101.2983201764
 10
31.1289726245
 20
101.4629128978
 10
31.0394079599
 20
101.6291306822
 10
30.9536712354
 20
101.7969804939
 10
30.8717461167
 20
101.9664553686
 10
30.7939831872
 20
102.1368300698
 10
30.7204002838
 20
102.3081084536
 10
30.6509795697
 20
102.4802866638
 10
30.5860181182
 20
102.6526278954
 10
30.5255350389
 20
102.825132847
 10
30.4695112222
 20
102.9978008199
 10
30.4181864116
 20
103.1698929133
 10
30.3716405217
 20
103.3411628268
 10
30.329793638
 20
103.5118568607
 10
30.2926457604
 20
103.681975015
  0
LINE
  5
2E3
100
AcDbEntity
  8
RACCORDO
100
AcDbLine
 62
7
  6
CONTINUOUS
 10
35.2150905936
 20
100.3257236146
 11
35.0835872411
 21
100.4314246776
  0
LWPOLYLINE
  5
2E4
100
AcDbEntity
  8
RACCORDO
100
AcDbPolyline
 62
7
  6
CONTINUOUS
 90
6
 70
0
 10
35.0835872411
 20
100.4314246776
 10
34.9535182873
 20
100.5418889352
 10
34.8248837324
 20
100.6571163876
 10
34.6975039229
 20
100.7772852426
 10
34.5715585122
 20
100.9022172923
 10
34.4475864605
 20
101.0313779129
  0
LWPOLYLINE
  5
2E5
100
AcDbEntity
  8
ASSI
100
AcDbPolyline
 62
7
  6
CONTINUOUS
 90
43
 70
0
 10
28.9206673505
 20
110.3863529176
 10
27.507083614
 20
111.829753528
 10
26.0849253951
 20
113.2484426328
 10
24.6541926941
 20
114.642420232
 10
23.2144218469
 20
116.0121169005
 10
21.7660765175
 20
117.3571020634
 10
20.3105476972
 20
118.6760839965
 10
18.8478284848
 20
119.9690377183
 10
17.3779257814
 20
121.2359882104
 10
15.9022512821
 20
122.4757186931
 10
14.420799442
 20
123.6882030158
 10
12.9335758061
 20
124.8734673291
 10
11.4420087044
 20
126.0303733046
 10
9.946093964
 20
127.1588936984
 10
8.445835758
 20
128.2590557545
 10
6.9426749346
 20
129.3298028769
 10
5.4366087054
 20
130.3711068064
 10
3.927639859
 20
131.3829958022
 10
2.4172176094
 20
132.3644980458
 10
0.9053405605
 20
133.3155843443
 10
-0.6079898915
 20
134.2362838906
 10
-2.1213203436
 20
135.1257124444
 10
-3.6346507956
 20
135.9838399636
 10
-5.1479812476
 20
136.8106964903
 10
-6.6598582965
 20
137.6054879114
 10
-8.1702805461
 20
138.3681834215
 10
-9.6792493925
 20
139.098813826
 10
-11.1853156217
 20
139.7966774271
 10
-12.6884764451
 20
140.4617427454
 10
-14.1887346512
 20
141.0940412604
 10
-15.6846493915
 20
141.6929657123
 10
-17.1762164932
 20
142.2584840383
 10
-18.6634401292
 20
142.7906283013
 10
-20.1448919693
 20
143.2888874296
 10
-21.6205664685
 20
143.7532288696
 10
-23.0904691719
 20
144.183685175
 10
-24.5531883843
 20
144.5798429353
 10
-26.0087172047
 20
144.9416691998
 10
-27.457062534
 20
145.2691969192
 10
-28.8968333812
 20
145.5621115359
 10
-30.3275660823
 20
145.8203081973
 10
-31.7497243011
 20
146.0438917559
 10
-33.1633080376
 20
146.2328622118
  0
LWPOLYLINE
  5
2E6
100
AcDbEntity
  8
ASSI
100
AcDbPolyline
 62
7
  6
CONTINUOUS
 90
43
 70
0
 10
31.0419876941
 20
111.6111766976
 10
29.6284039575
 20
113.0545773079
 10
28.2062457387
 20
114.4732664128
 10
26.7755130376
 20
115.867244012
 10
25.3357421905
 20
117.2369406805
 10
23.8873968611
 20
118.5819258433
 10
22.4318680408
 20
119.9009077765
 10
20.9691488283
 20
121.1938614983
 10
19.4992461249
 20
122.4608119904
 10
18.0235716257
 20
123.7005424731
 10
16.5421197856
 20
124.9130267958
 10
15.0548961496
 20
126.098291109
 10
13.5633290479
 20
127.2551970846
 10
12.0674143076
 20
128.3837174784
 10
10.5671561015
 20
129.4838795345
 10
9.0639952782
 20
130.5546266569
 10
7.557929049
 20
131.5959305864
 10
6.0489602025
 20
132.6078195822
 10
4.538537953
 20
133.5893218258
 10
3.026660904
 20
134.5404081243
 10
1.513330452
 20
135.4611076705
 10
0.0
 20
136.3505362244
 10
-1.513330452
 20
137.2086637436
 10
-3.026660904
 20
138.0355202703
 10
-4.538537953
 20
138.8303116914
 10
-6.0489602025
 20
139.5930072015
 10
-7.557929049
 20
140.323637606
 10
-9.0639952782
 20
141.0215012071
 10
-10.5671561015
 20
141.6865665254
 10
-12.0674143076
 20
142.3188650404
 10
-13.5633290479
 20
142.9177894923
 10
-15.0548961496
 20
143.4833078183
 10
-16.5421197856
 20
144.0154520813
 10
-18.0235716257
 20
144.5137112096
 10
-19.4992461249
 20
144.9780526496
 10
-20.9691488283
 20
145.4085089549
 10
-22.4318680408
 20
145.8046667153
 10
-23.8873968611
 20
146.1664929797
 10
-25.3357421905
 20
146.4940206992
 10
-26.7755130376
 20
146.7869353159
 10
-28.2062457387
 20
147.0451319772
 10
-29.6284039575
 20
147.2687155359
 10
-31.0419876941
 20
147.4576859918
  0
LWPOLYLINE
  5
2E7
100
AcDbEntity
  8
ASSI
100
AcDbPolyline
 62
7
  6
CONTINUOUS
 90
43
 70
0
 10
33.1633080376
 20
112.8360004776
 10
31.7497243011
 20
114.2794010879
 10
30.3275660823
 20
115.6980901927
 10
28.8968333812
 20
117.092067792
 10
27.457062534
 20
118.4617644604
 10
26.0087172047
 20
119.8067496233
 10
24.5531883843
 20
121.1257315564
 10
23.0904691719
 20
122.4186852783
 10
21.6205664685
 20
123.6856357704
 10
20.1448919693
 20
124.925366253
 10
18.6634401292
 20
126.1378505758
 10
17.1762164932
 20
127.323114889
 10
15.6846493915
 20
128.4800208646
 10
14.1887346512
 20
129.6085412584
 10
12.6884764451
 20
130.7087033145
 10
11.1853156217
 20
131.7794504369
 10
9.6792493925
 20
132.8207543664
 10
8.1702805461
 20
133.8326433622
 10
6.6598582965
 20
134.8141456058
 10
5.1479812476
 20
135.7652319043
 10
3.6346507956
 20
136.6859314505
 10
2.1213203436
 20
137.5753600044
 10
0.6079898915
 20
138.4334875235
 10
-0.9053405605
 20
139.2603440503
 10
-2.4172176094
 20
140.0551354714
 10
-3.927639859
 20
140.8178309815
 10
-5.4366087054
 20
141.548461386
 10
-6.9426749346
 20
142.246324987
 10
-8.445835758
 20
142.9113903054
 10
-9.946093964
 20
143.5436888204
 10
-11.4420087044
 20
144.1426132723
 10
-12.9335758061
 20
144.7081315983
 10
-14.420799442
 20
145.2402758613
 10
-15.9022512821
 20
145.7385349896
 10
-17.3779257814
 20
146.2028764296
 10
-18.8478284848
 20
146.6333327349
 10
-20.3105476972
 20
147.0294904953
 10
-21.7660765175
 20
147.3913167597
 10
-23.2144218469
 20
147.7188444792
 10
-24.6541926941
 20
148.0117590959
 10
-26.0849253951
 20
148.2699557572
 10
-27.507083614
 20
148.4935393159
 10
-28.9206673505
 20
148.6825097717
  0
LWPOLYLINE
  5
2E8
100
AcDbEntity
  8
ASSI
100
AcDbPolyline
 62
7
  6
CONTINUOUS
 90
53
 70
0
 10
15.8174628918
 20
-114.0383881493
 10
15.8041385924
 20
-114.0463306343
 10
15.7647748857
 20
-114.0729855728
 10
15.7274920276
 20
-114.1031674234
 10
15.6925669432
 20
-114.1366520049
 10
15.6600171888
 20
-114.1734639099
 10
15.6298252082
 20
-114.2135785458
 10
15.6022152577
 20
-114.2566979539
 10
15.5772065635
 20
-114.3028445082
 10
15.5547798993
 20
-114.3519958347
 10
15.5351018433
 20
-114.4037868531
 10
15.518192862
 20
-114.4582372189
 10
15.504032489
 20
-114.5153272767
 10
15.4927259028
 20
-114.5746329796
 10
15.4842943532
 20
-114.6361708257
 10
15.4787165905
 20
-114.6999243171
 10
15.4760340446
 20
-114.7654199132
 10
15.4762682736
 20
-114.8326705859
 10
15.4793977193
 20
-114.9016633633
 10
15.4853991373
 20
-114.9718857891
 10
15.4942939125
 20
-115.0433470194
 10
15.50606066
 20
-115.1160378982
 10
15.5206119801
 20
-115.1894185007
 10
15.5379686071
 20
-115.2634939629
 10
15.5581098066
 20
-115.3382591489
 10
15.5808859764
 20
-115.4131587269
 10
15.6063167367
 20
-115.4881936975
 10
15.6343824672
 20
-115.56336306
 10
15.6648747047
 20
-115.6381084806
 10
15.6978115171
 20
-115.7124268023
 10
15.7331748365
 20
-115.7863211821
 10
15.7707019955
 20
-115.859242756
 10
15.8104091062
 20
-115.9311842805
 10
15.8522800564
 20
-116.0021529991
 10
15.8960038421
 20
-116.0716217789
 10
15.9415942598
 20
-116.1395794513
 10
15.9890375129
 20
-116.2060371849
 10
16.0379812083
 20
-116.2705013529
 10
16.0884365183
 20
-116.332957111
 10
16.1403922706
 20
-116.3934193036
 10
16.1934625543
 20
-116.4514388368
 10
16.2476556684
 20
-116.5069975223
 10
16.3029633141
 20
-116.5601135485
 10
16.3589746838
 20
-116.6103923864
 10
16.4156950174
 20
-116.65781291
 10
16.4731190751
 20
-116.7023962454
 10
16.5308203292
 20
-116.7438112419
 10
16.5888008439
 20
-116.7820343075
 10
16.647058555
 20
-116.8170890342
 10
16.705160743
 20
-116.8487150466
 10
16.7629631679
 20
-116.8768255529
 10
16.8206100696
 20
-116.901507345
 10
16.8781014482
 20
-116.9227604228
  0
LWPOLYLINE
  5
2E9
100
AcDbEntity
  8
ASSI
100
AcDbPolyline
 62
7
  6
CONTINUOUS
 90
53
 70
0
 10
19.8914295582
 20
-117.7186923924
 10
19.9047538575
 20
-117.7107499074
 10
19.9441175643
 20
-117.6840949688
 10
19.9814004224
 20
-117.6539131182
 10
20.0163255067
 20
-117.6204285367
 10
20.0488752611
 20
-117.5836166318
 10
20.0790672417
 20
-117.5435019959
 10
20.1066771922
 20
-117.5003825877
 10
20.1316858865
 20
-117.4542360335
 10
20.1541125506
 20
-117.405084707
 10
20.1737906066
 20
-117.3532936885
 10
20.1906995879
 20
-117.2988433227
 10
20.204859961
 20
-117.241753265
 10
20.2161665471
 20
-117.1824475621
 10
20.2245980967
 20
-117.1209097159
 10
20.2301758594
 20
-117.0571562246
 10
20.2328584053
 20
-116.9916606285
 10
20.2326241764
 20
-116.9244099558
 10
20.2294947306
 20
-116.8554171784
 10
20.2234933127
 20
-116.7851947526
 10
20.2145985374
 20
-116.7137335223
 10
20.2028317899
 20
-116.6410426435
 10
20.1882804698
 20
-116.5676620409
 10
20.1709238429
 20
-116.4935865788
 10
20.1507826433
 20
-116.4188213928
 10
20.1280064735
 20
-116.3439218148
 10
20.1025757132
 20
-116.2688868442
 10
20.0745099827
 20
-116.1937174816
 10
20.0440177453
 20
-116.1189720611
 10
20.0110809328
 20
-116.0446537393
 10
19.9757176134
 20
-115.9707593596
 10
19.9381904544
 20
-115.8978377857
 10
19.8984833437
 20
-115.8258962612
 10
19.8566123935
 20
-115.7549275426
 10
19.8128886078
 20
-115.6854587627
 10
19.7672981902
 20
-115.6175010904
 10
19.719854937
 20
-115.5510433568
 10
19.6709112416
 20
-115.4865791888
 10
19.6204559316
 20
-115.4241234306
 10
19.5685001794
 20
-115.363661238
 10
19.5154298956
 20
-115.3056417048
 10
19.4612367815
 20
-115.2500830193
 10
19.4059291358
 20
-115.1969669932
 10
19.3499177662
 20
-115.1466881553
 10
19.2931974325
 20
-115.0992676316
 10
19.2357733748
 20
-115.0546842962
 10
19.1780721207
 20
-115.0132692998
 10
19.120091606
 20
-114.9750462341
 10
19.0618338949
 20
-114.9399915075
 10
19.0037317069
 20
-114.9083654951
 10
18.945929282
 20
-114.8802549887
 10
18.8882823803
 20
-114.8555731967
 10
18.8307910017
 20
-114.8343201188
  0
LINE
  5
2EA
100
AcDbEntity
  8
ASSI
100
AcDbLine
 62
250
  6
CONTINUOUS
 10
18.9994217918
 20
-115.6979366428
 11
16.8781014482
 21
-116.9227604228
  0
LINE
  5
2EB
100
AcDbEntity
  8
ASSI
100
AcDbLine
 62
250
  6
CONTINUOUS
 10
20.2086789344
 20
-117.2217218515
 11
19.301991306
 21
-117.7452319246
  0
LWPOLYLINE
  5
2EC
100
AcDbEntity
  8
RACCORDO
100
AcDbPolyline
 62
7
  6
CONTINUOUS
 90
18
 70
0
 10
30.6891265374
 20
-121.9101807419
 10
30.6465756073
 20
-121.9396114766
 10
30.6062383775
 20
-121.9723501313
 10
30.5680430707
 20
-122.0084753688
 10
30.5320614643
 20
-122.0479085264
 10
30.4985088907
 20
-122.0904136157
 10
30.4673999156
 20
-122.1360090575
 10
30.4387199732
 20
-122.1846764311
 10
30.4126406992
 20
-122.236124486
 10
30.3891776883
 20
-122.2903698963
 10
30.3683153458
 20
-122.3473959878
 10
30.3501785225
 20
-122.4068614872
 10
30.334783562
 20
-122.4687810222
 10
30.3221141208
 20
-122.533139965
 10
30.3122460194
 20
-122.5995531586
 10
30.3052045311
 20
-122.6678922174
 10
30.3009643826
 20
-122.738285527
 10
30.2995255738
 20
-122.8107330875
  0
LINE
  5
2ED
100
AcDbEntity
  8
RACCORDO
100
AcDbLine
 62
7
  6
CONTINUOUS
 10
30.713698877
 20
-121.8952733221
 11
30.6891265374
 21
-121.9101807419
  0
LWPOLYLINE
  5
2EE
100
AcDbEntity
  8
RACCORDO
100
AcDbPolyline
 62
7
  6
CONTINUOUS
 90
18
 70
0
 10
25.7639530774
 20
-124.3939700487
 10
25.7404498994
 20
-124.4081891338
 10
25.6952003701
 20
-124.4395207566
 10
25.6523847462
 20
-124.4746928606
 10
25.6119866233
 20
-124.513679561
 10
25.5742795124
 20
-124.5562169026
 10
25.539281674
 20
-124.6023289789
 10
25.5069748477
 20
-124.6519916964
 10
25.4775777633
 20
-124.704868819
 10
25.4511101655
 20
-124.7609821588
 10
25.4275523097
 20
-124.8203099038
 10
25.4070636916
 20
-124.8824503818
 10
25.3896651384
 20
-124.9474226792
 10
25.375335823
 20
-125.0152077098
 10
25.3641727605
 20
-125.0853465422
 10
25.3562082893
 20
-125.1576861995
 10
25.3514100709
 20
-125.2323796586
 10
25.3497781055
 20
-125.3094269197
  0
LINE
  5
2EF
100
AcDbEntity
  8
RACCORDO
100
AcDbLine
 62
250
  6
CONTINUOUS
 10
30.405591591
 20
-119.655415626
 11
31.8198051534
 21
-118.8388664394
  0
LINE
  5
2F0
100
AcDbEntity
  8
RACCORDO
100
AcDbLine
 62
7
  6
CONTINUOUS
 10
25.7639433476
 20
-124.3939531974
 11
27.8852636912
 21
-123.1691294174
  0
LINE
  5
2F1
100
AcDbEntity
  8
RACCORDO
100
AcDbLine
 62
250
  6
CONTINUOUS
 10
26.7639916679
 20
-124.4930355527
 11
28.8853120115
 21
-123.2682117727
  0
LINE
  5
2F2
100
AcDbEntity
  8
RACCORDO
100
AcDbLine
 62
250
  6
CONTINUOUS
 10
24.6426713244
 20
-127.7587982951
 11
25.3497439355
 21
-127.3505434311
  0
LINE
  5
2F3
100
AcDbEntity
  8
RACCORDO
100
AcDbLine
 62
250
  6
CONTINUOUS
 10
28.8853120115
 20
-125.7178593327
 11
30.2994572337
 21
-124.9013496048
  0
LINE
  5
2F4
100
AcDbEntity
  8
RACCORDO
100
AcDbLine
 62
7
  6
CONTINUOUS
 10
30.7843847176
 20
-121.8560416375
 11
30.713698877
 21
-121.8952733221
  0
LWPOLYLINE
  5
2F5
100
AcDbEntity
  8
RACCORDO
100
AcDbPolyline
 62
7
  6
CONTINUOUS
 90
18
 70
0
 10
27.885273421
 20
-123.1691462688
 10
27.9094372733
 20
-123.1558483274
 10
27.9591990801
 20
-123.1323321983
 10
28.0110698779
 20
-123.1128441157
 10
28.0650354523
 20
-123.0973569304
 10
28.1207304351
 20
-123.085975497
 10
28.1781665616
 20
-123.0787276756
 10
28.2373320965
 20
-123.0755856061
 10
28.2978264661
 20
-123.0765705613
 10
28.3596586873
 20
-123.0817105461
 10
28.4228197432
 20
-123.0909775556
 10
28.4868820086
 20
-123.1043088487
 10
28.5518515989
 20
-123.1217320043
 10
28.6177223988
 20
-123.1432194434
 10
28.6840484371
 20
-123.1686256876
 10
28.7506810568
 20
-123.1979022442
 10
28.8177689149
 20
-123.2310976059
 10
28.8853120115
 20
-123.2682117727
  0
LWPOLYLINE
  5
2F6
100
AcDbEntity
  8
RACCORDO
100
AcDbPolyline
 62
7
  6
CONTINUOUS
 90
18
 70
0
 10
29.885350602
 20
-125.8169248367
 10
29.8611867497
 20
-125.8302227781
 10
29.8114249429
 20
-125.8537389071
 10
29.759554145
 20
-125.8732269898
 10
29.7055885707
 20
-125.888714175
 10
29.6498935879
 20
-125.9000956085
 10
29.5924574614
 20
-125.9073434298
 10
29.5332919264
 20
-125.9104854994
 10
29.4727975569
 20
-125.9095005442
 10
29.4109653356
 20
-125.9043605594
 10
29.3478042797
 20
-125.8950935498
 10
29.2837420143
 20
-125.8817622568
 10
29.218772424
 20
-125.8643391012
 10
29.1529016242
 20
-125.8428516621
 10
29.0865755859
 20
-125.8174454178
 10
29.0199429662
 20
-125.7881688612
 10
28.9528551081
 20
-125.7549734995
 10
28.8853120115
 20
-125.7178593327
  0
LWPOLYLINE
  5
2F7
100
AcDbEntity
  8
RACCORDO
100
AcDbPolyline
 62
7
  6
CONTINUOUS
 90
16
 70
0
 10
25.1426954845
 20
-127.8083394728
 10
25.1158379863
 20
-127.8222511596
 10
25.0876366862
 20
-127.833779518
 10
25.0582982621
 20
-127.8428441325
 10
25.027813381
 20
-127.8494247812
 10
24.996191376
 20
-127.853541686
 10
24.9636910853
 20
-127.8551611484
 10
24.9303053
 20
-127.85426267
 10
24.896041229
 20
-127.8508667493
 10
24.8611793366
 20
-127.8450011831
 10
24.825714716
 20
-127.8366457012
 10
24.789652274
 20
-127.8258205738
 10
24.7532871954
 20
-127.8126144087
 10
24.716717875
 20
-127.7970567419
 10
24.679845918
 20
-127.7791180373
 10
24.6426713244
 20
-127.7587982951
  0
LWPOLYLINE
  5
2F8
100
AcDbEntity
  8
RACCORDO
100
AcDbPolyline
 62
7
  6
CONTINUOUS
 90
4
 70
0
 10
-35.2150905936
 20
140.9912275346
 10
-35.0835872411
 20
140.9450718223
 10
-34.9535182873
 20
140.9053357125
 10
-34.8248837324
 20
140.8720192052
  0
LINE
  5
2F9
100
AcDbEntity
  8
RACCORDO
100
AcDbLine
 62
7
  6
CONTINUOUS
 10
-37.3364109371
 20
139.7664037546
 11
-44.4770165366
 21
142.4354847721
  0
LINE
  5
2FA
100
AcDbEntity
  8
RACCORDO
100
AcDbLine
 62
7
  6
CONTINUOUS
 10
-35.2150905936
 20
140.9912275346
 11
-42.3556961931
 21
143.6603085521
  0
LINE
  5
2FB
100
AcDbEntity
  8
RACCORDO
100
AcDbLine
 62
7
  6
CONTINUOUS
 10
-34.1353355778
 20
142.6053771506
 11
-40.2343758495
 21
144.8851323321
  0
LWPOLYLINE
  5
2FC
100
AcDbEntity
  8
RACCORDO
100
AcDbPolyline
 62
7
  6
CONTINUOUS
 90
3
 70
0
 10
-34.6260673627
 20
140.8334616792
 10
-34.6975039229
 20
140.845093049
 10
-34.8248837324
 20
140.8720192052
  0
LINE
  5
2FD
100
AcDbEntity
  8
RACCORDO
100
AcDbLine
 62
250
  6
CONTINUOUS
 10
32.7915386805
 20
-142.1196286935
 11
30.2926457604
 21
-143.562458147
  0
LINE
  5
2FE
100
AcDbEntity
  8
ASSI
100
AcDbLine
 62
7
  6
CONTINUOUS
 10
33.1633080376
 20
-146.2328622118
 11
28.9206673505
 21
-148.6825097717
  0
LINE
  5
2FF
100
AcDbEntity
  8
ASSI
100
AcDbLine
 62
7
  6
CONTINUOUS
 10
44.4770165366
 20
-142.4354847721
 11
40.2343758495
 21
-144.8851323321
  0
LWPOLYLINE
  5
300
100
AcDbEntity
  8
RACCORDO
100
AcDbPolyline
 62
7
  6
CONTINUOUS
 90
18
 70
0
 10
31.2075971687
 20
-142.2608210971
 10
31.2223488948
 20
-142.2524011842
 10
31.3191371843
 20
-142.2019065609
 10
31.4193521149
 20
-142.1577083269
 10
31.5229790647
 20
-142.1197796145
 10
31.629574581
 20
-142.0882827327
 10
31.7391513855
 20
-142.0632452447
 10
31.8516967566
 20
-142.0446395873
 10
31.966729077
 20
-142.03254538
 10
32.0842590044
 20
-142.0269905272
 10
32.2042758812
 20
-142.0279471244
 10
32.326266117
 20
-142.0354110782
 10
32.4502381686
 20
-142.0494102754
 10
32.5761835793
 20
-142.069916829
 10
32.7035633889
 20
-142.0968429852
 10
32.8321979438
 20
-142.1301594925
 10
32.9622668975
 20
-142.1698956023
 10
33.09377025
 20
-142.2160513145
  0
ENDSEC
  0
SECTION
  2
OBJECTS
  0
DICTIONARY
  5
C
100
AcDbDictionary
280
0
281
1
  3
ACAD_GROUP
350
D
  3
ACAD_MLINESTYLE
350
17
  3
ACAD_LAYOUT
350
1A
  3
ACAD_PLOTSETTINGS
350
19
  3
ACAD_PLOTSTYLENAME
350
E
  0
DICTIONARY
  5
D
102
{ACAD_REACTORS
330
C
102
}
100
AcDbDictionary
280
0
281
1
  0
ACDBDICTIONARYWDFLT
  5
E
102
{ACAD_REACTORS
330
C
102
}
100
AcDbDictionary
281
1
  3
Normal
350
F
100
AcDbDictionaryWithDefault
340
F
  0
DICTIONARY
  5
17
102
{ACAD_REACTORS
330
C
102
}
100
AcDbDictionary
280
0
281
1
  3
Standard
350
18
  0
DICTIONARY
  5
19
102
{ACAD_REACTORS
330
C
102
}
100
AcDbDictionary
281
1
  0
DICTIONARY
  5
1A
102
{ACAD_REACTORS
330
C
102
}
100
AcDbDictionary
281
1
  3
Model
350
301
  3
Layout1
350
302
  0
ACDBPLACEHOLDER
  5
F
102
{ACAD_REACTORS
330
E
102
}
  0
MLINESTYLE
  5
18
102
{ACAD_REACTORS
330
17
102
}
100
AcDbMlineStyle
  2
STANDARD
 70
0
  3

 62
256
 51
90.0
 52
90.0
 71
2
 49
0.5
 62
256
  6
BYLAYER
 49
-0.5
 62
256
  6
BYLAYER
  0
LAYOUT
  5
301
102
{ACAD_REACTORS
330
1A
102
}
100
AcDbPlotSettings
  1

  2
none_device
  4

  6

 40
0.0
 41
0.0
 42
0.0
 43
0.0
 44
210.0
 45
297.0
 46
0.0
 47
0.0
 48
0.0
 49
0.0
140
0.0
141
0.0
142
1.0
143
1.0
 70
1024
 72
1
 73
0
 74
0
  7

 75
0
147
1.0
148
0.0
149
0.0
100
AcDbLayout
  1
Model
 70
0
 71
0
 10
0.0
 20
0.0
 11
210.0
 21
297.0
 12
0.0
 22
0.0
 32
0.0
 14
0.0
 24
0.0
 34
0.0
 15
0.0
 25
0.0
 35
0.0
146
0.0
 13
0.0
 23
0.0
 33
0.0
 16
1.0
 26
0.0
 36
0.0
 17
0.0
 27
1.0
 37
0.0
 76
0
330
212
345
0
346
0
  0
LAYOUT
  5
302
102
{ACAD_REACTORS
330
1A
102
}
100
AcDbPlotSettings
  1

  2
none_device
  4

  6

 40
0.0
 41
0.0
 42
0.0
 43
0.0
 44
210.0
 45
297.0
 46
0.0
 47
0.0
 48
0.0
 49
0.0
140
0.0
141
0.0
142
1.0
143
1.0
 70
0
 72
1
 73
0
 74
0
  7

 75
0
147
1.0
148
0.0
149
0.0
100
AcDbLayout
  1
Layout1
 70
0
 71
1
 10
0.0
 20
0.0
 11
210.0
 21
297.0
 12
0.0
 22
0.0
 32
0.0
 14
0.0
 24
0.0
 34
0.0
 15
0.0
 25
0.0
 35
0.0
146
0.0
 13
0.0
 23
0.0
 33
0.0
 16
1.0
 26
0.0
 36
0.0
 17
0.0
 27
1.0
 37
0.0
 76
0
330
213
345
0
346
0
  0
ENDSEC
  0
EOF
