  0
SECTION
  2
HEADER
  9
$ACADVER
  1
AC1024
  9
$DWGCODEPAGE
  3
ANSI_1252
  9
$EXTMAX
 10
210.0
 20
297.0
 30
0.0
  9
$EXTMIN
 10
0.0
 20
0.0
 30
0.0
  9
$LIMMIN
 10
0.0
 20
0.0
  9
$LIMMAX
 10
210.0
 20
297.0
  9
$VIEWCTR
 10
105.0
 20
148.5
  9
$VIEWSIZE
 40
297.0
  9
$CLAYER
  8
0
  9
$LTSCALE
 40
19.36
  9
$CELTYPE
  6
BYLAYER
  9
$DIMSCALE
 40
1.0
  9
$DIMASZ
 40
3.0
  9
$DIMEXO
 40
0.5
  9
$DIMDLI
 40
13.376
  9
$DIMEXE
 40
1.5
  9
$DIMCEN
 40
3.168
  9
$DIMLFAC
 40
1.0
  9
$DIMBLK
  1
_FILLED
  9
$DIMALT
 70
0
  9
$DIMALTF
 40
0.0393700787
  9
$DIMTXT
 40
3.0
  9
$DIMTOL
 70
1
  9
$DIMLIM
 70
0
  9
$DIMTFAC
 40
1.0
  9
$DIMTP
 40
0.01
  9
$DIMTM
 40
0.01
  9
$DIMGAP
 40
0.625
  9
$DIMDSEP
 70
44
  9
$AUNITS
 70
0
  9
$PDMODE
 70
3
  9
$PDSIZE
 40
3.0
  9
$HANDSEED
  5
306
  9
$TILEMODE
 70
1
  9
$MEASUREMENT
 70
1
  9
$INSUNITS
 70
4
  0
ENDSEC
  0
SECTION
  2
CLASSES
  0
CLASS
  1
ACDBDICTIONARYWDFLT
  2
AcDbDictionaryWithDefault
  3
AutoCAD 2000
 90
0
 91
1
280
0
281
0
  0
CLASS
  1
ACDBPLACEHOLDER
  2
AcDbPlaceHolder
  3
AutoCAD 2000
 90
0
 91
1
280
0
281
0
  0
CLASS
  1
LAYOUT
  2
AcDbLayout
  3
AutoCAD 2000
 90
0
 91
0
280
0
281
0
  0
ENDSEC
  0
SECTION
  2
TABLES
  0
TABLE
  2
VPORT
  5
8
100
AcDbSymbolTable
 70
2
  0
VPORT
  5
1F4
100
AcDbSymbolTableRecord
100
AcDbViewportTableRecord
  2
*ACTIVE
 70
0
 10
0.0
 20
0.0
 11
1.0
 21
1.0
 12
105.0
 22
148.5
 13
0.0
 23
0.0
 14
1.0
 24
1.0
 15
0.0
 25
0.0
 16
0.0
 26
0.0
 36
1.0
 17
0.0
 27
0.0
 37
0.0
 40
297.0
 41
0.7070707071
 42
50.0
 43
0.0
 44
0.0
 50
0.0
 51
0.0
 71
0
 72
100
 73
1
 74
1
 75
0
 76
0
 77
0
 78
0
  0
ENDTAB
  0
TABLE
  2
LTYPE
  5
5
100
AcDbSymbolTable
 70
6
  0
LTYPE
  5
14
100
AcDbSymbolTableRecord
100
AcDbLinetypeTableRecord
  2
BYBLOCK
 70
0
  3

 72
65
 73
0
 40
0.0
  0
LTYPE
  5
15
100
AcDbSymbolTableRecord
100
AcDbLinetypeTableRecord
  2
BYLAYER
 70
0
  3

 72
65
 73
0
 40
0.0
  0
LTYPE
  5
16
100
AcDbSymbolTableRecord
100
AcDbLinetypeTableRecord
  2
CONTINUOUS
 70
64
  3
Solid line
 72
65
 73
0
 40
0.0
  0
LTYPE
  5
1F5
100
AcDbSymbolTableRecord
100
AcDbLinetypeTableRecord
  2
CENTER
 70
64
  3
____ _ ____ _ ____ _ ____ _ ____ _ ____ _ ____
 72
65
 73
4
 40
0.6
 49
0.375
 74
0
 49
-0.075
 74
0
 49
0.075
 74
0
 49
-0.075
 74
0
  0
LTYPE
  5
1F6
100
AcDbSymbolTableRecord
100
AcDbLinetypeTableRecord
  2
HIDDEN
 70
64
  3
- - - - - - - - - - - - - - - - - - - -
 72
65
 73
2
 40
0.2
 49
0.1
 74
0
 49
-0.1
 74
0
  0
LTYPE
  5
1F7
100
AcDbSymbolTableRecord
100
AcDbLinetypeTableRecord
  2
PHANTOM
 70
64
  3
_____ _ _ _____ _ _ _____ _ _ _____
 72
65
 73
6
 40
0.8
 49
0.45
 74
0
 49
-0.05
 74
0
 49
0.1
 74
0
 49
-0.05
 74
0
 49
0.1
 74
0
 49
-0.05
 74
0
  0
LTYPE
  5
1F8
100
AcDbSymbolTableRecord
100
AcDbLinetypeTableRecord
  2
DOT
 70
64
  3
. . . . . . . . . . . . . . . . . . . .
 72
65
 73
2
 40
0.2
 49
0.1
 74
0
 49
-0.1
 74
0
  0
LTYPE
  5
1F9
100
AcDbSymbolTableRecord
100
AcDbLinetypeTableRecord
  2
DASHED
 70
64
  3
- - - - - - - - - - - - - - - - - - - -
 72
65
 73
2
 40
0.2
 49
0.1
 74
0
 49
-0.1
 74
0
  0
ENDTAB
  0
TABLE
  2
LAYER
  5
2
100
AcDbSymbolTable
 70
36
  0
LAYER
  5
10
100
AcDbSymbolTableRecord
100
AcDbLayerTableRecord
  2
0
 70
0
 62
7
  6
CONTINUOUS
370
-3
390
F
  0
LAYER
  5
1FA
100
AcDbSymbolTableRecord
100
AcDbLayerTableRecord
  2
DEFAULT_1
 70
0
 62
7
  6
CENTER
370
-3
390
F
  0
LAYER
  5
1FB
100
AcDbSymbolTableRecord
100
AcDbLayerTableRecord
  2
DEFAULT_2
 70
0
 62
7
  6
HIDDEN
370
-3
390
F
  0
LAYER
  5
1FC
100
AcDbSymbolTableRecord
100
AcDbLayerTableRecord
  2
DEFAULT_3
 70
0
 62
7
  6
PHANTOM
370
-3
390
F
  0
LAYER
  5
1FD
100
AcDbSymbolTableRecord
100
AcDbLayerTableRecord
  2
ASSI
 70
0
 62
7
  6
CONTINUOUS
370
-3
390
F
  0
LAYER
  5
1FE
100
AcDbSymbolTableRecord
100
AcDbLayerTableRecord
  2
COLOR5
 70
0
 62
7
  6
CONTINUOUS
370
-3
390
F
  0
LAYER
  5
1FF
100
AcDbSymbolTableRecord
100
AcDbLayerTableRecord
  2
COORDINATE
 70
0
 62
7
  6
CONTINUOUS
370
-3
390
F
  0
LAYER
  5
200
100
AcDbSymbolTableRecord
100
AcDbLayerTableRecord
  2
COORD_ORIGINE
 70
0
 62
7
  6
CONTINUOUS
370
-3
390
F
  0
LAYER
  5
201
100
AcDbSymbolTableRecord
100
AcDbLayerTableRecord
  2
COPY_PUBLISH
 70
0
 62
7
  6
CONTINUOUS
370
-3
390
F
  0
LAYER
  5
202
100
AcDbSymbolTableRecord
100
AcDbLayerTableRecord
  2
COSMETICI
 70
0
 62
7
  6
CONTINUOUS
370
-3
390
F
  0
LAYER
  5
203
100
AcDbSymbolTableRecord
100
AcDbLayerTableRecord
  2
CURVE
 70
0
 62
7
  6
CONTINUOUS
370
-3
390
F
  0
LAYER
  5
204
100
AcDbSymbolTableRecord
100
AcDbLayerTableRecord
  2
DRAFT
 70
0
 62
7
  6
CONTINUOUS
370
-3
390
F
  0
LAYER
  5
205
100
AcDbSymbolTableRecord
100
AcDbLayerTableRecord
  2
IMPORT_IGES
 70
0
 62
7
  6
CONTINUOUS
370
-3
390
F
  0
LAYER
  5
206
100
AcDbSymbolTableRecord
100
AcDbLayerTableRecord
  2
NOTE
 70
0
 62
7
  6
CONTINUOUS
370
-3
390
F
  0
LAYER
  5
207
100
AcDbSymbolTableRecord
100
AcDbLayerTableRecord
  2
PIANI
 70
0
 62
7
  6
CONTINUOUS
370
-3
390
F
  0
LAYER
  5
208
100
AcDbSymbolTableRecord
100
AcDbLayerTableRecord
  2
PIANI_ORIGINE
 70
0
 62
7
  6
CONTINUOUS
370
-3
390
F
  0
LAYER
  5
209
100
AcDbSymbolTableRecord
100
AcDbLayerTableRecord
  2
PUNTI
 70
0
 62
7
  6
CONTINUOUS
370
-3
390
F
  0
LAYER
  5
20A
100
AcDbSymbolTableRecord
100
AcDbLayerTableRecord
  2
RACCORDO
 70
0
 62
7
  6
CONTINUOUS
370
-3
390
F
  0
LAYER
  5
20B
100
AcDbSymbolTableRecord
100
AcDbLayerTableRecord
  2
SIMBOLI
 70
0
 62
7
  6
CONTINUOUS
370
-3
390
F
  0
LAYER
  5
20C
100
AcDbSymbolTableRecord
100
AcDbLayerTableRecord
  2
SMUSSO
 70
0
 62
7
  6
CONTINUOUS
370
-3
390
F
  0
LAYER
  5
20D
100
AcDbSymbolTableRecord
100
AcDbLayerTableRecord
  2
SNAPLINE
 70
0
 62
7
  6
CONTINUOUS
370
-3
390
F
  0
LAYER
  5
20E
100
AcDbSymbolTableRecord
100
AcDbLayerTableRecord
  2
SUPERFICI
 70
0
 62
7
  6
CONTINUOUS
370
-3
390
F
  0
LAYER
  5
20F
100
AcDbSymbolTableRecord
100
AcDbLayerTableRecord
  2
TRASH
 70
0
 62
7
  6
CONTINUOUS
370
-3
390
F
  0
ENDTAB
  0
TABLE
  2
STYLE
  5
3
100
AcDbSymbolTable
 70
1
  0
STYLE
  5
11
100
AcDbSymbolTableRecord
100
AcDbTextStyleTableRecord
  2
STANDARD
 70
0
 40
0.0
 41
0.8
 50
0.0
 71
0
 42
0.2
  3
txt
  4

  0
STYLE
  5
210
100
AcDbSymbolTableRecord
100
AcDbTextStyleTableRecord
  2
TEXTSTYLE_1
 70
0
 40
0.0
 41
0.8
 50
0.0
 71
0
 42
0.2
  3
gdt
  4

  0
ENDTAB
  0
TABLE
  2
VIEW
  5
6
100
AcDbSymbolTable
 70
0
  0
ENDTAB
  0
TABLE
  2
UCS
  5
7
100
AcDbSymbolTable
 70
0
  0
ENDTAB
  0
TABLE
  2
APPID
  5
9
100
AcDbSymbolTable
 70
1
  0
APPID
  5
211
100
AcDbSymbolTableRecord
100
AcDbRegAppTableRecord
  2
ACAD
 70
0
  0
ENDTAB
  0
TABLE
  2
BLOCK_RECORD
  5
1
100
AcDbSymbolTable
 70
0
  0
BLOCK_RECORD
  5
212
100
AcDbSymbolTableRecord
100
AcDbBlockTableRecord
  2
*Model_Space
  0
BLOCK_RECORD
  5
213
100
AcDbSymbolTableRecord
100
AcDbBlockTableRecord
  2
*Paper_Space
  0
BLOCK_RECORD
  5
214
100
AcDbSymbolTableRecord
100
AcDbBlockTableRecord
  2
_FILLED
  0
ENDTAB
  0
TABLE
  2
DIMSTYLE
  5
A
100
AcDbSymbolTable
 70
1
100
AcDbDimStyleTable
 71
0
  0
DIMSTYLE
105
215
100
AcDbSymbolTableRecord
100
AcDbDimStyleTableRecord
  2
STANDARD
 70
0
  3

  4

 40
1.0
 41
3.0
 42
0.5
 43
0.38
 44
1.5
 45
0.0
 46
0.0
 47
0.01
 48
0.01
140
3.0
141
0.09
142
0.0
143
25.4
144
1.0
145
0.0
146
1.0
147
0.625
 71
1.0
 72
0.0
 73
0
 74
0
 75
0
 76
0
 77
1
 78
8
 79
2
170
0
171
1
172
0
173
0
174
0
175
0
176
0
177
0
178
0
270
2
179
2
271
2
272
2
273
2
274
2
275
0
280
0
281
0
282
0
283
1
284
8
285
0
286
0
287
3
288
0
340
11
278
44
341
214
342
214
343
214
344
214
  0
ENDTAB
  0
ENDSEC
  0
SECTION
  2
BLOCKS
  0
BLOCK
  5
20
100
AcDbEntity
  8
0
100
AcDbBlockBegin
  2
*Model_Space
 70
0
 10
0.0
 20
0.0
 30
0.0
  3
*Model_Space
  1

  0
ENDBLK
  5
21
100
AcDbEntity
  8
0
100
AcDbBlockEnd
  0
BLOCK
  5
1C
100
AcDbEntity
  8
0
100
AcDbBlockBegin
  2
*Paper_Space
 70
0
 10
0.0
 20
0.0
 30
0.0
  3
*Paper_Space
  1

  0
ENDBLK
  5
1D
100
AcDbEntity
  8
0
100
AcDbBlockEnd
  0
BLOCK
  5
216
100
AcDbEntity
  8
0
100
AcDbBlockBegin
  2
_FILLED
 70
64
 10
0.0
 20
0.0
  3
_FILLED
  1

  0
SOLID
  5
217
100
AcDbEntity
  8
0
  6
BYBLOCK
 62
0
100
AcDbTrace
 10
0.0
 20
0.0
 11
-1.0
 21
0.3166666667
 12
-1.0
 22
-0.3166666667
 13
-1.0
 23
-0.3166666667
  0
ENDBLK
  5
218
100
AcDbEntity
  8
0
  6
BYBLOCK
 62
0
100
AcDbBlockEnd
  0
ENDSEC
  0
SECTION
  2
ENTITIES
  0
LINE
  5
219
100
AcDbEntity
  8
ASSI
100
AcDbLine
 62
7
  6
CONTINUOUS
 10
-40.2343758495
 20
191.6280556785
 11
-44.4770165366
 21
189.1784081185
  0
LINE
  5
21A
100
AcDbEntity
  8
ASSI
100
AcDbLine
 62
7
  6
CONTINUOUS
 10
-28.9206673505
 20
195.4254331181
 11
-33.1633080376
 21
192.9757855582
  0
LINE
  5
21B
100
AcDbEntity
  8
RACCORDO
100
AcDbLine
 62
250
  6
CONTINUOUS
 10
-34.4494001165
 20
188.1762509661
 11
-37.3364109371
 21
186.509327101
  0
LWPOLYLINE
  5
21C
100
AcDbEntity
  8
RACCORDO
100
AcDbPolyline
 62
7
  6
CONTINUOUS
 90
19
 70
0
 10
-35.4502296856
 20
186.5540827345
 10
-35.5172976106
 20
186.5173933592
 10
-35.6069749446
 20
186.4742884649
 10
-35.6993102588
 20
186.4364353253
 10
-35.7943129687
 20
186.4038525441
 10
-35.8919736588
 20
186.3765215177
 10
-35.99194679
 20
186.3545389476
 10
-36.0942405539
 20
186.3379237799
 10
-36.1988467589
 20
186.3266570686
 10
-36.3053952917
 20
186.320778677
 10
-36.4138930327
 20
186.3203076924
 10
-36.5243331014
 20
186.3252250275
 10
-36.6363247434
 20
186.3355132841
 10
-36.7498734549
 20
186.3511914878
 10
-36.8649737397
 20
186.3722406129
 10
-36.9812183546
 20
186.3985861842
 10
-37.0984715519
 20
186.4302033769
 10
-37.2168690795
 20
186.4671170158
 10
-37.3364109371
 20
186.509327101
  0
LINE
  5
21D
100
AcDbEntity
  8
RACCORDO
100
AcDbLine
 62
250
  6
CONTINUOUS
 10
-29.5924187927
 20
166.8675272788
 11
-28.8853461815
 21
167.2757821428
  0
LWPOLYLINE
  5
21E
100
AcDbEntity
  8
RACCORDO
100
AcDbPolyline
 62
7
  6
CONTINUOUS
 90
16
 70
0
 10
-29.3853361716
 20
167.3252641399
 10
-29.3584786734
 20
167.3391758268
 10
-29.3302773733
 20
167.3507041852
 10
-29.3009389492
 20
167.3597687997
 10
-29.2704540681
 20
167.3663494484
 10
-29.2388320632
 20
167.3704663532
 10
-29.2063317724
 20
167.3720858156
 10
-29.1729459872
 20
167.3711873372
 10
-29.1386819161
 20
167.3677914165
 10
-29.1038200237
 20
167.3619258503
 10
-29.0683554031
 20
167.3535703684
 10
-29.0322929611
 20
167.342745241
 10
-28.9959278825
 20
167.3295390759
 10
-28.9593585621
 20
167.3139814091
 10
-28.9224866051
 20
167.2960427045
 10
-28.8853120115
 20
167.2757229623
  0
LWPOLYLINE
  5
21F
100
AcDbEntity
  8
RACCORDO
100
AcDbPolyline
 62
7
  6
CONTINUOUS
 90
13
 70
0
 10
31.7834038032
 20
-166.870442864
 10
31.7300694744
 20
-166.8657846882
 10
31.6147655687
 20
-166.8503162382
 10
31.4981316521
 20
-166.8293534125
 10
31.3801628675
 20
-166.8028761454
 10
31.2608640719
 20
-166.7709045027
 10
31.1406704233
 20
-166.7335551051
 10
31.0195786536
 20
-166.6908083127
 10
30.8975920309
 20
-166.6426837653
 10
30.775155517
 20
-166.5893570036
 10
30.6524174328
 20
-166.5308865409
 10
30.5292294574
 20
-166.4672138639
 10
30.405591591
 20
-166.3983389724
  0
LINE
  5
220
100
AcDbEntity
  8
RACCORDO
100
AcDbLine
 62
7
  6
CONTINUOUS
 10
33.09377025
 20
-188.9589746609
 11
40.2343758495
 21
-191.6280556785
  0
LWPOLYLINE
  5
221
100
AcDbEntity
  8
RACCORDO
100
AcDbPolyline
 62
7
  6
CONTINUOUS
 90
19
 70
0
 10
-30.0065840348
 20
153.0926466971
 10
-29.9639969005
 20
153.1194389183
 10
-29.9232625879
 20
153.1495519108
 10
-29.8846613014
 20
153.1827863564
 10
-29.8482052068
 20
153.219160058
 10
-29.8138821383
 20
153.2586552126
 10
-29.7818874836
 20
153.3010469901
 10
-29.7522345227
 20
153.3463519111
 10
-29.7249099756
 20
153.3945534549
 10
-29.7000693902
 20
153.4453772293
 10
-29.6777269334
 20
153.4988381899
 10
-29.6578684382
 20
153.554921381
 10
-29.6406069512
 20
153.6133075434
 10
-29.6259572843
 20
153.6740098117
 10
-29.6139046254
 20
153.7370150513
 10
-29.6045175857
 20
153.8019645982
 10
-29.5978190355
 20
153.8687388979
 10
-29.5937861045
 20
153.9374575049
 10
-29.5924187927
 20
154.0081204193
  0
LINE
  5
222
100
AcDbEntity
  8
RACCORDO
100
AcDbLine
 62
250
  6
CONTINUOUS
 10
-36.0624458405
 20
152.0285410107
 11
-32.5270827849
 21
154.0698153305
  0
LINE
  5
223
100
AcDbEntity
  8
RACCORDO
100
AcDbLine
 62
250
  6
CONTINUOUS
 10
-27.4710984491
 20
155.2329441993
 11
-29.5924187927
 21
154.0081204193
  0
LINE
  5
224
100
AcDbEntity
  8
RACCORDO
100
AcDbLine
 62
7
  6
CONTINUOUS
 10
-27.8852636912
 20
154.317470477
 11
-30.0065840348
 21
153.092646697
  0
LWPOLYLINE
  5
225
100
AcDbEntity
  8
RACCORDO
100
AcDbPolyline
 62
7
  6
CONTINUOUS
 90
24
 70
0
 10
-35.027025695
 20
154.3172131231
 10
-34.9828586023
 20
154.3418324077
 10
-34.8926458809
 20
154.3868914818
 10
-34.7995426999
 20
154.4265749631
 10
-34.7035595772
 20
154.4609024121
 10
-34.6050466235
 20
154.489748615
 10
-34.5039945997
 20
154.5130935538
 10
-34.400412745
 20
154.5309572466
 10
-34.2946788875
 20
154.5432745331
 10
-34.1867851681
 20
154.5500251575
 10
-34.0767394459
 20
154.5512293757
 10
-33.964943127
 20
154.5468827951
 10
-33.851389818
 20
154.5369651439
 10
-33.7360859123
 20
154.5214966938
 10
-33.6194519957
 20
154.5005338682
 10
-33.501483211
 20
154.4740566011
 10
-33.3821844155
 20
154.4420849584
 10
-33.2619907669
 20
154.4047355608
 10
-33.1408989972
 20
154.3619887683
 10
-33.0189123744
 20
154.3138642209
 10
-32.8964758606
 20
154.2605374592
 10
-32.7737377763
 20
154.2020669965
 10
-32.650549801
 20
154.1383943195
 10
-32.5269119346
 20
154.0695194281
  0
LWPOLYLINE
  5
226
100
AcDbEntity
  8
ASSI
100
AcDbPolyline
 62
7
  6
CONTINUOUS
 90
14
 70
0
 10
19.301991306
 20
-164.488155271
 10
19.3562945561
 20
-164.5049940818
 10
19.4097024913
 20
-164.5184494898
 10
19.4622151115
 20
-164.5285214951
 10
19.513947145
 20
-164.5352175736
 10
19.5647838635
 20
-164.5385302493
 10
19.6143810827
 20
-164.5384370942
 10
19.6627303915
 20
-164.5349149972
 10
19.709840201
 20
-164.5279870694
 10
19.7553915592
 20
-164.5177002154
 10
19.7993738909
 20
-164.5040316427
 10
19.8417977714
 20
-164.4870041439
 10
19.8823759743
 20
-164.4667330018
 10
19.8914303754
 20
-164.4616171551
  0
LWPOLYLINE
  5
227
100
AcDbEntity
  8
ASSI
100
AcDbPolyline
 62
7
  6
CONTINUOUS
 90
14
 70
0
 10
16.4069011439
 20
-160.7547719635
 10
16.3525978938
 20
-160.7379331527
 10
16.2991899586
 20
-160.7244777446
 10
16.2466773384
 20
-160.7144057394
 10
16.1949453049
 20
-160.7077096609
 10
16.1441085864
 20
-160.7043969851
 10
16.0945113672
 20
-160.7044901402
 10
16.0461620584
 20
-160.7080122372
 10
15.9990522489
 20
-160.7149401651
 10
15.9535008908
 20
-160.725227019
 10
15.909518559
 20
-160.7388955917
 10
15.8670946785
 20
-160.7559230906
 10
15.8265164756
 20
-160.7761942326
 10
15.8174620745
 20
-160.7813100793
  0
LINE
  5
228
100
AcDbEntity
  8
ASSI
100
AcDbLine
 62
7
  6
CONTINUOUS
 10
16.8781014482
 20
-163.6656837692
 11
19.301991306
 21
-164.488155271
  0
LINE
  5
229
100
AcDbEntity
  8
ASSI
100
AcDbLine
 62
7
  6
CONTINUOUS
 10
18.9994217918
 20
-162.4408599892
 11
20.0091557231
 21
-162.7834817384
  0
LINE
  5
22A
100
AcDbEntity
  8
ASSI
100
AcDbLine
 62
7
  6
CONTINUOUS
 10
18.8307910017
 20
-161.5772434652
 11
16.4069011439
 21
-160.7547719635
  0
LWPOLYLINE
  5
22B
100
AcDbEntity
  8
CURVE
100
AcDbPolyline
 62
250
  6
CONTINUOUS
 90
9
 70
0
 10
35.2443400539
 20
-187.72225591
 10
35.6013646679
 20
-187.91256066
 10
35.9483392587
 20
-188.0144931027
 10
36.2763626687
 20
-188.0232320747
 10
36.5609532222
 20
-187.9381253523
 10
36.7998608064
 20
-187.759845831
 10
36.9752548096
 20
-187.501699212
 10
37.0857484805
 20
-187.1657265293
 10
37.1231060123
 20
-186.7698840317
  0
LWPOLYLINE
  5
22C
100
AcDbEntity
  8
ASSI
100
AcDbPolyline
 62
7
  6
CONTINUOUS
 90
55
 70
0
 10
-19.8914303754
 20
153.3576213907
 10
-19.9210959755
 20
153.3392004417
 10
-19.9579702991
 20
153.3124200027
 10
-19.9927492916
 20
153.2825772344
 10
-20.0254187347
 20
153.2496513569
 10
-20.0559928466
 20
153.2136631502
 10
-20.0842646286
 20
153.1748562686
 10
-20.1102184579
 20
153.1332115852
 10
-20.1338699574
 20
153.088748227
 10
-20.155058997
 20
153.0417672281
 10
-20.1737688674
 20
152.9922515046
 10
-20.190016278
 20
152.9402181404
 10
-20.2036912276
 20
152.886019422
 10
-20.2147762601
 20
152.8296406556
 10
-20.2232888315
 20
152.7710965349
 10
-20.2291713083
 20
152.7107834265
 10
-20.2324058436
 20
152.6486893264
 10
-20.2330102844
 20
152.5848262386
 10
-20.2309805383
 20
152.5196265411
 10
-20.2262987306
 20
152.4530811642
 10
-20.2189827361
 20
152.3851991775
 10
-20.2090820868
 20
152.3164401689
 10
-20.1965792442
 20
152.2467981869
 10
-20.1814917469
 20
152.176279183
 10
-20.1639217432
 20
152.1053605983
 10
-20.1438523875
 20
152.0340397213
 10
-20.1213005254
 20
151.9623192636
 10
-20.0964188418
 20
151.8906848007
 10
-20.0691915272
 20
151.8191369161
 10
-20.0396343912
 20
151.7476750263
 10
-20.007947547
 20
151.6767829563
 10
-19.9741165432
 20
151.6064645727
 10
-19.9381558313
 20
151.5367160088
 10
-19.9003088793
 20
151.4680094898
 10
-19.8605628879
 20
151.4003520867
 10
-19.8189306565
 20
151.3337367284
 10
-19.7756940515
 20
151.268614427
 10
-19.7308421863
 20
151.2049953139
 10
-19.6843859475
 20
151.1428692578
 10
-19.6366398622
 20
151.0826568763
 10
-19.5875951778
 20
151.024371155
 10
-19.5372606468
 20
150.9679991083
 10
-19.4859770536
 20
150.9139223971
 10
-19.4337379584
 20
150.8621565968
 10
-19.380549801
 20
150.8126861319
 10
-19.3267726861
 20
150.7658459369
 10
-19.2724026173
 20
150.72165386
 10
-19.2174435911
 20
150.6800920529
 10
-19.1622677015
 20
150.6414419054
 10
-19.106873477
 20
150.6057231751
 10
-19.0512623892
 20
150.5729161044
 10
-18.9958109469
 20
150.5432428099
 10
-18.940644653
 20
150.5167773306
 10
-18.8856380046
 20
150.4934456276
 10
-18.8307910017
 20
150.4732477008
  0
LWPOLYLINE
  5
22D
100
AcDbEntity
  8
ASSI
100
AcDbPolyline
 62
7
  6
CONTINUOUS
 90
55
 70
0
 10
-15.8174620745
 20
149.677314315
 10
-15.7877964744
 20
149.695735264
 10
-15.7509221508
 20
149.722515703
 10
-15.7161431583
 20
149.7523584712
 10
-15.6834737152
 20
149.7852843487
 10
-15.6528996033
 20
149.8212725555
 10
-15.6246278213
 20
149.8600794371
 10
-15.598673992
 20
149.9017241204
 10
-15.5750224926
 20
149.9461874787
 10
-15.5538334529
 20
149.9931684776
 10
-15.5351235825
 20
150.0426842011
 10
-15.5188761719
 20
150.0947175652
 10
-15.5052012223
 20
150.1489162837
 10
-15.4941161899
 20
150.2052950501
 10
-15.4856036185
 20
150.2638391708
 10
-15.4797211416
 20
150.3241522792
 10
-15.4764866063
 20
150.3862463793
 10
-15.4758821655
 20
150.4501094671
 10
-15.4779119116
 20
150.5153091646
 10
-15.4825937193
 20
150.5818545415
 10
-15.4899097138
 20
150.6497365282
 10
-15.4998103631
 20
150.7184955368
 10
-15.5123132057
 20
150.7881375188
 10
-15.527400703
 20
150.8586565227
 10
-15.5449707067
 20
150.9295751074
 10
-15.5650400624
 20
151.0008959844
 10
-15.5875919245
 20
151.0726164421
 10
-15.6124736081
 20
151.144250905
 10
-15.6397009227
 20
151.2157987896
 10
-15.6692580587
 20
151.2872606794
 10
-15.7009449029
 20
151.3581527494
 10
-15.7347759067
 20
151.428471133
 10
-15.7707366187
 20
151.4982196968
 10
-15.8085835706
 20
151.5669262158
 10
-15.848329562
 20
151.634583619
 10
-15.8899617935
 20
151.7011989773
 10
-15.9331983984
 20
151.7663212787
 10
-15.9780502636
 20
151.8299403917
 10
-16.0245065024
 20
151.8920664479
 10
-16.0722525877
 20
151.9522788294
 10
-16.1212972722
 20
152.0105645507
 10
-16.1716318032
 20
152.0669365974
 10
-16.2229153963
 20
152.1210133086
 10
-16.2751544916
 20
152.1727791089
 10
-16.3283426489
 20
152.2222495738
 10
-16.3821197638
 20
152.2690897688
 10
-16.4364898326
 20
152.3132818457
 10
-16.4914488588
 20
152.3548436528
 10
-16.5466247484
 20
152.3934938003
 10
-16.6020189729
 20
152.4292125306
 10
-16.6576300607
 20
152.4620196013
 10
-16.713081503
 20
152.4916928958
 10
-16.7682477969
 20
152.5181583751
 10
-16.8232544453
 20
152.5414900781
 10
-16.8781014482
 20
152.5616880048
  0
LINE
  5
22E
100
AcDbEntity
  8
ASSI
100
AcDbLine
 62
250
  6
CONTINUOUS
 10
-16.7094706582
 20
151.6980714808
 11
-18.8307910017
 21
150.4732477008
  0
LINE
  5
22F
100
AcDbEntity
  8
ASSI
100
AcDbLine
 62
250
  6
CONTINUOUS
 10
-15.5002129875
 20
150.1742865771
 11
-16.4069011439
 21
149.6507761991
  0
LWPOLYLINE
  5
230
100
AcDbEntity
  8
0
100
AcDbPolyline
 62
7
  6
CONTINUOUS
 90
8
 70
0
 10
0.1873851697
 20
-143.6141168551
 10
-0.0963010672
 20
-143.5238255582
 10
-0.3609741054
 20
-143.5099440348
 10
-0.5991017215
 20
-143.574781427
 10
-0.7927094132
 20
-143.7134436371
 10
-0.9398741614
 20
-143.9245533951
 10
-1.0294875818
 20
-144.192175578
 10
-1.0606601718
 20
-144.515140331
  0
LWPOLYLINE
  5
231
100
AcDbEntity
  8
RACCORDO
100
AcDbPolyline
 62
7
  6
CONTINUOUS
 90
19
 70
0
 10
26.7639916679
 20
-171.2359588991
 10
26.7021100954
 20
-171.2018080396
 10
26.6405794583
 20
-171.1709376985
 10
26.5793997566
 20
-171.1433478758
 10
26.5184560134
 20
-171.1189985929
 10
26.4578632057
 20
-171.0979298284
 10
26.3979662641
 20
-171.0802615184
 10
26.3387691577
 20
-171.0660130573
 10
26.2802679174
 20
-171.0551650507
 10
26.2227955678
 20
-171.047779252
 10
26.1663579769
 20
-171.0438754077
 10
26.1109492766
 20
-171.0434337714
 10
26.0568848867
 20
-171.0464568571
 10
26.0041724743
 20
-171.0529644256
 10
25.9528043723
 20
-171.0629367161
 10
25.9030729988
 20
-171.0763169603
 10
25.8549876888
 20
-171.0931245952
 10
25.8085391074
 20
-171.1133401839
 10
25.7639433476
 20
-171.1368765438
  0
LINE
  5
232
100
AcDbEntity
  8
RACCORDO
100
AcDbLine
 62
7
  6
CONTINUOUS
 10
-28.8853120115
 20
-143.5953349266
 11
24.6426713244
 21
-174.5017216415
  0
LINE
  5
233
100
AcDbEntity
  8
RACCORDO
100
AcDbLine
 62
7
  6
CONTINUOUS
 10
-26.7639916679
 20
-142.3705111466
 11
25.3497781055
 21
-172.4603486749
  0
LINE
  5
234
100
AcDbEntity
  8
RACCORDO
100
AcDbLine
 62
7
  6
CONTINUOUS
 10
26.7639916679
 20
-171.2359588991
 11
28.8853120115
 21
-172.4607826791
  0
LINE
  5
235
100
AcDbEntity
  8
RACCORDO
100
AcDbLine
 62
7
  6
CONTINUOUS
 10
28.8853120115
 20
-170.0111351191
 11
30.2995255738
 21
-170.8276843058
  0
LWPOLYLINE
  5
236
100
AcDbEntity
  8
RACCORDO
100
AcDbPolyline
 62
7
  6
CONTINUOUS
 90
31
 70
0
 10
-28.8853120115
 20
-143.5953349266
 10
-28.9224866051
 20
-143.5727263799
 10
-28.9593585621
 20
-143.5480862727
 10
-28.9959278825
 20
-143.521414605
 10
-29.0322929611
 20
-143.4926272888
 10
-29.0683554031
 20
-143.4618084122
 10
-29.1038200237
 20
-143.4292102392
 10
-29.1386819161
 20
-143.3948181658
 10
-29.1729459872
 20
-143.3586467962
 10
-29.2063317724
 20
-143.3209922066
 10
-29.2388320632
 20
-143.281842223
 10
-29.2704540681
 20
-143.2412090196
 10
-29.3009389492
 20
-143.1994251943
 10
-29.3302773733
 20
-143.1564813031
 10
-29.3584786734
 20
-143.1123867901
 10
-29.3853120115
 20
-143.0675025856
 10
-29.4107661594
 20
-143.0218222079
 10
-29.4348523452
 20
-142.9753521387
 10
-29.4573734143
 20
-142.928472753
 10
-29.4783165206
 20
-142.8811806914
 10
-29.4976945101
 20
-142.8334793132
 10
-29.5153487668
 20
-142.7857590725
 10
-29.5312651426
 20
-142.7380198143
 10
-29.5454577855
 20
-142.6902616934
 10
-29.5578105234
 20
-142.6428756283
 10
-29.5683082548
 20
-142.5958646726
 10
-29.5769660811
 20
-142.5492257725
 10
-29.5837131348
 20
-142.5033406852
 10
-29.5885257934
 20
-142.4583366629
 10
-29.5914276793
 20
-142.4140864533
 10
-29.5924187927
 20
-142.3705900565
  0
LINE
  5
237
100
AcDbEntity
  8
RACCORDO
100
AcDbLine
 62
7
  6
CONTINUOUS
 10
-44.4770165366
 20
-142.7167593978
 11
-37.3364109371
 21
-148.2934707409
  0
LWPOLYLINE
  5
238
100
AcDbEntity
  8
RACCORDO
100
AcDbPolyline
 62
7
  6
CONTINUOUS
 90
34
 70
0
 10
-37.3364109371
 20
-148.2934707409
 10
-37.2168690795
 20
-148.3893045966
 10
-37.0984715519
 20
-148.4891134547
 10
-36.9812183546
 20
-148.5928973154
 10
-36.8649737397
 20
-148.7007881115
 10
-36.7498734549
 20
-148.8126539102
 10
-36.6363247434
 20
-148.9280989123
 10
-36.5243331014
 20
-149.0471357968
 10
-36.4138930327
 20
-149.1697518847
 10
-36.3053952917
 20
-149.295513341
 10
-36.1988467589
 20
-149.4244313076
 10
-36.0942405539
 20
-149.5564946424
 10
-35.99194679
 20
-149.6912360845
 10
-35.8919736588
 20
-149.8286651207
 10
-35.7943129687
 20
-149.968772264
 10
-35.6993102588
 20
-150.1110617933
 10
-35.6069749446
 20
-150.2555414392
 10
-35.5172976106
 20
-150.402203471
 10
-35.4305955495
 20
-150.5505289751
 10
-35.3468793007
 20
-150.7005238441
 10
-35.2661383247
 20
-150.8521821854
 10
-35.1886582961
 20
-151.0049674078
 10
-35.1144507661
 20
-151.1588835029
 10
-35.0435041833
 20
-151.313926479
 10
-34.9760695682
 20
-151.4695477694
 10
-34.9121593612
 20
-151.6257494228
 10
-34.8517611217
 20
-151.7825293904
 10
-34.7950885484
 20
-151.9393329598
 10
-34.7421548388
 20
-152.0961602148
 10
-34.6929467953
 20
-152.2530110716
 10
-34.6476385239
 20
-152.409330567
 10
-34.6062880597
 20
-152.5649337132
 10
-34.5688373676
 20
-152.720005498
 10
-34.5352864475
 20
-152.8745459214
  0
LWPOLYLINE
  5
239
100
AcDbEntity
  8
ASSI
100
AcDbPolyline
 62
7
  6
CONTINUOUS
 90
46
 70
0
 10
-33.1633080376
 20
-159.578923824
 10
-31.8443560287
 20
-160.9267458224
 10
-30.5178544057
 20
-162.2531179481
 10
-29.1838031688
 20
-163.558040201
 10
-27.8418259458
 20
-164.8418646474
 10
-26.4922991088
 20
-166.1042392211
 10
-25.1363517744
 20
-167.3441077238
 10
-23.7739785691
 20
-168.56145132
 10
-22.4051848664
 20
-169.7562888451
 10
-21.0311159028
 20
-170.9276206076
 10
-19.6517672634
 20
-172.0754269352
 10
-18.2671433632
 20
-173.1997275001
 10
-16.8784026835
 20
-174.2995816273
 10
-15.4855417789
 20
-175.3749688572
 10
-14.0885640948
 20
-176.4259096493
 10
-12.6886384486
 20
-177.4515247069
 10
-11.2857623732
 20
-178.4517928346
 10
-9.8799383358
 20
-179.4267352278
 10
-8.4723425553
 20
-180.3755361757
 10
-7.062973549
 20
-181.2981738003
 10
-5.6518327996
 20
-182.1946699796
 10
-4.2401009746
 20
-183.0642746369
 10
-2.8277775791
 20
-183.9069652665
 10
-1.414863108
 20
-184.7227643742
 10
-0.0025397126
 20
-185.5109894005
 10
1.4091921125
 20
-186.2716172684
 10
2.8203328619
 20
-187.004671055
 10
4.2297018682
 20
-187.7095374318
 10
5.6372976487
 20
-188.3861928086
 10
7.0431216861
 20
-189.0346607756
 10
8.4459977615
 20
-189.6543987754
 10
9.8459234076
 20
-190.2453827636
 10
11.2429010918
 20
-190.8076367846
 10
12.6357619964
 20
-191.3406904141
 10
14.0245026761
 20
-191.8445192139
 10
15.4091265763
 20
-192.3191476221
 10
16.7884752157
 20
-192.7641785286
 10
18.1625441793
 20
-193.179587163
 10
19.531337882
 20
-193.5653982958
 10
20.8937110873
 20
-193.921289128
 10
22.2496584217
 20
-194.2472346191
 10
23.5991852587
 20
-194.5432598096
 10
24.9411624817
 20
-194.8091170225
 10
26.2752137186
 20
-195.0447236987
 10
27.6017153415
 20
-195.2501623972
 10
28.9206673505
 20
-195.4254331181
  0
LWPOLYLINE
  5
23A
100
AcDbEntity
  8
0
100
AcDbPolyline
 62
7
  6
CONTINUOUS
 90
14
 70
0
 10
1.4053723661
 20
144.326512738
 10
1.4259052666
 20
144.3389381455
 10
1.4655224715
 20
144.3663843524
 10
1.5030211648
 20
144.3971733775
 10
1.5383164
 20
144.4312354739
 10
1.571328222
 20
144.46849348
 10
1.6019818484
 20
144.5088629944
 10
1.6302078388
 20
144.5522525672
 10
1.6559422524
 20
144.598563907
 10
1.6791267924
 20
144.6476921037
 10
1.6997089384
 20
144.6995258662
 10
1.7176420651
 20
144.7539477743
 10
1.7328855484
 20
144.810834545
 10
1.7438530767
 20
144.862716594
  0
LINE
  5
23B
100
AcDbEntity
  8
ASSI
100
AcDbLine
 62
7
  6
CONTINUOUS
 10
33.1633080376
 20
159.578923824
 11
28.9206673505
 21
157.129276264
  0
LWPOLYLINE
  5
23C
100
AcDbEntity
  8
0
100
AcDbPolyline
 62
7
  6
CONTINUOUS
 90
14
 70
0
 10
-0.3447121944
 20
147.3575528286
 10
-0.3235991241
 20
147.3691686352
 10
-0.2800187291
 20
147.3897503953
 10
-0.2346026334
 20
147.4068260773
 10
-0.187453719
 20
147.4203569991
 10
-0.1386787935
 20
147.430312509
 10
-0.0883883476
 20
147.4366700545
 10
-0.0366963056
 20
147.4394152336
 10
0.0162802337
 20
147.4385418277
 10
0.0704212611
 20
147.4340518154
 10
0.12560413
 20
147.4259553679
 10
0.1817038334
 20
147.4142708263
 10
0.2385932873
 20
147.3990246598
 10
0.2882085193
 20
147.3828398817
  0
LWPOLYLINE
  5
23D
100
AcDbEntity
  8
RACCORDO
100
AcDbPolyline
 62
7
  6
CONTINUOUS
 90
19
 70
0
 10
-7.4246212025
 20
-137.2074157383
 10
-7.486502775
 20
-137.1732648787
 10
-7.5480334121
 20
-137.1423945376
 10
-7.6092131137
 20
-137.114804715
 10
-7.6701568569
 20
-137.090455432
 10
-7.7307496647
 20
-137.0693866675
 10
-7.7906466062
 20
-137.0517183576
 10
-7.8498437127
 20
-137.0374698964
 10
-7.908344953
 20
-137.0266218898
 10
-7.9658173026
 20
-137.0192360911
 10
-8.0222548935
 20
-137.0153322469
 10
-8.0776635937
 20
-137.0148906105
 10
-8.1317279836
 20
-137.0179136962
 10
-8.1844403961
 20
-137.0244212647
 10
-8.2358084981
 20
-137.0343935552
 10
-8.2855398716
 20
-137.0477737994
 10
-8.3336251816
 20
-137.0645814344
 10
-8.380073763
 20
-137.084797023
 10
-8.4246695227
 20
-137.1083333829
  0
LWPOLYLINE
  5
23E
100
AcDbEntity
  8
RACCORDO
100
AcDbPolyline
 62
7
  6
CONTINUOUS
 90
11
 70
0
 10
-10.2530483272
 20
-140.4729022961
 10
-10.1294104608
 20
-140.5417771876
 10
-10.0062224854
 20
-140.6054498646
 10
-9.8834844012
 20
-140.6639203272
 10
-9.7610478873
 20
-140.717247089
 10
-9.6390612646
 20
-140.7653716364
 10
-9.5179694949
 20
-140.8081184288
 10
-9.3977758463
 20
-140.8454678264
 10
-9.2784770508
 20
-140.8774394691
 10
-9.1605082661
 20
-140.9039167362
 10
-9.0498709193
 20
-140.9238017875
  0
LWPOLYLINE
  5
23F
100
AcDbEntity
  8
0
100
AcDbPolyline
 62
7
  6
CONTINUOUS
 90
39
 70
0
 10
-0.0001708411
 20
-143.4945644283
 10
-0.0370645026
 20
-143.47370869
 10
-0.1109990054
 20
-143.4345895057
 10
-0.1847379834
 20
-143.3991716513
 10
-0.2582824592
 20
-143.3674357711
 10
-0.3312464955
 20
-143.3395484046
 10
-0.4036270411
 20
-143.3155297828
 10
-0.4754271472
 20
-143.2953596747
 10
-0.5462700306
 20
-143.2791439263
 10
-0.6161506592
 20
-143.2669033252
 10
-0.6850740651
 20
-143.2586170838
 10
-0.7526785609
 20
-143.2543286856
 10
-0.8189572133
 20
-143.2540591467
 10
-0.8839169557
 20
-143.2577874511
 10
-0.9472169007
 20
-143.2654940337
 10
-1.008848323
 20
-143.2771998079
 10
-1.0688199479
 20
-143.2928838603
 10
-1.1268170641
 20
-143.3124638863
 10
-1.1828292919
 20
-143.3359603665
 10
-1.236867011
 20
-143.3633528202
 10
-1.2886466493
 20
-143.3944975009
 10
-1.3381563363
 20
-143.4294141335
 10
-1.3854079425
 20
-143.4680829931
 10
-1.430153507
 20
-143.5103011583
 10
-1.472379856
 20
-143.5560872872
 10
-1.5121001632
 20
-143.6054227217
 10
-1.5491059896
 20
-143.6580485657
 10
-1.5833830657
 20
-143.7139821163
 10
-1.614945661
 20
-143.7732060764
 10
-1.6436281454
 20
-143.8354096581
 10
-1.6694153786
 20
-143.9006085249
 10
-1.692322501
 20
-143.9687870134
 10
-1.7122293034
 20
-144.0395873453
 10
-1.7291200138
 20
-144.1130233032
 10
-1.7430104042
 20
-144.1890811046
 10
-1.7538275825
 20
-144.267361623
 10
-1.7615472514
 20
-144.3477318166
 10
-1.7661937082
 20
-144.4303247272
 10
-1.767766953
 20
-144.515140355
  0
LINE
  5
240
100
AcDbEntity
  8
RACCORDO
100
AcDbLine
 62
7
  6
CONTINUOUS
 10
-32.5269119346
 20
-132.5115477262
 11
-31.006632355
 21
-133.3893381019
  0
LINE
  5
241
100
AcDbEntity
  8
RACCORDO
100
AcDbLine
 62
7
  6
CONTINUOUS
 10
-30.405591591
 20
-131.2867239462
 11
-12.3743686708
 21
-141.6977260761
  0
LINE
  5
242
100
AcDbEntity
  8
RACCORDO
100
AcDbLine
 62
7
  6
CONTINUOUS
 10
12.3743686708
 20
-155.9873368426
 11
30.405591591
 21
-166.3983389724
  0
LINE
  5
243
100
AcDbEntity
  8
RACCORDO
100
AcDbLine
 62
7
  6
CONTINUOUS
 10
-28.2842712475
 20
-130.0619001663
 11
-10.2530483272
 21
-140.4729022961
  0
LINE
  5
244
100
AcDbEntity
  8
RACCORDO
100
AcDbLine
 62
7
  6
CONTINUOUS
 10
14.4956890143
 20
-154.7625130626
 11
31.8198051534
 21
-164.7652405991
  0
LINE
  5
245
100
AcDbEntity
  8
RACCORDO
100
AcDbLine
 62
7
  6
CONTINUOUS
 10
7.4246212025
 20
-145.7811821981
 11
-7.4246212025
 21
-137.2074157383
  0
LINE
  5
246
100
AcDbEntity
  8
RACCORDO
100
AcDbLine
 62
7
  6
CONTINUOUS
 10
9.545941546
 20
-144.5563584182
 11
-5.3033008589
 21
-135.9825919583
  0
LWPOLYLINE
  5
247
100
AcDbEntity
  8
RACCORDO
100
AcDbPolyline
 62
7
  6
CONTINUOUS
 90
46
 70
0
 10
-32.5269119346
 20
-132.5115477262
 10
-32.650549801
 20
-132.4376487086
 10
-32.7737377763
 20
-132.3590669996
 10
-32.8964758606
 20
-132.275802599
 10
-33.0189123744
 20
-132.1877427436
 10
-33.1408989972
 20
-132.0950001967
 10
-33.2619907669
 20
-131.9979132488
 10
-33.3821844155
 20
-131.8964660337
 10
-33.501483211
 20
-131.7906744177
 10
-33.6194519957
 20
-131.6809242892
 10
-33.7360859123
 20
-131.5672011916
 10
-33.851389818
 20
-131.4495195815
 10
-33.964943127
 20
-131.3283087179
 10
-34.0767394459
 20
-131.2035557116
 10
-34.1867851681
 20
-131.0752734518
 10
-34.2946788875
 20
-130.9439298646
 10
-34.400412745
 20
-130.8095137698
 10
-34.5039945997
 20
-130.6720363476
 10
-34.6050466235
 20
-130.5319990647
 10
-34.7035595772
 20
-130.3893925722
 10
-34.7995426999
 20
-130.244226219
 10
-34.8926458809
 20
-130.0970295181
 10
-34.9828586023
 20
-129.9477950545
 10
-35.0701913819
 20
-129.7965302432
 10
-35.1543256621
 20
-129.6437868422
 10
-35.2352497617
 20
-129.4895594515
 10
-35.312975362
 20
-129.333853471
 10
-35.3872189487
 20
-129.1772368586
 10
-35.4579678052
 20
-129.0197062883
 10
-35.5252346482
 20
-128.8612650861
 10
-35.5887741131
 20
-128.7024911865
 10
-35.6485725872
 20
-128.5433833747
 10
-35.7046436833
 20
-128.3839428655
 10
-35.7567828747
 20
-128.224751239
 10
-35.8049758018
 20
-128.065809404
 10
-35.8492368244
 20
-127.9071164516
 10
-35.8894044944
 20
-127.7492512348
 10
-35.9254638628
 20
-127.5922167766
 10
-35.9574298787
 20
-127.4360100541
 10
-35.985185942
 20
-127.2812008515
 10
-36.0087166776
 20
-127.1277942726
 10
-36.0280374606
 20
-126.9757852135
 10
-36.0430778158
 20
-126.825728147
 10
-36.0538142518
 20
-126.6778078973
 10
-36.06027026
 20
-126.5318396402
 10
-36.0624458405
 20
-126.3878233756
  0
LINE
  5
248
100
AcDbEntity
  8
RACCORDO
100
AcDbLine
 62
7
  6
CONTINUOUS
 10
-30.405591591
 20
-131.2867239462
 11
-30.5292294574
 21
-131.2128249286
  0
LWPOLYLINE
  5
249
100
AcDbEntity
  8
RACCORDO
100
AcDbPolyline
 62
7
  6
CONTINUOUS
 90
46
 70
0
 10
12.3743686708
 20
-155.9873368426
 10
12.2507308043
 20
-155.913437825
 10
12.127542829
 20
-155.8348561159
 10
12.0048047447
 20
-155.7515917154
 10
11.8823682309
 20
-155.6635318599
 10
11.7603816081
 20
-155.570789313
 10
11.6392898384
 20
-155.4737023651
 10
11.5190961899
 20
-155.3722551501
 10
11.3997973943
 20
-155.266463534
 10
11.2818286096
 20
-155.1567134056
 10
11.1651946931
 20
-155.0429903079
 10
11.0498907874
 20
-154.9253086978
 10
10.9363374784
 20
-154.8040978342
 10
10.8245411594
 20
-154.679344828
 10
10.7144954373
 20
-154.5510625682
 10
10.6066017178
 20
-154.419718981
 10
10.5008678603
 20
-154.2853028862
 10
10.3972860056
 20
-154.147825464
 10
10.2962339819
 20
-154.007788181
 10
10.1977210282
 20
-153.8651816885
 10
10.1017379054
 20
-153.7200153353
 10
10.0086347245
 20
-153.5728186344
 10
9.9184220031
 20
-153.4235841708
 10
9.8310892235
 20
-153.2723193595
 10
9.7469549433
 20
-153.1195759585
 10
9.6660308436
 20
-152.9653485678
 10
9.5883052434
 20
-152.8096425874
 10
9.5140616567
 20
-152.6530259749
 10
9.4433128001
 20
-152.4954954047
 10
9.3760459572
 20
-152.3370542024
 10
9.3125064923
 20
-152.1782803029
 10
9.2527080181
 20
-152.019172491
 10
9.1966369221
 20
-151.8597319819
 10
9.1444977307
 20
-151.7005403553
 10
9.0963048035
 20
-151.5415985203
 10
9.052043781
 20
-151.3829055679
 10
9.0118761109
 20
-151.2250403511
 10
8.9758167426
 20
-151.068005893
 10
8.9438507266
 20
-150.9117991705
 10
8.9160946634
 20
-150.7569899678
 10
8.8925639278
 20
-150.6035833889
 10
8.8732431448
 20
-150.4515743298
 10
8.8582027895
 20
-150.3015172634
 10
8.8474663536
 20
-150.1535970137
 10
8.8410103454
 20
-150.0076287565
 10
8.8388347648
 20
-149.863612492
  0
LWPOLYLINE
  5
24A
100
AcDbEntity
  8
RACCORDO
100
AcDbPolyline
 62
7
  6
CONTINUOUS
 90
37
 70
0
 10
-28.8853120115
 20
-132.1645143219
 10
-28.823430439
 20
-132.2018227512
 10
-28.7618998019
 20
-132.2420064475
 10
-28.7007201002
 20
-132.2850654108
 10
-28.639776357
 20
-132.3310924349
 10
-28.5791835492
 20
-132.379994726
 10
-28.5192866077
 20
-132.4314939027
 10
-28.4600895012
 20
-132.4856047763
 10
-28.401588261
 20
-132.5423125355
 10
-28.3441159113
 20
-132.6012943657
 10
-28.2876783205
 20
-132.6625632367
 10
-28.2322696202
 20
-132.7261061785
 10
-28.1782052303
 20
-132.7915614665
 10
-28.1254928179
 20
-132.8589400076
 10
-28.0741247158
 20
-132.9282308948
 10
-28.0243933423
 20
-132.9990396825
 10
-27.9763080323
 20
-133.0713750281
 10
-27.929859451
 20
-133.1452282743
 10
-27.8853120115
 20
-133.2201790038
 10
-27.8426765569
 20
-133.2962334761
 10
-27.8019422443
 20
-133.3733854318
 10
-27.7633409579
 20
-133.4511956753
 10
-27.7268848632
 20
-133.5296679613
 10
-27.6925617947
 20
-133.6087985351
 10
-27.6605671401
 20
-133.6881369378
 10
-27.6309141792
 20
-133.7676843547
 10
-27.6035896321
 20
-133.8474396006
 10
-27.5787490466
 20
-133.9269486604
 10
-27.5564065898
 20
-134.0062101301
 10
-27.5365480947
 20
-134.0852254137
 10
-27.5192866077
 20
-134.1635447085
 10
-27.5046369407
 20
-134.2411640451
 10
-27.4925842819
 20
-134.318087393
 10
-27.4831972422
 20
-134.3938768581
 10
-27.476498692
 20
-134.4683864756
 10
-27.472465761
 20
-134.5417622103
 10
-27.4710984491
 20
-134.6140040621
  0
LWPOLYLINE
  5
24B
100
AcDbEntity
  8
RACCORDO
100
AcDbPolyline
 62
7
  6
CONTINUOUS
 90
37
 70
0
 10
9.545941546
 20
-144.5563584182
 10
9.6078231185
 20
-144.5936668474
 10
9.6693537556
 20
-144.6338505437
 10
9.7305334573
 20
-144.6769095071
 10
9.7914772005
 20
-144.7229365311
 10
9.8520700083
 20
-144.7718388222
 10
9.9119669498
 20
-144.823337999
 10
9.9711640563
 20
-144.8774488726
 10
10.0296652965
 20
-144.9341566318
 10
10.0871376462
 20
-144.9931384619
 10
10.143575237
 20
-145.0544073329
 10
10.1989839373
 20
-145.1179502748
 10
10.2530483272
 20
-145.1834055628
 10
10.3057607396
 20
-145.2507841038
 10
10.3571288417
 20
-145.320074991
 10
10.4068602152
 20
-145.3908837788
 10
10.4549455251
 20
-145.4632191244
 10
10.5013941065
 20
-145.5370723705
 10
10.545941546
 20
-145.6120231001
 10
10.5885770006
 20
-145.6880775724
 10
10.6293113132
 20
-145.7652295281
 10
10.6679125996
 20
-145.8430397716
 10
10.7043686943
 20
-145.9215120575
 10
10.7386917628
 20
-146.0006426313
 10
10.7706864174
 20
-146.079981034
 10
10.8003393783
 20
-146.159528451
 10
10.8276639254
 20
-146.2392836969
 10
10.8525045109
 20
-146.3187927567
 10
10.8748469677
 20
-146.3980542263
 10
10.8947054628
 20
-146.4770695099
 10
10.9119669498
 20
-146.5553888048
 10
10.9266166168
 20
-146.6330081414
 10
10.9386692756
 20
-146.7099314893
 10
10.9480563153
 20
-146.7857209543
 10
10.9547548655
 20
-146.8602305718
 10
10.9587877965
 20
-146.9336063065
 10
10.9601551084
 20
-147.0058481584
  0
LWPOLYLINE
  5
24C
100
AcDbEntity
  8
RACCORDO
100
AcDbPolyline
 62
7
  6
CONTINUOUS
 90
44
 70
0
 10
-30.5292294574
 20
-131.2128249286
 10
-30.6524174328
 20
-131.1342432196
 10
-30.775155517
 20
-131.0509788191
 10
-30.8975920309
 20
-130.9629189636
 10
-31.0195786536
 20
-130.8701764167
 10
-31.1406704233
 20
-130.7730894688
 10
-31.2608640719
 20
-130.6716422538
 10
-31.3801628675
 20
-130.5658506377
 10
-31.4981316521
 20
-130.4561005093
 10
-31.6147655687
 20
-130.3423774116
 10
-31.7300694744
 20
-130.2246958015
 10
-31.8436227834
 20
-130.1034849379
 10
-31.9554191023
 20
-129.9787319316
 10
-32.0654648245
 20
-129.8504496718
 10
-32.173358544
 20
-129.7191060846
 10
-32.2790924014
 20
-129.5846899898
 10
-32.3826742561
 20
-129.4472125676
 10
-32.4837262799
 20
-129.3071752847
 10
-32.5822392336
 20
-129.1645687922
 10
-32.6782223564
 20
-129.019402439
 10
-32.7713255373
 20
-128.8722057381
 10
-32.8615382587
 20
-128.7229712745
 10
-32.9488710383
 20
-128.5717064632
 10
-33.0330053185
 20
-128.4189630622
 10
-33.1139294182
 20
-128.2647356715
 10
-33.1916550184
 20
-128.1090296911
 10
-33.2658986051
 20
-127.9524130786
 10
-33.3366474617
 20
-127.7948825084
 10
-33.4039143046
 20
-127.6364413061
 10
-33.4674537695
 20
-127.4776674065
 10
-33.5272522437
 20
-127.3185595947
 10
-33.5833233397
 20
-127.1591190856
 10
-33.6354625311
 20
-126.999927459
 10
-33.6836554583
 20
-126.840985624
 10
-33.7279164808
 20
-126.6822926716
 10
-33.7680841508
 20
-126.5244274548
 10
-33.8041435192
 20
-126.3673929967
 10
-33.8361095351
 20
-126.2111862741
 10
-33.8638655984
 20
-126.0563770715
 10
-33.887396334
 20
-125.9029704926
 10
-33.906717117
 20
-125.7509614335
 10
-33.9217574723
 20
-125.600904367
 10
-33.9324939082
 20
-125.4529841173
 10
-33.9389499164
 20
-125.3070158602
  0
LWPOLYLINE
  5
24D
100
AcDbEntity
  8
ASSI
100
AcDbPolyline
 62
7
  6
CONTINUOUS
 90
22
 70
0
 10
-16.8781014482
 20
-144.1752752814
 10
-16.8232544453
 20
-144.2184132988
 10
-16.7682477969
 20
-144.2586018946
 10
-16.713081503
 20
-144.2958410687
 10
-16.6576300607
 20
-144.3302017099
 10
-16.6020189729
 20
-144.3616129294
 10
-16.5466247484
 20
-144.3898620611
 10
-16.4914488588
 20
-144.4149276478
 10
-16.4364898326
 20
-144.4368311467
 10
-16.3821197638
 20
-144.4554242623
 10
-16.3283426489
 20
-144.4706845316
 10
-16.2751544916
 20
-144.4826344176
 10
-16.2229153963
 20
-144.4911930151
 10
-16.1716318032
 20
-144.4963373118
 10
-16.1212972722
 20
-144.4980903198
 10
-16.0722525877
 20
-144.4964401708
 10
-16.0245065024
 20
-144.4913637718
 10
-15.9780502636
 20
-144.4828842157
 10
-15.9331983984
 20
-144.4710589124
 10
-15.8899617935
 20
-144.4558651586
 10
-15.848329562
 20
-144.4373256576
 10
-15.8174620639
 20
-144.4208023336
  0
LWPOLYLINE
  5
24E
100
AcDbEntity
  8
ASSI
100
AcDbPolyline
 62
7
  6
CONTINUOUS
 90
22
 70
0
 10
-18.8307910017
 20
-139.8319180269
 10
-18.8856380046
 20
-139.7887800095
 10
-18.940644653
 20
-139.7485914138
 10
-18.9958109469
 20
-139.7113522397
 10
-19.0512623892
 20
-139.6769915985
 10
-19.106873477
 20
-139.6455803789
 10
-19.1622677015
 20
-139.6173312473
 10
-19.2174435911
 20
-139.5922656605
 10
-19.2724026173
 20
-139.5703621617
 10
-19.3267726861
 20
-139.551769046
 10
-19.380549801
 20
-139.5365087768
 10
-19.4337379584
 20
-139.5245588907
 10
-19.4859770536
 20
-139.5160002932
 10
-19.5372606468
 20
-139.5108559966
 10
-19.5875951778
 20
-139.5091029885
 10
-19.6366398622
 20
-139.5107531376
 10
-19.6843859475
 20
-139.5158295366
 10
-19.7308421863
 20
-139.5243090927
 10
-19.7756940515
 20
-139.536134396
 10
-19.8189306565
 20
-139.5513281498
 10
-19.8605628879
 20
-139.5698676508
 10
-19.891430386
 20
-139.5863909747
  0
LINE
  5
24F
100
AcDbEntity
  8
ASSI
100
AcDbLine
 62
7
  6
CONTINUOUS
 10
-19.301991306
 20
-142.1986995323
 11
-16.8781014482
 21
-144.1752752814
  0
LINE
  5
250
100
AcDbEntity
  8
ASSI
100
AcDbLine
 62
7
  6
CONTINUOUS
 10
-16.4069011439
 20
-141.808493776
 11
-18.8307910017
 21
-139.8319180269
  0
LWPOLYLINE
  5
251
100
AcDbEntity
  8
ASSI
100
AcDbPolyline
 62
7
  6
CONTINUOUS
 90
47
 70
0
 10
15.8174620639
 20
133.3168065692
 10
15.8085835706
 20
133.3115701647
 10
15.7707366187
 20
133.2865683571
 10
15.7347759067
 20
133.258346322
 10
15.7009449029
 20
133.2270951336
 10
15.6692580587
 20
133.192794237
 10
15.6397009227
 20
133.1554641871
 10
15.6124736081
 20
133.1153577229
 10
15.5875919245
 20
133.0724560045
 10
15.5650400624
 20
133.0267778719
 10
15.5449707067
 20
132.9786325838
 10
15.527400703
 20
132.928003399
 10
15.5123132057
 20
132.8749070587
 10
15.4998103631
 20
132.8197030461
 10
15.4899097138
 20
132.7623770589
 10
15.4825937193
 20
132.7029433994
 10
15.4779119116
 20
132.6418044566
 10
15.4758821655
 20
132.5789486591
 10
15.4764866063
 20
132.5143875782
 10
15.4797211416
 20
132.4485583179
 10
15.4856036185
 20
132.3814522726
 10
15.4941161899
 20
132.3130780478
 10
15.5052012223
 20
132.2438985638
 10
15.5188761719
 20
132.1739083564
 10
15.5351235825
 20
132.1031128897
 10
15.5538334529
 20
132.0319914769
 10
15.5750224926
 20
131.9605419061
 10
15.598673992
 20
131.8887663891
 10
15.6246278213
 20
131.8171508743
 10
15.6528996033
 20
131.7456964473
 10
15.6834737152
 20
131.6744020226
 10
15.7161431583
 20
131.6037502911
 10
15.7509221508
 20
131.5337456141
 10
15.7877964744
 20
131.4643836305
 10
15.8265164756
 20
131.3961339479
 10
15.8670946785
 20
131.3290041142
 10
15.909518559
 20
131.2629865816
 10
15.9535008908
 20
131.1985283146
 10
15.9990522489
 20
131.135639894
 10
16.0461620584
 20
131.0743107391
 10
16.0945113672
 20
131.0149560722
 10
16.1441085864
 20
130.9575892916
 10
16.1949453049
 20
130.902196999
 10
16.2466773384
 20
130.849154222
 10
16.2991899586
 20
130.7985859697
 10
16.3525978938
 20
130.7503672329
 10
16.4069011439
 20
130.7044980116
  0
LINE
  5
252
100
AcDbEntity
  8
RACCORDO
100
AcDbLine
 62
250
  6
CONTINUOUS
 10
34.5352864475
 20
152.8745459214
 11
30.2926457604
 21
150.4248983614
  0
LINE
  5
253
100
AcDbEntity
  8
RACCORDO
100
AcDbLine
 62
250
  6
CONTINUOUS
 10
37.3364109371
 20
148.2934707409
 11
33.09377025
 21
145.843823181
  0
LWPOLYLINE
  5
254
100
AcDbEntity
  8
ASSI
100
AcDbPolyline
 62
7
  6
CONTINUOUS
 90
47
 70
0
 10
19.891430386
 20
128.4823952103
 10
19.9003088793
 20
128.4876316149
 10
19.9381558313
 20
128.5126334225
 10
19.9741165432
 20
128.5408554576
 10
20.007947547
 20
128.572106646
 10
20.0396343912
 20
128.6064075426
 10
20.0691915272
 20
128.6437375925
 10
20.0964188418
 20
128.6838440567
 10
20.1213005254
 20
128.7267457751
 10
20.1438523875
 20
128.7724239077
 10
20.1639217432
 20
128.8205691958
 10
20.1814917469
 20
128.8711983806
 10
20.1965792442
 20
128.9242947209
 10
20.2090820868
 20
128.9794987335
 10
20.2189827361
 20
129.0368247206
 10
20.2262987306
 20
129.0962583802
 10
20.2309805383
 20
129.1573973229
 10
20.2330102844
 20
129.2202531205
 10
20.2324058436
 20
129.2848142014
 10
20.2291713083
 20
129.3506434617
 10
20.2232888315
 20
129.417749507
 10
20.2147762601
 20
129.4861237318
 10
20.2036912276
 20
129.5553032158
 10
20.190016278
 20
129.6252934232
 10
20.1737688674
 20
129.6960888899
 10
20.155058997
 20
129.7672103027
 10
20.1338699574
 20
129.8386598735
 10
20.1102184579
 20
129.9104353905
 10
20.0842646286
 20
129.9820509053
 10
20.0559928466
 20
130.0535053322
 10
20.0254187347
 20
130.124799757
 10
19.9927492916
 20
130.1954514885
 10
19.9579702991
 20
130.2654561655
 10
19.9210959755
 20
130.3348181491
 10
19.8823759743
 20
130.4030678317
 10
19.8417977714
 20
130.4701976654
 10
19.7993738909
 20
130.536215198
 10
19.7553915592
 20
130.600673465
 10
19.709840201
 20
130.6635618855
 10
19.6627303915
 20
130.7248910405
 10
19.6143810827
 20
130.7842457074
 10
19.5647838635
 20
130.841612488
 10
19.513947145
 20
130.8970047806
 10
19.4622151115
 20
130.9500475576
 10
19.4097024913
 20
131.0006158099
 10
19.3562945561
 20
131.0488345467
 10
19.301991306
 20
131.0947037679
  0
LINE
  5
255
100
AcDbEntity
  8
ASSI
100
AcDbLine
 62
250
  6
CONTINUOUS
 10
18.3820150376
 20
131.8449040199
 11
16.4069011439
 21
130.7044980116
  0
LINE
  5
256
100
AcDbEntity
  8
ASSI
100
AcDbLine
 62
250
  6
CONTINUOUS
 10
20.2087784393
 20
129.5235549388
 11
18.8307910017
 21
128.7279222626
  0
LINE
  5
257
100
AcDbEntity
  8
ASSI
100
AcDbLine
 62
7
  6
CONTINUOUS
 10
44.4770165366
 20
142.7167593978
 11
40.2343758495
 21
140.2671118378
  0
LINE
  5
258
100
AcDbEntity
  8
RACCORDO
100
AcDbLine
 62
7
  6
CONTINUOUS
 10
-33.1633080376
 20
192.9757855582
 11
-34.5352864475
 21
187.8557339335
  0
LWPOLYLINE
  5
259
100
AcDbEntity
  8
RACCORDO
100
AcDbPolyline
 62
7
  6
CONTINUOUS
 90
17
 70
0
 10
-34.5352864475
 20
187.8557339335
 10
-34.5688373676
 20
187.7399372716
 10
-34.6062880597
 20
187.6281126073
 10
-34.6476385239
 20
187.5202599406
 10
-34.6929467953
 20
187.4162613014
 10
-34.7421548388
 20
187.3162346597
 10
-34.7950885484
 20
187.2205339258
 10
-34.8517611217
 20
187.1291744235
 10
-34.9121593612
 20
187.0421408288
 10
-34.9760695682
 20
186.9597410806
 10
-35.0435041833
 20
186.8819915935
 10
-35.1144507661
 20
186.8088759528
 10
-35.1886582961
 20
186.7406528532
 10
-35.2661383247
 20
186.6773396259
 10
-35.3468793007
 20
186.6189189397
 10
-35.4305955495
 20
186.5655974964
 10
-35.4502296856
 20
186.5540827345
  0
LWPOLYLINE
  5
25A
100
AcDbEntity
  8
RACCORDO
100
AcDbPolyline
 62
7
  6
CONTINUOUS
 90
11
 70
0
 10
-33.7300893425
 20
154.5204189194
 10
-33.7680841508
 20
154.4149688408
 10
-33.8041435192
 20
154.2995748374
 10
-33.8361095351
 20
154.1802816688
 10
-33.8638655984
 20
154.0575244724
 10
-33.887396334
 20
153.9312905971
 10
-33.906717117
 20
153.8015926939
 10
-33.9217574723
 20
153.6689038527
 10
-33.9324939082
 20
153.5333817701
 10
-33.9389499164
 20
153.3948687494
 10
-33.941125497
 20
153.2533647907
  0
LWPOLYLINE
  5
25B
100
AcDbEntity
  8
0
100
AcDbPolyline
 62
7
  6
CONTINUOUS
 90
5
 70
0
 10
1.1903157955
 20
-144.7143022211
 10
1.1979451246
 20
-144.7290428474
 10
1.2364504333
 20
-144.7988810816
 10
1.2767039204
 20
-144.8675673447
 10
1.305142243
 20
-144.9132765412
  0
LWPOLYLINE
  5
25C
100
AcDbEntity
  8
CURVE
100
AcDbPolyline
 62
250
  6
CONTINUOUS
 90
17
 70
0
 10
-41.3657466994
 20
-141.4514040705
 10
-41.3320798524
 20
-141.8673093222
 10
-41.2323616712
 20
-142.3062505032
 10
-41.0703903902
 20
-142.7515084802
 10
-40.8479797464
 20
-143.1936853934
 10
-40.5813807516
 20
-143.6004724374
 10
-40.277324318
 20
-143.9642797661
 10
-39.9473918608
 20
-144.2712500713
 10
-39.5979797464
 20
-144.5132662458
 10
-39.2546186792
 20
-144.6726447487
 10
-38.9243361284
 20
-144.748204826
 10
-38.6197124536
 20
-144.737068418
 10
-38.3479797464
 20
-144.637154061
 10
-38.1289928632
 20
-144.4557622573
 10
-37.965959234
 20
-144.1988130148
 10
-37.865088759
 20
-143.8760934502
 10
-37.8302127935
 20
-143.4927768587
  0
LINE
  5
25D
100
AcDbEntity
  8
RACCORDO
100
AcDbLine
 62
7
  6
CONTINUOUS
 10
-34.5352864475
 20
-152.8745459214
 11
-33.1633080376
 21
-159.578923824
  0
LWPOLYLINE
  5
25E
100
AcDbEntity
  8
CURVE
100
AcDbPolyline
 62
250
  6
CONTINUOUS
 90
17
 70
0
 10
-37.8302127935
 20
-143.4927770371
 10
-37.8638796405
 20
-143.0768717853
 10
-37.9635978217
 20
-142.6379306044
 10
-38.1255691027
 20
-142.1926726274
 10
-38.3479797464
 20
-141.7504957142
 10
-38.6145787413
 20
-141.3437086702
 10
-38.9186351749
 20
-140.9799013415
 10
-39.2485676321
 20
-140.6729310362
 10
-39.5979797464
 20
-140.4309148618
 10
-39.9413408137
 20
-140.2715363589
 10
-40.2716233645
 20
-140.1959762815
 10
-40.5762470392
 20
-140.2071126896
 10
-40.8479797464
 20
-140.3070270466
 10
-41.0669666297
 20
-140.4884188502
 10
-41.2300002589
 20
-140.7453680928
 10
-41.3308707339
 20
-141.0680876573
 10
-41.3657466994
 20
-141.4514042489
  0
LWPOLYLINE
  5
25F
100
AcDbEntity
  8
CURVE
100
AcDbPolyline
 62
250
  6
CONTINUOUS
 90
17
 70
0
 10
-41.3657466994
 20
-94.9125982933
 10
-41.3320798524
 20
-95.328503545
 10
-41.2323616712
 20
-95.767444726
 10
-41.0703903902
 20
-96.212702703
 10
-40.8479797464
 20
-96.6548796162
 10
-40.5813807516
 20
-97.0616666602
 10
-40.277324318
 20
-97.4254739889
 10
-39.9473918608
 20
-97.7324442941
 10
-39.5979797464
 20
-97.9744604686
 10
-39.2546186792
 20
-98.1338389715
 10
-38.9243361284
 20
-98.2093990489
 10
-38.6197124536
 20
-98.1982626408
 10
-38.3479797464
 20
-98.0983482838
 10
-38.1289928632
 20
-97.9169564801
 10
-37.965959234
 20
-97.6600072376
 10
-37.865088759
 20
-97.337287673
 10
-37.8302127935
 20
-96.9539710815
  0
LWPOLYLINE
  5
260
100
AcDbEntity
  8
CURVE
100
AcDbPolyline
 62
250
  6
CONTINUOUS
 90
17
 70
0
 10
-37.8302127935
 20
-96.9539712599
 10
-37.8638796405
 20
-96.5380660081
 10
-37.9635978217
 20
-96.0991248272
 10
-38.1255691027
 20
-95.6538668502
 10
-38.3479797464
 20
-95.211689937
 10
-38.6145787413
 20
-94.804902893
 10
-38.9186351749
 20
-94.4410955643
 10
-39.2485676321
 20
-94.1341252591
 10
-39.5979797464
 20
-93.8921090846
 10
-39.9413408137
 20
-93.7327305817
 10
-40.2716233645
 20
-93.6571705043
 10
-40.5762470392
 20
-93.6683069124
 10
-40.8479797464
 20
-93.7682212694
 10
-41.0669666297
 20
-93.949613073
 10
-41.2300002589
 20
-94.2065623156
 10
-41.3308707339
 20
-94.5292818801
 10
-41.3657466994
 20
-94.9125984717
  0
LWPOLYLINE
  5
261
100
AcDbEntity
  8
CURVE
100
AcDbPolyline
 62
250
  6
CONTINUOUS
 90
17
 70
0
 10
-41.3657466994
 20
-48.3737925161
 10
-41.3320798524
 20
-48.7896977679
 10
-41.2323616712
 20
-49.2286389488
 10
-41.0703903902
 20
-49.6738969258
 10
-40.8479797464
 20
-50.116073839
 10
-40.5813807516
 20
-50.522860883
 10
-40.277324318
 20
-50.8866682117
 10
-39.9473918608
 20
-51.1936385169
 10
-39.5979797464
 20
-51.4356546914
 10
-39.2546186792
 20
-51.5950331943
 10
-38.9243361284
 20
-51.6705932717
 10
-38.6197124536
 20
-51.6594568636
 10
-38.3479797464
 20
-51.5595425066
 10
-38.1289928632
 20
-51.378150703
 10
-37.965959234
 20
-51.1212014604
 10
-37.865088759
 20
-50.7984818958
 10
-37.8302127935
 20
-50.4151653043
  0
LWPOLYLINE
  5
262
100
AcDbEntity
  8
CURVE
100
AcDbPolyline
 62
250
  6
CONTINUOUS
 90
17
 70
0
 10
-37.8302127935
 20
-50.4151654827
 10
-37.8638796405
 20
-49.9992602309
 10
-37.9635978217
 20
-49.56031905
 10
-38.1255691027
 20
-49.115061073
 10
-38.3479797464
 20
-48.6728841598
 10
-38.6145787413
 20
-48.2660971158
 10
-38.9186351749
 20
-47.9022897871
 10
-39.2485676321
 20
-47.5953194819
 10
-39.5979797464
 20
-47.3533033074
 10
-39.9413408137
 20
-47.1939248045
 10
-40.2716233645
 20
-47.1183647271
 10
-40.5762470392
 20
-47.1295011352
 10
-40.8479797464
 20
-47.2294154922
 10
-41.0669666297
 20
-47.4108072958
 10
-41.2300002589
 20
-47.6677565384
 10
-41.3308707339
 20
-47.990476103
 10
-41.3657466994
 20
-48.3737926945
  0
LWPOLYLINE
  5
263
100
AcDbEntity
  8
CURVE
100
AcDbPolyline
 62
250
  6
CONTINUOUS
 90
17
 70
0
 10
-41.3657466994
 20
-1.8349867389
 10
-41.3320798524
 20
-2.2508919907
 10
-41.2323616712
 20
-2.6898331716
 10
-41.0703903902
 20
-3.1350911486
 10
-40.8479797464
 20
-3.5772680618
 10
-40.5813807516
 20
-3.9840551058
 10
-40.277324318
 20
-4.3478624345
 10
-39.9473918608
 20
-4.6548327397
 10
-39.5979797464
 20
-4.8968489142
 10
-39.2546186792
 20
-5.0562274171
 10
-38.9243361284
 20
-5.1317874945
 10
-38.6197124536
 20
-5.1206510864
 10
-38.3479797464
 20
-5.0207367294
 10
-38.1289928632
 20
-4.8393449258
 10
-37.965959234
 20
-4.5823956832
 10
-37.865088759
 20
-4.2596761187
 10
-37.8302127935
 20
-3.8763595271
  0
LINE
  5
264
100
AcDbEntity
  8
ASSI
100
AcDbLine
 62
7
  6
CONTINUOUS
 10
-44.4770165366
 20
189.1784081185
 11
-44.4770165366
 21
-142.7167593978
  0
LWPOLYLINE
  5
265
100
AcDbEntity
  8
RACCORDO
100
AcDbPolyline
 62
7
  6
CONTINUOUS
 90
24
 70
0
 10
-36.0624458405
 20
152.0285410107
 10
-36.06027026
 20
152.1700449694
 10
-36.0538142518
 20
152.3085579901
 10
-36.0430778158
 20
152.4440800727
 10
-36.0280374606
 20
152.5767689139
 10
-36.0087166776
 20
152.7064668171
 10
-35.985185942
 20
152.8327006924
 10
-35.9574298787
 20
152.9554578889
 10
-35.9254638628
 20
153.0747510574
 10
-35.8894044944
 20
153.1901450609
 10
-35.8492368244
 20
153.3016256591
 10
-35.8049758018
 20
153.4092070922
 10
-35.7567828747
 20
153.5124969429
 10
-35.7046436833
 20
153.6114795381
 10
-35.6485725872
 20
153.706170551
 10
-35.5887741131
 20
153.7962245838
 10
-35.5252346482
 20
153.881624702
 10
-35.4579678052
 20
153.9623878401
 10
-35.3872189487
 20
154.0382194041
 10
-35.312975362
 20
154.1091013837
 10
-35.2352497617
 20
154.1750517892
 10
-35.1543256621
 20
154.235830058
 10
-35.0701913819
 20
154.2914173012
 10
-35.027025695
 20
154.3172131231
  0
LWPOLYLINE
  5
266
100
AcDbEntity
  8
ASSI
100
AcDbPolyline
 62
7
  6
CONTINUOUS
 90
26
 70
0
 10
17.8210570704
 20
-161.2346217161
 10
17.8222652464
 20
-161.2373247338
 10
17.8560962503
 20
-161.3076431174
 10
17.8920569622
 20
-161.3773916812
 10
17.9299039142
 20
-161.4460982002
 10
17.9696499056
 20
-161.5137556034
 10
18.011282137
 20
-161.5803709617
 10
18.054518742
 20
-161.6454932631
 10
18.0993706072
 20
-161.7091123761
 10
18.145826846
 20
-161.7712384323
 10
18.1935729313
 20
-161.8314508138
 10
18.2426176157
 20
-161.8897365351
 10
18.2929521467
 20
-161.9461085818
 10
18.3442357398
 20
-162.000185293
 10
18.3964748351
 20
-162.0519510933
 10
18.4496629925
 20
-162.1014215582
 10
18.5034401073
 20
-162.1482617532
 10
18.5578101761
 20
-162.1924538301
 10
18.6127692024
 20
-162.2340156372
 10
18.667945092
 20
-162.2726657847
 10
18.7233393165
 20
-162.308384515
 10
18.7789504043
 20
-162.3411915857
 10
18.8344018466
 20
-162.3708648802
 10
18.8895681405
 20
-162.3973303595
 10
18.9445747889
 20
-162.4206620625
 10
18.9994217918
 20
-162.4408599892
  0
LWPOLYLINE
  5
267
100
AcDbEntity
  8
CURVE
100
AcDbPolyline
 62
250
  6
CONTINUOUS
 90
17
 70
0
 10
-37.8302127935
 20
-3.8763597055
 10
-37.8638796405
 20
-3.4604544538
 10
-37.9635978217
 20
-3.0215132728
 10
-38.1255691027
 20
-2.5762552958
 10
-38.3479797464
 20
-2.1340783826
 10
-38.6145787413
 20
-1.7272913386
 10
-38.9186351749
 20
-1.3634840099
 10
-39.2485676321
 20
-1.0565137047
 10
-39.5979797464
 20
-0.8144975302
 10
-39.9413408137
 20
-0.6551190273
 10
-40.2716233645
 20
-0.5795589499
 10
-40.5762470392
 20
-0.590695358
 10
-40.8479797464
 20
-0.690609715
 10
-41.0669666297
 20
-0.8720015187
 10
-41.2300002589
 20
-1.1289507612
 10
-41.3308707339
 20
-1.4516703258
 10
-41.3657466994
 20
-1.8349869173
  0
LWPOLYLINE
  5
268
100
AcDbEntity
  8
CURVE
100
AcDbPolyline
 62
250
  6
CONTINUOUS
 90
17
 70
0
 10
-41.3657466994
 20
44.7038190383
 10
-41.3320798524
 20
44.2879137865
 10
-41.2323616712
 20
43.8489726056
 10
-41.0703903902
 20
43.4037146286
 10
-40.8479797464
 20
42.9615377154
 10
-40.5813807516
 20
42.5547506714
 10
-40.277324318
 20
42.1909433427
 10
-39.9473918608
 20
41.8839730374
 10
-39.5979797464
 20
41.641956863
 10
-39.2546186792
 20
41.4825783601
 10
-38.9243361284
 20
41.4070182827
 10
-38.6197124536
 20
41.4181546908
 10
-38.3479797464
 20
41.5180690478
 10
-38.1289928632
 20
41.6994608514
 10
-37.965959234
 20
41.956410094
 10
-37.865088759
 20
42.2791296585
 10
-37.8302127935
 20
42.6624462501
  0
LWPOLYLINE
  5
269
100
AcDbEntity
  8
CURVE
100
AcDbPolyline
 62
250
  6
CONTINUOUS
 90
17
 70
0
 10
-37.8302127935
 20
42.6624460717
 10
-37.8638796405
 20
43.0783513234
 10
-37.9635978217
 20
43.5172925044
 10
-38.1255691027
 20
43.9625504814
 10
-38.3479797464
 20
44.4047273946
 10
-38.6145787413
 20
44.8115144386
 10
-38.9186351749
 20
45.1753217673
 10
-39.2485676321
 20
45.4822920725
 10
-39.5979797464
 20
45.724308247
 10
-39.9413408137
 20
45.8836867499
 10
-40.2716233645
 20
45.9592468272
 10
-40.5762470392
 20
45.9481104192
 10
-40.8479797464
 20
45.8481960622
 10
-41.0669666297
 20
45.6668042585
 10
-41.2300002589
 20
45.409855016
 10
-41.3308707339
 20
45.0871354514
 10
-41.3657466994
 20
44.7038188599
  0
LWPOLYLINE
  5
26A
100
AcDbEntity
  8
CURVE
100
AcDbPolyline
 62
250
  6
CONTINUOUS
 90
17
 70
0
 10
-41.3657466994
 20
91.2426248155
 10
-41.3320798524
 20
90.8267195637
 10
-41.2323616712
 20
90.3877783827
 10
-41.0703903902
 20
89.9425204058
 10
-40.8479797464
 20
89.5003434926
 10
-40.5813807516
 20
89.0935564485
 10
-40.277324318
 20
88.7297491199
 10
-39.9473918608
 20
88.4227788146
 10
-39.5979797464
 20
88.1807626402
 10
-39.2546186792
 20
88.0213841373
 10
-38.9243361284
 20
87.9458240599
 10
-38.6197124536
 20
87.956960468
 10
-38.3479797464
 20
88.056874825
 10
-38.1289928632
 20
88.2382666286
 10
-37.965959234
 20
88.4952158711
 10
-37.865088759
 20
88.8179354357
 10
-37.8302127935
 20
89.2012520273
  0
LWPOLYLINE
  5
26B
100
AcDbEntity
  8
CURVE
100
AcDbPolyline
 62
250
  6
CONTINUOUS
 90
17
 70
0
 10
-37.8302127935
 20
89.2012518489
 10
-37.8638796405
 20
89.6171571006
 10
-37.9635978217
 20
90.0560982816
 10
-38.1255691027
 20
90.5013562586
 10
-38.3479797464
 20
90.9435331717
 10
-38.6145787413
 20
91.3503202158
 10
-38.9186351749
 20
91.7141275445
 10
-39.2485676321
 20
92.0210978497
 10
-39.5979797464
 20
92.2631140242
 10
-39.9413408137
 20
92.4224925271
 10
-40.2716233645
 20
92.4980526044
 10
-40.5762470392
 20
92.4869161963
 10
-40.8479797464
 20
92.3870018394
 10
-41.0669666297
 20
92.2056100357
 10
-41.2300002589
 20
91.9486607932
 10
-41.3308707339
 20
91.6259412286
 10
-41.3657466994
 20
91.242624637
  0
LWPOLYLINE
  5
26C
100
AcDbEntity
  8
CURVE
100
AcDbPolyline
 62
250
  6
CONTINUOUS
 90
17
 70
0
 10
-41.3657466994
 20
137.7814305927
 10
-41.3320798524
 20
137.3655253409
 10
-41.2323616712
 20
136.9265841599
 10
-41.0703903902
 20
136.481326183
 10
-40.8479797464
 20
136.0391492698
 10
-40.5813807516
 20
135.6323622257
 10
-40.277324318
 20
135.268554897
 10
-39.9473918608
 20
134.9615845918
 10
-39.5979797464
 20
134.7195684174
 10
-39.2546186792
 20
134.5601899145
 10
-38.9243361284
 20
134.4846298371
 10
-38.6197124536
 20
134.4957662452
 10
-38.3479797464
 20
134.5956806021
 10
-38.1289928632
 20
134.7770724058
 10
-37.965959234
 20
135.0340216483
 10
-37.865088759
 20
135.3567412129
 10
-37.8302127935
 20
135.7400578045
  0
LWPOLYLINE
  5
26D
100
AcDbEntity
  8
CURVE
100
AcDbPolyline
 62
250
  6
CONTINUOUS
 90
17
 70
0
 10
-37.8302127935
 20
135.740057626
 10
-37.8638796405
 20
136.1559628778
 10
-37.9635978217
 20
136.5949040588
 10
-38.1255691027
 20
137.0401620358
 10
-38.3479797464
 20
137.4823389489
 10
-38.6145787413
 20
137.889125993
 10
-38.9186351749
 20
138.2529333217
 10
-39.2485676321
 20
138.5599036269
 10
-39.5979797464
 20
138.8019198013
 10
-39.9413408137
 20
138.9612983043
 10
-40.2716233645
 20
139.0368583816
 10
-40.5762470392
 20
139.0257219735
 10
-40.8479797464
 20
138.9258076166
 10
-41.0669666297
 20
138.7444158129
 10
-41.2300002589
 20
138.4874665704
 10
-41.3308707339
 20
138.1647470058
 10
-41.3657466994
 20
137.7814304142
  0
LWPOLYLINE
  5
26E
100
AcDbEntity
  8
CURVE
100
AcDbPolyline
 62
250
  6
CONTINUOUS
 90
17
 70
0
 10
-41.3657466994
 20
184.3202363699
 10
-41.3320798524
 20
183.9043311181
 10
-41.2323616712
 20
183.4653899371
 10
-41.0703903902
 20
183.0201319602
 10
-40.8479797464
 20
182.577955047
 10
-40.5813807516
 20
182.1711680029
 10
-40.277324318
 20
181.8073606742
 10
-39.9473918608
 20
181.500390369
 10
-39.5979797464
 20
181.2583741946
 10
-39.2546186792
 20
181.0989956916
 10
-38.9243361284
 20
181.0234356143
 10
-38.6197124536
 20
181.0345720224
 10
-38.3479797464
 20
181.1344863793
 10
-38.1289928632
 20
181.315878183
 10
-37.965959234
 20
181.5728274255
 10
-37.865088759
 20
181.8955469901
 10
-37.8302127935
 20
182.2788635817
  0
LWPOLYLINE
  5
26F
100
AcDbEntity
  8
RACCORDO
100
AcDbPolyline
 62
7
  6
CONTINUOUS
 90
31
 70
0
 10
-27.4710984491
 20
-141.1457662765
 10
-27.4701073358
 20
-141.1892626733
 10
-27.4672054498
 20
-141.2335128829
 10
-27.4623927912
 20
-141.2785169052
 10
-27.4556457375
 20
-141.3244019925
 10
-27.4469879112
 20
-141.3710408926
 10
-27.4364901799
 20
-141.4180518483
 10
-27.424137442
 20
-141.4654379135
 10
-27.409944799
 20
-141.5131960343
 10
-27.3940284232
 20
-141.5609352925
 10
-27.3763741666
 20
-141.6086555332
 10
-27.356996177
 20
-141.6563569114
 10
-27.3360530707
 20
-141.7036489731
 10
-27.3135320016
 20
-141.7505283587
 10
-27.2894458159
 20
-141.796998428
 10
-27.2639916679
 20
-141.8426788056
 10
-27.2371583299
 20
-141.8875630102
 10
-27.2089570297
 20
-141.9316575231
 10
-27.1796186057
 20
-141.9746014143
 10
-27.1491337246
 20
-142.0163852396
 10
-27.1175117196
 20
-142.0570184431
 10
-27.0850114289
 20
-142.0961684266
 10
-27.0516256436
 20
-142.1338230162
 10
-27.0173615726
 20
-142.1699943859
 10
-26.9824996801
 20
-142.2043864592
 10
-26.9470350595
 20
-142.2369846322
 10
-26.9109726176
 20
-142.2678035088
 10
-26.874607539
 20
-142.296590825
 10
-26.8380382186
 20
-142.3232624927
 10
-26.8011662616
 20
-142.3479025999
 10
-26.7639916679
 20
-142.3705111466
  0
LWPOLYLINE
  5
270
100
AcDbEntity
  8
RACCORDO
100
AcDbPolyline
 62
7
  6
CONTINUOUS
 90
37
 70
0
 10
-29.5924187927
 20
-135.8388278421
 10
-29.5937861045
 20
-135.7665859903
 10
-29.5978190355
 20
-135.6932102556
 10
-29.6045175857
 20
-135.6187006381
 10
-29.6139046254
 20
-135.542911173
 10
-29.6259572843
 20
-135.4659878251
 10
-29.6406069512
 20
-135.3883684885
 10
-29.6578684382
 20
-135.3100491936
 10
-29.6777269334
 20
-135.2310339101
 10
-29.7000693902
 20
-135.1517724404
 10
-29.7249099756
 20
-135.0722633806
 10
-29.7522345227
 20
-134.9925081347
 10
-29.7818874836
 20
-134.9129607178
 10
-29.8138821383
 20
-134.833622315
 10
-29.8482052068
 20
-134.7544917412
 10
-29.8846613014
 20
-134.6760194553
 10
-29.9232625879
 20
-134.5982092118
 10
-29.9639969005
 20
-134.5210572561
 10
-30.006632355
 20
-134.4450027838
 10
-30.0511797945
 20
-134.3700520543
 10
-30.0976283759
 20
-134.2961988081
 10
-30.1457136859
 20
-134.2238634625
 10
-30.1954450594
 20
-134.1530546747
 10
-30.2468131614
 20
-134.0837637876
 10
-30.2995255738
 20
-134.0163852465
 10
-30.3535899638
 20
-133.9509299585
 10
-30.408998664
 20
-133.8873870166
 10
-30.4654362549
 20
-133.8261181456
 10
-30.5229086045
 20
-133.7671363155
 10
-30.5814098448
 20
-133.7104285563
 10
-30.6406069512
 20
-133.6563176827
 10
-30.7005038928
 20
-133.604818506
 10
-30.7610967006
 20
-133.5559162149
 10
-30.8220404437
 20
-133.5098891908
 10
-30.8832201454
 20
-133.4668302275
 10
-30.9447507825
 20
-133.4266465312
 10
-31.006632355
 20
-133.3893381019
  0
LINE
  5
271
100
AcDbEntity
  8
RACCORDO
100
AcDbLine
 62
7
  6
CONTINUOUS
 10
-33.9389499164
 20
-125.3070158602
 11
-33.941125497
 21
-125.1629995956
  0
LWPOLYLINE
  5
272
100
AcDbEntity
  8
RACCORDO
100
AcDbPolyline
 62
7
  6
CONTINUOUS
 90
46
 70
0
 10
-31.8198051534
 20
-123.9381758157
 10
-31.8176295729
 20
-124.0821920802
 10
-31.8111735646
 20
-124.2281603373
 10
-31.8004371287
 20
-124.376080587
 10
-31.7853967734
 20
-124.5261376535
 10
-31.7660759905
 20
-124.6781467126
 10
-31.7425452549
 20
-124.8315532915
 10
-31.7147891916
 20
-124.9863624942
 10
-31.6828231757
 20
-125.1425692167
 10
-31.6467638073
 20
-125.2996036748
 10
-31.6065961372
 20
-125.4574688916
 10
-31.5623351147
 20
-125.616161844
 10
-31.5141421876
 20
-125.775103679
 10
-31.4620029962
 20
-125.9342953056
 10
-31.4059319001
 20
-126.0937358147
 10
-31.3461334259
 20
-126.2528436266
 10
-31.2825939611
 20
-126.4116175261
 10
-31.2153271181
 20
-126.5700587284
 10
-31.1445782616
 20
-126.7275892986
 10
-31.0703346749
 20
-126.8842059111
 10
-30.9926090746
 20
-127.0399118915
 10
-30.911684975
 20
-127.1941392822
 10
-30.8275506948
 20
-127.3468826832
 10
-30.7402179151
 20
-127.4981474945
 10
-30.6500051937
 20
-127.6473819581
 10
-30.5569020128
 20
-127.794578659
 10
-30.46091889
 20
-127.9397450122
 10
-30.3624059363
 20
-128.0823515047
 10
-30.2613539126
 20
-128.2223887877
 10
-30.1577720579
 20
-128.3598662099
 10
-30.0520382004
 20
-128.4942823047
 10
-29.944144481
 20
-128.6256258919
 10
-29.8340987588
 20
-128.7539081516
 10
-29.7223024398
 20
-128.8786611579
 10
-29.6087491309
 20
-128.9998720215
 10
-29.4934452251
 20
-129.1175536316
 10
-29.3768113086
 20
-129.2312767293
 10
-29.2588425239
 20
-129.3410268577
 10
-29.1395437284
 20
-129.4468184738
 10
-29.0193500798
 20
-129.5482656888
 10
-28.8982583101
 20
-129.6453526367
 10
-28.7762716873
 20
-129.7380951836
 10
-28.6538351735
 20
-129.8261550391
 10
-28.5310970892
 20
-129.9094194396
 10
-28.4079091139
 20
-129.9880011487
 10
-28.2842712475
 20
-130.0619001663
  0
LINE
  5
273
100
AcDbEntity
  8
RACCORDO
100
AcDbLine
 62
7
  6
CONTINUOUS
 10
-36.0624458405
 20
152.0285410107
 11
-36.0624458405
 21
-126.3878233756
  0
LINE
  5
274
100
AcDbEntity
  8
RACCORDO
100
AcDbLine
 62
7
  6
CONTINUOUS
 10
-33.941125497
 20
153.2533647907
 11
-33.941125497
 21
-125.1629995956
  0
LINE
  5
275
100
AcDbEntity
  8
RACCORDO
100
AcDbLine
 62
7
  6
CONTINUOUS
 10
-31.8198051534
 20
153.6612448347
 11
-31.8198051534
 21
-123.9381758157
  0
LINE
  5
276
100
AcDbEntity
  8
RACCORDO
100
AcDbLine
 62
7
  6
CONTINUOUS
 10
-29.5924187927
 20
166.8675272788
 11
-29.5924187927
 21
154.0081204193
  0
LINE
  5
277
100
AcDbEntity
  8
RACCORDO
100
AcDbLine
 62
7
  6
CONTINUOUS
 10
-29.5924187927
 20
-135.8388278421
 11
-29.5924187927
 21
-142.3705900565
  0
LINE
  5
278
100
AcDbEntity
  8
RACCORDO
100
AcDbLine
 62
7
  6
CONTINUOUS
 10
-27.4710984491
 20
166.4591737756
 11
-27.4710984491
 21
155.2329441993
  0
LINE
  5
279
100
AcDbEntity
  8
RACCORDO
100
AcDbLine
 62
7
  6
CONTINUOUS
 10
-27.4710984491
 20
-134.6140040621
 11
-27.4710984491
 21
-141.1457662765
  0
LWPOLYLINE
  5
27A
100
AcDbEntity
  8
RACCORDO
100
AcDbPolyline
 62
7
  6
CONTINUOUS
 90
19
 70
0
 10
-27.4710984491
 20
155.2329441993
 10
-27.472465761
 20
155.1622812849
 10
-27.476498692
 20
155.0935626779
 10
-27.4831972422
 20
155.0267883782
 10
-27.4925842819
 20
154.9618388313
 10
-27.5046369407
 20
154.8988335917
 10
-27.5192866077
 20
154.8381313234
 10
-27.5365480947
 20
154.779745161
 10
-27.5564065898
 20
154.7236619698
 10
-27.5787490466
 20
154.6702010092
 10
-27.6035896321
 20
154.6193772349
 10
-27.6309141792
 20
154.5711756911
 10
-27.6605671401
 20
154.5258707701
 10
-27.6925617947
 20
154.4834789926
 10
-27.7268848632
 20
154.4439838379
 10
-27.7633409579
 20
154.4076101363
 10
-27.8019422443
 20
154.3743756908
 10
-27.8426765569
 20
154.3442626983
 10
-27.8852636912
 20
154.3174704771
  0
LWPOLYLINE
  5
27B
100
AcDbEntity
  8
RACCORDO
100
AcDbPolyline
 62
7
  6
CONTINUOUS
 90
16
 70
0
 10
-29.5924187927
 20
166.8675272788
 10
-29.5914276793
 20
166.9098791628
 10
-29.5885257934
 20
166.9507783472
 10
-29.5837131348
 20
166.9902248321
 10
-29.5769660811
 20
167.0283185909
 10
-29.5683082548
 20
167.0649596501
 10
-29.5578105234
 20
167.0998480888
 10
-29.5454577855
 20
167.1329695219
 10
-29.5312651426
 20
167.1643383344
 10
-29.5153487668
 20
167.1936977608
 10
-29.4976945101
 20
167.2210313084
 10
-29.4783165206
 20
167.24635547
 10
-29.4573734143
 20
167.2694629575
 10
-29.4348523452
 20
167.2903355771
 10
-29.4107661594
 20
167.3089915227
 10
-29.3853361716
 20
167.3252641399
  0
LWPOLYLINE
  5
27C
100
AcDbEntity
  8
0
100
AcDbPolyline
 62
7
  6
CONTINUOUS
 90
16
 70
0
 10
-1.0606601718
 20
-144.515140355
 10
-1.0327593994
 20
-144.8540125981
 10
-0.9482370574
 20
-145.2180927575
 10
-0.8105372255
 20
-145.5868132888
 10
-0.6288418981
 20
-145.939105946
 10
-0.4042201299
 20
-146.2728979181
 10
-0.1486436917
 20
-146.5682419978
 10
0.1274472466
 20
-146.813073527
 10
0.4078419508
 20
-146.9947720158
 10
0.6908906414
 20
-147.1122683911
 10
0.9601592736
 20
-147.1570290092
 10
1.2007006878
 20
-147.128368502
 10
1.4110995921
 20
-147.0264555015
 10
1.578298262
 20
-146.8553121575
 10
1.6954667153
 20
-146.6219295903
 10
1.7577620838
 20
-146.3363559274
  0
LWPOLYLINE
  5
27D
100
AcDbEntity
  8
CURVE
100
AcDbPolyline
 62
250
  6
CONTINUOUS
 90
17
 70
0
 10
-37.8302127935
 20
182.2788634032
 10
-37.8638796405
 20
182.694768655
 10
-37.9635978217
 20
183.133709836
 10
-38.1255691027
 20
183.578967813
 10
-38.3479797464
 20
184.0211447261
 10
-38.6145787413
 20
184.4279317702
 10
-38.9186351749
 20
184.7917390989
 10
-39.2485676321
 20
185.0987094041
 10
-39.5979797464
 20
185.3407255785
 10
-39.9413408137
 20
185.5001040815
 10
-40.2716233645
 20
185.5756641588
 10
-40.5762470392
 20
185.5645277507
 10
-40.8479797464
 20
185.4646133938
 10
-41.0669666297
 20
185.2832215901
 10
-41.2300002589
 20
185.0262723476
 10
-41.3308707339
 20
184.703552783
 10
-41.3657466994
 20
184.3202361914
  0
LWPOLYLINE
  5
27E
100
AcDbEntity
  8
CURVE
100
AcDbPolyline
 62
250
  6
CONTINUOUS
 90
17
 70
0
 10
-3.8890872965
 20
-178.3579516929
 10
-3.8554204495
 20
-178.7738569446
 10
-3.7557022683
 20
-179.2127981256
 10
-3.5937309873
 20
-179.6580561026
 10
-3.3713203436
 20
-180.1002330158
 10
-3.1047213487
 20
-180.5070200598
 10
-2.8006649151
 20
-180.8708273885
 10
-2.4707324579
 20
-181.1777976937
 10
-2.1213203436
 20
-181.4198138682
 10
-1.7779592763
 20
-181.5791923711
 10
-1.4476767255
 20
-181.6547524484
 10
-1.1430530508
 20
-181.6436160403
 10
-0.8713203436
 20
-181.5437016834
 10
-0.6523334603
 20
-181.3623098797
 10
-0.4892998311
 20
-181.1053606372
 10
-0.3884293561
 20
-180.7826410726
 10
-0.3535533906
 20
-180.3993244811
  0
LWPOLYLINE
  5
27F
100
AcDbEntity
  8
CURVE
100
AcDbPolyline
 62
250
  6
CONTINUOUS
 90
17
 70
0
 10
-0.3535533906
 20
-180.3993246595
 10
-0.3872202376
 20
-179.9834194077
 10
-0.4869384188
 20
-179.5444782268
 10
-0.6489096998
 20
-179.0992202498
 10
-0.8713203436
 20
-178.6570433366
 10
-1.1379193384
 20
-178.2502562926
 10
-1.441975772
 20
-177.8864489639
 10
-1.7719082292
 20
-177.5794786586
 10
-2.1213203436
 20
-177.3374624842
 10
-2.4646814108
 20
-177.1780839813
 10
-2.7949639616
 20
-177.1025239039
 10
-3.0995876364
 20
-177.113660312
 10
-3.3713203436
 20
-177.213574669
 10
-3.5903072268
 20
-177.3949664726
 10
-3.753340856
 20
-177.6519157152
 10
-3.854211331
 20
-177.9746352797
 10
-3.8890872965
 20
-178.3579518713
  0
LWPOLYLINE
  5
280
100
AcDbEntity
  8
0
100
AcDbPolyline
 62
7
  6
CONTINUOUS
 90
34
 70
0
 10
1.7291200138
 20
-146.1097677532
 10
1.7122293034
 20
-146.0168268263
 10
1.692322501
 20
-145.923038618
 10
1.6694153786
 20
-145.8284075588
 10
1.6436281454
 20
-145.7334302414
 10
1.614945661
 20
-145.6381048456
 10
1.5833830657
 20
-145.5424331916
 10
1.5491059896
 20
-145.4469173328
 10
1.5121001632
 20
-145.351558088
 10
1.472379856
 20
-145.2563546384
 10
1.430153507
 20
-145.1618065802
 10
1.3854079425
 20
-145.0679173587
 10
1.3381563363
 20
-144.9746835287
 10
1.2886466493
 20
-144.8825943505
 10
1.236867011
 20
-144.7916558414
 10
1.1828292919
 20
-144.7018619841
 10
1.1268170641
 20
-144.6136839873
 10
1.0688199479
 20
-144.5271303452
 10
1.008848323
 20
-144.4421925636
 10
0.9472169007
 20
-144.3593163678
 10
0.8839169557
 20
-144.2785125953
 10
0.8189572133
 20
-144.1997704088
 10
0.7526785609
 20
-144.1235030212
 10
0.6850740651
 20
-144.0497234421
 10
0.6161506592
 20
-143.978418662
 10
0.5462700306
 20
-143.9099628648
 10
0.4754271472
 20
-143.8443710273
 10
0.4036270411
 20
-143.7816281726
 10
0.3312464955
 20
-143.7220635546
 10
0.2582824592
 20
-143.6656938809
 10
0.1847379834
 20
-143.612502444
 10
0.1109990054
 20
-143.5627683749
 10
0.0370645026
 20
-143.5165098485
 10
-0.0001708411
 20
-143.4945644283
  0
LWPOLYLINE
  5
281
100
AcDbEntity
  8
0
100
AcDbPolyline
 62
7
  6
CONTINUOUS
 90
51
 70
0
 10
-0.7071067812
 20
-144.515140355
 10
-0.7057051849
 20
-144.5839357541
 10
-0.7015035712
 20
-144.6541938377
 10
-0.6945114581
 20
-144.7257554486
 10
-0.6847446849
 20
-144.7984584769
 10
-0.6722253766
 20
-144.8721382267
 10
-0.6569818934
 20
-144.9466277897
 10
-0.6390487666
 20
-145.0217584231
 10
-0.6184666206
 20
-145.0973599319
 10
-0.5952820806
 20
-145.1732610542
 10
-0.569547667
 20
-145.2492898498
 10
-0.5413216766
 20
-145.3252740888
 10
-0.5106680502
 20
-145.4010416426
 10
-0.4776562282
 20
-145.4764208732
 10
-0.442360993
 20
-145.5512410226
 10
-0.4048622997
 20
-145.6253325988
 10
-0.3652450948
 20
-145.6985277608
 10
-0.3235991241
 20
-145.7706606979
 10
-0.2800187291
 20
-145.8415680059
 10
-0.2346026334
 20
-145.9110890568
 10
-0.187453719
 20
-145.9790663631
 10
-0.1386787935
 20
-146.0453459344
 10
-0.0883883476
 20
-146.1097776262
 10
-0.0366963056
 20
-146.1722154798
 10
0.0162802337
 20
-146.2325180535
 10
0.0704212611
 20
-146.2905487426
 10
0.12560413
 20
-146.3461760889
 10
0.1817038334
 20
-146.3992740785
 10
0.2385932873
 20
-146.4497224275
 10
0.296143619
 20
-146.4974068541
 10
0.3542244583
 20
-146.5422193377
 10
0.4127042335
 20
-146.5840583636
 10
0.471450469
 20
-146.6228291531
 10
0.5303300859
 20
-146.6584438777
 10
0.5892097027
 20
-146.6908218587
 10
0.6479559383
 20
-146.7198897496
 10
0.7064357135
 20
-146.7455817022
 10
0.7645165528
 20
-146.767839516
 10
0.8220668844
 20
-146.7866127698
 10
0.8789563384
 20
-146.8018589363
 10
0.9350560417
 20
-146.8135434779
 10
0.9902389106
 20
-146.8216399254
 10
1.0443799381
 20
-146.8261299377
 10
1.0973564773
 20
-146.8270033436
 10
1.1490485194
 20
-146.8242581645
 10
1.1993389653
 20
-146.817900619
 10
1.2481138908
 20
-146.8079451092
 10
1.2952628052
 20
-146.7944141873
 10
1.3406789009
 20
-146.7773385053
 10
1.3842592959
 20
-146.7567567452
 10
1.4053723661
 20
-146.7451409387
  0
LWPOLYLINE
  5
282
100
AcDbEntity
  8
0
100
AcDbPolyline
 62
7
  6
CONTINUOUS
 90
76
 70
0
 10
-1.767766953
 20
-144.515140355
 10
-1.7661937082
 20
-144.6017727264
 10
-1.7615472514
 20
-144.6897312489
 10
-1.7538275825
 20
-144.7790159225
 10
-1.7430104042
 20
-144.8697878474
 10
-1.7291200138
 20
-144.9618859235
 10
-1.7122293034
 20
-145.0548268503
 10
-1.692322501
 20
-145.1486150587
 10
-1.6694153786
 20
-145.2432461179
 10
-1.6436281454
 20
-145.3382234352
 10
-1.614945661
 20
-145.433548831
 10
-1.5833830657
 20
-145.529220485
 10
-1.5491059896
 20
-145.6247363439
 10
-1.5121001632
 20
-145.7200955886
 10
-1.472379856
 20
-145.8152990383
 10
-1.430153507
 20
-145.9098470965
 10
-1.3854079425
 20
-146.0037363179
 10
-1.3381563363
 20
-146.096970148
 10
-1.2886466493
 20
-146.1890593262
 10
-1.236867011
 20
-146.2799978353
 10
-1.1828292919
 20
-146.3697916925
 10
-1.1268170641
 20
-146.4579696893
 10
-1.0688199479
 20
-146.5445233314
 10
-1.008848323
 20
-146.6294611131
 10
-0.9472169007
 20
-146.7123373089
 10
-0.8839169557
 20
-146.7931410813
 10
-0.8189572133
 20
-146.8718832679
 10
-0.7526785609
 20
-146.9481506555
 10
-0.6850740651
 20
-147.0219302345
 10
-0.6161506592
 20
-147.0932350146
 10
-0.5462700306
 20
-147.1616908118
 10
-0.4754271472
 20
-147.2272826494
 10
-0.4036270411
 20
-147.2900255041
 10
-0.3312464955
 20
-147.349590122
 10
-0.2582824592
 20
-147.4059597957
 10
-0.1847379834
 20
-147.4591512327
 10
-0.1109990054
 20
-147.5088853018
 10
-0.0370645026
 20
-147.5551438281
 10
0.0370645026
 20
-147.5979449866
 10
0.1109990054
 20
-147.6370641709
 10
0.1847379834
 20
-147.6724820253
 10
0.2582824592
 20
-147.7042179055
 10
0.3312464955
 20
-147.7321052721
 10
0.4036270411
 20
-147.7561238939
 10
0.4754271472
 20
-147.776294002
 10
0.5462700306
 20
-147.7925097504
 10
0.6161506592
 20
-147.8047503515
 10
0.6850740651
 20
-147.8130365929
 10
0.7526785609
 20
-147.817324991
 10
0.8189572133
 20
-147.8175945299
 10
0.8839169557
 20
-147.8138662256
 10
0.9472169007
 20
-147.806159643
 10
1.008848323
 20
-147.7944538688
 10
1.0688199479
 20
-147.7787698163
 10
1.1268170641
 20
-147.7591897903
 10
1.1828292919
 20
-147.7356933101
 10
1.236867011
 20
-147.7083008564
 10
1.2886466493
 20
-147.6771561757
 10
1.3381563363
 20
-147.6422395431
 10
1.3854079425
 20
-147.6035706835
 10
1.430153507
 20
-147.5613525183
 10
1.472379856
 20
-147.5155663894
 10
1.5121001632
 20
-147.4662309549
 10
1.5491059896
 20
-147.413605111
 10
1.5833830657
 20
-147.3576715603
 10
1.614945661
 20
-147.2984476003
 10
1.6436281454
 20
-147.2362440185
 10
1.6694153786
 20
-147.1710451517
 10
1.692322501
 20
-147.1028666632
 10
1.7122293034
 20
-147.0320663314
 10
1.7291200138
 20
-146.9586303734
 10
1.7430104042
 20
-146.8825725721
 10
1.7538275825
 20
-146.8042920536
 10
1.7615472514
 20
-146.7239218601
 10
1.7661937082
 20
-146.6413289494
 10
1.767766953
 20
-146.5565133216
  0
LWPOLYLINE
  5
283
100
AcDbEntity
  8
0
100
AcDbPolyline
 62
7
  6
CONTINUOUS
 90
6
 70
0
 10
1.767766953
 20
-146.5565133216
 10
1.7661937082
 20
-146.4698809503
 10
1.7615472514
 20
-146.3819224278
 10
1.7538275825
 20
-146.2926377541
 10
1.7430104042
 20
-146.2018658292
 10
1.7291200138
 20
-146.1097677532
  0
LWPOLYLINE
  5
284
100
AcDbEntity
  8
0
100
AcDbPolyline
 62
7
  6
CONTINUOUS
 90
76
 70
0
 10
-1.767766953
 20
146.5565133216
 10
-1.7661937082
 20
146.4698809503
 10
-1.7615472514
 20
146.3819224278
 10
-1.7538275825
 20
146.2926377541
 10
-1.7430104042
 20
146.2018658292
 10
-1.7291200138
 20
146.1097677532
 10
-1.7122293034
 20
146.0168268263
 10
-1.692322501
 20
145.923038618
 10
-1.6694153786
 20
145.8284075588
 10
-1.6436281454
 20
145.7334302414
 10
-1.614945661
 20
145.6381048456
 10
-1.5833830657
 20
145.5424331916
 10
-1.5491059896
 20
145.4469173328
 10
-1.5121001632
 20
145.351558088
 10
-1.472379856
 20
145.2563546384
 10
-1.430153507
 20
145.1618065802
 10
-1.3854079425
 20
145.0679173587
 10
-1.3381563363
 20
144.9746835287
 10
-1.2886466493
 20
144.8825943505
 10
-1.236867011
 20
144.7916558414
 10
-1.1828292919
 20
144.7018619841
 10
-1.1268170641
 20
144.6136839873
 10
-1.0688199479
 20
144.5271303452
 10
-1.008848323
 20
144.4421925636
 10
-0.9472169007
 20
144.3593163678
 10
-0.8839169557
 20
144.2785125953
 10
-0.8189572133
 20
144.1997704088
 10
-0.7526785609
 20
144.1235030212
 10
-0.6850740651
 20
144.0497234421
 10
-0.6161506592
 20
143.978418662
 10
-0.5462700306
 20
143.9099628648
 10
-0.4754271472
 20
143.8443710273
 10
-0.4036270411
 20
143.7816281726
 10
-0.3312464955
 20
143.7220635546
 10
-0.2582824592
 20
143.6656938809
 10
-0.1847379834
 20
143.612502444
 10
-0.1109990054
 20
143.5627683749
 10
-0.0370645026
 20
143.5165098485
 10
0.0370645026
 20
143.47370869
 10
0.1109990054
 20
143.4345895057
 10
0.1847379834
 20
143.3991716513
 10
0.2582824592
 20
143.3674357711
 10
0.3312464955
 20
143.3395484046
 10
0.4036270411
 20
143.3155297828
 10
0.4754271472
 20
143.2953596747
 10
0.5462700306
 20
143.2791439263
 10
0.6161506592
 20
143.2669033252
 10
0.6850740651
 20
143.2586170838
 10
0.7526785609
 20
143.2543286856
 10
0.8189572133
 20
143.2540591467
 10
0.8839169557
 20
143.2577874511
 10
0.9472169007
 20
143.2654940337
 10
1.008848323
 20
143.2771998079
 10
1.0688199479
 20
143.2928838603
 10
1.1268170641
 20
143.3124638863
 10
1.1828292919
 20
143.3359603665
 10
1.236867011
 20
143.3633528202
 10
1.2886466493
 20
143.3944975009
 10
1.3381563363
 20
143.4294141335
 10
1.3854079425
 20
143.4680829931
 10
1.430153507
 20
143.5103011583
 10
1.472379856
 20
143.5560872872
 10
1.5121001632
 20
143.6054227217
 10
1.5491059896
 20
143.6580485657
 10
1.5833830657
 20
143.7139821163
 10
1.614945661
 20
143.7732060764
 10
1.6436281454
 20
143.8354096581
 10
1.6694153786
 20
143.9006085249
 10
1.692322501
 20
143.9687870134
 10
1.7122293034
 20
144.0395873453
 10
1.7291200138
 20
144.1130233032
 10
1.7430104042
 20
144.1890811046
 10
1.7538275825
 20
144.267361623
 10
1.7615472514
 20
144.3477318166
 10
1.7661937082
 20
144.4303247272
 10
1.767766953
 20
144.515140355
  0
LINE
  5
285
100
AcDbEntity
  8
RACCORDO
100
AcDbLine
 62
7
  6
CONTINUOUS
 10
-8.8388347648
 20
-138.0238071052
 11
-8.8388347648
 21
-139.6567476588
  0
LWPOLYLINE
  5
286
100
AcDbEntity
  8
RACCORDO
100
AcDbPolyline
 62
7
  6
CONTINUOUS
 90
24
 70
0
 10
-8.8388347648
 20
-139.6567476588
 10
-8.8410103454
 20
-139.7982516175
 10
-8.8474663536
 20
-139.9367646381
 10
-8.8582027895
 20
-140.0722867208
 10
-8.8732431448
 20
-140.204975562
 10
-8.8925639278
 20
-140.3346734651
 10
-8.9160946634
 20
-140.4609073404
 10
-8.9438507266
 20
-140.5836645369
 10
-8.9758167426
 20
-140.7029577055
 10
-9.0118761109
 20
-140.8183517089
 10
-9.052043781
 20
-140.9298323071
 10
-9.0963048035
 20
-141.0374137402
 10
-9.1444977307
 20
-141.1407035909
 10
-9.1966369221
 20
-141.2396861861
 10
-9.2527080181
 20
-141.334377199
 10
-9.3125064923
 20
-141.4244312318
 10
-9.3760459572
 20
-141.50983135
 10
-9.4433128001
 20
-141.5905944881
 10
-9.5140616567
 20
-141.6664260522
 10
-9.5883052434
 20
-141.7373080317
 10
-9.6660308436
 20
-141.8032584372
 10
-9.7469549433
 20
-141.8640367061
 10
-9.8310892235
 20
-141.9196239492
 10
-9.8742549103
 20
-141.9454197712
  0
LWPOLYLINE
  5
287
100
AcDbEntity
  8
0
100
AcDbPolyline
 62
7
  6
CONTINUOUS
 90
18
 70
0
 10
-0.7071067812
 20
146.5565133216
 10
-0.7057051849
 20
146.6236901925
 10
-0.7015035712
 20
146.6890963579
 10
-0.6945114581
 20
146.7525836519
 10
-0.6847446849
 20
146.8140082553
 10
-0.6722253766
 20
146.8732310216
 10
-0.6569818934
 20
146.9301177923
 10
-0.6390487666
 20
146.9845397004
 10
-0.6184666206
 20
147.0363734629
 10
-0.5952820806
 20
147.0855016597
 10
-0.569547667
 20
147.1318129995
 10
-0.5413216766
 20
147.1752025722
 10
-0.5106680502
 20
147.2155720866
 10
-0.4776562282
 20
147.2528300927
 10
-0.442360993
 20
147.2868921891
 10
-0.4048622997
 20
147.3176812143
 10
-0.3652450948
 20
147.3451274211
 10
-0.3447121944
 20
147.3575528286
  0
LWPOLYLINE
  5
288
100
AcDbEntity
  8
0
100
AcDbPolyline
 62
7
  6
CONTINUOUS
 90
16
 70
0
 10
-1.0606601718
 20
146.5565133216
 10
-1.0327593994
 20
146.2176410785
 10
-0.9482370574
 20
145.8535609191
 10
-0.8105372255
 20
145.4848403878
 10
-0.6288418981
 20
145.1325477306
 10
-0.4042201299
 20
144.7987557585
 10
-0.1486436917
 20
144.5034116788
 10
0.1274472466
 20
144.2585801496
 10
0.4078419508
 20
144.0768816608
 10
0.6908906414
 20
143.9593852856
 10
0.9601592736
 20
143.9146246675
 10
1.2007006878
 20
143.9432851747
 10
1.4110995921
 20
144.0451981752
 10
1.578298262
 20
144.2163415191
 10
1.6954667153
 20
144.4497240863
 10
1.7577620838
 20
144.7352977492
  0
LWPOLYLINE
  5
289
100
AcDbEntity
  8
CURVE
100
AcDbPolyline
 62
250
  6
CONTINUOUS
 90
17
 70
0
 10
-3.8890872965
 20
177.9496770995
 10
-3.8554204495
 20
177.5337718478
 10
-3.7557022683
 20
177.0948306668
 10
-3.5937309873
 20
176.6495726898
 10
-3.3713203436
 20
176.2073957766
 10
-3.1047213487
 20
175.8006087326
 10
-2.8006649151
 20
175.4368014039
 10
-2.4707324579
 20
175.1298310987
 10
-2.1213203436
 20
174.8878149242
 10
-1.7779592763
 20
174.7284364213
 10
-1.4476767255
 20
174.6528763439
 10
-1.1430530508
 20
174.664012752
 10
-0.8713203436
 20
174.763927109
 10
-0.6523334603
 20
174.9453189127
 10
-0.4892998311
 20
175.2022681552
 10
-0.3884293561
 20
175.5249877198
 10
-0.3535533906
 20
175.9083043113
  0
LWPOLYLINE
  5
28A
100
AcDbEntity
  8
CURVE
100
AcDbPolyline
 62
250
  6
CONTINUOUS
 90
17
 70
0
 10
-0.3535533906
 20
175.9083041329
 10
-0.3872202376
 20
176.3242093847
 10
-0.4869384188
 20
176.7631505656
 10
-0.6489096998
 20
177.2084085426
 10
-0.8713203436
 20
177.6505854558
 10
-1.1379193384
 20
178.0573724998
 10
-1.441975772
 20
178.4211798285
 10
-1.7719082292
 20
178.7281501337
 10
-2.1213203436
 20
178.9701663082
 10
-2.4646814108
 20
179.1295448111
 10
-2.7949639616
 20
179.2051048885
 10
-3.0995876364
 20
179.1939684804
 10
-3.3713203436
 20
179.0940541234
 10
-3.5903072268
 20
178.9126623198
 10
-3.753340856
 20
178.6557130772
 10
-3.854211331
 20
178.3329935127
 10
-3.8890872965
 20
177.9496769211
  0
LWPOLYLINE
  5
28B
100
AcDbEntity
  8
0
100
AcDbPolyline
 62
7
  6
CONTINUOUS
 90
51
 70
0
 10
-0.7071067812
 20
146.5565133216
 10
-0.7057051849
 20
146.4877179226
 10
-0.7015035712
 20
146.417459839
 10
-0.6945114581
 20
146.345898228
 10
-0.6847446849
 20
146.2731951998
 10
-0.6722253766
 20
146.19951545
 10
-0.6569818934
 20
146.125025887
 10
-0.6390487666
 20
146.0498952535
 10
-0.6184666206
 20
145.9742937448
 10
-0.5952820806
 20
145.8983926224
 10
-0.569547667
 20
145.8223638269
 10
-0.5413216766
 20
145.7463795878
 10
-0.5106680502
 20
145.670612034
 10
-0.4776562282
 20
145.5952328034
 10
-0.442360993
 20
145.5204126541
 10
-0.4048622997
 20
145.4463210778
 10
-0.3652450948
 20
145.3731259158
 10
-0.3235991241
 20
145.3009929787
 10
-0.2800187291
 20
145.2300856708
 10
-0.2346026334
 20
145.1605646198
 10
-0.187453719
 20
145.0925873135
 10
-0.1386787935
 20
145.0263077422
 10
-0.0883883476
 20
144.9618760505
 10
-0.0366963056
 20
144.8994381969
 10
0.0162802337
 20
144.8391356231
 10
0.0704212611
 20
144.781104934
 10
0.12560413
 20
144.7254775878
 10
0.1817038334
 20
144.6723795981
 10
0.2385932873
 20
144.6219312492
 10
0.296143619
 20
144.5742468226
 10
0.3542244583
 20
144.529434339
 10
0.4127042335
 20
144.487595313
 10
0.471450469
 20
144.4488245236
 10
0.5303300859
 20
144.4132097989
 10
0.5892097027
 20
144.3808318179
 10
0.6479559383
 20
144.351763927
 10
0.7064357135
 20
144.3260719745
 10
0.7645165528
 20
144.3038141607
 10
0.8220668844
 20
144.2850409068
 10
0.8789563384
 20
144.2697947404
 10
0.9350560417
 20
144.2581101988
 10
0.9902389106
 20
144.2500137513
 10
1.0443799381
 20
144.2455237389
 10
1.0973564773
 20
144.244650333
 10
1.1490485194
 20
144.2473955122
 10
1.1993389653
 20
144.2537530576
 10
1.2481138908
 20
144.2637085675
 10
1.2952628052
 20
144.2772394894
 10
1.3406789009
 20
144.2943151713
 10
1.3842592959
 20
144.3148969315
 10
1.4053723661
 20
144.326512738
  0
LWPOLYLINE
  5
28C
100
AcDbEntity
  8
RACCORDO
100
AcDbPolyline
 62
7
  6
CONTINUOUS
 90
37
 70
0
 10
8.8388347648
 20
-148.2306719384
 10
8.837467453
 20
-148.1584300865
 10
8.8334345219
 20
-148.0850543518
 10
8.8267359718
 20
-148.0105447343
 10
8.8173489321
 20
-147.9347552693
 10
8.8052962732
 20
-147.8578319214
 10
8.7906466062
 20
-147.7802125848
 10
8.7733851193
 20
-147.7018932899
 10
8.7535266241
 20
-147.6228780063
 10
8.7311841673
 20
-147.5436165367
 10
8.7063435819
 20
-147.4641074769
 10
8.6790190348
 20
-147.384352231
 10
8.6493660739
 20
-147.304804814
 10
8.6173714192
 20
-147.2254664113
 10
8.5830483507
 20
-147.1463358375
 10
8.5465922561
 20
-147.0678635516
 10
8.5079909696
 20
-146.990053308
 10
8.467256657
 20
-146.9129013524
 10
8.4246212025
 20
-146.8368468801
 10
8.380073763
 20
-146.7618961505
 10
8.3336251816
 20
-146.6880429044
 10
8.2855398716
 20
-146.6157075588
 10
8.2358084981
 20
-146.544898771
 10
8.1844403961
 20
-146.4756078838
 10
8.1317279836
 20
-146.4082293428
 10
8.0776635937
 20
-146.3427740548
 10
8.0222548935
 20
-146.2792311129
 10
7.9658173026
 20
-146.2179622419
 10
7.908344953
 20
-146.1589804118
 10
7.8498437127
 20
-146.1022726526
 10
7.7906466062
 20
-146.048161779
 10
7.7307496647
 20
-145.9966626022
 10
7.6701568569
 20
-145.9477603111
 10
7.6092131137
 20
-145.901733287
 10
7.5480334121
 20
-145.8586743237
 10
7.486502775
 20
-145.8184906274
 10
7.4246212025
 20
-145.7811821981
  0
LWPOLYLINE
  5
28D
100
AcDbEntity
  8
0
100
AcDbPolyline
 62
7
  6
CONTINUOUS
 90
6
 70
0
 10
1.767766953
 20
144.515140355
 10
1.7661937082
 20
144.6017727264
 10
1.7615472514
 20
144.6897312489
 10
1.7538275825
 20
144.7790159225
 10
1.7430104042
 20
144.8697878474
 10
1.7291200138
 20
144.9618859235
  0
LWPOLYLINE
  5
28E
100
AcDbEntity
  8
RACCORDO
100
AcDbPolyline
 62
7
  6
CONTINUOUS
 90
46
 70
0
 10
10.9601551084
 20
-148.638788712
 10
10.9623306889
 20
-148.7828049765
 10
10.9687866971
 20
-148.9287732337
 10
10.9795231331
 20
-149.0766934834
 10
10.9945634883
 20
-149.2267505499
 10
11.0138842713
 20
-149.3787596089
 10
11.0374150069
 20
-149.5321661879
 10
11.0651710702
 20
-149.6869753905
 10
11.0971370861
 20
-149.843182113
 10
11.1331964545
 20
-150.0002165712
 10
11.1733641246
 20
-150.1580817879
 10
11.2176251471
 20
-150.3167747403
 10
11.2658180742
 20
-150.4757165754
 10
11.3179572656
 20
-150.6349082019
 10
11.3740283617
 20
-150.794348711
 10
11.4338268358
 20
-150.9534565229
 10
11.4973663007
 20
-151.1122304224
 10
11.5646331437
 20
-151.2706716247
 10
11.6353820002
 20
-151.4282021949
 10
11.7096255869
 20
-151.5848188074
 10
11.7873511872
 20
-151.7405247878
 10
11.8682752868
 20
-151.8947521785
 10
11.952409567
 20
-152.0474955795
 10
12.0397423466
 20
-152.1987603908
 10
12.129955068
 20
-152.3479948544
 10
12.223058249
 20
-152.4951915553
 10
12.3190413717
 20
-152.6403579086
 10
12.4175543254
 20
-152.782964401
 10
12.5186063492
 20
-152.923001684
 10
12.6221882039
 20
-153.0604791062
 10
12.7279220614
 20
-153.194895201
 10
12.8358157808
 20
-153.3262387882
 10
12.945861503
 20
-153.454521048
 10
13.0576578219
 20
-153.5792740542
 10
13.1712111309
 20
-153.7004849179
 10
13.2865150366
 20
-153.8181665279
 10
13.4031489532
 20
-153.9318896256
 10
13.5211177379
 20
-154.0416397541
 10
13.6404165334
 20
-154.1474313701
 10
13.760610182
 20
-154.2488785851
 10
13.8817019517
 20
-154.345965533
 10
14.0036885745
 20
-154.43870808
 10
14.1261250883
 20
-154.5267679354
 10
14.2488631726
 20
-154.6100323359
 10
14.3720511479
 20
-154.688614045
 10
14.4956890143
 20
-154.7625130626
  0
LINE
  5
28F
100
AcDbEntity
  8
RACCORDO
100
AcDbLine
 62
7
  6
CONTINUOUS
 10
8.8388347648
 20
-149.863612492
 11
8.8388347648
 21
-148.2306719384
  0
LINE
  5
290
100
AcDbEntity
  8
RACCORDO
100
AcDbLine
 62
7
  6
CONTINUOUS
 10
10.9601551084
 20
-148.638788712
 11
10.9601551084
 21
-147.0058481584
  0
LWPOLYLINE
  5
291
100
AcDbEntity
  8
0
100
AcDbPolyline
 62
7
  6
CONTINUOUS
 90
18
 70
0
 10
-0.7071067812
 20
-144.515140355
 10
-0.7057051849
 20
-144.4479634841
 10
-0.7015035712
 20
-144.3825573187
 10
-0.6945114581
 20
-144.3190700247
 10
-0.6847446849
 20
-144.2576454213
 10
-0.6722253766
 20
-144.198422655
 10
-0.6569818934
 20
-144.1415358844
 10
-0.6390487666
 20
-144.0871139762
 10
-0.6184666206
 20
-144.0352802137
 10
-0.5952820806
 20
-143.986152017
 10
-0.569547667
 20
-143.9398406772
 10
-0.5413216766
 20
-143.8964511044
 10
-0.5106680502
 20
-143.85608159
 10
-0.4776562282
 20
-143.818823584
 10
-0.442360993
 20
-143.7847614875
 10
-0.4048622997
 20
-143.7539724624
 10
-0.3652450948
 20
-143.7265262555
 10
-0.3447121944
 20
-143.714100848
  0
LWPOLYLINE
  5
292
100
AcDbEntity
  8
CURVE
100
AcDbPolyline
 62
250
  6
CONTINUOUS
 90
8
 70
0
 10
33.5875721064
 20
-184.7285109632
 10
33.6274955421
 20
-185.1829132923
 10
33.7480215133
 20
-185.6708546741
 10
33.9435375972
 20
-186.1624511726
 10
34.2002437092
 20
-186.6274197747
 10
34.5145463005
 20
-187.0592515296
 10
34.8680764507
 20
-187.4299621305
 10
35.2443400859
 20
-187.7222559308
  0
LWPOLYLINE
  5
293
100
AcDbEntity
  8
CURVE
100
AcDbPolyline
 62
250
  6
CONTINUOUS
 90
17
 70
0
 10
37.1231060123
 20
-186.7698839298
 10
37.0894391653
 20
-186.3539786781
 10
36.989720984
 20
-185.9150374971
 10
36.8277497031
 20
-185.4697795201
 10
36.6053390593
 20
-185.0276026069
 10
36.3387400645
 20
-184.6208155629
 10
36.0346836309
 20
-184.2570082342
 10
35.7047511737
 20
-183.950037929
 10
35.3553390593
 20
-183.7080217545
 10
35.0119779921
 20
-183.5486432516
 10
34.6816954413
 20
-183.4730831743
 10
34.3770717665
 20
-183.4842195824
 10
34.1053390593
 20
-183.5841339393
 10
33.8863521761
 20
-183.765525743
 10
33.7233185469
 20
-184.0224749855
 10
33.6224480719
 20
-184.3451945501
 10
33.5875721064
 20
-184.7285111416
  0
LWPOLYLINE
  5
294
100
AcDbEntity
  8
CURVE
100
AcDbPolyline
 62
250
  6
CONTINUOUS
 90
17
 70
0
 10
33.5875721064
 20
-138.189705186
 10
33.6212389534
 20
-138.6056104378
 10
33.7209571346
 20
-139.0445516188
 10
33.8829284156
 20
-139.4898095957
 10
34.1053390593
 20
-139.9319865089
 10
34.3719380542
 20
-140.338773553
 10
34.6759944877
 20
-140.7025808816
 10
35.005926945
 20
-141.0095511869
 10
35.3553390593
 20
-141.2515673613
 10
35.6987001265
 20
-141.4109458642
 10
36.0289826774
 20
-141.4865059416
 10
36.3336063521
 20
-141.4753695335
 10
36.6053390593
 20
-141.3754551765
 10
36.8243259425
 20
-141.1940633729
 10
36.9873595718
 20
-140.9371141304
 10
37.0882300468
 20
-140.6143945658
 10
37.1231060123
 20
-140.2310779742
  0
LWPOLYLINE
  5
295
100
AcDbEntity
  8
CURVE
100
AcDbPolyline
 62
250
  6
CONTINUOUS
 90
17
 70
0
 10
37.1231060123
 20
-140.2310781526
 10
37.0894391653
 20
-139.8151729009
 10
36.989720984
 20
-139.3762317199
 10
36.8277497031
 20
-138.9309737429
 10
36.6053390593
 20
-138.4887968298
 10
36.3387400645
 20
-138.0820097857
 10
36.0346836309
 20
-137.718202457
 10
35.7047511737
 20
-137.4112321518
 10
35.3553390593
 20
-137.1692159773
 10
35.0119779921
 20
-137.0098374744
 10
34.6816954413
 20
-136.9342773971
 10
34.3770717665
 20
-136.9454138052
 10
34.1053390593
 20
-137.0453281621
 10
33.8863521761
 20
-137.2267199658
 10
33.7233185469
 20
-137.4836692083
 10
33.6224480719
 20
-137.8063887729
 10
33.5875721064
 20
-138.1897053645
  0
LWPOLYLINE
  5
296
100
AcDbEntity
  8
CURVE
100
AcDbPolyline
 62
250
  6
CONTINUOUS
 90
17
 70
0
 10
33.5875721064
 20
-91.6508994088
 10
33.6212389534
 20
-92.0668046606
 10
33.7209571346
 20
-92.5057458416
 10
33.8829284156
 20
-92.9510038185
 10
34.1053390593
 20
-93.3931807317
 10
34.3719380542
 20
-93.7999677758
 10
34.6759944877
 20
-94.1637751045
 10
35.005926945
 20
-94.4707454097
 10
35.3553390593
 20
-94.7127615841
 10
35.6987001265
 20
-94.872140087
 10
36.0289826774
 20
-94.9477001644
 10
36.3336063521
 20
-94.9365637563
 10
36.6053390593
 20
-94.8366493994
 10
36.8243259425
 20
-94.6552575957
 10
36.9873595718
 20
-94.3983083532
 10
37.0882300468
 20
-94.0755887886
 10
37.1231060123
 20
-93.692272197
  0
LWPOLYLINE
  5
297
100
AcDbEntity
  8
RACCORDO
100
AcDbPolyline
 62
7
  6
CONTINUOUS
 90
37
 70
0
 10
25.3497781055
 20
122.2851845178
 10
25.3511454174
 20
122.2129426659
 10
25.3551783484
 20
122.1395669312
 10
25.3618768986
 20
122.0650573137
 10
25.3712639383
 20
121.9892678486
 10
25.3833165971
 20
121.9123445008
 10
25.3979662641
 20
121.8347251642
 10
25.4152277511
 20
121.7564058693
 10
25.4350862463
 20
121.6773905857
 10
25.457428703
 20
121.5981291161
 10
25.4822692885
 20
121.5186200562
 10
25.5095938356
 20
121.4388648104
 10
25.5392467965
 20
121.3593173934
 10
25.5712414512
 20
121.2799789907
 10
25.6055645196
 20
121.2008484169
 10
25.6420206143
 20
121.122376131
 10
25.6806219007
 20
121.0445658874
 10
25.7213562134
 20
120.9674139318
 10
25.7639916679
 20
120.8913594595
 10
25.8085391074
 20
120.8164087299
 10
25.8549876888
 20
120.7425554837
 10
25.9030729988
 20
120.6702201382
 10
25.9528043723
 20
120.5994113504
 10
26.0041724743
 20
120.5301204632
 10
26.0568848867
 20
120.4627419222
 10
26.1109492766
 20
120.3972866342
 10
26.1663579769
 20
120.3337436923
 10
26.2227955678
 20
120.2724748213
 10
26.2802679174
 20
120.2134929912
 10
26.3387691577
 20
120.1567852319
 10
26.3979662641
 20
120.1026743584
 10
26.4578632057
 20
120.0511751816
 10
26.5184560134
 20
120.0022728905
 10
26.5793997566
 20
119.9562458664
 10
26.6405794583
 20
119.9131869031
 10
26.7021100954
 20
119.8730032068
 10
26.7639916679
 20
119.8356947775
  0
LINE
  5
298
100
AcDbEntity
  8
RACCORDO
100
AcDbLine
 62
7
  6
CONTINUOUS
 10
25.3497781055
 20
-174.093525958
 11
25.3497781055
 21
-172.052350266
  0
LINE
  5
299
100
AcDbEntity
  8
RACCORDO
100
AcDbLine
 62
7
  6
CONTINUOUS
 10
25.3497781055
 20
122.2851845178
 11
25.3497781055
 21
135.1445913773
  0
LWPOLYLINE
  5
29A
100
AcDbEntity
  8
0
100
AcDbPolyline
 62
7
  6
CONTINUOUS
 90
34
 70
0
 10
1.7291200138
 20
144.9618859235
 10
1.7122293034
 20
145.0548268503
 10
1.692322501
 20
145.1486150587
 10
1.6694153786
 20
145.2432461179
 10
1.6436281454
 20
145.3382234352
 10
1.614945661
 20
145.433548831
 10
1.5833830657
 20
145.529220485
 10
1.5491059896
 20
145.6247363439
 10
1.5121001632
 20
145.7200955886
 10
1.472379856
 20
145.8152990383
 10
1.430153507
 20
145.9098470965
 10
1.3854079425
 20
146.0037363179
 10
1.3381563363
 20
146.096970148
 10
1.2886466493
 20
146.1890593262
 10
1.236867011
 20
146.2799978353
 10
1.1828292919
 20
146.3697916925
 10
1.1268170641
 20
146.4579696893
 10
1.0688199479
 20
146.5445233314
 10
1.008848323
 20
146.6294611131
 10
0.9472169007
 20
146.7123373089
 10
0.8839169557
 20
146.7931410813
 10
0.8189572133
 20
146.8718832679
 10
0.7526785609
 20
146.9481506555
 10
0.6850740651
 20
147.0219302345
 10
0.6161506592
 20
147.0932350146
 10
0.5462700306
 20
147.1616908118
 10
0.4754271472
 20
147.2272826494
 10
0.4036270411
 20
147.2900255041
 10
0.3312464955
 20
147.349590122
 10
0.2582824592
 20
147.4059597957
 10
0.1847379834
 20
147.4591512327
 10
0.1109990054
 20
147.5088853018
 10
0.0370645026
 20
147.5551438281
 10
-0.0001708411
 20
147.5770892483
  0
LWPOLYLINE
  5
29B
100
AcDbEntity
  8
CURVE
100
AcDbPolyline
 62
250
  6
CONTINUOUS
 90
17
 70
0
 10
37.1231060123
 20
-93.6922723755
 10
37.0894391653
 20
-93.2763671237
 10
36.989720984
 20
-92.8374259427
 10
36.8277497031
 20
-92.3921679657
 10
36.6053390593
 20
-91.9499910526
 10
36.3387400645
 20
-91.5432040085
 10
36.0346836309
 20
-91.1793966798
 10
35.7047511737
 20
-90.8724263746
 10
35.3553390593
 20
-90.6304102002
 10
35.0119779921
 20
-90.4710316972
 10
34.6816954413
 20
-90.3954716199
 10
34.3770717665
 20
-90.406608028
 10
34.1053390593
 20
-90.5065223849
 10
33.8863521761
 20
-90.6879141886
 10
33.7233185469
 20
-90.9448634311
 10
33.6224480719
 20
-91.2675829957
 10
33.5875721064
 20
-91.6508995873
  0
LWPOLYLINE
  5
29C
100
AcDbEntity
  8
CURVE
100
AcDbPolyline
 62
250
  6
CONTINUOUS
 90
17
 70
0
 10
33.5875721064
 20
-45.1120936316
 10
33.6212389534
 20
-45.5279988834
 10
33.7209571346
 20
-45.9669400644
 10
33.8829284156
 20
-46.4121980413
 10
34.1053390593
 20
-46.8543749545
 10
34.3719380542
 20
-47.2611619986
 10
34.6759944877
 20
-47.6249693273
 10
35.005926945
 20
-47.9319396325
 10
35.3553390593
 20
-48.1739558069
 10
35.6987001265
 20
-48.3333343099
 10
36.0289826774
 20
-48.4088943872
 10
36.3336063521
 20
-48.3977579791
 10
36.6053390593
 20
-48.2978436222
 10
36.8243259425
 20
-48.1164518185
 10
36.9873595718
 20
-47.859502576
 10
37.0882300468
 20
-47.5367830114
 10
37.1231060123
 20
-47.1534664198
  0
LWPOLYLINE
  5
29D
100
AcDbEntity
  8
CURVE
100
AcDbPolyline
 62
250
  6
CONTINUOUS
 90
17
 70
0
 10
37.1231060123
 20
-47.1534665983
 10
37.0894391653
 20
-46.7375613465
 10
36.989720984
 20
-46.2986201655
 10
36.8277497031
 20
-45.8533621885
 10
36.6053390593
 20
-45.4111852754
 10
36.3387400645
 20
-45.0043982313
 10
36.0346836309
 20
-44.6405909026
 10
35.7047511737
 20
-44.3336205974
 10
35.3553390593
 20
-44.091604423
 10
35.0119779921
 20
-43.93222592
 10
34.6816954413
 20
-43.8566658427
 10
34.3770717665
 20
-43.8678022508
 10
34.1053390593
 20
-43.9677166077
 10
33.8863521761
 20
-44.1491084114
 10
33.7233185469
 20
-44.4060576539
 10
33.6224480719
 20
-44.7287772185
 10
33.5875721064
 20
-45.1120938101
  0
LWPOLYLINE
  5
29E
100
AcDbEntity
  8
CURVE
100
AcDbPolyline
 62
250
  6
CONTINUOUS
 90
17
 70
0
 10
33.5875721064
 20
1.4267121456
 10
33.6212389534
 20
1.0108068938
 10
33.7209571346
 20
0.5718657128
 10
33.8829284156
 20
0.1266077358
 10
34.1053390593
 20
-0.3155691773
 10
34.3719380542
 20
-0.7223562214
 10
34.6759944877
 20
-1.0861635501
 10
35.005926945
 20
-1.3931338553
 10
35.3553390593
 20
-1.6351500297
 10
35.6987001265
 20
-1.7945285327
 10
36.0289826774
 20
-1.87008861
 10
36.3336063521
 20
-1.8589522019
 10
36.6053390593
 20
-1.759037845
 10
36.8243259425
 20
-1.5776460413
 10
36.9873595718
 20
-1.3206967988
 10
37.0882300468
 20
-0.9979772342
 10
37.1231060123
 20
-0.6146606426
  0
LWPOLYLINE
  5
29F
100
AcDbEntity
  8
CURVE
100
AcDbPolyline
 62
250
  6
CONTINUOUS
 90
17
 70
0
 10
37.1231060123
 20
-0.6146608211
 10
37.0894391653
 20
-0.1987555693
 10
36.989720984
 20
0.2401856117
 10
36.8277497031
 20
0.6854435886
 10
36.6053390593
 20
1.1276205018
 10
36.3387400645
 20
1.5344075459
 10
36.0346836309
 20
1.8982148746
 10
35.7047511737
 20
2.2051851798
 10
35.3553390593
 20
2.4472013542
 10
35.0119779921
 20
2.6065798572
 10
34.6816954413
 20
2.6821399345
 10
34.3770717665
 20
2.6710035264
 10
34.1053390593
 20
2.5710891695
 10
33.8863521761
 20
2.3896973658
 10
33.7233185469
 20
2.1327481233
 10
33.6224480719
 20
1.8100285587
 10
33.5875721064
 20
1.4267119671
  0
LWPOLYLINE
  5
2A0
100
AcDbEntity
  8
CURVE
100
AcDbPolyline
 62
250
  6
CONTINUOUS
 90
17
 70
0
 10
33.5875721064
 20
47.9655179228
 10
33.6212389534
 20
47.549612671
 10
33.7209571346
 20
47.11067149
 10
33.8829284156
 20
46.665413513
 10
34.1053390593
 20
46.2232365999
 10
34.3719380542
 20
45.8164495558
 10
34.6759944877
 20
45.4526422271
 10
35.005926945
 20
45.1456719219
 10
35.3553390593
 20
44.9036557475
 10
35.6987001265
 20
44.7442772445
 10
36.0289826774
 20
44.6687171672
 10
36.3336063521
 20
44.6798535753
 10
36.6053390593
 20
44.7797679322
 10
36.8243259425
 20
44.9611597359
 10
36.9873595718
 20
45.2181089784
 10
37.0882300468
 20
45.540828543
 10
37.1231060123
 20
45.9241451346
  0
LWPOLYLINE
  5
2A1
100
AcDbEntity
  8
CURVE
100
AcDbPolyline
 62
250
  6
CONTINUOUS
 90
17
 70
0
 10
37.1231060123
 20
45.9241449561
 10
37.0894391653
 20
46.3400502079
 10
36.989720984
 20
46.7789913889
 10
36.8277497031
 20
47.2242493658
 10
36.6053390593
 20
47.666426279
 10
36.3387400645
 20
48.0732133231
 10
36.0346836309
 20
48.4370206518
 10
35.7047511737
 20
48.743990957
 10
35.3553390593
 20
48.9860071314
 10
35.0119779921
 20
49.1453856343
 10
34.6816954413
 20
49.2209457117
 10
34.3770717665
 20
49.2098093036
 10
34.1053390593
 20
49.1098949466
 10
33.8863521761
 20
48.928503143
 10
33.7233185469
 20
48.6715539005
 10
33.6224480719
 20
48.3488343359
 10
33.5875721064
 20
47.9655177443
  0
LWPOLYLINE
  5
2A2
100
AcDbEntity
  8
CURVE
100
AcDbPolyline
 62
250
  6
CONTINUOUS
 90
17
 70
0
 10
33.5875721064
 20
94.5043236999
 10
33.6212389534
 20
94.0884184482
 10
33.7209571346
 20
93.6494772672
 10
33.8829284156
 20
93.2042192902
 10
34.1053390593
 20
92.7620423771
 10
34.3719380542
 20
92.355255333
 10
34.6759944877
 20
91.9914480043
 10
35.005926945
 20
91.6844776991
 10
35.3553390593
 20
91.4424615246
 10
35.6987001265
 20
91.2830830217
 10
36.0289826774
 20
91.2075229444
 10
36.3336063521
 20
91.2186593525
 10
36.6053390593
 20
91.3185737094
 10
36.8243259425
 20
91.4999655131
 10
36.9873595718
 20
91.7569147556
 10
37.0882300468
 20
92.0796343202
 10
37.1231060123
 20
92.4629509118
  0
LINE
  5
2A3
100
AcDbEntity
  8
RACCORDO
100
AcDbLine
 62
7
  6
CONTINUOUS
 10
30.2995255738
 20
-171.6443913122
 11
30.2995255738
 21
-169.5536564339
  0
LINE
  5
2A4
100
AcDbEntity
  8
RACCORDO
100
AcDbLine
 62
7
  6
CONTINUOUS
 10
31.8198051534
 20
-166.3102933733
 11
31.8198051534
 21
112.8341800513
  0
LINE
  5
2A5
100
AcDbEntity
  8
ASSI
100
AcDbLine
 62
7
  6
CONTINUOUS
 10
40.2343758495
 20
-191.6280556785
 11
40.2343758495
 21
140.2671118378
  0
LWPOLYLINE
  5
2A6
100
AcDbEntity
  8
RACCORDO
100
AcDbPolyline
 62
7
  6
CONTINUOUS
 90
25
 70
0
 10
31.8198051534
 20
-166.3102933733
 10
31.81779501
 20
-166.4463720885
 10
31.8118269464
 20
-166.5797001723
 10
31.8019009627
 20
-166.7102776244
 10
31.7879969332
 20
-166.8382441025
 10
31.7701349836
 20
-166.963459949
 10
31.7483754907
 20
-167.0855061916
 10
31.7227052201
 20
-167.20437333
 10
31.6931374062
 20
-167.3200708645
 10
31.6597721298
 20
-167.4322083236
 10
31.6225966335
 20
-167.5407733978
 10
31.5816236748
 20
-167.6457783966
 10
31.5369916057
 20
-167.7468697767
 10
31.4886881087
 20
-167.8440343442
 10
31.4367255013
 20
-167.9372852931
 10
31.3812790896
 20
-168.0263086625
 10
31.3223371463
 20
-168.1110902057
 10
31.2599113986
 20
-168.1916441693
 10
31.194212334
 20
-168.2676993323
 10
31.1252289335
 20
-168.3392405385
 10
31.0529722161
 20
-168.4062829441
 10
30.9776857264
 20
-168.4686007958
 10
30.8994506459
 20
-168.5261188423
 10
30.8181857931
 20
-168.578912335
 10
30.7843847176
 20
-168.5989649839
  0
LWPOLYLINE
  5
2A7
100
AcDbEntity
  8
RACCORDO
100
AcDbPolyline
 62
7
  6
CONTINUOUS
 90
19
 70
0
 10
30.2995255738
 20
-171.6443913122
 10
30.298158262
 20
-171.7150542266
 10
30.294125331
 20
-171.7837728336
 10
30.2874267808
 20
-171.8505471333
 10
30.2780397411
 20
-171.9154966802
 10
30.2659870823
 20
-171.9785019198
 10
30.2513374153
 20
-172.0392041881
 10
30.2340759283
 20
-172.0975903505
 10
30.2142174331
 20
-172.1536735416
 10
30.1918749763
 20
-172.2071345022
 10
30.1670343909
 20
-172.2579582766
 10
30.1397098438
 20
-172.3061598204
 10
30.1100568829
 20
-172.3514647414
 10
30.0780622282
 20
-172.3938565189
 10
30.0437391597
 20
-172.4333516735
 10
30.0072830651
 20
-172.4697253751
 10
29.9686817786
 20
-172.5029598207
 10
29.927947466
 20
-172.5330728132
 10
29.8853603317
 20
-172.5598650344
  0
LWPOLYLINE
  5
2A8
100
AcDbEntity
  8
RACCORDO
100
AcDbPolyline
 62
7
  6
CONTINUOUS
 90
16
 70
0
 10
25.3497781055
 20
-174.093525958
 10
25.3487869922
 20
-174.135877842
 10
25.3458851062
 20
-174.1767770265
 10
25.3410724477
 20
-174.2162235113
 10
25.334325394
 20
-174.2543172701
 10
25.3256675677
 20
-174.2909583293
 10
25.3151698363
 20
-174.3258467681
 10
25.3028170984
 20
-174.3589682011
 10
25.2886244555
 20
-174.3903370136
 10
25.2727080797
 20
-174.41969644
 10
25.255053823
 20
-174.4470299877
 10
25.2356758334
 20
-174.4723541492
 10
25.2147327272
 20
-174.4954616367
 10
25.1922116581
 20
-174.5163342563
 10
25.1681254723
 20
-174.5349902019
 10
25.1426954845
 20
-174.5512628192
  0
LWPOLYLINE
  5
2A9
100
AcDbEntity
  8
CURVE
100
AcDbPolyline
 62
250
  6
CONTINUOUS
 90
17
 70
0
 10
37.1231060123
 20
92.4629507333
 10
37.0894391653
 20
92.8788559851
 10
36.989720984
 20
93.3177971661
 10
36.8277497031
 20
93.763055143
 10
36.6053390593
 20
94.2052320562
 10
36.3387400645
 20
94.6120191003
 10
36.0346836309
 20
94.9758264289
 10
35.7047511737
 20
95.2827967342
 10
35.3553390593
 20
95.5248129086
 10
35.0119779921
 20
95.6841914115
 10
34.6816954413
 20
95.7597514889
 10
34.3770717665
 20
95.7486150808
 10
34.1053390593
 20
95.6487007238
 10
33.8863521761
 20
95.4673089202
 10
33.7233185469
 20
95.2103596776
 10
33.6224480719
 20
94.8876401131
 10
33.5875721064
 20
94.5043235215
  0
LWPOLYLINE
  5
2AA
100
AcDbEntity
  8
CURVE
100
AcDbPolyline
 62
250
  6
CONTINUOUS
 90
17
 70
0
 10
33.5875721064
 20
141.0431294771
 10
33.6212389534
 20
140.6272242254
 10
33.7209571346
 20
140.1882830444
 10
33.8829284156
 20
139.7430250674
 10
34.1053390593
 20
139.3008481542
 10
34.3719380542
 20
138.8940611102
 10
34.6759944877
 20
138.5302537815
 10
35.005926945
 20
138.2232834763
 10
35.3553390593
 20
137.9812673018
 10
35.6987001265
 20
137.8218887989
 10
36.0289826774
 20
137.7463287216
 10
36.3336063521
 20
137.7574651296
 10
36.6053390593
 20
137.8573794866
 10
36.8243259425
 20
138.0387712903
 10
36.9873595718
 20
138.2957205328
 10
37.0882300468
 20
138.6184400974
 10
37.1231060123
 20
139.0017566889
  0
LWPOLYLINE
  5
2AB
100
AcDbEntity
  8
CURVE
100
AcDbPolyline
 62
250
  6
CONTINUOUS
 90
17
 70
0
 10
37.1231060123
 20
139.0017565105
 10
37.0894391653
 20
139.4176617623
 10
36.989720984
 20
139.8566029432
 10
36.8277497031
 20
140.3018609202
 10
36.6053390593
 20
140.7440378334
 10
36.3387400645
 20
141.1508248774
 10
36.0346836309
 20
141.5146322061
 10
35.7047511737
 20
141.8216025114
 10
35.3553390593
 20
142.0636186858
 10
35.0119779921
 20
142.2229971887
 10
34.6816954413
 20
142.2985572661
 10
34.3770717665
 20
142.287420858
 10
34.1053390593
 20
142.187506501
 10
33.8863521761
 20
142.0061146974
 10
33.7233185469
 20
141.7491654548
 10
33.6224480719
 20
141.4264458903
 10
33.5875721064
 20
141.0431292987
  0
LINE
  5
2AC
100
AcDbEntity
  8
ASSI
100
AcDbLine
 62
7
  6
CONTINUOUS
 10
42.3556961931
 20
-190.4032318985
 11
42.3556961931
 21
141.4919356178
  0
LINE
  5
2AD
100
AcDbEntity
  8
ASSI
100
AcDbLine
 62
7
  6
CONTINUOUS
 10
44.4770165366
 20
-189.1784081185
 11
44.4770165366
 21
142.7167593978
  0
LWPOLYLINE
  5
2AE
100
AcDbEntity
  8
ASSI
100
AcDbPolyline
 62
7
  6
CONTINUOUS
 90
26
 70
0
 10
-17.8878353795
 20
152.904309754
 10
-17.8866272035
 20
152.9016067363
 10
-17.8527961996
 20
152.8312883527
 10
-17.8168354877
 20
152.7615397888
 10
-17.7789885358
 20
152.6928332698
 10
-17.7392425443
 20
152.6251758667
 10
-17.6976103129
 20
152.5585605084
 10
-17.654373708
 20
152.493438207
 10
-17.6095218427
 20
152.4298190939
 10
-17.563065604
 20
152.3676930378
 10
-17.5153195186
 20
152.3074806562
 10
-17.4662748342
 20
152.2491949349
 10
-17.4159403032
 20
152.1928228883
 10
-17.3646567101
 20
152.1387461771
 10
-17.3124176148
 20
152.0869803767
 10
-17.2592294574
 20
152.0375099119
 10
-17.2054523426
 20
151.9906697169
 10
-17.1510822738
 20
151.9464776399
 10
-17.0961232475
 20
151.9049158329
 10
-17.040947358
 20
151.8662656854
 10
-16.9855531335
 20
151.8305469551
 10
-16.9299420456
 20
151.7977398843
 10
-16.8744906033
 20
151.7680665899
 10
-16.8193243094
 20
151.7416011106
 10
-16.764317661
 20
151.7182694076
 10
-16.7094706582
 20
151.6980714808
  0
LWPOLYLINE
  5
2AF
100
AcDbEntity
  8
0
100
AcDbPolyline
 62
7
  6
CONTINUOUS
 90
5
 70
0
 10
1.1903157955
 20
146.3573514556
 10
1.1979451246
 20
146.3426108293
 10
1.2364504333
 20
146.2727725951
 10
1.2767039204
 20
146.2040863319
 10
1.305142243
 20
146.1583771354
  0
LWPOLYLINE
  5
2B0
100
AcDbEntity
  8
RACCORDO
100
AcDbPolyline
 62
7
  6
CONTINUOUS
 90
34
 70
0
 10
32.413966104
 20
151.6497221414
 10
32.4475170241
 20
151.495181718
 10
32.4849677162
 20
151.3401099332
 10
32.5263181803
 20
151.184506787
 10
32.5716264518
 20
151.0281872916
 10
32.6208344952
 20
150.8713364348
 10
32.6737682048
 20
150.7145091799
 10
32.7304407781
 20
150.5577056104
 10
32.7908390176
 20
150.4009256428
 10
32.8547492246
 20
150.2447239895
 10
32.9221838398
 20
150.089102699
 10
32.9931304225
 20
149.9340597229
 10
33.0673379525
 20
149.7801436278
 10
33.1448179812
 20
149.6273584055
 10
33.2255589571
 20
149.4757000641
 10
33.309275206
 20
149.3257051951
 10
33.3959772671
 20
149.177379691
 10
33.4856546011
 20
149.0307176592
 10
33.5779899153
 20
148.8862380133
 10
33.6729926251
 20
148.743948484
 10
33.7706533152
 20
148.6038413407
 10
33.8706264465
 20
148.4664123046
 10
33.9729202103
 20
148.3316708624
 10
34.0775264153
 20
148.1996075276
 10
34.1840749481
 20
148.070689561
 10
34.2925726891
 20
147.9449281047
 10
34.4030127579
 20
147.8223120168
 10
34.5150043999
 20
147.7032751323
 10
34.6285531114
 20
147.5878301302
 10
34.7436533961
 20
147.4759643315
 10
34.859898011
 20
147.3680735354
 10
34.9771512084
 20
147.2642896747
 10
35.0955487359
 20
147.1644808166
 10
35.2150905936
 20
147.068646961
  0
LWPOLYLINE
  5
2B1
100
AcDbEntity
  8
RACCORDO
100
AcDbPolyline
 62
7
  6
CONTINUOUS
 90
34
 70
0
 10
34.5352864475
 20
152.8745459214
 10
34.5688373676
 20
152.720005498
 10
34.6062880597
 20
152.5649337132
 10
34.6476385239
 20
152.409330567
 10
34.6929467953
 20
152.2530110716
 10
34.7421548388
 20
152.0961602148
 10
34.7950885484
 20
151.9393329598
 10
34.8517611217
 20
151.7825293904
 10
34.9121593612
 20
151.6257494228
 10
34.9760695682
 20
151.4695477694
 10
35.0435041833
 20
151.313926479
 10
35.1144507661
 20
151.1588835029
 10
35.1886582961
 20
151.0049674078
 10
35.2661383247
 20
150.8521821854
 10
35.3468793007
 20
150.7005238441
 10
35.4305955495
 20
150.5505289751
 10
35.5172976106
 20
150.402203471
 10
35.6069749446
 20
150.2555414392
 10
35.6993102588
 20
150.1110617933
 10
35.7943129687
 20
149.968772264
 10
35.8919736588
 20
149.8286651207
 10
35.99194679
 20
149.6912360845
 10
36.0942405539
 20
149.5564946424
 10
36.1988467589
 20
149.4244313076
 10
36.3053952917
 20
149.295513341
 10
36.4138930327
 20
149.1697518847
 10
36.5243331014
 20
149.0471357968
 10
36.6363247434
 20
148.9280989123
 10
36.7498734549
 20
148.8126539102
 10
36.8649737397
 20
148.7007881115
 10
36.9812183546
 20
148.5928973154
 10
37.0984715519
 20
148.4891134547
 10
37.2168690795
 20
148.3893045966
 10
37.3364109371
 20
148.2934707409
  0
LINE
  5
2B2
100
AcDbEntity
  8
RACCORDO
100
AcDbLine
 62
7
  6
CONTINUOUS
 10
30.2926457604
 20
150.4248983614
 11
28.9206673505
 21
157.129276264
  0
LINE
  5
2B3
100
AcDbEntity
  8
RACCORDO
100
AcDbLine
 62
7
  6
CONTINUOUS
 10
32.413966104
 20
151.6497221414
 11
31.0419876941
 21
158.354100044
  0
LINE
  5
2B4
100
AcDbEntity
  8
RACCORDO
100
AcDbLine
 62
7
  6
CONTINUOUS
 10
34.5352864475
 20
152.8745459214
 11
33.1633080376
 21
159.578923824
  0
LINE
  5
2B5
100
AcDbEntity
  8
RACCORDO
100
AcDbLine
 62
7
  6
CONTINUOUS
 10
28.9206673505
 20
-195.4254331181
 11
30.2926457604
 21
-190.3053814934
  0
LINE
  5
2B6
100
AcDbEntity
  8
RACCORDO
100
AcDbLine
 62
7
  6
CONTINUOUS
 10
31.0419876941
 20
-194.2006093381
 11
32.413966104
 21
-189.0805577135
  0
LINE
  5
2B7
100
AcDbEntity
  8
RACCORDO
100
AcDbLine
 62
7
  6
CONTINUOUS
 10
33.1633080376
 20
-192.9757855582
 11
34.1353355778
 21
-189.348300497
  0
LWPOLYLINE
  5
2B8
100
AcDbEntity
  8
RACCORDO
100
AcDbPolyline
 62
7
  6
CONTINUOUS
 90
17
 70
0
 10
30.2926457604
 20
-190.3053814934
 10
30.3261966805
 20
-190.1895848316
 10
30.3636473726
 20
-190.0777601673
 10
30.4049978367
 20
-189.9699075006
 10
30.4503061082
 20
-189.8659088613
 10
30.4995141517
 20
-189.7658822197
 10
30.5524478613
 20
-189.6701814858
 10
30.6091204346
 20
-189.5788219834
 10
30.669518674
 20
-189.4917883888
 10
30.7334288811
 20
-189.4093886406
 10
30.8008634962
 20
-189.3316391535
 10
30.8718100789
 20
-189.2585235127
 10
30.946017609
 20
-189.1903004132
 10
31.0234976376
 20
-189.1269871859
 10
31.1042386136
 20
-189.0685664997
 10
31.1879548624
 20
-189.0152450564
 10
31.2075889985
 20
-189.0037302944
  0
LINE
  5
2B9
100
AcDbEntity
  8
RACCORDO
100
AcDbLine
 62
7
  6
CONTINUOUS
 10
32.413966104
 20
-189.0805577135
 11
32.4475170241
 21
-188.9647610516
  0
LWPOLYLINE
  5
2BA
100
AcDbEntity
  8
RACCORDO
100
AcDbPolyline
 62
7
  6
CONTINUOUS
 90
3
 70
0
 10
32.4475170241
 20
-188.9647610516
 10
32.4849677162
 20
-188.8529363873
 10
32.5050569012
 20
-188.8005386156
  0
LINE
  5
2BB
100
AcDbEntity
  8
RACCORDO
100
AcDbLine
 62
250
  6
CONTINUOUS
 10
-36.0624458405
 20
-126.3878233756
 11
-31.8198051534
 21
-123.9381758157
  0
LINE
  5
2BC
100
AcDbEntity
  8
RACCORDO
100
AcDbLine
 62
250
  6
CONTINUOUS
 10
-32.5269119346
 20
-132.5115477262
 11
-28.2842712475
 21
-130.0619001663
  0
LINE
  5
2BD
100
AcDbEntity
  8
RACCORDO
100
AcDbLine
 62
250
  6
CONTINUOUS
 10
-31.006632355
 20
-133.3893381019
 11
-28.8853120115
 21
-132.1645143219
  0
LINE
  5
2BE
100
AcDbEntity
  8
RACCORDO
100
AcDbLine
 62
250
  6
CONTINUOUS
 10
-29.5924187927
 20
-135.8388278421
 11
-27.4710984491
 21
-134.6140040621
  0
LINE
  5
2BF
100
AcDbEntity
  8
RACCORDO
100
AcDbLine
 62
250
  6
CONTINUOUS
 10
-29.5924187927
 20
-142.3705900565
 11
-27.4710984491
 21
-141.1457662765
  0
LINE
  5
2C0
100
AcDbEntity
  8
0
100
AcDbLine
 62
7
  6
CONTINUOUS
 10
34.2758167767
 20
154.1424833139
 11
37.9125103299
 21
147.8435453146
  0
LWPOLYLINE
  5
2C1
100
AcDbEntity
  8
RACCORDO
100
AcDbPolyline
 62
7
  6
CONTINUOUS
 90
19
 70
0
 10
-8.4246695227
 20
-137.1083333829
 10
-8.467256657
 20
-137.1351256042
 10
-8.5079909696
 20
-137.1652385967
 10
-8.5465922561
 20
-137.1984730422
 10
-8.5830483507
 20
-137.2348467438
 10
-8.6173714192
 20
-137.2743418985
 10
-8.6493660739
 20
-137.316733676
 10
-8.6790190348
 20
-137.3620385969
 10
-8.7063435819
 20
-137.4102401408
 10
-8.7311841673
 20
-137.4610639151
 10
-8.7535266241
 20
-137.5145248757
 10
-8.7733851193
 20
-137.5706080669
 10
-8.7906466062
 20
-137.6289942292
 10
-8.8052962732
 20
-137.6896964976
 10
-8.8173489321
 20
-137.7527017372
 10
-8.8267359718
 20
-137.8176512841
 10
-8.8334345219
 20
-137.8844255838
 10
-8.837467453
 20
-137.9531441908
 10
-8.8388347648
 20
-138.0238071052
  0
LWPOLYLINE
  5
2C2
100
AcDbEntity
  8
ASSI
100
AcDbPolyline
 62
7
  6
CONTINUOUS
 90
47
 70
0
 10
-19.891430386
 20
-139.5863909747
 10
-19.9003088793
 20
-139.5916273793
 10
-19.9381558313
 20
-139.6166291869
 10
-19.9741165432
 20
-139.6448512219
 10
-20.007947547
 20
-139.6761024103
 10
-20.0396343912
 20
-139.710403307
 10
-20.0691915272
 20
-139.7477333569
 10
-20.0964188418
 20
-139.7878398211
 10
-20.1213005254
 20
-139.8307415395
 10
-20.1438523875
 20
-139.8764196721
 10
-20.1639217432
 20
-139.9245649602
 10
-20.1814917469
 20
-139.975194145
 10
-20.1965792442
 20
-140.0282904853
 10
-20.2090820868
 20
-140.0834944979
 10
-20.2189827361
 20
-140.140820485
 10
-20.2262987306
 20
-140.2002541445
 10
-20.2309805383
 20
-140.2613930873
 10
-20.2330102844
 20
-140.3242488849
 10
-20.2324058436
 20
-140.3888099658
 10
-20.2291713083
 20
-140.4546392261
 10
-20.2232888315
 20
-140.5217452714
 10
-20.2147762601
 20
-140.5901194962
 10
-20.2036912276
 20
-140.6592989802
 10
-20.190016278
 20
-140.7292891876
 10
-20.1737688674
 20
-140.8000846543
 10
-20.155058997
 20
-140.8712060671
 10
-20.1338699574
 20
-140.9426556379
 10
-20.1102184579
 20
-141.0144311549
 10
-20.0842646286
 20
-141.0860466697
 10
-20.0559928466
 20
-141.1575010966
 10
-20.0254187347
 20
-141.2287955214
 10
-19.9927492916
 20
-141.2994472528
 10
-19.9579702991
 20
-141.3694519298
 10
-19.9210959755
 20
-141.4388139135
 10
-19.8823759743
 20
-141.5070635961
 10
-19.8417977714
 20
-141.5741934298
 10
-19.7993738909
 20
-141.6402109624
 10
-19.7553915592
 20
-141.7046692293
 10
-19.709840201
 20
-141.7675576499
 10
-19.6627303915
 20
-141.8288868049
 10
-19.6143810827
 20
-141.8882414718
 10
-19.5647838635
 20
-141.9456082524
 10
-19.513947145
 20
-142.0010005449
 10
-19.4622151115
 20
-142.054043322
 10
-19.4097024913
 20
-142.1046115743
 10
-19.3562945561
 20
-142.1528303111
 10
-19.301991306
 20
-142.1986995323
  0
LWPOLYLINE
  5
2C3
100
AcDbEntity
  8
ASSI
100
AcDbPolyline
 62
7
  6
CONTINUOUS
 90
47
 70
0
 10
-15.8174620639
 20
-144.4208023336
 10
-15.8085835706
 20
-144.4155659291
 10
-15.7707366187
 20
-144.3905641215
 10
-15.7347759067
 20
-144.3623420864
 10
-15.7009449029
 20
-144.331090898
 10
-15.6692580587
 20
-144.2967900014
 10
-15.6397009227
 20
-144.2594599514
 10
-15.6124736081
 20
-144.2193534872
 10
-15.5875919245
 20
-144.1764517689
 10
-15.5650400624
 20
-144.1307736362
 10
-15.5449707067
 20
-144.0826283482
 10
-15.527400703
 20
-144.0319991634
 10
-15.5123132057
 20
-143.9789028231
 10
-15.4998103631
 20
-143.9236988104
 10
-15.4899097138
 20
-143.8663728233
 10
-15.4825937193
 20
-143.8069391638
 10
-15.4779119116
 20
-143.745800221
 10
-15.4758821655
 20
-143.6829444234
 10
-15.4764866063
 20
-143.6183833426
 10
-15.4797211416
 20
-143.5525540822
 10
-15.4856036185
 20
-143.4854480369
 10
-15.4941161899
 20
-143.4170738122
 10
-15.5052012223
 20
-143.3478943282
 10
-15.5188761719
 20
-143.2779041207
 10
-15.5351235825
 20
-143.2071086541
 10
-15.5538334529
 20
-143.1359872413
 10
-15.5750224926
 20
-143.0645376705
 10
-15.598673992
 20
-142.9927621535
 10
-15.6246278213
 20
-142.9211466387
 10
-15.6528996033
 20
-142.8496922117
 10
-15.6834737152
 20
-142.7783977869
 10
-15.7161431583
 20
-142.7077460555
 10
-15.7509221508
 20
-142.6377413785
 10
-15.7877964744
 20
-142.5683793948
 10
-15.8265164756
 20
-142.5001297123
 10
-15.8670946785
 20
-142.4329998786
 10
-15.909518559
 20
-142.366982346
 10
-15.9535008908
 20
-142.302524079
 10
-15.9990522489
 20
-142.2396356584
 10
-16.0461620584
 20
-142.1783065035
 10
-16.0945113672
 20
-142.1189518366
 10
-16.1441085864
 20
-142.061585056
 10
-16.1949453049
 20
-142.0061927634
 10
-16.2466773384
 20
-141.9531499864
 10
-16.2991899586
 20
-141.9025817341
 10
-16.3525978938
 20
-141.8543629973
 10
-16.4069011439
 20
-141.808493776
  0
LINE
  5
2C4
100
AcDbEntity
  8
RACCORDO
100
AcDbLine
 62
250
  6
CONTINUOUS
 10
-28.8853120115
 20
-143.5953349266
 11
-26.7639916679
 21
-142.3705111466
  0
LINE
  5
2C5
100
AcDbEntity
  8
ASSI
100
AcDbLine
 62
250
  6
CONTINUOUS
 10
-17.3268774124
 20
-141.0582935241
 11
-19.301991306
 21
-142.1986995323
  0
LINE
  5
2C6
100
AcDbEntity
  8
RACCORDO
100
AcDbLine
 62
7
  6
CONTINUOUS
 10
-8.4246695227
 20
-137.1083333829
 11
-6.3033491792
 21
-135.8835096029
  0
LINE
  5
2C7
100
AcDbEntity
  8
RACCORDO
100
AcDbLine
 62
250
  6
CONTINUOUS
 10
-7.4246212025
 20
-137.2074157383
 11
-5.3033008589
 21
-135.9825919583
  0
LINE
  5
2C8
100
AcDbEntity
  8
ASSI
100
AcDbLine
 62
250
  6
CONTINUOUS
 10
-15.5001140106
 20
-143.3796426052
 11
-16.8781014482
 21
-144.1752752814
  0
LINE
  5
2C9
100
AcDbEntity
  8
RACCORDO
100
AcDbLine
 62
250
  6
CONTINUOUS
 10
-10.2530483272
 20
-140.4729022961
 11
-12.3743686708
 21
-141.6977260761
  0
LWPOLYLINE
  5
2CA
100
AcDbEntity
  8
RACCORDO
100
AcDbPolyline
 62
7
  6
CONTINUOUS
 90
24
 70
0
 10
-9.8742549103
 20
-141.9454197712
 10
-9.9184220031
 20
-141.9700390557
 10
-10.0086347245
 20
-142.0150981299
 10
-10.1017379054
 20
-142.0547816111
 10
-10.1977210282
 20
-142.0891090601
 10
-10.2962339819
 20
-142.117955263
 10
-10.3972860056
 20
-142.1413002019
 10
-10.5008678603
 20
-142.1591638946
 10
-10.6066017178
 20
-142.1714811811
 10
-10.7144954373
 20
-142.1782318056
 10
-10.8245411594
 20
-142.1794360238
 10
-10.9363374784
 20
-142.1750894432
 10
-11.0498907874
 20
-142.1651717919
 10
-11.1651946931
 20
-142.1497033419
 10
-11.2818286096
 20
-142.1287405162
 10
-11.3997973943
 20
-142.1022632491
 10
-11.5190961899
 20
-142.0702916064
 10
-11.6392898384
 20
-142.0329422088
 10
-11.7603816081
 20
-141.9901954163
 10
-11.8823682309
 20
-141.942070869
 10
-12.0048047447
 20
-141.8887441072
 10
-12.127542829
 20
-141.8302736446
 10
-12.2507308043
 20
-141.7666009675
 10
-12.3743686708
 20
-141.6977260761
  0
LWPOLYLINE
  5
2CB
100
AcDbEntity
  8
RACCORDO
100
AcDbPolyline
 62
7
  6
CONTINUOUS
 90
19
 70
0
 10
-6.3033491792
 20
-135.8835096029
 10
-6.2587534194
 20
-135.859973243
 10
-6.212304838
 20
-135.8397576544
 10
-6.1642195281
 20
-135.8229500194
 10
-6.1144881546
 20
-135.8095697752
 10
-6.0631200525
 20
-135.7995974847
 10
-6.0104076401
 20
-135.7930899163
 10
-5.9563432502
 20
-135.7900668306
 10
-5.9009345499
 20
-135.7905084669
 10
-5.844496959
 20
-135.7944123111
 10
-5.7870246094
 20
-135.8017981098
 10
-5.7285233692
 20
-135.8126461164
 10
-5.6693262627
 20
-135.8268945776
 10
-5.6094293211
 20
-135.8445628875
 10
-5.5488365134
 20
-135.865631652
 10
-5.4878927702
 20
-135.889980935
 10
-5.4267130685
 20
-135.9175707576
 10
-5.3651824314
 20
-135.9484410987
 10
-5.3033008589
 20
-135.9825919583
  0
LWPOLYLINE
  5
2CC
100
AcDbEntity
  8
RACCORDO
100
AcDbPolyline
 62
7
  6
CONTINUOUS
 90
19
 70
0
 10
-31.006632355
 20
153.1917290524
 10
-30.9447507825
 20
153.1575781929
 10
-30.8832201454
 20
153.1267078518
 10
-30.8220404437
 20
153.0991180291
 10
-30.7610967006
 20
153.0747687462
 10
-30.7005038928
 20
153.0536999817
 10
-30.6406069512
 20
153.0360316717
 10
-30.5814098448
 20
153.0217832106
 10
-30.5229086045
 20
153.0109352039
 10
-30.4654362549
 20
153.0035494053
 10
-30.408998664
 20
152.999645561
 10
-30.3535899638
 20
152.9992039247
 10
-30.2995255738
 20
153.0022270104
 10
-30.2468131614
 20
153.0087345789
 10
-30.1954450594
 20
153.0187068694
 10
-30.1457136859
 20
153.0320871136
 10
-30.0976283759
 20
153.0488947485
 10
-30.0511797945
 20
153.0691103372
 10
-30.0065840348
 20
153.0926466971
  0
LINE
  5
2CD
100
AcDbEntity
  8
RACCORDO
100
AcDbLine
 62
7
  6
CONTINUOUS
 10
28.2842712475
 20
118.9579044019
 11
26.7639916679
 21
119.8356947775
  0
LINE
  5
2CE
100
AcDbEntity
  8
RACCORDO
100
AcDbLine
 62
7
  6
CONTINUOUS
 10
-31.006632355
 20
153.1917290524
 11
-32.5269119346
 21
154.0695194281
  0
LINE
  5
2CF
100
AcDbEntity
  8
RACCORDO
100
AcDbLine
 62
7
  6
CONTINUOUS
 10
25.3497781055
 20
123.1018915242
 11
-28.2994855426
 21
154.0783039714
  0
LWPOLYLINE
  5
2D0
100
AcDbEntity
  8
RACCORDO
100
AcDbPolyline
 62
7
  6
CONTINUOUS
 90
46
 70
0
 10
28.2842712475
 20
118.9579044019
 10
28.4079091139
 20
118.8840053843
 10
28.5310970892
 20
118.8054236752
 10
28.6538351735
 20
118.7221592747
 10
28.7762716873
 20
118.6340994192
 10
28.8982583101
 20
118.5413568723
 10
29.0193500798
 20
118.4442699244
 10
29.1395437284
 20
118.3428227094
 10
29.2588425239
 20
118.2370310934
 10
29.3768113086
 20
118.1272809649
 10
29.4934452251
 20
118.0135578672
 10
29.6087491309
 20
117.8958762571
 10
29.7223024398
 20
117.7746653935
 10
29.8340987588
 20
117.6499123873
 10
29.944144481
 20
117.5216301275
 10
30.0520382004
 20
117.3902865403
 10
30.1577720579
 20
117.2558704455
 10
30.2613539126
 20
117.1183930233
 10
30.3624059363
 20
116.9783557403
 10
30.46091889
 20
116.8357492478
 10
30.5569020128
 20
116.6905828946
 10
30.6500051937
 20
116.5433861937
 10
30.7402179151
 20
116.3941517301
 10
30.8275506948
 20
116.2428869188
 10
30.911684975
 20
116.0901435178
 10
30.9926090746
 20
115.9359161271
 10
31.0703346749
 20
115.7802101467
 10
31.1445782616
 20
115.6235935342
 10
31.2153271181
 20
115.466062964
 10
31.2825939611
 20
115.3076217617
 10
31.3461334259
 20
115.1488478622
 10
31.4059319001
 20
114.9897400503
 10
31.4620029962
 20
114.8302995412
 10
31.5141421876
 20
114.6711079147
 10
31.5623351147
 20
114.5121660796
 10
31.6065961372
 20
114.3534731272
 10
31.6467638073
 20
114.1956079105
 10
31.6828231757
 20
114.0385734523
 10
31.7147891916
 20
113.8823667298
 10
31.7425452549
 20
113.7275575271
 10
31.7660759905
 20
113.5741509482
 10
31.7853967734
 20
113.4221418892
 10
31.8004371287
 20
113.2720848227
 10
31.8111735646
 20
113.124164573
 10
31.8176295729
 20
112.9781963158
 10
31.8198051534
 20
112.8341800513
  0
LWPOLYLINE
  5
2D1
100
AcDbEntity
  8
ASSI
100
AcDbPolyline
 62
7
  6
CONTINUOUS
 90
22
 70
0
 10
18.8307910017
 20
128.7279222626
 10
18.8856380046
 20
128.6847842452
 10
18.940644653
 20
128.6445956494
 10
18.9958109469
 20
128.6073564753
 10
19.0512623892
 20
128.5729958341
 10
19.106873477
 20
128.5415846146
 10
19.1622677015
 20
128.5133354829
 10
19.2174435911
 20
128.4882698962
 10
19.2724026173
 20
128.4663663973
 10
19.3267726861
 20
128.4477732816
 10
19.380549801
 20
128.4325130124
 10
19.4337379584
 20
128.4205631263
 10
19.4859770536
 20
128.4120045288
 10
19.5372606468
 20
128.4068602322
 10
19.5875951778
 20
128.4051072241
 10
19.6366398622
 20
128.4067573732
 10
19.6843859475
 20
128.4118337722
 10
19.7308421863
 20
128.4203133283
 10
19.7756940515
 20
128.4321386316
 10
19.8189306565
 20
128.4473323854
 10
19.8605628879
 20
128.4658718864
 10
19.891430386
 20
128.4823952103
  0
LWPOLYLINE
  5
2D2
100
AcDbEntity
  8
ASSI
100
AcDbPolyline
 62
7
  6
CONTINUOUS
 90
22
 70
0
 10
16.8781014482
 20
133.071279517
 10
16.8232544453
 20
133.1144175344
 10
16.7682477969
 20
133.1546061302
 10
16.713081503
 20
133.1918453043
 10
16.6576300607
 20
133.2262059455
 10
16.6020189729
 20
133.257617165
 10
16.5466247484
 20
133.2858662967
 10
16.4914488588
 20
133.3109318834
 10
16.4364898326
 20
133.3328353823
 10
16.3821197638
 20
133.3514284979
 10
16.3283426489
 20
133.3666887672
 10
16.2751544916
 20
133.3786386532
 10
16.2229153963
 20
133.3871972507
 10
16.1716318032
 20
133.3923415474
 10
16.1212972722
 20
133.3940945555
 10
16.0722525877
 20
133.3924444064
 10
16.0245065024
 20
133.3873680074
 10
15.9780502636
 20
133.3788884513
 10
15.9331983984
 20
133.367063148
 10
15.8899617935
 20
133.3518693942
 10
15.848329562
 20
133.3333298932
 10
15.8174620639
 20
133.3168065692
  0
LINE
  5
2D3
100
AcDbEntity
  8
ASSI
100
AcDbLine
 62
7
  6
CONTINUOUS
 10
16.4069011439
 20
130.7044980116
 11
18.8307910017
 21
128.7279222626
  0
LINE
  5
2D4
100
AcDbEntity
  8
ASSI
100
AcDbLine
 62
7
  6
CONTINUOUS
 10
19.301991306
 20
131.0947037679
 11
16.8781014482
 21
133.071279517
  0
LWPOLYLINE
  5
2D5
100
AcDbEntity
  8
0
100
AcDbPolyline
 62
7
  6
CONTINUOUS
 90
14
 70
0
 10
1.4053723661
 20
-146.7451409387
 10
1.4259052666
 20
-146.7327155311
 10
1.4655224715
 20
-146.7052693243
 10
1.5030211648
 20
-146.6744802991
 10
1.5383164
 20
-146.6404182027
 10
1.571328222
 20
-146.6031601966
 10
1.6019818484
 20
-146.5627906822
 10
1.6302078388
 20
-146.5194011095
 10
1.6559422524
 20
-146.4730897697
 10
1.6791267924
 20
-146.423961573
 10
1.6997089384
 20
-146.3721278104
 10
1.7176420651
 20
-146.3177059023
 10
1.7328855484
 20
-146.2608191316
 10
1.7438530767
 20
-146.2089370826
  0
LINE
  5
2D6
100
AcDbEntity
  8
RACCORDO
100
AcDbLine
 62
250
  6
CONTINUOUS
 10
7.4246212025
 20
-145.7811821981
 11
9.545941546
 21
-144.5563584182
  0
LINE
  5
2D7
100
AcDbEntity
  8
RACCORDO
100
AcDbLine
 62
250
  6
CONTINUOUS
 10
8.8388347648
 20
-148.2306719384
 11
10.9601551084
 21
-147.0058481584
  0
LINE
  5
2D8
100
AcDbEntity
  8
RACCORDO
100
AcDbLine
 62
250
  6
CONTINUOUS
 10
8.8388347648
 20
-149.863612492
 11
10.9601551084
 21
-148.638788712
  0
LWPOLYLINE
  5
2D9
100
AcDbEntity
  8
0
100
AcDbPolyline
 62
7
  6
CONTINUOUS
 90
14
 70
0
 10
-0.3447121944
 20
-143.714100848
 10
-0.3235991241
 20
-143.7024850415
 10
-0.2800187291
 20
-143.6819032813
 10
-0.2346026334
 20
-143.6648275994
 10
-0.187453719
 20
-143.6512966775
 10
-0.1386787935
 20
-143.6413411676
 10
-0.0883883476
 20
-143.6349836222
 10
-0.0366963056
 20
-143.632238443
 10
0.0162802337
 20
-143.6331118489
 10
0.0704212611
 20
-143.6376018613
 10
0.12560413
 20
-143.6456983088
 10
0.1817038334
 20
-143.6573828504
 10
0.2385932873
 20
-143.6726290169
 10
0.2882085193
 20
-143.6888137949
  0
LWPOLYLINE
  5
2DA
100
AcDbEntity
  8
0
100
AcDbPolyline
 62
7
  6
CONTINUOUS
 90
39
 70
0
 10
-0.0001708411
 20
147.5770892483
 10
-0.0370645026
 20
147.5979449866
 10
-0.1109990054
 20
147.6370641709
 10
-0.1847379834
 20
147.6724820253
 10
-0.2582824592
 20
147.7042179055
 10
-0.3312464955
 20
147.7321052721
 10
-0.4036270411
 20
147.7561238939
 10
-0.4754271472
 20
147.776294002
 10
-0.5462700306
 20
147.7925097504
 10
-0.6161506592
 20
147.8047503515
 10
-0.6850740651
 20
147.8130365929
 10
-0.7526785609
 20
147.817324991
 10
-0.8189572133
 20
147.8175945299
 10
-0.8839169557
 20
147.8138662256
 10
-0.9472169007
 20
147.806159643
 10
-1.008848323
 20
147.7944538688
 10
-1.0688199479
 20
147.7787698163
 10
-1.1268170641
 20
147.7591897903
 10
-1.1828292919
 20
147.7356933101
 10
-1.236867011
 20
147.7083008564
 10
-1.2886466493
 20
147.6771561757
 10
-1.3381563363
 20
147.6422395431
 10
-1.3854079425
 20
147.6035706835
 10
-1.430153507
 20
147.5613525183
 10
-1.472379856
 20
147.5155663894
 10
-1.5121001632
 20
147.4662309549
 10
-1.5491059896
 20
147.413605111
 10
-1.5833830657
 20
147.3576715603
 10
-1.614945661
 20
147.2984476003
 10
-1.6436281454
 20
147.2362440185
 10
-1.6694153786
 20
147.1710451517
 10
-1.692322501
 20
147.1028666632
 10
-1.7122293034
 20
147.0320663314
 10
-1.7291200138
 20
146.9586303734
 10
-1.7430104042
 20
146.8825725721
 10
-1.7538275825
 20
146.8042920536
 10
-1.7615472514
 20
146.7239218601
 10
-1.7661937082
 20
146.6413289494
 10
-1.767766953
 20
146.5565133216
  0
LINE
  5
2DB
100
AcDbEntity
  8
RACCORDO
100
AcDbLine
 62
7
  6
CONTINUOUS
 10
24.6426713244
 20
136.3693362474
 11
-28.8853120115
 21
167.2757229623
  0
LWPOLYLINE
  5
2DC
100
AcDbEntity
  8
RACCORDO
100
AcDbPolyline
 62
7
  6
CONTINUOUS
 90
31
 70
0
 10
24.6426713244
 20
136.3693362474
 10
24.679845918
 20
136.3467277007
 10
24.716717875
 20
136.3220875935
 10
24.7532871954
 20
136.2954159258
 10
24.789652274
 20
136.2666286096
 10
24.825714716
 20
136.235809733
 10
24.8611793366
 20
136.20321156
 10
24.896041229
 20
136.1688194866
 10
24.9303053
 20
136.132648117
 10
24.9636910853
 20
136.0949935274
 10
24.996191376
 20
136.0558435438
 10
25.027813381
 20
136.0152103404
 10
25.0582982621
 20
135.9734265151
 10
25.0876366862
 20
135.9304826239
 10
25.1158379863
 20
135.8863881109
 10
25.1426713244
 20
135.8415039064
 10
25.1681254723
 20
135.7958235287
 10
25.1922116581
 20
135.7493534595
 10
25.2147327272
 20
135.7024740738
 10
25.2356758334
 20
135.6551820122
 10
25.255053823
 20
135.607480634
 10
25.2727080797
 20
135.5597603933
 10
25.2886244555
 20
135.5120211351
 10
25.3028170984
 20
135.4642630142
 10
25.3151698363
 20
135.4168769491
 10
25.3256675677
 20
135.3698659934
 10
25.334325394
 20
135.3232270933
 10
25.3410724477
 20
135.277342006
 10
25.3458851062
 20
135.2323379837
 10
25.3487869922
 20
135.1880877741
 10
25.3497781055
 20
135.1445913773
  0
LINE
  5
2DD
100
AcDbEntity
  8
RACCORDO
100
AcDbLine
 62
7
  6
CONTINUOUS
 10
40.2343758495
 20
140.2671118378
 11
33.09377025
 21
145.843823181
  0
LWPOLYLINE
  5
2DE
100
AcDbEntity
  8
RACCORDO
100
AcDbPolyline
 62
7
  6
CONTINUOUS
 90
34
 70
0
 10
33.09377025
 20
145.843823181
 10
32.9742283923
 20
145.9396570366
 10
32.8558308648
 20
146.0394658948
 10
32.7385776674
 20
146.1432497554
 10
32.6223330525
 20
146.2511405515
 10
32.5072327678
 20
146.3630063502
 10
32.3936840563
 20
146.4784513524
 10
32.2816924143
 20
146.5974882368
 10
32.1712523455
 20
146.7201043248
 10
32.0627546046
 20
146.845865781
 10
31.9562060718
 20
146.9747837476
 10
31.8515998667
 20
147.1068470825
 10
31.7493061029
 20
147.2415885246
 10
31.6493329716
 20
147.3790175607
 10
31.5516722816
 20
147.519124704
 10
31.4566695717
 20
147.6614142333
 10
31.3643342575
 20
147.8058938792
 10
31.2746569235
 20
147.952555911
 10
31.1879548624
 20
148.1008814151
 10
31.1042386136
 20
148.2508762841
 10
31.0234976376
 20
148.4025346255
 10
30.946017609
 20
148.5553198478
 10
30.8718100789
 20
148.7092359429
 10
30.8008634962
 20
148.8642789191
 10
30.7334288811
 20
149.0199002095
 10
30.669518674
 20
149.1761018628
 10
30.6091204346
 20
149.3328818304
 10
30.5524478613
 20
149.4896853999
 10
30.4995141517
 20
149.6465126548
 10
30.4503061082
 20
149.8033635116
 10
30.4049978367
 20
149.959683007
 10
30.3636473726
 20
150.1152861532
 10
30.3261966805
 20
150.270357938
 10
30.2926457604
 20
150.4248983614
  0
LWPOLYLINE
  5
2DF
100
AcDbEntity
  8
ASSI
100
AcDbPolyline
 62
7
  6
CONTINUOUS
 90
46
 70
0
 10
28.9206673505
 20
157.129276264
 10
27.6017153415
 20
158.4770982624
 10
26.2752137186
 20
159.8034703881
 10
24.9411624817
 20
161.1083926411
 10
23.5991852587
 20
162.3922170875
 10
22.2496584217
 20
163.6545916612
 10
20.8937110873
 20
164.8944601638
 10
19.531337882
 20
166.11180376
 10
18.1625441793
 20
167.3066412851
 10
16.7884752157
 20
168.4779730476
 10
15.4091265763
 20
169.6257793752
 10
14.0245026761
 20
170.7500799402
 10
12.6357619964
 20
171.8499340673
 10
11.2429010918
 20
172.9253212972
 10
9.8459234076
 20
173.9762620894
 10
8.4459977615
 20
175.001877147
 10
7.0431216861
 20
176.0021452747
 10
5.6372976487
 20
176.9770876678
 10
4.2297018682
 20
177.9258886157
 10
2.8203328619
 20
178.8485262403
 10
1.4091921125
 20
179.7450224196
 10
-0.0025397126
 20
180.6146270769
 10
-1.414863108
 20
181.4573177066
 10
-2.8277775791
 20
182.2731168142
 10
-4.2401009746
 20
183.0613418405
 10
-5.6518327996
 20
183.8219697084
 10
-7.062973549
 20
184.555023495
 10
-8.4723425553
 20
185.2598898718
 10
-9.8799383358
 20
185.9365452486
 10
-11.2857623732
 20
186.5850132156
 10
-12.6886384486
 20
187.2047512154
 10
-14.0885640948
 20
187.7957352037
 10
-15.4855417789
 20
188.3579892247
 10
-16.8784026835
 20
188.8910428541
 10
-18.2671433632
 20
189.3948716539
 10
-19.6517672634
 20
189.8695000621
 10
-21.0311159028
 20
190.3145309686
 10
-22.4051848664
 20
190.7299396031
 10
-23.7739785691
 20
191.1157507358
 10
-25.1363517744
 20
191.471641568
 10
-26.4922991088
 20
191.7975870591
 10
-27.8418259458
 20
192.0936122496
 10
-29.1838031688
 20
192.3594694625
 10
-30.5178544057
 20
192.5950761387
 10
-31.8443560287
 20
192.8005148373
 10
-33.1633080376
 20
192.9757855582
  0
LWPOLYLINE
  5
2E0
100
AcDbEntity
  8
ASSI
100
AcDbPolyline
 62
7
  6
CONTINUOUS
 90
46
 70
0
 10
31.0419876941
 20
158.354100044
 10
29.7230356851
 20
159.7019220424
 10
28.3965340621
 20
161.0282941681
 10
27.0624828252
 20
162.3332164211
 10
25.7205056022
 20
163.6170408675
 10
24.3709787653
 20
164.8794154411
 10
23.0150314308
 20
166.1192839438
 10
21.6526582256
 20
167.33662754
 10
20.2838645228
 20
168.5314650651
 10
18.9097955592
 20
169.7027968276
 10
17.5304469199
 20
170.8506031552
 10
16.1458230197
 20
171.9749037201
 10
14.7570823399
 20
173.0747578473
 10
13.3642214353
 20
174.1501450772
 10
11.9672437512
 20
175.2010858693
 10
10.567318105
 20
176.2267009269
 10
9.1644420297
 20
177.2269690546
 10
7.7586179922
 20
178.2019114478
 10
6.3510222117
 20
179.1507123957
 10
4.9416532054
 20
180.0733500203
 10
3.5305124561
 20
180.9698461996
 10
2.118780631
 20
181.8394508569
 10
0.7064572356
 20
182.6821414865
 10
-0.7064572356
 20
183.4979405942
 10
-2.118780631
 20
184.2861656205
 10
-3.5305124561
 20
185.0467934884
 10
-4.9416532054
 20
185.779847275
 10
-6.3510222117
 20
186.4847136518
 10
-7.7586179922
 20
187.1613690286
 10
-9.1644420297
 20
187.8098369956
 10
-10.567318105
 20
188.4295749954
 10
-11.9672437512
 20
189.0205589837
 10
-13.3642214353
 20
189.5828130047
 10
-14.7570823399
 20
190.1158666341
 10
-16.1458230197
 20
190.6196954339
 10
-17.5304469199
 20
191.0943238421
 10
-18.9097955592
 20
191.5393547486
 10
-20.2838645228
 20
191.954763383
 10
-21.6526582256
 20
192.3405745158
 10
-23.0150314308
 20
192.696465348
 10
-24.3709787653
 20
193.0224108391
 10
-25.7205056022
 20
193.3184360296
 10
-27.0624828252
 20
193.5842932425
 10
-28.3965340621
 20
193.8198999187
 10
-29.7230356851
 20
194.0253386173
 10
-31.0419876941
 20
194.2006093381
  0
LWPOLYLINE
  5
2E1
100
AcDbEntity
  8
ASSI
100
AcDbPolyline
 62
7
  6
CONTINUOUS
 90
46
 70
0
 10
33.1633080376
 20
159.578923824
 10
31.8443560287
 20
160.9267458224
 10
30.5178544057
 20
162.2531179481
 10
29.1838031688
 20
163.558040201
 10
27.8418259458
 20
164.8418646474
 10
26.4922991088
 20
166.1042392211
 10
25.1363517744
 20
167.3441077238
 10
23.7739785691
 20
168.56145132
 10
22.4051848664
 20
169.7562888451
 10
21.0311159028
 20
170.9276206076
 10
19.6517672634
 20
172.0754269352
 10
18.2671433632
 20
173.1997275001
 10
16.8784026835
 20
174.2995816273
 10
15.4855417789
 20
175.3749688572
 10
14.0885640948
 20
176.4259096493
 10
12.6886384486
 20
177.4515247069
 10
11.2857623732
 20
178.4517928346
 10
9.8799383358
 20
179.4267352278
 10
8.4723425553
 20
180.3755361757
 10
7.062973549
 20
181.2981738003
 10
5.6518327996
 20
182.1946699796
 10
4.2401009746
 20
183.0642746369
 10
2.8277775791
 20
183.9069652665
 10
1.414863108
 20
184.7227643742
 10
0.0025397126
 20
185.5109894005
 10
-1.4091921125
 20
186.2716172684
 10
-2.8203328619
 20
187.004671055
 10
-4.2297018682
 20
187.7095374318
 10
-5.6372976487
 20
188.3861928086
 10
-7.0431216861
 20
189.0346607756
 10
-8.4459977615
 20
189.6543987754
 10
-9.8459234076
 20
190.2453827636
 10
-11.2429010918
 20
190.8076367846
 10
-12.6357619964
 20
191.3406904141
 10
-14.0245026761
 20
191.8445192139
 10
-15.4091265763
 20
192.3191476221
 10
-16.7884752157
 20
192.7641785286
 10
-18.1625441793
 20
193.179587163
 10
-19.531337882
 20
193.5653982958
 10
-20.8937110873
 20
193.921289128
 10
-22.2496584217
 20
194.2472346191
 10
-23.5991852587
 20
194.5432598096
 10
-24.9411624817
 20
194.8091170225
 10
-26.2752137186
 20
195.0447236987
 10
-27.6017153415
 20
195.2501623972
 10
-28.9206673505
 20
195.4254331181
  0
LWPOLYLINE
  5
2E2
100
AcDbEntity
  8
ASSI
100
AcDbPolyline
 62
7
  6
CONTINUOUS
 90
55
 70
0
 10
15.8174620745
 20
-160.7813100793
 10
15.7877964744
 20
-160.7997310284
 10
15.7509221508
 20
-160.8265114674
 10
15.7161431583
 20
-160.8563542356
 10
15.6834737152
 20
-160.8892801131
 10
15.6528996033
 20
-160.9252683198
 10
15.6246278213
 20
-160.9640752015
 10
15.598673992
 20
-161.0057198848
 10
15.5750224926
 20
-161.0501832431
 10
15.5538334529
 20
-161.097164242
 10
15.5351235825
 20
-161.1466799655
 10
15.5188761719
 20
-161.1987133296
 10
15.5052012223
 20
-161.2529120481
 10
15.4941161899
 20
-161.3092908144
 10
15.4856036185
 20
-161.3678349351
 10
15.4797211416
 20
-161.4281480436
 10
15.4764866063
 20
-161.4902421437
 10
15.4758821655
 20
-161.5541052315
 10
15.4779119116
 20
-161.6193049289
 10
15.4825937193
 20
-161.6858503059
 10
15.4899097138
 20
-161.7537322926
 10
15.4998103631
 20
-161.8224913012
 10
15.5123132057
 20
-161.8921332831
 10
15.527400703
 20
-161.9626522871
 10
15.5449707067
 20
-162.0335708718
 10
15.5650400624
 20
-162.1048917488
 10
15.5875919245
 20
-162.1766122065
 10
15.6124736081
 20
-162.2482466694
 10
15.6397009227
 20
-162.319794554
 10
15.6692580587
 20
-162.3912564437
 10
15.7009449029
 20
-162.4621485138
 10
15.7347759067
 20
-162.5324668974
 10
15.7707366187
 20
-162.6022154612
 10
15.8085835706
 20
-162.6709219802
 10
15.848329562
 20
-162.7385793834
 10
15.8899617935
 20
-162.8051947417
 10
15.9331983984
 20
-162.8703170431
 10
15.9780502636
 20
-162.9339361561
 10
16.0245065024
 20
-162.9960622123
 10
16.0722525877
 20
-163.0562745938
 10
16.1212972722
 20
-163.1145603151
 10
16.1716318032
 20
-163.1709323618
 10
16.2229153963
 20
-163.225009073
 10
16.2751544916
 20
-163.2767748733
 10
16.3283426489
 20
-163.3262453382
 10
16.3821197638
 20
-163.3730855332
 10
16.4364898326
 20
-163.4172776101
 10
16.4914488588
 20
-163.4588394172
 10
16.5466247484
 20
-163.4974895647
 10
16.6020189729
 20
-163.533208295
 10
16.6576300607
 20
-163.5660153657
 10
16.713081503
 20
-163.5956886602
 10
16.7682477969
 20
-163.6221541395
 10
16.8232544453
 20
-163.6454858425
 10
16.8781014482
 20
-163.6656837692
  0
LINE
  5
2E3
100
AcDbEntity
  8
RACCORDO
100
AcDbLine
 62
250
  6
CONTINUOUS
 10
12.3743686708
 20
-155.9873368426
 11
14.4956890143
 21
-154.7625130626
  0
LWPOLYLINE
  5
2E4
100
AcDbEntity
  8
ASSI
100
AcDbPolyline
 62
7
  6
CONTINUOUS
 90
14
 70
0
 10
-16.4069011439
 20
149.6507761991
 10
-16.3525978938
 20
149.6339373883
 10
-16.2991899586
 20
149.6204819803
 10
-16.2466773384
 20
149.610409975
 10
-16.1949453049
 20
149.6037138965
 10
-16.1441085864
 20
149.6004012207
 10
-16.0945113672
 20
149.6004943759
 10
-16.0461620584
 20
149.6040164728
 10
-15.9990522489
 20
149.6109444007
 10
-15.9535008908
 20
149.6212312546
 10
-15.909518559
 20
149.6348998274
 10
-15.8670946785
 20
149.6519273262
 10
-15.8265164756
 20
149.6721984683
 10
-15.8174620745
 20
149.677314315
  0
LWPOLYLINE
  5
2E5
100
AcDbEntity
  8
ASSI
100
AcDbPolyline
 62
7
  6
CONTINUOUS
 90
14
 70
0
 10
-19.301991306
 20
153.3841595066
 10
-19.3562945561
 20
153.4009983174
 10
-19.4097024913
 20
153.4144537254
 10
-19.4622151115
 20
153.4245257307
 10
-19.513947145
 20
153.4312218092
 10
-19.5647838635
 20
153.434534485
 10
-19.6143810827
 20
153.4344413298
 10
-19.6627303915
 20
153.4309192329
 10
-19.709840201
 20
153.423991305
 10
-19.7553915592
 20
153.4137044511
 10
-19.7993738909
 20
153.4000358783
 10
-19.8417977714
 20
153.3830083795
 10
-19.8823759743
 20
153.3627372374
 10
-19.8914303754
 20
153.3576213907
  0
LWPOLYLINE
  5
2E6
100
AcDbEntity
  8
0
100
AcDbPolyline
 62
7
  6
CONTINUOUS
 90
8
 70
0
 10
0.1873851697
 20
147.4575368215
 10
-0.0963010672
 20
147.5478281184
 10
-0.3609741054
 20
147.5617096419
 10
-0.5991017215
 20
147.4968722496
 10
-0.7927094132
 20
147.3582100395
 10
-0.9398741614
 20
147.1471002816
 10
-1.0294875818
 20
146.8794780987
 10
-1.0606601718
 20
146.5565133456
  0
LINE
  5
2E7
100
AcDbEntity
  8
ASSI
100
AcDbLine
 62
7
  6
CONTINUOUS
 10
-18.8307910017
 20
150.4732477008
 11
-16.4069011439
 21
149.6507761991
  0
LINE
  5
2E8
100
AcDbEntity
  8
ASSI
100
AcDbLine
 62
7
  6
CONTINUOUS
 10
-16.7094706582
 20
151.6980714808
 11
-15.6997367268
 21
151.3554497317
  0
LINE
  5
2E9
100
AcDbEntity
  8
ASSI
100
AcDbLine
 62
7
  6
CONTINUOUS
 10
-16.8781014482
 20
152.5616880048
 11
-19.301991306
 21
153.3841595066
  0
LINE
  5
2EA
100
AcDbEntity
  8
RACCORDO
100
AcDbLine
 62
7
  6
CONTINUOUS
 10
42.3556961931
 20
141.4919356178
 11
35.2150905936
 21
147.068646961
  0
LINE
  5
2EB
100
AcDbEntity
  8
RACCORDO
100
AcDbLine
 62
7
  6
CONTINUOUS
 10
44.4770165366
 20
142.7167593978
 11
37.3364109371
 21
148.2934707409
  0
LWPOLYLINE
  5
2EC
100
AcDbEntity
  8
RACCORDO
100
AcDbPolyline
 62
7
  6
CONTINUOUS
 90
18
 70
0
 10
30.6891265374
 20
-168.6531040883
 10
30.6465756073
 20
-168.682534823
 10
30.6062383775
 20
-168.7152734777
 10
30.5680430707
 20
-168.7513987152
 10
30.5320614643
 20
-168.7908318728
 10
30.4985088907
 20
-168.8333369621
 10
30.4673999156
 20
-168.8789324039
 10
30.4387199732
 20
-168.9275997775
 10
30.4126406992
 20
-168.9790478324
 10
30.3891776883
 20
-169.0332932427
 10
30.3683153458
 20
-169.0903193342
 10
30.3501785225
 20
-169.1497848336
 10
30.334783562
 20
-169.2117043686
 10
30.3221141208
 20
-169.2760633114
 10
30.3122460194
 20
-169.342476505
 10
30.3052045311
 20
-169.4108155638
 10
30.3009643826
 20
-169.4812088734
 10
30.2995255738
 20
-169.5536564339
  0
LWPOLYLINE
  5
2ED
100
AcDbEntity
  8
RACCORDO
100
AcDbPolyline
 62
7
  6
CONTINUOUS
 90
19
 70
0
 10
25.7639433476
 20
-171.1368765438
 10
25.7213562134
 20
-171.163668765
 10
25.6806219007
 20
-171.1937817575
 10
25.6420206143
 20
-171.2270162031
 10
25.6055645196
 20
-171.2633899047
 10
25.5712414512
 20
-171.3028850593
 10
25.5392467965
 20
-171.3452768368
 10
25.5095938356
 20
-171.3905817578
 10
25.4822692885
 20
-171.4387833016
 10
25.457428703
 20
-171.489607076
 10
25.4350862463
 20
-171.5430680366
 10
25.4152277511
 20
-171.5991512277
 10
25.3979662641
 20
-171.6575373901
 10
25.3833165971
 20
-171.7182396585
 10
25.3712639383
 20
-171.781244898
 10
25.3618768986
 20
-171.8461944449
 10
25.3551783484
 20
-171.9129687446
 10
25.3511454174
 20
-171.9816873517
 10
25.3497781055
 20
-172.052350266
  0
LWPOLYLINE
  5
2EE
100
AcDbEntity
  8
ASSI
100
AcDbPolyline
 62
7
  6
CONTINUOUS
 90
55
 70
0
 10
19.8914303754
 20
-164.4616171551
 10
19.9210959755
 20
-164.4431962061
 10
19.9579702991
 20
-164.416415767
 10
19.9927492916
 20
-164.3865729988
 10
20.0254187347
 20
-164.3536471213
 10
20.0559928466
 20
-164.3176589146
 10
20.0842646286
 20
-164.278852033
 10
20.1102184579
 20
-164.2372073496
 10
20.1338699574
 20
-164.1927439913
 10
20.155058997
 20
-164.1457629924
 10
20.1737688674
 20
-164.0962472689
 10
20.190016278
 20
-164.0442139048
 10
20.2036912276
 20
-163.9900151863
 10
20.2147762601
 20
-163.93363642
 10
20.2232888315
 20
-163.8750922993
 10
20.2291713083
 20
-163.8147791909
 10
20.2324058436
 20
-163.7526850908
 10
20.2330102844
 20
-163.688822003
 10
20.2309805383
 20
-163.6236223055
 10
20.2262987306
 20
-163.5570769285
 10
20.2189827361
 20
-163.4891949419
 10
20.2090820868
 20
-163.4204359332
 10
20.1965792442
 20
-163.3507939513
 10
20.1814917469
 20
-163.2802749474
 10
20.1639217432
 20
-163.2093563626
 10
20.1438523875
 20
-163.1380354857
 10
20.1213005254
 20
-163.066315028
 10
20.0964188418
 20
-162.9946805651
 10
20.0691915272
 20
-162.9231326805
 10
20.0396343912
 20
-162.8516707907
 10
20.007947547
 20
-162.7807787207
 10
19.9741165432
 20
-162.7104603371
 10
19.9381558313
 20
-162.6407117732
 10
19.9003088793
 20
-162.5720052542
 10
19.8605628879
 20
-162.5043478511
 10
19.8189306565
 20
-162.4377324928
 10
19.7756940515
 20
-162.3726101914
 10
19.7308421863
 20
-162.3089910783
 10
19.6843859475
 20
-162.2468650222
 10
19.6366398622
 20
-162.1866526406
 10
19.5875951778
 20
-162.1283669193
 10
19.5372606468
 20
-162.0719948727
 10
19.4859770536
 20
-162.0179181615
 10
19.4337379584
 20
-161.9661523611
 10
19.380549801
 20
-161.9166818963
 10
19.3267726861
 20
-161.8698417013
 10
19.2724026173
 20
-161.8256496243
 10
19.2174435911
 20
-161.7840878173
 10
19.1622677015
 20
-161.7454376698
 10
19.106873477
 20
-161.7097189395
 10
19.0512623892
 20
-161.6769118687
 10
18.9958109469
 20
-161.6472385743
 10
18.940644653
 20
-161.620773095
 10
18.8856380046
 20
-161.597441392
 10
18.8307910017
 20
-161.5772434652
  0
LINE
  5
2EF
100
AcDbEntity
  8
RACCORDO
100
AcDbLine
 62
7
  6
CONTINUOUS
 10
30.713698877
 20
-168.6381966685
 11
30.6891265374
 21
-168.6531040883
  0
LINE
  5
2F0
100
AcDbEntity
  8
ASSI
100
AcDbLine
 62
250
  6
CONTINUOUS
 10
18.9994217918
 20
-162.4408599892
 11
16.8781014482
 21
-163.6656837692
  0
LINE
  5
2F1
100
AcDbEntity
  8
ASSI
100
AcDbLine
 62
250
  6
CONTINUOUS
 10
20.2086794624
 20
-163.964644893
 11
19.301991306
 21
-164.488155271
  0
LINE
  5
2F2
100
AcDbEntity
  8
RACCORDO
100
AcDbLine
 62
250
  6
CONTINUOUS
 10
30.405591591
 20
-166.3983389724
 11
31.8198051534
 21
-165.5817897858
  0
LINE
  5
2F3
100
AcDbEntity
  8
RACCORDO
100
AcDbLine
 62
7
  6
CONTINUOUS
 10
25.7639433476
 20
-171.1368765438
 11
27.8852636912
 21
-169.9120527638
  0
LINE
  5
2F4
100
AcDbEntity
  8
RACCORDO
100
AcDbLine
 62
250
  6
CONTINUOUS
 10
26.7639916679
 20
-171.2359588991
 11
28.8853120115
 21
-170.0111351191
  0
LINE
  5
2F5
100
AcDbEntity
  8
RACCORDO
100
AcDbLine
 62
7
  6
CONTINUOUS
 10
-37.3364109371
 20
186.509327101
 11
-44.4770165366
 21
189.1784081185
  0
LINE
  5
2F6
100
AcDbEntity
  8
RACCORDO
100
AcDbLine
 62
250
  6
CONTINUOUS
 10
24.6426713244
 20
-174.5017216415
 11
25.3497439355
 21
-174.0934667775
  0
LINE
  5
2F7
100
AcDbEntity
  8
RACCORDO
100
AcDbLine
 62
250
  6
CONTINUOUS
 10
28.8853120115
 20
-172.4607826791
 11
30.2994572337
 21
-171.6442729512
  0
LINE
  5
2F8
100
AcDbEntity
  8
RACCORDO
100
AcDbLine
 62
7
  6
CONTINUOUS
 10
30.7843847176
 20
-168.5989649839
 11
30.713698877
 21
-168.6381966685
  0
LWPOLYLINE
  5
2F9
100
AcDbEntity
  8
RACCORDO
100
AcDbPolyline
 62
7
  6
CONTINUOUS
 90
19
 70
0
 10
27.8852636912
 20
-169.9120527638
 10
27.929859451
 20
-169.8885164039
 10
27.9763080323
 20
-169.8683008152
 10
28.0243933423
 20
-169.8514931803
 10
28.0741247158
 20
-169.8381129361
 10
28.1254928179
 20
-169.8281406456
 10
28.1782052303
 20
-169.8216330771
 10
28.2322696202
 20
-169.8186099914
 10
28.2876783205
 20
-169.8190516277
 10
28.3441159113
 20
-169.822955472
 10
28.401588261
 20
-169.8303412707
 10
28.4600895012
 20
-169.8411892773
 10
28.5192866077
 20
-169.8554377384
 10
28.5791835492
 20
-169.8731060484
 10
28.639776357
 20
-169.8941748129
 10
28.7007201002
 20
-169.9185240958
 10
28.7618998019
 20
-169.9461139185
 10
28.823430439
 20
-169.9769842596
 10
28.8853120115
 20
-170.0111351191
  0
LWPOLYLINE
  5
2FA
100
AcDbEntity
  8
RACCORDO
100
AcDbPolyline
 62
7
  6
CONTINUOUS
 90
19
 70
0
 10
29.8853603317
 20
-172.5598650344
 10
29.840764572
 20
-172.5834013943
 10
29.7943159906
 20
-172.603616983
 10
29.7462306806
 20
-172.6204246179
 10
29.6964993071
 20
-172.6338048621
 10
29.6451312051
 20
-172.6437771526
 10
29.5924187927
 20
-172.6502847211
 10
29.5383544027
 20
-172.6533078068
 10
29.4829457025
 20
-172.6528661705
 10
29.4265081116
 20
-172.6489623262
 10
29.369035762
 20
-172.6415765276
 10
29.3105345217
 20
-172.6307285209
 10
29.2513374153
 20
-172.6164800598
 10
29.1914404737
 20
-172.5988117498
 10
29.1308476659
 20
-172.5777429853
 10
29.0699039228
 20
-172.5533937024
 10
29.0087242211
 20
-172.5258038797
 10
28.947193584
 20
-172.4949335386
 10
28.8853120115
 20
-172.4607826791
  0
LWPOLYLINE
  5
2FB
100
AcDbEntity
  8
RACCORDO
100
AcDbPolyline
 62
7
  6
CONTINUOUS
 90
16
 70
0
 10
25.1426954845
 20
-174.5512628192
 10
25.1158379863
 20
-174.565174506
 10
25.0876366862
 20
-174.5767028644
 10
25.0582982621
 20
-174.5857674789
 10
25.027813381
 20
-174.5923481276
 10
24.996191376
 20
-174.5964650324
 10
24.9636910853
 20
-174.5980844948
 10
24.9303053
 20
-174.5971860164
 10
24.896041229
 20
-174.5937900957
 10
24.8611793366
 20
-174.5879245295
 10
24.825714716
 20
-174.5795690476
 10
24.789652274
 20
-174.5687439202
 10
24.7532871954
 20
-174.5555377551
 10
24.716717875
 20
-174.5399800883
 10
24.679845918
 20
-174.5220413837
 10
24.6426713244
 20
-174.5017216415
  0
LWPOLYLINE
  5
2FC
100
AcDbEntity
  8
RACCORDO
100
AcDbPolyline
 62
7
  6
CONTINUOUS
 90
5
 70
0
 10
-35.2150905936
 20
187.7341508809
 10
-35.0955487359
 20
187.6919407957
 10
-34.9771512084
 20
187.6550271568
 10
-34.859898011
 20
187.6234099642
 10
-34.7436533961
 20
187.5970643928
  0
LINE
  5
2FD
100
AcDbEntity
  8
RACCORDO
100
AcDbLine
 62
7
  6
CONTINUOUS
 10
-35.2150905936
 20
187.7341508809
 11
-42.3556961931
 21
190.4032318985
  0
LINE
  5
2FE
100
AcDbEntity
  8
RACCORDO
100
AcDbLine
 62
7
  6
CONTINUOUS
 10
-34.1353355778
 20
189.348300497
 11
-40.2343758495
 21
191.6280556785
  0
LINE
  5
2FF
100
AcDbEntity
  8
RACCORDO
100
AcDbLine
 62
250
  6
CONTINUOUS
 10
32.7915828559
 20
-188.8625265336
 11
30.2926457604
 21
-190.3053814934
  0
LINE
  5
300
100
AcDbEntity
  8
ASSI
100
AcDbLine
 62
7
  6
CONTINUOUS
 10
33.1633080376
 20
-192.9757855582
 11
28.9206673505
 21
-195.4254331181
  0
LINE
  5
301
100
AcDbEntity
  8
ASSI
100
AcDbLine
 62
7
  6
CONTINUOUS
 10
44.4770165366
 20
-189.1784081185
 11
40.2343758495
 21
-191.6280556785
  0
LWPOLYLINE
  5
302
100
AcDbEntity
  8
RACCORDO
100
AcDbPolyline
 62
7
  6
CONTINUOUS
 90
19
 70
0
 10
31.2075889985
 20
-189.0037302944
 10
31.2746569235
 20
-188.9670409192
 10
31.3643342575
 20
-188.9239360248
 10
31.4566695717
 20
-188.8860828853
 10
31.5516722816
 20
-188.8535001041
 10
31.6493329716
 20
-188.8261690777
 10
31.7493061029
 20
-188.8041865076
 10
31.8515998667
 20
-188.7875713399
 10
31.9562060718
 20
-188.7763046286
 10
32.0627546046
 20
-188.770426237
 10
32.1712523455
 20
-188.7699552524
 10
32.2816924143
 20
-188.7748725875
 10
32.3936840563
 20
-188.7851608441
 10
32.5072327678
 20
-188.8008390477
 10
32.6223330525
 20
-188.8218881728
 10
32.7385776674
 20
-188.8482337442
 10
32.8558308648
 20
-188.8798509368
 10
32.9742283923
 20
-188.9167645757
 10
33.09377025
 20
-188.9589746609
  0
LWPOLYLINE
  5
303
100
AcDbEntity
  8
RACCORDO
100
AcDbPolyline
 62
7
  6
CONTINUOUS
 90
3
 70
0
 10
-34.6263772448
 20
187.5757148356
 10
-34.6285531114
 20
187.5760152678
 10
-34.7436533961
 20
187.5970643928
  0
ENDSEC
  0
SECTION
  2
OBJECTS
  0
DICTIONARY
  5
C
100
AcDbDictionary
280
0
281
1
  3
ACAD_GROUP
350
D
  3
ACAD_MLINESTYLE
350
17
  3
ACAD_LAYOUT
350
1A
  3
ACAD_PLOTSETTINGS
350
19
  3
ACAD_PLOTSTYLENAME
350
E
  0
DICTIONARY
  5
D
102
{ACAD_REACTORS
330
C
102
}
100
AcDbDictionary
280
0
281
1
  0
ACDBDICTIONARYWDFLT
  5
E
102
{ACAD_REACTORS
330
C
102
}
100
AcDbDictionary
281
1
  3
Normal
350
F
100
AcDbDictionaryWithDefault
340
F
  0
DICTIONARY
  5
17
102
{ACAD_REACTORS
330
C
102
}
100
AcDbDictionary
280
0
281
1
  3
Standard
350
18
  0
DICTIONARY
  5
19
102
{ACAD_REACTORS
330
C
102
}
100
AcDbDictionary
281
1
  0
DICTIONARY
  5
1A
102
{ACAD_REACTORS
330
C
102
}
100
AcDbDictionary
281
1
  3
Model
350
304
  3
Layout1
350
305
  0
ACDBPLACEHOLDER
  5
F
102
{ACAD_REACTORS
330
E
102
}
  0
MLINESTYLE
  5
18
102
{ACAD_REACTORS
330
17
102
}
100
AcDbMlineStyle
  2
STANDARD
 70
0
  3

 62
256
 51
90.0
 52
90.0
 71
2
 49
0.5
 62
256
  6
BYLAYER
 49
-0.5
 62
256
  6
BYLAYER
  0
LAYOUT
  5
304
102
{ACAD_REACTORS
330
1A
102
}
100
AcDbPlotSettings
  1

  2
none_device
  4

  6

 40
0.0
 41
0.0
 42
0.0
 43
0.0
 44
210.0
 45
297.0
 46
0.0
 47
0.0
 48
0.0
 49
0.0
140
0.0
141
0.0
142
1.0
143
1.0
 70
1024
 72
1
 73
0
 74
0
  7

 75
0
147
1.0
148
0.0
149
0.0
100
AcDbLayout
  1
Model
 70
0
 71
0
 10
0.0
 20
0.0
 11
210.0
 21
297.0
 12
0.0
 22
0.0
 32
0.0
 14
0.0
 24
0.0
 34
0.0
 15
0.0
 25
0.0
 35
0.0
146
0.0
 13
0.0
 23
0.0
 33
0.0
 16
1.0
 26
0.0
 36
0.0
 17
0.0
 27
1.0
 37
0.0
 76
0
330
212
345
0
346
0
  0
LAYOUT
  5
305
102
{ACAD_REACTORS
330
1A
102
}
100
AcDbPlotSettings
  1

  2
none_device
  4

  6

 40
0.0
 41
0.0
 42
0.0
 43
0.0
 44
210.0
 45
297.0
 46
0.0
 47
0.0
 48
0.0
 49
0.0
140
0.0
141
0.0
142
1.0
143
1.0
 70
0
 72
1
 73
0
 74
0
  7

 75
0
147
1.0
148
0.0
149
0.0
100
AcDbLayout
  1
Layout1
 70
0
 71
1
 10
0.0
 20
0.0
 11
210.0
 21
297.0
 12
0.0
 22
0.0
 32
0.0
 14
0.0
 24
0.0
 34
0.0
 15
0.0
 25
0.0
 35
0.0
146
0.0
 13
0.0
 23
0.0
 33
0.0
 16
1.0
 26
0.0
 36
0.0
 17
0.0
 27
1.0
 37
0.0
 76
0
330
213
345
0
346
0
  0
ENDSEC
  0
EOF
