  0
SECTION
  2
HEADER
  9
$ACADVER
  1
AC1032
  9
$ACADMAINTVER
 90
      155
  9
$DWGCODEPAGE
  3
ANSI_1252
  9
$REQUIREDVERSIONS
160
                 0
  9
$INSBASE
 10
0.0
 20
0.0
 30
0.0
  9
$EXTMIN
 10
1.000000000000000E+20
 20
1.000000000000000E+20
 30
1.000000000000000E+20
  9
$EXTMAX
 10
-1.000000000000000E+20
 20
-1.000000000000000E+20
 30
-1.000000000000000E+20
  9
$LIMMIN
 10
0.0
 20
0.0
  9
$LIMMAX
 10
12.0
 20
9.0
  9
$ORTHOMODE
 70
     0
  9
$REGENMODE
 70
     1
  9
$FILLMODE
 70
     1
  9
$QTEXTMODE
 70
     0
  9
$MIRRTEXT
 70
     0
  9
$LTSCALE
 40
1.0
  9
$ATTMODE
 70
     1
  9
$TEXTSIZE
 40
0.2
  9
$TRACEWID
 40
0.05
  9
$TEXTSTYLE
  7
Standard
  9
$CLAYER
  8
0
  9
$CELTYPE
  6
ByLayer
  9
$CECOLOR
 62
   256
  9
$CELTSCALE
 40
1.0
  9
$DISPSILH
 70
     0
  9
$DIMSCALE
 40
1.0
  9
$DIMASZ
 40
0.18
  9
$DIMEXO
 40
0.0625
  9
$DIMDLI
 40
0.38
  9
$DIMRND
 40
0.0
  9
$DIMDLE
 40
0.0
  9
$DIMEXE
 40
0.18
  9
$DIMTP
 40
0.0
  9
$DIMTM
 40
0.0
  9
$DIMTXT
 40
0.18
  9
$DIMCEN
 40
0.09
  9
$DIMTSZ
 40
0.0
  9
$DIMTOL
 70
     0
  9
$DIMLIM
 70
     0
  9
$DIMTIH
 70
     1
  9
$DIMTOH
 70
     1
  9
$DIMSE1
 70
     0
  9
$DIMSE2
 70
     0
  9
$DIMTAD
 70
     0
  9
$DIMZIN
 70
     0
  9
$DIMBLK
  1

  9
$DIMASO
 70
     1
  9
$DIMSHO
 70
     1
  9
$DIMPOST
  1

  9
$DIMAPOST
  1

  9
$DIMALT
 70
     0
  9
$DIMALTD
 70
     2
  9
$DIMALTF
 40
25.4
  9
$DIMLFAC
 40
1.0
  9
$DIMTOFL
 70
     0
  9
$DIMTVP
 40
0.0
  9
$DIMTIX
 70
     0
  9
$DIMSOXD
 70
     0
  9
$DIMSAH
 70
     0
  9
$DIMBLK1
  1

  9
$DIMBLK2
  1

  9
$DIMSTYLE
  2
Standard
  9
$DIMCLRD
 70
     0
  9
$DIMCLRE
 70
     0
  9
$DIMCLRT
 70
     0
  9
$DIMTFAC
 40
1.0
  9
$DIMGAP
 40
0.09
  9
$DIMJUST
 70
     0
  9
$DIMSD1
 70
     0
  9
$DIMSD2
 70
     0
  9
$DIMTOLJ
 70
     1
  9
$DIMTZIN
 70
     0
  9
$DIMALTZ
 70
     0
  9
$DIMALTTZ
 70
     0
  9
$DIMUPT
 70
     0
  9
$DIMDEC
 70
     4
  9
$DIMTDEC
 70
     4
  9
$DIMALTU
 70
     2
  9
$DIMALTTD
 70
     2
  9
$DIMTXSTY
  7
Standard
  9
$DIMAUNIT
 70
     0
  9
$DIMADEC
 70
     0
  9
$DIMALTRND
 40
0.0
  9
$DIMAZIN
 70
     0
  9
$DIMDSEP
 70
    46
  9
$DIMATFIT
 70
     3
  9
$DIMFRAC
 70
     0
  9
$DIMLDRBLK
  1

  9
$DIMLUNIT
 70
     2
  9
$DIMLWD
 70
    -2
  9
$DIMLWE
 70
    -2
  9
$DIMTMOVE
 70
     0
  9
$DIMFXL
 40
1.0
  9
$DIMFXLON
 70
     0
  9
$DIMJOGANG
 40
0.7853981633974483
  9
$DIMTFILL
 70
     0
  9
$DIMTFILLCLR
 70
     0
  9
$DIMARCSYM
 70
     0
  9
$DIMLTYPE
  6

  9
$DIMLTEX1
  6

  9
$DIMLTEX2
  6

  9
$DIMTXTDIRECTION
 70
     0
  9
$LUNITS
 70
     2
  9
$LUPREC
 70
     4
  9
$SKETCHINC
 40
0.1
  9
$FILLETRAD
 40
0.0
  9
$AUNITS
 70
     0
  9
$AUPREC
 70
     0
  9
$MENU
  1
.
  9
$ELEVATION
 40
0.0
  9
$PELEVATION
 40
0.0
  9
$THICKNESS
 40
0.0
  9
$LIMCHECK
 70
     0
  9
$CHAMFERA
 40
0.0
  9
$CHAMFERB
 40
0.0
  9
$CHAMFERC
 40
0.0
  9
$CHAMFERD
 40
0.0
  9
$SKPOLY
 70
     0
  9
$TDCREATE
 40
2460347.451504630
  9
$TDUCREATE
 40
2460347.409837963
  9
$TDUPDATE
 40
2460347.451504630
  9
$TDUUPDATE
 40
2460347.409837963
  9
$TDINDWG
 40
0.0000000000
  9
$TDUSRTIMER
 40
0.0000000000
  9
$USRTIMER
 70
     1
  9
$ANGBASE
 50
0.0
  9
$ANGDIR
 70
     0
  9
$PDMODE
 70
     0
  9
$PDSIZE
 40
0.0
  9
$PLINEWID
 40
0.0
  9
$SPLFRAME
 70
     0
  9
$SPLINETYPE
 70
     6
  9
$SPLINESEGS
 70
     8
  9
$HANDSEED
  5
CE
  9
$SURFTAB1
 70
     6
  9
$SURFTAB2
 70
     6
  9
$SURFTYPE
 70
     6
  9
$SURFU
 70
     6
  9
$SURFV
 70
     6
  9
$UCSBASE
  2

  9
$UCSNAME
  2

  9
$UCSORG
 10
0.0
 20
0.0
 30
0.0
  9
$UCSXDIR
 10
1.0
 20
0.0
 30
0.0
  9
$UCSYDIR
 10
0.0
 20
1.0
 30
0.0
  9
$UCSORTHOREF
  2

  9
$UCSORTHOVIEW
 70
     0
  9
$UCSORGTOP
 10
0.0
 20
0.0
 30
0.0
  9
$UCSORGBOTTOM
 10
0.0
 20
0.0
 30
0.0
  9
$UCSORGLEFT
 10
0.0
 20
0.0
 30
0.0
  9
$UCSORGRIGHT
 10
0.0
 20
0.0
 30
0.0
  9
$UCSORGFRONT
 10
0.0
 20
0.0
 30
0.0
  9
$UCSORGBACK
 10
0.0
 20
0.0
 30
0.0
  9
$PUCSBASE
  2

  9
$PUCSNAME
  2

  9
$PUCSORG
 10
0.0
 20
0.0
 30
0.0
  9
$PUCSXDIR
 10
1.0
 20
0.0
 30
0.0
  9
$PUCSYDIR
 10
0.0
 20
1.0
 30
0.0
  9
$PUCSORTHOREF
  2

  9
$PUCSORTHOVIEW
 70
     0
  9
$PUCSORGTOP
 10
0.0
 20
0.0
 30
0.0
  9
$PUCSORGBOTTOM
 10
0.0
 20
0.0
 30
0.0
  9
$PUCSORGLEFT
 10
0.0
 20
0.0
 30
0.0
  9
$PUCSORGRIGHT
 10
0.0
 20
0.0
 30
0.0
  9
$PUCSORGFRONT
 10
0.0
 20
0.0
 30
0.0
  9
$PUCSORGBACK
 10
0.0
 20
0.0
 30
0.0
  9
$USERI1
 70
     0
  9
$USERI2
 70
     0
  9
$USERI3
 70
     0
  9
$USERI4
 70
     0
  9
$USERI5
 70
     0
  9
$USERR1
 40
0.0
  9
$USERR2
 40
0.0
  9
$USERR3
 40
0.0
  9
$USERR4
 40
0.0
  9
$USERR5
 40
0.0
  9
$WORLDVIEW
 70
     1
  9
$SHADEDGE
 70
     3
  9
$SHADEDIF
 70
    70
  9
$TILEMODE
 70
     1
  9
$MAXACTVP
 70
    64
  9
$PINSBASE
 10
0.0
 20
0.0
 30
0.0
  9
$PLIMCHECK
 70
     0
  9
$PEXTMIN
 10
1.000000000000000E+20
 20
1.000000000000000E+20
 30
1.000000000000000E+20
  9
$PEXTMAX
 10
-1.000000000000000E+20
 20
-1.000000000000000E+20
 30
-1.000000000000000E+20
  9
$PLIMMIN
 10
0.0
 20
0.0
  9
$PLIMMAX
 10
12.0
 20
9.0
  9
$UNITMODE
 70
     0
  9
$VISRETAIN
 70
     1
  9
$PLINEGEN
 70
     0
  9
$PSLTSCALE
 70
     1
  9
$TREEDEPTH
 70
  3020
  9
$CMLSTYLE
  2
Standard
  9
$CMLJUST
 70
     0
  9
$CMLSCALE
 40
1.0
  9
$PROXYGRAPHICS
 70
     1
  9
$MEASUREMENT
 70
     0
  9
$CELWEIGHT
370
    -1
  9
$ENDCAPS
280
     0
  9
$JOINSTYLE
280
     0
  9
$LWDISPLAY
290
     1
  9
$INSUNITS
 70
     4
  9
$HYPERLINKBASE
  1

  9
$STYLESHEET
  1

  9
$XEDIT
290
     1
  9
$CEPSNTYPE
380
     0
  9
$PSTYLEMODE
290
     1
  9
$FINGERPRINTGUID
  2
{26926404-B927-554E-9D8F-BF63446A000F}
  9
$VERSIONGUID
  2
{467A7438-4151-394A-8847-AA6E3E0D0A47}
  9
$EXTNAMES
290
     1
  9
$PSVPSCALE
 40
0.0
  9
$OLESTARTUP
290
     0
  9
$SORTENTS
280
   127
  9
$INDEXCTL
280
     0
  9
$HIDETEXT
280
     1
  9
$XCLIPFRAME
280
     2
  9
$HALOGAP
280
     0
  9
$OBSCOLOR
 70
   257
  9
$OBSLTYPE
280
     0
  9
$INTERSECTIONDISPLAY
280
     0
  9
$INTERSECTIONCOLOR
 70
   257
  9
$DIMASSOC
280
     2
  9
$PROJECTNAME
  1

  9
$CAMERADISPLAY
290
     0
  9
$LENSLENGTH
 40
50.0
  9
$CAMERAHEIGHT
 40
0.0
  9
$STEPSPERSEC
 40
2.0
  9
$STEPSIZE
 40
6.0
  9
$3DDWFPREC
 40
2.0
  9
$PSOLWIDTH
 40
0.25
  9
$PSOLHEIGHT
 40
4.0
  9
$LOFTANG1
 40
1.570796326794896
  9
$LOFTANG2
 40
1.570796326794896
  9
$LOFTMAG1
 40
0.0
  9
$LOFTMAG2
 40
0.0
  9
$LOFTPARAM
 70
     7
  9
$LOFTNORMALS
280
     1
  9
$LATITUDE
 40
37.795
  9
$LONGITUDE
 40
-122.394
  9
$NORTHDIRECTION
 40
0.0
  9
$TIMEZONE
 70
 -8000
  9
$LIGHTGLYPHDISPLAY
280
     1
  9
$TILEMODELIGHTSYNCH
280
     1
  9
$CMATERIAL
347
11
  9
$SOLIDHIST
280
     0
  9
$SHOWHIST
280
     1
  9
$DWFFRAME
280
     2
  9
$DGNFRAME
280
     0
  9
$REALWORLDSCALE
290
     1
  9
$INTERFERECOLOR
 62
     1
  9
$INTERFEREOBJVS
345
33
  9
$INTERFEREVPVS
346
30
  9
$CSHADOW
280
     0
  9
$SHADOWPLANELOCATION
 40
0.0
  0
ENDSEC
  0
SECTION
  2
CLASSES
  0
CLASS
  1
ACDBDICTIONARYWDFLT
  2
AcDbDictionaryWithDefault
  3
ObjectDBX Classes
 90
        0
 91
        1
280
     0
281
     0
  0
CLASS
  1
MATERIAL
  2
AcDbMaterial
  3
ObjectDBX Classes
 90
     1153
 91
        3
280
     0
281
     0
  0
CLASS
  1
VISUALSTYLE
  2
AcDbVisualStyle
  3
ObjectDBX Classes
 90
     4095
 91
       24
280
     0
281
     0
  0
CLASS
  1
SCALE
  2
AcDbScale
  3
ObjectDBX Classes
 90
     1153
 91
       17
280
     0
281
     0
  0
CLASS
  1
TABLESTYLE
  2
AcDbTableStyle
  3
ObjectDBX Classes
 90
     4095
 91
        1
280
     0
281
     0
  0
CLASS
  1
MLEADERSTYLE
  2
AcDbMLeaderStyle
  3
ACDB_MLEADERSTYLE_CLASS
 90
     4095
 91
        1
280
     0
281
     0
  0
CLASS
  1
ACDBSECTIONVIEWSTYLE
  2
AcDbSectionViewStyle
  3
ObjectDBX Classes
 90
     1025
 91
        1
280
     0
281
     0
  0
CLASS
  1
ACDBDETAILVIEWSTYLE
  2
AcDbDetailViewStyle
  3
ObjectDBX Classes
 90
     1025
 91
        1
280
     0
281
     0
  0
CLASS
  1
DICTIONARYVAR
  2
AcDbDictionaryVar
  3
ObjectDBX Classes
 90
        0
 91
        5
280
     0
281
     0
  0
CLASS
  1
CELLSTYLEMAP
  2
AcDbCellStyleMap
  3
ObjectDBX Classes
 90
     1152
 91
        1
280
     0
281
     0
  0
ENDSEC
  0
SECTION
  2
TABLES
  0
TABLE
  2
VPORT
  5
8
330
0
100
AcDbSymbolTable
 70
     1
  0
VPORT
  5
57
330
8
100
AcDbSymbolTableRecord
100
AcDbViewportTableRecord
  2
*Active
 70
     0
 10
0.0
 20
0.0
 11
1.0
 21
1.0
 12
0.0
 22
0.0
 13
0.0
 23
0.0
 14
1.0
 24
1.0
 15
0.0
 25
0.0
 16
0.0
 26
0.0
 36
1.0
 17
225.0000043518447
 27
174.9999985999132
 37
0.0
 40
356.999997143823
 41
1.285714320868321
 42
50.0
 43
0.0
 44
0.0
 50
0.0
 51
0.0
 71
     0
 72
   100
 73
     1
 74
     0
 75
     1
 76
     0
 77
     0
 78
     0
281
     0
 65
     1
110
0.0
120
0.0
130
0.0
111
1.0
121
0.0
131
0.0
112
0.0
122
1.0
132
0.0
 79
     0
146
0.0
 60
     3
 61
     5
292
     1
282
     1
141
0.0
142
0.0
 63
   250
421
  3355443
  0
ENDTAB
  0
TABLE
  2
LTYPE
  5
5
330
0
100
AcDbSymbolTable
 70
     1
  0
LTYPE
  5
5B
330
5
100
AcDbSymbolTableRecord
100
AcDbLinetypeTableRecord
  2
ByBlock
 70
     0
  3

 72
    65
 73
     0
 40
0.0
  0
LTYPE
  5
5C
330
5
100
AcDbSymbolTableRecord
100
AcDbLinetypeTableRecord
  2
ByLayer
 70
     0
  3

 72
    65
 73
     0
 40
0.0
  0
LTYPE
  5
5D
330
5
100
AcDbSymbolTableRecord
100
AcDbLinetypeTableRecord
  2
Continuous
 70
     0
  3
Solid line
 72
    65
 73
     0
 40
0.0
  0
ENDTAB
  0
TABLE
  2
LAYER
  5
2
330
0
100
AcDbSymbolTable
 70
     2
  0
LAYER
  5
54
330
2
100
AcDbSymbolTableRecord
100
AcDbLayerTableRecord
  2
0
 70
     0
 62
     7
  6
Continuous
370
    -3
390
F
347
21
348
0
  0
LAYER
  5
78
330
2
100
AcDbSymbolTableRecord
100
AcDbLayerTableRecord
  2
Livello 1
 70
     0
 62
     7
  6
Continuous
370
     0
390
F
347
21
348
0
  0
ENDTAB
  0
TABLE
  2
STYLE
  5
3
330
0
100
AcDbSymbolTable
 70
     2
  0
STYLE
  5
55
330
3
100
AcDbSymbolTableRecord
100
AcDbTextStyleTableRecord
  2
Standard
 70
     0
 40
0.0
 41
1.0
 50
0.0
 71
     0
 42
0.2
  3
txt
  4

  0
STYLE
  5
5A
330
3
100
AcDbSymbolTableRecord
100
AcDbTextStyleTableRecord
  2
Annotative
 70
     0
 40
0.0
 41
1.0
 50
0.0
 71
     0
 42
0.2
  3
txt
  4

1001
AcadAnnotative
1000
AnnotativeData
1002
{
1070
     1
1070
     1
1002
}
  0
ENDTAB
  0
TABLE
  2
VIEW
  5
6
330
0
100
AcDbSymbolTable
 70
     0
  0
ENDTAB
  0
TABLE
  2
UCS
  5
7
330
0
100
AcDbSymbolTable
 70
     0
  0
ENDTAB
  0
TABLE
  2
APPID
  5
9
330
0
100
AcDbSymbolTable
 70
     2
  0
APPID
  5
56
330
9
100
AcDbSymbolTableRecord
100
AcDbRegAppTableRecord
  2
ACAD
 70
     0
  0
APPID
  5
5E
330
9
100
AcDbSymbolTableRecord
100
AcDbRegAppTableRecord
  2
AcadAnnotative
 70
     0
  0
ENDTAB
  0
TABLE
  2
DIMSTYLE
  5
A
330
0
100
AcDbSymbolTable
 70
     2
100
AcDbDimStyleTable
 71
     0
  0
DIMSTYLE
105
58
330
A
100
AcDbSymbolTableRecord
100
AcDbDimStyleTableRecord
  2
Standard
 70
     0
340
55
  0
DIMSTYLE
105
59
330
A
100
AcDbSymbolTableRecord
100
AcDbDimStyleTableRecord
  2
Annotative
 70
     0
340
55
1001
AcadAnnotative
1000
AnnotativeData
1002
{
1070
     1
1070
     1
1002
}
  0
ENDTAB
  0
TABLE
  2
BLOCK_RECORD
  5
1
330
0
100
AcDbSymbolTable
 70
     1
  0
BLOCK_RECORD
  5
70
330
1
100
AcDbSymbolTableRecord
100
AcDbBlockTableRecord
  2
*Model_Space
340
73
 70
     0
280
     1
281
     0
  0
BLOCK_RECORD
  5
6C
330
1
100
AcDbSymbolTableRecord
100
AcDbBlockTableRecord
  2
*Paper_Space
340
6F
 70
     0
280
     1
281
     0
  0
BLOCK_RECORD
  5
74
330
1
100
AcDbSymbolTableRecord
100
AcDbBlockTableRecord
  2
*Paper_Space0
340
77
 70
     0
280
     1
281
     0
  0
ENDTAB
  0
ENDSEC
  0
SECTION
  2
BLOCKS
  0
BLOCK
  5
71
330
70
100
AcDbEntity
  8
0
100
AcDbBlockBegin
  2
*Model_Space
 70
     0
 10
0.0
 20
0.0
 30
0.0
  3
*Model_Space
  1

  0
ENDBLK
  5
72
330
70
100
AcDbEntity
  8
0
100
AcDbBlockEnd
  0
BLOCK
  5
6D
330
6C
100
AcDbEntity
 67
     1
  8
0
100
AcDbBlockBegin
  2
*Paper_Space
 70
     0
 10
0.0
 20
0.0
 30
0.0
  3
*Paper_Space
  1

  0
ENDBLK
  5
6E
330
6C
100
AcDbEntity
 67
     1
  8
0
100
AcDbBlockEnd
  0
BLOCK
  5
75
330
74
100
AcDbEntity
 67
     1
  8
0
100
AcDbBlockBegin
  2
*Paper_Space0
 70
     0
 10
0.0
 20
0.0
 30
0.0
  3
*Paper_Space0
  1

  0
ENDBLK
  5
76
330
74
100
AcDbEntity
 67
     1
  8
0
100
AcDbBlockEnd
  0
ENDSEC
  0
SECTION
  2
ENTITIES
  0
LWPOLYLINE
  5
79
330
70
100
AcDbEntity
  8
Livello 1
 62
   250
420
  2300182
370
     9
100
AcDbPolyline
 90
       21
 70
     0
 43
0.0
 10
318.3884039188838
 20
172.8614986411379
 10
314.8006814805447
 20
172.8982965672897
 10
311.1929990202378
 20
173.0315033374116
 10
307.5803211714774
 20
173.2624969896976
 10
303.9778924817855
 20
173.591998841015
 10
300.4012804763863
 20
174.0198043388193
 10
296.8658804257293
 20
174.5448799544649
 10
293.3871091321112
 20
175.1653847150519
 10
289.9795867194973
 20
175.8785948419624
 10
286.6575888023048
 20
176.6810975374812
 10
283.4345081892325
 20
177.5686079640985
 10
280.3224027144789
 20
178.5363891155221
 10
277.3326196612984
 20
179.5789826685927
 10
275.8866054269051
 20
180.126494468586
 10
274.4748052970497
 20
180.6904781313682
 10
273.0980805456035
 20
181.2700939149147
 10
271.757378573825
 20
181.8646097364348
 10
270.4536898466661
 20
182.4730997265171
 10
269.1876172558368
 20
183.094810270524
 10
267.9596990975066
 20
183.7287939671971
 10
266.770688986313
 20
184.374297201899
  0
LWPOLYLINE
  5
7A
330
70
100
AcDbEntity
  8
Livello 1
 62
   250
420
  2300182
370
     9
100
AcDbPolyline
 90
       30
 70
     0
 43
0.0
 10
266.343690932763
 20
184.6119872585345
 10
264.728716296665
 20
185.5429166541893
 10
263.1751935512852
 20
186.5036891894852
 10
261.6863955373345
 20
187.4929914217682
 10
260.967188791095
 20
187.9976117829702
 10
260.2652936496689
 20
188.5088208892877
 10
259.5809038996772
 20
189.026101976398
 10
258.914514773596
 20
189.5493043213735
 10
258.2663846535866
 20
190.0782987331336
 10
257.6367073262701
 20
190.612719170283
 10
257.0259134285821
 20
191.1523933780474
 10
256.4340890879098
 20
191.6969122513379
 10
255.8616003456483
 20
192.2462111946142
 10
255.3084902654914
 20
192.7999026346342
 10
254.7750818251409
 20
193.3577066573897
 10
254.2615903430644
 20
193.9194079444129
 10
253.7680804148024
 20
194.4845973906149
 10
253.2947888906694
 20
195.0532965278426
 10
252.8416942388187
 20
195.6249024643859
 10
252.4090117777181
 20
196.1993075410109
 10
251.9967199755208
 20
196.776188780016
 10
251.6049910870011
 20
197.3553954584736
 10
251.2338035803122
 20
197.936410812061
 10
250.8830928599138
 20
198.5191056496974
 10
250.5531173079672
 20
199.1032000573748
 10
250.2435108830772
 20
199.6884141210848
 10
249.9544889037115
 20
200.2744033312791
 10
249.6859867743298
 20
200.86101696503
 10
249.4379183675451
 20
201.4478889809423
 10
249.2100898967361
 20
202.0348040605482
  0
LWPOLYLINE
  5
7B
330
70
100
AcDbEntity
  8
Livello 1
 62
   250
420
  2300182
370
     9
100
AcDbPolyline
 90
       19
 70
     0
 43
0.0
 10
366.3762155252679
 20
183.0493996056591
 10
365.2273192446307
 20
182.4776860098819
 10
364.0460821301256
 20
181.9169967196575
 10
362.8331932008499
 20
181.368214540704
 10
361.5892122848197
 20
180.8318131736506
 10
359.010579845957
 20
179.7988012923984
 10
356.3164936446449
 20
178.8230856554353
 10
353.5141022540151
 20
177.9092956098195
 10
350.6116954350793
 20
177.0618128863715
 10
347.6182950316393
 20
176.2847177700564
 10
344.5439133524491
 20
175.5814122926661
 10
341.3988856839645
 20
174.9549862742137
 10
338.1946885005208
 20
174.4081096637005
 10
334.942712149066
 20
173.9425157747924
 10
331.6549929319517
 20
173.5597118367642
 10
328.3436748107635
 20
173.2603115072491
 10
325.0209017470868
 20
173.0445947002555
 10
321.6985808521926
 20
172.9120123536904
 10
318.3884039188838
 20
172.8614986411379
  0
LWPOLYLINE
  5
7C
330
70
100
AcDbEntity
  8
Livello 1
 62
   250
420
  2300182
370
     9
100
AcDbPolyline
 90
       17
 70
     0
 43
0.0
 10
390.2415977350134
 20
248.8066261517198
 10
390.3399982748108
 20
248.4724949533441
 10
390.4309057319279
 20
248.1373948218632
 10
390.5141909152838
 20
247.8014118846643
 10
390.5898968885722
 20
247.4646107372875
 10
390.6579805880994
 20
247.1269052523459
 10
390.7182697590913
 20
246.7885968756944
 10
390.7708074652413
 20
246.449384161478
 10
390.8155937065496
 20
246.1096977466323
 10
390.8524992919353
 20
245.7694084400767
 10
390.8815672850921
 20
245.4284947099645
 10
390.9026684949393
 20
245.087107279223
 10
390.9159321125575
 20
244.7452892115459
 10
390.9210997557853
 20
244.4031051024734
 10
390.9183867430907
 20
244.0605980156993
 10
390.9075777560058
 20
243.7177894830701
 10
390.8888019856112
 20
243.37478716382
  0
LWPOLYLINE
  5
7D
330
70
100
AcDbEntity
  8
Livello 1
 62
   250
420
  2300182
370
     9
100
AcDbPolyline
 90
        9
 70
     0
 43
0.0
 10
372.1706077492968
 20
256.8259902312036
 10
372.2473903149243
 20
256.4895120615287
 10
372.3131916386926
 20
256.1520864905952
 10
372.367968656908
 20
255.8139073050244
 10
372.41159217849
 20
255.4748883774291
 10
372.4440191397449
 20
255.1353096218173
 10
372.4652064769792
 20
254.7950849108021
 10
372.4751111264993
 20
254.4544941583916
 10
372.4737330883052
 20
254.1134943008922
  0
LWPOLYLINE
  5
7E
330
70
100
AcDbEntity
  8
Livello 1
 62
   250
420
  2300182
370
     9
100
AcDbPolyline
 90
        9
 70
     0
 43
0.0
 10
264.442708775849
 20
256.5826157670175
 10
264.4051141713662
 20
256.3564883121045
 10
264.3727948693452
 20
256.1298871565622
 10
264.3454924876246
 20
255.9029845551649
 10
264.3234008128254
 20
255.6758020397595
 10
264.3064983131009
 20
255.4481888874184
 10
264.2948065202978
 20
255.220403480303
 10
264.2883039025694
 20
254.9922950954859
 10
264.2869904599157
 20
254.7641221151284
  0
LINE
  5
7F
330
70
100
AcDbEntity
  8
Livello 1
 62
   250
420
  2300182
370
     9
100
AcDbLine
 10
264.442708775849
 20
256.5826157670175
 30
0.0
 11
264.4570059221128
 21
254.1292986764308
 31
0.0
  0
LWPOLYLINE
  5
80
330
70
100
AcDbEntity
  8
Livello 1
 62
   250
420
  2300182
370
     9
100
AcDbPolyline
 90
        3
 70
     0
 43
0.0
 10
264.4570059221128
 20
254.1292986764308
 10
264.4093128814888
 20
253.8322883819087
 10
264.3701895158845
 20
253.5346967275235
  0
LINE
  5
81
330
70
100
AcDbEntity
  8
Livello 1
 62
   250
420
  2300182
370
     9
100
AcDbLine
 10
370.6698810922284
 20
254.3716180801246
 30
0.0
 11
370.707691015179
 21
256.8227173904927
 31
0.0
  0
LWPOLYLINE
  5
82
330
70
100
AcDbEntity
  8
Livello 1
 62
   250
420
  2300182
370
     9
100
AcDbPolyline
 90
        9
 70
     0
 43
0.0
 10
370.6698810922284
 20
254.3716180801246
 10
370.5980939150545
 20
254.6573026232389
 10
370.5179093176353
 20
254.9438915039181
 10
370.4292842362772
 20
255.2310832763073
 10
370.3320894798996
 20
255.5188779404063
 10
370.2261958574218
 20
255.8073185599088
 10
370.1116033688436
 20
256.0962113481938
 10
369.9882689504717
 20
256.3854917097209
 10
369.8561064749188
 20
256.6751165807965
  0
LINE
  5
83
330
70
100
AcDbEntity
  8
Livello 1
 62
   250
420
  2300182
370
     9
100
AcDbLine
 10
390.8888019856112
 20
243.37478716382
 30
0.0
 11
388.7068938237217
 21
210.5835070613407
 31
0.0
  0
LINE
  5
84
330
70
100
AcDbEntity
  8
Livello 1
 62
   250
420
  2300182
370
     9
100
AcDbLine
 10
246.228898050422
 20
211.3157836385773
 30
0.0
 11
244.3706135456782
 21
244.0458056369595
 31
0.0
  0
LWPOLYLINE
  5
85
330
70
100
AcDbEntity
  8
Livello 1
 62
   250
420
  2300182
370
     9
100
AcDbPolyline
 90
       17
 70
     0
 43
0.0
 10
388.7068938237217
 20
210.5835070613407
 10
388.6611171174615
 20
210.0250786150285
 10
388.5972967235972
 20
209.46301128661
 10
388.5151742599676
 20
208.8973912034723
 10
388.4144913444112
 20
208.3283906203897
 10
388.2946881489116
 20
207.7563971106043
 10
388.1555924186947
 20
207.1814106741161
 10
387.9967735168246
 20
206.6037112249333
 10
387.817886933753
 20
206.0234925496768
 10
387.6185881599313
 20
205.4410991578954
 10
387.3986188131981
 20
204.8566171769759
 10
387.157720511392
 20
204.2702834572332
 10
386.8954195538838
 20
203.6824855719092
 10
386.6115006222057
 20
203.0932881165444
 10
386.3058775889704
 20
202.5031863236147
 10
385.9780767535489
 20
201.9122878523539
 10
385.6279689248604
 20
201.3210018078512
  0
LWPOLYLINE
  5
86
330
70
100
AcDbEntity
  8
Livello 1
 62
   250
420
  2300182
370
     9
100
AcDbPolyline
 90
       17
 70
     0
 43
0.0
 10
244.3706135456782
 20
244.0458056369595
 10
244.3573929917536
 20
244.3247076483372
 10
244.349512335831
 20
244.6034158730939
 10
244.3469069823703
 20
244.8818872475361
 10
244.3495769313714
 20
245.1601002398168
 10
244.3575867783746
 20
245.4380117862425
 10
244.3707858004525
 20
245.7156218868133
 10
244.3893031886857
 20
245.9928013504484
 10
244.4130097519936
 20
246.2696793682286
 10
244.4419054903761
 20
246.5461913446135
 10
244.4759258082929
 20
246.8222080885223
 10
244.5152214286716
 20
247.0976865362616
 10
244.559490905657
 20
247.3727774107588
 10
244.6089926214107
 20
247.6473945846268
 10
244.6635973848519
 20
247.921387334938
 10
244.7232190685935
 20
248.1947987253862
 10
244.7879222681759
 20
248.4676072241244
  0
LINE
  5
87
330
70
100
AcDbEntity
  8
Livello 1
 62
   250
420
  2300182
370
     9
100
AcDbLine
 10
262.8197888882882
 20
253.4539092383944
 30
0.0
 11
262.8133078024065
 21
254.0352045059899
 31
0.0
  0
LWPOLYLINE
  5
88
330
70
100
AcDbEntity
  8
Livello 1
 62
   250
420
  2300182
370
     9
100
AcDbPolyline
 90
        9
 70
     0
 43
0.0
 10
262.8068913120652
 20
254.5958076688272
 10
262.8071927579202
 20
254.8449096042575
 10
262.8134154616404
 20
255.0937100938329
 10
262.8256886143066
 20
255.3422091375534
 10
262.843990684072
 20
255.590385203572
 10
262.8683001390898
 20
255.8382813555826
 10
262.89861697936
 20
256.0857899343509
 10
262.9348120138019
 20
256.3328032806434
 10
262.9769929016494
 20
256.579299862613
  0
LWPOLYLINE
  5
89
330
70
100
AcDbEntity
  8
Livello 1
 62
   250
420
  2300182
370
     9
100
AcDbPolyline
 90
        9
 70
     0
 43
0.0
 10
370.9898012717274
 20
254.2950938966584
 10
370.9896290169532
 20
254.6127101685517
 10
370.9793798578845
 20
254.9300034627432
 10
370.959010730828
 20
255.2469953110798
 10
370.9285646994771
 20
255.5634057995532
 10
370.8883001459932
 20
255.879277991857
 10
370.8378725608278
 20
256.1944826969106
 10
370.7777125809167
 20
256.5089983828671
 10
370.707691015179
 20
256.8227173904927
  0
LWPOLYLINE
  5
8A
330
70
100
AcDbEntity
  8
Livello 1
 62
   250
420
  2300182
370
     9
100
AcDbPolyline
 90
        5
 70
     0
 43
0.0
 10
370.8946305089474
 20
253.0642904708594
 10
370.8541075733021
 20
253.3921989655148
 10
370.8031201601205
 20
253.7195045684603
 10
370.7417113330958
 20
254.0459919612281
 10
370.6698810922284
 20
254.3716180801246
  0
LWPOLYLINE
  5
8B
330
70
100
AcDbEntity
  8
Livello 1
 62
   250
420
  2300182
370
     9
100
AcDbPolyline
 90
        9
 70
     0
 43
0.0
 10
370.707691015179
 20
256.8227173904927
 10
370.6419758187978
 20
257.0827790359355
 10
370.5691981766719
 20
257.3434866367817
 10
370.4893150251077
 20
257.6049047885719
 10
370.4021110456374
 20
257.8666889817573
 10
370.3076723656479
 20
258.1290114711123
 10
370.2059989851395
 20
258.3918076610965
 10
370.0969186493378
 20
258.6549052969357
 10
369.9803021671621
 20
258.9183905060169
  0
LWPOLYLINE
  5
8C
330
70
100
AcDbEntity
  8
Livello 1
 62
   250
420
  2300182
370
     9
100
AcDbPolyline
 90
        9
 70
     0
 43
0.0
 10
265.8708946411061
 20
252.9385875493413
 10
265.8293166449685
 20
252.6710112893713
 10
265.7946934353417
 20
252.4027890739978
 10
265.7673910536211
 20
252.1340931579951
 10
265.7473879679599
 20
251.8649881369035
 10
265.7345980509709
 20
251.5954955425699
 10
265.7290858981944
 20
251.3257015023813
 10
265.7308945733242
 20
251.0556060163377
 10
265.7399810126666
 20
250.7853167436731
  0
LWPOLYLINE
  5
8D
330
70
100
AcDbEntity
  8
Livello 1
 62
   250
420
  2300182
370
     9
100
AcDbPolyline
 90
        9
 70
     0
 43
0.0
 10
265.7399810126666
 20
250.7853167436731
 10
265.7521895697925
 20
250.5743907725886
 10
265.7689844102831
 20
250.3626035276329
 10
265.7903870659851
 20
250.1499980724994
 10
265.8163975368988
 20
249.9365959390349
 10
265.8471880777982
 20
249.7223971272396
 10
265.8826940931431
 20
249.5074016371132
 10
265.9230017103205
 20
249.2916094686559
 10
265.9681970567176
 20
249.0751928766418
  0
LWPOLYLINE
  5
8E
330
70
100
AcDbEntity
  8
Livello 1
 62
   250
420
  2300182
370
     9
100
AcDbPolyline
 90
        3
 70
     0
 43
0.0
 10
368.5121747261228
 20
270.3496910267051
 10
368.7473886203783
 20
269.3410101323175
 10
368.9624056423514
 20
268.3286042284365
  0
LWPOLYLINE
  5
8F
330
70
100
AcDbEntity
  8
Livello 1
 62
   250
420
  2300182
370
     9
100
AcDbPolyline
 90
       12
 70
     0
 43
0.0
 10
265.4393103041914
 20
257.1298045893091
 10
265.2647946860167
 20
256.7523082515129
 10
265.1053082968965
 20
256.3752210188055
 10
264.960808073137
 20
255.9985859548806
 10
264.8310786962706
 20
255.622704505593
 10
264.7160125070632
 20
255.2477058620236
 10
264.6639054378488
 20
255.060594113481
 10
264.6153941870471
 20
254.8736976834061
 10
264.5705002865049
 20
254.6872103584203
 10
264.5292237362223
 20
254.5009168200554
 10
264.491284622191
 20
254.3148816638518
 10
264.4570059221128
 20
254.1292986764308
  0
LWPOLYLINE
  5
90
330
70
100
AcDbEntity
  8
Livello 1
 62
   250
420
  2300182
370
     9
100
AcDbPolyline
 90
        9
 70
     0
 43
0.0
 10
265.3407805733133
 20
259.3783107532978
 10
265.1829090727017
 20
259.0264803768666
 10
265.0382150623212
 20
258.6751882966051
 10
264.9067846695589
 20
258.3243914488195
 10
264.788402575947
 20
257.9741759608971
 10
264.6828965267113
 20
257.6249078742331
 10
264.5902019263112
 20
257.2763934022065
 10
264.5102111155131
 20
256.9289124588255
 10
264.442708775849
 20
256.5826157670175
  0
LWPOLYLINE
  5
91
330
70
100
AcDbEntity
  8
Livello 1
 62
   250
420
  2300182
370
     9
100
AcDbPolyline
 90
        9
 70
     0
 43
0.0
 10
369.2491237141114
 20
248.6157893936837
 10
369.2963215222593
 20
248.831689221375
 10
369.3386100693407
 20
249.0467923707353
 10
369.3762046738235
 20
249.2613141602324
 10
369.4088900172398
 20
249.4749962077051
 10
369.4370106091382
 20
249.6879892360806
 10
369.4603941947443
 20
249.9001855861252
 10
369.4792130288325
 20
250.1116067896857
 10
369.4934240477091
 20
250.3221882512216
  0
LINE
  5
92
330
70
100
AcDbEntity
  8
Livello 1
 62
   250
420
  2300182
370
     9
100
AcDbLine
 10
265.3528814712052
 20
260.3290063842992
 30
0.0
 11
265.3763081205049
 21
260.3538110717931
 31
0.0
  0
LINE
  5
93
330
70
100
AcDbEntity
  8
Livello 1
 62
   250
420
  2300182
370
     9
100
AcDbLine
 10
372.4737330883052
 20
254.1134943008922
 30
0.0
 11
372.4497896746827
 21
252.9696149405554
 31
0.0
  0
LWPOLYLINE
  5
94
330
70
100
AcDbEntity
  8
Livello 1
 62
   250
420
  2300182
370
     9
100
AcDbPolyline
 90
        9
 70
     0
 43
0.0
 10
262.8197888882882
 20
253.4539092383944
 10
262.8271097161943
 20
253.1661145742953
 10
262.8425265184908
 20
252.8766834898407
 10
262.8661254225647
 20
252.5857882398049
 10
262.8981863424243
 20
252.2932996331072
 10
262.9386877462228
 20
251.9993899245219
 10
262.9878880161215
 20
251.7040806458956
 10
263.0458948113544
 20
251.4075009883092
 10
263.1128803866957
 20
251.1095863562222
  0
LWPOLYLINE
  5
95
330
70
100
AcDbEntity
  8
Livello 1
 62
   250
420
  2300182
370
     9
100
AcDbPolyline
 90
       17
 70
     0
 43
0.0
 10
389.3575001061112
 20
249.8561960231479
 10
389.4478046715183
 20
249.5481829549198
 10
389.5315204918098
 20
249.2393086128204
 10
389.6086906306795
 20
248.9295945286964
 10
389.6792720244335
 20
248.6192990847093
 10
389.7432216093784
 20
248.3082069623913
 10
389.8004963218207
 20
247.9964904165165
 10
389.8509669706796
 20
247.6841925107786
 10
389.8948058107294
 20
247.3713132451776
 10
389.9317113961152
 20
247.057895683407
 10
389.9618990453047
 20
246.7440044210071
 10
389.9851965035237
 20
246.4297040535185
 10
390.0016898981593
 20
246.1149945809409
 10
390.0112931018244
 20
245.7998975351212
 10
390.0138769234384
 20
245.4846067026805
 10
390.0095705540818
 20
245.1689928925381
 10
389.9984170574483
 20
244.8532068276213
  0
LINE
  5
96
330
70
100
AcDbEntity
  8
Livello 1
 62
   250
420
  2300182
370
     9
100
AcDbLine
 10
372.4550003816041
 20
255.8824862370276
 30
0.0
 11
372.4840253110674
 21
256.8267007821475
 31
0.0
  0
LWPOLYLINE
  5
97
330
70
100
AcDbEntity
  8
Livello 1
 62
   250
420
  2300182
370
     9
100
AcDbPolyline
 90
        9
 70
     0
 43
0.0
 10
262.6629078526286
 20
256.5785893116692
 10
262.6179062928525
 20
256.3163098860077
 10
262.5796011374259
 20
256.0534060367896
 10
262.5480139181955
 20
255.7900930824826
 10
262.5231015714677
 20
255.5262848956996
 10
262.5049071609363
 20
255.2620891356745
 10
262.4935814095285
 20
254.9975058024073
 10
262.4889951261638
 20
254.7326856188255
 10
262.4911913745356
 20
254.4676070530823
  0
LINE
  5
98
330
70
100
AcDbEntity
  8
Livello 1
 62
   250
420
  2300182
370
     9
100
AcDbLine
 10
262.6629078526286
 20
256.5785893116692
 30
0.0
 11
262.6829970656769
 21
255.6335996200651
 31
0.0
  0
LWPOLYLINE
  5
99
330
70
100
AcDbEntity
  8
Livello 1
 62
   250
420
  2300182
370
     9
100
AcDbPolyline
 90
        5
 70
     0
 43
0.0
 10
372.4550003816041
 20
255.8824862370276
 10
372.3947973379994
 20
256.1169895803392
 10
372.3291252053118
 20
256.3520096879736
 10
372.2578117287671
 20
256.5874173688501
 10
372.1808138446718
 20
256.8232126229687
  0
LINE
  5
9A
330
70
100
AcDbEntity
  8
Livello 1
 62
   250
420
  2300182
370
     9
100
AcDbLine
 10
245.309875766038
 20
244.445781222797
 30
0.0
 11
245.2901956580785
 21
244.9796848956236
 31
0.0
  0
LWPOLYLINE
  5
9B
330
70
100
AcDbEntity
  8
Livello 1
 62
   250
420
  2300182
370
     9
100
AcDbPolyline
 90
       12
 70
     0
 43
0.0
 10
245.2705801456593
 20
245.51231818949
 10
245.2634961680678
 20
245.7652097299541
 10
245.2608908146071
 20
246.0177998245633
 10
245.2627210215836
 20
246.2702176643982
 10
245.2689006616103
 20
246.5224847813056
 10
245.2796235213082
 20
246.7744073886645
 10
245.294609686669
 20
247.0261146775555
 10
245.3378886987024
 20
247.5284957266921
 10
245.39860850663
 20
248.0295848650217
 10
245.4767045149112
 20
248.5290806466894
 10
245.572004468772
 20
249.0268969443079
 10
245.6842930497443
 20
249.522689248329
  0
LWPOLYLINE
  5
9C
330
70
100
AcDbEntity
  8
Livello 1
 62
   250
420
  2300182
370
     9
100
AcDbPolyline
 90
        9
 70
     0
 43
0.0
 10
372.7893038347541
 20
253.9821930992106
 10
372.7942130958206
 20
254.3397940105796
 10
372.7865908220595
 20
254.6970934760935
 10
372.7666953956322
 20
255.0537900498976
 10
372.7344837528451
 20
255.4100129230724
 10
372.6901281484725
 20
255.7655037134566
 10
372.6334993914337
 20
256.1201978255099
 10
372.5648128001965
 20
256.4739875999983
 10
372.4840253110674
 20
256.8267007821475
  0
LINE
  5
9D
330
70
100
AcDbEntity
  8
Livello 1
 62
   250
420
  2300182
370
     9
100
AcDbLine
 10
372.7747052426353
 20
253.5101073584975
 30
0.0
 11
372.7598052046616
 21
253.0288059873613
 31
0.0
  0
LWPOLYLINE
  5
9E
330
70
100
AcDbEntity
  8
Livello 1
 62
   250
420
  2300182
370
     9
100
AcDbPolyline
 90
       29
 70
     0
 43
0.0
 10
259.9270929322513
 20
256.5723881397957
 10
259.988394100042
 20
256.8659964025262
 10
260.057791242223
 20
257.1595831334098
 10
260.135413549875
 20
257.4532990553741
 10
260.2209811089899
 20
257.7468857862577
 10
260.3149030246565
 20
258.0403002623671
 10
260.4168778510199
 20
258.3335855473958
 10
260.5269917154672
 20
258.626720109497
 10
260.6454168727727
 20
258.9194886302029
 10
260.7718949407749
 20
259.2119126413602
 10
260.906619706095
 20
259.5039060155819
 10
261.0494835094989
 20
259.7954041573276
 10
261.2005724783739
 20
260.0862994073634
 10
261.3598004853328
 20
260.3765917656893
 10
261.5271029348352
 20
260.6661951049181
 10
261.7025228905748
 20
260.9550878932031
 10
261.8859957570111
 20
261.2432055350039
 10
262.0775861296846
 20
261.530397307393
 10
262.2770786901274
 20
261.8165986148301
 10
262.4846887568072
 20
262.1018955847024
 10
262.7002010112564
 20
262.3860944303887
 10
262.9235939216281
 20
262.6691951518891
 10
263.1549105516158
 20
262.9511116218165
 10
263.3940217101389
 20
263.2316931172433
 10
263.6408843335038
 20
263.5110903610971
 10
264.1577132518317
 20
264.0656000112948
 10
264.7047944148894
 20
264.614317594708
 10
265.2816971857412
 20
265.1564894966992
 10
265.8879048000645
 20
265.6919003988006
  0
LWPOLYLINE
  5
9F
330
70
100
AcDbEntity
  8
Livello 1
 62
   250
420
  2300182
370
     9
100
AcDbPolyline
 90
        5
 70
     0
 43
0.0
 10
262.6829970656769
 20
255.6335996200651
 10
262.6316005474063
 20
255.3292039020965
 10
262.5891182137038
 20
255.0241191650309
 10
262.555593128263
 20
254.7182808133278
 10
262.5311975458581
 20
254.4120118246891
  0
LWPOLYLINE
  5
A0
330
70
100
AcDbEntity
  8
Livello 1
 62
   250
420
  2300182
370
     9
100
AcDbPolyline
 90
       17
 70
     0
 43
0.0
 10
372.4840253110674
 20
256.8267007821475
 10
372.4001802996951
 20
257.1465994297997
 10
372.3060000018671
 20
257.4673162876297
 10
372.2013121628091
 20
257.788894419331
 10
372.0860306551339
 20
258.111096974589
 10
371.9599832240673
 20
258.4339885489441
 10
371.82329906069
 20
258.7573753557751
 10
371.6756767191471
 20
259.0813004587757
 10
371.5170731357449
 20
259.4053978165506
 10
371.3474883104835
 20
259.7298181520272
 10
371.1668791796693
 20
260.0544107422781
 10
370.9751165522215
 20
260.379003332529
 10
370.7720712370596
 20
260.7034882635459
 10
370.5578293615706
 20
261.0278870671757
 10
370.3323047983675
 20
261.3519844249507
 10
370.095411420063
 20
261.6756942094834
 10
369.8471922903507
 20
261.9988872296934
  0
LWPOLYLINE
  5
A1
330
70
100
AcDbEntity
  8
Livello 1
 62
   250
420
  2300182
370
     9
100
AcDbPolyline
 90
       17
 70
     0
 43
0.0
 10
385.516175576364
 20
256.7256948888893
 10
385.9501284164248
 20
256.2360176293546
 10
386.365305486091
 20
255.7445962902305
 10
386.7618790401368
 20
255.2519045721462
 10
387.1398060148687
 20
254.7578994114082
 10
387.4990864102867
 20
254.2628822538714
 10
387.8398063537779
 20
253.7670899498503
 10
388.1620089090359
 20
253.2705870948855
 10
388.4656079486735
 20
252.7738043259124
 10
388.7509049185458
 20
252.2767201110845
 10
389.0178998186527
 20
251.7795067051758
 10
389.2665926489941
 20
251.2825947451221
 10
389.4972848554252
 20
250.7859842309233
 10
389.7098903105586
 20
250.2899120128941
 10
389.9047965876367
 20
249.7945072821152
 10
390.0819175592721
 20
249.3000068889012
 10
390.2415977350134
 20
248.8066261517198
  0
LWPOLYLINE
  5
A2
330
70
100
AcDbEntity
  8
Livello 1
 62
   250
420
  2300182
370
     9
100
AcDbPolyline
 90
      109
 70
     0
 43
0.0
 10
266.4409933483745
 20
268.7546764125748
 10
266.6700921981437
 20
269.7857073639229
 10
266.919990811905
 20
270.8119151815918
 10
267.1903877438036
 20
271.8329122923391
 10
267.48141218492
 20
272.84839725031
 10
267.792805753093
 20
273.8581116733432
 10
268.1245899801694
 20
274.8615818608093
 10
268.4767002706087
 20
275.8587001534746
 10
268.8490074333303
 20
276.8489928507096
 10
269.4176850387111
 20
278.2556899328775
 10
270.0259812421724
 20
279.64348205357
 10
270.673293152004
 20
281.0118093847709
 10
271.3593193223512
 20
282.359595334141
 10
272.0832846067296
 20
283.6862154781236
 10
272.8448875592845
 20
284.9908946702345
 10
273.6435037564589
 20
286.272707041062
 10
274.4787240931642
 20
287.5308989759688
 10
275.3497949547628
 20
288.7648029877046
 10
276.2563933635531
 20
289.9733855476238
 10
277.1980025552122
 20
291.1561083595569
 10
278.1741057654175
 20
292.3119809585518
 10
279.1839924432248
 20
293.4403143255114
 10
280.2274042064731
 20
294.540204122871
 10
281.3035874405248
 20
295.6109182678399
 10
282.4121976358314
 20
296.6517246776275
 10
283.4189837277021
 20
297.5463944433001
 10
284.4474093255895
 20
298.4140202094134
 10
285.4966992830095
 20
299.2540852116448
 10
286.5662937719457
 20
300.0663956633732
 10
287.6558052191559
 20
300.85060705505
 10
288.7644800100029
 20
301.6062026223524
 10
289.8918875075509
 20
302.3329885786594
 10
291.0374032882432
 20
303.0305988825757
 10
292.2004029285233
 20
303.6986890245528
 10
293.3804127277617
 20
304.3369144950421
 10
294.5767221350147
 20
304.9448231252612
 10
295.7887928541127
 20
305.5221995967423
 10
297.0162157799669
 20
306.0685917407029
 10
298.2583018934802
 20
306.5837842386752
 10
299.514405239249
 20
307.067411049264
 10
300.7840090529507
 20
307.5189984718399
 10
301.8243848258026
 20
307.8618931318562
 10
302.8713924074636
 20
308.1828899036943
 10
303.9247949476191
 20
308.4817950007333
 10
304.9841187456398
 20
308.7585868911264
 10
306.0491054193645
 20
309.0132871067202
 10
307.1194104592445
 20
309.24559420166
 10
308.1946032283441
 20
309.4555081759456
 10
309.2743822808086
 20
309.6428998384964
 10
310.3058008053988
 20
309.8002976384787
 10
311.339996938224
 20
309.9370033337028
 10
312.3764969786551
 20
310.0529953923218
 10
313.4149994808368
 20
310.1484030054165
 10
314.4553106581483
 20
310.2230108545189
 10
315.4971075328879
 20
310.2769050670163
 10
316.5399164044262
 20
310.3099995155215
 10
317.5835004224488
 20
310.3223157318812
 10
318.6954911177003
 20
310.3124972097483
 10
319.8065990072337
 20
310.2789936561543
 10
320.9165011133473
 20
310.221912730333
 10
322.024895990186
 20
310.1412974959782
 10
323.1312884052741
 20
310.0370833575494
 10
324.2353123172159
 20
309.9093779742805
 10
325.3366016846164
 20
309.7581813461716
 10
326.434898125314
 20
309.5836011324565
 10
327.3975008675864
 20
309.4108080620245
 10
328.3563786003654
 20
309.2199928358352
 10
329.3113806007234
 20
309.0113923042034
 10
330.2622915501927
 20
308.7850064671288
 10
331.2088100029183
 20
308.5407922609182
 10
332.1505053219646
 20
308.278986535886
 10
333.087420571025
 20
307.9995892920322
 10
334.0191035813173
 20
307.7025789975102
 10
335.3505899226728
 20
307.2445104890527
 10
336.6675207356031
 20
306.7513881340326
 10
337.9692931283983
 20
306.2235995056924
 10
339.2551965501146
 20
305.6617044320481
 10
340.5246065771952
 20
305.0657890404871
 10
341.7767911268497
 20
304.4366069456466
 10
343.0111903710614
 20
303.774308870454
 10
344.227179886274
 20
303.0792823881516
 10
345.423984526003
 20
302.3520011993686
 10
346.6010875259257
 20
301.5928959410406
 10
347.7577783350984
 20
300.8022895908693
 10
348.8934109981173
 20
299.9806989131776
 10
350.0073180277325
 20
299.1283822901268
 10
351.0988104048469
 20
298.2458134223461
 10
352.1672852377503
 20
297.3333152875373
 10
353.2120750391927
 20
296.3912969907893
 10
354.3133859384399
 20
295.3411026958045
 10
355.381989962424
 20
294.2611083248722
 10
356.417499537903
 20
293.1519813652428
 10
357.4193117731669
 20
292.0146907500215
 10
358.3869099038929
 20
290.8499039664586
 10
359.3197986976049
 20
289.658503820272
 10
360.2173967944401
 20
288.4412008624058
 10
361.079208961922
 20
287.1988994304246
 10
361.9046969038815
 20
285.9323962026597
 10
362.693494578923
 20
284.6424878574418
 10
363.4449129679496
 20
283.3300141367956
 10
364.1583922429448
 20
281.9955994642776
 10
364.8335878943602
 20
280.6402989003803
 10
365.4698970304859
 20
279.2647153368136
 10
366.0669320780796
 20
277.8697961748359
 10
366.6239178906574
 20
276.4562089016976
 10
367.1657022194065
 20
274.9516065122083
 10
367.6611930775726
 20
273.4316088522693
 10
368.1102182103813
 20
271.8972925142197
 10
368.5121747261228
 20
270.3496910267051
  0
LINE
  5
A3
330
70
100
AcDbEntity
  8
Livello 1
 62
   250
420
  2300182
370
     9
100
AcDbLine
 10
265.6197902439249
 20
263.6005982481732
 30
0.0
 11
265.6430015747568
 21
263.6227975822063
 31
0.0
  0
LWPOLYLINE
  5
A4
330
70
100
AcDbEntity
  8
Livello 1
 62
   250
420
  2300182
370
     9
100
AcDbPolyline
 90
        9
 70
     0
 43
0.0
 10
372.1332284632818
 20
250.6236987017213
 10
372.203206965326
 20
250.9214841427275
 10
372.2641851554148
 20
251.2182145232415
 10
372.3165075430971
 20
251.5135238018677
 10
372.3600018735984
 20
251.8075842333806
 10
372.3950126564673
 20
252.1002881585461
 10
372.4214968280101
 20
252.3916140455176
 10
372.4397127703883
 20
252.6813896395206
 10
372.4497896746827
 20
252.9696149405554
  0
LWPOLYLINE
  5
A5
330
70
100
AcDbEntity
  8
Livello 1
 62
   250
420
  2300182
370
     9
100
AcDbPolyline
 90
       20
 70
     0
 43
0.0
 10
249.8513944213154
 20
257.3244094205322
 10
250.2027080334237
 20
257.7328039584618
 10
250.5663163300451
 20
258.1388945887856
 10
250.9421977793326
 20
258.5425090567294
 10
251.3302231902057
 20
258.9435181712125
 10
251.7301987760431
 20
259.3419004003881
 10
252.1421030049983
 20
259.7375050213287
 10
253.0007930546969
 20
260.5199938652628
 10
253.9052167469621
 20
261.2901234291436
 10
254.8539960435999
 20
262.047204693874
 10
255.8457959701097
 20
262.7905271085103
 10
256.879195424604
 20
263.5192939947213
 10
257.9526010504207
 20
264.2328809289505
 10
259.0645056182851
 20
264.9307065513346
 10
260.2131865804545
 20
265.6122110338574
 10
261.3970075165735
 20
266.2769206758895
 10
262.6142028152058
 20
266.9240818627937
 10
263.8630068649153
 20
267.5536084671828
 10
265.1415033313384
 20
268.1649191291936
 10
266.4479050711919
 20
268.7577124029711
  0
LWPOLYLINE
  5
A6
330
70
100
AcDbEntity
  8
Livello 1
 62
   250
420
  2300182
370
     9
100
AcDbPolyline
 90
       17
 70
     0
 43
0.0
 10
385.516175576364
 20
256.7256948888893
 10
385.8554744179676
 20
256.3070942555847
 10
386.1818972151951
 20
255.8865772879164
 10
386.495271713272
 20
255.4641009221909
 10
386.7957271032794
 20
255.0398804768759
 10
387.0827896845879
 20
254.6141097385926
 10
387.3567178393587
 20
254.186681048107
 10
387.6172962491244
 20
253.7578958512741
 10
387.864481850191
 20
253.3278833391745
 10
388.0984038336395
 20
252.8966219799616
 10
388.3186746262276
 20
252.4643916876434
 10
388.5255956738104
 20
252.0311924622201
 10
388.7190808490008
 20
251.5973042176996
 10
388.8989148333308
 20
251.1627054222354
 10
389.0653129452685
 20
250.7275898624483
 10
389.2181890574264
 20
250.2919790701852
 10
389.3575001061112
 20
249.8561960231479
  0
LWPOLYLINE
  5
A7
330
70
100
AcDbEntity
  8
Livello 1
 62
   250
420
  2300182
370
     9
100
AcDbPolyline
 90
       20
 70
     0
 43
0.0
 10
368.9624056423514
 20
268.3286042284365
 10
370.2700777611651
 20
267.7225904007343
 10
371.5494139696127
 20
267.0982960351135
 10
372.7983041467093
 20
266.4560871729693
 10
374.0151118720995
 20
265.7962867920036
 10
375.1978992795729
 20
265.1194762520795
 10
376.3451160761612
 20
264.4262153812134
 10
377.4549105230408
 20
263.7168056252601
 10
378.5257753909371
 20
262.9920867262442
 10
379.5560311958011
 20
262.2527046395692
 10
380.5442137720515
 20
261.4992191932515
 10
381.4889881451876
 20
260.7322978745413
 10
382.3888040222414
 20
259.9529096165439
 10
383.2426278745669
 20
259.1617003746627
 10
383.651776027134
 20
258.7618970435995
 10
384.0490816639704
 20
258.3594883590755
 10
384.4342864029149
 20
257.9544958529376
 10
384.8073041165804
 20
257.5472209710407
 10
385.168005613886
 20
257.1374914586106
 10
385.516175576364
 20
256.7256948888893
  0
LWPOLYLINE
  5
A8
330
70
100
AcDbEntity
  8
Livello 1
 62
   250
420
  2300182
370
     9
100
AcDbPolyline
 90
        9
 70
     0
 43
0.0
 10
263.1637816724903
 20
257.4089003873079
 10
263.0862239603786
 20
257.1857873909444
 10
263.0136831685673
 20
256.9630189041295
 10
262.94620236075
 20
256.7404872676291
 10
262.8836954095395
 20
256.5183001406773
 10
262.8261192512423
 20
256.2965221188143
 10
262.7735169495518
 20
256.0751101383467
 10
262.7258239089279
 20
255.854193390355
 10
262.6829970656769
 20
255.6335996200651
  0
LWPOLYLINE
  5
A9
330
70
100
AcDbEntity
  8
Livello 1
 62
   250
420
  2300182
370
     9
100
AcDbPolyline
 90
       17
 70
     0
 43
0.0
 10
265.5017957235551
 20
262.4473094707923
 10
265.2168217313846
 20
262.0813972665652
 10
264.9464032676393
 20
261.7146883840071
 10
264.6906910552466
 20
261.3473120141988
 10
264.4494913075856
 20
260.9795050074548
 10
264.2228901520432
 20
260.6112027682348
 10
264.0106938019986
 20
260.2427928697809
 10
263.8130099166856
 20
259.8743183757866
 10
263.6294939865558
 20
259.5059084773327
 10
263.4601890753025
 20
259.1377138973466
 10
263.3050090555388
 20
258.7699068906027
 10
263.1637816724903
 20
258.4025951163347
 10
263.0365069261571
 20
258.0358862337766
 10
262.922904902531
 20
257.6700816887834
 10
262.8228033468377
 20
257.305203013202
 10
262.7361807272305
 20
256.9412932707256
 10
262.6629078526286
 20
256.5785893116692
  0
LWPOLYLINE
  5
AA
330
70
100
AcDbEntity
  8
Livello 1
 62
   250
420
  2300182
370
     9
100
AcDbPolyline
 90
       27
 70
     0
 43
0.0
 10
369.4913139267244
 20
265.2531890206008
 10
370.0470939558824
 20
264.7553081274418
 10
370.5778970427723
 20
264.2518935496597
 10
371.083421741539
 20
263.7433974560368
 10
371.5631082241665
 20
263.2300136331942
 10
372.0166981084933
 20
262.7120865906805
 10
372.4438899486642
 20
262.1901976883587
 10
372.6473659007618
 20
261.9277890716166
 10
372.8442961714374
 20
261.6645837765435
 10
373.0342931874489
 20
261.4004956757523
 10
373.2176153309577
 20
261.1356970240173
 10
373.3940903471897
 20
260.8701016939513
 10
373.5638043635318
 20
260.6037958129415
 10
373.7265851252098
 20
260.3369731676089
 10
373.8824756959175
 20
260.0695045668728
 10
374.0315191393481
 20
259.8014976699671
 10
374.1737154555017
 20
259.5329955405855
 10
374.3088923896042
 20
259.2641058379618
 10
374.4372221964298
 20
258.994914689483
 10
374.5585756848977
 20
258.7253144359155
 10
374.6729959187016
 20
258.4554127364929
 10
374.7804828978413
 20
258.1852095912154
 10
374.8811227497042
 20
257.9149203185508
 10
374.9747862832094
 20
257.6445018548055
 10
375.0616026894377
 20
257.373997263673
 10
375.1413997136148
 20
257.1033850133066
 10
375.2143926742086
 20
256.8329019540209
  0
LWPOLYLINE
  5
AB
330
70
100
AcDbEntity
  8
Livello 1
 62
   250
420
  2300182
370
     9
100
AcDbPolyline
 90
        9
 70
     0
 43
0.0
 10
372.7634656186147
 20
253.5099996992636
 10
372.7545944977402
 20
253.8081942453587
 10
372.7371967655397
 20
254.1061088774457
 10
372.711186294626
 20
254.4035067452099
 10
372.6768214671607
 20
254.700517039732
 10
372.6339300283693
 20
254.9969890380845
 10
372.5825981056391
 20
255.2929012084207
 10
372.5229118263571
 20
255.5881028278131
 10
372.4550003816041
 20
255.8824862370276
  0
LWPOLYLINE
  5
AC
330
70
100
AcDbEntity
  8
Livello 1
 62
   250
420
  2300182
370
     9
100
AcDbPolyline
 90
       17
 70
     0
 43
0.0
 10
369.8800929522349
 20
261.5416153995669
 10
370.0926984073683
 20
261.2463061209406
 10
370.2959159773045
 20
260.9507169283062
 10
370.4895734072691
 20
260.6549124172039
 10
370.6739721431171
 20
260.3590002468677
 10
370.8488968663807
 20
260.0630880765315
 10
371.0146059592212
 20
259.7672189698889
 10
371.1708841031708
 20
259.4713067995527
 10
371.3180758077781
 20
259.1757176069183
 10
371.4559657545753
 20
258.8803006690582
 10
371.5848984531107
 20
258.5852928362868
 10
371.7047016486103
 20
258.2906941086045
 10
371.8155906595418
 20
257.9965044860109
 10
371.917479358518
 20
257.7028962232804
 10
372.0105830640069
 20
257.4099123841067
 10
372.0949017760084
 20
257.1175960321833
 10
372.1706077492968
 20
256.8259902312036
  0
LINE
  5
AD
330
70
100
AcDbEntity
  8
Livello 1
 62
   250
420
  2300182
370
     9
100
AcDbLine
 10
389.9984170574483
 20
244.8532068276213
 30
0.0
 11
389.9487215550736
 21
243.7844090170162
 31
0.0
  0
LWPOLYLINE
  5
AE
330
70
100
AcDbEntity
  8
Livello 1
 62
   250
420
  2300182
370
     9
100
AcDbPolyline
 90
       30
 70
     0
 43
0.0
 10
385.6265908866663
 20
201.3237794160862
 10
385.3922813299758
 20
200.7376179511177
 10
385.1376887736158
 20
200.1516718046171
 10
384.8625117717314
 20
199.5662854861327
 10
384.5667072606292
 20
198.9816958459794
 10
384.250275240309
 20
198.3980966707781
 10
383.913301838158
 20
197.8158970656176
 10
383.5555717357083
 20
197.2353123489659
 10
383.1772141240408
 20
196.6564932437504
 10
382.7782290031553
 20
196.0799995779874
 10
382.3585733093583
 20
195.505917479064
 10
381.9185054248112
 20
194.934483797295
 10
381.4578961584333
 20
194.3660861059223
 10
380.977003892386
 20
193.8010904463414
 10
380.4759147540563
 20
193.239604477786
 10
379.9546718071381
 20
192.6818865824176
 10
379.413576497486
 20
192.1283889290187
 10
378.8528010798745
 20
191.5792837723634
 10
378.272388617997
 20
191.0348079627665
 10
377.6727266850957
 20
190.4951983505424
 10
377.0539875359448
 20
189.960885572627
 10
376.4163864890123
 20
189.4319988201008
 10
375.76031111754
 20
188.9087964751252
 10
375.0859767399959
 20
188.3914723243214
 10
374.3937278659285
 20
187.8804139409314
 10
373.6838228774992
 20
187.3757935797294
 10
372.9566924116436
 20
186.8777834954897
 10
371.4520038947672
 20
185.9027138139301
 10
369.8828059649295
 20
184.9569059121483
 10
368.2521992080672
 20
184.0419100831128
  0
LWPOLYLINE
  5
AF
330
70
100
AcDbEntity
  8
Livello 1
 62
   250
420
  2300182
370
     9
100
AcDbPolyline
 90
       17
 70
     0
 43
0.0
 10
249.2100898967361
 20
202.0348040605482
 10
248.8665923450099
 20
202.6289969043666
 10
248.5454879139378
 20
203.2223930698541
 10
248.2463029028907
 20
203.8148848977768
 10
247.9689081207877
 20
204.4061924741263
 10
247.713002121774
 20
204.9958851619672
 10
247.4784126510753
 20
205.583898365759
 10
247.2646875399091
 20
206.1697799167193
 10
247.0715253424205
 20
206.7534867511545
 10
246.8986892082949
 20
207.3346958913629
 10
246.745899223524
 20
207.9131058914896
 10
246.6126816874788
 20
208.4886952196877
 10
246.4988212816913
 20
209.0610763027152
 10
246.4038873692258
 20
209.6301845450317
 10
246.3275139086872
 20
210.1958046281694
 10
246.2692917949865
 20
210.7576997018136
 10
246.228898050422
 20
211.3157836385773
  0
LWPOLYLINE
  5
B0
330
70
100
AcDbEntity
  8
Livello 1
 62
   250
420
  2300182
370
     9
100
AcDbPolyline
 90
       87
 70
     0
 43
0.0
 10
385.6279689248604
 20
201.3210018078512
 10
385.2266153008288
 20
200.6851879042015
 10
384.798906696335
 20
200.0495893190197
 10
384.3446277929112
 20
199.4144859663139
 10
383.8636924631704
 20
198.780286951173
 10
383.3558853886446
 20
198.1475090379197
 10
382.8212065693337
 20
197.5163890768687
 10
382.2593114956895
 20
196.8875084278831
 10
381.6702001677118
 20
196.2609962820437
 10
381.0539156490942
 20
195.6376062539877
 10
380.4102856850624
 20
195.0174890666428
 10
379.7394825303907
 20
194.4011830161783
 10
379.0414631213855
 20
193.7892048669173
 10
378.3163997128211
 20
193.181813001021
 10
377.5642923046975
 20
192.5795887783525
 10
376.7853992791761
 20
191.9827905810733
 10
375.9798928910311
 20
191.3921074282805
 10
375.1480315224239
 20
190.8076900429014
 10
374.2899013007418
 20
190.2302059121864
 10
373.4060189903074
 20
189.65989188645
 10
372.4965999095886
 20
189.0972862618619
 10
371.5621177592145
 20
188.542798143511
 10
370.6027878576531
 20
187.9967935727925
 10
368.6119963678079
 20
186.9320006856888
 10
366.5280150450868
 20
185.9058143998668
 10
364.3554947683946
 20
184.9214860241906
 10
362.0993017351045
 20
183.9815778484273
 10
359.7649050342992
 20
183.0888028852716
 10
357.3583120512312
 20
182.245486574176
 10
354.8855947666931
 20
181.4537820998188
 10
352.353492648728
 20
180.7153904780959
 10
349.7685729106048
 20
180.0319911930562
 10
347.1381994439229
 20
179.404714666656
 10
344.4691978441127
 20
178.8345944275407
 10
341.7689965983143
 20
178.3222871970372
 10
339.0448088751997
 20
177.8680190595369
 10
336.3038047797478
 20
177.4719838016606
 10
333.5530036940097
 20
177.1338153820132
 10
330.7995111274238
 20
176.8531046955057
 10
328.0497866340249
 20
176.6289904682668
 10
325.3106127455495
 20
176.4605037671913
 10
322.587910719863
 20
176.3464818725529
 10
319.8877094740645
 20
176.2853098958429
 10
317.2153058424627
 20
176.2755021396334
 10
314.5440003350468
 20
176.3158958841979
 10
311.8457800191523
 20
176.4080091247348
 10
309.1262862386364
 20
176.5531122402042
 10
306.3912034010498
 20
176.7528093531914
 10
303.6466896145723
 20
177.008080162725
 10
300.8993982198598
 20
177.3200120270676
 10
298.156004089415
 20
177.6891970720057
 10
295.4233112868213
 20
178.1159798070877
 10
292.7084037896701
 20
178.6007047418624
 10
290.0186024258677
 20
179.1429843030875
 10
287.3608835137718
 20
179.7424955130613
 10
284.7426109449819
 20
180.3985924163804
 10
282.1708902289365
 20
181.1101122933184
 10
279.6525900247591
 20
181.8757201693748
 10
277.1945143960334
 20
182.6938011560409
 10
274.8031013649472
 20
183.5624819826467
 10
272.4845951670677
 20
184.4796094645138
 10
270.2447017417922
 20
185.4426859074154
 10
268.0889978374374
 20
186.4491920852779
 10
266.0221128010618
 20
187.4961996669389
 10
264.0486975115703
 20
188.5807157256955
 10
263.0982171990366
 20
189.1359789905306
 10
262.1724123829161
 20
189.6995104845304
 10
261.2719074867654
 20
190.270793443372
 10
260.3968101698184
 20
190.8493972301197
 10
259.547615664551
 20
191.4349988670718
 10
258.7244962257377
 20
192.0269954625184
 10
257.927688703693
 20
192.6251071024513
 10
257.1576022035058
 20
193.228903149935
 10
256.4143013207163
 20
193.8378022451061
 10
255.6978937145586
 20
194.4516106013437
 10
255.0085947035005
 20
195.0695961358572
 10
254.3463827556951
 20
195.6915865938722
 10
253.7113870622232
 20
196.3170867429129
 10
253.1034784320041
 20
196.9456013505032
 10
252.5228075879652
 20
197.5766782478606
 10
251.9692022753324
 20
198.2101021165173
 10
251.4427055577991
 20
198.8453131284571
 10
250.9429944576635
 20
199.4820098378248
 10
250.4701120386195
 20
200.1196108847574
 10
250.0237999185054
 20
200.7579009507871
 10
249.603885842547
 20
201.3963848034378
 10
249.2100898967361
 20
202.0348040605482
  0
LWPOLYLINE
  5
B1
330
70
100
AcDbEntity
  8
Livello 1
 62
   250
420
  2300182
370
     9
100
AcDbPolyline
 90
       21
 70
     0
 43
0.0
 10
318.3995143518238
 20
173.0064940973734
 10
314.7802908216413
 20
173.0436042353035
 10
311.1409996102573
 20
173.1779091296113
 10
307.4967130104197
 20
173.4108083503376
 10
303.8628047607314
 20
173.74308780989
 10
300.2549931093438
 20
174.1743922327964
 10
296.6889963044085
 20
174.7039141748027
 10
293.1802096163751
 20
175.3295004512305
 10
289.7434038921367
 20
176.0484918790022
 10
286.3931777238119
 20
176.857486426326
 10
283.142794729019
 20
177.7523069149261
 10
280.0048079744324
 20
178.7279148926552
 10
276.9902202337581
 20
179.778905865971
 10
275.5323850154811
 20
180.3307886308613
 10
274.1091084112905
 20
180.899186322234
 10
272.721208631364
 20
181.4834960483791
 10
271.3697837998876
 20
182.0826842806512
 10
270.0556951907326
 20
182.6958897451789
 10
268.7794811000686
 20
183.3224880184055
 10
267.5420028017668
 20
183.9615101672258
 10
266.343690932763
 20
184.6119872585345
  0
LWPOLYLINE
  5
B2
330
70
100
AcDbEntity
  8
Livello 1
 62
   250
420
  2300182
370
     9
100
AcDbPolyline
 90
       21
 70
     0
 43
0.0
 10
368.2521992080672
 20
184.0419100831128
 10
367.0913312206187
 20
183.4282955134962
 10
365.8945050490429
 20
182.8259851634406
 10
364.662194393969
 20
182.2356249883495
 10
363.3951744018812
 20
181.6580116665538
 10
362.0940049007959
 20
181.0938126853038
 10
360.7594179735037
 20
180.5438031910837
 10
359.3922964257227
 20
180.0087045007606
 10
357.9935876587112
 20
179.4890979741978
 10
355.1053057312649
 20
178.4995911893703
 10
352.1034002483457
 20
177.5802889909782
 10
348.9977973913204
 20
176.7360898741645
 10
345.7993061472742
 20
175.9710956557414
 10
342.5199197548648
 20
175.2889990474321
 10
339.171975962299
 20
174.6929114010967
 10
335.7686953235014
 20
174.185190453958
 10
332.3236213700984
 20
173.7675049241417
 10
328.8504052929502
 20
173.4408991062166
 10
325.3628920695382
 20
173.205599084574
 10
321.8747974862631
 20
173.0612065200485
 10
318.3995143518238
 20
173.0064940973734
  0
LWPOLYLINE
  5
B3
330
70
100
AcDbEntity
  8
Livello 1
 62
   250
420
  2300182
370
     9
100
AcDbPolyline
 90
       20
 70
     0
 43
0.0
 10
244.7879222681759
 20
248.4676072241244
 10
244.8586113211638
 20
248.7434947769526
 10
244.9345972084604
 20
249.0197053074825
 10
245.0162029077672
 20
249.2963034112545
 10
245.1031915687698
 20
249.5732029608814
 10
245.1956923825488
 20
249.8504254882101
 10
245.2937914764913
 20
250.1277987384663
 10
245.5066983774797
 20
250.6833849810032
 10
245.7419983991222
 20
251.23957411525
 10
245.9999929872739
 20
251.7960862271986
 10
246.2807898011686
 20
252.3529213168488
 10
246.584604159274
 20
252.9094980243378
 10
246.9113929978967
 20
253.4656225630442
 10
247.2614792947385
 20
254.0211011463472
 10
247.6347984542588
 20
254.575696923932
 10
248.0313935401515
 20
255.1290007907099
 10
248.4514152753437
 20
255.6807113008259
 10
248.8948205961422
 20
256.2306777313525
 10
249.3615018433128
 20
256.7785125090476
 10
249.8516097397832
 20
257.3240218472901
  0
LWPOLYLINE
  5
B4
330
70
100
AcDbEntity
  8
Livello 1
 62
   250
420
  2300182
370
     9
100
AcDbPolyline
 90
       17
 70
     0
 43
0.0
 10
262.9769929016494
 20
256.579299862613
 10
263.0447966871685
 20
256.9187063634505
 10
263.1243137973374
 20
257.258995670006
 10
263.2156949550837
 20
257.6004046325943
 10
263.3188970967136
 20
257.9425026142796
 10
263.4342001362356
 20
258.2853972742959
 10
263.5616902010367
 20
258.628894826022
 10
263.7014964821974
 20
258.9728876102242
 10
263.853618979718
 20
259.3173110313621
 10
264.0181868846791
 20
259.6620143665081
 10
264.1953939837016
 20
260.0067822971945
 10
264.385111085705
 20
260.3517009508084
 10
264.5875965728505
 20
260.6964904133415
 10
264.8027858495979
 20
261.0409784300197
 10
265.030894234415
 20
261.3851865326897
 10
265.2718140680679
 20
261.7288994028838
 10
265.525502286863
 20
262.0720739769082
  0
LWPOLYLINE
  5
B5
330
70
100
AcDbEntity
  8
Livello 1
 62
   250
420
  2300182
370
     9
100
AcDbPolyline
 90
      129
 70
     0
 43
0.0
 10
390.8888019856112
 20
243.37478716382
 10
390.8624039414554
 20
243.0360912139263
 10
390.8279099229094
 20
242.6960172258386
 10
390.785319929973
 20
242.3543068173954
 10
390.7344186441784
 20
242.0113044981452
 10
390.6752060655257
 20
241.6667734177734
 10
390.6075960666277
 20
241.3209934902883
 10
390.531330265323
 20
240.9739001201493
 10
390.4464086616115
 20
240.6256009665906
 10
390.3527020644127
 20
240.276096029612
 10
390.2499951552587
 20
239.9255145002943
 10
390.1383740615366
 20
239.573899442331
 10
390.0177095921657
 20
239.2211862601817
 10
389.8878294923718
 20
238.8674826130805
 10
389.7486045710742
 20
238.5129822876483
 10
389.6000348282727
 20
238.1577068157318
 10
389.4419910728869
 20
237.8016131336377
 10
389.2743010501424
 20
237.4449165598337
 10
389.0970078237327
 20
237.0875094350858
 10
388.9099822025772
 20
236.7295209504748
 10
388.7130949955952
 20
236.3711018289281
 10
388.5063892664802
 20
236.0122951341393
 10
388.2896066330708
 20
235.6530793342617
 10
388.0628762864478
 20
235.2937128114565
 10
387.8258967807562
 20
234.93408790649
 10
387.5787973070767
 20
234.5742907467492
 10
387.3214917380221
 20
234.2146012462424
 10
387.0538078188181
 20
233.8549117457355
 10
386.7757886131585
 20
233.495286840769
 10
386.4873910573495
 20
233.136006445351
 10
386.1885290240041
 20
232.7768983047072
 10
385.5591962062361
 20
232.0600169979203
 10
384.8874887139995
 20
231.3453104076585
 10
384.1733204199072
 20
230.6335967440994
 10
383.4163898781043
 20
229.925392771566
 10
382.6166970885907
 20
229.221602827623
 10
381.7741989876728
 20
228.522872867674
 10
380.8890247664314
 20
227.8299995700499
 10
379.9613036159472
 20
227.1436934856946
 10
378.9912939183815
 20
226.4646005700114
 10
377.9794263106701
 20
225.7936897561058
 10
376.9257869202
 20
225.1314993401472
 10
375.8313231482297
 20
224.478890596007
 10
374.6962072495334
 20
223.836574074629
 10
373.5213866253697
 20
223.2052818588037
 10
372.307593358529
 20
222.5857029676283
 10
371.0556025954957
 20
221.978612547587
 10
369.7662756101409
 20
221.3845919585427
 10
368.4407751221911
 20
220.804308687746
 10
367.0802207876787
 20
220.2384948179873
 10
364.2583000120171
 20
219.1526007210365
 10
361.310805505918
 20
218.1313882918213
 10
358.2488046386279
 20
217.1792069633919
 10
355.0845920946599
 20
216.2994802993865
 10
351.8311085139302
 20
215.4953950131292
 10
348.5015098548235
 20
214.769319607766
 10
345.1097918177482
 20
214.1229981628864
 10
341.6701008260408
 20
213.5575933982165
 10
338.1963033890295
 20
213.0736220780792
 10
334.7022875478891
 20
212.6708904158536
 10
331.2017044934799
 20
212.3486878605956
 10
327.7075809931057
 20
212.1058086288854
 10
324.2325131771341
 20
211.9403148545127
 10
320.7882143702153
 20
211.8500102891057
 10
317.3853859002001
 20
211.8320096651952
 10
313.9835048314434
 20
211.8847842216599
 10
310.5413161455092
 20
212.0104225476376
 10
307.0699733390311
 20
212.2114008055083
 10
303.5812973958929
 20
212.4900229028779
 10
300.0876906598414
 20
212.8476884097872
 10
296.6022875574141
 20
213.2858184281239
 10
293.1386100883907
 20
213.8047144037428
 10
289.7105032302525
 20
214.4046131869588
 10
286.3320057471019
 20
215.0845889083599
 10
283.0170056801138
 20
215.8434788482201
 10
279.779304943076
 20
216.6793882040225
 10
276.6321025580664
 20
217.5896900904593
 10
273.5881884420739
 20
218.571197794207
 10
270.6596850248372
 20
219.6201217102317
 10
267.8575950800625
 20
220.7323061921043
 10
266.5070961179978
 20
221.3105870011502
 10
265.1919093846569
 20
221.9029065742986
 10
263.9129822812982
 20
222.5085758924523
 10
262.6714990594949
 20
223.1269059365143
 10
261.4681918020375
 20
223.7572076873875
 10
260.3040079101845
 20
224.3988136578217
 10
259.1797009985731
 20
225.0509056376392
 10
258.0957878315264
 20
225.7129022669767
 10
257.0528928326009
 20
226.3838776764227
 10
256.0516188935066
 20
227.0632935698075
 10
255.0922028645581
 20
227.7502025458728
 10
254.1750753826911
 20
228.4440017129085
 10
253.3004087026797
 20
229.1439159244306
 10
252.4683104837579
 20
229.8491915658016
 10
251.6789960443936
 20
230.5591180860777
 10
250.9323146616593
 20
231.272791147694
 10
250.2282017400146
 20
231.9898016455616
 10
249.5663988972981
 20
232.7091806465753
 10
248.9469061335098
 20
233.4303037271785
 10
248.6528026383034
 20
233.791414329573
 10
248.369206684327
 20
234.1526110593547
 10
248.0959029531128
 20
234.5138939165234
 10
247.8329775720478
 20
234.8753274966197
 10
247.5803013500515
 20
235.2365888219417
 10
247.3377881597367
 20
235.5976994243363
 10
247.105481064797
 20
235.9587023674968
 10
246.883207810458
 20
236.3194038648025
 10
246.6710114604134
 20
236.6796962570193
 10
246.4686982280421
 20
237.039601075994
 10
246.2762035178038
 20
237.3989891306459
 10
246.0935057978516
 20
237.7577958254347
 10
245.9204974089518
 20
238.1158919692796
 10
245.757092223717
 20
238.4734067532614
 10
245.6031825829135
 20
238.8299956678316
 10
245.458682359154
 20
239.1858094359176
 10
245.3236130842854
 20
239.5406973345918
 10
245.1976948442995
 20
239.894702427548
 10
245.0809061073496
 20
240.2475878644716
 10
244.9731822778952
 20
240.5993751772091
 10
244.8744802922428
 20
240.9501074294543
 10
244.7846063637713
 20
241.2996123664329
 10
244.7033882377065
 20
241.6478038607578
 10
244.6307828503549
 20
241.9946819124289
 10
244.5667902017164
 20
242.3402034577526
 10
244.5111949733232
 20
242.6843039011887
 10
244.4638895059413
 20
243.0269832427372
 10
244.4247015447966
 20
243.3681984187044
 10
244.3936741535826
 20
243.7078202380097
 10
244.3706135456782
 20
244.0458056369595
  0
LWPOLYLINE
  5
B6
330
70
100
AcDbEntity
  8
Livello 1
 62
   250
420
  2300182
370
     9
100
AcDbPolyline
 90
      131
 70
     0
 43
0.0
 10
372.4737330883052
 20
254.1134943008922
 10
372.4653787317535
 20
253.8630143272678
 10
372.4507801396347
 20
253.6111993791428
 10
372.4300234393361
 20
253.3583939660658
 10
372.4028071850026
 20
253.1044043014158
 10
372.3691313766343
 20
252.8493165125798
 10
372.3287806957633
 20
252.5933028543322
 10
372.2817982060832
 20
252.3361910718986
 10
372.2282269712876
 20
252.0782180155937
 10
372.1675932907472
 20
251.8192975580304
 10
372.100198610317
 20
251.5594727629022
 10
372.0257845478356
 20
251.2988943531367
 10
371.9443080396094
 20
251.0375838605805
 10
371.8556829582514
 20
250.7754982215401
 10
371.7597801126808
 20
250.5126804997091
 10
371.6567286939782
 20
250.2493029498618
 10
371.5461841925953
 20
249.9852794446109
 10
371.4281896722254
 20
249.7208037705776
 10
371.3027020691752
 20
249.4557898003748
 10
371.1697213834445
 20
249.1904097887766
 10
371.0289892328721
 20
248.9245776083961
 10
370.880591744845
 20
248.658487045854
 10
370.7244858556696
 20
248.3920950374571
 10
370.5605854379588
 20
248.1255092424391
 10
370.3886751732448
 20
247.8588157881872
 10
370.2089703799955
 20
247.5919931428546
 10
370.0212988034365
 20
247.3251920293688
 10
369.8255743161808
 20
247.058390915883
 10
369.6218830456154
 20
246.7916974616311
 10
369.4100096732725
 20
246.5251977940003
 10
369.1900833902329
 20
246.2588919129904
 10
368.9619319417222
 20
245.9928013504484
 10
368.7255983914341
 20
245.7271844885357
 10
368.2283849855254
 20
245.1971996118235
 10
367.6980986629583
 20
244.6694109834833
 10
367.1346963600393
 20
244.1444214952248
 10
366.5381780767682
 20
243.6226833158305
 10
365.9085868768388
 20
243.104820868857
 10
365.2460088876381
 20
242.5914155141677
 10
364.5504871728598
 20
242.0829840160852
 10
363.8222801146651
 20
241.5801077344726
 10
363.0618183499898
 20
241.0833895610399
 10
362.2693171973016
 20
240.5933893238035
 10
361.4452072935363
 20
240.1106022552393
 10
360.5901130622505
 20
239.6355881833637
 10
359.7044005448395
 20
239.169014595427
 10
358.788909483328
 20
238.7112044691308
 10
357.8441997057321
 20
238.2628037598788
 10
356.8709817629958
 20
237.8243938275339
 10
355.8702891837647
 20
237.3962976497981
 10
354.8427894552889
 20
236.9790965865343
 10
352.711588792573
 20
236.1791023511657
 10
350.4854972810853
 20
235.427705493986
 10
348.173601360168
 20
234.7278989416978
 10
345.7853965742525
 20
234.0824172388427
 10
343.3311966779476
 20
233.4930905923971
 10
340.8214015532495
 20
232.9617061456441
 10
338.2666909961625
 20
232.4895127456971
 10
335.6781108440861
 20
232.0768979657981
 10
333.0663839567183
 20
231.7243139747295
 10
330.4421040026759
 20
231.4312870718623
 10
327.815606268415
 20
231.1971928336395
 10
325.1966877442217
 20
231.0209116040287
 10
322.5948224426803
 20
230.9008930900612
 10
320.0185800388104
 20
230.8353070847608
 10
317.4762933573171
 20
230.822000403449
 10
314.9345019082998
 20
230.859681135319
 10
312.3597021381645
 20
230.949985700726
 10
309.7603129990031
 20
231.0949811569615
 10
307.1448180384482
 20
231.2963254562276
 10
304.5227128009309
 20
231.5553966367184
 10
301.9039019359715
 20
231.8733789500069
 10
299.2987207300256
 20
232.2506815011821
 10
296.7176121287828
 20
232.6876057360989
 10
294.171406651175
 20
233.1838932725959
 10
291.6709778798275
 20
233.7385967094148
 10
289.2270056107445
 20
234.3505963905226
 10
286.8498897259221
 20
235.0180190452494
 10
284.5498147888886
 20
235.7388191481508
 10
282.3362117485349
 20
236.510197559145
 10
280.217994789429
 20
237.3292044152228
 10
279.1972991245367
 20
237.7554919178289
 10
278.2033029496549
 20
238.1923084935118
 10
277.2370182615827
 20
238.6392019734891
 10
276.2991986749573
 20
239.0958063163654
 10
275.3907054636502
 20
239.5614109711969
 10
274.5120769238308
 20
240.0354991736608
 10
273.6641097338301
 20
240.5177048823619
 10
272.8471268713499
 20
241.0074036737434
 10
272.0617958236403
 20
241.5039065287082
 10
271.3083965047098
 20
242.0068904695547
 10
270.5874026151874
 20
242.5156018816454
 10
269.8990940690812
 20
243.0295024688108
 10
269.2434923982382
 20
243.5482261896555
 10
268.6210067077471
 20
244.0708902384614
 10
268.0314862746805
 20
244.5971070419866
 10
267.4750818219659
 20
245.1264028996017
 10
266.9517072222161
 20
245.6580026648225
 10
266.4612117525036
 20
246.1916264236409
 10
266.228301765854
 20
246.4589227696027
 10
266.0035092854414
 20
246.7264990295727
 10
265.7868989068063
 20
246.9942906080106
 10
265.5782983751744
 20
247.2622975049162
 10
265.3779014771668
 20
247.5303044018219
 10
265.1853852350817
 20
247.7984189579614
 10
265.0009864992337
 20
248.0663827911735
 10
264.8243822919211
 20
248.3343896880792
 10
264.6557879316116
 20
248.6021166709766
 10
264.4949880998376
 20
248.8696929309467
 10
264.3420043284457
 20
249.1368816176746
 10
264.1966858945086
 20
249.4038980496282
 10
264.0590973935664
 20
249.670397717259
 10
263.9290019753046
 20
249.9365959390349
 10
263.8065934263444
 20
250.2022128009477
 10
263.6916133645241
 20
250.4672913666909
 10
263.5839756624569
 20
250.731680913337
 10
263.4836803201425
 20
250.995596759354
 10
263.3907058057344
 20
251.2586943951931
 10
263.3049013963049
 20
251.5211030119353
 10
263.2263101555476
 20
251.7826934184997
 10
263.1545875739141
 20
252.0433794874992
 10
263.0898843743317
 20
252.3033119418613
 10
263.0320928975667
 20
252.562189335731
 10
262.9810839525382
 20
252.8202054557294
 10
262.9368144755527
 20
253.077209578929
 10
262.899112211836
 20
253.3331155779428
 10
262.8679125658477
 20
253.5879880483109
 10
262.843194005741
 20
253.8416977989528
 10
262.8249134678224
 20
254.094287893562
 10
262.8128125699305
 20
254.345693736598
 10
262.8068913120652
 20
254.5958076688272
  0
LWPOLYLINE
  5
B7
330
70
100
AcDbEntity
  8
Livello 1
 62
   250
420
  2300182
370
     9
100
AcDbPolyline
 90
      133
 70
     0
 43
0.0
 10
264.2869904599157
 20
254.7641221151284
 10
264.2914044885062
 20
254.5202093547727
 10
264.3018904978894
 20
254.2750908109972
 10
264.3185130836057
 20
254.0288956748825
 10
264.3412937775019
 20
253.7814947553481
 10
264.3704048343523
 20
253.5329957116276
 10
264.4058893178504
 20
253.2835062029552
 10
264.4477902916897
 20
253.03289703825
 10
264.4963015424914
 20
252.7814050678268
 10
264.5514015384086
 20
252.5289226324515
 10
264.6132840660624
 20
252.2755143276647
 10
264.6819060617592
 20
252.0212016853129
 10
264.7573967165798
 20
251.7661138964769
 10
264.8399067534515
 20
251.5102078974632
 10
264.9294146405276
 20
251.2535913475056
 10
265.0258988459614
 20
250.9963073102978
 10
265.1297254111481
 20
250.7383988495333
 10
265.2407005494668
 20
250.4799090289056
 10
265.3589965156915
 20
250.2209024439552
 10
265.4846133098224
 20
249.9612929672948
 10
265.6177231866338
 20
249.7014035766263
 10
265.7581969550449
 20
249.4410189534818
 10
265.906400656451
 20
249.1803759481758
 10
266.0620974405375
 20
248.9194099651682
 10
266.225524157619
 20
248.6583147910798
 10
266.3965085529213
 20
248.3968966392897
 10
266.5753951359929
 20
248.1355000193464
 10
266.7619901202127
 20
247.8740818675563
 10
266.9565088240486
 20
247.6125991202258
 10
267.1587789927264
 20
247.3513101595163
 10
267.3691236039477
 20
247.0901073261941
 10
267.5873058073979
 20
246.829076747646
 10
267.8134978578513
 20
246.5683045512594
 10
268.0477212871547
 20
246.3078983962681
 10
268.289889967921
 20
246.0479013463657
 10
268.7984937207778
 20
245.5293068166017
 10
269.3393091164217
 20
245.0131023218305
 10
269.912400750393
 20
244.4998046263751
 10
270.5177901545385
 20
243.9899950900984
 10
271.1554127333179
 20
243.4840828180895
 10
271.8250747001101
 20
242.9827783612921
 10
272.5266899275281
 20
242.4867061432629
 10
273.2598923741763
 20
241.9961030143165
 10
274.0242944668129
 20
241.5118087164775
 10
274.8195086321957
 20
241.0342969503751
 10
275.6451042333891
 20
240.5639983529449
 10
276.5004783786831
 20
240.1016234751308
 10
277.3851143037548
 20
239.6474737627878
 10
278.2983014576607
 20
239.2023889579403
 10
279.2393077576099
 20
238.7666059109029
 10
280.207293461578
 20
238.3405767904583
 10
281.2013972956936
 20
237.92501214755
 10
283.2645142588822
 20
237.1265036096094
 10
285.4204980772451
 20
236.3745253925666
 10
287.6607790757628
 20
235.6718981683498
 10
289.9760985603185
 20
235.0213995451943
 10
292.3565088176986
 20
234.4249889211572
 10
294.7916960932943
 20
233.8844965032151
 10
297.2713035688029
 20
233.4009773518602
 10
299.7848021711476
 20
232.975400400198
 10
302.3215982317113
 20
232.6079163711558
 10
304.8713995277318
 20
232.2983099462657
 10
307.4241076230681
 20
232.0459997656648
 10
309.9702054414419
 20
231.8501030236347
 10
312.5003912250433
 20
231.7090048316669
 10
315.0062890854737
 20
231.6210903012527
 10
317.4799968349638
 20
231.5845076935687
 10
319.954092157696
 20
231.5975129290256
 10
322.4612819289333
 20
231.6612902591962
 10
324.993922343068
 20
231.7782081872269
 10
327.5431853429189
 20
231.949903133473
 10
330.1001998076117
 20
232.1777961998223
 10
332.6552979379408
 20
232.4632008289285
 10
335.1984028296119
 20
232.8066983806547
 10
337.7191146006288
 20
233.2085903008559
 10
340.2069041779149
 20
233.6688119939917
 10
342.6511132973125
 20
234.1865883135779
 10
345.041406672366
 20
234.7609072628159
 10
347.367298293692
 20
235.3900893576564
 10
349.6190127028514
 20
236.0722828592762
 10
351.7870974191062
 20
236.8047962868275
 10
353.8627028534289
 20
237.5847874365348
 10
354.8631801141922
 20
237.9916101496492
 10
355.8377976269694
 20
238.4090911269212
 10
356.7854142038809
 20
238.8365844129471
 10
357.7052977621362
 20
239.273896221106
 10
358.5967162189446
 20
239.7202944686072
 10
359.4588944278219
 20
240.1754131140556
 10
360.2914232836793
 20
240.6386062020474
 10
361.0934845763391
 20
241.1095076911875
 10
361.8648199236397
 20
241.587407030532
 10
362.6049125612585
 20
242.0719166468388
 10
363.3133964478001
 20
242.5624121165513
 10
363.9900132011032
 20
243.0583120798062
 10
364.6345044390063
 20
243.5590136448936
 10
365.2466979067352
 20
244.0640861748781
 10
365.8265936042899
 20
244.5729913735898
 10
366.3741915316704
 20
245.0850832856255
 10
366.8893624977959
 20
245.5999097422025
 10
367.1349116785071
 20
245.8580981169752
 10
367.3722787574408
 20
246.1167817242238
 10
367.6018082441455
 20
246.3760036276421
 10
367.8232848201536
 20
246.6354193176814
 10
368.0366654217713
 20
246.8952010491161
 10
368.2422945585471
 20
247.1550904397846
 10
368.4399138483197
 20
247.415195148921
 10
368.6296955458634
 20
247.6755151765252
 10
368.8116827148717
 20
247.9357060130487
 10
368.9859184190383
 20
248.1958968495721
 10
369.1523165309758
 20
248.4560015587085
 10
369.3110923691523
 20
248.7159986086109
 10
369.4622028698741
 20
248.9758018718923
 10
369.6058202879154
 20
249.2353898167059
 10
369.7418154321957
 20
249.4946117201242
 10
369.8704036211826
 20
249.7534029866068
 10
369.9915848548763
 20
250.0118928072345
 10
370.1055313880509
 20
250.269801267999
 10
370.2120709659322
 20
250.5273006236746
 10
370.3114189069881
 20
250.7841755557936
 10
370.4037044022992
 20
251.040404532509
 10
370.4889274518656
 20
251.295987553821
 10
370.5672172467679
 20
251.5509030878827
 10
370.6384876596191
 20
251.8050219436134
 10
370.7029970725803
 20
252.0583010573196
 10
370.7607024219583
 20
252.3106973653078
 10
370.8118190262207
 20
252.5622969949649
 10
370.856303821674
 20
252.81290615967
 10
370.8942859993988
 20
253.0625894549635
 10
370.925894750476
 20
253.3113038171518
 10
370.9512162022926
 20
253.5588769914606
 10
370.970207291155
 20
253.8054166371237
 10
370.982997208144
 20
254.0507935630607
 10
370.9898012717274
 20
254.2950938966584
  0
LINE
  5
B8
330
70
100
AcDbEntity
  8
Livello 1
 62
   250
420
  2300182
370
     9
100
AcDbLine
 10
369.96880416098
 20
258.649716121861
 30
0.0
 11
369.4934240477091
 21
250.3221882512216
 31
0.0
  0
LINE
  5
B9
330
70
100
AcDbEntity
  8
Livello 1
 62
   250
420
  2300182
370
     9
100
AcDbLine
 10
265.7399810126666
 20
250.7853167436731
 30
0.0
 11
265.3457974936137
 21
259.101691117679
 31
0.0
  0
LWPOLYLINE
  5
BA
330
70
100
AcDbEntity
  8
Livello 1
 62
   250
420
  2300182
370
     9
100
AcDbPolyline
 90
        5
 70
     0
 43
0.0
 10
265.3457974936137
 20
259.101691117679
 10
265.3383905383204
 20
259.3043919232924
 10
265.3353114842304
 20
259.5070066015186
 10
265.3365818631906
 20
259.7093844294303
 10
265.3423093344348
 20
259.9116115344145
  0
LWPOLYLINE
  5
BB
330
70
100
AcDbEntity
  8
Livello 1
 62
   250
420
  2300182
370
     9
100
AcDbPolyline
 90
        9
 70
     0
 43
0.0
 10
368.9624056423514
 20
268.3286042284365
 10
369.1722980847903
 20
267.2302862558921
 10
369.3586346868487
 20
266.1283939967817
 10
369.5213293211397
 20
265.0230997058796
 10
369.6604250513567
 20
263.9150062748958
 10
369.7759218774996
 20
262.8043074904513
 10
369.867690608488
 20
261.691498585022
 10
369.9357743080152
 20
260.5769025363098
 10
369.9802160397749
 20
259.4609930449438
  0
LWPOLYLINE
  5
BC
330
70
100
AcDbEntity
  8
Livello 1
 62
   250
420
  2300182
370
     9
100
AcDbPolyline
 90
        5
 70
     0
 43
0.0
 10
265.3423093344348
 20
259.9116115344145
 10
265.4429061226041
 20
261.713805578289
 10
265.6056222887418
 20
263.5119731668151
 10
265.8301994506865
 20
265.3048008573392
 10
266.1167237358254
 20
267.0903938473442
  0
LWPOLYLINE
  5
BD
330
70
100
AcDbEntity
  8
Livello 1
 62
   250
420
  2300182
370
     9
100
AcDbPolyline
 90
        5
 70
     0
 43
0.0
 10
369.9802160397749
 20
259.4609930449438
 10
369.9839195174216
 20
259.2583998985643
 10
369.983187434631
 20
259.0555914337171
 10
369.9781920461774
 20
258.8526968414826
 10
369.96880416098
 20
258.649716121861
  0
LWPOLYLINE
  5
BE
330
70
100
AcDbEntity
  8
Livello 1
 62
   250
420
  2300182
370
     9
100
AcDbPolyline
 90
       17
 70
     0
 43
0.0
 10
245.6842930497443
 20
249.522689248329
 10
245.8142162132318
 20
250.0185892115839
 10
245.9614940452262
 20
250.5142092608307
 10
246.1263203323486
 20
251.0093986731418
 10
246.3085874153652
 20
251.503985193743
 10
246.5085106127435
 20
251.9977104404728
 10
246.7258961378628
 20
252.490509817791
 10
246.9608085862633
 20
252.9822110709233
 10
247.2131833624046
 20
253.4724912221679
 10
247.48299893444
 20
253.9611995485974
 10
247.7700184520549
 20
254.4483145183649
 10
248.0743926381767
 20
254.9334054945349
 10
248.3959061743377
 20
255.4165155408008
 10
248.7345159968441
 20
255.8973001476142
 10
249.0900067872284
 20
256.3757162512815
 10
249.4624000773371
 20
256.8513978104074
 10
249.8513944213154
 20
257.3244094205322
  0
LWPOLYLINE
  5
BF
330
70
100
AcDbEntity
  8
Livello 1
 62
   250
420
  2300182
370
     9
100
AcDbPolyline
 90
      147
 70
     0
 43
0.0
 10
375.2143926742086
 20
256.8329019540209
 10
375.2813997813967
 20
256.558090993532
 10
375.3418181434692
 20
256.2816005489938
 10
375.3953893782649
 20
256.0032153019389
 10
375.4419842947029
 20
255.7231075071413
 10
375.4816028927832
 20
255.4412125690607
 10
375.5139006629575
 20
255.1577027424714
 10
375.5390067963062
 20
254.8725995592202
 10
375.5566198469746
 20
254.5857953600732
 10
375.5666967512689
 20
254.2975054634981
 10
375.5691083181086
 20
254.0076868058015
 10
375.5635961653322
 20
253.7164039825236
 10
375.5502894840204
 20
253.4237000573581
 10
375.5289298920119
 20
253.1295965621517
 10
375.4993881982259
 20
252.8342011561382
 10
375.4614921478881
 20
252.537599966705
 10
375.4153278683858
 20
252.2397068664648
 10
375.3605939138639
 20
251.9406941101919
 10
375.297333348016
 20
251.640690888967
 10
375.2253308523742
 20
251.3394818843222
 10
375.1443711084708
 20
251.0375192650401
 10
375.0545833073866
 20
250.7345231171124
 10
374.9558813217341
 20
250.4307087590069
 10
374.8479206419651
 20
250.1261192544173
 10
374.7307873954666
 20
249.8207761351902
 10
374.6043954548515
 20
249.5147870605597
 10
374.4686156290391
 20
249.2083888808403
 10
374.3232756632551
 20
248.9014093412577
 10
374.1685047485803
 20
248.5939991647395
 10
374.0040014391596
 20
248.2863090742132
 10
373.8298949260738
 20
247.978296005985
 10
373.6458837634679
 20
247.6701106829827
 10
373.4522263335033
 20
247.3618177007464
 10
373.2484919992443
 20
247.0534816548165
 10
373.0348960791588
 20
246.7452963318141
 10
372.8112663184725
 20
246.4371756043521
 10
372.5777319082662
 20
246.1293778545918
 10
372.3340344663784
 20
245.8217954232993
 10
372.0800878654218
 20
245.5147082244829
 10
371.8161074238646
 20
245.2081162581424
 10
371.5418778232387
 20
244.9019979924312
 10
371.2575282546248
 20
244.5966979368977
 10
370.9628864632489
 20
244.2920223049209
 10
370.6579955128043
 20
243.9883156060494
 10
370.3428984669846
 20
243.6854917128959
 10
369.6821291529137
 20
243.0830091080661
 10
368.9802770751811
 20
242.485500359843
 10
368.2379020618034
 20
241.8935898917836
 10
367.4550902401675
 20
241.3081174459121
 10
366.6322291835156
 20
240.7297074457855
 10
365.7697064650897
 20
240.1591781015813
 10
364.8682111039869
 20
239.597390687171
 10
363.9283029282237
 20
239.0449050305708
 10
362.9506709568969
 20
238.5025178101118
 10
361.9363917823458
 20
237.970810385657
 10
360.8861974873609
 20
237.4506009673843
 10
359.8011000687411
 20
236.9424924470035
 10
358.6823914372934
 20
236.4471953754585
 10
357.5311051216632
 20
235.9651834533785
 10
356.3485976281981
 20
235.4971887635541
 10
355.1363115906322
 20
235.0435988792274
 10
353.895409728692
 20
234.6050812876486
 10
352.6275930582733
 20
234.1820020302132
 10
350.0171796135591
 20
233.3842040432165
 10
347.3180118964062
 20
232.6530901857061
 10
344.5435903747473
 20
231.9912227474492
 10
341.7077815579107
 20
231.4003242761886
 10
338.8248179966197
 20
230.8814067687228
 10
335.9086953912832
 20
230.4347932027537
 10
332.9731941238422
 20
230.0603974508942
 10
330.0317931303827
 20
229.7572936437326
 10
327.0972177323533
 20
229.5238884246069
 10
324.1813965728718
 20
229.3583946502342
 10
321.2957845944265
 20
229.258379221928
 10
318.4504802331586
 20
229.2209999359131
 10
315.6031949419868
 20
229.244103607511
 10
312.711295664281
 20
229.3296926984727
 10
309.7850961546501
 20
229.4806094125735
 10
306.8353838683324
 20
229.6992868484997
 10
303.8743027669134
 20
229.9877920635426
 10
300.9144059170674
 20
230.3475892232833
 10
297.9690861274934
 20
230.7797118563676
 10
295.0521883756728
 20
231.2843968131099
 10
292.1777944894013
 20
231.8613857113489
 10
289.3601154875558
 20
232.5097957453665
 10
286.6132116660854
 20
233.2278182400329
 10
283.9506911521569
 20
234.013192351436
 10
281.3858821589287
 20
234.8627959617921
 10
280.1440113638833
 20
235.310615311181
 10
278.931079370914
 20
235.773097848229
 10
277.7485072819084
 20
236.2497052767666
 10
276.5976085395203
 20
236.7398993006241
 10
275.4796104590164
 20
237.2429909007045
 10
274.3958049512035
 20
237.7583987171446
 10
273.3470102262596
 20
238.2855198582346
 10
272.3343890039108
 20
238.8236007093371
 10
271.3588886854155
 20
239.3718876558146
 10
270.4211982898709
 20
239.9298208696508
 10
269.5220068363739
 20
240.4965175451276
 10
268.6620033440216
 20
241.071288663148
 10
267.8415969179029
 20
241.6534882683084
 10
267.0613043223406
 20
242.2422981504312
 10
266.3214054713428
 20
242.8370077585725
 10
265.6220941515307
 20
243.4367127551673
 10
264.9634780221381
 20
244.0408102485059
 10
264.6495221641979
 20
244.3443016289096
 10
264.3457078060924
 20
244.6486112194911
 10
264.0520134159749
 20
244.9536098291696
 10
263.7684820575388
 20
245.2591897987113
 10
263.4951998581714
 20
245.5653941918096
 10
263.2319730312515
 20
245.8720076899969
 10
262.9788015767792
 20
246.1789872295794
 10
262.7356854947545
 20
246.4862897468637
 10
262.5026247851773
 20
246.7938075826158
 10
262.279490256967
 20
247.1013900139082
 10
262.0663034419704
 20
247.4090155088943
 10
261.8628920854132
 20
247.7165979401867
 10
261.6693853783761
 20
248.024008116705
 10
261.4854818750041
 20
248.3312245066021
 10
261.311396893765
 20
248.6380963869507
 10
261.1467859251105
 20
248.9446883532912
 10
260.9916920327338
 20
249.2508066190024
 10
260.8461152166352
 20
249.5564081203909
 10
260.7099047538872
 20
249.8613851982226
 10
260.5829099215622
 20
250.165802448038
 10
260.4651091878134
 20
250.4694014876756
 10
260.356394893407
 20
250.7722899763694
 10
260.2565947835687
 20
251.074209531958
 10
260.1658165175323
 20
251.3752893455221
 10
260.0838017131366
 20
251.675292566747
 10
260.0104211793008
 20
251.9743053230199
 10
259.9457179797184
 20
252.2721984232601
 10
259.8894122003814
 20
252.5689933993144
 10
259.8415038412897
 20
252.8645179964084
 10
259.8017775839754
 20
253.1586860871552
 10
259.7703195558257
 20
253.4516053307886
 10
259.7467852472921
 20
253.7431034725343
 10
259.7313038494552
 20
254.0332020442391
 10
259.7235093209198
 20
254.3217933866691
 10
259.7234016616859
 20
254.6088990316711
 10
259.7308086169792
 20
254.8944974473983
 10
259.7456871231061
 20
255.178373315383
 10
259.7678003297521
 20
255.460612763012
 10
259.7971913006106
 20
255.7412157902856
 10
259.8336016535204
 20
256.0201178016634
 10
259.8769883247877
 20
256.2971034786774
 10
259.9270929322513
 20
256.5723881397957
  0
LWPOLYLINE
  5
C0
330
70
100
AcDbEntity
  8
Livello 1
 62
   250
420
  2300182
370
     9
100
AcDbPolyline
 90
        3
 70
     0
 43
0.0
 10
262.5311975458581
 20
254.4120118246891
 10
262.5195918804422
 20
254.2015164905404
 10
262.5123141162295
 20
253.9907843060769
  0
LWPOLYLINE
  5
C1
330
70
100
AcDbEntity
  8
Livello 1
 62
   250
420
  2300182
370
     9
100
AcDbPolyline
 90
      133
 70
     0
 43
0.0
 10
389.9984170574483
 20
244.8532068276213
 10
389.9789092042631
 20
244.5183866101487
 10
389.9514776314618
 20
244.1821883544818
 10
389.9159931479637
 20
243.8444182739999
 10
389.8721973716075
 20
243.5050979005495
 10
389.8201764297802
 20
243.164507148139
 10
389.7598011314012
 20
242.8224091664537
 10
389.6907700306155
 20
242.4790838695018
 10
389.6132123185038
 20
242.1344881935897
 10
389.5268265492112
 20
241.7887082661045
 10
389.4316127227376
 20
241.4417010233527
 10
389.3273985843088
 20
241.093595656415
 10
389.2141841339248
 20
240.744521356372
 10
389.0917971168113
 20
240.3944996550706
 10
388.9601083418876
 20
240.0434013614301
 10
388.8191178091537
 20
239.6916140486926
 10
388.668696327529
 20
239.3389008665433
 10
388.5087147059327
 20
238.9856063245309
 10
388.3390006895906
 20
238.6314935723409
 10
388.1596834695833
 20
238.2769071195215
 10
387.9705046637496
 20
237.9218039023794
 10
387.7715073357828
 20
237.5662054527612
 10
387.5625192309089
 20
237.210219429901
 10
387.3434972854341
 20
236.854018088573
 10
387.1143123082779
 20
236.4974937695432
 10
386.8749642994401
 20
236.140904854973
 10
386.6254963226145
 20
235.784208281169
 10
386.3656069319459
 20
235.4274901755181
 10
386.0954253185152
 20
235.070901260948
 10
385.8148222912416
 20
234.7144846011521
 10
385.523711722738
 20
234.3582832598241
 10
385.2220936130044
 20
234.0025125554317
 10
384.9100110257343
 20
233.6470863605878
 10
384.2539356542621
 20
232.9378919231023
 10
383.555313353547
 20
232.2314966256986
 10
382.8139288051212
 20
231.5285894874738
 10
382.0296958815976
 20
230.8297949319844
 10
381.2026145829762
 20
230.1359957649486
 10
380.3326849092571
 20
229.4477948780764
 10
379.4202944336823
 20
228.7660966089326
 10
378.4654000925581
 20
228.0915038492271
 10
377.4684325228204
 20
227.4247917454442
 10
376.4297792977111
 20
226.7668000396082
 10
375.3499141178596
 20
226.1183038782035
 10
374.2294829386692
 20
225.4797769618592
 10
373.0692178429306
 20
224.8522958829145
 10
371.8696786586602
 20
224.2363128101519
 10
370.6319850418906
 20
223.6326028900554
 10
369.3568260117189
 20
223.0419843328029
 10
368.0452781604844
 20
222.4649739027171
 10
366.6985042079131
 20
221.9023036825887
 10
365.3174946189571
 20
221.3545119685872
 10
363.9037996865848
 20
220.8223093116564
 10
360.9830046704964
 20
219.8065875033709
 10
357.9473803155153
 20
218.8594876907821
 10
354.8091136469206
 20
217.984498033069
 10
351.5811883683221
 20
217.1847191161683
 10
348.277104947653
 20
216.4624979113792
 10
344.9107944897814
 20
215.8198153486058
 10
341.4964034180439
 20
215.2574896380259
 10
338.0478843691556
 20
214.7762959261236
 10
334.5793837664528
 20
214.3759973625844
 10
331.1045958644895
 20
214.0557757372304
 10
327.6363967076417
 20
213.8144037347951
 10
324.1875116173581
 20
213.6499219572212
 10
320.7696108545949
 20
213.5600910924433
 10
317.3936110656712
 20
213.5422196596136
 10
314.0184079550783
 20
213.5944989836023
 10
310.602703440687
 20
213.7190822490876
 10
307.1576079554372
 20
213.9185963413771
 10
303.694705632898
 20
214.1951944451491
 10
300.2267002626712
 20
214.5504914489123
 10
296.7666832076009
 20
214.9857146679333
 10
293.3283056585473
 20
215.5014023983816
 10
289.9254125929918
 20
216.0975977039509
 10
286.5721073705771
 20
216.7736976929312
 10
283.282385691712
 20
217.5282166678945
 10
280.0702001931118
 20
218.3593890174045
 10
276.9487929605479
 20
219.2645017287668
 10
273.930996974703
 20
220.2404972797381
 10
271.0291069200899
 20
221.2836075971314
 10
269.624993659536
 20
221.8288800850593
 10
268.253910251947
 20
222.3893755886626
 10
266.91721320367
 20
222.9644050888444
 10
265.6158068522701
 20
223.5533010983543
 10
264.3508969811671
 20
224.1553961299421
 10
263.1233879279258
 20
224.7700011645106
 10
261.9343993485789
 20
225.3964917785033
 10
260.78457719853
 20
226.0342220165166
 10
259.67471815611
 20
226.6822014135986
 10
258.605403581182
 20
227.3399778009667
 10
257.5773009609963
 20
228.0066899047497
 10
256.590905528029
 20
228.6816056421569
 10
255.6464756644412
 20
229.3639068030106
 10
254.7443989434754
 20
230.0529904956009
 10
253.8848906835991
 20
230.7478877868226
 10
253.0681016077399
 20
231.4481249760464
 10
252.2940101840511
 20
232.1527977257075
 10
251.5627025399197
 20
232.861195484862
 10
250.8740064205714
 20
233.5726077025661
 10
250.2277065075386
 20
234.2862807641823
 10
249.9204039902543
 20
234.6437955481642
 10
249.6236090142
 20
235.0017194372348
 10
249.337300047529
 20
235.3597079218459
 10
249.061390962854
 20
235.7178901930779
 10
248.7959032920219
 20
236.0762016553907
 10
248.5406863121053
 20
236.4344915858567
 10
248.2956969594105
 20
236.7926953889355
 10
248.0609137020907
 20
237.1507054053933
 10
247.8362934764524
 20
237.5084139759962
 10
247.6217070914149
 20
237.8658856962844
 10
247.4170899514378
 20
238.2229052477902
 10
247.2223989928277
 20
238.5794941623603
 10
247.0376126837376
 20
238.9355017170673
 10
246.8624941738529
 20
239.2908848482176
 10
246.6971080587142
 20
239.6456866195048
 10
246.5411744243131
 20
239.999691712461
 10
246.3948224617303
 20
240.3527924678523
 10
246.2579014480384
 20
240.7051180767595
 10
246.1301960647695
 20
241.056517816255
 10
246.0118139711577
 20
241.406776367871
 10
245.9024106576542
 20
241.7561090500753
 10
245.8021153153398
 20
242.1043005444002
 10
245.7107126257468
 20
242.4511785960712
 10
245.6279872704072
 20
242.7970231190968
 10
245.5541115040954
 20
243.1414034765411
 10
245.4886977535692
 20
243.4845134550251
 10
245.431810614369
 20
243.8263099908555
 10
245.3832993635674
 20
244.166599297411
 10
245.3430132782368
 20
244.5052952473047
 10
245.3109092946835
 20
244.8425916271574
 10
245.2868151581336
 20
245.1782946503482
 10
245.2705801456593
 20
245.51231818949
  0
LWPOLYLINE
  5
C2
330
70
100
AcDbEntity
  8
Livello 1
 62
   250
420
  2300182
370
     9
100
AcDbPolyline
 90
      133
 70
     0
 43
0.0
 10
389.9487215550736
 20
243.7844090170162
 10
389.9290845108077
 20
243.4484906753575
 10
389.9016098743128
 20
243.1110866362709
 10
389.8661253908147
 20
242.772218431603
 10
389.822286550765
 20
242.4318214658135
 10
389.7701794815505
 20
242.0900033981363
 10
389.7098041831715
 20
241.7467857604183
 10
389.6408161460794
 20
241.4022977437401
 10
389.5631723065806
 20
241.056517816255
 10
389.4767865372879
 20
240.7095967008903
 10
389.3816157745079
 20
240.3614052065655
 10
389.2774016360791
 20
240.012180183595
 10
389.1641871856951
 20
239.6619216319791
 10
389.0418001685816
 20
239.3106080198707
 10
388.9101975210451
 20
238.9584116020443
 10
388.7692069883112
 20
238.6054185058869
 10
388.6186993792994
 20
238.2516071995517
 10
388.4588038850901
 20
237.8969992148856
 10
388.2892190598288
 20
237.5417883385095
 10
388.1099018398215
 20
237.1860176341171
 10
387.9208091613748
 20
236.8296009743213
 10
387.7218118334081
 20
236.4729044005172
 10
387.5129098559213
 20
236.1156910623904
 10
387.2938879104465
 20
235.7582839376425
 10
387.0648751880645
 20
235.4005968988864
 10
386.825613306614
 20
235.0428237327432
 10
386.5762314571754
 20
234.6848783118257
 10
386.3163851302005
 20
234.3269974864487
 10
386.0462896441569
 20
233.9692027884586
 10
385.7658158079639
 20
233.6116018770897
 10
385.4749205579281
 20
233.2541947523418
 10
385.1733885755817
 20
232.8971967326828
 10
384.8613921156987
 20
232.5406939454998
 10
384.2055751263879
 20
231.8291094730215
 10
383.5072973352213
 20
231.1203887361652
 10
382.7663003600376
 20
230.4151130947942
 10
381.9824980734497
 20
229.7139930998523
 10
381.1558043480705
 20
229.0178900252108
 10
380.2863914386741
 20
228.3275144218135
 10
379.3743885363413
 20
227.64340458583
 10
378.42001095954
 20
226.9665940459059
 10
377.4236032178186
 20
226.2978148848318
 10
376.3855959481128
 20
225.6375838669305
 10
375.3064197873583
 20
224.9868914571539
 10
374.1865914998779
 20
224.3463190153653
 10
373.0270154232363
 20
223.7167062835891
 10
371.8282083217565
 20
223.0987207490756
 10
370.5911175966968
 20
222.4930944946155
 10
369.3166906493158
 20
221.9004950074589
 10
368.0060040719525
 20
221.3215897748562
 10
366.6600052658654
 20
220.7570032203642
 10
365.280029205555
 20
220.20748895862
 10
363.8671094196669
 20
219.6734776265595
 10
360.9481015468615
 20
218.654482977563
 10
357.9143935262441
 20
217.7042179834971
 10
354.7781939149404
 20
216.8263861220087
 10
351.5524002891735
 20
216.0240018516472
 10
348.2505131168762
 20
215.2994982710992
 10
344.8864850347636
 20
214.6545979281072
 10
341.4742902113979
 20
214.0905927334782
 10
338.0282042611961
 20
213.6077841330672
 10
334.5620936934862
 20
213.206193658721
 10
331.0895020398947
 20
212.8849169728747
 10
327.6236929180399
 20
212.6427052284149
 10
324.1771978627491
 20
212.4778143457521
 10
320.7616010075917
 20
212.387703566966
 10
317.3879912536609
 20
212.3697244749024
 10
314.0150920506738
 20
212.4222191173589
 10
310.6017775712754
 20
212.5471899560863
 10
307.1589859936313
 20
212.747285408239
 10
303.6984952379317
 20
213.0247878495758
 10
300.2329014345447
 20
213.3812045093717
 10
296.7751882870801
 20
213.8179134258207
 10
293.3392007730194
 20
214.3352806403181
 10
289.9386116150696
 20
214.933392280251
 10
286.5875026410267
 20
215.6117100494499
 10
283.2999987423803
 20
216.3687051867932
 10
280.0899018329181
 20
217.2024828897641
 10
276.970604721339
 20
218.1106100596759
 10
273.9548111972448
 20
219.0898138558178
 10
271.0546867540679
 20
220.1363046731561
 10
269.6515208947725
 20
220.6833858362137
 10
268.2812987610547
 20
221.2457115467936
 10
266.9453983911087
 20
221.8226143176455
 10
265.6448102498866
 20
222.4134051296723
 10
264.3806970571144
 20
223.0175026230108
 10
263.1539846822041
 20
223.6341962467173
 10
261.9656851219543
 20
224.2627108543076
 10
260.8165089273089
 20
224.9025081496121
 10
259.7073173721391
 20
225.5527053269126
 10
258.638713348155
 20
226.2126133671122
 10
257.6111059604453
 20
226.881521719267
 10
256.6252918873411
 20
227.5585906413525
 10
255.681400319923
 20
228.2433033690459
 10
254.7798188314331
 20
228.9346048418549
 10
253.9208058040328
 20
229.6319136999163
 10
253.1044043014158
 20
230.3343902012055
 10
252.3307865783561
 20
231.0413883903191
 10
251.5998019119265
 20
231.7521115889261
 10
250.9114933658203
 20
232.4659138416231
 10
250.2654948986424
 20
233.1819769382323
 10
249.958407699826
 20
233.5406975056339
 10
249.6617203830056
 20
233.8998056462777
 10
249.3754975437217
 20
234.2590214461553
 10
249.0998037775145
 20
234.6183879689604
 10
248.8343161066825
 20
234.9779052146931
 10
248.5792067859997
 20
235.3373793967321
 10
248.3343896880792
 20
235.6966813239969
 10
248.0996925581465
 20
236.0559832512616
 10
247.8752230554357
 20
236.4149191371311
 10
247.6606797340918
 20
236.773618172686
 10
247.4561056578083
 20
237.1317789120713
 10
247.2614792947385
 20
237.4896166737548
 10
247.0766929856484
 20
237.8468084800348
 10
246.9016821349977
 20
238.203397394605
 10
246.7362960198589
 20
238.5592972900781
 10
246.5804915765385
 20
238.9145081664541
 10
246.4341826776493
 20
239.2689223644992
 10
246.297304727651
 20
239.6223030338987
 10
246.169707003616
 20
239.9748870249672
 10
246.0512172507702
 20
240.3263944236966
 10
245.9418785328071
 20
240.6768898256272
 10
245.8415831904928
 20
241.0262009759848
 10
245.7501159053594
 20
241.3742848110757
 10
245.6674982092537
 20
241.7212059264404
 10
245.5935793792483
 20
242.0668997265384
 10
245.5281871605689
 20
242.4111078292084
 10
245.4713215532155
 20
242.7540024892247
 10
245.4227026431799
 20
243.0953899199662
 10
245.3824811533896
 20
243.4353993125136
 10
245.3503125742961
 20
243.7737938165522
 10
245.3262184377461
 20
244.1106164957757
 10
245.309875766038
 20
244.445781222797
  0
LINE
  5
C3
330
70
100
AcDbEntity
  8
Livello 1
 62
   250
420
  2300182
370
     9
100
AcDbLine
 10
262.5114959060518
 20
253.515705638661
 30
0.0
 11
262.4911913745356
 21
254.4676070530823
 31
0.0
  0
LWPOLYLINE
  5
C4
330
70
100
AcDbEntity
  8
Livello 1
 62
   250
420
  2300182
370
     9
100
AcDbPolyline
 90
      131
 70
     0
 43
0.0
 10
262.4911913745356
 20
254.4676070530823
 10
262.4996964540148
 20
254.2165026559012
 10
262.5142950461336
 20
253.9643001345341
 10
262.5352024693597
 20
253.7107841705133
 10
262.5625263829271
 20
253.4561916141533
 10
262.5962021912954
 20
253.2005009336074
 10
262.636488276626
 20
252.943776724416
 10
262.6834922981529
 20
252.6860189865789
 10
262.7372142558761
 20
252.4272061882495
 10
262.7977187453357
 20
252.1674890523553
 10
262.8649842346852
 20
251.9068029833558
 10
262.9393982971667
 20
251.6453202360253
 10
263.0208102098525
 20
251.3829977466703
 10
263.1092845682831
 20
251.119813983444
 10
263.2049936272326
 20
250.856005796661
 10
263.3080019822416
 20
250.5914870589342
 10
263.4183957606971
 20
250.3263223658039
 10
263.5361103670587
 20
250.0604901854233
 10
263.6613826516411
 20
249.7942919636474
 10
263.7942126144442
 20
249.5274908501615
 10
263.9346002554682
 20
249.2602806315868
 10
264.0826101702533
 20
248.9928120308507
 10
264.2385007409608
 20
248.724912793179
 10
264.4021212446634
 20
248.4566905778056
 10
264.5734932132078
 20
248.1884037668917
 10
264.752810433215
 20
247.9199016375101
 10
264.9400944365319
 20
247.6513133807413
 10
265.135388286852
 20
247.3828112513596
 10
265.3386919841754
 20
247.114201462744
 10
265.5500055285019
 20
246.8456993333624
 10
265.7694150472187
 20
246.5774125224485
 10
265.9969851358662
 20
246.3094056255429
 10
266.2328234536783
 20
246.0416140471051
 10
266.7287880124736
 20
245.5070859507218
 10
267.2578039560805
 20
244.9746033797829
 10
267.8197205615715
 20
244.4445969712239
 10
268.414710083721
 20
243.9176050212146
 10
269.0427940543756
 20
243.3941873577712
 10
269.7038002187611
 20
242.8750114681441
 10
270.397491726563
 20
242.3604218618817
 10
271.1239116414747
 20
241.851215217315
 10
271.882586262867
 20
241.3476929802989
 10
272.6731926130383
 20
240.8506948928581
 10
273.4953215868996
 20
240.3605869963877
 10
274.3484994838218
 20
239.8779937144446
 10
275.2322095394819
 20
239.4034964068918
 10
276.1456981392427
 20
238.9374826469714
 10
277.0884915824748
 20
238.4807060493208
 10
278.0596855316136
 20
238.0333819324079
 10
279.0585048401746
 20
237.5962854427168
 10
280.0841097661335
 20
237.1697826216429
 10
282.2117146104367
 20
236.350388192323
 10
284.4344902175198
 20
235.5785145488528
 10
286.7436946575893
 20
234.8573914682496
 10
289.1297247269798
 20
234.1895166447404
 10
291.582395862163
 20
233.5771939859308
 10
294.0916096269979
 20
233.0222106351039
 10
296.6463847796253
 20
232.5256001209051
 10
299.2360845877344
 20
232.0884175038269
 10
301.8499000642402
 20
231.710684315716
 10
304.4773882634531
 20
231.3924866839596
 10
307.1081923670706
 20
231.1330925257671
 10
309.7324077255726
 20
230.9315113761864
 10
312.3407971766891
 20
230.7863006014831
 10
314.9246187906265
 20
230.6958883768421
 10
317.4755182108329
 20
230.6580999857382
 10
320.0269774590558
 20
230.6714066670501
 10
322.6121125156469
 20
230.7369926723505
 10
325.2229135336031
 20
230.857097313705
 10
327.8505955194371
 20
231.0335938617837
 10
330.4858997790322
 20
231.2679249503211
 10
333.1188785991747
 20
231.5609949168819
 10
335.7393258844897
 20
231.9138803538054
 10
338.3364972434324
 20
232.3266027929383
 10
340.8997774755389
 20
232.7991837661275
 10
343.4182929981841
 20
233.330718935808
 10
345.8813855472103
 20
233.9203039644149
 10
348.278482985847
 20
234.5661086449718
 10
350.5995084098003
 20
235.2661951112681
 10
352.8349016790981
 20
236.0178934143028
 10
354.9755763543985
 20
236.8182106273732
 10
356.0078130891664
 20
237.235605477258
 10
357.0135010568512
 20
237.6638739097681
 10
357.9915851969604
 20
238.1027144790486
 10
358.9412903630099
 20
238.5512874430748
 10
359.8619060040558
 20
239.0094205470727
 10
360.7527000373075
 20
239.4763171127112
 10
361.6129834436679
 20
239.9516756941354
 10
362.4423040543547
 20
240.4348072722481
 10
363.2401020413515
 20
240.9253242738073
 10
364.0059037040289
 20
241.4224946160224
 10
364.7394937239194
 20
241.9258015345707
 10
365.4403984003934
 20
242.4348143925163
 10
366.1084885423705
 20
242.9488226389156
 10
366.7436780224634
 20
243.4672879775989
 10
367.3457084585108
 20
243.9896936442435
 10
367.9147090415934
 20
244.5153936834458
 10
368.450593644324
 20
245.0440005219638
 10
368.9534914577834
 20
245.5747820770069
 10
369.1925810844597
 20
245.8408941713957
 10
369.4234886093586
 20
246.1074153708733
 10
369.6463001598671
 20
246.3741088251252
 10
369.8610157359853
 20
246.6411898526192
 10
370.0675922740196
 20
246.90829241196
 10
370.2661159013571
 20
247.1755887579218
 10
370.4565866179978
 20
247.4429927631176
 10
370.6392197424096
 20
247.7102891090794
 10
370.8137999561247
 20
247.9775854550412
 10
370.9806287049979
 20
248.2447095462287
 10
371.1394906705615
 20
248.5117044463356
 10
371.2906872986704
 20
248.7783979005875
 10
371.4341755256311
 20
249.0448114408313
 10
371.569998415137
 20
249.3108158759861
 10
371.6983282219626
 20
249.5764758015925
 10
371.8189926913335
 20
249.8417050902631
 10
371.9322932691046
 20
250.1062884235303
 10
372.0382299552761
 20
250.370419588015
 10
372.1368027498478
 20
250.6339047970963
 10
372.2282269712876
 20
250.8966794552337
 10
372.3123734285148
 20
251.1588081579677
 10
372.3896296947716
 20
251.4200971186771
 10
372.4596943242028
 20
251.6805894010555
 10
372.5229118263571
 20
251.9403065369498
 10
372.5792822012345
 20
252.1990978034324
 10
372.6288915762221
 20
252.4569201368098
 10
372.6717830150135
 20
252.7138166007755
 10
372.7080857086893
 20
252.9697225997892
 10
372.7380149757174
 20
253.2244874109235
 10
372.7613985613236
 20
253.4781971615654
 10
372.7784948476691
 20
253.7307872561745
 10
372.7893038347541
 20
253.9821930992106
  0
ENDSEC
  0
SECTION
  2
OBJECTS
  0
DICTIONARY
  5
C
330
0
100
AcDbDictionary
281
     1
  3
ACAD_COLOR
350
63
  3
ACAD_DETAILVIEWSTYLE
350
6A
  3
ACAD_GROUP
350
D
  3
ACAD_LAYOUT
350
62
  3
ACAD_MATERIAL
350
10
  3
ACAD_MLEADERSTYLE
350
66
  3
ACAD_MLINESTYLE
350
5F
  3
ACAD_PLOTSETTINGS
350
61
  3
ACAD_PLOTSTYLENAME
350
E
  3
ACAD_SCALELIST
350
42
  3
ACAD_SECTIONVIEWSTYLE
350
68
  3
ACAD_TABLESTYLE
350
64
  3
ACAD_VISUALSTYLE
350
29
  3
ACDB_RECOMPOSE_DATA
350
CD
  3
AcDbVariableDictionary
350
C5
  0
DICTIONARY
  5
63
102
{ACAD_REACTORS
330
C
102
}
330
C
100
AcDbDictionary
281
     1
  0
DICTIONARY
  5
6A
102
{ACAD_REACTORS
330
C
102
}
330
C
100
AcDbDictionary
281
     1
  3
Imperial24
350
6B
  0
DICTIONARY
  5
D
102
{ACAD_REACTORS
330
C
102
}
330
C
100
AcDbDictionary
281
     1
  0
DICTIONARY
  5
62
102
{ACAD_REACTORS
330
C
102
}
330
C
100
AcDbDictionary
281
     1
  3
Layout1
350
6F
  3
Layout2
350
77
  3
Model
350
73
  0
DICTIONARY
  5
10
102
{ACAD_REACTORS
330
C
102
}
330
C
100
AcDbDictionary
281
     1
  3
ByBlock
350
19
  3
ByLayer
350
11
  3
Global
350
21
  0
DICTIONARY
  5
66
102
{ACAD_REACTORS
330
C
102
}
330
C
100
AcDbDictionary
281
     1
  3
Standard
350
67
  0
DICTIONARY
  5
5F
102
{ACAD_REACTORS
330
C
102
}
330
C
100
AcDbDictionary
281
     1
  3
Standard
350
60
  0
DICTIONARY
  5
61
102
{ACAD_REACTORS
330
C
102
}
330
C
100
AcDbDictionary
281
     1
  0
ACDBDICTIONARYWDFLT
  5
E
102
{ACAD_REACTORS
330
C
102
}
330
C
100
AcDbDictionary
281
     1
  3
Normal
350
F
100
AcDbDictionaryWithDefault
340
F
  0
DICTIONARY
  5
42
102
{ACAD_REACTORS
330
C
102
}
330
C
100
AcDbDictionary
281
     1
  3
A0
350
43
  3
A1
350
44
  3
A2
350
45
  3
A3
350
46
  3
A4
350
47
  3
A5
350
48
  3
A6
350
49
  3
A7
350
4A
  3
A8
350
4B
  3
A9
350
4C
  3
B0
350
4D
  3
B1
350
4E
  3
B2
350
4F
  3
B3
350
50
  3
B4
350
51
  3
B5
350
52
  3
B6
350
53
  0
DICTIONARY
  5
68
102
{ACAD_REACTORS
330
C
102
}
330
C
100
AcDbDictionary
281
     1
  3
Imperial24
350
69
  0
DICTIONARY
  5
64
102
{ACAD_REACTORS
330
C
102
}
330
C
100
AcDbDictionary
281
     1
  3
Standard
350
65
  0
DICTIONARY
  5
29
102
{ACAD_REACTORS
330
C
102
}
330
C
100
AcDbDictionary
281
     1
  3
2dWireframe
350
2F
  3
Basic
350
2E
  3
Brighten
350
35
  3
ColorChange
350
39
  3
Conceptual
350
32
  3
Dim
350
34
  3
EdgeColorOff
350
41
  3
Facepattern
350
38
  3
Flat
350
2A
  3
FlatWithEdges
350
2B
  3
Gouraud
350
2C
  3
GouraudWithEdges
350
2D
  3
Hidden
350
31
  3
JitterOff
350
3F
  3
Linepattern
350
37
  3
OverhangOff
350
40
  3
Realistic
350
33
  3
Shaded
350
3E
  3
Shaded with edges
350
3D
  3
Shades of Gray
350
3A
  3
Sketchy
350
3B
  3
Thicken
350
36
  3
Wireframe
350
30
  3
X-Ray
350
3C
  0
XRECORD
  5
CD
102
{ACAD_REACTORS
330
C
102
}
330
C
100
AcDbXrecord
280
     1
 90
        1
330
65
  0
DICTIONARY
  5
C5
102
{ACAD_REACTORS
330
C
102
}
330
C
100
AcDbDictionary
281
     1
  3
CANNOSCALE
350
CA
  3
CMLEADERSTYLE
350
C7
  3
CTABLESTYLE
350
C6
  3
CVIEWDETAILSTYLE
350
C8
  3
CVIEWSECTIONSTYLE
350
C9
  0
ACDBDETAILVIEWSTYLE
  5
6B
102
{ACAD_REACTORS
330
6A
102
}
330
6A
100
AcDbModelDocViewStyle
 70
     0
  3
Imperial24
290
     1
300
Imperial24
 90
        0
100
AcDbDetailViewStyle
 70
     0
 71
     0
 90
        3
 71
     1
340
55
 62
   256
 40
0.24
340
0
 62
   256
 40
0.24
300

 40
0.36
280
     3
 71
     2
340
5D
 90
       25
 62
   256
 71
     3
340
55
 62
   256
 40
0.24
 90
        1
 40
0.75
 90
        1
300
%<\AcVar ViewType \f "%tc1">% %<\AcVar ViewDetailId>%\PSCALE %<\AcVar ViewScale \f "%sn">%
 71
     4
340
5D
 90
       25
 62
   256
340
5D
 90
       25
 62
   256
280
     0
  0
LAYOUT
  5
6F
102
{ACAD_REACTORS
330
62
102
}
330
62
100
AcDbPlotSettings
  1

  2

  4

  6

 40
0.0
 41
0.0
 42
0.0
 43
0.0
 44
0.0
 45
0.0
 46
0.0
 47
0.0
 48
0.0
 49
0.0
140
0.0
141
0.0
142
1.0
143
1.0
 70
   688
 72
     0
 73
     0
 74
     5
  7

 75
    16
147
1.0
 76
     0
 77
     2
 78
   300
148
0.0
149
0.0
100
AcDbLayout
  1
Layout1
 70
     1
 71
     1
 10
0.0
 20
0.0
 11
12.0
 21
9.0
 12
0.0
 22
0.0
 32
0.0
 14
0.0
 24
0.0
 34
0.0
 15
0.0
 25
0.0
 35
0.0
146
0.0
 13
0.0
 23
0.0
 33
0.0
 16
1.0
 26
0.0
 36
0.0
 17
0.0
 27
1.0
 37
0.0
 76
     0
330
6C
  0
LAYOUT
  5
77
102
{ACAD_REACTORS
330
62
102
}
330
62
100
AcDbPlotSettings
  1

  2

  4

  6

 40
0.0
 41
0.0
 42
0.0
 43
0.0
 44
0.0
 45
0.0
 46
0.0
 47
0.0
 48
0.0
 49
0.0
140
0.0
141
0.0
142
1.0
143
1.0
 70
   688
 72
     0
 73
     0
 74
     5
  7

 75
    16
147
1.0
 76
     0
 77
     2
 78
   300
148
0.0
149
0.0
100
AcDbLayout
  1
Layout2
 70
     1
 71
     2
 10
0.0
 20
0.0
 11
12.0
 21
9.0
 12
0.0
 22
0.0
 32
0.0
 14
0.0
 24
0.0
 34
0.0
 15
0.0
 25
0.0
 35
0.0
146
0.0
 13
0.0
 23
0.0
 33
0.0
 16
1.0
 26
0.0
 36
0.0
 17
0.0
 27
1.0
 37
0.0
 76
     0
330
74
  0
LAYOUT
  5
73
102
{ACAD_REACTORS
330
62
102
}
330
62
100
AcDbPlotSettings
  1

  2

  4

  6

 40
0.0
 41
0.0
 42
0.0
 43
0.0
 44
0.0
 45
0.0
 46
0.0
 47
0.0
 48
0.0
 49
0.0
140
0.0
141
0.0
142
1.0
143
1.0
 70
  1712
 72
     0
 73
     0
 74
     0
  7

 75
     0
147
1.0
 76
     0
 77
     2
 78
   300
148
0.0
149
0.0
100
AcDbLayout
  1
Model
 70
     1
 71
     0
 10
0.0
 20
0.0
 11
12.0
 21
9.0
 12
0.0
 22
0.0
 32
0.0
 14
0.0
 24
0.0
 34
0.0
 15
0.0
 25
0.0
 35
0.0
146
0.0
 13
0.0
 23
0.0
 33
0.0
 16
1.0
 26
0.0
 36
0.0
 17
0.0
 27
1.0
 37
0.0
 76
     0
330
70
  0
MATERIAL
  5
19
102
{ACAD_XDICTIONARY
360
1A
102
}
102
{ACAD_REACTORS
330
10
102
}
330
10
100
AcDbMaterial
  1
ByBlock
 72
     0
 43
0.0208333333333333
 43
0.0
 43
0.0
 43
0.0
 43
0.0
 43
0.0208333333333333
 43
0.0
 43
0.0
 43
0.0
 43
0.0
 43
1.0
 43
0.0
 43
0.0
 43
0.0
 43
0.0
 43
1.0
 77
     0
 47
0.0208333333333333
 47
0.0
 47
0.0
 47
0.0
 47
0.0
 47
0.0208333333333333
 47
0.0
 47
0.0
 47
0.0
 47
0.0
 47
1.0
 47
0.0
 47
0.0
 47
0.0
 47
0.0
 47
1.0
171
     0
 49
0.0208333333333333
 49
0.0
 49
0.0
 49
0.0
 49
0.0
 49
0.0208333333333333
 49
0.0
 49
0.0
 49
0.0
 49
0.0
 49
1.0
 49
0.0
 49
0.0
 49
0.0
 49
0.0
 49
1.0
175
     0
142
0.0208333333333333
142
0.0
142
0.0
142
0.0
142
0.0
142
0.0208333333333333
142
0.0
142
0.0
142
0.0
142
0.0
142
1.0
142
0.0
142
0.0
142
0.0
142
0.0
142
1.0
179
     0
144
0.0208333333333333
144
0.0
144
0.0
144
0.0
144
0.0
144
0.0208333333333333
144
0.0
144
0.0
144
0.0
144
0.0
144
1.0
144
0.0
144
0.0
144
0.0
144
0.0
144
1.0
147
0.0208333333333333
147
0.0
147
0.0
147
0.0
147
0.0
147
0.0208333333333333
147
0.0
147
0.0
147
0.0
147
0.0
147
1.0
147
0.0
147
0.0
147
0.0
147
0.0
147
1.0
  0
MATERIAL
  5
11
102
{ACAD_XDICTIONARY
360
12
102
}
102
{ACAD_REACTORS
330
10
102
}
330
10
100
AcDbMaterial
  1
ByLayer
 72
     0
 43
0.0208333333333333
 43
0.0
 43
0.0
 43
0.0
 43
0.0
 43
0.0208333333333333
 43
0.0
 43
0.0
 43
0.0
 43
0.0
 43
1.0
 43
0.0
 43
0.0
 43
0.0
 43
0.0
 43
1.0
 77
     0
 47
0.0208333333333333
 47
0.0
 47
0.0
 47
0.0
 47
0.0
 47
0.0208333333333333
 47
0.0
 47
0.0
 47
0.0
 47
0.0
 47
1.0
 47
0.0
 47
0.0
 47
0.0
 47
0.0
 47
1.0
171
     0
 49
0.0208333333333333
 49
0.0
 49
0.0
 49
0.0
 49
0.0
 49
0.0208333333333333
 49
0.0
 49
0.0
 49
0.0
 49
0.0
 49
1.0
 49
0.0
 49
0.0
 49
0.0
 49
0.0
 49
1.0
175
     0
142
0.0208333333333333
142
0.0
142
0.0
142
0.0
142
0.0
142
0.0208333333333333
142
0.0
142
0.0
142
0.0
142
0.0
142
1.0
142
0.0
142
0.0
142
0.0
142
0.0
142
1.0
179
     0
144
0.0208333333333333
144
0.0
144
0.0
144
0.0
144
0.0
144
0.0208333333333333
144
0.0
144
0.0
144
0.0
144
0.0
144
1.0
144
0.0
144
0.0
144
0.0
144
0.0
144
1.0
147
0.0208333333333333
147
0.0
147
0.0
147
0.0
147
0.0
147
0.0208333333333333
147
0.0
147
0.0
147
0.0
147
0.0
147
1.0
147
0.0
147
0.0
147
0.0
147
0.0
147
1.0
  0
MATERIAL
  5
21
102
{ACAD_XDICTIONARY
360
22
102
}
102
{ACAD_REACTORS
330
10
102
}
330
10
100
AcDbMaterial
  1
Global
 72
     0
 43
0.0208333333333333
 43
0.0
 43
0.0
 43
0.0
 43
0.0
 43
0.0208333333333333
 43
0.0
 43
0.0
 43
0.0
 43
0.0
 43
1.0
 43
0.0
 43
0.0
 43
0.0
 43
0.0
 43
1.0
 77
     0
 47
0.0208333333333333
 47
0.0
 47
0.0
 47
0.0
 47
0.0
 47
0.0208333333333333
 47
0.0
 47
0.0
 47
0.0
 47
0.0
 47
1.0
 47
0.0
 47
0.0
 47
0.0
 47
0.0
 47
1.0
171
     0
 49
0.0208333333333333
 49
0.0
 49
0.0
 49
0.0
 49
0.0
 49
0.0208333333333333
 49
0.0
 49
0.0
 49
0.0
 49
0.0
 49
1.0
 49
0.0
 49
0.0
 49
0.0
 49
0.0
 49
1.0
175
     0
142
0.0208333333333333
142
0.0
142
0.0
142
0.0
142
0.0
142
0.0208333333333333
142
0.0
142
0.0
142
0.0
142
0.0
142
1.0
142
0.0
142
0.0
142
0.0
142
0.0
142
1.0
179
     0
144
0.0208333333333333
144
0.0
144
0.0
144
0.0
144
0.0
144
0.0208333333333333
144
0.0
144
0.0
144
0.0
144
0.0
144
1.0
144
0.0
144
0.0
144
0.0
144
0.0
144
1.0
147
0.0208333333333333
147
0.0
147
0.0
147
0.0
147
0.0
147
0.0208333333333333
147
0.0
147
0.0
147
0.0
147
0.0
147
1.0
147
0.0
147
0.0
147
0.0
147
0.0
147
1.0
  0
MLEADERSTYLE
  5
67
102
{ACAD_REACTORS
330
66
102
}
330
66
100
AcDbMLeaderStyle
179
     2
170
     2
171
     1
172
     0
 90
        2
 40
0.0
 41
0.0
173
     1
 91
-1056964608
340
5B
 92
       -2
290
     1
 42
0.09
291
     1
 43
0.36
  3
Standard
 44
0.18
300

342
55
174
     1
178
     6
175
     1
176
     0
 93
-1056964608
 45
0.18
292
     0
297
     0
 46
0.18
 94
-1056964608
 47
1.0
 49
1.0
140
1.0
293
     1
141
0.0
294
     1
177
     0
142
1.0
295
     1
296
     0
143
0.125
271
     0
272
     9
273
     9
298
     1
  0
MLINESTYLE
  5
60
102
{ACAD_REACTORS
330
5F
102
}
330
5F
100
AcDbMlineStyle
  2
STANDARD
 70
     0
  3

 62
   256
 51
90.0
 52
90.0
 71
     2
 49
0.5
 62
   256
  6
BYLAYER
 49
-0.5
 62
   256
  6
BYLAYER
  0
ACDBPLACEHOLDER
  5
F
102
{ACAD_REACTORS
330
E
102
}
330
E
  0
SCALE
  5
43
102
{ACAD_REACTORS
330
42
102
}
330
42
100
AcDbScale
 70
     0
300
1:1
140
1.0
141
1.0
290
     1
  0
SCALE
  5
44
102
{ACAD_REACTORS
330
42
102
}
330
42
100
AcDbScale
 70
     0
300
1/128" = 1'-0"
140
0.0078125
141
12.0
290
     0
  0
SCALE
  5
45
102
{ACAD_REACTORS
330
42
102
}
330
42
100
AcDbScale
 70
     0
300
1/64" = 1'-0"
140
0.015625
141
12.0
290
     0
  0
SCALE
  5
46
102
{ACAD_REACTORS
330
42
102
}
330
42
100
AcDbScale
 70
     0
300
1/32" = 1'-0"
140
0.03125
141
12.0
290
     0
  0
SCALE
  5
47
102
{ACAD_REACTORS
330
42
102
}
330
42
100
AcDbScale
 70
     0
300
1/16" = 1'-0"
140
0.0625
141
12.0
290
     0
  0
SCALE
  5
48
102
{ACAD_REACTORS
330
42
102
}
330
42
100
AcDbScale
 70
     0
300
3/32" = 1'-0"
140
0.09375
141
12.0
290
     0
  0
SCALE
  5
49
102
{ACAD_REACTORS
330
42
102
}
330
42
100
AcDbScale
 70
     0
300
1/8" = 1'-0"
140
0.125
141
12.0
290
     0
  0
SCALE
  5
4A
102
{ACAD_REACTORS
330
42
102
}
330
42
100
AcDbScale
 70
     0
300
3/16" = 1'-0"
140
0.1875
141
12.0
290
     0
  0
SCALE
  5
4B
102
{ACAD_REACTORS
330
42
102
}
330
42
100
AcDbScale
 70
     0
300
1/4" = 1'-0"
140
0.25
141
12.0
290
     0
  0
SCALE
  5
4C
102
{ACAD_REACTORS
330
42
102
}
330
42
100
AcDbScale
 70
     0
300
3/8" = 1'-0"
140
0.375
141
12.0
290
     0
  0
SCALE
  5
4D
102
{ACAD_REACTORS
330
42
102
}
330
42
100
AcDbScale
 70
     0
300
1/2" = 1'-0"
140
0.5
141
12.0
290
     0
  0
SCALE
  5
4E
102
{ACAD_REACTORS
330
42
102
}
330
42
100
AcDbScale
 70
     0
300
3/4" = 1'-0"
140
0.75
141
12.0
290
     0
  0
SCALE
  5
4F
102
{ACAD_REACTORS
330
42
102
}
330
42
100
AcDbScale
 70
     0
300
1" = 1'-0"
140
1.0
141
12.0
290
     0
  0
SCALE
  5
50
102
{ACAD_REACTORS
330
42
102
}
330
42
100
AcDbScale
 70
     0
300
1-1/2" = 1'-0"
140
1.5
141
12.0
290
     0
  0
SCALE
  5
51
102
{ACAD_REACTORS
330
42
102
}
330
42
100
AcDbScale
 70
     0
300
3" = 1'-0"
140
3.0
141
12.0
290
     0
  0
SCALE
  5
52
102
{ACAD_REACTORS
330
42
102
}
330
42
100
AcDbScale
 70
     0
300
6" = 1'-0"
140
6.0
141
12.0
290
     0
  0
SCALE
  5
53
102
{ACAD_REACTORS
330
42
102
}
330
42
100
AcDbScale
 70
     0
300
1'-0" = 1'-0"
140
12.0
141
12.0
290
     0
  0
ACDBSECTIONVIEWSTYLE
  5
69
102
{ACAD_REACTORS
330
68
102
}
330
68
100
AcDbModelDocViewStyle
 70
     0
  3
Imperial24
290
     1
300
Imperial24
 90
        0
100
AcDbSectionViewStyle
 70
     0
 71
     0
 90
       78
 71
     1
340
55
 62
   256
 40
0.24
340
0
340
0
 62
   256
 40
0.24
300
I, O, Q, S, X, Z
 40
0.48
 90
        3
 40
0.18
 90
        1
 71
     2
340
5D
 90
       25
 62
   256
340
5D
 90
       50
 62
   256
 40
0.24
 40
0.0
 40
0.24
 71
     3
340
55
 62
   256
 40
0.24
 90
        1
 40
0.75
 90
        1
300
%<\AcVar ViewType \f "%tc1">% %<\AcVar ViewSectionStartId>%-%<\AcVar ViewSectionEndId>%\PSCALE %<\AcVar ViewScale \f "%sn">%
 71
     4
 62
   256
 62
   257
300
ANSI31
 40
1.0
 90
        0
290
     0
290
     0
 90
        6
 40
0.0
 40
1.570796326794896
 40
0.2617993877991494
 40
1.308996938995747
 40
-0.2617993877991494
 40
1.832595714594046
  0
TABLESTYLE
  5
65
102
{ACAD_XDICTIONARY
360
CB
102
}
102
{ACAD_REACTORS
330
64
102
}
330
64
100
AcDbTableStyle
280
     0
  3
Standard
 70
     0
 71
     0
 40
0.06
 41
0.06
280
     0
281
     0
  7
Standard
140
0.18
170
     2
 62
     0
 63
     7
283
     0
 90
      512
 91
        0
  1

274
    -2
284
     1
 64
     0
275
    -2
285
     1
 65
     0
276
    -2
286
     1
 66
     0
277
    -2
287
     1
 67
     0
278
    -2
288
     1
 68
     0
279
    -2
289
     1
 69
     0
  7
Standard
140
0.25
170
     5
 62
     0
 63
     7
283
     0
 90
      512
 91
        0
  1

274
    -2
284
     1
 64
     0
275
    -2
285
     1
 65
     0
276
    -2
286
     1
 66
     0
277
    -2
287
     1
 67
     0
278
    -2
288
     1
 68
     0
279
    -2
289
     1
 69
     0
  7
Standard
140
0.18
170
     5
 62
     0
 63
     7
283
     0
 90
      512
 91
        0
  1

274
    -2
284
     1
 64
     0
275
    -2
285
     1
 65
     0
276
    -2
286
     1
 66
     0
277
    -2
287
     1
 67
     0
278
    -2
288
     1
 68
     0
279
    -2
289
     1
 69
     0
  0
VISUALSTYLE
  5
2F
102
{ACAD_REACTORS
330
29
102
}
330
29
100
AcDbVisualStyle
  2
2dWireframe
 70
     4
177
     3
291
     0
 70
    58
 90
        0
176
     1
 90
        2
176
     1
 90
        0
176
     1
 90
        0
176
     1
 40
0.6
176
     1
 40
30.0
176
     1
 62
     7
420
 16777215
176
     1
 90
        1
176
     1
 90
        4
176
     1
 62
     7
176
     1
 62
   257
176
     1
 90
        1
176
     1
 90
        1
176
     1
 40
1.0
176
     1
 90
        0
176
     1
 62
   257
176
     1
 40
1.0
176
     1
 90
        1
176
     1
 90
        6
176
     1
 90
        2
176
     1
 62
     7
176
     1
 90
        5
176
     1
 90
        0
176
     1
 90
        0
176
     1
290
     0
176
     1
 90
        1
176
     1
 40
0.0
176
     1
 90
        0
176
     1
290
     1
176
     1
290
     1
176
     1
290
     0
176
     1
290
     0
176
     1
290
     0
176
     1
290
     0
176
     1
290
     0
176
     1
290
     0
176
     1
290
     0
176
     1
 90
       50
176
     1
 40
0.0
176
     1
 40
1.0
176
     1
 90
        0
176
     1
 62
    18
420
        0
176
     1
 90
       50
176
     1
 90
        3
176
     1
 62
     5
420
      255
176
     1
290
     0
176
     1
 90
       50
176
     1
 90
       50
176
     1
 90
       50
176
     1
290
     0
176
     1
 90
       50
176
     1
 62
   256
176
     0
 40
1.0
176
     0
 90
        2
176
     1
  1
strokes_ogs.tif
176
     1
290
     0
176
     1
 40
1.0
176
     1
 40
1.0
176
     1
  0
VISUALSTYLE
  5
2E
102
{ACAD_REACTORS
330
29
102
}
330
29
100
AcDbVisualStyle
  2
Basic
 70
     7
177
     3
291
     1
 70
    58
 90
        1
176
     1
 90
        0
176
     1
 90
        1
176
     1
 90
        0
176
     1
 40
0.6
176
     1
 40
30.0
176
     1
 62
     7
420
 16777215
176
     1
 90
        0
176
     1
 90
        4
176
     1
 62
     7
176
     1
 62
   257
176
     1
 90
        1
176
     1
 90
        1
176
     1
 40
1.0
176
     1
 90
        8
176
     1
 62
     7
176
     1
 40
1.0
176
     1
 90
        1
176
     1
 90
        6
176
     1
 90
        2
176
     1
 62
     7
176
     1
 90
        5
176
     1
 90
        0
176
     1
 90
        0
176
     1
290
     0
176
     1
 90
        1
176
     1
 40
0.0
176
     1
 90
        0
176
     1
290
     0
176
     1
290
     1
176
     1
290
     1
176
     1
290
     0
176
     1
290
     0
176
     1
290
     0
176
     1
290
     0
176
     1
290
     0
176
     1
290
     0
176
     1
 90
       50
176
     1
 40
0.0
176
     1
 40
1.0
176
     1
 90
        0
176
     1
 62
    18
420
        0
176
     1
 90
       50
176
     1
 90
        3
176
     1
 62
     5
420
      255
176
     1
290
     0
176
     1
 90
       50
176
     1
 90
       50
176
     1
 90
       50
176
     1
290
     0
176
     1
 90
       50
176
     1
 62
   256
176
     0
 40
1.0
176
     0
 90
        2
176
     1
  1
strokes_ogs.tif
176
     1
290
     0
176
     1
 40
1.0
176
     1
 40
1.0
176
     1
  0
VISUALSTYLE
  5
35
102
{ACAD_REACTORS
330
29
102
}
330
29
100
AcDbVisualStyle
  2
Brighten
 70
    12
177
     3
291
     1
 70
    58
 90
        2
176
     1
 90
        2
176
     1
 90
        0
176
     1
 90
        0
176
     1
 40
0.6
176
     1
 40
30.0
176
     1
 62
     7
420
 16777215
176
     1
 90
        1
176
     1
 90
        4
176
     1
 62
     7
176
     1
 62
   257
176
     1
 90
        1
176
     1
 90
        1
176
     1
 40
1.0
176
     1
 90
        8
176
     1
 62
     7
176
     1
 40
1.0
176
     1
 90
        1
176
     1
 90
        6
176
     1
 90
        2
176
     1
 62
     7
176
     1
 90
        5
176
     1
 90
        0
176
     1
 90
        0
176
     1
290
     0
176
     1
 90
        1
176
     1
 40
50.0
176
     1
 90
        0
176
     1
290
     0
176
     1
290
     1
176
     1
290
     1
176
     1
290
     0
176
     1
290
     0
176
     1
290
     0
176
     1
290
     0
176
     1
290
     0
176
     1
290
     0
176
     1
 90
       50
176
     1
 40
0.0
176
     1
 40
1.0
176
     1
 90
        0
176
     1
 62
    18
420
        0
176
     1
 90
       50
176
     1
 90
        3
176
     1
 62
     5
420
      255
176
     1
290
     0
176
     1
 90
       50
176
     1
 90
       50
176
     1
 90
       50
176
     1
290
     0
176
     1
 90
       50
176
     1
 62
   256
176
     0
 40
1.0
176
     0
 90
        2
176
     1
  1
strokes_ogs.tif
176
     1
290
     0
176
     1
 40
1.0
176
     1
 40
1.0
176
     1
  0
VISUALSTYLE
  5
39
102
{ACAD_REACTORS
330
29
102
}
330
29
100
AcDbVisualStyle
  2
ColorChange
 70
    16
177
     3
291
     1
 70
    58
 90
        2
176
     1
 90
        2
176
     1
 90
        3
176
     1
 90
        0
176
     1
 40
0.6
176
     1
 40
30.0
176
     1
 62
     8
420
  8421504
176
     1
 90
        1
176
     1
 90
        4
176
     1
 62
     7
176
     1
 62
   257
176
     1
 90
        1
176
     1
 90
        1
176
     1
 40
1.0
176
     1
 90
        8
176
     1
 62
     8
420
  8421504
176
     1
 40
1.0
176
     1
 90
        1
176
     1
 90
        6
176
     1
 90
        2
176
     1
 62
     7
176
     1
 90
        5
176
     1
 90
        0
176
     1
 90
        0
176
     1
290
     0
176
     1
 90
        1
176
     1
 40
0.0
176
     1
 90
        0
176
     1
290
     0
176
     1
290
     1
176
     1
290
     1
176
     1
290
     0
176
     1
290
     0
176
     1
290
     0
176
     1
290
     0
176
     1
290
     0
176
     1
290
     0
176
     1
 90
       50
176
     1
 40
0.0
176
     1
 40
1.0
176
     1
 90
        0
176
     1
 62
    18
420
        0
176
     1
 90
       50
176
     1
 90
        3
176
     1
 62
     5
420
      255
176
     1
290
     0
176
     1
 90
       50
176
     1
 90
       50
176
     1
 90
       50
176
     1
290
     0
176
     1
 90
       50
176
     1
 62
   256
176
     0
 40
1.0
176
     0
 90
        2
176
     1
  1
strokes_ogs.tif
176
     1
290
     0
176
     1
 40
1.0
176
     1
 40
1.0
176
     1
  0
VISUALSTYLE
  5
32
102
{ACAD_REACTORS
330
29
102
}
330
29
100
AcDbVisualStyle
  2
Conceptual
 70
     9
177
     3
291
     0
 70
    58
 90
        3
176
     1
 90
        2
176
     1
 90
        0
176
     1
 90
        0
176
     1
 40
0.6
176
     1
 40
30.0
176
     1
 62
     7
420
 16777215
176
     1
 90
        2
176
     1
 90
        2
176
     1
 62
     7
176
     1
 62
   257
176
     1
 90
        1
176
     1
 90
        1
176
     1
 40
179.0
176
     1
 90
        8
176
     1
 62
     7
176
     1
 40
1.0
176
     1
 90
        1
176
     1
 90
        6
176
     1
 90
        2
176
     1
 62
     7
176
     1
 90
        3
176
     1
 90
        0
176
     1
 90
        0
176
     1
290
     0
176
     1
 90
        1
176
     1
 40
0.0
176
     1
 90
        0
176
     1
290
     0
176
     1
290
     1
176
     1
290
     1
176
     1
290
     0
176
     1
290
     0
176
     1
290
     0
176
     1
290
     0
176
     1
290
     0
176
     1
290
     0
176
     1
 90
       50
176
     1
 40
0.0
176
     1
 40
1.0
176
     1
 90
        0
176
     1
 62
    18
420
        0
176
     1
 90
       50
176
     1
 90
        3
176
     1
 62
     5
420
      255
176
     1
290
     0
176
     1
 90
       50
176
     1
 90
       50
176
     1
 90
       50
176
     1
290
     0
176
     1
 90
       50
176
     1
 62
   256
176
     0
 40
1.0
176
     0
 90
        2
176
     1
  1
strokes_ogs.tif
176
     1
290
     0
176
     1
 40
1.0
176
     1
 40
1.0
176
     1
  0
VISUALSTYLE
  5
34
102
{ACAD_REACTORS
330
29
102
}
330
29
100
AcDbVisualStyle
  2
Dim
 70
    11
177
     3
291
     1
 70
    58
 90
        2
176
     1
 90
        2
176
     1
 90
        0
176
     1
 90
        0
176
     1
 40
0.6
176
     1
 40
30.0
176
     1
 62
     7
420
 16777215
176
     1
 90
        1
176
     1
 90
        4
176
     1
 62
     7
176
     1
 62
   257
176
     1
 90
        1
176
     1
 90
        1
176
     1
 40
1.0
176
     1
 90
        8
176
     1
 62
     7
176
     1
 40
1.0
176
     1
 90
        1
176
     1
 90
        6
176
     1
 90
        2
176
     1
 62
     7
176
     1
 90
        5
176
     1
 90
        0
176
     1
 90
        0
176
     1
290
     0
176
     1
 90
        1
176
     1
 40
-50.0
176
     1
 90
        0
176
     1
290
     0
176
     1
290
     1
176
     1
290
     1
176
     1
290
     0
176
     1
290
     0
176
     1
290
     0
176
     1
290
     0
176
     1
290
     0
176
     1
290
     0
176
     1
 90
       50
176
     1
 40
0.0
176
     1
 40
1.0
176
     1
 90
        0
176
     1
 62
    18
420
        0
176
     1
 90
       50
176
     1
 90
        3
176
     1
 62
     5
420
      255
176
     1
290
     0
176
     1
 90
       50
176
     1
 90
       50
176
     1
 90
       50
176
     1
290
     0
176
     1
 90
       50
176
     1
 62
   256
176
     0
 40
1.0
176
     0
 90
        2
176
     1
  1
strokes_ogs.tif
176
     1
290
     0
176
     1
 40
1.0
176
     1
 40
1.0
176
     1
  0
VISUALSTYLE
  5
41
102
{ACAD_REACTORS
330
29
102
}
330
29
100
AcDbVisualStyle
  2
EdgeColorOff
 70
    22
177
     3
291
     1
 70
    58
 90
        2
176
     0
 90
        2
176
     0
 90
        0
176
     0
 90
        0
176
     0
 40
0.6
176
     0
 40
30.0
176
     0
 62
     7
420
 16777215
176
     0
 90
        1
176
     0
 90
        4
176
     0
 62
     7
176
     0
 62
   257
176
     0
 90
        1
176
     0
 90
        1
176
     0
 40
1.0
176
     0
 90
        8
176
     2
 62
     7
176
     0
 40
1.0
176
     0
 90
        1
176
     0
 90
        6
176
     0
 90
        2
176
     0
 62
     7
176
     0
 90
        5
176
     0
 90
        0
176
     0
 90
        0
176
     0
290
     0
176
     0
 90
        1
176
     0
 40
0.0
176
     0
 90
        0
176
     0
290
     0
176
     0
290
     1
176
     0
290
     1
176
     0
290
     0
176
     0
290
     0
176
     0
290
     0
176
     0
290
     0
176
     0
290
     0
176
     0
290
     0
176
     0
 90
       50
176
     0
 40
0.0
176
     0
 40
1.0
176
     0
 90
        0
176
     0
 62
    18
420
        0
176
     0
 90
       50
176
     0
 90
        3
176
     0
 62
     5
420
      255
176
     0
290
     0
176
     0
 90
       50
176
     0
 90
       50
176
     0
 90
       50
176
     0
290
     0
176
     0
 90
       50
176
     0
 62
   256
176
     0
 40
1.0
176
     0
 90
        2
176
     0
  1
strokes_ogs.tif
176
     0
290
     0
176
     0
 40
1.0
176
     0
 40
1.0
176
     0
  0
VISUALSTYLE
  5
38
102
{ACAD_REACTORS
330
29
102
}
330
29
100
AcDbVisualStyle
  2
Facepattern
 70
    15
177
     3
291
     1
 70
    58
 90
        2
176
     1
 90
        2
176
     1
 90
        0
176
     1
 90
        0
176
     1
 40
0.6
176
     1
 40
30.0
176
     1
 62
     7
420
 16777215
176
     1
 90
        1
176
     1
 90
        4
176
     1
 62
     7
176
     1
 62
   257
176
     1
 90
        1
176
     1
 90
        1
176
     1
 40
1.0
176
     1
 90
        8
176
     1
 62
     7
176
     1
 40
1.0
176
     1
 90
        1
176
     1
 90
        6
176
     1
 90
        2
176
     1
 62
     7
176
     1
 90
        5
176
     1
 90
        0
176
     1
 90
        0
176
     1
290
     0
176
     1
 90
        1
176
     1
 40
0.0
176
     1
 90
        0
176
     1
290
     0
176
     1
290
     1
176
     1
290
     1
176
     1
290
     0
176
     1
290
     0
176
     1
290
     0
176
     1
290
     0
176
     1
290
     0
176
     1
290
     0
176
     1
 90
       50
176
     1
 40
0.0
176
     1
 40
1.0
176
     1
 90
        0
176
     1
 62
    18
420
        0
176
     1
 90
       50
176
     1
 90
        3
176
     1
 62
     5
420
      255
176
     1
290
     0
176
     1
 90
       50
176
     1
 90
       50
176
     1
 90
       50
176
     1
290
     0
176
     1
 90
       50
176
     1
 62
   256
176
     0
 40
1.0
176
     0
 90
        2
176
     1
  1
strokes_ogs.tif
176
     1
290
     0
176
     1
 40
1.0
176
     1
 40
1.0
176
     1
  0
VISUALSTYLE
  5
2A
102
{ACAD_REACTORS
330
29
102
}
330
29
100
AcDbVisualStyle
  2
Flat
 70
     0
177
     3
291
     1
 70
    58
 90
        2
176
     1
 90
        1
176
     1
 90
        1
176
     1
 90
        2
176
     1
 40
0.6
176
     1
 40
30.0
176
     1
 62
     7
420
 16777215
176
     1
 90
        0
176
     1
 90
        0
176
     1
 62
     7
176
     1
 62
   257
176
     1
 90
        1
176
     1
 90
        1
176
     1
 40
1.0
176
     1
 90
        8
176
     1
 62
     7
176
     1
 40
1.0
176
     1
 90
        1
176
     1
 90
        6
176
     1
 90
        2
176
     1
 62
     7
176
     1
 90
        5
176
     1
 90
        0
176
     1
 90
        0
176
     1
290
     0
176
     1
 90
       13
176
     1
 40
0.0
176
     1
 90
        0
176
     1
290
     0
176
     1
290
     1
176
     1
290
     1
176
     1
290
     0
176
     1
290
     0
176
     1
290
     0
176
     1
290
     0
176
     1
290
     0
176
     1
290
     0
176
     1
 90
       50
176
     1
 40
0.0
176
     1
 40
1.0
176
     1
 90
        0
176
     1
 62
    18
420
        0
176
     1
 90
       50
176
     1
 90
        3
176
     1
 62
     5
420
      255
176
     1
290
     0
176
     1
 90
       50
176
     1
 90
       50
176
     1
 90
       50
176
     1
290
     0
176
     1
 90
       50
176
     1
 62
   256
176
     0
 40
1.0
176
     0
 90
        2
176
     1
  1
strokes_ogs.tif
176
     1
290
     0
176
     1
 40
1.0
176
     1
 40
1.0
176
     1
  0
VISUALSTYLE
  5
2B
102
{ACAD_REACTORS
330
29
102
}
330
29
100
AcDbVisualStyle
  2
FlatWithEdges
 70
     1
177
     3
291
     1
 70
    58
 90
        2
176
     1
 90
        1
176
     1
 90
        1
176
     1
 90
        2
176
     1
 40
0.6
176
     1
 40
30.0
176
     1
 62
     7
420
 16777215
176
     1
 90
        1
176
     1
 90
        0
176
     1
 62
     7
176
     1
 62
   257
176
     1
 90
        1
176
     1
 90
        1
176
     1
 40
1.0
176
     1
 90
        0
176
     1
 62
   257
176
     1
 40
1.0
176
     1
 90
        1
176
     1
 90
        6
176
     1
 90
        2
176
     1
 62
     7
176
     1
 90
        5
176
     1
 90
        0
176
     1
 90
        0
176
     1
290
     0
176
     1
 90
       13
176
     1
 40
0.0
176
     1
 90
        0
176
     1
290
     0
176
     1
290
     1
176
     1
290
     1
176
     1
290
     0
176
     1
290
     0
176
     1
290
     0
176
     1
290
     0
176
     1
290
     0
176
     1
290
     0
176
     1
 90
       50
176
     1
 40
0.0
176
     1
 40
1.0
176
     1
 90
        0
176
     1
 62
    18
420
        0
176
     1
 90
       50
176
     1
 90
        3
176
     1
 62
     5
420
      255
176
     1
290
     0
176
     1
 90
       50
176
     1
 90
       50
176
     1
 90
       50
176
     1
290
     0
176
     1
 90
       50
176
     1
 62
   256
176
     0
 40
1.0
176
     0
 90
        2
176
     1
  1
strokes_ogs.tif
176
     1
290
     0
176
     1
 40
1.0
176
     1
 40
1.0
176
     1
  0
VISUALSTYLE
  5
2C
102
{ACAD_REACTORS
330
29
102
}
330
29
100
AcDbVisualStyle
  2
Gouraud
 70
     2
177
     3
291
     1
 70
    58
 90
        2
176
     1
 90
        2
176
     1
 90
        1
176
     1
 90
        2
176
     1
 40
0.6
176
     1
 40
30.0
176
     1
 62
     7
420
 16777215
176
     1
 90
        0
176
     1
 90
        0
176
     1
 62
     7
176
     1
 62
   257
176
     1
 90
        1
176
     1
 90
        1
176
     1
 40
1.0
176
     1
 90
        0
176
     1
 62
     7
176
     1
 40
1.0
176
     1
 90
        1
176
     1
 90
        6
176
     1
 90
        2
176
     1
 62
     7
176
     1
 90
        5
176
     1
 90
        0
176
     1
 90
        0
176
     1
290
     0
176
     1
 90
       13
176
     1
 40
0.0
176
     1
 90
        0
176
     1
290
     0
176
     1
290
     1
176
     1
290
     1
176
     1
290
     0
176
     1
290
     0
176
     1
290
     0
176
     1
290
     0
176
     1
290
     0
176
     1
290
     0
176
     1
 90
       50
176
     1
 40
0.0
176
     1
 40
1.0
176
     1
 90
        0
176
     1
 62
    18
420
        0
176
     1
 90
       50
176
     1
 90
        3
176
     1
 62
     5
420
      255
176
     1
290
     0
176
     1
 90
       50
176
     1
 90
       50
176
     1
 90
       50
176
     1
290
     0
176
     1
 90
       50
176
     1
 62
   256
176
     0
 40
1.0
176
     0
 90
        2
176
     1
  1
strokes_ogs.tif
176
     1
290
     0
176
     1
 40
1.0
176
     1
 40
1.0
176
     1
  0
VISUALSTYLE
  5
2D
102
{ACAD_REACTORS
330
29
102
}
330
29
100
AcDbVisualStyle
  2
GouraudWithEdges
 70
     3
177
     3
291
     1
 70
    58
 90
        2
176
     1
 90
        2
176
     1
 90
        1
176
     1
 90
        2
176
     1
 40
0.6
176
     1
 40
30.0
176
     1
 62
     7
420
 16777215
176
     1
 90
        1
176
     1
 90
        0
176
     1
 62
     7
176
     1
 62
   257
176
     1
 90
        1
176
     1
 90
        1
176
     1
 40
1.0
176
     1
 90
        0
176
     1
 62
   257
176
     1
 40
1.0
176
     1
 90
        1
176
     1
 90
        6
176
     1
 90
        2
176
     1
 62
     7
176
     1
 90
        5
176
     1
 90
        0
176
     1
 90
        0
176
     1
290
     0
176
     1
 90
       13
176
     1
 40
0.0
176
     1
 90
        0
176
     1
290
     0
176
     1
290
     1
176
     1
290
     1
176
     1
290
     0
176
     1
290
     0
176
     1
290
     0
176
     1
290
     0
176
     1
290
     0
176
     1
290
     0
176
     1
 90
       50
176
     1
 40
0.0
176
     1
 40
1.0
176
     1
 90
        0
176
     1
 62
    18
420
        0
176
     1
 90
       50
176
     1
 90
        3
176
     1
 62
     5
420
      255
176
     1
290
     0
176
     1
 90
       50
176
     1
 90
       50
176
     1
 90
       50
176
     1
290
     0
176
     1
 90
       50
176
     1
 62
   256
176
     0
 40
1.0
176
     0
 90
        2
176
     1
  1
strokes_ogs.tif
176
     1
290
     0
176
     1
 40
1.0
176
     1
 40
1.0
176
     1
  0
VISUALSTYLE
  5
31
102
{ACAD_REACTORS
330
29
102
}
330
29
100
AcDbVisualStyle
  2
Hidden
 70
     6
177
     3
291
     0
 70
    58
 90
        1
176
     1
 90
        2
176
     1
 90
        2
176
     1
 90
        0
176
     1
 40
0.6
176
     1
 40
30.0
176
     1
 62
     7
420
 16777215
176
     1
 90
        2
176
     1
 90
        2
176
     1
 62
     7
176
     1
 62
   257
176
     1
 90
        2
176
     1
 90
        1
176
     1
 40
40.0
176
     1
 90
        0
176
     1
 62
   257
176
     1
 40
1.0
176
     1
 90
        1
176
     1
 90
        6
176
     1
 90
        2
176
     1
 62
     7
176
     1
 90
        3
176
     1
 90
        0
176
     1
 90
        0
176
     1
290
     0
176
     1
 90
        1
176
     1
 40
0.0
176
     1
 90
        0
176
     1
290
     0
176
     1
290
     1
176
     1
290
     1
176
     1
290
     0
176
     1
290
     0
176
     1
290
     0
176
     1
290
     0
176
     1
290
     0
176
     1
290
     0
176
     1
 90
       50
176
     1
 40
0.0
176
     1
 40
1.0
176
     1
 90
        0
176
     1
 62
    18
420
        0
176
     1
 90
       50
176
     1
 90
        3
176
     1
 62
     5
420
      255
176
     1
290
     0
176
     1
 90
       50
176
     1
 90
       50
176
     1
 90
       50
176
     1
290
     0
176
     1
 90
       50
176
     1
 62
   256
176
     0
 40
1.0
176
     0
 90
        2
176
     1
  1
strokes_ogs.tif
176
     1
290
     0
176
     1
 40
1.0
176
     1
 40
1.0
176
     1
  0
VISUALSTYLE
  5
3F
102
{ACAD_REACTORS
330
29
102
}
330
29
100
AcDbVisualStyle
  2
JitterOff
 70
    20
177
     3
291
     1
 70
    58
 90
        2
176
     0
 90
        2
176
     0
 90
        0
176
     0
 90
        0
176
     0
 40
0.6
176
     0
 40
30.0
176
     0
 62
     7
420
 16777215
176
     0
 90
        1
176
     0
 90
        4
176
     0
 62
     7
176
     0
 62
   257
176
     0
 90
        1
176
     0
 90
        1
176
     0
 40
1.0
176
     0
 90
       10
176
     2
 62
     7
176
     0
 40
1.0
176
     0
 90
        1
176
     0
 90
        6
176
     0
 90
        2
176
     0
 62
     7
176
     0
 90
        5
176
     0
 90
        0
176
     0
 90
        0
176
     0
290
     0
176
     0
 90
        1
176
     0
 40
0.0
176
     0
 90
        0
176
     0
290
     0
176
     0
290
     1
176
     0
290
     1
176
     0
290
     0
176
     0
290
     0
176
     0
290
     0
176
     0
290
     0
176
     0
290
     0
176
     0
290
     0
176
     0
 90
       50
176
     0
 40
0.0
176
     0
 40
1.0
176
     0
 90
        0
176
     0
 62
    18
420
        0
176
     0
 90
       50
176
     0
 90
        3
176
     0
 62
     5
420
      255
176
     0
290
     0
176
     0
 90
       50
176
     0
 90
       50
176
     0
 90
       50
176
     0
290
     0
176
     0
 90
       50
176
     0
 62
   256
176
     0
 40
1.0
176
     0
 90
        2
176
     0
  1
strokes_ogs.tif
176
     0
290
     0
176
     0
 40
1.0
176
     0
 40
1.0
176
     0
  0
VISUALSTYLE
  5
37
102
{ACAD_REACTORS
330
29
102
}
330
29
100
AcDbVisualStyle
  2
Linepattern
 70
    14
177
     3
291
     1
 70
    58
 90
        2
176
     1
 90
        2
176
     1
 90
        0
176
     1
 90
        0
176
     1
 40
0.6
176
     1
 40
30.0
176
     1
 62
     7
420
 16777215
176
     1
 90
        1
176
     1
 90
        4
176
     1
 62
     7
176
     1
 62
   257
176
     1
 90
        7
176
     1
 90
        7
176
     1
 40
1.0
176
     1
 90
        8
176
     1
 62
     7
176
     1
 40
1.0
176
     1
 90
        1
176
     1
 90
        6
176
     1
 90
        2
176
     1
 62
     7
176
     1
 90
        5
176
     1
 90
        0
176
     1
 90
        0
176
     1
290
     0
176
     1
 90
        1
176
     1
 40
0.0
176
     1
 90
        0
176
     1
290
     0
176
     1
290
     1
176
     1
290
     1
176
     1
290
     0
176
     1
290
     0
176
     1
290
     0
176
     1
290
     0
176
     1
290
     0
176
     1
290
     0
176
     1
 90
       50
176
     1
 40
0.0
176
     1
 40
1.0
176
     1
 90
        0
176
     1
 62
    18
420
        0
176
     1
 90
       50
176
     1
 90
        3
176
     1
 62
     5
420
      255
176
     1
290
     0
176
     1
 90
       50
176
     1
 90
       50
176
     1
 90
       50
176
     1
290
     0
176
     1
 90
       50
176
     1
 62
   256
176
     0
 40
1.0
176
     0
 90
        2
176
     1
  1
strokes_ogs.tif
176
     1
290
     0
176
     1
 40
1.0
176
     1
 40
1.0
176
     1
  0
VISUALSTYLE
  5
40
102
{ACAD_REACTORS
330
29
102
}
330
29
100
AcDbVisualStyle
  2
OverhangOff
 70
    21
177
     3
291
     1
 70
    58
 90
        2
176
     0
 90
        2
176
     0
 90
        0
176
     0
 90
        0
176
     0
 40
0.6
176
     0
 40
30.0
176
     0
 62
     7
420
 16777215
176
     0
 90
        1
176
     0
 90
        4
176
     0
 62
     7
176
     0
 62
   257
176
     0
 90
        1
176
     0
 90
        1
176
     0
 40
1.0
176
     0
 90
        9
176
     2
 62
     7
176
     0
 40
1.0
176
     0
 90
        1
176
     0
 90
        6
176
     0
 90
        2
176
     0
 62
     7
176
     0
 90
        5
176
     0
 90
        0
176
     0
 90
        0
176
     0
290
     0
176
     0
 90
        1
176
     0
 40
0.0
176
     0
 90
        0
176
     0
290
     0
176
     0
290
     1
176
     0
290
     1
176
     0
290
     0
176
     0
290
     0
176
     0
290
     0
176
     0
290
     0
176
     0
290
     0
176
     0
290
     0
176
     0
 90
       50
176
     0
 40
0.0
176
     0
 40
1.0
176
     0
 90
        0
176
     0
 62
    18
420
        0
176
     0
 90
       50
176
     0
 90
        3
176
     0
 62
     5
420
      255
176
     0
290
     0
176
     0
 90
       50
176
     0
 90
       50
176
     0
 90
       50
176
     0
290
     0
176
     0
 90
       50
176
     0
 62
   256
176
     0
 40
1.0
176
     0
 90
        2
176
     0
  1
strokes_ogs.tif
176
     0
290
     0
176
     0
 40
1.0
176
     0
 40
1.0
176
     0
  0
VISUALSTYLE
  5
33
102
{ACAD_REACTORS
330
29
102
}
330
29
100
AcDbVisualStyle
  2
Realistic
 70
     8
177
     3
291
     0
 70
    58
 90
        2
176
     1
 90
        3
176
     1
 90
        0
176
     1
 90
        2
176
     1
 40
0.6
176
     1
 40
30.0
176
     1
 62
     7
420
 16777215
176
     1
 90
        0
176
     1
 90
        0
176
     1
 62
     7
176
     1
 62
   257
176
     1
 90
        1
176
     1
 90
        1
176
     1
 40
1.0
176
     1
 90
        8
176
     1
 62
   257
176
     1
 40
1.0
176
     1
 90
        1
176
     1
 90
        6
176
     1
 90
        2
176
     1
 62
     7
176
     1
 90
        3
176
     1
 90
        0
176
     1
 90
        0
176
     1
290
     0
176
     1
 90
       13
176
     1
 40
0.0
176
     1
 90
        0
176
     1
290
     0
176
     1
290
     1
176
     1
290
     1
176
     1
290
     0
176
     1
290
     0
176
     1
290
     0
176
     1
290
     0
176
     1
290
     0
176
     1
290
     0
176
     1
 90
       50
176
     1
 40
0.0
176
     1
 40
1.0
176
     1
 90
        0
176
     1
 62
    18
420
        0
176
     1
 90
       50
176
     1
 90
        3
176
     1
 62
     5
420
      255
176
     1
290
     0
176
     1
 90
       50
176
     1
 90
       50
176
     1
 90
       50
176
     1
290
     0
176
     1
 90
       50
176
     1
 62
   256
176
     0
 40
1.0
176
     0
 90
        2
176
     1
  1
strokes_ogs.tif
176
     1
290
     0
176
     1
 40
1.0
176
     1
 40
1.0
176
     1
  0
VISUALSTYLE
  5
3E
102
{ACAD_REACTORS
330
29
102
}
330
29
100
AcDbVisualStyle
  2
Shaded
 70
    27
177
     3
291
     0
 70
    58
 90
        2
176
     1
 90
        2
176
     1
 90
        1
176
     1
 90
        2
176
     1
 40
0.6
176
     1
 40
30.0
176
     1
 62
     7
420
 16777215
176
     1
 90
        0
176
     1
 90
        4
176
     1
 62
     7
176
     1
 62
   257
176
     1
 90
        1
176
     1
 90
        1
176
     1
 40
1.0
176
     1
 90
        8
176
     1
 62
   257
176
     1
 40
1.0
176
     1
 90
        1
176
     1
 90
        6
176
     1
 90
        2
176
     1
 62
     8
420
  7895160
176
     1
 90
        3
176
     1
 90
        0
176
     1
 90
        0
176
     1
290
     0
176
     1
 90
        5
176
     1
 40
0.0
176
     1
 90
        0
176
     1
290
     0
176
     1
290
     1
176
     1
290
     1
176
     1
290
     0
176
     1
290
     0
176
     1
290
     0
176
     1
290
     0
176
     1
290
     0
176
     1
290
     0
176
     1
 90
       50
176
     1
 40
0.0
176
     1
 40
1.0
176
     1
 90
        0
176
     1
 62
    18
420
        0
176
     1
 90
       50
176
     1
 90
        3
176
     1
 62
     5
420
      255
176
     1
290
     0
176
     1
 90
       50
176
     1
 90
       50
176
     1
 90
       50
176
     1
290
     0
176
     1
 90
       50
176
     1
 62
   256
176
     0
 40
1.0
176
     0
 90
        2
176
     1
  1
strokes_ogs.tif
176
     1
290
     0
176
     1
 40
1.0
176
     1
 40
1.0
176
     1
  0
VISUALSTYLE
  5
3D
102
{ACAD_REACTORS
330
29
102
}
330
29
100
AcDbVisualStyle
  2
Shaded with edges
 70
    26
177
     3
291
     0
 70
    58
 90
        2
176
     1
 90
        2
176
     1
 90
        1
176
     1
 90
        2
176
     1
 40
0.6
176
     1
 40
30.0
176
     1
 62
     7
420
 16777215
176
     1
 90
        1
176
     1
 90
        2
176
     1
 62
     7
176
     1
 62
   257
176
     1
 90
        2
176
     1
 90
        1
176
     1
 40
1.0
176
     1
 90
        8
176
     1
 62
   257
176
     1
 40
1.0
176
     1
 90
        1
176
     1
 90
        6
176
     1
 90
        2
176
     1
 62
     7
176
     1
 90
        3
176
     1
 90
        0
176
     1
 90
        0
176
     1
290
     0
176
     1
 90
        5
176
     1
 40
0.0
176
     1
 90
        0
176
     1
290
     0
176
     1
290
     1
176
     1
290
     1
176
     1
290
     0
176
     1
290
     0
176
     1
290
     0
176
     1
290
     0
176
     1
290
     0
176
     1
290
     0
176
     1
 90
       50
176
     1
 40
0.0
176
     1
 40
1.0
176
     1
 90
        0
176
     1
 62
    18
420
        0
176
     1
 90
       50
176
     1
 90
        3
176
     1
 62
     5
420
      255
176
     1
290
     0
176
     1
 90
       50
176
     1
 90
       50
176
     1
 90
       50
176
     1
290
     0
176
     1
 90
       50
176
     1
 62
   256
176
     0
 40
1.0
176
     0
 90
        2
176
     1
  1
strokes_ogs.tif
176
     1
290
     0
176
     1
 40
1.0
176
     1
 40
1.0
176
     1
  0
VISUALSTYLE
  5
3A
102
{ACAD_REACTORS
330
29
102
}
330
29
100
AcDbVisualStyle
  2
Shades of Gray
 70
    23
177
     3
291
     0
 70
    58
 90
        2
176
     1
 90
        2
176
     1
 90
        3
176
     1
 90
        0
176
     1
 40
0.6
176
     1
 40
30.0
176
     1
 62
     7
420
 16777215
176
     1
 90
        2
176
     1
 90
        2
176
     1
 62
     7
176
     1
 62
     7
176
     1
 90
        1
176
     1
 90
        1
176
     1
 40
40.0
176
     1
 90
        8
176
     1
 62
     7
176
     1
 40
1.0
176
     1
 90
        1
176
     1
 90
        6
176
     1
 90
        2
176
     1
 62
     7
176
     1
 90
        3
176
     1
 90
        0
176
     1
 90
        0
176
     1
290
     0
176
     1
 90
        1
176
     1
 40
0.0
176
     1
 90
        0
176
     1
290
     0
176
     1
290
     1
176
     1
290
     1
176
     1
290
     0
176
     1
290
     0
176
     1
290
     0
176
     1
290
     0
176
     1
290
     0
176
     1
290
     0
176
     1
 90
       50
176
     1
 40
0.0
176
     1
 40
1.0
176
     1
 90
        0
176
     1
 62
    18
420
        0
176
     1
 90
       50
176
     1
 90
        3
176
     1
 62
     5
420
      255
176
     1
290
     0
176
     1
 90
       50
176
     1
 90
       50
176
     1
 90
       50
176
     1
290
     0
176
     1
 90
       50
176
     1
 62
   256
176
     0
 40
1.0
176
     0
 90
        2
176
     1
  1
strokes_ogs.tif
176
     1
290
     0
176
     1
 40
1.0
176
     1
 40
1.0
176
     1
  0
VISUALSTYLE
  5
3B
102
{ACAD_REACTORS
330
29
102
}
330
29
100
AcDbVisualStyle
  2
Sketchy
 70
    24
177
     3
291
     0
 70
    58
 90
        1
176
     1
 90
        2
176
     1
 90
        2
176
     1
 90
        0
176
     1
 40
0.6
176
     1
 40
30.0
176
     1
 62
     7
420
 16777215
176
     1
 90
        2
176
     1
 90
        2
176
     1
 62
     7
176
     1
 62
     7
176
     1
 90
        1
176
     1
 90
        1
176
     1
 40
40.0
176
     1
 90
       11
176
     1
 62
     7
176
     1
 40
1.0
176
     1
 90
        1
176
     1
 90
        6
176
     1
 90
        2
176
     1
 62
     7
176
     1
 90
        6
176
     1
 90
        0
176
     1
 90
        0
176
     1
290
     0
176
     1
 90
        1
176
     1
 40
0.0
176
     1
 90
        0
176
     1
290
     0
176
     1
290
     1
176
     1
290
     1
176
     1
290
     0
176
     1
290
     0
176
     1
290
     0
176
     1
290
     0
176
     1
290
     0
176
     1
290
     0
176
     1
 90
       50
176
     1
 40
0.0
176
     1
 40
1.0
176
     1
 90
        0
176
     1
 62
    18
420
        0
176
     1
 90
       50
176
     1
 90
        3
176
     1
 62
     5
420
      255
176
     1
290
     0
176
     1
 90
       50
176
     1
 90
       50
176
     1
 90
       50
176
     1
290
     0
176
     1
 90
       50
176
     1
 62
   256
176
     0
 40
1.0
176
     0
 90
        2
176
     1
  1
strokes_ogs.tif
176
     1
290
     0
176
     1
 40
1.0
176
     1
 40
1.0
176
     1
  0
VISUALSTYLE
  5
36
102
{ACAD_REACTORS
330
29
102
}
330
29
100
AcDbVisualStyle
  2
Thicken
 70
    13
177
     3
291
     1
 70
    58
 90
        2
176
     1
 90
        2
176
     1
 90
        0
176
     1
 90
        0
176
     1
 40
0.6
176
     1
 40
30.0
176
     1
 62
     7
420
 16777215
176
     1
 90
        1
176
     1
 90
        4
176
     1
 62
     7
176
     1
 62
   257
176
     1
 90
        1
176
     1
 90
        1
176
     1
 40
1.0
176
     1
 90
       12
176
     1
 62
     7
176
     1
 40
1.0
176
     1
 90
        1
176
     1
 90
        6
176
     1
 90
        2
176
     1
 62
     7
176
     1
 90
        5
176
     1
 90
        0
176
     1
 90
        0
176
     1
290
     0
176
     1
 90
        1
176
     1
 40
0.0
176
     1
 90
        0
176
     1
290
     0
176
     1
290
     1
176
     1
290
     1
176
     1
290
     0
176
     1
290
     0
176
     1
290
     0
176
     1
290
     0
176
     1
290
     0
176
     1
290
     0
176
     1
 90
       50
176
     1
 40
0.0
176
     1
 40
1.0
176
     1
 90
        0
176
     1
 62
    18
420
        0
176
     1
 90
       50
176
     1
 90
        3
176
     1
 62
     5
420
      255
176
     1
290
     0
176
     1
 90
       50
176
     1
 90
       50
176
     1
 90
       50
176
     1
290
     0
176
     1
 90
       50
176
     1
 62
   256
176
     0
 40
1.0
176
     0
 90
        2
176
     1
  1
strokes_ogs.tif
176
     1
290
     0
176
     1
 40
1.0
176
     1
 40
1.0
176
     1
  0
VISUALSTYLE
  5
30
102
{ACAD_REACTORS
330
29
102
}
330
29
100
AcDbVisualStyle
  2
Wireframe
 70
     5
177
     3
291
     0
 70
    58
 90
        0
176
     1
 90
        2
176
     1
 90
        0
176
     1
 90
        0
176
     1
 40
0.6
176
     1
 40
30.0
176
     1
 62
     7
420
 16777215
176
     1
 90
        1
176
     1
 90
        4
176
     1
 62
     7
176
     1
 62
   257
176
     1
 90
        1
176
     1
 90
        1
176
     1
 40
1.0
176
     1
 90
        0
176
     1
 62
   257
176
     1
 40
1.0
176
     1
 90
        1
176
     1
 90
        6
176
     1
 90
        2
176
     1
 62
     7
176
     1
 90
        3
176
     1
 90
        0
176
     1
 90
        0
176
     1
290
     0
176
     1
 90
        1
176
     1
 40
0.0
176
     1
 90
        0
176
     1
290
     0
176
     1
290
     1
176
     1
290
     1
176
     1
290
     0
176
     1
290
     0
176
     1
290
     0
176
     1
290
     0
176
     1
290
     0
176
     1
290
     0
176
     1
 90
       50
176
     1
 40
0.0
176
     1
 40
1.0
176
     1
 90
        0
176
     1
 62
    18
420
        0
176
     1
 90
       50
176
     1
 90
        3
176
     1
 62
     5
420
      255
176
     1
290
     0
176
     1
 90
       50
176
     1
 90
       50
176
     1
 90
       50
176
     1
290
     0
176
     1
 90
       50
176
     1
 62
   256
176
     0
 40
1.0
176
     0
 90
        2
176
     1
  1
strokes_ogs.tif
176
     1
290
     0
176
     1
 40
1.0
176
     1
 40
1.0
176
     1
  0
VISUALSTYLE
  5
3C
102
{ACAD_REACTORS
330
29
102
}
330
29
100
AcDbVisualStyle
  2
X-Ray
 70
    25
177
     3
291
     0
 70
    58
 90
        2
176
     1
 90
        2
176
     1
 90
        1
176
     1
 90
        1
176
     1
 40
0.5
176
     1
 40
30.0
176
     1
 62
     7
420
 16777215
176
     1
 90
        1
176
     1
 90
        0
176
     1
 62
     7
176
     1
 62
   257
176
     1
 90
        1
176
     1
 90
        1
176
     1
 40
1.0
176
     1
 90
        8
176
     1
 62
     7
176
     1
 40
1.0
176
     1
 90
        1
176
     1
 90
        6
176
     1
 90
        2
176
     1
 62
     7
176
     1
 90
        3
176
     1
 90
        0
176
     1
 90
        0
176
     1
290
     0
176
     1
 90
       13
176
     1
 40
0.0
176
     1
 90
        0
176
     1
290
     0
176
     1
290
     1
176
     1
290
     1
176
     1
290
     0
176
     1
290
     0
176
     1
290
     0
176
     1
290
     0
176
     1
290
     0
176
     1
290
     0
176
     1
 90
       50
176
     1
 40
0.0
176
     1
 40
1.0
176
     1
 90
        0
176
     1
 62
    18
420
        0
176
     1
 90
       50
176
     1
 90
        3
176
     1
 62
     5
420
      255
176
     1
290
     0
176
     1
 90
       50
176
     1
 90
       50
176
     1
 90
       50
176
     1
290
     0
176
     1
 90
       50
176
     1
 62
   256
176
     0
 40
1.0
176
     0
 90
        2
176
     1
  1
strokes_ogs.tif
176
     1
290
     0
176
     1
 40
1.0
176
     1
 40
1.0
176
     1
  0
DICTIONARYVAR
  5
CA
102
{ACAD_REACTORS
330
C5
102
}
330
C5
100
DictionaryVariables
280
     0
  1
1:1
  0
DICTIONARYVAR
  5
C7
102
{ACAD_REACTORS
330
C5
102
}
330
C5
100
DictionaryVariables
280
     0
  1
STANDARD
  0
DICTIONARYVAR
  5
C6
102
{ACAD_REACTORS
330
C5
102
}
330
C5
100
DictionaryVariables
280
     0
  1
STANDARD
  0
DICTIONARYVAR
  5
C8
102
{ACAD_REACTORS
330
C5
102
}
330
C5
100
DictionaryVariables
280
     0
  1
Imperial24
  0
DICTIONARYVAR
  5
C9
102
{ACAD_REACTORS
330
C5
102
}
330
C5
100
DictionaryVariables
280
     0
  1
Imperial24
  0
DICTIONARY
  5
1A
330
19
100
AcDbDictionary
280
     1
281
     1
  3
BUMPTILE
360
1C
  3
DIFFUSETILE
360
1B
  3
OPACITYTILE
360
1F
  3
REFLECTIONTILE
360
1E
  3
REFRACTIONTILE
360
20
  3
SPECULARTILE
360
1D
  0
DICTIONARY
  5
12
330
11
100
AcDbDictionary
280
     1
281
     1
  3
BUMPTILE
360
14
  3
DIFFUSETILE
360
13
  3
OPACITYTILE
360
17
  3
REFLECTIONTILE
360
16
  3
REFRACTIONTILE
360
18
  3
SPECULARTILE
360
15
  0
DICTIONARY
  5
22
330
21
100
AcDbDictionary
280
     1
281
     1
  3
BUMPTILE
360
24
  3
DIFFUSETILE
360
23
  3
OPACITYTILE
360
27
  3
REFLECTIONTILE
360
26
  3
REFRACTIONTILE
360
28
  3
SPECULARTILE
360
25
  0
DICTIONARY
  5
CB
330
65
100
AcDbDictionary
280
     1
281
     1
  3
ACAD_ROUNDTRIP_2008_TABLESTYLE_CELLSTYLEMAP
360
CC
  0
XRECORD
  5
1C
102
{ACAD_REACTORS
330
1A
102
}
330
1A
100
AcDbXrecord
280
     1
270
     1
271
     1
  0
XRECORD
  5
1B
102
{ACAD_REACTORS
330
1A
102
}
330
1A
100
AcDbXrecord
280
     1
270
     1
271
     1
  0
XRECORD
  5
1F
102
{ACAD_REACTORS
330
1A
102
}
330
1A
100
AcDbXrecord
280
     1
270
     1
271
     1
  0
XRECORD
  5
1E
102
{ACAD_REACTORS
330
1A
102
}
330
1A
100
AcDbXrecord
280
     1
270
     1
271
     1
  0
XRECORD
  5
20
102
{ACAD_REACTORS
330
1A
102
}
330
1A
100
AcDbXrecord
280
     1
270
     1
271
     1
  0
XRECORD
  5
1D
102
{ACAD_REACTORS
330
1A
102
}
330
1A
100
AcDbXrecord
280
     1
270
     1
271
     1
  0
XRECORD
  5
14
102
{ACAD_REACTORS
330
12
102
}
330
12
100
AcDbXrecord
280
     1
270
     1
271
     1
  0
XRECORD
  5
13
102
{ACAD_REACTORS
330
12
102
}
330
12
100
AcDbXrecord
280
     1
270
     1
271
     1
  0
XRECORD
  5
17
102
{ACAD_REACTORS
330
12
102
}
330
12
100
AcDbXrecord
280
     1
270
     1
271
     1
  0
XRECORD
  5
16
102
{ACAD_REACTORS
330
12
102
}
330
12
100
AcDbXrecord
280
     1
270
     1
271
     1
  0
XRECORD
  5
18
102
{ACAD_REACTORS
330
12
102
}
330
12
100
AcDbXrecord
280
     1
270
     1
271
     1
  0
XRECORD
  5
15
102
{ACAD_REACTORS
330
12
102
}
330
12
100
AcDbXrecord
280
     1
270
     1
271
     1
  0
XRECORD
  5
24
102
{ACAD_REACTORS
330
22
102
}
330
22
100
AcDbXrecord
280
     1
270
     1
271
     1
  0
XRECORD
  5
23
102
{ACAD_REACTORS
330
22
102
}
330
22
100
AcDbXrecord
280
     1
270
     1
271
     1
  0
XRECORD
  5
27
102
{ACAD_REACTORS
330
22
102
}
330
22
100
AcDbXrecord
280
     1
270
     1
271
     1
  0
XRECORD
  5
26
102
{ACAD_REACTORS
330
22
102
}
330
22
100
AcDbXrecord
280
     1
270
     1
271
     1
  0
XRECORD
  5
28
102
{ACAD_REACTORS
330
22
102
}
330
22
100
AcDbXrecord
280
     1
270
     1
271
     1
  0
XRECORD
  5
25
102
{ACAD_REACTORS
330
22
102
}
330
22
100
AcDbXrecord
280
     1
270
     1
271
     1
  0
CELLSTYLEMAP
  5
CC
102
{ACAD_REACTORS
330
CB
102
}
330
CB
100
AcDbCellStyleMap
 90
        3
300
CELLSTYLE
  1
TABLEFORMAT_BEGIN
 90
        5
170
     1
 91
        0
 92
    32768
 62
   257
 93
        1
300
CONTENTFORMAT
  1
CONTENTFORMAT_BEGIN
 90
        0
 91
        0
 92
      512
 93
        0
300

 40
0.0
140
1.0
 94
        5
 62
     0
340
55
144
0.25
309
CONTENTFORMAT_END
171
     0
 94
        0
309
TABLEFORMAT_END
  1
CELLSTYLE_BEGIN
 90
        1
 91
        1
300
_TITLE
309
CELLSTYLE_END
300
CELLSTYLE
  1
TABLEFORMAT_BEGIN
 90
        5
170
     1
 91
        0
 92
        0
 62
   257
 93
        1
300
CONTENTFORMAT
  1
CONTENTFORMAT_BEGIN
 90
        0
 91
        0
 92
      512
 93
        0
300

 40
0.0
140
1.0
 94
        5
 62
     0
340
55
144
0.18
309
CONTENTFORMAT_END
171
     0
 94
        0
309
TABLEFORMAT_END
  1
CELLSTYLE_BEGIN
 90
        2
 91
        1
300
_HEADER
309
CELLSTYLE_END
300
CELLSTYLE
  1
TABLEFORMAT_BEGIN
 90
        5
170
     1
 91
        0
 92
        0
 62
   257
 93
        1
300
CONTENTFORMAT
  1
CONTENTFORMAT_BEGIN
 90
        0
 91
        0
 92
      512
 93
        0
300

 40
0.0
140
1.0
 94
        2
 62
     0
340
55
144
0.18
309
CONTENTFORMAT_END
171
     0
 94
        0
309
TABLEFORMAT_END
  1
CELLSTYLE_BEGIN
 90
        3
 91
        2
300
_DATA
309
CELLSTYLE_END
  0
ENDSEC
  0
EOF
