  0
SECTION
  2
HEADER
  9
$ACADVER
  1
AC1032
  9
$ACADMAINTVER
 90
      155
  9
$DWGCODEPAGE
  3
ANSI_1252
  9
$REQUIREDVERSIONS
160
                 0
  9
$INSBASE
 10
0.0
 20
0.0
 30
0.0
  9
$EXTMIN
 10
1.000000000000000E+20
 20
1.000000000000000E+20
 30
1.000000000000000E+20
  9
$EXTMAX
 10
-1.000000000000000E+20
 20
-1.000000000000000E+20
 30
-1.000000000000000E+20
  9
$LIMMIN
 10
0.0
 20
0.0
  9
$LIMMAX
 10
12.0
 20
9.0
  9
$ORTHOMODE
 70
     0
  9
$REGENMODE
 70
     1
  9
$FILLMODE
 70
     1
  9
$QTEXTMODE
 70
     0
  9
$MIRRTEXT
 70
     0
  9
$LTSCALE
 40
1.0
  9
$ATTMODE
 70
     1
  9
$TEXTSIZE
 40
0.2
  9
$TRACEWID
 40
0.05
  9
$TEXTSTYLE
  7
Standard
  9
$CLAYER
  8
0
  9
$CELTYPE
  6
ByLayer
  9
$CECOLOR
 62
   256
  9
$CELTSCALE
 40
1.0
  9
$DISPSILH
 70
     0
  9
$DIMSCALE
 40
1.0
  9
$DIMASZ
 40
0.18
  9
$DIMEXO
 40
0.0625
  9
$DIMDLI
 40
0.38
  9
$DIMRND
 40
0.0
  9
$DIMDLE
 40
0.0
  9
$DIMEXE
 40
0.18
  9
$DIMTP
 40
0.0
  9
$DIMTM
 40
0.0
  9
$DIMTXT
 40
0.18
  9
$DIMCEN
 40
0.09
  9
$DIMTSZ
 40
0.0
  9
$DIMTOL
 70
     0
  9
$DIMLIM
 70
     0
  9
$DIMTIH
 70
     1
  9
$DIMTOH
 70
     1
  9
$DIMSE1
 70
     0
  9
$DIMSE2
 70
     0
  9
$DIMTAD
 70
     0
  9
$DIMZIN
 70
     0
  9
$DIMBLK
  1

  9
$DIMASO
 70
     1
  9
$DIMSHO
 70
     1
  9
$DIMPOST
  1

  9
$DIMAPOST
  1

  9
$DIMALT
 70
     0
  9
$DIMALTD
 70
     2
  9
$DIMALTF
 40
25.4
  9
$DIMLFAC
 40
1.0
  9
$DIMTOFL
 70
     0
  9
$DIMTVP
 40
0.0
  9
$DIMTIX
 70
     0
  9
$DIMSOXD
 70
     0
  9
$DIMSAH
 70
     0
  9
$DIMBLK1
  1

  9
$DIMBLK2
  1

  9
$DIMSTYLE
  2
Standard
  9
$DIMCLRD
 70
     0
  9
$DIMCLRE
 70
     0
  9
$DIMCLRT
 70
     0
  9
$DIMTFAC
 40
1.0
  9
$DIMGAP
 40
0.09
  9
$DIMJUST
 70
     0
  9
$DIMSD1
 70
     0
  9
$DIMSD2
 70
     0
  9
$DIMTOLJ
 70
     1
  9
$DIMTZIN
 70
     0
  9
$DIMALTZ
 70
     0
  9
$DIMALTTZ
 70
     0
  9
$DIMUPT
 70
     0
  9
$DIMDEC
 70
     4
  9
$DIMTDEC
 70
     4
  9
$DIMALTU
 70
     2
  9
$DIMALTTD
 70
     2
  9
$DIMTXSTY
  7
Standard
  9
$DIMAUNIT
 70
     0
  9
$DIMADEC
 70
     0
  9
$DIMALTRND
 40
0.0
  9
$DIMAZIN
 70
     0
  9
$DIMDSEP
 70
    46
  9
$DIMATFIT
 70
     3
  9
$DIMFRAC
 70
     0
  9
$DIMLDRBLK
  1

  9
$DIMLUNIT
 70
     2
  9
$DIMLWD
 70
    -2
  9
$DIMLWE
 70
    -2
  9
$DIMTMOVE
 70
     0
  9
$DIMFXL
 40
1.0
  9
$DIMFXLON
 70
     0
  9
$DIMJOGANG
 40
0.7853981633974483
  9
$DIMTFILL
 70
     0
  9
$DIMTFILLCLR
 70
     0
  9
$DIMARCSYM
 70
     0
  9
$DIMLTYPE
  6

  9
$DIMLTEX1
  6

  9
$DIMLTEX2
  6

  9
$DIMTXTDIRECTION
 70
     0
  9
$LUNITS
 70
     2
  9
$LUPREC
 70
     4
  9
$SKETCHINC
 40
0.1
  9
$FILLETRAD
 40
0.0
  9
$AUNITS
 70
     0
  9
$AUPREC
 70
     0
  9
$MENU
  1
.
  9
$ELEVATION
 40
0.0
  9
$PELEVATION
 40
0.0
  9
$THICKNESS
 40
0.0
  9
$LIMCHECK
 70
     0
  9
$CHAMFERA
 40
0.0
  9
$CHAMFERB
 40
0.0
  9
$CHAMFERC
 40
0.0
  9
$CHAMFERD
 40
0.0
  9
$SKPOLY
 70
     0
  9
$TDCREATE
 40
2460186.373287037
  9
$TDUCREATE
 40
2460186.289953703
  9
$TDUPDATE
 40
2460186.373287037
  9
$TDUUPDATE
 40
2460186.289953703
  9
$TDINDWG
 40
0.0000000000
  9
$TDUSRTIMER
 40
0.0000000000
  9
$USRTIMER
 70
     1
  9
$ANGBASE
 50
0.0
  9
$ANGDIR
 70
     0
  9
$PDMODE
 70
     0
  9
$PDSIZE
 40
0.0
  9
$PLINEWID
 40
0.0
  9
$SPLFRAME
 70
     0
  9
$SPLINETYPE
 70
     6
  9
$SPLINESEGS
 70
     8
  9
$HANDSEED
  5
240
  9
$SURFTAB1
 70
     6
  9
$SURFTAB2
 70
     6
  9
$SURFTYPE
 70
     6
  9
$SURFU
 70
     6
  9
$SURFV
 70
     6
  9
$UCSBASE
  2

  9
$UCSNAME
  2

  9
$UCSORG
 10
0.0
 20
0.0
 30
0.0
  9
$UCSXDIR
 10
1.0
 20
0.0
 30
0.0
  9
$UCSYDIR
 10
0.0
 20
1.0
 30
0.0
  9
$UCSORTHOREF
  2

  9
$UCSORTHOVIEW
 70
     0
  9
$UCSORGTOP
 10
0.0
 20
0.0
 30
0.0
  9
$UCSORGBOTTOM
 10
0.0
 20
0.0
 30
0.0
  9
$UCSORGLEFT
 10
0.0
 20
0.0
 30
0.0
  9
$UCSORGRIGHT
 10
0.0
 20
0.0
 30
0.0
  9
$UCSORGFRONT
 10
0.0
 20
0.0
 30
0.0
  9
$UCSORGBACK
 10
0.0
 20
0.0
 30
0.0
  9
$PUCSBASE
  2

  9
$PUCSNAME
  2

  9
$PUCSORG
 10
0.0
 20
0.0
 30
0.0
  9
$PUCSXDIR
 10
1.0
 20
0.0
 30
0.0
  9
$PUCSYDIR
 10
0.0
 20
1.0
 30
0.0
  9
$PUCSORTHOREF
  2

  9
$PUCSORTHOVIEW
 70
     0
  9
$PUCSORGTOP
 10
0.0
 20
0.0
 30
0.0
  9
$PUCSORGBOTTOM
 10
0.0
 20
0.0
 30
0.0
  9
$PUCSORGLEFT
 10
0.0
 20
0.0
 30
0.0
  9
$PUCSORGRIGHT
 10
0.0
 20
0.0
 30
0.0
  9
$PUCSORGFRONT
 10
0.0
 20
0.0
 30
0.0
  9
$PUCSORGBACK
 10
0.0
 20
0.0
 30
0.0
  9
$USERI1
 70
     0
  9
$USERI2
 70
     0
  9
$USERI3
 70
     0
  9
$USERI4
 70
     0
  9
$USERI5
 70
     0
  9
$USERR1
 40
0.0
  9
$USERR2
 40
0.0
  9
$USERR3
 40
0.0
  9
$USERR4
 40
0.0
  9
$USERR5
 40
0.0
  9
$WORLDVIEW
 70
     1
  9
$SHADEDGE
 70
     3
  9
$SHADEDIF
 70
    70
  9
$TILEMODE
 70
     1
  9
$MAXACTVP
 70
    64
  9
$PINSBASE
 10
0.0
 20
0.0
 30
0.0
  9
$PLIMCHECK
 70
     0
  9
$PEXTMIN
 10
1.000000000000000E+20
 20
1.000000000000000E+20
 30
1.000000000000000E+20
  9
$PEXTMAX
 10
-1.000000000000000E+20
 20
-1.000000000000000E+20
 30
-1.000000000000000E+20
  9
$PLIMMIN
 10
0.0
 20
0.0
  9
$PLIMMAX
 10
12.0
 20
9.0
  9
$UNITMODE
 70
     0
  9
$VISRETAIN
 70
     1
  9
$PLINEGEN
 70
     0
  9
$PSLTSCALE
 70
     1
  9
$TREEDEPTH
 70
  3020
  9
$CMLSTYLE
  2
Standard
  9
$CMLJUST
 70
     0
  9
$CMLSCALE
 40
1.0
  9
$PROXYGRAPHICS
 70
     1
  9
$MEASUREMENT
 70
     0
  9
$CELWEIGHT
370
    -1
  9
$ENDCAPS
280
     0
  9
$JOINSTYLE
280
     0
  9
$LWDISPLAY
290
     1
  9
$INSUNITS
 70
     4
  9
$HYPERLINKBASE
  1

  9
$STYLESHEET
  1

  9
$XEDIT
290
     1
  9
$CEPSNTYPE
380
     0
  9
$PSTYLEMODE
290
     1
  9
$FINGERPRINTGUID
  2
{82879FD6-15FF-3243-A740-A71C6DAC0275}
  9
$VERSIONGUID
  2
{26F26EDF-E5B5-B04E-8C9A-600533F99E00}
  9
$EXTNAMES
290
     1
  9
$PSVPSCALE
 40
0.0
  9
$OLESTARTUP
290
     0
  9
$SORTENTS
280
   127
  9
$INDEXCTL
280
     0
  9
$HIDETEXT
280
     1
  9
$XCLIPFRAME
280
     2
  9
$HALOGAP
280
     0
  9
$OBSCOLOR
 70
   257
  9
$OBSLTYPE
280
     0
  9
$INTERSECTIONDISPLAY
280
     0
  9
$INTERSECTIONCOLOR
 70
   257
  9
$DIMASSOC
280
     2
  9
$PROJECTNAME
  1

  9
$CAMERADISPLAY
290
     0
  9
$LENSLENGTH
 40
50.0
  9
$CAMERAHEIGHT
 40
0.0
  9
$STEPSPERSEC
 40
2.0
  9
$STEPSIZE
 40
6.0
  9
$3DDWFPREC
 40
2.0
  9
$PSOLWIDTH
 40
0.25
  9
$PSOLHEIGHT
 40
4.0
  9
$LOFTANG1
 40
1.570796326794896
  9
$LOFTANG2
 40
1.570796326794896
  9
$LOFTMAG1
 40
0.0
  9
$LOFTMAG2
 40
0.0
  9
$LOFTPARAM
 70
     7
  9
$LOFTNORMALS
280
     1
  9
$LATITUDE
 40
37.795
  9
$LONGITUDE
 40
-122.394
  9
$NORTHDIRECTION
 40
0.0
  9
$TIMEZONE
 70
 -8000
  9
$LIGHTGLYPHDISPLAY
280
     1
  9
$TILEMODELIGHTSYNCH
280
     1
  9
$CMATERIAL
347
11
  9
$SOLIDHIST
280
     0
  9
$SHOWHIST
280
     1
  9
$DWFFRAME
280
     2
  9
$DGNFRAME
280
     0
  9
$REALWORLDSCALE
290
     1
  9
$INTERFERECOLOR
 62
     1
  9
$INTERFEREOBJVS
345
33
  9
$INTERFEREVPVS
346
30
  9
$CSHADOW
280
     0
  9
$SHADOWPLANELOCATION
 40
0.0
  0
ENDSEC
  0
SECTION
  2
CLASSES
  0
CLASS
  1
ACDBDICTIONARYWDFLT
  2
AcDbDictionaryWithDefault
  3
ObjectDBX Classes
 90
        0
 91
        1
280
     0
281
     0
  0
CLASS
  1
MATERIAL
  2
AcDbMaterial
  3
ObjectDBX Classes
 90
     1153
 91
        3
280
     0
281
     0
  0
CLASS
  1
VISUALSTYLE
  2
AcDbVisualStyle
  3
ObjectDBX Classes
 90
     4095
 91
       24
280
     0
281
     0
  0
CLASS
  1
SCALE
  2
AcDbScale
  3
ObjectDBX Classes
 90
     1153
 91
       17
280
     0
281
     0
  0
CLASS
  1
TABLESTYLE
  2
AcDbTableStyle
  3
ObjectDBX Classes
 90
     4095
 91
        1
280
     0
281
     0
  0
CLASS
  1
MLEADERSTYLE
  2
AcDbMLeaderStyle
  3
ACDB_MLEADERSTYLE_CLASS
 90
     4095
 91
        1
280
     0
281
     0
  0
CLASS
  1
ACDBSECTIONVIEWSTYLE
  2
AcDbSectionViewStyle
  3
ObjectDBX Classes
 90
     1025
 91
        1
280
     0
281
     0
  0
CLASS
  1
ACDBDETAILVIEWSTYLE
  2
AcDbDetailViewStyle
  3
ObjectDBX Classes
 90
     1025
 91
        1
280
     0
281
     0
  0
CLASS
  1
DICTIONARYVAR
  2
AcDbDictionaryVar
  3
ObjectDBX Classes
 90
        0
 91
        5
280
     0
281
     0
  0
CLASS
  1
CELLSTYLEMAP
  2
AcDbCellStyleMap
  3
ObjectDBX Classes
 90
     1152
 91
        1
280
     0
281
     0
  0
ENDSEC
  0
SECTION
  2
TABLES
  0
TABLE
  2
VPORT
  5
8
330
0
100
AcDbSymbolTable
 70
     1
  0
VPORT
  5
57
330
8
100
AcDbSymbolTableRecord
100
AcDbViewportTableRecord
  2
*Active
 70
     0
 10
0.0
 20
0.0
 11
1.0
 21
1.0
 12
0.0
 22
0.0
 13
0.0
 23
0.0
 14
1.0
 24
1.0
 15
0.0
 25
0.0
 16
0.0
 26
0.0
 36
1.0
 17
151.774187560771
 27
150.8275465415241
 37
0.0
 40
245.2755282936595
 41
1.323949212868086
 42
50.0
 43
0.0
 44
0.0
 50
0.0
 51
0.0
 71
     0
 72
   100
 73
     1
 74
     0
 75
     1
 76
     0
 77
     0
 78
     0
281
     0
 65
     1
110
0.0
120
0.0
130
0.0
111
1.0
121
0.0
131
0.0
112
0.0
122
1.0
132
0.0
 79
     0
146
0.0
 60
     3
 61
     5
292
     1
282
     1
141
0.0
142
0.0
 63
   250
421
  3355443
  0
ENDTAB
  0
TABLE
  2
LTYPE
  5
5
330
0
100
AcDbSymbolTable
 70
     1
  0
LTYPE
  5
5B
330
5
100
AcDbSymbolTableRecord
100
AcDbLinetypeTableRecord
  2
ByBlock
 70
     0
  3

 72
    65
 73
     0
 40
0.0
  0
LTYPE
  5
5C
330
5
100
AcDbSymbolTableRecord
100
AcDbLinetypeTableRecord
  2
ByLayer
 70
     0
  3

 72
    65
 73
     0
 40
0.0
  0
LTYPE
  5
5D
330
5
100
AcDbSymbolTableRecord
100
AcDbLinetypeTableRecord
  2
Continuous
 70
     0
  3
Solid line
 72
    65
 73
     0
 40
0.0
  0
ENDTAB
  0
TABLE
  2
LAYER
  5
2
330
0
100
AcDbSymbolTable
 70
     4
  0
LAYER
  5
54
330
2
100
AcDbSymbolTableRecord
100
AcDbLayerTableRecord
  2
0
 70
     0
 62
     7
  6
Continuous
370
    -3
390
F
347
21
348
0
  0
LAYER
  5
78
330
2
100
AcDbSymbolTableRecord
100
AcDbLayerTableRecord
  2
默认值
 70
     0
 62
     7
  6
Continuous
370
     0
390
F
347
21
348
0
  0
LAYER
  5
79
330
2
100
AcDbSymbolTableRecord
100
AcDbLayerTableRecord
  2
Make2D__可见线__曲线
 70
     0
 62
     7
  6
Continuous
370
     0
390
F
347
21
348
0
  0
LAYER
  5
17E
330
2
100
AcDbSymbolTableRecord
100
AcDbLayerTableRecord
  2
Make2D__可见线__正切线
 70
     0
 62
     7
  6
Continuous
370
     0
390
F
347
21
348
0
  0
ENDTAB
  0
TABLE
  2
STYLE
  5
3
330
0
100
AcDbSymbolTable
 70
     2
  0
STYLE
  5
55
330
3
100
AcDbSymbolTableRecord
100
AcDbTextStyleTableRecord
  2
Standard
 70
     0
 40
0.0
 41
1.0
 50
0.0
 71
     0
 42
0.2
  3
txt
  4

  0
STYLE
  5
5A
330
3
100
AcDbSymbolTableRecord
100
AcDbTextStyleTableRecord
  2
Annotative
 70
     0
 40
0.0
 41
1.0
 50
0.0
 71
     0
 42
0.2
  3
txt
  4

1001
AcadAnnotative
1000
AnnotativeData
1002
{
1070
     1
1070
     1
1002
}
  0
ENDTAB
  0
TABLE
  2
VIEW
  5
6
330
0
100
AcDbSymbolTable
 70
     0
  0
ENDTAB
  0
TABLE
  2
UCS
  5
7
330
0
100
AcDbSymbolTable
 70
     0
  0
ENDTAB
  0
TABLE
  2
APPID
  5
9
330
0
100
AcDbSymbolTable
 70
     2
  0
APPID
  5
56
330
9
100
AcDbSymbolTableRecord
100
AcDbRegAppTableRecord
  2
ACAD
 70
     0
  0
APPID
  5
5E
330
9
100
AcDbSymbolTableRecord
100
AcDbRegAppTableRecord
  2
AcadAnnotative
 70
     0
  0
ENDTAB
  0
TABLE
  2
DIMSTYLE
  5
A
330
0
100
AcDbSymbolTable
 70
     2
100
AcDbDimStyleTable
 71
     0
  0
DIMSTYLE
105
58
330
A
100
AcDbSymbolTableRecord
100
AcDbDimStyleTableRecord
  2
Standard
 70
     0
340
55
  0
DIMSTYLE
105
59
330
A
100
AcDbSymbolTableRecord
100
AcDbDimStyleTableRecord
  2
Annotative
 70
     0
340
55
1001
AcadAnnotative
1000
AnnotativeData
1002
{
1070
     1
1070
     1
1002
}
  0
ENDTAB
  0
TABLE
  2
BLOCK_RECORD
  5
1
330
0
100
AcDbSymbolTable
 70
     1
  0
BLOCK_RECORD
  5
70
330
1
100
AcDbSymbolTableRecord
100
AcDbBlockTableRecord
  2
*Model_Space
340
73
 70
     0
280
     1
281
     0
  0
BLOCK_RECORD
  5
6C
330
1
100
AcDbSymbolTableRecord
100
AcDbBlockTableRecord
  2
*Paper_Space
340
6F
 70
     0
280
     1
281
     0
  0
BLOCK_RECORD
  5
74
330
1
100
AcDbSymbolTableRecord
100
AcDbBlockTableRecord
  2
*Paper_Space0
340
77
 70
     0
280
     1
281
     0
  0
ENDTAB
  0
ENDSEC
  0
SECTION
  2
BLOCKS
  0
BLOCK
  5
71
330
70
100
AcDbEntity
  8
0
100
AcDbBlockBegin
  2
*Model_Space
 70
     0
 10
0.0
 20
0.0
 30
0.0
  3
*Model_Space
  1

  0
ENDBLK
  5
72
330
70
100
AcDbEntity
  8
0
100
AcDbBlockEnd
  0
BLOCK
  5
6D
330
6C
100
AcDbEntity
 67
     1
  8
0
100
AcDbBlockBegin
  2
*Paper_Space
 70
     0
 10
0.0
 20
0.0
 30
0.0
  3
*Paper_Space
  1

  0
ENDBLK
  5
6E
330
6C
100
AcDbEntity
 67
     1
  8
0
100
AcDbBlockEnd
  0
BLOCK
  5
75
330
74
100
AcDbEntity
 67
     1
  8
0
100
AcDbBlockBegin
  2
*Paper_Space0
 70
     0
 10
0.0
 20
0.0
 30
0.0
  3
*Paper_Space0
  1

  0
ENDBLK
  5
76
330
74
100
AcDbEntity
 67
     1
  8
0
100
AcDbBlockEnd
  0
ENDSEC
  0
SECTION
  2
ENTITIES
  0
SPLINE
  5
7A
330
70
100
AcDbEntity
  8
Make2D__可见线__曲线
 62
    18
420
        0
370
    35
100
AcDbSpline
210
0.0
220
0.0
230
1.0
 70
     8
 71
     3
 72
     8
 73
     4
 74
     0
 42
0.0000000001
 43
0.0000000001
 40
0.0
 40
0.0
 40
0.0
 40
0.0
 40
1.0
 40
1.0
 40
1.0
 40
1.0
 10
267.9840962753524
 20
156.7283161070847
 30
0.0
 10
267.690484850102
 20
156.653351487872
 30
0.0
 10
267.4138297077687
 20
156.9170663090311
 30
0.0
 10
267.4191843234264
 20
157.2075542084806
 30
0.0
  0
LINE
  5
7B
330
70
100
AcDbEntity
  8
Make2D__可见线__曲线
 62
    18
420
        0
370
    35
100
AcDbLine
 10
275.0173839422275
 20
162.5483371094344
 30
0.0
 11
274.9000286157201
 21
162.425180949299
 31
0.0
  0
SPLINE
  5
7C
330
70
100
AcDbEntity
  8
Make2D__可见线__曲线
 62
    18
420
        0
370
    35
100
AcDbSpline
210
0.0
220
0.0
230
1.0
 70
     8
 71
     3
 72
     8
 73
     4
 74
     0
 42
0.0000000001
 43
0.0000000001
 40
0.0
 40
0.0
 40
0.0
 40
0.0
 40
1.0
 40
1.0
 40
1.0
 40
1.0
 10
265.4598412105453
 20
187.3228051054077
 30
0.0
 10
266.407608182023
 20
187.5619779381357
 30
0.0
 10
267.3870566294794
 20
187.6329265956062
 30
0.0
 10
268.3593655893889
 20
187.5450216552179
 30
0.0
  0
LINE
  5
7D
330
70
100
AcDbEntity
  8
Make2D__可见线__曲线
 62
    18
420
        0
370
    35
100
AcDbLine
 10
265.4598412105453
 20
187.3228051054077
 30
0.0
 11
265.6213721162288
 21
187.3638571587875
 31
0.0
  0
SPLINE
  5
7E
330
70
100
AcDbEntity
  8
Make2D__可见线__曲线
 62
    18
420
        0
370
    35
100
AcDbSpline
210
0.0
220
0.0
230
1.0
 70
     8
 71
     3
 72
     8
 73
     4
 74
     0
 42
0.0000000001
 43
0.0000000001
 40
0.0
 40
0.0
 40
0.0
 40
0.0
 40
1.0
 40
1.0
 40
1.0
 40
1.0
 10
254.5734613597176
 20
178.7313242820353
 30
0.0
 10
254.5556126408585
 20
179.0534936574622
 30
0.0
 10
254.5578437307141
 20
179.3738781610032
 30
0.0
 10
254.5752462316022
 20
179.6960475364314
 30
0.0
  0
SPLINE
  5
7F
330
70
100
AcDbEntity
  8
Make2D__可见线__曲线
 62
    18
420
        0
370
    35
100
AcDbSpline
210
0.0
220
0.0
230
1.0
 70
     8
 71
     3
 72
     8
 73
     4
 74
     0
 42
0.0000000001
 43
0.0000000001
 40
0.0
 40
0.0
 40
0.0
 40
0.0
 40
1.0
 40
1.0
 40
1.0
 40
1.0
 10
265.773532444513
 20
189.8211795278702
 30
0.0
 10
265.6302964756596
 20
189.8127013864104
 30
0.0
 10
265.4870605068062
 20
189.8015459371233
 30
0.0
 10
265.3442707559244
 20
189.7877131800063
 30
0.0
  0
SPLINE
  5
80
330
70
100
AcDbEntity
  8
Make2D__可见线__曲线
 62
    18
420
        0
370
    35
100
AcDbSpline
210
0.0
220
0.0
230
1.0
 70
     8
 71
     3
 72
    11
 73
     7
 74
     0
 42
0.0000000001
 43
0.0000000001
 40
0.0
 40
0.0
 40
0.0
 40
0.0
 40
1.0
 40
1.0
 40
1.0
 40
2.0
 40
2.0
 40
2.0
 40
2.0
 10
279.2100480024946
 20
177.2128445250015
 30
0.0
 10
279.0190667106913
 20
180.6313204047072
 30
0.0
 10
277.4863079785695
 20
183.8922813404716
 30
0.0
 10
275.0258620836866
 20
186.2567903714806
 30
0.0
 10
272.5694321505472
 20
188.6181758766887
 30
0.0
 10
269.2366301213684
 20
190.0233162689612
 30
0.0
 10
265.7739786624846
 20
189.8211795278702
 30
0.0
  0
SPLINE
  5
81
330
70
100
AcDbEntity
  8
Make2D__可见线__曲线
 62
    18
420
        0
370
    35
100
AcDbSpline
210
0.0
220
0.0
230
1.0
 70
     8
 71
     3
 72
     8
 73
     4
 74
     0
 42
0.0000000001
 43
0.0000000001
 40
0.0
 40
0.0
 40
0.0
 40
0.0
 40
1.0
 40
1.0
 40
1.0
 40
1.0
 10
254.5810470652335
 20
178.5769328638941
 30
0.0
 10
254.5783697574056
 20
178.6286941485894
 30
0.0
 10
254.5761386675468
 20
178.6800092153123
 30
0.0
 10
254.5734613597176
 20
178.7313242820353
 30
0.0
  0
SPLINE
  5
82
330
70
100
AcDbEntity
  8
Make2D__可见线__曲线
 62
    18
420
        0
370
    35
100
AcDbSpline
210
0.0
220
0.0
230
1.0
 70
     8
 71
     3
 72
     8
 73
     4
 74
     0
 42
0.0000000001
 43
0.0000000001
 40
0.0
 40
0.0
 40
0.0
 40
0.0
 40
1.0
 40
1.0
 40
1.0
 40
1.0
 10
254.6511032867601
 20
174.9817546674724
 30
0.0
 10
254.6577965563328
 20
175.7300622056884
 30
0.0
 10
254.6595814282193
 20
176.4779235259301
 30
0.0
 10
254.635931875727
 20
177.2257848461757
 30
0.0
  0
SPLINE
  5
83
330
70
100
AcDbEntity
  8
Make2D__可见线__曲线
 62
    18
420
        0
370
    35
100
AcDbSpline
210
0.0
220
0.0
230
1.0
 70
     8
 71
     3
 72
     8
 73
     4
 74
     0
 42
0.0000000001
 43
0.0000000001
 40
0.0
 40
0.0
 40
0.0
 40
0.0
 40
1.0
 40
1.0
 40
1.0
 40
1.0
 10
254.635931875727
 20
177.2257848461757
 30
0.0
 10
254.621652900641
 20
177.6764649973959
 30
0.0
 10
254.6051428356949
 20
178.126698930645
 30
0.0
 10
254.5810470652335
 20
178.5769328638941
 30
0.0
  0
SPLINE
  5
84
330
70
100
AcDbEntity
  8
Make2D__可见线__曲线
 62
    18
420
        0
370
    35
100
AcDbSpline
210
0.0
220
0.0
230
1.0
 70
     8
 71
     3
 72
     8
 73
     4
 74
     0
 42
0.0000000001
 43
0.0000000001
 40
0.0
 40
0.0
 40
0.0
 40
0.0
 40
1.0
 40
1.0
 40
1.0
 40
1.0
 10
254.6470873250173
 20
174.624780290268
 30
0.0
 10
254.6488721969019
 20
174.7439204886607
 30
0.0
 10
254.6502108508168
 20
174.8626144690804
 30
0.0
 10
254.6511032867601
 20
174.9817546674724
 30
0.0
  0
LINE
  5
85
330
70
100
AcDbEntity
  8
Make2D__可见线__曲线
 62
    18
420
        0
370
    35
100
AcDbLine
 10
254.6029117458361
 20
170.7583015671707
 30
0.0
 11
254.6466411070437
 21
174.624780290268
 31
0.0
  0
SPLINE
  5
86
330
70
100
AcDbEntity
  8
Make2D__可见线__曲线
 62
    18
420
        0
370
    35
100
AcDbSpline
210
0.0
220
0.0
230
1.0
 70
     8
 71
     3
 72
    14
 73
    10
 74
     0
 42
0.0000000001
 43
0.0000000001
 40
0.0
 40
0.0
 40
0.0
 40
0.0
 40
1.0
 40
1.0
 40
1.0
 40
2.0
 40
2.0
 40
2.0
 40
3.0
 40
3.0
 40
3.0
 40
3.0
 10
255.1664850438485
 20
166.5611753271873
 30
0.0
 10
254.9728264442154
 20
167.2465661314196
 30
0.0
 10
254.8304829113046
 20
167.9368653333393
 30
0.0
 10
254.7367771372876
 20
168.6427821642606
 30
0.0
 10
254.6899242502791
 20
168.9944019258073
 30
0.0
 10
254.6546730305313
 20
169.3464679053249
 30
0.0
 10
254.6310234780428
 20
169.7003187567292
 30
0.0
 10
254.602465527865
 20
170.1206560858882
 30
0.0
 10
254.6002344380088
 20
170.3419801997545
 30
0.0
 10
254.6038041817793
 20
170.7627637468852
 30
0.0
  0
SPLINE
  5
87
330
70
100
AcDbEntity
  8
Make2D__可见线__曲线
 62
    18
420
        0
370
    35
100
AcDbSpline
210
0.0
220
0.0
230
1.0
 70
     8
 71
     3
 72
    14
 73
    10
 74
     0
 42
0.0000000001
 43
0.0000000001
 40
0.0
 40
0.0
 40
0.0
 40
0.0
 40
1.0
 40
1.0
 40
1.0
 40
2.0
 40
2.0
 40
2.0
 40
3.0
 40
3.0
 40
3.0
 40
3.0
 10
266.5254097265001
 20
155.653823231699
 30
0.0
 10
264.825319255063
 20
156.0112438268737
 30
0.0
 10
263.2082253263261
 20
156.6908337974787
 30
0.0
 10
261.7490925595021
 20
157.626999101697
 30
0.0
 10
260.2886211387632
 20
158.5636106238871
 30
0.0
 10
258.997712547198
 20
159.7496579921495
 30
0.0
 10
257.9294667234126
 20
161.1146387669861
 30
0.0
 10
255.7902977680127
 20
163.8472776244882
 30
0.0
 10
254.5703378339155
 20
167.2670921581092
 30
0.0
 10
254.6033579638083
 20
170.7565166952841
 30
0.0
  0
SPLINE
  5
88
330
70
100
AcDbEntity
  8
Make2D__可见线__曲线
 62
    18
420
        0
370
    35
100
AcDbSpline
210
0.0
220
0.0
230
1.0
 70
     8
 71
     3
 72
     8
 73
     4
 74
     0
 42
0.0000000001
 43
0.0000000001
 40
0.0
 40
0.0
 40
0.0
 40
0.0
 40
1.0
 40
1.0
 40
1.0
 40
1.0
 10
279.7602347613617
 20
173.0313359140189
 30
0.0
 10
279.7142743102984
 20
173.5560882485117
 30
0.0
 10
279.6509113583438
 20
174.0759321853164
 30
0.0
 10
279.5442652631531
 20
174.5930988142914
 30
0.0
  0
LINE
  5
89
330
70
100
AcDbEntity
  8
Make2D__可见线__曲线
 62
    18
420
        0
370
    35
100
AcDbLine
 10
279.3907662809546
 20
175.341406352506
 30
0.0
 11
279.3006302507101
 21
176.0143030535376
 31
0.0
  0
SPLINE
  5
8A
330
70
100
AcDbEntity
  8
Make2D__可见线__曲线
 62
    18
420
        0
370
    35
100
AcDbSpline
210
0.0
220
0.0
230
1.0
 70
     8
 71
     3
 72
     8
 73
     4
 74
     0
 42
0.0000000001
 43
0.0000000001
 40
0.0
 40
0.0
 40
0.0
 40
0.0
 40
1.0
 40
1.0
 40
1.0
 40
1.0
 10
279.3006302507101
 20
176.0143030535376
 30
0.0
 10
279.2908134553385
 20
176.0870365828915
 30
0.0
 10
279.2832277498226
 20
176.1602163302193
 30
0.0
 10
279.2765344802487
 20
176.233842295518
 30
0.0
  0
SPLINE
  5
8B
330
70
100
AcDbEntity
  8
Make2D__可见线__曲线
 62
    18
420
        0
370
    35
100
AcDbSpline
210
0.0
220
0.0
230
1.0
 70
     8
 71
     3
 72
     8
 73
     4
 74
     0
 42
0.0000000001
 43
0.0000000001
 40
0.0
 40
0.0
 40
0.0
 40
0.0
 40
1.0
 40
1.0
 40
1.0
 40
1.0
 10
270.8956685394284
 20
199.4344995059898
 30
0.0
 10
270.9438600803518
 20
199.4568104045653
 30
0.0
 10
270.992497839245
 20
199.4786750851698
 30
0.0
 10
271.041135598138
 20
199.5000935478013
 30
0.0
  0
SPLINE
  5
8C
330
70
100
AcDbEntity
  8
Make2D__可见线__曲线
 62
    18
420
        0
370
    35
100
AcDbSpline
210
0.0
220
0.0
230
1.0
 70
     8
 71
     3
 72
     8
 73
     4
 74
     0
 42
0.0000000001
 43
0.0000000001
 40
0.0
 40
0.0
 40
0.0
 40
0.0
 40
1.0
 40
1.0
 40
1.0
 40
1.0
 10
266.5352265218723
 20
155.6520383598124
 30
0.0
 10
266.5321029960728
 20
155.6524845777834
 30
0.0
 10
266.5285332522997
 20
155.6533770137274
 30
0.0
 10
266.5254097265001
 20
155.653823231699
 30
0.0
  0
SPLINE
  5
8D
330
70
100
AcDbEntity
  8
Make2D__可见线__曲线
 62
    18
420
        0
370
    35
100
AcDbSpline
210
0.0
220
0.0
230
1.0
 70
     8
 71
     3
 72
     8
 73
     4
 74
     0
 42
0.0000000001
 43
0.0000000001
 40
0.0
 40
0.0
 40
0.0
 40
0.0
 40
1.0
 40
1.0
 40
1.0
 40
1.0
 10
268.5226813669596
 20
155.3240681507562
 30
0.0
 10
267.8569241534735
 20
155.4043873856259
 30
0.0
 10
267.1978602095602
 20
155.5132645706735
 30
0.0
 10
266.5410273555017
 20
155.6506997058981
 30
0.0
  0
SPLINE
  5
8E
330
70
100
AcDbEntity
  8
Make2D__可见线__曲线
 62
    18
420
        0
370
    35
100
AcDbSpline
210
0.0
220
0.0
230
1.0
 70
     8
 71
     3
 72
    11
 73
     7
 74
     0
 42
0.0000000001
 43
0.0000000001
 40
0.0
 40
0.0
 40
0.0
 40
0.0
 40
1.0
 40
1.0
 40
1.0
 40
2.0
 40
2.0
 40
2.0
 40
2.0
 10
286.69356960262
 20
160.4305866166687
 30
0.0
 10
284.0925650467116
 20
158.532375365882
 30
0.0
 10
281.1876860522103
 20
157.0469157387385
 30
0.0
 10
278.0864711502441
 20
156.1419856925271
 30
0.0
 10
274.9758856708767
 20
155.2343783384832
 30
0.0
 10
271.7479448650033
 20
154.9349660796015
 30
0.0
 10
268.5226813669596
 20
155.3240681507562
 30
0.0
  0
SPLINE
  5
8F
330
70
100
AcDbEntity
  8
Make2D__可见线__曲线
 62
    18
420
        0
370
    35
100
AcDbSpline
210
0.0
220
0.0
230
1.0
 70
     8
 71
     3
 72
     8
 73
     4
 74
     0
 42
0.0000000001
 43
0.0000000001
 40
0.0
 40
0.0
 40
0.0
 40
0.0
 40
1.0
 40
1.0
 40
1.0
 40
1.0
 10
268.0608457664517
 20
156.9639191960396
 30
0.0
 10
268.0586146765942
 20
156.835408420247
 30
0.0
 10
268.0001601223276
 20
156.7122522601096
 30
0.0
 10
267.8912829372787
 20
156.6386262948111
 30
0.0
  0
SPLINE
  5
90
330
70
100
AcDbEntity
  8
Make2D__可见线__曲线
 62
    18
420
        0
370
    35
100
AcDbSpline
210
0.0
220
0.0
230
1.0
 70
     8
 71
     3
 72
     8
 73
     4
 74
     0
 42
0.0000000001
 43
0.0000000001
 40
0.0
 40
0.0
 40
0.0
 40
0.0
 40
1.0
 40
1.0
 40
1.0
 40
1.0
 10
277.2872947632768
 20
168.39111522833
 30
0.0
 10
277.238210786412
 20
166.1872446670638
 30
0.0
 10
276.440819271332
 20
164.0427210960069
 30
0.0
 10
274.9000286157201
 20
162.425180949299
 30
0.0
  0
SPLINE
  5
91
330
70
100
AcDbEntity
  8
Make2D__可见线__曲线
 62
    18
420
        0
370
    35
100
AcDbSpline
210
0.0
220
0.0
230
1.0
 70
     8
 71
     3
 72
     8
 73
     4
 74
     0
 42
0.0000000001
 43
0.0000000001
 40
0.0
 40
0.0
 40
0.0
 40
0.0
 40
1.0
 40
1.0
 40
1.0
 40
1.0
 10
279.7499717480179
 20
173.1924206017334
 30
0.0
 10
279.7517566199025
 20
173.1384282271806
 30
0.0
 10
279.7553263636763
 20
173.084882070602
 30
0.0
 10
279.7602347613617
 20
173.0313359140189
 30
0.0
  0
SPLINE
  5
92
330
70
100
AcDbEntity
  8
Make2D__可见线__曲线
 62
    18
420
        0
370
    35
100
AcDbSpline
210
0.0
220
0.0
230
1.0
 70
     8
 71
     3
 72
     8
 73
     4
 74
     0
 42
0.0000000001
 43
0.0000000001
 40
0.0
 40
0.0
 40
0.0
 40
0.0
 40
1.0
 40
1.0
 40
1.0
 40
1.0
 10
267.6784369648717
 20
155.4632881578648
 30
0.0
 10
267.2942432914057
 20
155.5096948269017
 30
0.0
 10
266.9140655796838
 20
155.5726115608853
 30
0.0
 10
266.5352265218723
 20
155.6520383598124
 30
0.0
  0
SPLINE
  5
93
330
70
100
AcDbEntity
  8
Make2D__可见线__曲线
 62
    18
420
        0
370
    35
100
AcDbSpline
210
0.0
220
0.0
230
1.0
 70
     8
 71
     3
 72
     8
 73
     4
 74
     0
 42
0.0000000001
 43
0.0000000001
 40
0.0
 40
0.0
 40
0.0
 40
0.0
 40
1.0
 40
1.0
 40
1.0
 40
1.0
 10
268.0684314719676
 20
156.7608900190033
 30
0.0
 10
268.0238096748167
 20
156.8960940643708
 30
0.0
 10
268.010423135672
 20
157.0277283659651
 30
0.0
 10
268.018008841188
 20
157.1687332449597
 30
0.0
  0
SPLINE
  5
94
330
70
100
AcDbEntity
  8
Make2D__可见线__曲线
 62
    18
420
        0
370
    35
100
AcDbSpline
210
0.0
220
0.0
230
1.0
 70
     8
 71
     3
 72
    17
 73
    13
 74
     0
 42
0.0000000001
 43
0.0000000001
 40
0.0
 40
0.0
 40
0.0
 40
0.0
 40
1.0
 40
1.0
 40
1.0
 40
2.0
 40
2.0
 40
2.0
 40
3.0
 40
3.0
 40
3.0
 40
4.0
 40
4.0
 40
4.0
 40
4.0
 10
277.6835363219751
 20
200.6473199525435
 30
0.0
 10
279.9900370166885
 20
200.4688327639416
 30
0.0
 10
282.1867680904116
 20
199.7196327897817
 30
0.0
 10
284.1661910120119
 20
198.5514341403809
 30
0.0
 10
286.1456139336117
 20
197.3836817089492
 30
0.0
 10
287.8698001755109
 20
195.8210263727373
 30
0.0
 10
289.3012674280997
 20
194.0379393585993
 30
0.0
 10
290.7358582064926
 20
192.251728818661
 30
0.0
 10
291.8848694831194
 20
190.2361622413689
 30
0.0
 10
292.7429466423255
 20
188.1179655306322
 30
0.0
 10
293.6028086734156
 20
185.9957528581507
 30
0.0
 10
294.1788760746307
 20
183.7530613333623
 30
0.0
 10
294.4662404482789
 20
181.4831505123127
 30
0.0
  0
SPLINE
  5
95
330
70
100
AcDbEntity
  8
Make2D__可见线__曲线
 62
    18
420
        0
370
    35
100
AcDbSpline
210
0.0
220
0.0
230
1.0
 70
     8
 71
     3
 72
     8
 73
     4
 74
     0
 42
0.0000000001
 43
0.0000000001
 40
0.0
 40
0.0
 40
0.0
 40
0.0
 40
1.0
 40
1.0
 40
1.0
 40
1.0
 10
294.669715843286
 20
177.2967335036431
 30
0.0
 10
294.6291100078799
 20
175.9112267021194
 30
0.0
 10
294.4836429491683
 20
174.5502618890276
 30
0.0
 10
294.2243903077243
 20
173.1884046399905
 30
0.0
  0
SPLINE
  5
96
330
70
100
AcDbEntity
  8
Make2D__可见线__曲线
 62
    18
420
        0
370
    35
100
AcDbSpline
210
0.0
220
0.0
230
1.0
 70
     8
 71
     3
 72
     8
 73
     4
 74
     0
 42
0.0000000001
 43
0.0000000001
 40
0.0
 40
0.0
 40
0.0
 40
0.0
 40
1.0
 40
1.0
 40
1.0
 40
1.0
 10
294.4662404482789
 20
181.4831505123127
 30
0.0
 10
294.6429427649961
 20
180.0887193513553
 30
0.0
 10
294.7107678966633
 20
178.7018738959168
 30
0.0
 10
294.669715843286
 20
177.2967335036431
 30
0.0
  0
SPLINE
  5
97
330
70
100
AcDbEntity
  8
Make2D__可见线__曲线
 62
    18
420
        0
370
    35
100
AcDbSpline
210
0.0
220
0.0
230
1.0
 70
     8
 71
     3
 72
    11
 73
     7
 74
     0
 42
0.0000000001
 43
0.0000000001
 40
0.0
 40
0.0
 40
0.0
 40
0.0
 40
1.0
 40
1.0
 40
1.0
 40
2.0
 40
2.0
 40
2.0
 40
2.0
 10
290.5011475534778
 20
208.9309103755769
 30
0.0
 10
290.5466617865714
 20
208.9277868497761
 30
0.0
 10
290.5819130063218
 20
208.8693322955095
 30
0.0
 10
290.5975306353253
 20
208.8372046015599
 30
0.0
 10
290.6189490979549
 20
208.7948138942678
 30
0.0
 10
290.6318894191305
 20
208.7510845330601
 30
0.0
 10
290.6412599965317
 20
208.7051240819955
 30
0.0
  0
SPLINE
  5
98
330
70
100
AcDbEntity
  8
Make2D__可见线__曲线
 62
    18
420
        0
370
    35
100
AcDbSpline
210
0.0
220
0.0
230
1.0
 70
     8
 71
     3
 72
     8
 73
     4
 74
     0
 42
0.0000000001
 43
0.0000000001
 40
0.0
 40
0.0
 40
0.0
 40
0.0
 40
1.0
 40
1.0
 40
1.0
 40
1.0
 10
290.6301045472432
 20
208.2847867528371
 30
0.0
 10
290.6118096104125
 20
208.2080372617379
 30
0.0
 10
290.5421996068576
 20
207.9844820580127
 30
0.0
 10
290.4480476148683
 20
207.9429837866633
 30
0.0
  0
SPLINE
  5
99
330
70
100
AcDbEntity
  8
Make2D__可见线__曲线
 62
    18
420
        0
370
    35
100
AcDbSpline
210
0.0
220
0.0
230
1.0
 70
     8
 71
     3
 72
     8
 73
     4
 74
     0
 42
0.0000000001
 43
0.0000000001
 40
0.0
 40
0.0
 40
0.0
 40
0.0
 40
1.0
 40
1.0
 40
1.0
 40
1.0
 10
265.761930777253
 20
177.9325941130403
 30
0.0
 10
266.5178240209842
 20
178.3538238781413
 30
0.0
 10
267.3785784880183
 20
178.5180320916559
 30
0.0
 10
268.2348707753398
 20
178.4332506770685
 30
0.0
  0
LINE
  5
9A
330
70
100
AcDbEntity
  8
Make2D__可见线__曲线
 62
    18
420
        0
370
    35
100
AcDbLine
 10
265.761930777253
 20
177.9325941130403
 30
0.0
 11
265.868576872443
 21
177.9923873212218
 31
0.0
  0
LINE
  5
9B
330
70
100
AcDbEntity
  8
Make2D__可见线__曲线
 62
    18
420
        0
370
    35
100
AcDbLine
 10
264.880204065559
 20
179.3564756601145
 30
0.0
 11
265.094834909852
 21
179.4742772045935
 31
0.0
  0
SPLINE
  5
9C
330
70
100
AcDbEntity
  8
Make2D__可见线__曲线
 62
    18
420
        0
370
    35
100
AcDbSpline
210
0.0
220
0.0
230
1.0
 70
     8
 71
     3
 72
    14
 73
    10
 74
     0
 42
0.0000000001
 43
0.0000000001
 40
0.0
 40
0.0
 40
0.0
 40
0.0
 40
1.0
 40
1.0
 40
1.0
 40
2.0
 40
2.0
 40
2.0
 40
3.0
 40
3.0
 40
3.0
 40
3.0
 10
268.2348707753398
 20
178.4332506770685
 30
0.0
 10
270.268732289462
 20
178.2320063719201
 30
0.0
 10
271.9424959005789
 20
176.699247639799
 30
0.0
 10
272.5230254815084
 20
174.7903271576969
 30
0.0
 10
272.8121747270451
 20
173.8394366604177
 30
0.0
 10
272.8273461380763
 20
172.8109042360966
 30
0.0
 10
272.518563301794
 20
171.8577826489604
 30
0.0
 10
272.2093342475408
 20
170.9033224079081
 30
0.0
 10
271.5917685749762
 20
170.0822813403376
 30
0.0
 10
270.7319065438861
 20
169.5512819542464
 30
0.0
  0
SPLINE
  5
9D
330
70
100
AcDbEntity
  8
Make2D__可见线__曲线
 62
    18
420
        0
370
    35
100
AcDbSpline
210
0.0
220
0.0
230
1.0
 70
     8
 71
     3
 72
     8
 73
     4
 74
     0
 42
0.0000000001
 43
0.0000000001
 40
0.0
 40
0.0
 40
0.0
 40
0.0
 40
1.0
 40
1.0
 40
1.0
 40
1.0
 10
268.1590137201838
 20
180.0101849883721
 30
0.0
 10
267.024727636614
 20
180.1208470453043
 30
0.0
 10
265.8850869373891
 20
179.90621620101
 30
0.0
 10
264.880204065559
 20
179.3564756601145
 30
0.0
  0
SPLINE
  5
9E
330
70
100
AcDbEntity
  8
Make2D__可见线__曲线
 62
    18
420
        0
370
    35
100
AcDbSpline
210
0.0
220
0.0
230
1.0
 70
     8
 71
     3
 72
    17
 73
    13
 74
     0
 42
0.0000000001
 43
0.0000000001
 40
0.0
 40
0.0
 40
0.0
 40
0.0
 40
1.0
 40
1.0
 40
1.0
 40
2.0
 40
2.0
 40
2.0
 40
3.0
 40
3.0
 40
3.0
 40
4.0
 40
4.0
 40
4.0
 40
4.0
 10
268.1590137201838
 20
180.0101849883721
 30
0.0
 10
269.4976676346989
 20
179.879889340691
 30
0.0
 10
270.7533250065176
 20
179.3064992473058
 30
0.0
 10
271.7649011479204
 20
178.4368204208422
 30
0.0
 10
272.7782621612115
 20
177.5653567224914
 30
0.0
 10
273.5319243150852
 20
176.4123294841199
 30
0.0
 10
273.9254885659524
 20
175.1356998676432
 30
0.0
 10
274.3181603808776
 20
173.8613013410209
 30
0.0
 10
274.3444872411958
 20
172.4815953731247
 30
0.0
 10
273.937536451184
 20
171.2005035769323
 30
0.0
 10
273.5301394431967
 20
169.9180731268236
 30
0.0
 10
272.7095445935999
 20
168.8105601215476
 30
0.0
 10
271.5614257529164
 20
168.0894718795939
 30
0.0
  0
LINE
  5
9F
330
70
100
AcDbEntity
  8
Make2D__可见线__曲线
 62
    18
420
        0
370
    35
100
AcDbLine
 10
291.1495022660764
 20
269.1600735155155
 30
0.0
 11
291.0272385418855
 21
264.590801487297
 31
0.0
  0
SPLINE
  5
A0
330
70
100
AcDbEntity
  8
Make2D__可见线__曲线
 62
    18
420
        0
370
    35
100
AcDbSpline
210
0.0
220
0.0
230
1.0
 70
     8
 71
     3
 72
     8
 73
     4
 74
     0
 42
0.0000000001
 43
0.0000000001
 40
0.0
 40
0.0
 40
0.0
 40
0.0
 40
1.0
 40
1.0
 40
1.0
 40
1.0
 10
288.7970411202985
 20
264.5403788565164
 30
0.0
 10
289.2950203764987
 20
264.5314544970868
 30
0.0
 10
290.3574653666528
 20
264.5265460993992
 30
0.0
 10
290.8558908408253
 20
264.5635821910352
 30
0.0
  0
SPLINE
  5
A1
330
70
100
AcDbEntity
  8
Make2D__可见线__曲线
 62
    18
420
        0
370
    35
100
AcDbSpline
210
0.0
220
0.0
230
1.0
 70
     8
 71
     3
 72
    20
 73
    16
 74
     0
 42
0.0000000001
 43
0.0000000001
 40
0.0
 40
0.0
 40
0.0
 40
0.0
 40
1.0
 40
1.0
 40
1.0
 40
2.0
 40
2.0
 40
2.0
 40
3.0
 40
3.0
 40
3.0
 40
4.0
 40
4.0
 40
4.0
 40
5.0
 40
5.0
 40
5.0
 40
5.0
 10
287.0942733410308
 20
212.0669302793199
 30
0.0
 10
286.7600560803748
 20
212.0887949599238
 30
0.0
 10
286.4280699095738
 20
212.1195839999578
 30
0.0
 10
286.096529956745
 20
212.1691141947942
 30
0.0
 10
285.9309830893161
 20
212.1936561832272
 30
0.0
 10
285.7667748758028
 20
212.222214133403
 30
0.0
 10
285.6039053162031
 20
212.2628199688106
 30
0.0
 10
285.52269364539
 20
212.2828997775285
 30
0.0
 10
285.4423744105177
 20
212.3052106761039
 30
0.0
 10
285.3642862655054
 20
212.3359997161386
 30
0.0
 10
285.3138636347232
 20
212.3560795248562
 30
0.0
 10
285.2656720938004
 20
212.3766055515461
 30
0.0
 10
285.222388950565
 20
212.4114105533223
 30
0.0
 10
285.2009704879322
 20
212.4288130542117
 30
0.0
 10
285.1768747174727
 20
212.4533550426435
 30
0.0
 10
285.177767153414
 20
212.4854827365918
 30
0.0
  0
LINE
  5
A2
330
70
100
AcDbEntity
  8
Make2D__可见线__曲线
 62
    18
420
        0
370
    35
100
AcDbLine
 10
290.432429985868
 20
205.7279577761087
 30
0.0
 11
289.2142549236553
 21
205.8154164985234
 31
0.0
  0
LINE
  5
A3
330
70
100
AcDbEntity
  8
Make2D__可见线__曲线
 62
    18
420
        0
370
    35
100
AcDbLine
 10
286.0425375821922
 20
206.0434338819643
 30
0.0
 11
285.3263577379246
 21
206.0947489486866
 31
0.0
  0
SPLINE
  5
A4
330
70
100
AcDbEntity
  8
Make2D__可见线__曲线
 62
    18
420
        0
370
    35
100
AcDbSpline
210
0.0
220
0.0
230
1.0
 70
     8
 71
     3
 72
    20
 73
    16
 74
     0
 42
0.0000000001
 43
0.0000000001
 40
0.0
 40
0.0
 40
0.0
 40
0.0
 40
1.0
 40
1.0
 40
1.0
 40
2.0
 40
2.0
 40
2.0
 40
3.0
 40
3.0
 40
3.0
 40
4.0
 40
4.0
 40
4.0
 40
5.0
 40
5.0
 40
5.0
 40
5.0
 10
290.4922231940495
 20
207.9242426318596
 30
0.0
 10
290.4422467812396
 20
207.9014855153138
 30
0.0
 10
290.3985174200325
 20
207.9586014156661
 30
0.0
 10
290.3779913933436
 20
207.9925139815003
 30
0.0
 10
290.3525569689667
 20
208.0349046887937
 30
0.0
 10
290.337385557938
 20
208.0795264859447
 30
0.0
 10
290.3253376727057
 20
208.1272718088958
 30
0.0
 10
290.3016881202154
 20
208.2236548907411
 30
0.0
 10
290.2972259405016
 20
208.3178068827277
 30
0.0
 10
290.3048116460155
 20
208.4159748364589
 30
0.0
 10
290.3123973515321
 20
208.5141427901903
 30
0.0
 10
290.3315847243068
 20
208.6069561282634
 30
0.0
 10
290.3650510721699
 20
208.6997694663371
 30
0.0
 10
290.3860233168293
 20
208.7591164565476
 30
0.0
 10
290.4489400508116
 20
208.9072608230878
 30
0.0
 10
290.5198887082821
 20
208.9393885170361
 30
0.0
  0
LINE
  5
A5
330
70
100
AcDbEntity
  8
Make2D__可见线__曲线
 62
    18
420
        0
370
    35
100
AcDbLine
 10
288.83006125019
 20
207.2303736861687
 30
0.0
 11
288.9027947795451
 21
209.9643511975834
 31
0.0
  0
SPLINE
  5
A6
330
70
100
AcDbEntity
  8
Make2D__可见线__曲线
 62
    18
420
        0
370
    35
100
AcDbSpline
210
0.0
220
0.0
230
1.0
 70
     8
 71
     3
 72
    14
 73
    10
 74
     0
 42
0.0000000001
 43
0.0000000001
 40
0.0
 40
0.0
 40
0.0
 40
0.0
 40
1.0
 40
1.0
 40
1.0
 40
2.0
 40
2.0
 40
2.0
 40
3.0
 40
3.0
 40
3.0
 40
3.0
 10
288.83006125019
 20
207.2303736861687
 30
0.0
 10
288.8233679806154
 20
206.9720134806661
 30
0.0
 10
288.8327385580179
 20
206.7176692369082
 30
0.0
 10
288.8742368293687
 20
206.4615401212645
 30
0.0
 10
288.8947628560576
 20
206.3339217814132
 30
0.0
 10
288.9219821523186
 20
206.2098731853345
 30
0.0
 10
288.968835039327
 20
206.0885018970862
 30
0.0
 10
289.0049786950207
 20
205.9961347769835
 30
0.0
 10
289.0844054939479
 20
205.8247870759259
 30
0.0
 10
289.2142549236553
 20
205.8154164985234
 30
0.0
  0
LINE
  5
A7
330
70
100
AcDbEntity
  8
Make2D__可见线__曲线
 62
    18
420
        0
370
    35
100
AcDbLine
 10
286.0411989282779
 20
210.1589022331605
 30
0.0
 11
288.9027947795451
 21
209.9643511975834
 31
0.0
  0
LINE
  5
A8
330
70
100
AcDbEntity
  8
Make2D__可见线__曲线
 62
    18
420
        0
370
    35
100
AcDbLine
 10
290.5131954387094
 20
204.0042177521818
 30
0.0
 11
290.4150274849786
 21
200.4077009018445
 31
0.0
  0
LINE
  5
A9
330
70
100
AcDbEntity
  8
Make2D__可见线__曲线
 62
    18
420
        0
370
    35
100
AcDbLine
 10
290.5587096718037
 20
205.6703956577835
 30
0.0
 11
290.5131954387094
 21
204.0042177521818
 31
0.0
  0
LINE
  5
AA
330
70
100
AcDbEntity
  8
Make2D__可见线__曲线
 62
    18
420
        0
370
    35
100
AcDbLine
 10
286.0362905305912
 20
205.791320728062
 30
0.0
 11
286.1121475857478
 21
208.7872281887525
 31
0.0
  0
LINE
  5
AB
330
70
100
AcDbEntity
  8
Make2D__可见线__曲线
 62
    18
420
        0
370
    35
100
AcDbLine
 10
289.1656171647616
 20
205.8274643837538
 30
0.0
 11
288.6805782297344
 21
205.6007856542285
 31
0.0
  0
LINE
  5
AC
330
70
100
AcDbEntity
  8
Make2D__可见线__曲线
 62
    18
420
        0
370
    35
100
AcDbLine
 10
289.4467344868094
 20
197.9128962231552
 30
0.0
 11
289.4458420508661
 21
197.8910315425526
 31
0.0
  0
SPLINE
  5
AD
330
70
100
AcDbEntity
  8
Make2D__可见线__曲线
 62
    18
420
        0
370
    35
100
AcDbSpline
210
0.0
220
0.0
230
1.0
 70
     8
 71
     3
 72
    17
 73
    13
 74
     0
 42
0.0000000001
 43
0.0000000001
 40
0.0
 40
0.0
 40
0.0
 40
0.0
 40
1.0
 40
1.0
 40
1.0
 40
2.0
 40
2.0
 40
2.0
 40
3.0
 40
3.0
 40
3.0
 40
4.0
 40
4.0
 40
4.0
 40
4.0
 10
277.8731789598641
 20
200.6111762968517
 30
0.0
 10
280.168077987318
 20
200.4335815441918
 30
0.0
 10
282.3366973288377
 20
199.6924134935201
 30
0.0
 10
284.3058572370923
 20
198.5291232418054
 30
0.0
 10
286.2732322734623
 20
197.3667254260321
 30
0.0
 10
287.975553834755
 20
195.8205801547644
 30
0.0
 10
289.3980967279162
 20
194.0468637180301
 30
0.0
 10
290.8264404547062
 20
192.2664540117206
 30
0.0
 10
291.9562643585596
 20
190.2803378205488
 30
0.0
 10
292.8107717739939
 20
188.1692805973558
 30
0.0
 10
293.6755422027727
 20
186.0318965138425
 30
0.0
 10
294.2292987054098
 20
183.871755313782
 30
0.0
 10
294.5188941689186
 20
181.5857806457582
 30
0.0
  0
LINE
  5
AE
330
70
100
AcDbEntity
  8
Make2D__可见线__曲线
 62
    18
420
        0
370
    35
100
AcDbLine
 10
306.0710312332324
 20
192.7836206406961
 30
0.0
 11
305.9800027670427
 21
192.7059787136542
 31
0.0
  0
SPLINE
  5
AF
330
70
100
AcDbEntity
  8
Make2D__可见线__曲线
 62
    18
420
        0
370
    35
100
AcDbSpline
210
0.0
220
0.0
230
1.0
 70
     8
 71
     3
 72
     8
 73
     4
 74
     0
 42
0.0000000001
 43
0.0000000001
 40
0.0
 40
0.0
 40
0.0
 40
0.0
 40
1.0
 40
1.0
 40
1.0
 40
1.0
 10
305.6118729405505
 20
195.8170104109926
 30
0.0
 10
305.0871206060597
 20
196.0918806814413
 30
0.0
 10
304.4784792929259
 20
196.1226697214747
 30
0.0
 10
303.9291849700021
 20
195.9013456076071
 30
0.0
  0
SPLINE
  5
B0
330
70
100
AcDbEntity
  8
Make2D__可见线__曲线
 62
    18
420
        0
370
    35
100
AcDbSpline
210
0.0
220
0.0
230
1.0
 70
     8
 71
     3
 72
     8
 73
     4
 74
     0
 42
0.0000000001
 43
0.0000000001
 40
0.0
 40
0.0
 40
0.0
 40
0.0
 40
1.0
 40
1.0
 40
1.0
 40
1.0
 10
306.6332658773287
 20
194.1900996868829
 30
0.0
 10
306.614970940496
 20
194.8679047855999
 30
0.0
 10
306.2294386131144
 20
195.4823469323643
 30
0.0
 10
305.6355224930428
 20
195.8040700898196
 30
0.0
  0
SPLINE
  5
B1
330
70
100
AcDbEntity
  8
Make2D__可见线__曲线
 62
    18
420
        0
370
    35
100
AcDbSpline
210
0.0
220
0.0
230
1.0
 70
     8
 71
     3
 72
     8
 73
     4
 74
     0
 42
0.0000000001
 43
0.0000000001
 40
0.0
 40
0.0
 40
0.0
 40
0.0
 40
1.0
 40
1.0
 40
1.0
 40
1.0
 10
306.0728161051164
 20
192.793437436069
 30
0.0
 10
306.4306829182653
 20
193.1539815570458
 30
0.0
 10
306.6390667109573
 20
193.6501759413602
 30
0.0
 10
306.6337120953003
 20
194.1602030827921
 30
0.0
  0
SPLINE
  5
B2
330
70
100
AcDbEntity
  8
Make2D__可见线__曲线
 62
    18
420
        0
370
    35
100
AcDbSpline
210
0.0
220
0.0
230
1.0
 70
     8
 71
     3
 72
    11
 73
     7
 74
     0
 42
0.0000000001
 43
0.0000000001
 40
0.0
 40
0.0
 40
0.0
 40
0.0
 40
1.0
 40
1.0
 40
1.0
 40
2.0
 40
2.0
 40
2.0
 40
2.0
 10
295.4202544713595
 20
198.343496565658
 30
0.0
 10
295.990967256915
 20
198.7263515852097
 30
0.0
 10
296.3184912480003
 20
199.3930012346403
 30
0.0
 10
296.3167063761131
 20
200.071252551329
 30
0.0
 10
296.3149215042291
 20
200.7526273938185
 30
0.0
 10
295.9833815514003
 20
201.4121375557036
 30
0.0
 10
295.3961587008982
 20
201.7802673821958
 30
0.0
  0
SPLINE
  5
B3
330
70
100
AcDbEntity
  8
Make2D__可见线__曲线
 62
    18
420
        0
370
    35
100
AcDbSpline
210
0.0
220
0.0
230
1.0
 70
     8
 71
     3
 72
     8
 73
     4
 74
     0
 42
0.0000000001
 43
0.0000000001
 40
0.0
 40
0.0
 40
0.0
 40
0.0
 40
1.0
 40
1.0
 40
1.0
 40
1.0
 10
294.5608386582372
 20
202.0488906010441
 30
0.0
 10
294.4613320505928
 20
202.0564763065581
 30
0.0
 10
294.3627178788903
 20
202.0560300885878
 30
0.0
 10
294.2632112712459
 20
202.0475519471286
 30
0.0
  0
SPLINE
  5
B4
330
70
100
AcDbEntity
  8
Make2D__可见线__曲线
 62
    18
420
        0
370
    35
100
AcDbSpline
210
0.0
220
0.0
230
1.0
 70
     8
 71
     3
 72
    14
 73
    10
 74
     0
 42
0.0000000001
 43
0.0000000001
 40
0.0
 40
0.0
 40
0.0
 40
0.0
 40
1.0
 40
1.0
 40
1.0
 40
2.0
 40
2.0
 40
2.0
 40
3.0
 40
3.0
 40
3.0
 40
3.0
 10
293.9780779874539
 20
195.1918590329128
 30
0.0
 10
296.8035301830256
 20
194.9625029955596
 30
0.0
 10
299.1631308163497
 20
192.880003722541
 30
0.0
 10
299.908314828763
 20
190.1866320465325
 30
0.0
 10
300.2768908732287
 20
188.855563837532
 30
0.0
 10
300.2349463839057
 20
187.4312360724843
 30
0.0
 10
299.7387519995913
 20
186.1327417754031
 30
0.0
 10
299.2425576152769
 20
184.8329088244064
 30
0.0
 10
298.322009940062
 20
183.746368063789
 30
0.0
 10
297.1029424419061
 20
183.0654394392724
 30
0.0
  0
SPLINE
  5
B5
330
70
100
AcDbEntity
  8
Make2D__可见线__曲线
 62
    18
420
        0
370
    35
100
AcDbSpline
210
0.0
220
0.0
230
1.0
 70
     8
 71
     3
 72
     8
 73
     4
 74
     0
 42
0.0000000001
 43
0.0000000001
 40
0.0
 40
0.0
 40
0.0
 40
0.0
 40
1.0
 40
1.0
 40
1.0
 40
1.0
 10
292.2824496957287
 20
195.0950297330962
 30
0.0
 10
292.8487003015696
 20
195.2083690978589
 30
0.0
 10
293.4033492401531
 20
195.2387119199213
 30
0.0
 10
293.9780779874539
 20
195.1918590329128
 30
0.0
  0
SPLINE
  5
B6
330
70
100
AcDbEntity
  8
Make2D__可见线__曲线
 62
    18
420
        0
370
    35
100
AcDbSpline
210
0.0
220
0.0
230
1.0
 70
     8
 71
     3
 72
     8
 73
     4
 74
     0
 42
0.0000000001
 43
0.0000000001
 40
0.0
 40
0.0
 40
0.0
 40
0.0
 40
1.0
 40
1.0
 40
1.0
 40
1.0
 10
292.3029757224195
 20
195.0695953087199
 30
0.0
 10
295.488525820999
 20
191.1642956221029
 30
0.0
 10
297.1270382123675
 20
186.052868758503
 30
0.0
 10
297.2216364223277
 20
181.0886938255
 30
0.0
  0
SPLINE
  5
B7
330
70
100
AcDbEntity
  8
Make2D__可见线__曲线
 62
    18
420
        0
370
    35
100
AcDbSpline
210
0.0
220
0.0
230
1.0
 70
     8
 71
     3
 72
     8
 73
     4
 74
     0
 42
0.0000000001
 43
0.0000000001
 40
0.0
 40
0.0
 40
0.0
 40
0.0
 40
1.0
 40
1.0
 40
1.0
 40
1.0
 10
289.4462882688397
 20
197.8905853245803
 30
0.0
 10
290.5011475534778
 20
197.0588350256931
 30
0.0
 10
291.431958242041
 20
196.1338251707624
 30
0.0
 10
292.2824496957287
 20
195.0950297330962
 30
0.0
  0
SPLINE
  5
B8
330
70
100
AcDbEntity
  8
Make2D__可见线__曲线
 62
    18
420
        0
370
    35
100
AcDbSpline
210
0.0
220
0.0
230
1.0
 70
     8
 71
     3
 72
     8
 73
     4
 74
     0
 42
0.0000000001
 43
0.0000000001
 40
0.0
 40
0.0
 40
0.0
 40
0.0
 40
1.0
 40
1.0
 40
1.0
 40
1.0
 10
289.2620002466072
 20
198.0338212934324
 30
0.0
 10
289.3235783266752
 20
197.9865221884548
 30
0.0
 10
289.3851564067426
 20
197.9387768655031
 30
0.0
 10
289.4462882688397
 20
197.8905853245803
 30
0.0
  0
SPLINE
  5
B9
330
70
100
AcDbEntity
  8
Make2D__可见线__曲线
 62
    18
420
        0
370
    35
100
AcDbSpline
210
0.0
220
0.0
230
1.0
 70
     8
 71
     3
 72
     8
 73
     4
 74
     0
 42
0.0000000001
 43
0.0000000001
 40
0.0
 40
0.0
 40
0.0
 40
0.0
 40
1.0
 40
1.0
 40
1.0
 40
1.0
 10
284.9653673989767
 20
200.4157328253321
 30
0.0
 10
286.5155286319904
 20
199.8410040780319
 30
0.0
 10
287.9514580642956
 20
199.0387041652661
 30
0.0
 10
289.2620002466072
 20
198.0338212934324
 30
0.0
  0
SPLINE
  5
BA
330
70
100
AcDbEntity
  8
Make2D__可见线__曲线
 62
    18
420
        0
370
    35
100
AcDbSpline
210
0.0
220
0.0
230
1.0
 70
     8
 71
     3
 72
    14
 73
    10
 74
     0
 42
0.0000000001
 43
0.0000000001
 40
0.0
 40
0.0
 40
0.0
 40
0.0
 40
1.0
 40
1.0
 40
1.0
 40
2.0
 40
2.0
 40
2.0
 40
3.0
 40
3.0
 40
3.0
 40
3.0
 10
296.3519575958641
 20
174.1981959095086
 30
0.0
 10
295.5978492240188
 20
171.4463696792322
 30
0.0
 10
294.3756582000627
 20
168.83510210998
 30
0.0
 10
292.7384844626085
 20
166.4973661572613
 30
0.0
 10
291.916104741125
 20
165.3233666742289
 30
0.0
 10
291.0084973870805
 20
164.2408418753557
 30
0.0
 10
289.9969212456765
 20
163.2252497722089
 30
0.0
 10
288.9853451042719
 20
162.2101038870324
 30
0.0
 10
287.9059438312007
 20
161.2980343532754
 30
0.0
 10
286.7395300536852
 20
160.4658378364165
 30
0.0
  0
SPLINE
  5
BB
330
70
100
AcDbEntity
  8
Make2D__可见线__曲线
 62
    18
420
        0
370
    35
100
AcDbSpline
210
0.0
220
0.0
230
1.0
 70
     8
 71
     3
 72
    11
 73
     7
 74
     0
 42
0.0000000001
 43
0.0000000001
 40
0.0
 40
0.0
 40
0.0
 40
0.0
 40
1.0
 40
1.0
 40
1.0
 40
2.0
 40
2.0
 40
2.0
 40
2.0
 10
294.8446332881168
 20
177.4127501762355
 30
0.0
 10
294.7495888601842
 20
174.1758850109325
 30
0.0
 10
294.0789232490127
 20
170.9492828589739
 30
0.0
 10
292.7322374110081
 20
167.9841644383188
 30
0.0
 10
291.4002767660631
 20
165.0511737116113
 30
0.0
 10
289.4043437795166
 20
162.3618179973456
 30
0.0
 10
286.7413149255724
 20
160.4631605285886
 30
0.0
  0
SPLINE
  5
BC
330
70
100
AcDbEntity
  8
Make2D__可见线__曲线
 62
    18
420
        0
370
    35
100
AcDbSpline
210
0.0
220
0.0
230
1.0
 70
     8
 71
     3
 72
     8
 73
     4
 74
     0
 42
0.0000000001
 43
0.0000000001
 40
0.0
 40
0.0
 40
0.0
 40
0.0
 40
1.0
 40
1.0
 40
1.0
 40
1.0
 10
294.7540510399006
 20
198.2439899580129
 30
0.0
 10
294.4845353851115
 20
198.1065548227895
 30
0.0
 10
294.1828920363735
 20
198.0489927044656
 30
0.0
 10
293.8812486876355
 20
198.0726422569534
 30
0.0
  0
LINE
  5
BD
330
70
100
AcDbEntity
  8
Make2D__可见线__曲线
 62
    18
420
        0
370
    35
100
AcDbLine
 10
293.2208460898065
 20
199.9820089570284
 30
0.0
 11
293.6095019429883
 21
200.6089452069929
 31
0.0
  0
LINE
  5
BE
330
70
100
AcDbEntity
  8
Make2D__可见线__曲线
 62
    18
420
        0
370
    35
100
AcDbLine
 10
294.3988615345821
 20
199.0855570522742
 30
0.0
 11
293.6518926502823
 21
199.1435653885685
 31
0.0
  0
LINE
  5
BF
330
70
100
AcDbEntity
  8
Make2D__可见线__曲线
 62
    18
420
        0
370
    35
100
AcDbLine
 10
294.7875173877625
 20
199.7107084303528
 30
0.0
 11
294.3087255043369
 21
198.9405362115336
 31
0.0
  0
LINE
  5
C0
330
70
100
AcDbEntity
  8
Make2D__可见线__曲线
 62
    18
420
        0
370
    35
100
AcDbLine
 10
293.444401293531
 20
200.6214393101968
 30
0.0
 11
294.3551321733744
 21
200.5518293066419
 31
0.0
  0
SPLINE
  5
C1
330
70
100
AcDbEntity
  8
Make2D__可见线__曲线
 62
    18
420
        0
370
    35
100
AcDbSpline
210
0.0
220
0.0
230
1.0
 70
     8
 71
     3
 72
     8
 73
     4
 74
     0
 42
0.0000000001
 43
0.0000000001
 40
0.0
 40
0.0
 40
0.0
 40
0.0
 40
1.0
 40
1.0
 40
1.0
 40
1.0
 10
271.0406893801664
 20
199.5000935478013
 30
0.0
 10
274.0133935063381
 20
200.8806919516408
 30
0.0
 10
277.245796491928
 20
201.6294457078264
 30
0.0
 10
280.5603035842722
 20
201.3755476820402
 30
0.0
  0
SPLINE
  5
C2
330
70
100
AcDbEntity
  8
Make2D__可见线__曲线
 62
    18
420
        0
370
    35
100
AcDbSpline
210
0.0
220
0.0
230
1.0
 70
     8
 71
     3
 72
     8
 73
     4
 74
     0
 42
0.0000000001
 43
0.0000000001
 40
0.0
 40
0.0
 40
0.0
 40
0.0
 40
1.0
 40
1.0
 40
1.0
 40
1.0
 10
292.9316968442699
 20
201.2666704969933
 30
0.0
 10
293.1012596734435
 20
201.5169987790084
 30
0.0
 10
293.3297232748554
 20
201.7204741740143
 30
0.0
 10
293.5996851476141
 20
201.8588017451816
 30
0.0
  0
SPLINE
  5
C3
330
70
100
AcDbEntity
  8
Make2D__可见线__曲线
 62
    18
420
        0
370
    35
100
AcDbSpline
210
0.0
220
0.0
230
1.0
 70
     8
 71
     3
 72
     8
 73
     4
 74
     0
 42
0.0000000001
 43
0.0000000001
 40
0.0
 40
0.0
 40
0.0
 40
0.0
 40
1.0
 40
1.0
 40
1.0
 40
1.0
 10
292.878596905663
 20
201.2278495334724
 30
0.0
 10
292.8959994065504
 20
201.240789854646
 30
0.0
 10
292.9138481254114
 20
201.2537301758203
 30
0.0
 10
292.9316968442699
 20
201.2666704969933
 30
0.0
  0
SPLINE
  5
C4
330
70
100
AcDbEntity
  8
Make2D__可见线__曲线
 62
    18
420
        0
370
    35
100
AcDbSpline
210
0.0
220
0.0
230
1.0
 70
     8
 71
     3
 72
     8
 73
     4
 74
     0
 42
0.0000000001
 43
0.0000000001
 40
0.0
 40
0.0
 40
0.0
 40
0.0
 40
1.0
 40
1.0
 40
1.0
 40
1.0
 10
292.9316968442699
 20
201.2666704969933
 30
0.0
 10
292.9946135782535
 20
201.3108460761726
 30
0.0
 10
293.0602076200638
 20
201.3501132576639
 30
0.0
 10
293.1289251876761
 20
201.3849182594427
 30
0.0
  0
SPLINE
  5
C5
330
70
100
AcDbEntity
  8
Make2D__可见线__曲线
 62
    18
420
        0
370
    35
100
AcDbSpline
210
0.0
220
0.0
230
1.0
 70
     8
 71
     3
 72
     8
 73
     4
 74
     0
 42
0.0000000001
 43
0.0000000001
 40
0.0
 40
0.0
 40
0.0
 40
0.0
 40
1.0
 40
1.0
 40
1.0
 40
1.0
 10
274.9000286157201
 20
162.425180949299
 30
0.0
 10
273.0633954450041
 20
160.4966268764512
 30
0.0
 10
270.4717614664969
 20
159.6345337555029
 30
0.0
 10
267.8538006276727
 20
159.9393006300398
 30
0.0
  0
SPLINE
  5
C6
330
70
100
AcDbEntity
  8
Make2D__可见线__曲线
 62
    18
420
        0
370
    35
100
AcDbSpline
210
0.0
220
0.0
230
1.0
 70
     8
 71
     3
 72
    11
 73
     7
 74
     0
 42
0.0000000001
 43
0.0000000001
 40
0.0
 40
0.0
 40
0.0
 40
0.0
 40
1.0
 40
1.0
 40
1.0
 40
2.0
 40
2.0
 40
2.0
 40
2.0
 10
265.5406066633873
 20
187.3428849141269
 30
0.0
 10
263.693264261352
 20
186.857845979099
 30
0.0
 10
262.0935728335039
 20
185.7623808590527
 30
0.0
 10
260.9650875835679
 20
184.224267511272
 30
0.0
 10
259.8379409875424
 20
182.6883852533494
 30
0.0
 10
259.2654433300998
 20
180.8312260559425
 30
0.0
 10
259.2382240338395
 20
178.9423853825587
 30
0.0
  0
SPLINE
  5
C7
330
70
100
AcDbEntity
  8
Make2D__可见线__曲线
 62
    18
420
        0
370
    35
100
AcDbSpline
210
0.0
220
0.0
230
1.0
 70
     8
 71
     3
 72
    11
 73
     7
 74
     0
 42
0.0000000001
 43
0.0000000001
 40
0.0
 40
0.0
 40
0.0
 40
0.0
 40
1.0
 40
1.0
 40
1.0
 40
2.0
 40
2.0
 40
2.0
 40
2.0
 10
265.773532444513
 20
189.8211795278702
 30
0.0
 10
263.1747589784622
 20
189.4628664967502
 30
0.0
 10
260.8365768077721
 20
188.1688343793835
 30
0.0
 10
259.161028324768
 20
186.1470207504904
 30
0.0
 10
257.4894958035066
 20
184.1296693013136
 30
0.0
 10
256.6381119138751
 20
181.5880117356151
 30
0.0
 10
256.603306912097
 20
178.9954853211679
 30
0.0
  0
LINE
  5
C8
330
70
100
AcDbEntity
  8
Make2D__可见线__曲线
 62
    18
420
        0
370
    35
100
AcDbLine
 10
279.3921049348696
 20
175.3333744290185
 30
0.0
 11
279.3916587168998
 21
175.3347130829328
 31
0.0
  0
SPLINE
  5
C9
330
70
100
AcDbEntity
  8
Make2D__可见线__曲线
 62
    18
420
        0
370
    35
100
AcDbSpline
210
0.0
220
0.0
230
1.0
 70
     8
 71
     3
 72
    14
 73
    10
 74
     0
 42
0.0000000001
 43
0.0000000001
 40
0.0
 40
0.0
 40
0.0
 40
0.0
 40
1.0
 40
1.0
 40
1.0
 40
2.0
 40
2.0
 40
2.0
 40
3.0
 40
3.0
 40
3.0
 40
3.0
 10
259.1141754377602
 20
170.450857384803
 30
0.0
 10
259.0583981913227
 20
166.6406021261144
 30
0.0
 10
261.2185393913806
 20
163.0034794403703
 30
0.0
 10
264.5513414205594
 20
161.1829101166275
 30
0.0
 10
266.2050252229604
 20
160.2797649422994
 30
0.0
 10
268.0992205120016
 20
159.8549654334246
 30
0.0
 10
269.9885074033581
 20
160.0669189698897
 30
0.0
 10
271.8813640384844
 20
160.2788725063567
 30
0.0
 10
273.6269687430159
 20
161.1177622927863
 30
0.0
 10
274.9584831699886
 20
162.4872052473374
 30
0.0
  0
SPLINE
  5
CA
330
70
100
AcDbEntity
  8
Make2D__可见线__曲线
 62
    18
420
        0
370
    35
100
AcDbSpline
210
0.0
220
0.0
230
1.0
 70
     8
 71
     3
 72
    11
 73
     7
 74
     0
 42
0.0000000001
 43
0.0000000001
 40
0.0
 40
0.0
 40
0.0
 40
0.0
 40
1.0
 40
1.0
 40
1.0
 40
2.0
 40
2.0
 40
2.0
 40
2.0
 10
258.2703772536445
 20
178.8294922357674
 30
0.0
 10
258.306520909333
 20
181.3988153156972
 30
0.0
 10
259.285523138819
 20
183.8980821741023
 30
0.0
 10
261.1757024661188
 20
185.6954481633266
 30
0.0
 10
263.0716826270453
 20
187.498614986181
 30
0.0
 10
265.6142326286851
 20
188.3321501569535
 30
0.0
 10
268.2014044274779
 20
188.0996705938001
 30
0.0
  0
SPLINE
  5
CB
330
70
100
AcDbEntity
  8
Make2D__可见线__曲线
 62
    18
420
        0
370
    35
100
AcDbSpline
210
0.0
220
0.0
230
1.0
 70
     8
 71
     3
 72
    11
 73
     7
 74
     0
 42
0.0000000001
 43
0.0000000001
 40
0.0
 40
0.0
 40
0.0
 40
0.0
 40
1.0
 40
1.0
 40
1.0
 40
2.0
 40
2.0
 40
2.0
 40
2.0
 10
277.747791709871
 20
168.2197675272724
 30
0.0
 10
277.6906758095175
 20
165.6526755371995
 30
0.0
 10
276.6799921040586
 20
163.1685800898282
 30
0.0
 10
274.749653159325
 20
161.4136048078956
 30
0.0
 10
272.8135133809601
 20
159.6537211282762
 30
0.0
 10
270.2473138268298
 20
158.9005051923735
 30
0.0
 10
267.6739747851559
 20
159.2021485411122
 30
0.0
  0
SPLINE
  5
CC
330
70
100
AcDbEntity
  8
Make2D__可见线__曲线
 62
    18
420
        0
370
    35
100
AcDbSpline
210
0.0
220
0.0
230
1.0
 70
     8
 71
     3
 72
    11
 73
     7
 74
     0
 42
0.0000000001
 43
0.0000000001
 40
0.0
 40
0.0
 40
0.0
 40
0.0
 40
1.0
 40
1.0
 40
1.0
 40
2.0
 40
2.0
 40
2.0
 40
2.0
 10
281.6031149836807
 20
167.8583309703535
 30
0.0
 10
281.5089629916933
 20
164.3631055995485
 30
0.0
 10
280.0708024695305
 20
160.8718961904876
 30
0.0
 10
277.438116437648
 20
158.4873073507601
 30
0.0
 10
274.8005220080756
 20
156.0978101133471
 30
0.0
 10
271.1776782974214
 20
155.0411659568212
 30
0.0
 10
267.6784369648717
 20
155.4632881578648
 30
0.0
  0
LINE
  5
CD
330
70
100
AcDbEntity
  8
Make2D__可见线__曲线
 62
    18
420
        0
370
    35
100
AcDbLine
 10
259.2382240338395
 20
178.9423853825587
 30
0.0
 11
259.1141754377602
 21
170.450857384803
 31
0.0
  0
SPLINE
  5
CE
330
70
100
AcDbEntity
  8
Make2D__可见线__曲线
 62
    18
420
        0
370
    35
100
AcDbSpline
210
0.0
220
0.0
230
1.0
 70
     8
 71
     3
 72
    17
 73
    13
 74
     0
 42
0.0000000001
 43
0.0000000001
 40
0.0
 40
0.0
 40
0.0
 40
0.0
 40
1.0
 40
1.0
 40
1.0
 40
2.0
 40
2.0
 40
2.0
 40
3.0
 40
3.0
 40
3.0
 40
4.0
 40
4.0
 40
4.0
 40
4.0
 10
264.880204065559
 20
179.3564756601145
 30
0.0
 10
263.6700609268333
 20
178.6951806263435
 30
0.0
 10
262.7758401119367
 20
177.6153331352994
 30
0.0
 10
262.3046339340269
 20
176.3293329414196
 30
0.0
 10
261.8343201920599
 20
175.0460100553687
 30
0.0
 10
261.8129017294283
 20
173.6426545349825
 30
0.0
 10
262.1747845043195
 20
172.336574532386
 30
0.0
 10
262.537113497181
 20
171.0273710039884
 30
0.0
 10
263.2769428939384
 20
169.8368614560103
 30
0.0
 10
264.2894114712837
 20
168.9314851918249
 30
0.0
 10
265.3000951767457
 20
168.0283400174981
 30
0.0
 10
266.5673542158206
 20
167.4250533200221
 30
0.0
 10
267.9260879390556
 20
167.2760165175394
 30
0.0
  0
SPLINE
  5
CF
330
70
100
AcDbEntity
  8
Make2D__可见线__曲线
 62
    18
420
        0
370
    35
100
AcDbSpline
210
0.0
220
0.0
230
1.0
 70
    24
 71
     3
 72
     8
 73
     4
 74
     0
 42
0.0000000001
 43
0.0000000001
 40
0.0
 40
0.0
 40
0.0
 40
0.0
 40
1.0
 40
1.0
 40
1.0
 40
1.0
 10
270.9438600803518
 20
199.4550255326793
 30
0.0
 10
270.9715255945844
 20
199.4679658538537
 30
0.0
 10
270.9991911088188
 20
199.4809061750273
 30
0.0
 10
271.026856623052
 20
199.493846496201
 30
0.0
  0
SPLINE
  5
D0
330
70
100
AcDbEntity
  8
Make2D__可见线__曲线
 62
    18
420
        0
370
    35
100
AcDbSpline
210
0.0
220
0.0
230
1.0
 70
     8
 71
     3
 72
     8
 73
     4
 74
     0
 42
0.0000000001
 43
0.0000000001
 40
0.0
 40
0.0
 40
0.0
 40
0.0
 40
1.0
 40
1.0
 40
1.0
 40
1.0
 10
279.3921049348696
 20
175.3333744290185
 30
0.0
 10
279.4054914740161
 20
175.2726887848943
 30
0.0
 10
279.4693006439404
 20
175.2427921808036
 30
0.0
 10
279.5228468005216
 20
175.2352064752877
 30
0.0
  0
LINE
  5
D1
330
70
100
AcDbEntity
  8
Make2D__可见线__曲线
 62
    18
420
        0
370
    35
100
AcDbLine
 10
274.9584831699886
 20
162.4872052473374
 30
0.0
 11
274.9584831699886
 21
162.4872052473374
 31
0.0
  0
SPLINE
  5
D2
330
70
100
AcDbEntity
  8
Make2D__可见线__曲线
 62
    18
420
        0
370
    35
100
AcDbSpline
210
0.0
220
0.0
230
1.0
 70
     8
 71
     3
 72
     8
 73
     4
 74
     0
 42
0.0000000001
 43
0.0000000001
 40
0.0
 40
0.0
 40
0.0
 40
0.0
 40
1.0
 40
1.0
 40
1.0
 40
1.0
 10
271.041135598138
 20
199.5000935478013
 30
0.0
 10
273.1379138462445
 20
200.4273344925902
 30
0.0
 10
275.3948843461214
 20
200.8240222692594
 30
0.0
 10
277.6835363219751
 20
200.6473199525435
 30
0.0
  0
LINE
  5
D3
330
70
100
AcDbEntity
  8
Make2D__可见线__曲线
 62
    18
420
        0
370
    35
100
AcDbLine
 10
264.9270569525656
 20
179.3823563024624
 30
0.0
 11
264.926610734594
 21
179.3819100844908
 31
0.0
  0
SPLINE
  5
D4
330
70
100
AcDbEntity
  8
Make2D__可见线__曲线
 62
    18
420
        0
370
    35
100
AcDbSpline
210
0.0
220
0.0
230
1.0
 70
     8
 71
     3
 72
    11
 73
     7
 74
     0
 42
0.0000000001
 43
0.0000000001
 40
0.0
 40
0.0
 40
0.0
 40
0.0
 40
1.0
 40
1.0
 40
1.0
 40
2.0
 40
2.0
 40
2.0
 40
2.0
 10
293.3596198789461
 20
169.9002244079645
 30
0.0
 10
292.7375920266652
 20
168.0720693787058
 30
0.0
 10
291.8862081370317
 20
166.3144167889434
 30
0.0
 10
290.7956514146722
 20
164.7160640150088
 30
0.0
 10
289.7059871282571
 20
163.1194961129615
 30
0.0
 10
288.378042445055
 20
161.6849053345706
 30
0.0
 10
286.8225265963836
 20
160.5256310445993
 30
0.0
  0
SPLINE
  5
D5
330
70
100
AcDbEntity
  8
Make2D__可见线__曲线
 62
    18
420
        0
370
    35
100
AcDbSpline
210
0.0
220
0.0
230
1.0
 70
     8
 71
     3
 72
     8
 73
     4
 74
     0
 42
0.0000000001
 43
0.0000000001
 40
0.0
 40
0.0
 40
0.0
 40
0.0
 40
1.0
 40
1.0
 40
1.0
 40
1.0
 10
286.8225265963836
 20
160.5256310445993
 30
0.0
 10
286.7796896711198
 20
160.4935033506497
 30
0.0
 10
286.736852745856
 20
160.4618218746724
 30
0.0
 10
286.69356960262
 20
160.4305866166687
 30
0.0
  0
SPLINE
  5
D6
330
70
100
AcDbEntity
  8
Make2D__可见线__曲线
 62
    18
420
        0
370
    35
100
AcDbSpline
210
0.0
220
0.0
230
1.0
 70
     8
 71
     3
 72
     8
 73
     4
 74
     0
 42
0.0000000001
 43
0.0000000001
 40
0.0
 40
0.0
 40
0.0
 40
0.0
 40
1.0
 40
1.0
 40
1.0
 40
1.0
 10
275.8455644973423
 20
185.3973745583614
 30
0.0
 10
275.8460107153139
 20
185.3996056482183
 30
0.0
 10
275.8460107153139
 20
185.4022829560475
 30
0.0
 10
275.8464569332836
 20
185.4045140459051
 30
0.0
  0
SPLINE
  5
D7
330
70
100
AcDbEntity
  8
Make2D__可见线__曲线
 62
    18
420
        0
370
    35
100
AcDbSpline
210
0.0
220
0.0
230
1.0
 70
     8
 71
     3
 72
     8
 73
     4
 74
     0
 42
0.0000000001
 43
0.0000000001
 40
0.0
 40
0.0
 40
0.0
 40
0.0
 40
1.0
 40
1.0
 40
1.0
 40
1.0
 10
294.249378514127
 20
173.3204851595556
 30
0.0
 10
294.2587490915295
 20
173.3271784291282
 30
0.0
 10
294.268565886901
 20
173.3338716987002
 30
0.0
 10
294.2783826822751
 20
173.3405649682748
 30
0.0
  0
SPLINE
  5
D8
330
70
100
AcDbEntity
  8
Make2D__可见线__曲线
 62
    18
420
        0
370
    35
100
AcDbSpline
210
0.0
220
0.0
230
1.0
 70
     8
 71
     3
 72
    11
 73
     7
 74
     0
 42
0.0000000001
 43
0.0000000001
 40
0.0
 40
0.0
 40
0.0
 40
0.0
 40
1.0
 40
1.0
 40
1.0
 40
2.0
 40
2.0
 40
2.0
 40
2.0
 10
267.8912829372787
 20
156.6386262948111
 30
0.0
 10
267.748493186397
 20
156.5422432129663
 30
0.0
 10
267.5664362540226
 20
156.5587532779124
 30
0.0
 10
267.4290011187979
 20
156.6502279620692
 30
0.0
 10
267.2924584195185
 20
156.7412564282577
 30
0.0
 10
267.2049996971044
 20
156.9001100261133
 30
0.0
 10
267.2081232229039
 20
157.0656568935415
 30
0.0
  0
SPLINE
  5
D9
330
70
100
AcDbEntity
  8
Make2D__可见线__曲线
 62
    18
420
        0
370
    35
100
AcDbSpline
210
0.0
220
0.0
230
1.0
 70
     8
 71
     3
 72
     8
 73
     4
 74
     0
 42
0.0000000001
 43
0.0000000001
 40
0.0
 40
0.0
 40
0.0
 40
0.0
 40
1.0
 40
1.0
 40
1.0
 40
1.0
 10
254.5752462316022
 20
179.6960475364314
 30
0.0
 10
254.6453024531288
 20
180.9793704224827
 30
0.0
 10
254.9112483641473
 20
182.2466294615582
 30
0.0
 10
255.3739764005972
 20
183.4469558049092
 30
0.0
  0
SPLINE
  5
DA
330
70
100
AcDbEntity
  8
Make2D__可见线__曲线
 62
    18
420
        0
370
    35
100
AcDbSpline
210
0.0
220
0.0
230
1.0
 70
     8
 71
     3
 72
    11
 73
     7
 74
     0
 42
0.0000000001
 43
0.0000000001
 40
0.0
 40
0.0
 40
0.0
 40
0.0
 40
1.0
 40
1.0
 40
1.0
 40
2.0
 40
2.0
 40
2.0
 40
2.0
 10
259.0485813959493
 20
178.8634048016016
 30
0.0
 10
259.0762469101818
 20
180.7750025915316
 30
0.0
 10
259.6594537989405
 20
182.6535802515707
 30
0.0
 10
260.8075726396247
 20
184.2028490486391
 30
0.0
 10
261.9574763521947
 20
185.7543489355652
 30
0.0
 10
263.5852795122484
 20
186.8507064915554
 30
0.0
 10
265.4598412105453
 20
187.3228051054077
 30
0.0
  0
LINE
  5
DB
330
70
100
AcDbEntity
  8
Make2D__可见线__曲线
 62
    18
420
        0
370
    35
100
AcDbLine
 10
258.9249790178415
 20
170.3656297522455
 30
0.0
 11
259.0485813959493
 21
178.8634048016016
 31
0.0
  0
SPLINE
  5
DC
330
70
100
AcDbEntity
  8
Make2D__可见线__曲线
 62
    18
420
        0
370
    35
100
AcDbSpline
210
0.0
220
0.0
230
1.0
 70
     8
 71
     3
 72
    11
 73
     7
 74
     0
 42
0.0000000001
 43
0.0000000001
 40
0.0
 40
0.0
 40
0.0
 40
0.0
 40
1.0
 40
1.0
 40
1.0
 40
2.0
 40
2.0
 40
2.0
 40
2.0
 10
267.6739747851559
 20
159.2021485411122
 30
0.0
 10
264.9890812506078
 20
159.5167322110239
 30
0.0
 10
262.5545159980704
 20
160.935259142441
 30
0.0
 10
260.8307759741434
 20
162.971797964393
 30
0.0
 10
259.1052510783293
 20
165.0110140941761
 30
0.0
 10
258.111077437816
 20
167.6414690362023
 30
0.0
 10
258.1494521833633
 20
170.3290398785815
 30
0.0
  0
SPLINE
  5
DD
330
70
100
AcDbEntity
  8
Make2D__可见线__曲线
 62
    18
420
        0
370
    35
100
AcDbSpline
210
0.0
220
0.0
230
1.0
 70
     8
 71
     3
 72
    11
 73
     7
 74
     0
 42
0.0000000001
 43
0.0000000001
 40
0.0
 40
0.0
 40
0.0
 40
0.0
 40
1.0
 40
1.0
 40
1.0
 40
2.0
 40
2.0
 40
2.0
 40
2.0
 10
267.8538006276727
 20
159.9393006300398
 30
0.0
 10
265.3366850504085
 20
160.2324658373186
 30
0.0
 10
263.0538339081842
 20
161.5613029564634
 30
0.0
 10
261.4380786333636
 20
163.4697772205952
 30
0.0
 10
259.8200922686814
 20
165.3804825745825
 30
0.0
 10
258.8883891441781
 20
167.8462830851238
 30
0.0
 10
258.9249790178415
 20
170.3656297522455
 30
0.0
  0
LINE
  5
DE
330
70
100
AcDbEntity
  8
Make2D__可见线__曲线
 62
    18
420
        0
370
    35
100
AcDbLine
 10
256.5894741549807
 20
177.982570525849
 30
0.0
 11
255.9272866852664
 21
177.7402741673208
 31
0.0
  0
SPLINE
  5
DF
330
70
100
AcDbEntity
  8
Make2D__可见线__曲线
 62
    18
420
        0
370
    35
100
AcDbSpline
210
0.0
220
0.0
230
1.0
 70
     8
 71
     3
 72
     8
 73
     4
 74
     0
 42
0.0000000001
 43
0.0000000001
 40
0.0
 40
0.0
 40
0.0
 40
0.0
 40
1.0
 40
1.0
 40
1.0
 40
1.0
 10
255.9272866852664
 20
177.7402741673208
 30
0.0
 10
256.0058210482523
 20
177.4944080650209
 30
0.0
 10
256.0843554112361
 20
177.2489881806932
 30
0.0
 10
256.1628897742219
 20
177.0035682963655
 30
0.0
  0
LINE
  5
E0
330
70
100
AcDbEntity
  8
Make2D__可见线__曲线
 62
    18
420
        0
370
    35
100
AcDbLine
 10
258.1494521833633
 20
170.3290398785815
 30
0.0
 11
258.2703772536445
 21
178.8294922357674
 31
0.0
  0
LINE
  5
E1
330
70
100
AcDbEntity
  8
Make2D__可见线__曲线
 62
    18
420
        0
370
    35
100
AcDbLine
 10
256.603306912097
 20
178.9954853211679
 30
0.0
 11
256.5894741549807
 21
177.982570525849
 31
0.0
  0
LINE
  5
E2
330
70
100
AcDbEntity
  8
Make2D__可见线__曲线
 62
    18
420
        0
370
    35
100
AcDbLine
 10
265.3554262052115
 20
189.7890518339212
 30
0.0
 11
266.1974395174425
 21
189.8711559406776
 31
0.0
  0
LINE
  5
E3
330
70
100
AcDbEntity
  8
Make2D__可见线__曲线
 62
    18
420
        0
370
    35
100
AcDbLine
 10
265.7739786624846
 20
189.8211795278702
 30
0.0
 11
265.7739786624846
 21
189.8211795278702
 31
0.0
  0
SPLINE
  5
E4
330
70
100
AcDbEntity
  8
Make2D__可见线__曲线
 62
    18
420
        0
370
    35
100
AcDbSpline
210
0.0
220
0.0
230
1.0
 70
     8
 71
     3
 72
    11
 73
     7
 74
     0
 42
0.0000000001
 43
0.0000000001
 40
0.0
 40
0.0
 40
0.0
 40
0.0
 40
1.0
 40
1.0
 40
1.0
 40
2.0
 40
2.0
 40
2.0
 40
2.0
 10
255.3739764005972
 20
183.4469558049092
 30
0.0
 10
256.7059370455428
 20
186.9145156614804
 30
0.0
 10
259.0976653728153
 20
190.2441941648574
 30
0.0
 10
261.6594027472298
 20
192.8634936575969
 30
0.0
 10
264.2996744846294
 20
195.563558603178
 30
0.0
 10
267.4441725298311
 20
197.8615811564335
 30
0.0
 10
270.8956685394284
 20
199.4344995059898
 30
0.0
  0
LINE
  5
E5
330
70
100
AcDbEntity
  8
Make2D__可见线__曲线
 62
    18
420
        0
370
    35
100
AcDbLine
 10
266.5352265218723
 20
155.6515921418408
 30
0.0
 11
266.5352265218723
 21
155.6515921418408
 31
0.0
  0
LINE
  5
E6
330
70
100
AcDbEntity
  8
Make2D__可见线__曲线
 62
    18
420
        0
370
    35
100
AcDbLine
 10
279.2845664037363
 20
176.2057305633113
 30
0.0
 11
279.2845664037363
 21
176.2052843453409
 31
0.0
  0
LINE
  5
E7
330
70
100
AcDbEntity
  8
Make2D__可见线__曲线
 62
    18
420
        0
370
    35
100
AcDbLine
 10
267.9198408874571
 20
157.313307867728
 30
0.0
 11
267.4597901588339
 21
157.0085409931911
 31
0.0
  0
LINE
  5
E8
330
70
100
AcDbEntity
  8
Make2D__可见线__曲线
 62
    18
420
        0
370
    35
100
AcDbLine
 10
279.2100480024946
 20
177.2123983070311
 30
0.0
 11
279.2100480024946
 21
177.2128445250015
 31
0.0
  0
LINE
  5
E9
330
70
100
AcDbEntity
  8
Make2D__可见线__曲线
 62
    18
420
        0
370
    35
100
AcDbLine
 10
266.5254097265001
 20
155.653823231699
 30
0.0
 11
266.5254097265001
 21
155.653823231699
 31
0.0
  0
LINE
  5
EA
330
70
100
AcDbEntity
  8
Make2D__可见线__曲线
 62
    18
420
        0
370
    35
100
AcDbLine
 10
279.5442652631531
 20
174.5930988142914
 30
0.0
 11
279.3921049348696
 21
175.3333744290185
 31
0.0
  0
SPLINE
  5
EB
330
70
100
AcDbEntity
  8
Make2D__可见线__曲线
 62
    18
420
        0
370
    35
100
AcDbSpline
210
0.0
220
0.0
230
1.0
 70
     8
 71
     3
 72
     8
 73
     4
 74
     0
 42
0.0000000001
 43
0.0000000001
 40
0.0
 40
0.0
 40
0.0
 40
0.0
 40
1.0
 40
1.0
 40
1.0
 40
1.0
 10
279.7602347613617
 20
173.0313359140189
 30
0.0
 10
279.7923624553113
 20
172.6636523054991
 30
0.0
 10
279.8700043823538
 20
172.3071241462669
 30
0.0
 10
279.9507698351952
 20
171.9492573331173
 30
0.0
  0
SPLINE
  5
EC
330
70
100
AcDbEntity
  8
Make2D__可见线__曲线
 62
    18
420
        0
370
    35
100
AcDbSpline
210
0.0
220
0.0
230
1.0
 70
     8
 71
     3
 72
     8
 73
     4
 74
     0
 42
0.0000000001
 43
0.0000000001
 40
0.0
 40
0.0
 40
0.0
 40
0.0
 40
1.0
 40
1.0
 40
1.0
 40
1.0
 10
279.3907662809546
 20
175.341406352506
 30
0.0
 10
279.3912124989263
 20
175.3391752626485
 30
0.0
 10
279.3912124989263
 20
175.3369441727916
 30
0.0
 10
279.3916587168998
 20
175.3347130829328
 30
0.0
  0
SPLINE
  5
ED
330
70
100
AcDbEntity
  8
Make2D__可见线__曲线
 62
    18
420
        0
370
    35
100
AcDbSpline
210
0.0
220
0.0
230
1.0
 70
     8
 71
     3
 72
     8
 73
     4
 74
     0
 42
0.0000000001
 43
0.0000000001
 40
0.0
 40
0.0
 40
0.0
 40
0.0
 40
1.0
 40
1.0
 40
1.0
 40
1.0
 10
279.2765344802487
 20
176.233842295518
 30
0.0
 10
279.2475303121012
 20
176.5595814147187
 30
0.0
 10
279.2283429393272
 20
176.8857667518878
 30
0.0
 10
279.2100480024946
 20
177.2123983070311
 30
0.0
  0
SPLINE
  5
EE
330
70
100
AcDbEntity
  8
Make2D__可见线__曲线
 62
    18
420
        0
370
    35
100
AcDbSpline
210
0.0
220
0.0
230
1.0
 70
     8
 71
     3
 72
     8
 73
     4
 74
     0
 42
0.0000000001
 43
0.0000000001
 40
0.0
 40
0.0
 40
0.0
 40
0.0
 40
1.0
 40
1.0
 40
1.0
 40
1.0
 10
267.2081232229039
 20
157.0656568935415
 30
0.0
 10
267.2103543127615
 20
157.1950601052799
 30
0.0
 10
267.2692550850003
 20
157.3182162654148
 30
0.0
 10
267.3790247059925
 20
157.3922884486861
 30
0.0
  0
SPLINE
  5
EF
330
70
100
AcDbEntity
  8
Make2D__可见线__曲线
 62
    18
420
        0
370
    35
100
AcDbSpline
210
0.0
220
0.0
230
1.0
 70
     8
 71
     3
 72
     8
 73
     4
 74
     0
 42
0.0000000001
 43
0.0000000001
 40
0.0
 40
0.0
 40
0.0
 40
0.0
 40
1.0
 40
1.0
 40
1.0
 40
1.0
 10
267.4191843234264
 20
157.2075542084806
 30
0.0
 10
267.4209691953123
 20
157.2976902387246
 30
0.0
 10
267.4428338759162
 20
157.370869986052
 30
0.0
 10
267.4968262504689
 20
157.444495951353
 30
0.0
  0
SPLINE
  5
F0
330
70
100
AcDbEntity
  8
Make2D__可见线__曲线
 62
    18
420
        0
370
    35
100
AcDbSpline
210
0.0
220
0.0
230
1.0
 70
     8
 71
     3
 72
    11
 73
     7
 74
     0
 42
0.0000000001
 43
0.0000000001
 40
0.0
 40
0.0
 40
0.0
 40
0.0
 40
1.0
 40
1.0
 40
1.0
 40
2.0
 40
2.0
 40
2.0
 40
2.0
 10
268.2014044274779
 20
188.0996705938001
 30
0.0
 10
270.9509995678961
 20
187.8524658375853
 30
0.0
 10
273.4578521318139
 20
186.4410783937137
 30
0.0
 10
275.2275526068067
 20
184.3719656598411
 30
0.0
 10
276.999484171657
 20
182.3006218361103
 30
0.0
 10
278.0025821716012
 20
179.6112661218459
 30
0.0
 10
277.9414503095042
 20
176.8714877767992
 30
0.0
  0
SPLINE
  5
F1
330
70
100
AcDbEntity
  8
Make2D__可见线__曲线
 62
    18
420
        0
370
    35
100
AcDbSpline
210
0.0
220
0.0
230
1.0
 70
     8
 71
     3
 72
    11
 73
     7
 74
     0
 42
0.0000000001
 43
0.0000000001
 40
0.0
 40
0.0
 40
0.0
 40
0.0
 40
1.0
 40
1.0
 40
1.0
 40
2.0
 40
2.0
 40
2.0
 40
2.0
 10
268.3593655893889
 20
187.5450216552179
 30
0.0
 10
270.9335970670067
 20
187.3125420920639
 30
0.0
 10
273.2802573791553
 20
185.9908444604627
 30
0.0
 10
274.9375109253281
 20
184.0533660281847
 30
0.0
 10
276.5961031254144
 20
182.1136565060493
 30
0.0
 10
277.5353919554362
 20
179.5960947108147
 30
0.0
 10
277.4787222730536
 20
177.0307875926271
 30
0.0
  0
LINE
  5
F2
330
70
100
AcDbEntity
  8
Make2D__可见线__曲线
 62
    18
420
        0
370
    35
100
AcDbLine
 10
277.4787222730536
 20
177.0307875926271
 30
0.0
 11
277.2872947632768
 21
168.39111522833
 31
0.0
  0
SPLINE
  5
F3
330
70
100
AcDbEntity
  8
Make2D__可见线__曲线
 62
    18
420
        0
370
    35
100
AcDbSpline
210
0.0
220
0.0
230
1.0
 70
     8
 71
     3
 72
     8
 73
     4
 74
     0
 42
0.0000000001
 43
0.0000000001
 40
0.0
 40
0.0
 40
0.0
 40
0.0
 40
1.0
 40
1.0
 40
1.0
 40
1.0
 10
255.9272866852664
 20
177.7402741673208
 30
0.0
 10
255.8848959779711
 20
177.6715565997094
 30
0.0
 10
255.7898515500418
 20
177.6331818541605
 30
0.0
 10
255.7131020589425
 20
177.6380902518466
 30
0.0
  0
SPLINE
  5
F4
330
70
100
AcDbEntity
  8
Make2D__可见线__曲线
 62
    18
420
        0
370
    35
100
AcDbSpline
210
0.0
220
0.0
230
1.0
 70
     8
 71
     3
 72
     8
 73
     4
 74
     0
 42
0.0000000001
 43
0.0000000001
 40
0.0
 40
0.0
 40
0.0
 40
0.0
 40
1.0
 40
1.0
 40
1.0
 40
1.0
 10
255.6644643000494
 20
178.4185254840095
 30
0.0
 10
255.7519230224635
 20
178.1922929724565
 30
0.0
 10
255.8398279628517
 20
177.9660604609029
 30
0.0
 10
255.9272866852664
 20
177.7402741673208
 30
0.0
  0
LINE
  5
F5
330
70
100
AcDbEntity
  8
Make2D__可见线__曲线
 62
    18
420
        0
370
    35
100
AcDbLine
 10
256.5894741549807
 20
177.982570525849
 30
0.0
 11
256.4100945304355
 21
175.5917346345198
 31
0.0
  0
LINE
  5
F6
330
70
100
AcDbEntity
  8
Make2D__可见线__曲线
 62
    18
420
        0
370
    35
100
AcDbLine
 10
277.9414503095042
 20
176.8714877767992
 30
0.0
 11
277.747791709871
 21
168.2197675272724
 31
0.0
  0
SPLINE
  5
F7
330
70
100
AcDbEntity
  8
Make2D__可见线__曲线
 62
    18
420
        0
370
    35
100
AcDbSpline
210
0.0
220
0.0
230
1.0
 70
     8
 71
     3
 72
     8
 73
     4
 74
     0
 42
0.0000000001
 43
0.0000000001
 40
0.0
 40
0.0
 40
0.0
 40
0.0
 40
1.0
 40
1.0
 40
1.0
 40
1.0
 10
256.4100945304355
 20
175.5917346345198
 30
0.0
 10
256.3797517083738
 20
175.1887998062514
 30
0.0
 10
256.2784602288409
 20
174.8068372226417
 30
0.0
 10
256.17449144148
 20
174.4208586772905
 30
0.0
  0
SPLINE
  5
F8
330
70
100
AcDbEntity
  8
Make2D__可见线__曲线
 62
    18
420
        0
370
    35
100
AcDbSpline
210
0.0
220
0.0
230
1.0
 70
     8
 71
     3
 72
     8
 73
     4
 74
     0
 42
0.0000000001
 43
0.0000000001
 40
0.0
 40
0.0
 40
0.0
 40
0.0
 40
1.0
 40
1.0
 40
1.0
 40
1.0
 10
294.2243903077243
 20
173.1884046399905
 30
0.0
 10
294.0115443353159
 20
172.0697361854255
 30
0.0
 10
293.7264110515234
 20
170.9782870271221
 30
0.0
 10
293.3596198789461
 20
169.9002244079645
 30
0.0
  0
LINE
  5
F9
330
70
100
AcDbEntity
  8
Make2D__可见线__曲线
 62
    18
420
        0
370
    35
100
AcDbLine
 10
290.842058083709
 20
264.051323959746
 30
0.0
 11
290.8411656477658
 21
264.0218735736269
 31
0.0
  0
SPLINE
  5
FA
330
70
100
AcDbEntity
  8
Make2D__可见线__曲线
 62
    18
420
        0
370
    35
100
AcDbSpline
210
0.0
220
0.0
230
1.0
 70
     8
 71
     3
 72
     8
 73
     4
 74
     0
 42
0.0000000001
 43
0.0000000001
 40
0.0
 40
0.0
 40
0.0
 40
0.0
 40
1.0
 40
1.0
 40
1.0
 40
1.0
 10
289.3494589690212
 20
270.8793513597286
 30
0.0
 10
289.3945269841451
 20
270.8829211034994
 30
0.0
 10
289.439594999267
 20
270.8842597574143
 30
0.0
 10
289.4851092323612
 20
270.8842597574143
 30
0.0
  0
SPLINE
  5
FB
330
70
100
AcDbEntity
  8
Make2D__可见线__曲线
 62
    18
420
        0
370
    35
100
AcDbSpline
210
0.0
220
0.0
230
1.0
 70
     8
 71
     3
 72
     8
 73
     4
 74
     0
 42
0.0000000001
 43
0.0000000001
 40
0.0
 40
0.0
 40
0.0
 40
0.0
 40
1.0
 40
1.0
 40
1.0
 40
1.0
 10
290.5363987732282
 20
205.7757030990586
 30
0.0
 10
290.5265819778541
 20
205.7645476497728
 30
0.0
 10
290.514980310596
 20
205.7551770723703
 30
0.0
 10
290.5029324253643
 20
205.7462527129401
 30
0.0
  0
LINE
  5
FC
330
70
100
AcDbEntity
  8
Make2D__可见线__曲线
 62
    18
420
        0
370
    35
100
AcDbLine
 10
285.0251606071601
 20
206.3932687716231
 30
0.0
 11
285.0791529817129
 21
208.5471629200825
 31
0.0
  0
SPLINE
  5
FD
330
70
100
AcDbEntity
  8
Make2D__可见线__曲线
 62
    18
420
        0
370
    35
100
AcDbSpline
210
0.0
220
0.0
230
1.0
 70
     8
 71
     3
 72
     8
 73
     4
 74
     0
 42
0.0000000001
 43
0.0000000001
 40
0.0
 40
0.0
 40
0.0
 40
0.0
 40
1.0
 40
1.0
 40
1.0
 40
1.0
 10
294.7210309100084
 20
177.4247980614653
 30
0.0
 10
294.6813175105461
 20
176.0473231834279
 30
0.0
 10
294.5358504518345
 20
174.6943902938224
 30
0.0
 10
294.2783826822751
 20
173.3405649682748
 30
0.0
  0
SPLINE
  5
FE
330
70
100
AcDbEntity
  8
Make2D__可见线__曲线
 62
    18
420
        0
370
    35
100
AcDbSpline
210
0.0
220
0.0
230
1.0
 70
     8
 71
     3
 72
     8
 73
     4
 74
     0
 42
0.0000000001
 43
0.0000000001
 40
0.0
 40
0.0
 40
0.0
 40
0.0
 40
1.0
 40
1.0
 40
1.0
 40
1.0
 10
294.5188941689186
 20
181.5857806457582
 30
0.0
 10
294.6942578317184
 20
180.1998276262598
 30
0.0
 10
294.7620829633875
 20
178.8210140943101
 30
0.0
 10
294.7210309100084
 20
177.4247980614653
 30
0.0
  0
SPLINE
  5
FF
330
70
100
AcDbEntity
  8
Make2D__可见线__曲线
 62
    18
420
        0
370
    35
100
AcDbSpline
210
0.0
220
0.0
230
1.0
 70
     8
 71
     3
 72
     8
 73
     4
 74
     0
 42
0.0000000001
 43
0.0000000001
 40
0.0
 40
0.0
 40
0.0
 40
0.0
 40
1.0
 40
1.0
 40
1.0
 40
1.0
 10
295.395712482924
 20
201.7807136001693
 30
0.0
 10
295.147169072798
 20
201.9364436722234
 30
0.0
 10
294.8513265576881
 20
202.0270259204396
 30
0.0
 10
294.5608386582372
 20
202.0488906010441
 30
0.0
  0
SPLINE
  5
100
330
70
100
AcDbEntity
  8
Make2D__可见线__曲线
 62
    18
420
        0
370
    35
100
AcDbSpline
210
0.0
220
0.0
230
1.0
 70
     8
 71
     3
 72
    14
 73
    10
 74
     0
 42
0.0000000001
 43
0.0000000001
 40
0.0
 40
0.0
 40
0.0
 40
0.0
 40
1.0
 40
1.0
 40
1.0
 40
2.0
 40
2.0
 40
2.0
 40
3.0
 40
3.0
 40
3.0
 40
3.0
 10
294.8446332881168
 20
177.4127501762355
 30
0.0
 10
294.997686052343
 20
182.6379626225691
 30
0.0
 10
293.6121792508155
 20
188.0372000777907
 30
0.0
 10
290.7144397438585
 20
192.4413714565513
 30
0.0
 10
289.2686935161791
 20
194.6385487482461
 30
0.0
 10
287.4302754735759
 20
196.6023540408436
 30
0.0
 10
285.2366679256529
 20
198.0846901421863
 30
0.0
 10
283.0452914675868
 20
199.5652413716418
 30
0.0
 10
280.5379926856974
 20
200.5304108440084
 30
0.0
 10
277.8758562676933
 20
200.7365635468441
 30
0.0
  0
SPLINE
  5
101
330
70
100
AcDbEntity
  8
Make2D__可见线__曲线
 62
    18
420
        0
370
    35
100
AcDbSpline
210
0.0
220
0.0
230
1.0
 70
     8
 71
     3
 72
     8
 73
     4
 74
     0
 42
0.0000000001
 43
0.0000000001
 40
0.0
 40
0.0
 40
0.0
 40
0.0
 40
1.0
 40
1.0
 40
1.0
 40
1.0
 10
296.3519575958641
 20
174.1981959095086
 30
0.0
 10
298.8066026571157
 20
174.3891772013122
 30
0.0
 10
301.1617411107241
 20
175.2182501923712
 30
0.0
 10
303.180877431788
 20
176.6358846878431
 30
0.0
  0
SPLINE
  5
102
330
70
100
AcDbEntity
  8
Make2D__可见线__曲线
 62
    18
420
        0
370
    35
100
AcDbSpline
210
0.0
220
0.0
230
1.0
 70
     8
 71
     3
 72
     8
 73
     4
 74
     0
 42
0.0000000001
 43
0.0000000001
 40
0.0
 40
0.0
 40
0.0
 40
0.0
 40
1.0
 40
1.0
 40
1.0
 40
1.0
 10
284.4901452593222
 20
200.5835107826192
 30
0.0
 10
284.6208871249749
 20
200.6990812372374
 30
0.0
 10
284.7538600804851
 20
200.8124206020001
 30
0.0
 10
284.8886179078774
 20
200.9230826589342
 30
0.0
  0
LINE
  5
103
330
70
100
AcDbEntity
  8
Make2D__可见线__曲线
 62
    18
420
        0
370
    35
100
AcDbLine
 10
284.8765700226477
 20
200.4483067372514
 30
0.0
 11
284.8788011125058
 21
200.5339805877802
 31
0.0
  0
LINE
  5
104
330
70
100
AcDbEntity
  8
Make2D__可见线__曲线
 62
    18
420
        0
370
    35
100
AcDbLine
 10
289.415053010834
 20
197.9151273130127
 30
0.0
 11
289.4467344868094
 21
197.9128962231552
 31
0.0
  0
SPLINE
  5
105
330
70
100
AcDbEntity
  8
Make2D__可见线__曲线
 62
    18
420
        0
370
    35
100
AcDbSpline
210
0.0
220
0.0
230
1.0
 70
     8
 71
     3
 72
     8
 73
     4
 74
     0
 42
0.0000000001
 43
0.0000000001
 40
0.0
 40
0.0
 40
0.0
 40
0.0
 40
1.0
 40
1.0
 40
1.0
 40
1.0
 10
292.3029757224195
 20
195.0700415266909
 30
0.0
 10
292.4537973967869
 20
195.1097549261558
 30
0.0
 10
292.6059577250725
 20
195.1432212740196
 30
0.0
 10
292.7594567072709
 20
195.1704405702812
 30
0.0
  0
SPLINE
  5
106
330
70
100
AcDbEntity
  8
Make2D__可见线__曲线
 62
    18
420
        0
370
    35
100
AcDbSpline
210
0.0
220
0.0
230
1.0
 70
     8
 71
     3
 72
     8
 73
     4
 74
     0
 42
0.0000000001
 43
0.0000000001
 40
0.0
 40
0.0
 40
0.0
 40
0.0
 40
1.0
 40
1.0
 40
1.0
 40
1.0
 10
284.4901452593222
 20
200.5835107826192
 30
0.0
 10
284.61954847106
 20
200.5397814214096
 30
0.0
 10
284.7485054648249
 20
200.4947134062876
 30
0.0
 10
284.8765700226477
 20
200.4483067372514
 30
0.0
  0
SPLINE
  5
107
330
70
100
AcDbEntity
  8
Make2D__可见线__曲线
 62
    18
420
        0
370
    35
100
AcDbSpline
210
0.0
220
0.0
230
1.0
 70
     8
 71
     3
 72
     8
 73
     4
 74
     0
 42
0.0000000001
 43
0.0000000001
 40
0.0
 40
0.0
 40
0.0
 40
0.0
 40
1.0
 40
1.0
 40
1.0
 40
1.0
 10
284.8765700226477
 20
200.4483067372514
 30
0.0
 10
284.9064666267391
 20
200.4375975059353
 30
0.0
 10
284.9359170128595
 20
200.4264420566469
 30
0.0
 10
284.9653673989767
 20
200.4157328253321
 30
0.0
  0
SPLINE
  5
108
330
70
100
AcDbEntity
  8
Make2D__可见线__曲线
 62
    18
420
        0
370
    35
100
AcDbSpline
210
0.0
220
0.0
230
1.0
 70
     8
 71
     3
 72
     8
 73
     4
 74
     0
 42
0.0000000001
 43
0.0000000001
 40
0.0
 40
0.0
 40
0.0
 40
0.0
 40
1.0
 40
1.0
 40
1.0
 40
1.0
 10
292.2824496957287
 20
195.0950297330962
 30
0.0
 10
292.2891429653013
 20
195.0865515916376
 30
0.0
 10
292.2958362348739
 20
195.0780734501798
 30
0.0
 10
292.3029757224195
 20
195.0695953087199
 30
0.0
  0
LINE
  5
109
330
70
100
AcDbEntity
  8
Make2D__可见线__曲线
 62
    18
420
        0
370
    35
100
AcDbLine
 10
290.4150274849786
 20
200.4072546838732
 30
0.0
 11
290.326230108649
 21
197.148971055937
 31
0.0
  0
LINE
  5
10A
330
70
100
AcDbEntity
  8
Make2D__可见线__曲线
 62
    18
420
        0
370
    35
100
AcDbLine
 10
297.1729986634346
 20
183.2840862453095
 30
0.0
 11
297.0846475050753
 21
183.2390182301863
 31
0.0
  0
SPLINE
  5
10B
330
70
100
AcDbEntity
  8
Make2D__可见线__曲线
 62
    18
420
        0
370
    35
100
AcDbSpline
210
0.0
220
0.0
230
1.0
 70
     8
 71
     3
 72
     8
 73
     4
 74
     0
 42
0.0000000001
 43
0.0000000001
 40
0.0
 40
0.0
 40
0.0
 40
0.0
 40
1.0
 40
1.0
 40
1.0
 40
1.0
 10
290.432429985868
 20
205.728403994081
 30
0.0
 10
290.4592030641573
 20
205.7266191221944
 30
0.0
 10
290.4806215267908
 20
205.730188865965
 30
0.0
 10
290.5029324253643
 20
205.7462527129401
 30
0.0
  0
LINE
  5
10C
330
70
100
AcDbEntity
  8
Make2D__可见线__曲线
 62
    18
420
        0
370
    35
100
AcDbLine
 10
284.8886179078774
 20
200.9226364409619
 30
0.0
 11
285.0104354141006
 21
205.7890896382058
 31
0.0
  0
SPLINE
  5
10D
330
70
100
AcDbEntity
  8
Make2D__可见线__曲线
 62
    18
420
        0
370
    35
100
AcDbSpline
210
0.0
220
0.0
230
1.0
 70
     8
 71
     3
 72
     8
 73
     4
 74
     0
 42
0.0000000001
 43
0.0000000001
 40
0.0
 40
0.0
 40
0.0
 40
0.0
 40
1.0
 40
1.0
 40
1.0
 40
1.0
 10
299.002492346607
 20
184.7628526028797
 30
0.0
 10
298.5009433466349
 20
184.1479642381457
 30
0.0
 10
297.8798079302998
 20
183.6455228022284
 30
0.0
 10
297.1729986634346
 20
183.2840862453095
 30
0.0
  0
SPLINE
  5
10E
330
70
100
AcDbEntity
  8
Make2D__可见线__曲线
 62
    18
420
        0
370
    35
100
AcDbSpline
210
0.0
220
0.0
230
1.0
 70
     8
 71
     3
 72
     8
 73
     4
 74
     0
 42
0.0000000001
 43
0.0000000001
 40
0.0
 40
0.0
 40
0.0
 40
0.0
 40
1.0
 40
1.0
 40
1.0
 40
1.0
 10
290.5038248613077
 20
203.6597374781794
 30
0.0
 10
291.868805636143
 20
203.9694127504037
 30
0.0
 10
293.2708225026152
 20
204.0698117939927
 30
0.0
 10
294.6661460995123
 20
203.9680740964894
 30
0.0
  0
SPLINE
  5
10F
330
70
100
AcDbEntity
  8
Make2D__可见线__曲线
 62
    18
420
        0
370
    35
100
AcDbSpline
210
0.0
220
0.0
230
1.0
 70
     8
 71
     3
 72
     8
 73
     4
 74
     0
 42
0.0000000001
 43
0.0000000001
 40
0.0
 40
0.0
 40
0.0
 40
0.0
 40
1.0
 40
1.0
 40
1.0
 40
1.0
 10
290.5131954387094
 20
204.0042177521818
 30
0.0
 10
292.4305940622694
 20
204.7458320208245
 30
0.0
 10
294.4845353851115
 20
205.038551010131
 30
0.0
 10
296.530891002437
 20
204.8912990795354
 30
0.0
  0
SPLINE
  5
110
330
70
100
AcDbEntity
  8
Make2D__可见线__曲线
 62
    18
420
        0
370
    35
100
AcDbSpline
210
0.0
220
0.0
230
1.0
 70
     8
 71
     3
 72
    26
 73
    22
 74
     0
 42
0.0000000001
 43
0.0000000001
 40
0.0
 40
0.0
 40
0.0
 40
0.0
 40
1.0
 40
1.0
 40
1.0
 40
2.0
 40
2.0
 40
2.0
 40
3.0
 40
3.0
 40
3.0
 40
4.0
 40
4.0
 40
4.0
 40
5.0
 40
5.0
 40
5.0
 40
6.0
 40
6.0
 40
6.0
 40
7.0
 40
7.0
 40
7.0
 40
7.0
 10
285.177767153414
 20
212.4854827365918
 30
0.0
 10
285.2857519025196
 20
216.7856853279928
 30
0.0
 10
285.3932904336523
 20
221.0863341373673
 30
0.0
 10
285.5093071062435
 20
225.3869829467393
 30
0.0
 10
285.6079212779466
 20
229.0415081333721
 30
0.0
 10
285.7600816062301
 20
234.6361890601122
 30
0.0
 10
285.95284776992
 20
238.2884831568874
 30
0.0
 10
286.065740916711
 20
240.4374689076582
 30
0.0
 10
286.2245945145672
 20
242.5811000427725
 30
0.0
 10
286.4472572823497
 20
244.722053870057
 30
0.0
 10
286.5525647236229
 20
245.7394308450904
 30
0.0
 10
286.6734897939008
 20
246.7545767302662
 30
0.0
 10
286.7837056328652
 20
247.771061269357
 30
0.0
 10
286.9055231390864
 20
248.8919608137795
 30
0.0
 10
287.0072608365884
 20
250.0141990121176
 30
0.0
 10
287.0893649433453
 20
251.1386683003107
 30
0.0
 10
287.2459874513434
 20
253.2863153971692
 30
0.0
 10
287.3347848276743
 20
255.4366398018554
 30
0.0
 10
287.409303228916
 20
257.5883028604564
 30
0.0
 10
287.4842678481268
 20
259.7381810471707
 30
0.0
 10
287.543168620365
 20
261.8885054518574
 30
0.0
 10
287.5998383027476
 20
264.0392760745153
 30
0.0
  0
SPLINE
  5
111
330
70
100
AcDbEntity
  8
Make2D__可见线__曲线
 62
    18
420
        0
370
    35
100
AcDbSpline
210
0.0
220
0.0
230
1.0
 70
     8
 71
     3
 72
    20
 73
    16
 74
     0
 42
0.0000000001
 43
0.0000000001
 40
0.0
 40
0.0
 40
0.0
 40
0.0
 40
1.0
 40
1.0
 40
1.0
 40
2.0
 40
2.0
 40
2.0
 40
3.0
 40
3.0
 40
3.0
 40
4.0
 40
4.0
 40
4.0
 40
5.0
 40
5.0
 40
5.0
 40
5.0
 10
288.7818697092667
 20
263.9687736350177
 30
0.0
 10
288.5837489299197
 20
263.9723433787895
 30
0.0
 10
288.38607436854
 20
263.9772517764762
 30
0.0
 10
288.1879535891924
 20
263.9852836999629
 30
0.0
 10
288.0893394174893
 20
263.9892996617072
 30
0.0
 10
287.9902790278165
 20
263.9937618414227
 30
0.0
 10
287.8916648561115
 20
264.0000088930224
 30
0.0
 10
287.8421346612757
 20
264.0031324188235
 30
0.0
 10
287.7926044664374
 20
264.006702162596
 30
0.0
 10
287.7435204895727
 20
264.0116105602824
 30
0.0
 10
287.7069306159092
 20
264.0147340860817
 30
0.0
 10
287.6707869602181
 20
264.0183038298547
 30
0.0
 10
287.6350895224955
 20
264.0254433173993
 30
0.0
 10
287.6306273427817
 20
264.0263357533423
 30
0.0
 10
287.5998383027476
 20
264.0307979330564
 30
0.0
 10
287.5998383027476
 20
264.0392760745153
 30
0.0
  0
SPLINE
  5
112
330
70
100
AcDbEntity
  8
Make2D__可见线__曲线
 62
    18
420
        0
370
    35
100
AcDbSpline
210
0.0
220
0.0
230
1.0
 70
     8
 71
     3
 72
    11
 73
     7
 74
     0
 42
0.0000000001
 43
0.0000000001
 40
0.0
 40
0.0
 40
0.0
 40
0.0
 40
1.0
 40
1.0
 40
1.0
 40
2.0
 40
2.0
 40
2.0
 40
2.0
 10
285.0251606071601
 20
206.3932687716231
 30
0.0
 10
285.0238219532433
 20
206.3348142173566
 30
0.0
 10
285.0238219532433
 20
206.2776983170039
 30
0.0
 10
285.038993364277
 20
206.2196899807067
 30
0.0
 10
285.0550572112515
 20
206.1598967725258
 30
0.0
 10
285.0867386872269
 20
206.1117052316037
 30
0.0
 10
285.1554562548392
 20
206.1067968339157
 30
0.0
  0
SPLINE
  5
113
330
70
100
AcDbEntity
  8
Make2D__可见线__曲线
 62
    18
420
        0
370
    35
100
AcDbSpline
210
0.0
220
0.0
230
1.0
 70
     8
 71
     3
 72
     8
 73
     4
 74
     0
 42
0.0000000001
 43
0.0000000001
 40
0.0
 40
0.0
 40
0.0
 40
0.0
 40
1.0
 40
1.0
 40
1.0
 40
1.0
 10
286.3954959976558
 20
210.1348064626997
 30
0.0
 10
286.1982676542496
 20
209.7751547776668
 30
0.0
 10
286.122410599091
 20
209.1776689138195
 30
0.0
 10
286.1121475857478
 20
208.7872281887525
 30
0.0
  0
LINE
  5
114
330
70
100
AcDbEntity
  8
Make2D__可见线__曲线
 62
    18
420
        0
370
    35
100
AcDbLine
 10
290.4257367162954
 20
207.9385216069488
 30
0.0
 11
290.4235056264372
 21
207.9389678249192
 31
0.0
  0
LINE
  5
115
330
70
100
AcDbEntity
  8
Make2D__可见线__曲线
 62
    18
420
        0
370
    35
100
AcDbLine
 10
270.8363215492185
 20
169.6155373421437
 30
0.0
 11
270.7319065438861
 21
169.5512819542464
 31
0.0
  0
LINE
  5
116
330
70
100
AcDbEntity
  8
Make2D__可见线__曲线
 62
    18
420
        0
370
    35
100
AcDbLine
 10
289.7693500802098
 20
209.9054504253452
 30
0.0
 11
289.6957241149095
 21
207.1696880420433
 31
0.0
  0
LINE
  5
117
330
70
100
AcDbEntity
  8
Make2D__可见线__曲线
 62
    18
420
        0
370
    35
100
AcDbLine
 10
285.1804444612439
 20
210.217356787429
 30
0.0
 11
285.1126193295749
 21
207.4927498534148
 31
0.0
  0
SPLINE
  5
118
330
70
100
AcDbEntity
  8
Make2D__可见线__曲线
 62
    18
420
        0
370
    35
100
AcDbSpline
210
0.0
220
0.0
230
1.0
 70
     8
 71
     3
 72
     8
 73
     4
 74
     0
 42
0.0000000001
 43
0.0000000001
 40
0.0
 40
0.0
 40
0.0
 40
0.0
 40
1.0
 40
1.0
 40
1.0
 40
1.0
 10
290.3779913933436
 20
207.9925139815003
 30
0.0
 10
290.3480947892528
 20
208.0808651398589
 30
0.0
 10
290.3512183150537
 20
208.2740775215204
 30
0.0
 10
290.3534494049106
 20
208.3624286798784
 30
0.0
  0
SPLINE
  5
119
330
70
100
AcDbEntity
  8
Make2D__可见线__曲线
 62
    18
420
        0
370
    35
100
AcDbSpline
210
0.0
220
0.0
230
1.0
 70
     8
 71
     3
 72
     8
 73
     4
 74
     0
 42
0.0000000001
 43
0.0000000001
 40
0.0
 40
0.0
 40
0.0
 40
0.0
 40
1.0
 40
1.0
 40
1.0
 40
1.0
 10
290.6412599965317
 20
208.7051240819955
 30
0.0
 10
290.6555389716196
 20
208.6372989503264
 30
0.0
 10
290.660001151334
 20
208.569920036629
 30
0.0
 10
290.6582162794494
 20
208.501202469018
 30
0.0
  0
SPLINE
  5
11A
330
70
100
AcDbEntity
  8
Make2D__可见线__曲线
 62
    18
420
        0
370
    35
100
AcDbSpline
210
0.0
220
0.0
230
1.0
 70
     8
 71
     3
 72
     8
 73
     4
 74
     0
 42
0.0000000001
 43
0.0000000001
 40
0.0
 40
0.0
 40
0.0
 40
0.0
 40
1.0
 40
1.0
 40
1.0
 40
1.0
 10
285.0791529817129
 20
208.5471629200825
 30
0.0
 10
285.0679975324245
 20
208.6074023462357
 30
0.0
 10
285.0639815706798
 20
208.6676417723889
 30
0.0
 10
285.0657664425663
 20
208.7287736344833
 30
0.0
  0
SPLINE
  5
11B
330
70
100
AcDbEntity
  8
Make2D__可见线__曲线
 62
    18
420
        0
370
    35
100
AcDbSpline
210
0.0
220
0.0
230
1.0
 70
     8
 71
     3
 72
     8
 73
     4
 74
     0
 42
0.0000000001
 43
0.0000000001
 40
0.0
 40
0.0
 40
0.0
 40
0.0
 40
1.0
 40
1.0
 40
1.0
 40
1.0
 10
288.8920855482278
 20
209.5587390614853
 30
0.0
 10
288.8068579156719
 20
209.243709173602
 30
0.0
 10
288.7689293880917
 20
208.929125503691
 30
0.0
 10
288.7600050286634
 20
208.6042788204342
 30
0.0
  0
LINE
  5
11C
330
70
100
AcDbEntity
  8
Make2D__可见线__曲线
 62
    18
420
        0
370
    35
100
AcDbLine
 10
290.6301045472432
 20
208.2847867528371
 30
0.0
 11
290.5631718515181
 21
205.8332652173838
 31
0.0
  0
LINE
  5
11D
330
70
100
AcDbEntity
  8
Make2D__可见线__曲线
 62
    18
420
        0
370
    35
100
AcDbLine
 10
285.0791529817129
 20
208.5471629200825
 30
0.0
 11
285.0885235591135
 21
208.9202011442601
 31
0.0
  0
LINE
  5
11E
330
70
100
AcDbEntity
  8
Make2D__可见线__曲线
 62
    18
420
        0
370
    35
100
AcDbLine
 10
285.0885235591135
 20
208.9202011442601
 30
0.0
 11
285.177767153414
 21
212.4854827365918
 31
0.0
  0
SPLINE
  5
11F
330
70
100
AcDbEntity
  8
Make2D__可见线__曲线
 62
    18
420
        0
370
    35
100
AcDbSpline
210
0.0
220
0.0
230
1.0
 70
     8
 71
     3
 72
     8
 73
     4
 74
     0
 42
0.0000000001
 43
0.0000000001
 40
0.0
 40
0.0
 40
0.0
 40
0.0
 40
1.0
 40
1.0
 40
1.0
 40
1.0
 10
290.5886062758944
 20
208.150028925441
 30
0.0
 10
290.5805743524069
 20
208.0991600766897
 30
0.0
 10
290.5560323639732
 20
207.953246800009
 30
0.0
 10
290.4922231940495
 20
207.9242426318596
 30
0.0
  0
SPLINE
  5
120
330
70
100
AcDbEntity
  8
Make2D__可见线__曲线
 62
    18
420
        0
370
    35
100
AcDbSpline
210
0.0
220
0.0
230
1.0
 70
     8
 71
     3
 72
    17
 73
    13
 74
     0
 42
0.0000000001
 43
0.0000000001
 40
0.0
 40
0.0
 40
0.0
 40
0.0
 40
1.0
 40
1.0
 40
1.0
 40
2.0
 40
2.0
 40
2.0
 40
3.0
 40
3.0
 40
3.0
 40
4.0
 40
4.0
 40
4.0
 40
4.0
 10
267.9394744782022
 20
168.0127223884946
 30
0.0
 10
266.4812341473214
 20
168.1715759863502
 30
0.0
 10
265.1519508102063
 20
168.9198835245656
 30
0.0
 10
264.1952594792976
 20
170.0073167211249
 30
0.0
 10
263.2372294944742
 20
171.0965347895714
 30
0.0
 10
262.6656242729748
 20
172.5074760154726
 30
0.0
 10
262.6339427969995
 20
173.9648239104107
 30
0.0
 10
262.6022613210202
 20
175.4208331514345
 30
0.0
 10
263.1163044241956
 20
176.857208801712
 30
0.0
 10
264.1729485807222
 20
177.8942193674913
 30
0.0
 10
265.2340549169613
 20
178.9352458950148
 30
0.0
 10
266.6789087086993
 20
179.4100218166963
 30
0.0
 10
268.1451809630669
 20
179.2663396298706
 30
0.0
  0
SPLINE
  5
121
330
70
100
AcDbEntity
  8
Make2D__可见线__曲线
 62
    18
420
        0
370
    35
100
AcDbSpline
210
0.0
220
0.0
230
1.0
 70
     8
 71
     3
 72
    17
 73
    13
 74
     0
 42
0.0000000001
 43
0.0000000001
 40
0.0
 40
0.0
 40
0.0
 40
0.0
 40
1.0
 40
1.0
 40
1.0
 40
2.0
 40
2.0
 40
2.0
 40
3.0
 40
3.0
 40
3.0
 40
4.0
 40
4.0
 40
4.0
 40
4.0
 10
268.1451809630669
 20
179.2663396298706
 30
0.0
 10
269.6154691791779
 20
179.1217650071036
 30
0.0
 10
270.959031491383
 20
178.3770272126607
 30
0.0
 10
271.9268782715787
 20
177.2869167082715
 30
0.0
 10
272.8960637056887
 20
176.1950213319971
 30
0.0
 10
273.4748084147316
 20
174.7751557466644
 30
0.0
 10
273.5064898907089
 20
173.3084372743252
 30
0.0
 10
273.5386175846579
 20
171.8430574559009
 30
0.0
 10
273.0169887759666
 20
170.3973112282222
 30
0.0
 10
271.947404298267
 20
169.3594082264995
 30
0.0
 10
270.8733576408536
 20
168.3174892630322
 30
0.0
 10
269.4137786560574
 20
167.8525301367235
 30
0.0
 10
267.9394744782022
 20
168.0127223884946
 30
0.0
  0
SPLINE
  5
122
330
70
100
AcDbEntity
  8
Make2D__可见线__曲线
 62
    18
420
        0
370
    35
100
AcDbSpline
210
0.0
220
0.0
230
1.0
 70
     8
 71
     3
 72
     8
 73
     4
 74
     0
 42
0.0000000001
 43
0.0000000001
 40
0.0
 40
0.0
 40
0.0
 40
0.0
 40
1.0
 40
1.0
 40
1.0
 40
1.0
 10
270.7841140465516
 20
169.5838558661663
 30
0.0
 10
269.9929695830726
 20
169.1122034702863
 30
0.0
 10
269.0773303055412
 20
168.9283616660248
 30
0.0
 10
268.1670456436707
 20
169.0265296197556
 30
0.0
  0
SPLINE
  5
123
330
70
100
AcDbEntity
  8
Make2D__可见线__曲线
 62
    18
420
        0
370
    35
100
AcDbSpline
210
0.0
220
0.0
230
1.0
 70
     8
 71
     3
 72
    14
 73
    10
 74
     0
 42
0.0000000001
 43
0.0000000001
 40
0.0
 40
0.0
 40
0.0
 40
0.0
 40
1.0
 40
1.0
 40
1.0
 40
2.0
 40
2.0
 40
2.0
 40
3.0
 40
3.0
 40
3.0
 40
3.0
 10
268.1670456436707
 20
169.0265296197556
 30
0.0
 10
266.1224748982311
 20
169.2469612976805
 30
0.0
 10
264.4518348129137
 20
170.8105090698363
 30
0.0
 10
263.8976320923018
 20
172.7408480145706
 30
0.0
 10
263.6214231679401
 20
173.7024477431653
 30
0.0
 10
263.6249929117133
 20
174.73811965503
 30
0.0
 10
263.957425300484
 20
175.6907950241958
 30
0.0
 10
264.290303907227
 20
176.6443628293029
 30
0.0
 10
264.9341964401112
 20
177.4538022296147
 30
0.0
 10
265.8154769338354
 20
177.96204449916
 30
0.0
  0
SPLINE
  5
124
330
70
100
AcDbEntity
  8
Make2D__可见线__曲线
 62
    18
420
        0
370
    35
100
AcDbSpline
210
0.0
220
0.0
230
1.0
 70
     8
 71
     3
 72
     8
 73
     4
 74
     0
 42
0.0000000001
 43
0.0000000001
 40
0.0
 40
0.0
 40
0.0
 40
0.0
 40
1.0
 40
1.0
 40
1.0
 40
1.0
 10
290.3534494049106
 20
208.3624286798784
 30
0.0
 10
290.3570191486831
 20
208.500310033074
 30
0.0
 10
290.3628199823124
 20
208.6364065143838
 30
0.0
 10
290.3945014582891
 20
208.7725029956923
 30
0.0
  0
SPLINE
  5
125
330
70
100
AcDbEntity
  8
Make2D__可见线__曲线
 62
    18
420
        0
370
    35
100
AcDbSpline
210
0.0
220
0.0
230
1.0
 70
     8
 71
     3
 72
     8
 73
     4
 74
     0
 42
0.0000000001
 43
0.0000000001
 40
0.0
 40
0.0
 40
0.0
 40
0.0
 40
1.0
 40
1.0
 40
1.0
 40
1.0
 10
290.4480476148683
 20
207.9429837866633
 30
0.0
 10
290.4409081273266
 20
207.9398602608625
 30
0.0
 10
290.434214857752
 20
207.9380753889772
 30
0.0
 10
290.4261829342644
 20
207.9385216069488
 30
0.0
  0
SPLINE
  5
126
330
70
100
AcDbEntity
  8
Make2D__可见线__曲线
 62
    18
420
        0
370
    35
100
AcDbSpline
210
0.0
220
0.0
230
1.0
 70
     8
 71
     3
 72
     8
 73
     4
 74
     0
 42
0.0000000001
 43
0.0000000001
 40
0.0
 40
0.0
 40
0.0
 40
0.0
 40
1.0
 40
1.0
 40
1.0
 40
1.0
 10
290.6582162794494
 20
208.501202469018
 30
0.0
 10
290.6559851895919
 20
208.4275765037195
 30
0.0
 10
290.6466146121894
 20
208.356627846249
 30
0.0
 10
290.6301045472432
 20
208.2847867528371
 30
0.0
  0
SPLINE
  5
127
330
70
100
AcDbEntity
  8
Make2D__可见线__曲线
 62
    18
420
        0
370
    35
100
AcDbSpline
210
0.0
220
0.0
230
1.0
 70
     8
 71
     3
 72
     8
 73
     4
 74
     0
 42
0.0000000001
 43
0.0000000001
 40
0.0
 40
0.0
 40
0.0
 40
0.0
 40
1.0
 40
1.0
 40
1.0
 40
1.0
 10
285.0657664425663
 20
208.7287736344833
 30
0.0
 10
285.0675513144529
 20
208.7939214583245
 30
0.0
 10
285.0751370199688
 20
208.8568381923074
 30
0.0
 10
285.0885235591135
 20
208.9202011442601
 30
0.0
  0
SPLINE
  5
128
330
70
100
AcDbEntity
  8
Make2D__可见线__曲线
 62
    18
420
        0
370
    35
100
AcDbSpline
210
0.0
220
0.0
230
1.0
 70
     8
 71
     3
 72
     8
 73
     4
 74
     0
 42
0.0000000001
 43
0.0000000001
 40
0.0
 40
0.0
 40
0.0
 40
0.0
 40
1.0
 40
1.0
 40
1.0
 40
1.0
 10
264.9881888146646
 20
179.414483996412
 30
0.0
 10
265.0234400344124
 20
179.434563805128
 30
0.0
 10
265.0591374721325
 20
179.4546436138459
 30
0.0
 10
265.094834909852
 20
179.4742772045935
 30
0.0
  0
SPLINE
  5
129
330
70
100
AcDbEntity
  8
Make2D__可见线__曲线
 62
    18
420
        0
370
    35
100
AcDbSpline
210
0.0
220
0.0
230
1.0
 70
     8
 71
     3
 72
     8
 73
     4
 74
     0
 42
0.0000000001
 43
0.0000000001
 40
0.0
 40
0.0
 40
0.0
 40
0.0
 40
1.0
 40
1.0
 40
1.0
 40
1.0
 10
271.6649483223049
 20
168.1559583573487
 30
0.0
 10
271.6997533240811
 20
168.1769306020093
 30
0.0
 10
271.7345583258605
 20
168.1983490646418
 30
0.0
 10
271.7693633276367
 20
168.2202137452446
 30
0.0
  0
SPLINE
  5
12A
330
70
100
AcDbEntity
  8
Make2D__可见线__曲线
 62
    18
420
        0
370
    35
100
AcDbSpline
210
0.0
220
0.0
230
1.0
 70
     8
 71
     3
 72
     8
 73
     4
 74
     0
 42
0.0000000001
 43
0.0000000001
 40
0.0
 40
0.0
 40
0.0
 40
0.0
 40
1.0
 40
1.0
 40
1.0
 40
1.0
 10
270.7319065438861
 20
169.5512819542464
 30
0.0
 10
269.9296066311173
 20
169.0559800058753
 30
0.0
 10
268.9929951089273
 20
168.8614289702983
 30
0.0
 10
268.061291984422
 20
168.9622742318583
 30
0.0
  0
SPLINE
  5
12B
330
70
100
AcDbEntity
  8
Make2D__可见线__曲线
 62
    18
420
        0
370
    35
100
AcDbSpline
210
0.0
220
0.0
230
1.0
 70
     8
 71
     3
 72
     8
 73
     4
 74
     0
 42
0.0000000001
 43
0.0000000001
 40
0.0
 40
0.0
 40
0.0
 40
0.0
 40
1.0
 40
1.0
 40
1.0
 40
1.0
 10
265.094834909852
 20
179.4742772045935
 30
0.0
 10
266.0988253457408
 20
180.0231253095451
 30
0.0
 10
267.2375736090231
 20
180.2377561538394
 30
0.0
 10
268.3709672566489
 20
180.1275403148776
 30
0.0
  0
SPLINE
  5
12C
330
70
100
AcDbEntity
  8
Make2D__可见线__曲线
 62
    18
420
        0
370
    35
100
AcDbSpline
210
0.0
220
0.0
230
1.0
 70
     8
 71
     3
 72
     8
 73
     4
 74
     0
 42
0.0000000001
 43
0.0000000001
 40
0.0
 40
0.0
 40
0.0
 40
0.0
 40
1.0
 40
1.0
 40
1.0
 40
1.0
 10
271.5614257529164
 20
168.0894718795939
 30
0.0
 10
270.4726539024402
 20
167.4058659472475
 30
0.0
 10
269.1960242859628
 20
167.1372427284004
 30
0.0
 10
267.9260879390556
 20
167.2760165175394
 30
0.0
  0
SPLINE
  5
12D
330
70
100
AcDbEntity
  8
Make2D__可见线__曲线
 62
    18
420
        0
370
    35
100
AcDbSpline
210
0.0
220
0.0
230
1.0
 70
     8
 71
     3
 72
    17
 73
    13
 74
     0
 42
0.0000000001
 43
0.0000000001
 40
0.0
 40
0.0
 40
0.0
 40
0.0
 40
1.0
 40
1.0
 40
1.0
 40
2.0
 40
2.0
 40
2.0
 40
3.0
 40
3.0
 40
3.0
 40
4.0
 40
4.0
 40
4.0
 40
4.0
 10
271.7693633276367
 20
168.2202137452446
 30
0.0
 10
272.9161435144059
 20
168.9404095512539
 30
0.0
 10
273.7362921460337
 20
170.0465839026181
 30
0.0
 10
274.1432429360469
 20
171.3281219167822
 30
0.0
 10
274.549747508089
 20
172.6074288410913
 30
0.0
 10
274.5238668657429
 20
173.9853499371009
 30
0.0
 10
274.1316412687888
 20
175.2588560277761
 30
0.0
 10
273.7385232358913
 20
176.5345932083127
 30
0.0
 10
272.9853072999893
 20
177.6867280107403
 30
0.0
 10
271.9728387226439
 20
178.5568530551769
 30
0.0
 10
270.9621550171825
 20
179.4247470097564
 30
0.0
 10
269.7082825172517
 20
179.9972446671965
 30
0.0
 10
268.3709672566489
 20
180.1275403148776
 30
0.0
  0
LINE
  5
12E
330
70
100
AcDbEntity
  8
Make2D__可见线__曲线
 62
    18
420
        0
370
    35
100
AcDbLine
 10
271.7693633276367
 20
168.2202137452446
 30
0.0
 11
271.5614257529164
 21
168.0894718795939
 31
0.0
  0
SPLINE
  5
12F
330
70
100
AcDbEntity
  8
Make2D__可见线__曲线
 62
    18
420
        0
370
    35
100
AcDbSpline
210
0.0
220
0.0
230
1.0
 70
     8
 71
     3
 72
    14
 73
    10
 74
     0
 42
0.0000000001
 43
0.0000000001
 40
0.0
 40
0.0
 40
0.0
 40
0.0
 40
1.0
 40
1.0
 40
1.0
 40
2.0
 40
2.0
 40
2.0
 40
3.0
 40
3.0
 40
3.0
 40
3.0
 10
268.061291984422
 20
168.9622742318583
 30
0.0
 10
266.0051195717244
 20
169.1840445636976
 30
0.0
 10
264.3277862168343
 20
170.7632099648568
 30
0.0
 10
263.7816154197119
 20
172.7078278846783
 30
0.0
 10
263.5098686750647
 20
173.6765671008186
 30
0.0
 10
263.5210241243505
 20
174.7184860642831
 30
0.0
 10
263.8650581803832
 20
175.6729463053335
 30
0.0
 10
264.2095384543856
 20
176.6291914182711
 30
0.0
 10
264.8677099623577
 20
177.4350610748117
 30
0.0
 10
265.761930777253
 20
177.9325941130403
 30
0.0
  0
SPLINE
  5
130
330
70
100
AcDbEntity
  8
Make2D__可见线__曲线
 62
    18
420
        0
370
    35
100
AcDbSpline
210
0.0
220
0.0
230
1.0
 70
     8
 71
     3
 72
    14
 73
    10
 74
     0
 42
0.0000000001
 43
0.0000000001
 40
0.0
 40
0.0
 40
0.0
 40
0.0
 40
1.0
 40
1.0
 40
1.0
 40
2.0
 40
2.0
 40
2.0
 40
3.0
 40
3.0
 40
3.0
 40
3.0
 10
289.6957241149095
 20
207.1696880420433
 30
0.0
 10
289.6876921914245
 20
206.8716144370784
 30
0.0
 10
289.7430232198896
 20
206.6083458338897
 30
0.0
 10
289.8688566878543
 20
206.3383839611271
 30
0.0
 10
289.9299885499507
 20
206.2076420954776
 30
0.0
 10
290.0027220793072
 20
206.0880556791139
 30
0.0
 10
290.0941967634647
 20
205.9760549682656
 30
0.0
 10
290.1597908052769
 20
205.8961819513655
 30
0.0
 10
290.3079351718164
 20
205.7373283535099
 30
0.0
 10
290.432429985868
 20
205.728403994081
 30
0.0
  0
LINE
  5
131
330
70
100
AcDbEntity
  8
Make2D__可见线__曲线
 62
    18
420
        0
370
    35
100
AcDbLine
 10
288.9027947795451
 20
209.9643511975834
 30
0.0
 11
289.7693500802098
 21
209.9054504253452
 31
0.0
  0
LINE
  5
132
330
70
100
AcDbEntity
  8
Make2D__可见线__曲线
 62
    18
420
        0
370
    35
100
AcDbLine
 10
284.8788011125058
 20
200.5339805877802
 30
0.0
 11
284.8886179078774
 21
200.9226364409619
 31
0.0
  0
LINE
  5
133
330
70
100
AcDbEntity
  8
Make2D__可见线__曲线
 62
    18
420
        0
370
    35
100
AcDbLine
 10
288.7600050286634
 20
208.6042788204342
 30
0.0
 11
288.6805782297344
 21
205.6007856542285
 31
0.0
  0
LINE
  5
134
330
70
100
AcDbEntity
  8
Make2D__可见线__曲线
 62
    18
420
        0
370
    35
100
AcDbLine
 10
285.3263577379246
 20
206.0947489486866
 30
0.0
 11
285.1554562548392
 21
206.1067968339157
 31
0.0
  0
SPLINE
  5
135
330
70
100
AcDbEntity
  8
Make2D__可见线__曲线
 62
    18
420
        0
370
    35
100
AcDbSpline
210
0.0
220
0.0
230
1.0
 70
     8
 71
     3
 72
     8
 73
     4
 74
     0
 42
0.0000000001
 43
0.0000000001
 40
0.0
 40
0.0
 40
0.0
 40
0.0
 40
1.0
 40
1.0
 40
1.0
 40
1.0
 10
286.0536930314813
 20
206.4887594175248
 30
0.0
 10
285.9818519380668
 20
206.7814784068338
 30
0.0
 10
285.964449437178
 20
207.1339906043238
 30
0.0
 10
285.9720351426958
 20
207.4320642092894
 30
0.0
  0
SPLINE
  5
136
330
70
100
AcDbEntity
  8
Make2D__可见线__曲线
 62
    18
420
        0
370
    35
100
AcDbSpline
210
0.0
220
0.0
230
1.0
 70
     8
 71
     3
 72
     8
 73
     4
 74
     0
 42
0.0000000001
 43
0.0000000001
 40
0.0
 40
0.0
 40
0.0
 40
0.0
 40
1.0
 40
1.0
 40
1.0
 40
1.0
 10
290.5363987732282
 20
205.7757030990586
 30
0.0
 10
290.5524626202001
 20
205.7413443152534
 30
0.0
 10
290.5596021077469
 20
205.7078779673895
 30
0.0
 10
290.5587096718037
 20
205.6703956577835
 30
0.0
  0
SPLINE
  5
137
330
70
100
AcDbEntity
  8
Make2D__可见线__曲线
 62
    18
420
        0
370
    35
100
AcDbSpline
210
0.0
220
0.0
230
1.0
 70
     8
 71
     3
 72
     8
 73
     4
 74
     0
 42
0.0000000001
 43
0.0000000001
 40
0.0
 40
0.0
 40
0.0
 40
0.0
 40
1.0
 40
1.0
 40
1.0
 40
1.0
 10
289.4989419894769
 20
270.8842597574143
 30
0.0
 10
290.4418005632699
 20
270.8731043081276
 30
0.0
 10
291.1744904724817
 20
270.0993623455363
 30
0.0
 10
291.1495022660764
 20
269.1600735155155
 30
0.0
  0
LINE
  5
138
330
70
100
AcDbEntity
  8
Make2D__可见线__曲线
 62
    18
420
        0
370
    35
100
AcDbLine
 10
287.6159021497221
 20
264.6086502061571
 30
0.0
 11
287.7323650402862
 21
269.1734600546614
 31
0.0
  0
SPLINE
  5
139
330
70
100
AcDbEntity
  8
Make2D__可见线__曲线
 62
    18
420
        0
370
    35
100
AcDbSpline
210
0.0
220
0.0
230
1.0
 70
     8
 71
     3
 72
    26
 73
    22
 74
     0
 42
0.0000000001
 43
0.0000000001
 40
0.0
 40
0.0
 40
0.0
 40
0.0
 40
1.0
 40
1.0
 40
1.0
 40
2.0
 40
2.0
 40
2.0
 40
3.0
 40
3.0
 40
3.0
 40
4.0
 40
4.0
 40
4.0
 40
5.0
 40
5.0
 40
5.0
 40
6.0
 40
6.0
 40
6.0
 40
7.0
 40
7.0
 40
7.0
 40
7.0
 10
291.0134057847666
 20
264.0209811376836
 30
0.0
 10
290.9580747563008
 20
261.868871861112
 30
0.0
 10
290.9040823817487
 20
259.7167625845391
 30
0.0
 10
290.8666000721427
 20
257.5646533079666
 30
0.0
 10
290.829117762536
 20
255.4120978134218
 30
0.0
 10
290.8050219920746
 20
253.2604347548206
 30
0.0
 10
290.8496437892243
 20
251.107433042306
 30
0.0
 10
290.872847123743
 20
249.9789477923676
 30
0.0
 10
290.9165764849501
 20
248.851354978374
 30
0.0
 10
290.9799394369047
 20
247.7242083823484
 30
0.0
 10
291.037501555228
 20
246.7019230096283
 30
0.0
 10
291.1053266868971
 20
245.6805300728528
 30
0.0
 10
291.1579804075349
 20
244.6577984821604
 30
0.0
 10
291.2686424644697
 20
242.5065816415321
 30
0.0
 10
291.3150491335053
 20
240.3558110188748
 30
0.0
 10
291.3159415694479
 20
238.2019168704147
 30
0.0
 10
291.3172802233628
 20
234.545606811896
 30
0.0
 10
291.1767215623373
 20
228.9420015257258
 30
0.0
 10
291.0843544422365
 20
225.2879225570652
 30
0.0
 10
290.9754772571909
 20
220.9841502218917
 30
0.0
 10
290.8585681486545
 20
216.6803778867189
 30
0.0
 10
290.7416590401213
 20
212.3766055515461
 30
0.0
  0
SPLINE
  5
13A
330
70
100
AcDbEntity
  8
Make2D__可见线__曲线
 62
    18
420
        0
370
    35
100
AcDbSpline
210
0.0
220
0.0
230
1.0
 70
     8
 71
     3
 72
     8
 73
     4
 74
     0
 42
0.0000000001
 43
0.0000000001
 40
0.0
 40
0.0
 40
0.0
 40
0.0
 40
1.0
 40
1.0
 40
1.0
 40
1.0
 10
287.7323650402862
 20
269.173906272634
 30
0.0
 10
287.7551221568314
 20
270.0667884336166
 30
0.0
 10
288.4570230260099
 20
270.8115262280595
 30
0.0
 10
289.3494589690212
 20
270.8793513597286
 30
0.0
  0
SPLINE
  5
13B
330
70
100
AcDbEntity
  8
Make2D__可见线__曲线
 62
    18
420
        0
370
    35
100
AcDbSpline
210
0.0
220
0.0
230
1.0
 70
     8
 71
     3
 72
    23
 73
    19
 74
     0
 42
0.0000000001
 43
0.0000000001
 40
0.0
 40
0.0
 40
0.0
 40
0.0
 40
1.0
 40
1.0
 40
1.0
 40
2.0
 40
2.0
 40
2.0
 40
3.0
 40
3.0
 40
3.0
 40
4.0
 40
4.0
 40
4.0
 40
5.0
 40
5.0
 40
5.0
 40
6.0
 40
6.0
 40
6.0
 40
6.0
 10
291.0134057847666
 20
264.0209811376836
 30
0.0
 10
291.0134057847666
 20
264.0151803040542
 30
0.0
 10
290.9977881557638
 20
264.0120567782541
 30
0.0
 10
290.9946646299649
 20
264.0111643423108
 30
0.0
 10
290.9772621290748
 20
264.006702162596
 30
0.0
 10
290.9598596281874
 20
264.0044710727385
 30
0.0
 10
290.9420109093271
 20
264.0022399828799
 30
0.0
 10
290.8746319956296
 20
263.9937618414227
 30
0.0
 10
290.8068068639586
 20
263.9897458796789
 30
0.0
 10
290.7385355143198
 20
263.9857299179344
 30
0.0
 10
290.645722176248
 20
263.9808215202484
 30
0.0
 10
290.5524626202001
 20
263.9772517764762
 30
0.0
 10
290.4592030641573
 20
263.9741282506764
 30
0.0
 10
290.2731301700395
 20
263.9687736350177
 30
0.0
 10
290.08661105795
 20
263.9656501092172
 30
0.0
 10
289.900538163831
 20
263.9638652373307
 30
0.0
 10
289.5274999396534
 20
263.9602954935588
 30
0.0
 10
289.1544617154732
 20
263.9620803654454
 30
0.0
 10
288.7818697092667
 20
263.9687736350177
 30
0.0
  0
SPLINE
  5
13C
330
70
100
AcDbEntity
  8
Make2D__可见线__曲线
 62
    18
420
        0
370
    35
100
AcDbSpline
210
0.0
220
0.0
230
1.0
 70
     8
 71
     3
 72
    23
 73
    19
 74
     0
 42
0.0000000001
 43
0.0000000001
 40
0.0
 40
0.0
 40
0.0
 40
0.0
 40
1.0
 40
1.0
 40
1.0
 40
2.0
 40
2.0
 40
2.0
 40
3.0
 40
3.0
 40
3.0
 40
4.0
 40
4.0
 40
4.0
 40
5.0
 40
5.0
 40
5.0
 40
6.0
 40
6.0
 40
6.0
 40
6.0
 10
288.8345234299045
 20
263.975020686618
 30
0.0
 10
289.1700793444786
 20
263.9692198529884
 30
0.0
 10
289.5051890410779
 20
263.9674349811037
 30
0.0
 10
289.8402987376778
 20
263.970558506903
 30
0.0
 10
290.0076304769933
 20
263.9723433787895
 30
0.0
 10
290.1754084342784
 20
263.975020686618
 30
0.0
 10
290.3427401735932
 20
263.9799290843051
 30
0.0
 10
290.4266291522367
 20
263.9826063921349
 30
0.0
 10
290.5105181308802
 20
263.9857299179344
 30
0.0
 10
290.5939608915541
 20
263.9901920976505
 30
0.0
 10
290.6550927536486
 20
263.9937618414227
 30
0.0
 10
290.716224615745
 20
263.9973315851945
 30
0.0
 10
290.7769102598698
 20
264.0049172907104
 30
0.0
 10
290.7929741068443
 20
264.0071483805674
 30
0.0
 10
290.8085917358471
 20
264.0089332524526
 30
0.0
 10
290.82420936485
 20
264.0129492141974
 30
0.0
 10
290.8273328906495
 20
264.0138416501396
 30
0.0
 10
290.8407194297941
 20
264.0165189579679
 30
0.0
 10
290.8411656477658
 20
264.0218735736269
 30
0.0
  0
LINE
  5
13D
330
70
100
AcDbEntity
  8
Make2D__可见线__曲线
 62
    18
420
        0
370
    35
100
AcDbLine
 10
290.8554446228556
 20
264.5631359730622
 30
0.0
 11
290.842058083709
 21
264.051323959746
 31
0.0
  0
LINE
  5
13E
330
70
100
AcDbEntity
  8
Make2D__可见线__曲线
 62
    18
420
        0
370
    35
100
AcDbLine
 10
287.7729708756918
 20
264.0678340246921
 30
0.0
 11
287.7859111968648
 21
264.5791998200377
 31
0.0
  0
SPLINE
  5
13F
330
70
100
AcDbEntity
  8
Make2D__可见线__曲线
 62
    18
420
        0
370
    35
100
AcDbSpline
210
0.0
220
0.0
230
1.0
 70
     8
 71
     3
 72
    17
 73
    13
 74
     0
 42
0.0000000001
 43
0.0000000001
 40
0.0
 40
0.0
 40
0.0
 40
0.0
 40
1.0
 40
1.0
 40
1.0
 40
2.0
 40
2.0
 40
2.0
 40
3.0
 40
3.0
 40
3.0
 40
4.0
 40
4.0
 40
4.0
 40
4.0
 10
290.8558908408253
 20
264.5635821910352
 30
0.0
 10
290.8848950089747
 20
264.5653670629207
 30
0.0
 10
290.9138991771222
 20
264.5680443707503
 30
0.0
 10
290.943349563242
 20
264.5711678965498
 30
0.0
 10
290.9576285383299
 20
264.5729527684367
 30
0.0
 10
290.9723537313888
 20
264.5747376403225
 30
0.0
 10
290.9866327064774
 20
264.5769687301807
 30
0.0
 10
290.9937721940216
 20
264.5783073840947
 30
0.0
 10
291.0009116815652
 20
264.5796460380093
 30
0.0
 10
291.0080511691095
 20
264.5814309098958
 30
0.0
 10
291.0116209128801
 20
264.5823233458382
 30
0.0
 10
291.0267923239112
 20
264.5854468716383
 30
0.0
 10
291.0272385418855
 20
264.590801487297
 30
0.0
  0
SPLINE
  5
140
330
70
100
AcDbEntity
  8
Make2D__可见线__曲线
 62
    18
420
        0
370
    35
100
AcDbSpline
210
0.0
220
0.0
230
1.0
 70
     8
 71
     3
 72
    17
 73
    13
 74
     0
 42
0.0000000001
 43
0.0000000001
 40
0.0
 40
0.0
 40
0.0
 40
0.0
 40
1.0
 40
1.0
 40
1.0
 40
2.0
 40
2.0
 40
2.0
 40
3.0
 40
3.0
 40
3.0
 40
4.0
 40
4.0
 40
4.0
 40
4.0
 10
287.7859111968648
 20
264.5791998200377
 30
0.0
 10
287.7569070287179
 20
264.5818771278665
 30
0.0
 10
287.7279028605718
 20
264.5845544356954
 30
0.0
 10
287.6988986924224
 20
264.5881241794672
 30
0.0
 10
287.6846197173344
 20
264.5899090513537
 30
0.0
 10
287.6703407422466
 20
264.5916939232416
 30
0.0
 10
287.656061767158
 20
264.5943712310689
 30
0.0
 10
287.6489222796143
 20
264.5957098849828
 30
0.0
 10
287.64178279207
 20
264.597048538898
 30
0.0
 10
287.6346433045244
 20
264.5988334107846
 30
0.0
 10
287.6315197787256
 20
264.5997258467275
 30
0.0
 10
287.6159021497221
 20
264.6028493725271
 30
0.0
 10
287.6159021497221
 20
264.6086502061571
 30
0.0
  0
SPLINE
  5
141
330
70
100
AcDbEntity
  8
Make2D__可见线__曲线
 62
    18
420
        0
370
    35
100
AcDbSpline
210
0.0
220
0.0
230
1.0
 70
     8
 71
     3
 72
    17
 73
    13
 74
     0
 42
0.0000000001
 43
0.0000000001
 40
0.0
 40
0.0
 40
0.0
 40
0.0
 40
1.0
 40
1.0
 40
1.0
 40
2.0
 40
2.0
 40
2.0
 40
3.0
 40
3.0
 40
3.0
 40
4.0
 40
4.0
 40
4.0
 40
4.0
 10
290.842058083709
 20
264.051323959746
 30
0.0
 10
290.8710622518571
 20
264.0486466519174
 30
0.0
 10
290.9005126379756
 20
264.0459693440876
 30
0.0
 10
290.929516806125
 20
264.0423996003165
 30
0.0
 10
290.9442419991827
 20
264.0406147284299
 30
0.0
 10
290.9589671922422
 20
264.0383836385743
 30
0.0
 10
290.9732461673327
 20
264.0357063307438
 30
0.0
 10
290.9803856548769
 20
264.0343676768296
 30
0.0
 10
290.9875251424206
 20
264.0330290229146
 30
0.0
 10
290.9946646299649
 20
264.0312441510281
 30
0.0
 10
290.9982343737374
 20
264.0303517150867
 30
0.0
 10
291.0134057847666
 20
264.0267819713139
 30
0.0
 10
291.0134057847666
 20
264.0209811376836
 30
0.0
  0
LINE
  5
142
330
70
100
AcDbEntity
  8
Make2D__可见线__曲线
 62
    18
420
        0
370
    35
100
AcDbLine
 10
291.0272385418855
 20
264.590801487297
 30
0.0
 11
291.0267923239112
 21
264.5916939232416
 31
0.0
  0
LINE
  5
143
330
70
100
AcDbEntity
  8
Make2D__可见线__曲线
 62
    18
420
        0
370
    35
100
AcDbLine
 10
290.8411656477658
 20
264.0218735736269
 30
0.0
 11
290.8411656477658
 21
264.0227660095689
 31
0.0
  0
LINE
  5
144
330
70
100
AcDbEntity
  8
Make2D__可见线__曲线
 62
    18
420
        0
370
    35
100
AcDbLine
 10
287.7720784397491
 20
264.0383836385743
 30
0.0
 11
287.7729708756918
 21
264.0678340246921
 31
0.0
  0
SPLINE
  5
145
330
70
100
AcDbEntity
  8
Make2D__可见线__曲线
 62
    18
420
        0
370
    35
100
AcDbSpline
210
0.0
220
0.0
230
1.0
 70
     8
 71
     3
 72
    17
 73
    13
 74
     0
 42
0.0000000001
 43
0.0000000001
 40
0.0
 40
0.0
 40
0.0
 40
0.0
 40
1.0
 40
1.0
 40
1.0
 40
2.0
 40
2.0
 40
2.0
 40
3.0
 40
3.0
 40
3.0
 40
4.0
 40
4.0
 40
4.0
 40
4.0
 10
287.5998383027476
 20
264.0392760745153
 30
0.0
 10
287.6002845207192
 20
264.0450769081454
 30
0.0
 10
287.6154559317504
 20
264.0482004339455
 30
0.0
 10
287.6190256755236
 20
264.0490928698888
 30
0.0
 10
287.6261651630679
 20
264.0508777417744
 30
0.0
 10
287.6333046506096
 20
264.0522163956883
 30
0.0
 10
287.6404441381538
 20
264.0535550496032
 30
0.0
 10
287.6551693312147
 20
264.0562323574327
 30
0.0
 10
287.6698945242749
 20
264.0580172293196
 30
0.0
 10
287.6846197173344
 20
264.0598021012052
 30
0.0
 10
287.7140701034536
 20
264.0629256270054
 30
0.0
 10
287.7435204895727
 20
264.0656029348352
 30
0.0
 10
287.7729708756918
 20
264.0678340246921
 30
0.0
  0
SPLINE
  5
146
330
70
100
AcDbEntity
  8
Make2D__可见线__曲线
 62
    18
420
        0
370
    35
100
AcDbSpline
210
0.0
220
0.0
230
1.0
 70
     8
 71
     3
 72
    20
 73
    16
 74
     0
 42
0.0000000001
 43
0.0000000001
 40
0.0
 40
0.0
 40
0.0
 40
0.0
 40
1.0
 40
1.0
 40
1.0
 40
2.0
 40
2.0
 40
2.0
 40
3.0
 40
3.0
 40
3.0
 40
4.0
 40
4.0
 40
4.0
 40
5.0
 40
5.0
 40
5.0
 40
5.0
 10
290.7416590401213
 20
212.3766055515461
 30
0.0
 10
290.7398741682347
 20
212.323505612936
 30
0.0
 10
290.6720490365657
 20
212.2887006111578
 30
0.0
 10
290.6363515988462
 20
212.2708518922987
 30
0.0
 10
290.5417533888853
 20
212.2248914412335
 30
0.0
 10
290.4431392171828
 20
212.2012418887432
 30
0.0
 10
290.3418477376499
 20
212.1789309901676
 30
0.0
 10
290.1896874093676
 20
212.1454646423057
 30
0.0
 10
290.0366346451408
 20
212.123153743729
 30
0.0
 10
289.8822432270009
 20
212.1048588068963
 30
0.0
 10
289.5739066086903
 20
212.0682689332358
 30
0.0
 10
289.264677554435
 20
212.0490815604589
 30
0.0
 10
288.9545560642391
 20
212.0379261111731
 30
0.0
 10
288.332974429933
 20
212.0156152125963
 30
0.0
 10
287.7145163214252
 20
212.0258782259408
 30
0.0
 10
287.0942733410308
 20
212.0669302793199
 30
0.0
  0
SPLINE
  5
147
330
70
100
AcDbEntity
  8
Make2D__可见线__曲线
 62
    18
420
        0
370
    35
100
AcDbSpline
210
0.0
220
0.0
230
1.0
 70
     8
 71
     3
 72
     8
 73
     4
 74
     0
 42
0.0000000001
 43
0.0000000001
 40
0.0
 40
0.0
 40
0.0
 40
0.0
 40
1.0
 40
1.0
 40
1.0
 40
1.0
 10
288.7970411202985
 20
264.5403788565164
 30
0.0
 10
288.4597003338377
 20
264.5461796901461
 30
0.0
 10
288.1228057653512
 20
264.5510880878325
 30
0.0
 10
287.7859111968648
 20
264.5791998200377
 30
0.0
  0
SPLINE
  5
148
330
70
100
AcDbEntity
  8
Make2D__可见线__曲线
 62
    18
420
        0
370
    35
100
AcDbSpline
210
0.0
220
0.0
230
1.0
 70
     8
 71
     3
 72
    20
 73
    16
 74
     0
 42
0.0000000001
 43
0.0000000001
 40
0.0
 40
0.0
 40
0.0
 40
0.0
 40
1.0
 40
1.0
 40
1.0
 40
2.0
 40
2.0
 40
2.0
 40
3.0
 40
3.0
 40
3.0
 40
4.0
 40
4.0
 40
4.0
 40
5.0
 40
5.0
 40
5.0
 40
5.0
 10
288.8345234299045
 20
263.975020686618
 30
0.0
 10
288.6569286772458
 20
263.9781442124185
 30
0.0
 10
288.4788877066137
 20
263.9826063921349
 30
0.0
 10
288.3008467359834
 20
263.9897458796789
 30
0.0
 10
288.2120493596545
 20
263.9933156234501
 30
0.0
 10
288.1228057653512
 20
263.9973315851945
 30
0.0
 10
288.0340083890223
 20
264.0031324188235
 30
0.0
 10
287.9898328098436
 20
264.0058097266524
 30
0.0
 10
287.9452110126946
 20
264.0089332524526
 30
0.0
 10
287.901035433514
 20
264.013395432169
 30
0.0
 10
287.8684615215934
 20
264.0165189579679
 30
0.0
 10
287.8358876096747
 20
264.01964248377
 30
0.0
 10
287.8033136977542
 20
264.0258895353706
 30
0.0
 10
287.7992977360101
 20
264.0267819713139
 30
0.0
 10
287.7716322217769
 20
264.0307979330564
 30
0.0
 10
287.7720784397491
 20
264.0383836385743
 30
0.0
  0
SPLINE
  5
149
330
70
100
AcDbEntity
  8
Make2D__可见线__曲线
 62
    18
420
        0
370
    35
100
AcDbSpline
210
0.0
220
0.0
230
1.0
 70
     8
 71
     3
 72
    11
 73
     7
 74
     0
 42
0.0000000001
 43
0.0000000001
 40
0.0
 40
0.0
 40
0.0
 40
0.0
 40
1.0
 40
1.0
 40
1.0
 40
2.0
 40
2.0
 40
2.0
 40
2.0
 10
285.1126193295749
 20
207.4927498534148
 30
0.0
 10
285.1077109318893
 20
207.3084618311823
 30
0.0
 10
285.095216828688
 20
207.1255124628653
 30
0.0
 10
285.0764756738811
 20
206.942563094547
 30
0.0
 10
285.058180737051
 20
206.7596137262287
 30
0.0
 10
285.0300690048468
 20
206.5780030118273
 30
0.0
 10
285.0251606071601
 20
206.3932687716231
 30
0.0
  0
SPLINE
  5
14A
330
70
100
AcDbEntity
  8
Make2D__可见线__曲线
 62
    18
420
        0
370
    35
100
AcDbSpline
210
0.0
220
0.0
230
1.0
 70
     8
 71
     3
 72
     8
 73
     4
 74
     0
 42
0.0000000001
 43
0.0000000001
 40
0.0
 40
0.0
 40
0.0
 40
0.0
 40
1.0
 40
1.0
 40
1.0
 40
1.0
 10
289.7693500802098
 20
209.9054504253452
 30
0.0
 10
289.0188114521377
 20
210.4458203888383
 30
0.0
 10
287.9768924886706
 20
210.7898544448709
 30
0.0
 10
287.062591865056
 20
210.8514325249377
 30
0.0
  0
SPLINE
  5
14B
330
70
100
AcDbEntity
  8
Make2D__可见线__曲线
 62
    18
420
        0
370
    35
100
AcDbSpline
210
0.0
220
0.0
230
1.0
 70
     8
 71
     3
 72
     8
 73
     4
 74
     0
 42
0.0000000001
 43
0.0000000001
 40
0.0
 40
0.0
 40
0.0
 40
0.0
 40
1.0
 40
1.0
 40
1.0
 40
1.0
 10
290.5631718515181
 20
205.8332652173838
 30
0.0
 10
290.5622794155748
 20
205.8091694469224
 30
0.0
 10
290.5520164022311
 20
205.7926593819763
 30
0.0
 10
290.5363987732282
 20
205.7757030990586
 30
0.0
  0
LINE
  5
14C
330
70
100
AcDbEntity
  8
Make2D__可见线__曲线
 62
    18
420
        0
370
    35
100
AcDbLine
 10
290.7416590401213
 20
212.3766055515461
 30
0.0
 11
290.6412599965317
 21
208.7051240819955
 31
0.0
  0
SPLINE
  5
14D
330
70
100
AcDbEntity
  8
Make2D__可见线__曲线
 62
    18
420
        0
370
    35
100
AcDbSpline
210
0.0
220
0.0
230
1.0
 70
     8
 71
     3
 72
    11
 73
     7
 74
     0
 42
0.0000000001
 43
0.0000000001
 40
0.0
 40
0.0
 40
0.0
 40
0.0
 40
1.0
 40
1.0
 40
1.0
 40
2.0
 40
2.0
 40
2.0
 40
2.0
 10
290.5198887082821
 20
208.9393885170361
 30
0.0
 10
290.5551399280325
 20
208.9554523640112
 30
0.0
 10
290.5752197367472
 20
208.9313565935482
 30
0.0
 10
290.5877138399505
 20
208.9014599894571
 30
0.0
 10
290.5997617251828
 20
208.8733482572517
 30
0.0
 10
290.6042239048966
 20
208.8443440891048
 30
0.0
 10
290.6082398666401
 20
208.8144474850134
 30
0.0
  0
LINE
  5
14E
330
70
100
AcDbEntity
  8
Make2D__可见线__曲线
 62
    18
420
        0
370
    35
100
AcDbLine
 10
285.9720351426958
 20
207.4320642092894
 30
0.0
 11
286.0411989282779
 21
210.1589022331605
 31
0.0
  0
LINE
  5
14F
330
70
100
AcDbEntity
  8
Make2D__可见线__曲线
 62
    18
420
        0
370
    35
100
AcDbLine
 10
285.1804444612439
 20
210.217356787429
 30
0.0
 11
286.0411989282779
 21
210.1589022331605
 31
0.0
  0
SPLINE
  5
150
330
70
100
AcDbEntity
  8
Make2D__可见线__曲线
 62
    18
420
        0
370
    35
100
AcDbSpline
210
0.0
220
0.0
230
1.0
 70
     8
 71
     3
 72
    11
 73
     7
 74
     0
 42
0.0000000001
 43
0.0000000001
 40
0.0
 40
0.0
 40
0.0
 40
0.0
 40
1.0
 40
1.0
 40
1.0
 40
2.0
 40
2.0
 40
2.0
 40
2.0
 10
287.062591865056
 20
210.8514325249377
 30
0.0
 10
286.7096334495951
 20
210.8750820774268
 30
0.0
 10
286.3700615732763
 20
210.864819064083
 30
0.0
 10
286.0229039914466
 20
210.7800376494975
 30
0.0
 10
285.7136749371933
 20
210.7041805943415
 30
0.0
 10
285.335282097356
 20
210.5426496886567
 30
0.0
 10
285.1804444612439
 20
210.217356787429
 30
0.0
  0
LINE
  5
151
330
70
100
AcDbEntity
  8
Make2D__可见线__曲线
 62
    18
420
        0
370
    35
100
AcDbLine
 10
288.6805782297344
 20
205.6007856542285
 30
0.0
 11
286.0362905305912
 21
205.791320728062
 31
0.0
  0
SPLINE
  5
152
330
70
100
AcDbEntity
  8
Make2D__可见线__曲线
 62
    18
420
        0
370
    35
100
AcDbSpline
210
0.0
220
0.0
230
1.0
 70
     8
 71
     3
 72
     8
 73
     4
 74
     0
 42
0.0000000001
 43
0.0000000001
 40
0.0
 40
0.0
 40
0.0
 40
0.0
 40
1.0
 40
1.0
 40
1.0
 40
1.0
 10
289.4467344868094
 20
197.9128962231552
 30
0.0
 10
289.3860488426859
 20
197.9548407124775
 30
0.0
 10
289.3244707626185
 20
197.9950003299128
 30
0.0
 10
289.2620002466072
 20
198.0338212934324
 30
0.0
  0
SPLINE
  5
153
330
70
100
AcDbEntity
  8
Make2D__可见线__曲线
 62
    18
420
        0
370
    35
100
AcDbSpline
210
0.0
220
0.0
230
1.0
 70
     8
 71
     3
 72
     8
 73
     4
 74
     0
 42
0.0000000001
 43
0.0000000001
 40
0.0
 40
0.0
 40
0.0
 40
0.0
 40
1.0
 40
1.0
 40
1.0
 40
1.0
 10
285.0104354141006
 20
205.7890896382058
 30
0.0
 10
285.0144513758433
 20
205.9644533010075
 30
0.0
 10
285.1960620902467
 20
206.0487884976214
 30
0.0
 10
285.3263577379246
 20
206.0947489486866
 30
0.0
  0
SPLINE
  5
154
330
70
100
AcDbEntity
  8
Make2D__可见线__曲线
 62
    18
420
        0
370
    35
100
AcDbSpline
210
0.0
220
0.0
230
1.0
 70
     8
 71
     3
 72
     8
 73
     4
 74
     0
 42
0.0000000001
 43
0.0000000001
 40
0.0
 40
0.0
 40
0.0
 40
0.0
 40
1.0
 40
1.0
 40
1.0
 40
1.0
 10
294.2783826822751
 20
173.3405649682748
 30
0.0
 10
294.0548274785513
 20
172.168350357128
 30
0.0
 10
293.7531841298133
 20
171.0269247860161
 30
0.0
 10
293.3596198789461
 20
169.9002244079645
 30
0.0
  0
SPLINE
  5
155
330
70
100
AcDbEntity
  8
Make2D__可见线__曲线
 62
    18
420
        0
370
    35
100
AcDbSpline
210
0.0
220
0.0
230
1.0
 70
     8
 71
     3
 72
    17
 73
    13
 74
     0
 42
0.0000000001
 43
0.0000000001
 40
0.0
 40
0.0
 40
0.0
 40
0.0
 40
1.0
 40
1.0
 40
1.0
 40
2.0
 40
2.0
 40
2.0
 40
3.0
 40
3.0
 40
3.0
 40
4.0
 40
4.0
 40
4.0
 40
4.0
 10
303.180877431788
 20
176.6358846878431
 30
0.0
 10
305.7350291006873
 20
178.4296809332979
 30
0.0
 10
307.5636303479176
 20
181.031131707176
 30
0.0
 10
308.4542814190424
 20
184.0091904490067
 30
0.0
 10
309.3444862721969
 20
186.9841256650359
 30
0.0
 10
309.2516729341232
 20
190.1629824940434
 30
0.0
 10
308.288288333642
 20
193.0977580926368
 30
0.0
 10
307.3235650792477
 20
196.0361034350026
 30
0.0
 10
305.5145974227623
 20
198.6509407480273
 30
0.0
 10
303.1068052485167
 20
200.5910964881338
 30
0.0
 10
300.7021366000732
 20
202.5294673563544
 30
0.0
 10
297.7620063858233
 20
203.741841584937
 30
0.0
 10
294.6661460995123
 20
203.9680740964894
 30
0.0
  0
SPLINE
  5
156
330
70
100
AcDbEntity
  8
Make2D__可见线__曲线
 62
    18
420
        0
370
    35
100
AcDbSpline
210
0.0
220
0.0
230
1.0
 70
     8
 71
     3
 72
     8
 73
     4
 74
     0
 42
0.0000000001
 43
0.0000000001
 40
0.0
 40
0.0
 40
0.0
 40
0.0
 40
1.0
 40
1.0
 40
1.0
 40
1.0
 10
304.7435327680012
 20
196.0414580506597
 30
0.0
 10
304.4842801265572
 20
195.7616793825262
 30
0.0
 10
304.3414903756735
 20
195.3980117357498
 30
0.0
 10
304.3289962724722
 20
195.0187264599689
 30
0.0
  0
SPLINE
  5
157
330
70
100
AcDbEntity
  8
Make2D__可见线__曲线
 62
    18
420
        0
370
    35
100
AcDbSpline
210
0.0
220
0.0
230
1.0
 70
     8
 71
     3
 72
    11
 73
     7
 74
     0
 42
0.0000000001
 43
0.0000000001
 40
0.0
 40
0.0
 40
0.0
 40
0.0
 40
1.0
 40
1.0
 40
1.0
 40
2.0
 40
2.0
 40
2.0
 40
2.0
 10
304.3289962724722
 20
195.0187264599689
 30
0.0
 10
304.3111475536131
 20
194.4863884199619
 30
0.0
 10
304.5507666043114
 20
193.974576406645
 30
0.0
 10
304.9581636122948
 20
193.6367894022155
 30
0.0
 10
305.3660068382512
 20
193.2985561798141
 30
0.0
 10
305.9144087252318
 20
193.1593361727042
 30
0.0
 10
306.4333602260933
 20
193.296325089956
 30
0.0
  0
SPLINE
  5
158
330
70
100
AcDbEntity
  8
Make2D__可见线__曲线
 62
    18
420
        0
370
    35
100
AcDbSpline
210
0.0
220
0.0
230
1.0
 70
     8
 71
     3
 72
     8
 73
     4
 74
     0
 42
0.0000000001
 43
0.0000000001
 40
0.0
 40
0.0
 40
0.0
 40
0.0
 40
1.0
 40
1.0
 40
1.0
 40
1.0
 10
306.6337120953003
 20
194.1602030827921
 30
0.0
 10
306.6337120953003
 20
194.1700198781649
 30
0.0
 10
306.6332658773287
 20
194.18028289151
 30
0.0
 10
306.6332658773287
 20
194.1900996868829
 30
0.0
  0
SPLINE
  5
159
330
70
100
AcDbEntity
  8
Make2D__可见线__曲线
 62
    18
420
        0
370
    35
100
AcDbSpline
210
0.0
220
0.0
230
1.0
 70
     8
 71
     3
 72
     8
 73
     4
 74
     0
 42
0.0000000001
 43
0.0000000001
 40
0.0
 40
0.0
 40
0.0
 40
0.0
 40
1.0
 40
1.0
 40
1.0
 40
1.0
 10
305.6355224930428
 20
195.8040700898196
 30
0.0
 10
305.6274905695553
 20
195.8085322695341
 30
0.0
 10
305.6199048640374
 20
195.8129944492498
 30
0.0
 10
305.6118729405505
 20
195.8170104109926
 30
0.0
  0
SPLINE
  5
15A
330
70
100
AcDbEntity
  8
Make2D__可见线__曲线
 62
    18
420
        0
370
    35
100
AcDbSpline
210
0.0
220
0.0
230
1.0
 70
     8
 71
     3
 72
     8
 73
     4
 74
     0
 42
0.0000000001
 43
0.0000000001
 40
0.0
 40
0.0
 40
0.0
 40
0.0
 40
1.0
 40
1.0
 40
1.0
 40
1.0
 10
295.5139602453753
 20
198.410875479356
 30
0.0
 10
295.2270420896981
 20
198.2422050861276
 30
0.0
 10
294.8999643165812
 20
198.1578698895125
 30
0.0
 10
294.5675319278099
 20
198.1632245051696
 30
0.0
  0
SPLINE
  5
15B
330
70
100
AcDbEntity
  8
Make2D__可见线__曲线
 62
    18
420
        0
370
    35
100
AcDbSpline
210
0.0
220
0.0
230
1.0
 70
     8
 71
     3
 72
     8
 73
     4
 74
     0
 42
0.0000000001
 43
0.0000000001
 40
0.0
 40
0.0
 40
0.0
 40
0.0
 40
1.0
 40
1.0
 40
1.0
 40
1.0
 10
305.6622955713302
 20
195.7897911147311
 30
0.0
 10
305.526645307994
 20
195.6309375168754
 30
0.0
 10
305.4521269067529
 20
195.4305856476697
 30
0.0
 10
305.4449874192073
 20
195.2226480729468
 30
0.0
  0
LINE
  5
15C
330
70
100
AcDbEntity
  8
Make2D__可见线__曲线
 62
    18
420
        0
370
    35
100
AcDbLine
 10
306.3003872705849
 20
193.0696463604326
 30
0.0
 11
306.3008334885547
 21
193.0696463604326
 31
0.0
  0
SPLINE
  5
15D
330
70
100
AcDbEntity
  8
Make2D__可见线__曲线
 62
    18
420
        0
370
    35
100
AcDbSpline
210
0.0
220
0.0
230
1.0
 70
     8
 71
     3
 72
     8
 73
     4
 74
     0
 42
0.0000000001
 43
0.0000000001
 40
0.0
 40
0.0
 40
0.0
 40
0.0
 40
1.0
 40
1.0
 40
1.0
 40
1.0
 10
305.450788252838
 20
195.7228584190059
 30
0.0
 10
305.5096890250762
 20
195.7572172028111
 30
0.0
 10
305.5703746692017
 20
195.7839902811017
 30
0.0
 10
305.6355224930428
 20
195.8045163077906
 30
0.0
  0
LINE
  5
15E
330
70
100
AcDbEntity
  8
Make2D__可见线__曲线
 62
    18
420
        0
370
    35
100
AcDbLine
 10
306.0723698871448
 20
192.7929912180973
 30
0.0
 11
306.0728161051164
 21
192.793437436069
 31
0.0
  0
LINE
  5
15F
330
70
100
AcDbEntity
  8
Make2D__可见线__曲线
 62
    18
420
        0
370
    35
100
AcDbLine
 10
304.9429922012636
 20
177.8732471228311
 30
0.0
 11
303.180877431788
 21
176.6358846878431
 31
0.0
  0
LINE
  5
160
330
70
100
AcDbEntity
  8
Make2D__可见线__曲线
 62
    18
420
        0
370
    35
100
AcDbLine
 10
295.60721980142
 20
198.4693300336233
 30
0.0
 11
295.4233779971591
 21
198.3457276555162
 31
0.0
  0
LINE
  5
161
330
70
100
AcDbEntity
  8
Make2D__可见线__曲线
 62
    18
420
        0
370
    35
100
AcDbLine
 10
295.3961587008982
 20
201.7802673821958
 30
0.0
 11
295.395712482924
 21
201.7807136001693
 31
0.0
  0
SPLINE
  5
162
330
70
100
AcDbEntity
  8
Make2D__可见线__曲线
 62
    18
420
        0
370
    35
100
AcDbSpline
210
0.0
220
0.0
230
1.0
 70
     8
 71
     3
 72
     8
 73
     4
 74
     0
 42
0.0000000001
 43
0.0000000001
 40
0.0
 40
0.0
 40
0.0
 40
0.0
 40
1.0
 40
1.0
 40
1.0
 40
1.0
 10
305.9800027670427
 20
192.7059787136542
 30
0.0
 10
306.01168424302
 20
192.7340904458591
 30
0.0
 10
306.0424732830559
 20
192.7630946140066
 30
0.0
 10
306.0723698871448
 20
192.7929912180973
 30
0.0
  0
SPLINE
  5
163
330
70
100
AcDbEntity
  8
Make2D__可见线__曲线
 62
    18
420
        0
370
    35
100
AcDbSpline
210
0.0
220
0.0
230
1.0
 70
     8
 71
     3
 72
     8
 73
     4
 74
     0
 42
0.0000000001
 43
0.0000000001
 40
0.0
 40
0.0
 40
0.0
 40
0.0
 40
1.0
 40
1.0
 40
1.0
 40
1.0
 10
306.4645954840983
 20
194.0589116032598
 30
0.0
 10
306.5266197821386
 20
194.0959476948955
 30
0.0
 10
306.5819508106063
 20
194.1392308381309
 30
0.0
 10
306.6332658773287
 20
194.1900996868829
 30
0.0
  0
SPLINE
  5
164
330
70
100
AcDbEntity
  8
Make2D__可见线__曲线
 62
    18
420
        0
370
    35
100
AcDbSpline
210
0.0
220
0.0
230
1.0
 70
     8
 71
     3
 72
    11
 73
     7
 74
     0
 42
0.0000000001
 43
0.0000000001
 40
0.0
 40
0.0
 40
0.0
 40
0.0
 40
1.0
 40
1.0
 40
1.0
 40
2.0
 40
2.0
 40
2.0
 40
2.0
 10
267.3790247059925
 20
157.3922884486861
 30
0.0
 10
267.5218144568717
 20
157.4877790945871
 30
0.0
 10
267.703425171275
 20
157.4703765936971
 30
0.0
 10
267.8404140885281
 20
157.3789019095402
 30
0.0
 10
267.9765105698372
 20
157.2878734433517
 30
0.0
 10
268.0639692922532
 20
157.1294660634684
 30
0.0
 10
268.0608457664517
 20
156.9639191960396
 30
0.0
  0
SPLINE
  5
165
330
70
100
AcDbEntity
  8
Make2D__可见线__曲线
 62
    18
420
        0
370
    35
100
AcDbSpline
210
0.0
220
0.0
230
1.0
 70
     8
 71
     3
 72
     8
 73
     4
 74
     0
 42
0.0000000001
 43
0.0000000001
 40
0.0
 40
0.0
 40
0.0
 40
0.0
 40
1.0
 40
1.0
 40
1.0
 40
1.0
 10
305.0063551532176
 20
194.9642878674448
 30
0.0
 10
305.0166181665614
 20
195.2761942295286
 30
0.0
 10
305.1785952902191
 20
195.563558603178
 30
0.0
 10
305.450788252838
 20
195.7228584190059
 30
0.0
  0
SPLINE
  5
166
330
70
100
AcDbEntity
  8
Make2D__可见线__曲线
 62
    18
420
        0
370
    35
100
AcDbSpline
210
0.0
220
0.0
230
1.0
 70
     8
 71
     3
 72
    17
 73
    13
 74
     0
 42
0.0000000001
 43
0.0000000001
 40
0.0
 40
0.0
 40
0.0
 40
0.0
 40
1.0
 40
1.0
 40
1.0
 40
2.0
 40
2.0
 40
2.0
 40
3.0
 40
3.0
 40
3.0
 40
4.0
 40
4.0
 40
4.0
 40
4.0
 10
296.530891002437
 20
204.8912990795354
 30
0.0
 10
299.5941773768236
 20
204.6699749656678
 30
0.0
 10
302.5048572049576
 20
203.4750032379752
 30
0.0
 10
304.8858763009113
 20
201.5593894863018
 30
0.0
 10
307.2691264867233
 20
199.6424370807121
 30
0.0
 10
309.0589067704334
 20
197.0574963717788
 30
0.0
 10
310.0115821395992
 20
194.1508325053903
 30
0.0
 10
310.9633650728203
 20
191.2472921648032
 30
0.0
 10
311.0503775772635
 20
188.1032403375733
 30
0.0
 10
310.1659735577397
 20
185.1617714694066
 30
0.0
 10
309.2811233202442
 20
182.2176252934101
 30
0.0
 10
307.4690321379573
 20
179.6469635595654
 30
0.0
 10
304.9429922012636
 20
177.8732471228311
 30
0.0
  0
SPLINE
  5
167
330
70
100
AcDbEntity
  8
Make2D__可见线__曲线
 62
    18
420
        0
370
    35
100
AcDbSpline
210
0.0
220
0.0
230
1.0
 70
     8
 71
     3
 72
     8
 73
     4
 74
     0
 42
0.0000000001
 43
0.0000000001
 40
0.0
 40
0.0
 40
0.0
 40
0.0
 40
1.0
 40
1.0
 40
1.0
 40
1.0
 10
294.5639621840387
 20
202.0488906010441
 30
0.0
 10
294.8642668788618
 20
202.0265797024686
 30
0.0
 10
295.1257506101633
 20
201.9453680316524
 30
0.0
 10
295.3863419055247
 20
201.7954387932276
 30
0.0
  0
SPLINE
  5
168
330
70
100
AcDbEntity
  8
Make2D__可见线__曲线
 62
    18
420
        0
370
    35
100
AcDbSpline
210
0.0
220
0.0
230
1.0
 70
     8
 71
     3
 72
     8
 73
     4
 74
     0
 42
0.0000000001
 43
0.0000000001
 40
0.0
 40
0.0
 40
0.0
 40
0.0
 40
1.0
 40
1.0
 40
1.0
 40
1.0
 10
293.702315281062
 20
201.9069932861037
 30
0.0
 10
293.8839259954634
 20
201.9859738670599
 30
0.0
 10
294.0664291458113
 20
202.0305956642114
 30
0.0
 10
294.2632112712459
 20
202.0475519471286
 30
0.0
  0
SPLINE
  5
169
330
70
100
AcDbEntity
  8
Make2D__可见线__曲线
 62
    18
420
        0
370
    35
100
AcDbSpline
210
0.0
220
0.0
230
1.0
 70
     8
 71
     3
 72
    11
 73
     7
 74
     0
 42
0.0000000001
 43
0.0000000001
 40
0.0
 40
0.0
 40
0.0
 40
0.0
 40
1.0
 40
1.0
 40
1.0
 40
2.0
 40
2.0
 40
2.0
 40
2.0
 10
305.0063551532176
 20
194.9642878674448
 30
0.0
 10
304.9943072679879
 20
194.6099907980696
 30
0.0
 10
305.1777028542758
 20
194.2735424475535
 30
0.0
 10
305.475330241271
 20
194.0843460276361
 30
0.0
 10
305.7734038462366
 20
193.8942571717749
 30
0.0
 10
306.1562588657883
 20
193.8737311450853
 30
0.0
 10
306.4645954840983
 20
194.0589116032598
 30
0.0
  0
SPLINE
  5
16A
330
70
100
AcDbEntity
  8
Make2D__可见线__曲线
 62
    18
420
        0
370
    35
100
AcDbSpline
210
0.0
220
0.0
230
1.0
 70
     8
 71
     3
 72
     8
 73
     4
 74
     0
 42
0.0000000001
 43
0.0000000001
 40
0.0
 40
0.0
 40
0.0
 40
0.0
 40
1.0
 40
1.0
 40
1.0
 40
1.0
 10
305.4449874192073
 20
195.2226480729468
 30
0.0
 10
305.4240151745468
 20
194.5939269510958
 30
0.0
 10
306.0098993711354
 20
194.0754216682059
 30
0.0
 10
306.632373441386
 20
194.2137492393713
 30
0.0
  0
SPLINE
  5
16B
330
70
100
AcDbEntity
  8
Make2D__可见线__曲线
 62
    18
420
        0
370
    35
100
AcDbSpline
210
0.0
220
0.0
230
1.0
 70
     8
 71
     3
 72
     8
 73
     4
 74
     0
 42
0.0000000001
 43
0.0000000001
 40
0.0
 40
0.0
 40
0.0
 40
0.0
 40
1.0
 40
1.0
 40
1.0
 40
1.0
 10
280.5607498022432
 20
201.3755476820402
 30
0.0
 10
281.9127902559062
 20
201.2724713306236
 30
0.0
 10
283.2036988474734
 20
201.0145573430924
 30
0.0
 10
284.4901452593222
 20
200.5835107826192
 30
0.0
  0
SPLINE
  5
16C
330
70
100
AcDbEntity
  8
Make2D__可见线__曲线
 62
    18
420
        0
370
    35
100
AcDbSpline
210
0.0
220
0.0
230
1.0
 70
     8
 71
     3
 72
     8
 73
     4
 74
     0
 42
0.0000000001
 43
0.0000000001
 40
0.0
 40
0.0
 40
0.0
 40
0.0
 40
1.0
 40
1.0
 40
1.0
 40
1.0
 10
297.167197829804
 20
178.9588954475039
 30
0.0
 10
297.0525198111257
 20
177.3368931210802
 30
0.0
 10
296.7812192844521
 20
175.7657596434085
 30
0.0
 10
296.3519575958641
 20
174.1981959095086
 30
0.0
  0
SPLINE
  5
16D
330
70
100
AcDbEntity
  8
Make2D__可见线__曲线
 62
    18
420
        0
370
    35
100
AcDbSpline
210
0.0
220
0.0
230
1.0
 70
     8
 71
     3
 72
     8
 73
     4
 74
     0
 42
0.0000000001
 43
0.0000000001
 40
0.0
 40
0.0
 40
0.0
 40
0.0
 40
1.0
 40
1.0
 40
1.0
 40
1.0
 10
286.7413149255724
 20
160.4631605285886
 30
0.0
 10
286.7100796675648
 20
160.4408496300131
 30
0.0
 10
286.6792906275301
 20
160.418984949408
 30
0.0
 10
286.6476091515547
 20
160.3971202688048
 30
0.0
  0
SPLINE
  5
16E
330
70
100
AcDbEntity
  8
Make2D__可见线__曲线
 62
    18
420
        0
370
    35
100
AcDbSpline
210
0.0
220
0.0
230
1.0
 70
     8
 71
     3
 72
     8
 73
     4
 74
     0
 42
0.0000000001
 43
0.0000000001
 40
0.0
 40
0.0
 40
0.0
 40
0.0
 40
1.0
 40
1.0
 40
1.0
 40
1.0
 10
297.1667516118323
 20
178.9588954475039
 30
0.0
 10
297.1734448814043
 20
179.0552785293494
 30
0.0
 10
297.1846003306927
 20
179.609927467931
 30
0.0
 10
297.1872776385206
 20
179.7063105497765
 30
0.0
  0
SPLINE
  5
16F
330
70
100
AcDbEntity
  8
Make2D__可见线__曲线
 62
    18
420
        0
370
    35
100
AcDbSpline
210
0.0
220
0.0
230
1.0
 70
     8
 71
     3
 72
     8
 73
     4
 74
     0
 42
0.0000000001
 43
0.0000000001
 40
0.0
 40
0.0
 40
0.0
 40
0.0
 40
1.0
 40
1.0
 40
1.0
 40
1.0
 10
297.1872776385206
 20
179.7063105497765
 30
0.0
 10
297.2015566136085
 20
180.1672537143411
 30
0.0
 10
297.2305607817579
 20
180.6268582249927
 30
0.0
 10
297.2216364223277
 20
181.0886938255
 30
0.0
  0
SPLINE
  5
170
330
70
100
AcDbEntity
  8
Make2D__可见线__曲线
 62
    18
420
        0
370
    35
100
AcDbSpline
210
0.0
220
0.0
230
1.0
 70
     8
 71
     3
 72
     8
 73
     4
 74
     0
 42
0.0000000001
 43
0.0000000001
 40
0.0
 40
0.0
 40
0.0
 40
0.0
 40
1.0
 40
1.0
 40
1.0
 40
1.0
 10
277.8758562676933
 20
200.7365635468441
 30
0.0
 10
275.5113472366856
 20
200.9190666971901
 30
0.0
 10
273.1919062207979
 20
200.4898050086015
 30
0.0
 10
271.041135598138
 20
199.5000935478013
 30
0.0
  0
LINE
  5
171
330
70
100
AcDbEntity
  8
Make2D__可见线__曲线
 62
    18
420
        0
370
    35
100
AcDbLine
 10
293.1289251876761
 20
201.3849182594427
 30
0.0
 11
293.6706338050846
 21
201.6588960939468
 31
0.0
  0
LINE
  5
172
330
70
100
AcDbEntity
  8
Make2D__可见线__曲线
 62
    18
420
        0
370
    35
100
AcDbLine
 10
295.3145008121109
 20
198.5416173450074
 30
0.0
 11
294.778146810362
 21
198.2564840612156
 31
0.0
  0
SPLINE
  5
173
330
70
100
AcDbEntity
  8
Make2D__可见线__曲线
 62
    18
420
        0
370
    35
100
AcDbSpline
210
0.0
220
0.0
230
1.0
 70
     8
 71
     3
 72
    11
 73
     7
 74
     0
 42
0.0000000001
 43
0.0000000001
 40
0.0
 40
0.0
 40
0.0
 40
0.0
 40
1.0
 40
1.0
 40
1.0
 40
2.0
 40
2.0
 40
2.0
 40
2.0
 10
293.8812486876355
 20
198.0726422569534
 30
0.0
 10
293.1561444839377
 20
198.1293119393366
 30
0.0
 10
292.5457182989174
 20
198.6411239526541
 30
0.0
 10
292.3217168772238
 20
199.322498795142
 30
0.0
 10
292.0963768016116
 20
200.0074433814041
 30
0.0
 10
292.2927127090757
 20
200.7798466900804
 30
0.0
 10
292.878596905663
 20
201.2278495334724
 30
0.0
  0
SPLINE
  5
174
330
70
100
AcDbEntity
  8
Make2D__可见线__曲线
 62
    18
420
        0
370
    35
100
AcDbSpline
210
0.0
220
0.0
230
1.0
 70
     8
 71
     3
 72
     8
 73
     4
 74
     0
 42
0.0000000001
 43
0.0000000001
 40
0.0
 40
0.0
 40
0.0
 40
0.0
 40
1.0
 40
1.0
 40
1.0
 40
1.0
 10
294.778146810362
 20
198.2564840612156
 30
0.0
 10
294.770114886875
 20
198.2524680994714
 30
0.0
 10
294.7620829633875
 20
198.2484521377286
 30
0.0
 10
294.7540510399006
 20
198.2439899580129
 30
0.0
  0
SPLINE
  5
175
330
70
100
AcDbEntity
  8
Make2D__可见线__曲线
 62
    18
420
        0
370
    35
100
AcDbSpline
210
0.0
220
0.0
230
1.0
 70
     8
 71
     3
 72
     8
 73
     4
 74
     0
 42
0.0000000001
 43
0.0000000001
 40
0.0
 40
0.0
 40
0.0
 40
0.0
 40
1.0
 40
1.0
 40
1.0
 40
1.0
 10
293.6706338050846
 20
201.6588960939468
 30
0.0
 10
293.9374721520433
 20
201.7941001393127
 30
0.0
 10
294.23465332107
 20
201.8512160396663
 30
0.0
 10
294.5318344900897
 20
201.8289051410908
 30
0.0
  0
SPLINE
  5
176
330
70
100
AcDbEntity
  8
Make2D__可见线__曲线
 62
    18
420
        0
370
    35
100
AcDbSpline
210
0.0
220
0.0
230
1.0
 70
     8
 71
     3
 72
    11
 73
     7
 74
     0
 42
0.0000000001
 43
0.0000000001
 40
0.0
 40
0.0
 40
0.0
 40
0.0
 40
1.0
 40
1.0
 40
1.0
 40
2.0
 40
2.0
 40
2.0
 40
2.0
 10
294.5318344900897
 20
201.8289051410908
 30
0.0
 10
295.3033453628244
 20
201.7708968047952
 30
0.0
 10
295.9418832800489
 20
201.1988453653249
 30
0.0
 10
296.1284023921397
 20
200.4585697505961
 30
0.0
 10
296.3162601581434
 20
199.7120470842664
 30
0.0
 10
296.011047065631
 20
198.9110858254145
 30
0.0
 10
295.3145008121109
 20
198.5416173450074
 30
0.0
  0
LINE
  5
177
330
70
100
AcDbEntity
  8
Make2D__可见线__曲线
 62
    18
420
        0
370
    35
100
AcDbLine
 10
292.9669480640203
 20
199.8512670913776
 30
0.0
 11
293.444401293531
 21
200.6214393101968
 31
0.0
  0
LINE
  5
178
330
70
100
AcDbEntity
  8
Make2D__可见线__曲线
 62
    18
420
        0
370
    35
100
AcDbLine
 10
293.3984408424677
 20
199.0114848690028
 30
0.0
 11
292.9669480640203
 21
199.8512670913776
 31
0.0
  0
LINE
  5
179
330
70
100
AcDbEntity
  8
Make2D__可见线__曲线
 62
    18
420
        0
370
    35
100
AcDbLine
 10
293.2208460898065
 20
199.9820089570284
 30
0.0
 11
292.9669480640203
 21
199.8512670913776
 31
0.0
  0
LINE
  5
17A
330
70
100
AcDbEntity
  8
Make2D__可见线__曲线
 62
    18
420
        0
370
    35
100
AcDbLine
 10
293.6518926502823
 20
199.1435653885685
 30
0.0
 11
293.2208460898065
 21
199.9820089570284
 31
0.0
  0
LINE
  5
17B
330
70
100
AcDbEntity
  8
Make2D__可见线__曲线
 62
    18
420
        0
370
    35
100
AcDbLine
 10
293.6518926502823
 20
199.1435653885685
 30
0.0
 11
293.3984408424677
 21
199.0114848690028
 31
0.0
  0
LINE
  5
17C
330
70
100
AcDbEntity
  8
Make2D__可见线__曲线
 62
    18
420
        0
370
    35
100
AcDbLine
 10
294.3551321733744
 20
200.5518293066419
 30
0.0
 11
294.7875173877625
 21
199.7107084303528
 31
0.0
  0
LINE
  5
17D
330
70
100
AcDbEntity
  8
Make2D__可见线__曲线
 62
    18
420
        0
370
    35
100
AcDbLine
 10
294.3087255043369
 20
198.9405362115336
 30
0.0
 11
293.3984408424677
 21
199.0114848690028
 31
0.0
  0
SPLINE
  5
17F
330
70
100
AcDbEntity
  8
Make2D__可见线__正切线
 62
    18
420
        0
370
    35
100
AcDbSpline
210
0.0
220
0.0
230
1.0
 70
     8
 71
     3
 72
     8
 73
     4
 74
     0
 42
0.0000000001
 43
0.0000000001
 40
0.0
 40
0.0
 40
0.0
 40
0.0
 40
1.0
 40
1.0
 40
1.0
 40
1.0
 10
293.8321647107681
 20
198.2404202142411
 30
0.0
 10
293.8317184927991
 20
198.2172168797223
 30
0.0
 10
293.8317184927991
 20
198.1949059811469
 30
0.0
 10
293.8393041983144
 20
198.1721488645997
 30
0.0
  0
SPLINE
  5
180
330
70
100
AcDbEntity
  8
Make2D__可见线__正切线
 62
    18
420
        0
370
    35
100
AcDbSpline
210
0.0
220
0.0
230
1.0
 70
     8
 71
     3
 72
     8
 73
     4
 74
     0
 42
0.0000000001
 43
0.0000000001
 40
0.0
 40
0.0
 40
0.0
 40
0.0
 40
1.0
 40
1.0
 40
1.0
 40
1.0
 10
293.9504124732188
 20
201.4005358884455
 30
0.0
 10
293.9441654216178
 20
201.4009821064165
 30
0.0
 10
293.9383645879891
 20
201.4014283243888
 30
0.0
 10
293.9321175363888
 20
201.4018745423605
 30
0.0
  0
SPLINE
  5
181
330
70
100
AcDbEntity
  8
Make2D__可见线__正切线
 62
    18
420
        0
370
    35
100
AcDbSpline
210
0.0
220
0.0
230
1.0
 70
     8
 71
     3
 72
     8
 73
     4
 74
     0
 42
0.0000000001
 43
0.0000000001
 40
0.0
 40
0.0
 40
0.0
 40
0.0
 40
1.0
 40
1.0
 40
1.0
 40
1.0
 10
293.9321175363888
 20
201.4018745423605
 30
0.0
 10
293.9245318308709
 20
201.3759939000125
 30
0.0
 10
293.9214083050707
 20
201.3505594756362
 30
0.0
 10
293.9205158691281
 20
201.3237863973456
 30
0.0
  0
SPLINE
  5
182
330
70
100
AcDbEntity
  8
Make2D__可见线__正切线
 62
    18
420
        0
370
    35
100
AcDbSpline
210
0.0
220
0.0
230
1.0
 70
    24
 71
     3
 72
     8
 73
     4
 74
     0
 42
0.0000000001
 43
0.0000000001
 40
0.0
 40
0.0
 40
0.0
 40
0.0
 40
1.0
 40
1.0
 40
1.0
 40
1.0
 10
293.9379183700175
 20
201.3224477434307
 30
0.0
 10
293.9321175363888
 20
201.322893961403
 30
0.0
 10
293.9263167027574
 20
201.3233401793746
 30
0.0
 10
293.9205158691281
 20
201.3237863973456
 30
0.0
  0
SPLINE
  5
183
330
70
100
AcDbEntity
  8
Make2D__可见线__正切线
 62
    18
420
        0
370
    35
100
AcDbSpline
210
0.0
220
0.0
230
1.0
 70
     8
 71
     3
 72
     8
 73
     4
 74
     0
 42
0.0000000001
 43
0.0000000001
 40
0.0
 40
0.0
 40
0.0
 40
0.0
 40
1.0
 40
1.0
 40
1.0
 40
1.0
 10
293.8210092614824
 20
198.1734875185153
 30
0.0
 10
293.8272563130827
 20
198.1730413005436
 30
0.0
 10
293.8335033646837
 20
198.172595082572
 30
0.0
 10
293.8393041983144
 20
198.1721488645997
 30
0.0
  0
SPLINE
  5
184
330
70
100
AcDbEntity
  8
Make2D__可见线__正切线
 62
    18
420
        0
370
    35
100
AcDbSpline
210
0.0
220
0.0
230
1.0
 70
    24
 71
     3
 72
     8
 73
     4
 74
     0
 42
0.0000000001
 43
0.0000000001
 40
0.0
 40
0.0
 40
0.0
 40
0.0
 40
1.0
 40
1.0
 40
1.0
 40
1.0
 10
293.8147622098807
 20
198.2417588681554
 30
0.0
 10
293.8205630435101
 20
198.2413126501843
 30
0.0
 10
293.8263638771388
 20
198.2408664322127
 30
0.0
 10
293.8321647107681
 20
198.2404202142411
 30
0.0
  0
LINE
  5
185
330
70
100
AcDbEntity
  8
Make2D__可见线__正切线
 62
    18
420
        0
370
    35
100
AcDbLine
 10
293.9321175363888
 20
201.4018745423605
 30
0.0
 11
293.9637990123635
 21
201.51164416335
 31
0.0
  0
SPLINE
  5
186
330
70
100
AcDbEntity
  8
Make2D__可见线__正切线
 62
    18
420
        0
370
    35
100
AcDbSpline
210
0.0
220
0.0
230
1.0
 70
    24
 71
     3
 72
     8
 73
     4
 74
     0
 42
0.0000000001
 43
0.0000000001
 40
0.0
 40
0.0
 40
0.0
 40
0.0
 40
1.0
 40
1.0
 40
1.0
 40
1.0
 10
293.9637990123635
 20
201.51164416335
 30
0.0
 10
293.9593368326471
 20
201.512090381321
 30
0.0
 10
293.9548746529333
 20
201.5125365992933
 30
0.0
 10
293.9504124732188
 20
201.5129828172649
 30
0.0
  0
LINE
  5
187
330
70
100
AcDbEntity
  8
Make2D__可见线__正切线
 62
    18
420
        0
370
    35
100
AcDbLine
 10
293.8656310586321
 20
198.0922758477022
 30
0.0
 11
293.8393041983144
 21
198.1721488645997
 31
0.0
  0
SPLINE
  5
188
330
70
100
AcDbEntity
  8
Make2D__可见线__正切线
 62
    18
420
        0
370
    35
100
AcDbSpline
210
0.0
220
0.0
230
1.0
 70
     8
 71
     3
 72
     8
 73
     4
 74
     0
 42
0.0000000001
 43
0.0000000001
 40
0.0
 40
0.0
 40
0.0
 40
0.0
 40
1.0
 40
1.0
 40
1.0
 40
1.0
 10
293.8656310586321
 20
198.0922758477022
 30
0.0
 10
293.8700932383465
 20
198.09182962973
 30
0.0
 10
293.8745554180629
 20
198.09182962973
 30
0.0
 10
293.8790175977767
 20
198.0913834117583
 30
0.0
  0
SPLINE
  5
189
330
70
100
AcDbEntity
  8
Make2D__可见线__正切线
 62
    18
420
        0
370
    35
100
AcDbSpline
210
0.0
220
0.0
230
1.0
 70
     8
 71
     3
 72
     8
 73
     4
 74
     0
 42
0.0000000001
 43
0.0000000001
 40
0.0
 40
0.0
 40
0.0
 40
0.0
 40
1.0
 40
1.0
 40
1.0
 40
1.0
 10
293.9870023468823
 20
201.5535886526711
 30
0.0
 10
293.9749544616525
 20
201.5473416010707
 30
0.0
 10
293.966922538165
 20
201.5223533946674
 30
0.0
 10
293.9637990123635
 20
201.51164416335
 30
0.0
  0
SPLINE
  5
18A
330
70
100
AcDbEntity
  8
Make2D__可见线__正切线
 62
    18
420
        0
370
    35
100
AcDbSpline
210
0.0
220
0.0
230
1.0
 70
     8
 71
     3
 72
     8
 73
     4
 74
     0
 42
0.0000000001
 43
0.0000000001
 40
0.0
 40
0.0
 40
0.0
 40
0.0
 40
1.0
 40
1.0
 40
1.0
 40
1.0
 10
294.5130933352873
 20
201.8284589231192
 30
0.0
 10
294.5175555150037
 20
201.8280127051469
 30
0.0
 10
294.5220176947175
 20
201.8280127051469
 30
0.0
 10
294.526479874432
 20
201.8275664871765
 30
0.0
  0
SPLINE
  5
18B
330
70
100
AcDbEntity
  8
Make2D__可见线__正切线
 62
    18
420
        0
370
    35
100
AcDbSpline
210
0.0
220
0.0
230
1.0
 70
     8
 71
     3
 72
     8
 73
     4
 74
     0
 42
0.0000000001
 43
0.0000000001
 40
0.0
 40
0.0
 40
0.0
 40
0.0
 40
1.0
 40
1.0
 40
1.0
 40
1.0
 10
293.9731695897659
 20
201.5544810886137
 30
0.0
 10
293.9780779874539
 20
201.5544810886137
 30
0.0
 10
293.9825401671678
 20
201.5540348706434
 30
0.0
 10
293.9870023468823
 20
201.5535886526711
 30
0.0
  0
SPLINE
  5
18C
330
70
100
AcDbEntity
  8
Make2D__可见线__正切线
 62
    18
420
        0
370
    35
100
AcDbSpline
210
0.0
220
0.0
230
1.0
 70
     8
 71
     3
 72
     8
 73
     4
 74
     0
 42
0.0000000001
 43
0.0000000001
 40
0.0
 40
0.0
 40
0.0
 40
0.0
 40
1.0
 40
1.0
 40
1.0
 40
1.0
 10
294.5318344900897
 20
201.8289051410908
 30
0.0
 10
294.5300496182051
 20
201.8289051410908
 30
0.0
 10
294.5282647463185
 20
201.8284589231192
 30
0.0
 10
294.526479874432
 20
201.8275664871765
 30
0.0
  0
SPLINE
  5
18D
330
70
100
AcDbEntity
  8
Make2D__可见线__正切线
 62
    18
420
        0
370
    35
100
AcDbSpline
210
0.0
220
0.0
230
1.0
 70
     8
 71
     3
 72
     8
 73
     4
 74
     0
 42
0.0000000001
 43
0.0000000001
 40
0.0
 40
0.0
 40
0.0
 40
0.0
 40
1.0
 40
1.0
 40
1.0
 40
1.0
 10
293.6706338050846
 20
201.6588960939468
 30
0.0
 10
293.9316713184145
 20
201.7909766135129
 30
0.0
 10
294.2221592178661
 20
201.8480925138648
 30
0.0
 10
294.5130933352873
 20
201.8284589231192
 30
0.0
  0
LINE
  5
18E
330
70
100
AcDbEntity
  8
Make2D__可见线__正切线
 62
    18
420
        0
370
    35
100
AcDbLine
 10
294.526479874432
 20
201.8275664871765
 30
0.0
 11
293.9870023468823
 21
201.5535886526711
 31
0.0
  0
SPLINE
  5
18F
330
70
100
AcDbEntity
  8
Make2D__可见线__正切线
 62
    18
420
        0
370
    35
100
AcDbSpline
210
0.0
220
0.0
230
1.0
 70
     8
 71
     3
 72
    11
 73
     7
 74
     0
 42
0.0000000001
 43
0.0000000001
 40
0.0
 40
0.0
 40
0.0
 40
0.0
 40
1.0
 40
1.0
 40
1.0
 40
2.0
 40
2.0
 40
2.0
 40
2.0
 10
295.3145008121109
 20
198.5416173450074
 30
0.0
 10
296.011047065631
 20
198.9110858254145
 30
0.0
 10
296.3117979784276
 20
199.7138319561529
 30
0.0
 10
296.1226015585083
 20
200.4585697505961
 30
0.0
 10
295.9347437925053
 20
201.1966142754674
 30
0.0
 10
295.2975445291932
 20
201.7695581508803
 30
0.0
 10
294.526479874432
 20
201.8275664871765
 30
0.0
  0
SPLINE
  5
190
330
70
100
AcDbEntity
  8
Make2D__可见线__正切线
 62
    18
420
        0
370
    35
100
AcDbSpline
210
0.0
220
0.0
230
1.0
 70
     8
 71
     3
 72
     8
 73
     4
 74
     0
 42
0.0000000001
 43
0.0000000001
 40
0.0
 40
0.0
 40
0.0
 40
0.0
 40
1.0
 40
1.0
 40
1.0
 40
1.0
 10
293.1289251876761
 20
201.3849182594427
 30
0.0
 10
293.3904089189783
 20
201.5169987790084
 30
0.0
 10
293.6813430364014
 20
201.5741146793607
 30
0.0
 10
293.9731695897659
 20
201.5544810886137
 30
0.0
  0
LINE
  5
191
330
70
100
AcDbEntity
  8
Make2D__可见线__正切线
 62
    18
420
        0
370
    35
100
AcDbLine
 10
305.4449874192073
 20
195.2226480729468
 30
0.0
 11
305.0063551532176
 21
194.9642878674448
 31
0.0
  0
SPLINE
  5
192
330
70
100
AcDbEntity
  8
Make2D__可见线__正切线
 62
    18
420
        0
370
    35
100
AcDbSpline
210
0.0
220
0.0
230
1.0
 70
     8
 71
     3
 72
     8
 73
     4
 74
     0
 42
0.0000000001
 43
0.0000000001
 40
0.0
 40
0.0
 40
0.0
 40
0.0
 40
1.0
 40
1.0
 40
1.0
 40
1.0
 10
303.2527185251999
 20
195.4555738540724
 30
0.0
 10
303.225499228939
 20
195.4283545578115
 30
0.0
 10
303.1991723686188
 20
195.4002428256067
 30
0.0
 10
303.1737379442444
 20
195.3716848754309
 30
0.0
  0
SPLINE
  5
193
330
70
100
AcDbEntity
  8
Make2D__可见线__正切线
 62
    18
420
        0
370
    35
100
AcDbSpline
210
0.0
220
0.0
230
1.0
 70
     8
 71
     3
 72
     8
 73
     4
 74
     0
 42
0.0000000001
 43
0.0000000001
 40
0.0
 40
0.0
 40
0.0
 40
0.0
 40
1.0
 40
1.0
 40
1.0
 40
1.0
 10
303.1737379442444
 20
195.3716848754309
 30
0.0
 10
302.8939592761096
 20
195.0553163336327
 30
0.0
 10
302.7190418312795
 20
194.6488117615905
 30
0.0
 10
302.6891452271881
 20
194.2262433425746
 30
0.0
  0
SPLINE
  5
194
330
70
100
AcDbEntity
  8
Make2D__可见线__正切线
 62
    18
420
        0
370
    35
100
AcDbSpline
210
0.0
220
0.0
230
1.0
 70
     8
 71
     3
 72
    17
 73
    13
 74
     0
 42
0.0000000001
 43
0.0000000001
 40
0.0
 40
0.0
 40
0.0
 40
0.0
 40
1.0
 40
1.0
 40
1.0
 40
2.0
 40
2.0
 40
2.0
 40
3.0
 40
3.0
 40
3.0
 40
4.0
 40
4.0
 40
4.0
 40
4.0
 10
303.0296095394477
 20
195.6269215551314
 30
0.0
 10
302.6204276595758
 20
195.2137237135166
 30
0.0
 10
302.3817010448208
 20
194.6385487482461
 30
0.0
 10
302.3924102761382
 20
194.0544494235454
 30
0.0
 10
302.403119507453
 20
193.4721349707299
 30
0.0
 10
302.661033494984
 20
192.9018684031455
 30
0.0
 10
303.0867254398
 20
192.5065192803911
 30
0.0
 10
303.5133098205588
 20
192.1102777216942
 30
0.0
 10
304.0987477991757
 20
191.8952006594289
 30
0.0
 10
304.678384944162
 20
191.9090334165458
 30
0.0
 10
305.2606993969781
 20
191.9228661736621
 30
0.0
 10
305.8300735286185
 20
192.1647163142198
 30
0.0
 10
306.2414864983467
 20
192.578806591776
 30
0.0
  0
SPLINE
  5
195
330
70
100
AcDbEntity
  8
Make2D__可见线__正切线
 62
    18
420
        0
370
    35
100
AcDbSpline
210
0.0
220
0.0
230
1.0
 70
     8
 71
     3
 72
     8
 73
     4
 74
     0
 42
0.0000000001
 43
0.0000000001
 40
0.0
 40
0.0
 40
0.0
 40
0.0
 40
1.0
 40
1.0
 40
1.0
 40
1.0
 10
294.6661460995123
 20
203.9680740964894
 30
0.0
 10
294.6121537249614
 20
203.421457081394
 30
0.0
 10
294.5608386582372
 20
202.8748400663006
 30
0.0
 10
294.5113084634008
 20
202.328223051206
 30
0.0
  0
SPLINE
  5
196
330
70
100
AcDbEntity
  8
Make2D__可见线__正切线
 62
    18
420
        0
370
    35
100
AcDbSpline
210
0.0
220
0.0
230
1.0
 70
     8
 71
     3
 72
     8
 73
     4
 74
     0
 42
0.0000000001
 43
0.0000000001
 40
0.0
 40
0.0
 40
0.0
 40
0.0
 40
1.0
 40
1.0
 40
1.0
 40
1.0
 10
293.5175810408598
 20
202.1626761837778
 30
0.0
 10
293.8299336209126
 20
202.2978802291436
 30
0.0
 10
294.1726290230297
 20
202.3532112576094
 30
0.0
 10
294.5113084634008
 20
202.328223051206
 30
0.0
  0
SPLINE
  5
197
330
70
100
AcDbEntity
  8
Make2D__可见线__正切线
 62
    18
420
        0
370
    35
100
AcDbSpline
210
0.0
220
0.0
230
1.0
 70
     8
 71
     3
 72
     8
 73
     4
 74
     0
 42
0.0000000001
 43
0.0000000001
 40
0.0
 40
0.0
 40
0.0
 40
0.0
 40
1.0
 40
1.0
 40
1.0
 40
1.0
 10
294.5113084634008
 20
202.328223051206
 30
0.0
 10
294.8495416858022
 20
202.3027886268297
 30
0.0
 10
295.1797429847186
 20
202.1974811855546
 30
0.0
 10
295.4679997943094
 20
202.0167629070945
 30
0.0
  0
SPLINE
  5
198
330
70
100
AcDbEntity
  8
Make2D__可见线__正切线
 62
    18
420
        0
370
    35
100
AcDbSpline
210
0.0
220
0.0
230
1.0
 70
     8
 71
     3
 72
     8
 73
     4
 74
     0
 42
0.0000000001
 43
0.0000000001
 40
0.0
 40
0.0
 40
0.0
 40
0.0
 40
1.0
 40
1.0
 40
1.0
 40
1.0
 10
294.2252827436656
 20
198.0235582800893
 30
0.0
 10
294.1677206253423
 20
197.9865221884548
 30
0.0
 10
294.1471945986515
 20
197.8116047436241
 30
0.0
 10
294.1436248548803
 20
197.7611821128438
 30
0.0
  0
SPLINE
  5
199
330
70
100
AcDbEntity
  8
Make2D__可见线__正切线
 62
    18
420
        0
370
    35
100
AcDbSpline
210
0.0
220
0.0
230
1.0
 70
     8
 71
     3
 72
    14
 73
    10
 74
     0
 42
0.0000000001
 43
0.0000000001
 40
0.0
 40
0.0
 40
0.0
 40
0.0
 40
1.0
 40
1.0
 40
1.0
 40
2.0
 40
2.0
 40
2.0
 40
3.0
 40
3.0
 40
3.0
 40
3.0
 10
295.4679997943094
 20
202.0167629070945
 30
0.0
 10
296.3532962497765
 20
201.4621139685142
 30
0.0
 10
296.7107168449538
 20
200.3563858351216
 30
0.0
 10
296.4144281118729
 20
199.3764911696942
 30
0.0
 10
296.2694072711349
 20
198.8981455042409
 30
0.0
 10
295.9686563583382
 20
198.4612981101364
 30
0.0
 10
295.5617055683271
 20
198.1667942489426
 30
0.0
 10
295.1569858681715
 20
197.8731828236916
 30
0.0
 10
294.6447276368827
 20
197.7214687133796
 30
0.0
 10
294.1436248548803
 20
197.7611821128438
 30
0.0
  0
SPLINE
  5
19A
330
70
100
AcDbEntity
  8
Make2D__可见线__正切线
 62
    18
420
        0
370
    35
100
AcDbSpline
210
0.0
220
0.0
230
1.0
 70
     8
 71
     3
 72
     8
 73
     4
 74
     0
 42
0.0000000001
 43
0.0000000001
 40
0.0
 40
0.0
 40
0.0
 40
0.0
 40
1.0
 40
1.0
 40
1.0
 40
1.0
 10
294.2252827436656
 20
198.0235582800893
 30
0.0
 10
294.129792097764
 20
198.0311439856045
 30
0.0
 10
294.0369787596896
 20
198.0458691786641
 30
0.0
 10
293.9437192036468
 20
198.0686262952112
 30
0.0
  0
SPLINE
  5
19B
330
70
100
AcDbEntity
  8
Make2D__可见线__正切线
 62
    18
420
        0
370
    35
100
AcDbSpline
210
0.0
220
0.0
230
1.0
 70
     8
 71
     3
 72
    14
 73
    10
 74
     0
 42
0.0000000001
 43
0.0000000001
 40
0.0
 40
0.0
 40
0.0
 40
0.0
 40
1.0
 40
1.0
 40
1.0
 40
2.0
 40
2.0
 40
2.0
 40
3.0
 40
3.0
 40
3.0
 40
3.0
 10
293.5175810408598
 20
202.1626761837778
 30
0.0
 10
293.5376608495745
 20
202.1113611170548
 30
0.0
 10
293.5608641840932
 20
202.0627233581598
 30
0.0
 10
293.5889759162993
 20
202.0158704711513
 30
0.0
 10
293.6032548913873
 20
201.9922209186609
 30
0.0
 10
293.6184263024184
 20
201.9699100200864
 30
0.0
 10
293.6362750212794
 20
201.9489377754255
 30
0.0
 10
293.6469842525943
 20
201.9359974542531
 30
0.0
 10
293.6786657285716
 20
201.8985151446464
 30
0.0
 10
293.702315281062
 20
201.9069932861037
 30
0.0
  0
SPLINE
  5
19C
330
70
100
AcDbEntity
  8
Make2D__可见线__正切线
 62
    18
420
        0
370
    35
100
AcDbSpline
210
0.0
220
0.0
230
1.0
 70
     8
 71
     3
 72
    14
 73
    10
 74
     0
 42
0.0000000001
 43
0.0000000001
 40
0.0
 40
0.0
 40
0.0
 40
0.0
 40
1.0
 40
1.0
 40
1.0
 40
2.0
 40
2.0
 40
2.0
 40
3.0
 40
3.0
 40
3.0
 40
3.0
 10
294.1436248548803
 20
197.7611821128438
 30
0.0
 10
293.6438607267954
 20
197.8004492943364
 30
0.0
 10
293.1632839714813
 20
198.029359113718
 30
0.0
 10
292.8107717739939
 20
198.3827637471512
 30
0.0
 10
292.4569209225897
 20
198.7375070344987
 30
0.0
 10
292.2311346290077
 20
199.2158526999521
 30
0.0
 10
292.1664330231381
 20
199.7098159944101
 30
0.0
 10
292.0334600676279
 20
200.7218383537839
 30
0.0
 10
292.56401323575
 20
201.7499245601346
 30
0.0
 10
293.5175810408598
 20
202.1626761837778
 30
0.0
  0
SPLINE
  5
19D
330
70
100
AcDbEntity
  8
Make2D__可见线__正切线
 62
    18
420
        0
370
    35
100
AcDbSpline
210
0.0
220
0.0
230
1.0
 70
     8
 71
     3
 72
     8
 73
     4
 74
     0
 42
0.0000000001
 43
0.0000000001
 40
0.0
 40
0.0
 40
0.0
 40
0.0
 40
1.0
 40
1.0
 40
1.0
 40
1.0
 10
303.2527185251999
 20
195.4555738540724
 30
0.0
 10
303.2089891639923
 20
195.4555738540724
 30
0.0
 10
303.0523666559948
 20
195.6046106565565
 30
0.0
 10
303.0296095394477
 20
195.6269215551314
 30
0.0
  0
SPLINE
  5
19E
330
70
100
AcDbEntity
  8
Make2D__可见线__正切线
 62
    18
420
        0
370
    35
100
AcDbSpline
210
0.0
220
0.0
230
1.0
 70
    24
 71
     3
 72
     8
 73
     4
 74
     0
 42
0.0000000001
 43
0.0000000001
 40
0.0
 40
0.0
 40
0.0
 40
0.0
 40
1.0
 40
1.0
 40
1.0
 40
1.0
 10
302.6891452271881
 20
194.2262433425746
 30
0.0
 10
303.2357622422822
 20
194.4904043817075
 30
0.0
 10
303.7823792573781
 20
194.7545654208379
 30
0.0
 10
304.3289962724722
 20
195.0187264599689
 30
0.0
  0
SPLINE
  5
19F
330
70
100
AcDbEntity
  8
Make2D__可见线__正切线
 62
    18
420
        0
370
    35
100
AcDbSpline
210
0.0
220
0.0
230
1.0
 70
     8
 71
     3
 72
     8
 73
     4
 74
     0
 42
0.0000000001
 43
0.0000000001
 40
0.0
 40
0.0
 40
0.0
 40
0.0
 40
1.0
 40
1.0
 40
1.0
 40
1.0
 10
295.4198082533866
 20
198.3439427836296
 30
0.0
 10
295.0722044535847
 20
198.1114632204756
 30
0.0
 10
294.645620072824
 20
197.990538150197
 30
0.0
 10
294.2252827436656
 20
198.0235582800893
 30
0.0
  0
LINE
  5
1A0
330
70
100
AcDbEntity
  8
Make2D__可见线__正切线
 62
    18
420
        0
370
    35
100
AcDbLine
 10
296.530891002437
 20
204.8912990795354
 30
0.0
 11
294.6661460995123
 21
203.9680740964894
 31
0.0
  0
SPLINE
  5
1A1
330
70
100
AcDbEntity
  8
Make2D__可见线__正切线
 62
    18
420
        0
370
    35
100
AcDbSpline
210
0.0
220
0.0
230
1.0
 70
     8
 71
     3
 72
    17
 73
    13
 74
     0
 42
0.0000000001
 43
0.0000000001
 40
0.0
 40
0.0
 40
0.0
 40
0.0
 40
1.0
 40
1.0
 40
1.0
 40
2.0
 40
2.0
 40
2.0
 40
3.0
 40
3.0
 40
3.0
 40
4.0
 40
4.0
 40
4.0
 40
4.0
 10
303.0296095394477
 20
195.6269215551314
 30
0.0
 10
303.439683855261
 20
196.0414580506597
 30
0.0
 10
304.0121815127049
 20
196.285985499046
 30
0.0
 10
304.5944959655191
 20
196.3002644741333
 30
0.0
 10
305.1741331105047
 20
196.3140972312502
 30
0.0
 10
305.7618021789785
 20
196.099020168985
 30
0.0
 10
306.1888327777089
 20
195.7027786102867
 30
0.0
 10
306.6167558123825
 20
195.3065370515897
 30
0.0
 10
306.8733311459986
 20
194.7367167019775
 30
0.0
 10
306.8827017233985
 20
194.1526173772762
 30
0.0
 10
306.892072300801
 20
193.5658407447457
 30
0.0
 10
306.6533456860459
 20
192.9928968693333
 30
0.0
 10
306.2414864983467
 20
192.578806591776
 30
0.0
  0
SPLINE
  5
1A2
330
70
100
AcDbEntity
  8
Make2D__可见线__正切线
 62
    18
420
        0
370
    35
100
AcDbSpline
210
0.0
220
0.0
230
1.0
 70
     8
 71
     3
 72
     8
 73
     4
 74
     0
 42
0.0000000001
 43
0.0000000001
 40
0.0
 40
0.0
 40
0.0
 40
0.0
 40
1.0
 40
1.0
 40
1.0
 40
1.0
 10
294.5188941689186
 20
181.5857806457582
 30
0.0
 10
294.4988143601995
 20
181.572840324584
 30
0.0
 10
294.4782883335086
 20
181.560346221382
 30
0.0
 10
294.4582085247938
 20
181.5474059002077
 30
0.0
  0
SPLINE
  5
1A3
330
70
100
AcDbEntity
  8
Make2D__可见线__正切线
 62
    18
420
        0
370
    35
100
AcDbSpline
210
0.0
220
0.0
230
1.0
 70
     8
 71
     3
 72
     8
 73
     4
 74
     0
 42
0.0000000001
 43
0.0000000001
 40
0.0
 40
0.0
 40
0.0
 40
0.0
 40
1.0
 40
1.0
 40
1.0
 40
1.0
 10
294.7210309100084
 20
177.4247980614653
 30
0.0
 10
294.7049670630332
 20
177.4140888301511
 30
0.0
 10
294.6884569980897
 20
177.4033795988344
 30
0.0
 10
294.6723931511152
 20
177.3926703675189
 30
0.0
  0
SPLINE
  5
1A4
330
70
100
AcDbEntity
  8
Make2D__可见线__正切线
 62
    18
420
        0
370
    35
100
AcDbSpline
210
0.0
220
0.0
230
1.0
 70
     8
 71
     3
 72
    20
 73
    16
 74
     0
 42
0.0000000001
 43
0.0000000001
 40
0.0
 40
0.0
 40
0.0
 40
0.0
 40
1.0
 40
1.0
 40
1.0
 40
2.0
 40
2.0
 40
2.0
 40
3.0
 40
3.0
 40
3.0
 40
4.0
 40
4.0
 40
4.0
 40
5.0
 40
5.0
 40
5.0
 40
5.0
 10
286.9206945501156
 20
205.3321624353824
 30
0.0
 10
286.5851386355434
 20
205.3562582058441
 30
0.0
 10
286.2522600288017
 20
205.3901707716786
 30
0.0
 10
285.9202738579993
 20
205.4446093642015
 30
0.0
 10
285.7542807726014
 20
205.471828660465
 30
0.0
 10
285.5896263411139
 20
205.5035101364397
 30
0.0
 10
285.4272029994865
 20
205.5481319335913
 30
0.0
 10
285.3459913286727
 20
205.5704428321661
 30
0.0
 10
285.2665645297437
 20
205.5949848205985
 30
0.0
 10
285.1889226027012
 20
205.6288973864346
 30
0.0
 10
285.140284843808
 20
205.6503158490668
 30
0.0
 10
285.0938781747705
 20
205.6730729656139
 30
0.0
 10
285.053272339365
 20
205.709662839276
 30
0.0
 10
285.0287303509313
 20
205.7319737378522
 30
0.0
 10
285.0095429781573
 20
205.7511611106262
 30
0.0
 10
285.0104354141006
 20
205.7886434202329
 30
0.0
  0
SPLINE
  5
1A5
330
70
100
AcDbEntity
  8
Make2D__可见线__正切线
 62
    18
420
        0
370
    35
100
AcDbSpline
210
0.0
220
0.0
230
1.0
 70
     8
 71
     3
 72
     8
 73
     4
 74
     0
 42
0.0000000001
 43
0.0000000001
 40
0.0
 40
0.0
 40
0.0
 40
0.0
 40
1.0
 40
1.0
 40
1.0
 40
1.0
 10
286.7841518508362
 20
200.0471567808689
 30
0.0
 10
286.3584599060181
 20
200.0801769107592
 30
0.0
 10
285.806488275267
 20
200.1439860806842
 30
0.0
 10
285.3901669078495
 20
200.2510783938468
 30
0.0
  0
SPLINE
  5
1A6
330
70
100
AcDbEntity
  8
Make2D__可见线__正切线
 62
    18
420
        0
370
    35
100
AcDbSpline
210
0.0
220
0.0
230
1.0
 70
     8
 71
     3
 72
    20
 73
    16
 74
     0
 42
0.0000000001
 43
0.0000000001
 40
0.0
 40
0.0
 40
0.0
 40
0.0
 40
1.0
 40
1.0
 40
1.0
 40
2.0
 40
2.0
 40
2.0
 40
3.0
 40
3.0
 40
3.0
 40
4.0
 40
4.0
 40
4.0
 40
5.0
 40
5.0
 40
5.0
 40
5.0
 10
290.5587096718037
 20
205.6699494398118
 30
0.0
 10
290.5569247999171
 20
205.6146184113461
 30
0.0
 10
290.4935618479644
 20
205.576689883769
 30
0.0
 10
290.4551871024126
 20
205.5561638570789
 30
0.0
 10
290.3637124182557
 20
205.5066336622411
 30
0.0
 10
290.2673293364088
 20
205.4807530198932
 30
0.0
 10
290.1678227287644
 20
205.4566572494341
 30
0.0
 10
290.0165548364234
 20
205.4196211577974
 30
0.0
 10
289.8639482901682
 20
205.3950791693657
 30
0.0
 10
289.71000309
 20
205.3749993606471
 30
0.0
 10
289.4012202537151
 20
205.3348397432119
 30
0.0
 10
289.0924374174361
 20
205.3134212805804
 30
0.0
 10
288.7818697092667
 20
205.300927177377
 30
0.0
 10
288.1598418569883
 20
205.2763851889447
 30
0.0
 10
287.5413837484804
 20
205.2870944202601
 30
0.0
 10
286.9206945501156
 20
205.3321624353824
 30
0.0
  0
SPLINE
  5
1A7
330
70
100
AcDbEntity
  8
Make2D__可见线__正切线
 62
    18
420
        0
370
    35
100
AcDbSpline
210
0.0
220
0.0
230
1.0
 70
     8
 71
     3
 72
    26
 73
    22
 74
     0
 42
0.0000000001
 43
0.0000000001
 40
0.0
 40
0.0
 40
0.0
 40
0.0
 40
1.0
 40
1.0
 40
1.0
 40
2.0
 40
2.0
 40
2.0
 40
3.0
 40
3.0
 40
3.0
 40
4.0
 40
4.0
 40
4.0
 40
5.0
 40
5.0
 40
5.0
 40
6.0
 40
6.0
 40
6.0
 40
7.0
 40
7.0
 40
7.0
 40
7.0
 10
288.4967364254747
 20
200.8949709267287
 30
0.0
 10
288.9291216398628
 20
200.8623970148094
 30
0.0
 10
289.4980495535336
 20
200.7968029729972
 30
0.0
 10
289.9201717545773
 20
200.6861409160644
 30
0.0
 10
290.0143237465652
 20
200.6611527096597
 30
0.0
 10
290.1071370846397
 20
200.6334871954265
 30
0.0
 10
290.1977193328552
 20
200.5951124498772
 30
0.0
 10
290.2570663230656
 20
200.5701242434732
 30
0.0
 10
290.3137360054476
 20
200.5433511651827
 30
0.0
 10
290.3628199823124
 20
200.498729368033
 30
0.0
 10
290.4413543452956
 20
200.4277807105625
 30
0.0
 10
290.4257367162954
 20
200.3648639765817
 30
0.0
 10
290.3436326095365
 20
200.3064094223116
 30
0.0
 10
290.2642058106093
 20
200.2492935219599
 30
0.0
 10
290.1767470881933
 20
200.2234128796126
 30
0.0
 10
290.0857186220081
 20
200.1970860192944
 30
0.0
 10
289.9447137430122
 20
200.1564801838862
 30
0.0
 10
289.8019239921286
 20
200.1292608876253
 30
0.0
 10
289.6573493693621
 20
200.1069499890498
 30
0.0
 10
288.8108738774141
 20
199.9744232515125
 30
0.0
 10
287.6310735607533
 20
199.9820089570284
 30
0.0
 10
286.7841518508362
 20
200.0471567808689
 30
0.0
  0
LINE
  5
1A8
330
70
100
AcDbEntity
  8
Make2D__可见线__正切线
 62
    18
420
        0
370
    35
100
AcDbLine
 10
285.1126193295749
 20
207.4927498534148
 30
0.0
 11
285.9720351426958
 21
207.4320642092894
 31
0.0
  0
LINE
  5
1A9
330
70
100
AcDbEntity
  8
Make2D__可见线__正切线
 62
    18
420
        0
370
    35
100
AcDbLine
 10
287.062591865056
 20
210.8514325249377
 30
0.0
 11
287.0942733410308
 21
212.0669302793199
 31
0.0
  0
LINE
  5
1AA
330
70
100
AcDbEntity
  8
Make2D__可见线__正切线
 62
    18
420
        0
370
    35
100
AcDbLine
 10
288.7818697092667
 20
263.9687736350177
 30
0.0
 11
288.8345234299045
 21
263.975020686618
 31
0.0
  0
LINE
  5
1AB
330
70
100
AcDbEntity
  8
Make2D__可见线__正切线
 62
    18
420
        0
370
    35
100
AcDbLine
 10
288.8345234299045
 20
263.975020686618
 30
0.0
 11
288.849248622964
 21
264.5394864205741
 31
0.0
  0
LINE
  5
1AC
330
70
100
AcDbEntity
  8
Make2D__可见线__正切线
 62
    18
420
        0
370
    35
100
AcDbLine
 10
288.7970411202985
 20
264.5403788565164
 30
0.0
 11
288.9157351007181
 21
269.1216987699668
 31
0.0
  0
SPLINE
  5
1AD
330
70
100
AcDbEntity
  8
Make2D__可见线__正切线
 62
    18
420
        0
370
    35
100
AcDbSpline
210
0.0
220
0.0
230
1.0
 70
     8
 71
     3
 72
    14
 73
    10
 74
     0
 42
0.0000000001
 43
0.0000000001
 40
0.0
 40
0.0
 40
0.0
 40
0.0
 40
1.0
 40
1.0
 40
1.0
 40
2.0
 40
2.0
 40
2.0
 40
3.0
 40
3.0
 40
3.0
 40
3.0
 10
288.9157351007181
 20
269.1216987699668
 30
0.0
 10
288.9242132421774
 20
269.4460992352519
 30
0.0
 10
288.9567871540961
 20
269.7629139950211
 30
0.0
 10
289.0281820295395
 20
270.0806211907323
 30
0.0
 10
289.0638794672596
 20
270.2385823526455
 30
0.0
 10
289.107162610495
 20
270.3920813348434
 30
0.0
 10
289.1727566523059
 20
270.5411181373271
 30
0.0
 10
289.2191633213408
 20
270.6473180145439
 30
0.0
 10
289.3307178142188
 20
270.8722118721837
 30
0.0
 10
289.4851092323612
 20
270.883813539443
 30
0.0
  0
SPLINE
  5
1AE
330
70
100
AcDbEntity
  8
Make2D__可见线__正切线
 62
    18
420
        0
370
    35
100
AcDbSpline
210
0.0
220
0.0
230
1.0
 70
     8
 71
     3
 72
    26
 73
    22
 74
     0
 42
0.0000000001
 43
0.0000000001
 40
0.0
 40
0.0
 40
0.0
 40
0.0
 40
1.0
 40
1.0
 40
1.0
 40
2.0
 40
2.0
 40
2.0
 40
3.0
 40
3.0
 40
3.0
 40
4.0
 40
4.0
 40
4.0
 40
5.0
 40
5.0
 40
5.0
 40
6.0
 40
6.0
 40
6.0
 40
7.0
 40
7.0
 40
7.0
 40
7.0
 10
289.9612238079558
 20
269.211834800212
 30
0.0
 10
290.2468033097219
 20
269.2082650564389
 30
0.0
 10
290.5319365935138
 20
269.2029104407802
 30
0.0
 10
290.8175160952779
 20
269.1908625555498
 30
0.0
 10
290.8848950089747
 20
269.1877390297509
 30
0.0
 10
290.9522739226702
 20
269.1846155039488
 30
0.0
 10
291.0192066183979
 20
269.1797071062637
 30
0.0
 10
291.0557964920607
 20
269.1765835804616
 30
0.0
 10
291.0923863657247
 20
269.1747987085763
 30
0.0
 10
291.1285300214164
 20
269.167659221031
 30
0.0
 10
291.138793034759
 20
269.1654281311738
 30
0.0
 10
291.1570879715917
 20
269.1605197334877
 30
0.0
 10
291.1414703425908
 20
269.155611335801
 30
0.0
 10
291.1133586103846
 20
269.1462407583992
 30
0.0
 10
291.0848006602088
 20
269.1466869763708
 30
0.0
 10
291.056242710033
 20
269.1440096685422
 30
0.0
 10
290.9138991771222
 20
269.1328542192545
 30
0.0
 10
290.7711094262385
 20
269.1297306934544
 30
0.0
 10
290.6287658933303
 20
269.1266071676535
 30
0.0
 10
290.0576068898006
 20
269.1123281925656
 30
0.0
 10
289.4868941042459
 20
269.1141130644512
 30
0.0
 10
288.9157351007181
 20
269.1216987699668
 30
0.0
  0
SPLINE
  5
1AF
330
70
100
AcDbEntity
  8
Make2D__可见线__正切线
 62
    18
420
        0
370
    35
100
AcDbSpline
210
0.0
220
0.0
230
1.0
 70
     8
 71
     3
 72
     8
 73
     4
 74
     0
 42
0.0000000001
 43
0.0000000001
 40
0.0
 40
0.0
 40
0.0
 40
0.0
 40
1.0
 40
1.0
 40
1.0
 40
1.0
 10
289.4989419894769
 20
270.8842597574143
 30
0.0
 10
289.4940335917914
 20
270.8842597574143
 30
0.0
 10
289.4895714120757
 20
270.8842597574143
 30
0.0
 10
289.4851092323612
 20
270.883813539443
 30
0.0
  0
SPLINE
  5
1B0
330
70
100
AcDbEntity
  8
Make2D__可见线__正切线
 62
    18
420
        0
370
    35
100
AcDbSpline
210
0.0
220
0.0
230
1.0
 70
     8
 71
     3
 72
    20
 73
    16
 74
     0
 42
0.0000000001
 43
0.0000000001
 40
0.0
 40
0.0
 40
0.0
 40
0.0
 40
1.0
 40
1.0
 40
1.0
 40
2.0
 40
2.0
 40
2.0
 40
3.0
 40
3.0
 40
3.0
 40
4.0
 40
4.0
 40
4.0
 40
5.0
 40
5.0
 40
5.0
 40
5.0
 10
288.7818697092667
 20
263.9687736350177
 30
0.0
 10
288.6832555375642
 20
260.2142956227674
 30
0.0
 10
288.5409120046534
 20
254.74187842022
 30
0.0
 10
288.3891978943414
 20
250.9887390618847
 30
0.0
 10
288.3468071870487
 20
249.9468200984196
 30
0.0
 10
288.2995080820692
 20
248.9044549169809
 30
0.0
 10
288.2468543614333
 20
247.8629821714881
 30
0.0
 10
288.1901846790506
 20
246.7456523708373
 30
0.0
 10
288.1290528169549
 20
245.6283225701866
 30
0.0
 10
288.0732755705149
 20
244.5109927695352
 30
0.0
 10
287.9657370393815
 20
242.3490666975895
 30
0.0
 10
287.8773858810242
 20
240.1862481897005
 30
0.0
 10
287.8033136977542
 20
238.0225372458696
 30
0.0
 10
287.6150097137788
 20
232.5282553627189
 30
0.0
 10
287.2361706559712
 20
217.5621045984129
 30
0.0
 10
287.0942733410308
 20
212.0669302793199
 30
0.0
  0
SPLINE
  5
1B1
330
70
100
AcDbEntity
  8
Make2D__可见线__正切线
 62
    18
420
        0
370
    35
100
AcDbSpline
210
0.0
220
0.0
230
1.0
 70
     8
 71
     3
 72
     8
 73
     4
 74
     0
 42
0.0000000001
 43
0.0000000001
 40
0.0
 40
0.0
 40
0.0
 40
0.0
 40
1.0
 40
1.0
 40
1.0
 40
1.0
 10
286.9206945501156
 20
205.3321624353824
 30
0.0
 10
286.9215869860589
 20
205.3669674371602
 30
0.0
 10
286.9309575634601
 20
205.4990479567252
 30
0.0
 10
286.9764717965543
 20
205.5200202013858
 30
0.0
  0
LINE
  5
1B2
330
70
100
AcDbEntity
  8
Make2D__可见线__正切线
 62
    18
420
        0
370
    35
100
AcDbLine
 10
286.1121475857478
 20
208.7872281887525
 30
0.0
 11
288.7600050286634
 21
208.6042788204342
 31
0.0
  0
SPLINE
  5
1B3
330
70
100
AcDbEntity
  8
Make2D__可见线__正切线
 62
    18
420
        0
370
    35
100
AcDbSpline
210
0.0
220
0.0
230
1.0
 70
     8
 71
     3
 72
     8
 73
     4
 74
     0
 42
0.0000000001
 43
0.0000000001
 40
0.0
 40
0.0
 40
0.0
 40
0.0
 40
1.0
 40
1.0
 40
1.0
 40
1.0
 10
289.6957241149095
 20
207.1696880420433
 30
0.0
 10
289.4070210873445
 20
207.1897678507615
 30
0.0
 10
289.1187642777556
 20
207.2102938774508
 30
0.0
 10
288.83006125019
 20
207.2303736861687
 30
0.0
  0
LINE
  5
1B4
330
70
100
AcDbEntity
  8
Make2D__可见线__正切线
 62
    18
420
        0
370
    35
100
AcDbLine
 10
268.3709672566489
 20
180.1275403148776
 30
0.0
 11
268.1590137201838
 21
180.0101849883721
 31
0.0
  0
LINE
  5
1B5
330
70
100
AcDbEntity
  8
Make2D__可见线__正切线
 62
    18
420
        0
370
    35
100
AcDbLine
 10
268.061291984422
 20
168.9622742318583
 30
0.0
 11
268.1670456436707
 21
169.0265296197556
 31
0.0
  0
LINE
  5
1B6
330
70
100
AcDbEntity
  8
Make2D__可见线__正切线
 62
    18
420
        0
370
    35
100
AcDbLine
 10
268.061291984422
 20
168.9622742318583
 30
0.0
 11
267.9394744782022
 21
168.0127223884946
 31
0.0
  0
LINE
  5
1B7
330
70
100
AcDbEntity
  8
Make2D__可见线__正切线
 62
    18
420
        0
370
    35
100
AcDbLine
 10
268.1451809630669
 20
179.2663396298706
 30
0.0
 11
268.2348707753398
 21
178.4332506770685
 31
0.0
  0
LINE
  5
1B8
330
70
100
AcDbEntity
  8
Make2D__可见线__正切线
 62
    18
420
        0
370
    35
100
AcDbLine
 10
290.3021343381876
 20
208.3659984236508
 30
0.0
 11
290.3534494049106
 21
208.3624286798784
 31
0.0
  0
SPLINE
  5
1B9
330
70
100
AcDbEntity
  8
Make2D__可见线__正切线
 62
    18
420
        0
370
    35
100
AcDbSpline
210
0.0
220
0.0
230
1.0
 70
     8
 71
     3
 72
     8
 73
     4
 74
     0
 42
0.0000000001
 43
0.0000000001
 40
0.0
 40
0.0
 40
0.0
 40
0.0
 40
1.0
 40
1.0
 40
1.0
 40
1.0
 10
294.1436248548803
 20
197.7611821128438
 30
0.0
 10
294.0833854287271
 20
196.9048898255243
 30
0.0
 10
294.0285006182317
 20
196.048597538205
 30
0.0
 10
293.9780779874539
 20
195.1918590329128
 30
0.0
  0
SPLINE
  5
1BA
330
70
100
AcDbEntity
  8
Make2D__可见线__正切线
 62
    18
420
        0
370
    35
100
AcDbSpline
210
0.0
220
0.0
230
1.0
 70
     8
 71
     3
 72
    14
 73
    10
 74
     0
 42
0.0000000001
 43
0.0000000001
 40
0.0
 40
0.0
 40
0.0
 40
0.0
 40
1.0
 40
1.0
 40
1.0
 40
2.0
 40
2.0
 40
2.0
 40
3.0
 40
3.0
 40
3.0
 40
3.0
 10
305.9800027670427
 20
192.7059787136542
 30
0.0
 10
305.6935308293371
 20
192.4538655597533
 30
0.0
 10
305.3258472208153
 20
192.2789481149232
 30
0.0
 10
304.9474543809794
 20
192.2227246505129
 30
0.0
 10
304.5632607075128
 20
192.1656087501619
 30
0.0
 10
304.173712418389
 20
192.2111229832541
 30
0.0
 10
303.817184259155
 20
192.3717614529957
 30
0.0
 10
303.093418709372
 20
192.6988392261106
 30
0.0
 10
302.6338141987204
 20
193.4252820837208
 30
0.0
 10
302.6891452271881
 20
194.2262433425746
 30
0.0
  0
LINE
  5
1BB
330
70
100
AcDbEntity
  8
Make2D__可见线__正切线
 62
    18
420
        0
370
    35
100
AcDbLine
 10
286.7729964015471
 20
199.6165564383654
 30
0.0
 11
286.7841518508362
 21
200.0471567808689
 31
0.0
  0
LINE
  5
1BC
330
70
100
AcDbEntity
  8
Make2D__可见线__正切线
 62
    18
420
        0
370
    35
100
AcDbLine
 10
292.8852901752356
 20
194.319949116591
 30
0.0
 11
294.192708831747
 21
195.1708867882522
 31
0.0
  0
SPLINE
  5
1BD
330
70
100
AcDbEntity
  8
Make2D__可见线__正切线
 62
    18
420
        0
370
    35
100
AcDbSpline
210
0.0
220
0.0
230
1.0
 70
     8
 71
     3
 72
    11
 73
     7
 74
     0
 42
0.0000000001
 43
0.0000000001
 40
0.0
 40
0.0
 40
0.0
 40
0.0
 40
1.0
 40
1.0
 40
1.0
 40
2.0
 40
2.0
 40
2.0
 40
2.0
 10
297.1872776385206
 20
179.7063105497765
 30
0.0
 10
297.0663525682446
 20
179.1864666129711
 30
0.0
 10
296.564357350299
 20
178.7036587678021
 30
0.0
 10
296.1975661777217
 20
178.3926448416642
 30
0.0
 10
295.7700893610197
 20
178.0307620667717
 30
0.0
 10
295.3113772863114
 20
177.7188557046899
 30
0.0
 10
294.8446332881168
 20
177.4127501762355
 30
0.0
  0
LINE
  5
1BE
330
70
100
AcDbEntity
  8
Make2D__可见线__正切线
 62
    18
420
        0
370
    35
100
AcDbLine
 10
286.9206945501156
 20
205.3321624353824
 30
0.0
 11
286.7841518508362
 21
200.0471567808689
 31
0.0
  0
SPLINE
  5
1BF
330
70
100
AcDbEntity
  8
Make2D__可见线__正切线
 62
    18
420
        0
370
    35
100
AcDbSpline
210
0.0
220
0.0
230
1.0
 70
     8
 71
     3
 72
    20
 73
    16
 74
     0
 42
0.0000000001
 43
0.0000000001
 40
0.0
 40
0.0
 40
0.0
 40
0.0
 40
1.0
 40
1.0
 40
1.0
 40
2.0
 40
2.0
 40
2.0
 40
3.0
 40
3.0
 40
3.0
 40
4.0
 40
4.0
 40
4.0
 40
5.0
 40
5.0
 40
5.0
 40
5.0
 10
286.9764717965543
 20
205.5200202013858
 30
0.0
 10
286.6217285092068
 20
205.5459008437344
 30
0.0
 10
286.2692163117175
 20
205.5820444994261
 30
0.0
 10
285.9184889861128
 20
205.6458536693524
 30
0.0
 10
285.7431253233124
 20
205.6779813632991
 30
0.0
 10
285.5704389683399
 20
205.7136788010202
 30
0.0
 10
285.4022147930837
 20
205.7770417529741
 30
0.0
 10
285.350007290415
 20
205.7966753437204
 30
0.0
 10
285.3000308776075
 20
205.8180938063526
 30
0.0
 10
285.2531779905991
 20
205.8493290643583
 30
0.0
 10
285.2246200404206
 20
205.8685164371329
 30
0.0
 10
285.1991856160456
 20
205.8863651559933
 30
0.0
 10
285.185799076901
 20
205.9216163757425
 30
0.0
 10
285.1509940751228
 20
206.0090750981565
 30
0.0
 10
285.30360062138
 20
206.0710993961962
 30
0.0
 10
285.3589316498451
 20
206.0925178588284
 30
0.0
  0
SPLINE
  5
1C0
330
70
100
AcDbEntity
  8
Make2D__可见线__正切线
 62
    18
420
        0
370
    35
100
AcDbSpline
210
0.0
220
0.0
230
1.0
 70
     8
 71
     3
 72
     8
 73
     4
 74
     0
 42
0.0000000001
 43
0.0000000001
 40
0.0
 40
0.0
 40
0.0
 40
0.0
 40
1.0
 40
1.0
 40
1.0
 40
1.0
 10
280.3911869730703
 20
176.1646785099347
 30
0.0
 10
280.8200024436891
 20
176.2735556949803
 30
0.0
 10
281.248371696335
 20
176.3851101878584
 30
0.0
 10
281.6762947310087
 20
176.4997882065359
 30
0.0
  0
SPLINE
  5
1C1
330
70
100
AcDbEntity
  8
Make2D__可见线__正切线
 62
    18
420
        0
370
    35
100
AcDbSpline
210
0.0
220
0.0
230
1.0
 70
     8
 71
     3
 72
     8
 73
     4
 74
     0
 42
0.0000000001
 43
0.0000000001
 40
0.0
 40
0.0
 40
0.0
 40
0.0
 40
1.0
 40
1.0
 40
1.0
 40
1.0
 10
267.3959809889076
 20
190.4735502022122
 30
0.0
 10
267.3977658607942
 20
190.5641324504265
 30
0.0
 10
267.4173994515399
 20
190.7131692529092
 30
0.0
 10
267.4727304800069
 20
190.7934884877803
 30
0.0
  0
SPLINE
  5
1C2
330
70
100
AcDbEntity
  8
Make2D__可见线__正切线
 62
    18
420
        0
370
    35
100
AcDbSpline
210
0.0
220
0.0
230
1.0
 70
     8
 71
     3
 72
     8
 73
     4
 74
     0
 42
0.0000000001
 43
0.0000000001
 40
0.0
 40
0.0
 40
0.0
 40
0.0
 40
1.0
 40
1.0
 40
1.0
 40
1.0
 10
280.2412577346467
 20
177.1570672785627
 30
0.0
 10
280.2470585682761
 20
176.8166029663035
 30
0.0
 10
280.282309788024
 20
176.4913100650761
 30
0.0
 10
280.3911869730703
 20
176.1646785099347
 30
0.0
  0
SPLINE
  5
1C3
330
70
100
AcDbEntity
  8
Make2D__可见线__正切线
 62
    18
420
        0
370
    35
100
AcDbSpline
210
0.0
220
0.0
230
1.0
 70
     8
 71
     3
 72
     8
 73
     4
 74
     0
 42
0.0000000001
 43
0.0000000001
 40
0.0
 40
0.0
 40
0.0
 40
0.0
 40
1.0
 40
1.0
 40
1.0
 40
1.0
 10
279.8918690629544
 20
177.1298479823025
 30
0.0
 10
279.9913756706008
 20
177.1244933666428
 30
0.0
 10
280.1435359988844
 20
177.1294017643309
 30
0.0
 10
280.2412577346467
 20
177.1570672785627
 30
0.0
  0
SPLINE
  5
1C4
330
70
100
AcDbEntity
  8
Make2D__可见线__正切线
 62
    18
420
        0
370
    35
100
AcDbSpline
210
0.0
220
0.0
230
1.0
 70
     8
 71
     3
 72
     8
 73
     4
 74
     0
 42
0.0000000001
 43
0.0000000001
 40
0.0
 40
0.0
 40
0.0
 40
0.0
 40
1.0
 40
1.0
 40
1.0
 40
1.0
 10
279.4068301279291
 20
176.1338894699
 30
0.0
 10
279.4139696154734
 20
176.0571399788008
 30
0.0
 10
279.4224477569339
 20
175.9808367056738
 30
0.0
 10
279.4336032062203
 20
175.9049796505185
 30
0.0
  0
SPLINE
  5
1C5
330
70
100
AcDbEntity
  8
Make2D__可见线__正切线
 62
    18
420
        0
370
    35
100
AcDbSpline
210
0.0
220
0.0
230
1.0
 70
     8
 71
     3
 72
     8
 73
     4
 74
     0
 42
0.0000000001
 43
0.0000000001
 40
0.0
 40
0.0
 40
0.0
 40
0.0
 40
1.0
 40
1.0
 40
1.0
 40
1.0
 10
280.1265797159692
 20
175.8353696469628
 30
0.0
 10
280.0993604197083
 20
175.8965015090586
 30
0.0
 10
280.0752646492463
 20
175.9589720250693
 30
0.0
 10
280.0542924045838
 20
176.0223349770239
 30
0.0
  0
SPLINE
  5
1C6
330
70
100
AcDbEntity
  8
Make2D__可见线__正切线
 62
    18
420
        0
370
    35
100
AcDbSpline
210
0.0
220
0.0
230
1.0
 70
     8
 71
     3
 72
     8
 73
     4
 74
     0
 42
0.0000000001
 43
0.0000000001
 40
0.0
 40
0.0
 40
0.0
 40
0.0
 40
1.0
 40
1.0
 40
1.0
 40
1.0
 10
279.8918690629544
 20
177.1298479823025
 30
0.0
 10
279.8972236786141
 20
176.7684114253823
 30
0.0
 10
279.941845475765
 20
176.3699387768272
 30
0.0
 10
280.0542924045838
 20
176.0223349770239
 30
0.0
  0
LINE
  5
1C7
330
70
100
AcDbEntity
  8
Make2D__可见线__正切线
 62
    18
420
        0
370
    35
100
AcDbLine
 10
279.5228468005216
 20
175.2352064752877
 30
0.0
 11
279.4336032062203
 21
175.9049796505185
 31
0.0
  0
LINE
  5
1C8
330
70
100
AcDbEntity
  8
Make2D__可见线__正切线
 62
    18
420
        0
370
    35
100
AcDbLine
 10
279.6745609108335
 20
174.4967157324458
 30
0.0
 11
279.5228468005216
 21
175.2352064752877
 31
0.0
  0
SPLINE
  5
1C9
330
70
100
AcDbEntity
  8
Make2D__可见线__正切线
 62
    18
420
        0
370
    35
100
AcDbSpline
210
0.0
220
0.0
230
1.0
 70
     8
 71
     3
 72
     8
 73
     4
 74
     0
 42
0.0000000001
 43
0.0000000001
 40
0.0
 40
0.0
 40
0.0
 40
0.0
 40
1.0
 40
1.0
 40
1.0
 40
1.0
 10
280.4585658867683
 20
176.0027013862776
 30
0.0
 10
280.6897067960094
 20
175.5163237973355
 30
0.0
 10
280.9266485388798
 20
175.0330697341954
 30
0.0
 10
281.1658213716071
 20
174.5507081069979
 30
0.0
  0
SPLINE
  5
1CA
330
70
100
AcDbEntity
  8
Make2D__可见线__正切线
 62
    18
420
        0
370
    35
100
AcDbSpline
210
0.0
220
0.0
230
1.0
 70
     8
 71
     3
 72
     8
 73
     4
 74
     0
 42
0.0000000001
 43
0.0000000001
 40
0.0
 40
0.0
 40
0.0
 40
0.0
 40
1.0
 40
1.0
 40
1.0
 40
1.0
 10
280.8356200726907
 20
174.3789141879674
 30
0.0
 10
280.5960010219917
 20
174.8626144690804
 30
0.0
 10
280.3581668431806
 20
175.3476534041083
 30
0.0
 10
280.1265797159692
 20
175.8353696469628
 30
0.0
  0
SPLINE
  5
1CB
330
70
100
AcDbEntity
  8
Make2D__可见线__正切线
 62
    18
420
        0
370
    35
100
AcDbSpline
210
0.0
220
0.0
230
1.0
 70
     8
 71
     3
 72
     8
 73
     4
 74
     0
 42
0.0000000001
 43
0.0000000001
 40
0.0
 40
0.0
 40
0.0
 40
0.0
 40
1.0
 40
1.0
 40
1.0
 40
1.0
 10
280.4585658867683
 20
176.0027013862776
 30
0.0
 10
280.3844937035002
 20
175.9045334325462
 30
0.0
 10
280.2479510042175
 20
175.838939390735
 30
0.0
 10
280.1265797159692
 20
175.8353696469628
 30
0.0
  0
SPLINE
  5
1CC
330
70
100
AcDbEntity
  8
Make2D__可见线__正切线
 62
    18
420
        0
370
    35
100
AcDbSpline
210
0.0
220
0.0
230
1.0
 70
     8
 71
     3
 72
     8
 73
     4
 74
     0
 42
0.0000000001
 43
0.0000000001
 40
0.0
 40
0.0
 40
0.0
 40
0.0
 40
1.0
 40
1.0
 40
1.0
 40
1.0
 10
280.3911869730703
 20
176.1646785099347
 30
0.0
 10
280.4108205638184
 20
176.1093474814689
 30
0.0
 10
280.4335776803649
 20
176.0558013248878
 30
0.0
 10
280.4585658867683
 20
176.0027013862776
 30
0.0
  0
SPLINE
  5
1CD
330
70
100
AcDbEntity
  8
Make2D__可见线__正切线
 62
    18
420
        0
370
    35
100
AcDbSpline
210
0.0
220
0.0
230
1.0
 70
     8
 71
     3
 72
     8
 73
     4
 74
     0
 42
0.0000000001
 43
0.0000000001
 40
0.0
 40
0.0
 40
0.0
 40
0.0
 40
1.0
 40
1.0
 40
1.0
 40
1.0
 10
280.0542924045838
 20
176.0223349770239
 30
0.0
 10
280.1595998458595
 20
176.0236736309395
 30
0.0
 10
280.3184534437157
 20
176.084805493034
 30
0.0
 10
280.3911869730703
 20
176.1646785099347
 30
0.0
  0
SPLINE
  5
1CE
330
70
100
AcDbEntity
  8
Make2D__可见线__正切线
 62
    18
420
        0
370
    35
100
AcDbSpline
210
0.0
220
0.0
230
1.0
 70
     8
 71
     3
 72
     8
 73
     4
 74
     0
 42
0.0000000001
 43
0.0000000001
 40
0.0
 40
0.0
 40
0.0
 40
0.0
 40
1.0
 40
1.0
 40
1.0
 40
1.0
 10
281.1658213716071
 20
174.5507081069979
 30
0.0
 10
281.5348436340425
 20
173.7854442858642
 30
0.0
 10
281.6722787692665
 20
173.0219653366196
 30
0.0
 10
281.6986056295842
 20
172.1853066400457
 30
0.0
  0
SPLINE
  5
1CF
330
70
100
AcDbEntity
  8
Make2D__可见线__正切线
 62
    18
420
        0
370
    35
100
AcDbSpline
210
0.0
220
0.0
230
1.0
 70
     8
 71
     3
 72
     8
 73
     4
 74
     0
 42
0.0000000001
 43
0.0000000001
 40
0.0
 40
0.0
 40
0.0
 40
0.0
 40
1.0
 40
1.0
 40
1.0
 40
1.0
 10
280.8356200726907
 20
174.3789141879674
 30
0.0
 10
280.9569913609409
 20
174.3838225856548
 30
0.0
 10
281.0926416242784
 20
174.4516477173242
 30
0.0
 10
281.1658213716071
 20
174.5507081069979
 30
0.0
  0
SPLINE
  5
1D0
330
70
100
AcDbEntity
  8
Make2D__可见线__正切线
 62
    18
420
        0
370
    35
100
AcDbSpline
210
0.0
220
0.0
230
1.0
 70
     8
 71
     3
 72
     8
 73
     4
 74
     0
 42
0.0000000001
 43
0.0000000001
 40
0.0
 40
0.0
 40
0.0
 40
0.0
 40
1.0
 40
1.0
 40
1.0
 40
1.0
 10
280.8356200726907
 20
174.3789141879674
 30
0.0
 10
281.1832238724939
 20
173.6962006915643
 30
0.0
 10
281.3340455468632
 20
172.9028251382257
 30
0.0
 10
281.3541253555824
 20
172.1496092023262
 30
0.0
  0
SPLINE
  5
1D1
330
70
100
AcDbEntity
  8
Make2D__可见线__正切线
 62
    18
420
        0
370
    35
100
AcDbSpline
210
0.0
220
0.0
230
1.0
 70
     8
 71
     3
 72
     8
 73
     4
 74
     0
 42
0.0000000001
 43
0.0000000001
 40
0.0
 40
0.0
 40
0.0
 40
0.0
 40
1.0
 40
1.0
 40
1.0
 40
1.0
 10
281.3536791376101
 20
171.8033440564373
 30
0.0
 10
281.4514008733699
 20
171.7930810430915
 30
0.0
 10
281.601330111796
 20
171.7917423891766
 30
0.0
 10
281.6990518475559
 20
171.8176230315246
 30
0.0
  0
SPLINE
  5
1D2
330
70
100
AcDbEntity
  8
Make2D__可见线__正切线
 62
    18
420
        0
370
    35
100
AcDbSpline
210
0.0
220
0.0
230
1.0
 70
     8
 71
     3
 72
     8
 73
     4
 74
     0
 42
0.0000000001
 43
0.0000000001
 40
0.0
 40
0.0
 40
0.0
 40
0.0
 40
1.0
 40
1.0
 40
1.0
 40
1.0
 10
281.6986056295842
 20
172.1848604220741
 30
0.0
 10
281.7017291553837
 20
172.0625966978806
 30
0.0
 10
281.7021753733554
 20
171.9403329736884
 30
0.0
 10
281.6990518475559
 20
171.8176230315246
 30
0.0
  0
SPLINE
  5
1D3
330
70
100
AcDbEntity
  8
Make2D__可见线__正切线
 62
    18
420
        0
370
    35
100
AcDbSpline
210
0.0
220
0.0
230
1.0
 70
     8
 71
     3
 72
     8
 73
     4
 74
     0
 42
0.0000000001
 43
0.0000000001
 40
0.0
 40
0.0
 40
0.0
 40
0.0
 40
1.0
 40
1.0
 40
1.0
 40
1.0
 10
281.3541253555824
 20
172.1496092023262
 30
0.0
 10
281.444707603796
 20
172.1424697147813
 30
0.0
 10
281.6111469071675
 20
172.1513940742115
 30
0.0
 10
281.6986056295842
 20
172.1853066400457
 30
0.0
  0
SPLINE
  5
1D4
330
70
100
AcDbEntity
  8
Make2D__可见线__正切线
 62
    18
420
        0
370
    35
100
AcDbSpline
210
0.0
220
0.0
230
1.0
 70
     8
 71
     3
 72
     8
 73
     4
 74
     0
 42
0.0000000001
 43
0.0000000001
 40
0.0
 40
0.0
 40
0.0
 40
0.0
 40
1.0
 40
1.0
 40
1.0
 40
1.0
 10
281.3536791376101
 20
171.8033440564373
 30
0.0
 10
281.3576950993536
 20
171.9189145110575
 30
0.0
 10
281.3572488813839
 20
172.0340387477048
 30
0.0
 10
281.3541253555824
 20
172.1496092023262
 30
0.0
  0
SPLINE
  5
1D5
330
70
100
AcDbEntity
  8
Make2D__可见线__正切线
 62
    18
420
        0
370
    35
100
AcDbSpline
210
0.0
220
0.0
230
1.0
 70
     8
 71
     3
 72
     8
 73
     4
 74
     0
 42
0.0000000001
 43
0.0000000001
 40
0.0
 40
0.0
 40
0.0
 40
0.0
 40
1.0
 40
1.0
 40
1.0
 40
1.0
 10
281.6990518475559
 20
171.8176230315246
 30
0.0
 10
281.6691552434651
 20
170.4977102718112
 30
0.0
 10
281.6334578057456
 20
169.1782437300688
 30
0.0
 10
281.6031149836807
 20
167.8583309703535
 30
0.0
  0
LINE
  5
1D6
330
70
100
AcDbEntity
  8
Make2D__可见线__正切线
 62
    18
420
        0
370
    35
100
AcDbLine
 10
279.9507698351952
 20
171.9492573331173
 30
0.0
 11
281.3536791376101
 21
171.8033440564373
 31
0.0
  0
LINE
  5
1D7
330
70
100
AcDbEntity
  8
Make2D__可见线__正切线
 62
    18
420
        0
370
    35
100
AcDbLine
 10
256.17449144148
 20
174.4208586772905
 30
0.0
 11
254.8367299629056
 21
174.5596324664288
 31
0.0
  0
SPLINE
  5
1D8
330
70
100
AcDbEntity
  8
Make2D__可见线__正切线
 62
    18
420
        0
370
    35
100
AcDbSpline
210
0.0
220
0.0
230
1.0
 70
     8
 71
     3
 72
    14
 73
    10
 74
     0
 42
0.0000000001
 43
0.0000000001
 40
0.0
 40
0.0
 40
0.0
 40
0.0
 40
1.0
 40
1.0
 40
1.0
 40
2.0
 40
2.0
 40
2.0
 40
3.0
 40
3.0
 40
3.0
 40
3.0
 10
254.7916619477837
 20
170.6913688714443
 30
0.0
 10
254.7742594468943
 20
168.8935566642479
 30
0.0
 10
255.0977674762361
 20
167.1037763805378
 30
0.0
 10
255.7184566746015
 20
165.4193035381035
 30
0.0
 10
256.3395920909373
 20
163.7339382597259
 30
0.0
 10
257.2547851504944
 20
162.1632510000251
 30
0.0
 10
258.4131670045237
 20
160.7906845196739
 30
0.0
 10
260.7281458406949
 20
158.0464439949128
 30
0.0
 10
263.9971386999482
 20
156.1268142814939
 30
0.0
 10
267.6101656152316
 20
155.6913055413057
 30
0.0
  0
LINE
  5
1D9
330
70
100
AcDbEntity
  8
Make2D__可见线__正切线
 62
    18
420
        0
370
    35
100
AcDbLine
 10
281.3536791376101
 20
171.8033440564373
 30
0.0
 11
281.2550649659077
 21
167.8431595593223
 31
0.0
  0
SPLINE
  5
1DA
330
70
100
AcDbEntity
  8
Make2D__可见线__正切线
 62
    18
420
        0
370
    35
100
AcDbSpline
210
0.0
220
0.0
230
1.0
 70
     8
 71
     3
 72
     8
 73
     4
 74
     0
 42
0.0000000001
 43
0.0000000001
 40
0.0
 40
0.0
 40
0.0
 40
0.0
 40
1.0
 40
1.0
 40
1.0
 40
1.0
 10
281.2550649659077
 20
167.8431595593223
 30
0.0
 10
281.3523404836958
 20
167.8324503280056
 30
0.0
 10
281.5058394658925
 20
167.830219238148
 30
0.0
 10
281.6031149836807
 20
167.8583309703535
 30
0.0
  0
SPLINE
  5
1DB
330
70
100
AcDbEntity
  8
Make2D__可见线__正切线
 62
    18
420
        0
370
    35
100
AcDbSpline
210
0.0
220
0.0
230
1.0
 70
     8
 71
     3
 72
    11
 73
     7
 74
     0
 42
0.0000000001
 43
0.0000000001
 40
0.0
 40
0.0
 40
0.0
 40
0.0
 40
1.0
 40
1.0
 40
1.0
 40
2.0
 40
2.0
 40
2.0
 40
2.0
 10
267.6101656152316
 20
155.6913055413057
 30
0.0
 10
267.6092731792883
 20
155.6493610519845
 30
0.0
 10
267.6115042691459
 20
155.6083089986054
 30
0.0
 10
267.6190899746605
 20
155.5668107272533
 30
0.0
 10
267.6244445903195
 20
155.5391452130214
 30
0.0
 10
267.6396160013507
 20
155.4713200813524
 30
0.0
 10
267.6784369648717
 20
155.4632881578648
 30
0.0
  0
SPLINE
  5
1DC
330
70
100
AcDbEntity
  8
Make2D__可见线__正切线
 62
    18
420
        0
370
    35
100
AcDbSpline
210
0.0
220
0.0
230
1.0
 70
     8
 71
     3
 72
     8
 73
     4
 74
     0
 42
0.0000000001
 43
0.0000000001
 40
0.0
 40
0.0
 40
0.0
 40
0.0
 40
1.0
 40
1.0
 40
1.0
 40
1.0
 10
254.6038041817793
 20
170.7627637468852
 30
0.0
 10
254.6073739255505
 20
171.0983196614567
 30
0.0
 10
254.610497451352
 20
171.4338755760296
 30
0.0
 10
254.6140671951251
 20
171.7694314906018
 30
0.0
  0
SPLINE
  5
1DD
330
70
100
AcDbEntity
  8
Make2D__可见线__正切线
 62
    18
420
        0
370
    35
100
AcDbSpline
210
0.0
220
0.0
230
1.0
 70
     8
 71
     3
 72
     8
 73
     4
 74
     0
 42
0.0000000001
 43
0.0000000001
 40
0.0
 40
0.0
 40
0.0
 40
0.0
 40
1.0
 40
1.0
 40
1.0
 40
1.0
 10
254.647533542987
 20
174.6279038160682
 30
0.0
 10
254.6493184148735
 20
174.745259142575
 30
0.0
 10
254.6502108508168
 20
174.8626144690804
 30
0.0
 10
254.6515495047318
 20
174.9799697955859
 30
0.0
  0
SPLINE
  5
1DE
330
70
100
AcDbEntity
  8
Make2D__可见线__正切线
 62
    18
420
        0
370
    35
100
AcDbSpline
210
0.0
220
0.0
230
1.0
 70
     8
 71
     3
 72
     8
 73
     4
 74
     0
 42
0.0000000001
 43
0.0000000001
 40
0.0
 40
0.0
 40
0.0
 40
0.0
 40
1.0
 40
1.0
 40
1.0
 40
1.0
 10
254.8367299629056
 20
174.5596324664288
 30
0.0
 10
254.8371761808773
 20
174.6720793952462
 30
0.0
 10
254.8385148347922
 20
174.7845263240662
 30
0.0
 10
254.8398534887052
 20
174.8965270349146
 30
0.0
  0
SPLINE
  5
1DF
330
70
100
AcDbEntity
  8
Make2D__可见线__正切线
 62
    18
420
        0
370
    35
100
AcDbSpline
210
0.0
220
0.0
230
1.0
 70
     8
 71
     3
 72
     8
 73
     4
 74
     0
 42
0.0000000001
 43
0.0000000001
 40
0.0
 40
0.0
 40
0.0
 40
0.0
 40
1.0
 40
1.0
 40
1.0
 40
1.0
 10
256.1628897742219
 20
177.0035682963655
 30
0.0
 10
256.1196066309846
 20
176.9361893826688
 30
0.0
 10
256.0254546389972
 20
176.9004919449474
 30
0.0
 10
255.9495975838413
 20
176.9067389965483
 30
0.0
  0
SPLINE
  5
1E0
330
70
100
AcDbEntity
  8
Make2D__可见线__正切线
 62
    18
420
        0
370
    35
100
AcDbSpline
210
0.0
220
0.0
230
1.0
 70
     8
 71
     3
 72
     8
 73
     4
 74
     0
 42
0.0000000001
 43
0.0000000001
 40
0.0
 40
0.0
 40
0.0
 40
0.0
 40
1.0
 40
1.0
 40
1.0
 40
1.0
 10
256.17449144148
 20
174.4208586772905
 30
0.0
 10
256.2356233035765
 20
175.2102182688837
 30
0.0
 10
256.1990334299137
 20
176.1383516496158
 30
0.0
 10
255.9495975838413
 20
176.9067389965483
 30
0.0
  0
SPLINE
  5
1E1
330
70
100
AcDbEntity
  8
Make2D__可见线__正切线
 62
    18
420
        0
370
    35
100
AcDbSpline
210
0.0
220
0.0
230
1.0
 70
     8
 71
     3
 72
     8
 73
     4
 74
     0
 42
0.0000000001
 43
0.0000000001
 40
0.0
 40
0.0
 40
0.0
 40
0.0
 40
1.0
 40
1.0
 40
1.0
 40
1.0
 10
256.4100945304355
 20
175.5917346345198
 30
0.0
 10
256.3810903622861
 20
176.0749886976612
 30
0.0
 10
256.3123727946738
 20
176.5399478239698
 30
0.0
 10
256.1628897742219
 20
177.0035682963655
 30
0.0
  0
SPLINE
  5
1E2
330
70
100
AcDbEntity
  8
Make2D__可见线__正切线
 62
    18
420
        0
370
    35
100
AcDbSpline
210
0.0
220
0.0
230
1.0
 70
    24
 71
     3
 72
     8
 73
     4
 74
     0
 42
0.0000000001
 43
0.0000000001
 40
0.0
 40
0.0
 40
0.0
 40
0.0
 40
1.0
 40
1.0
 40
1.0
 40
1.0
 10
254.635931875727
 20
177.2405100392347
 30
0.0
 10
254.635931875727
 20
177.2369402954615
 30
0.0
 10
254.635931875727
 20
177.2333705516913
 30
0.0
 10
254.635931875727
 20
177.2298008079179
 30
0.0
  0
SPLINE
  5
1E3
330
70
100
AcDbEntity
  8
Make2D__可见线__正切线
 62
    18
420
        0
370
    35
100
AcDbSpline
210
0.0
220
0.0
230
1.0
 70
     8
 71
     3
 72
     8
 73
     4
 74
     0
 42
0.0000000001
 43
0.0000000001
 40
0.0
 40
0.0
 40
0.0
 40
0.0
 40
1.0
 40
1.0
 40
1.0
 40
1.0
 10
254.7894308579255
 20
178.3765809946884
 30
0.0
 10
254.8126341924442
 20
177.9245621895527
 30
0.0
 10
254.8286980394181
 20
177.4720971664461
 30
0.0
 10
254.8420845785627
 20
177.0196321433394
 30
0.0
  0
SPLINE
  5
1E4
330
70
100
AcDbEntity
  8
Make2D__可见线__正切线
 62
    18
420
        0
370
    35
100
AcDbSpline
210
0.0
220
0.0
230
1.0
 70
     8
 71
     3
 72
     8
 73
     4
 74
     0
 42
0.0000000001
 43
0.0000000001
 40
0.0
 40
0.0
 40
0.0
 40
0.0
 40
1.0
 40
1.0
 40
1.0
 40
1.0
 10
254.7894308579255
 20
178.3765809946884
 30
0.0
 10
254.7845224602394
 20
178.4354817669273
 30
0.0
 10
254.7791678445804
 20
178.4943825391662
 30
0.0
 10
254.7751518828382
 20
178.5537295293767
 30
0.0
  0
LINE
  5
1E5
330
70
100
AcDbEntity
  8
Make2D__可见线__正切线
 62
    18
420
        0
370
    35
100
AcDbLine
 10
255.4498334557564
 20
178.3105407349046
 30
0.0
 11
254.7894308579255
 21
178.3765809946884
 31
0.0
  0
SPLINE
  5
1E6
330
70
100
AcDbEntity
  8
Make2D__可见线__正切线
 62
    18
420
        0
370
    35
100
AcDbSpline
210
0.0
220
0.0
230
1.0
 70
     8
 71
     3
 72
     8
 73
     4
 74
     0
 42
0.0000000001
 43
0.0000000001
 40
0.0
 40
0.0
 40
0.0
 40
0.0
 40
1.0
 40
1.0
 40
1.0
 40
1.0
 10
255.4498334557564
 20
178.3105407349046
 30
0.0
 10
255.4212755055799
 20
178.3855053541186
 30
0.0
 10
255.3967335171443
 20
178.4618086272462
 30
0.0
 10
255.3757612724863
 20
178.5390043363158
 30
0.0
  0
SPLINE
  5
1E7
330
70
100
AcDbEntity
  8
Make2D__可见线__正切线
 62
    18
420
        0
370
    35
100
AcDbSpline
210
0.0
220
0.0
230
1.0
 70
     8
 71
     3
 72
     8
 73
     4
 74
     0
 42
0.0000000001
 43
0.0000000001
 40
0.0
 40
0.0
 40
0.0
 40
0.0
 40
1.0
 40
1.0
 40
1.0
 40
1.0
 10
255.3757612724863
 20
178.5390043363158
 30
0.0
 10
255.4484948018389
 20
178.5358808105153
 30
0.0
 10
255.5480014094853
 20
178.5671160685213
 30
0.0
 10
255.5944080785221
 20
178.6300328025043
 30
0.0
  0
SPLINE
  5
1E8
330
70
100
AcDbEntity
  8
Make2D__可见线__正切线
 62
    18
420
        0
370
    35
100
AcDbSpline
210
0.0
220
0.0
230
1.0
 70
     8
 71
     3
 72
     8
 73
     4
 74
     0
 42
0.0000000001
 43
0.0000000001
 40
0.0
 40
0.0
 40
0.0
 40
0.0
 40
1.0
 40
1.0
 40
1.0
 40
1.0
 10
255.5944080785221
 20
178.6300328025043
 30
0.0
 10
255.5056107021931
 20
178.943277818501
 30
0.0
 10
255.4913317271046
 20
179.2462598211526
 30
0.0
 10
255.5207821132243
 20
179.567536760637
 30
0.0
  0
SPLINE
  5
1E9
330
70
100
AcDbEntity
  8
Make2D__可见线__正切线
 62
    18
420
        0
370
    35
100
AcDbSpline
210
0.0
220
0.0
230
1.0
 70
     8
 71
     3
 72
     8
 73
     4
 74
     0
 42
0.0000000001
 43
0.0000000001
 40
0.0
 40
0.0
 40
0.0
 40
0.0
 40
1.0
 40
1.0
 40
1.0
 40
1.0
 10
255.5207821132243
 20
179.567536760637
 30
0.0
 10
255.4623275589578
 20
179.5479031698913
 30
0.0
 10
255.3525579379676
 20
179.5572737472938
 30
0.0
 10
255.2958882555856
 20
179.5679829786105
 30
0.0
  0
SPLINE
  5
1EA
330
70
100
AcDbEntity
  8
Make2D__可见线__正切线
 62
    18
420
        0
370
    35
100
AcDbSpline
210
0.0
220
0.0
230
1.0
 70
     8
 71
     3
 72
     8
 73
     4
 74
     0
 42
0.0000000001
 43
0.0000000001
 40
0.0
 40
0.0
 40
0.0
 40
0.0
 40
1.0
 40
1.0
 40
1.0
 40
1.0
 10
255.3757612724863
 20
178.5390043363158
 30
0.0
 10
255.2860714602134
 20
178.8674207633457
 30
0.0
 10
255.2673303054098
 20
179.2319808460654
 30
0.0
 10
255.2958882555856
 20
179.5679829786105
 30
0.0
  0
LINE
  5
1EB
330
70
100
AcDbEntity
  8
Make2D__可见线__正切线
 62
    18
420
        0
370
    35
100
AcDbLine
 10
255.5944080785221
 20
178.6300328025043
 30
0.0
 11
256.603306912097
 21
178.9954853211679
 31
0.0
  0
SPLINE
  5
1EC
330
70
100
AcDbEntity
  8
Make2D__可见线__正切线
 62
    18
420
        0
370
    35
100
AcDbSpline
210
0.0
220
0.0
230
1.0
 70
     8
 71
     3
 72
     8
 73
     4
 74
     0
 42
0.0000000001
 43
0.0000000001
 40
0.0
 40
0.0
 40
0.0
 40
0.0
 40
1.0
 40
1.0
 40
1.0
 40
1.0
 10
255.4498334557564
 20
178.3105407349046
 30
0.0
 10
255.5274753827963
 20
178.3074172091051
 30
0.0
 10
255.6234122466696
 20
178.3484692624842
 30
0.0
 10
255.6644643000494
 20
178.4185254840095
 30
0.0
  0
SPLINE
  5
1ED
330
70
100
AcDbEntity
  8
Make2D__可见线__正切线
 62
    18
420
        0
370
    35
100
AcDbSpline
210
0.0
220
0.0
230
1.0
 70
     8
 71
     3
 72
     8
 73
     4
 74
     0
 42
0.0000000001
 43
0.0000000001
 40
0.0
 40
0.0
 40
0.0
 40
0.0
 40
1.0
 40
1.0
 40
1.0
 40
1.0
 10
255.5944080785221
 20
178.6300328025043
 30
0.0
 10
255.6144878872394
 20
178.5581917090924
 30
0.0
 10
255.6372450037878
 20
178.4876892695942
 30
0.0
 10
255.6644643000494
 20
178.4185254840095
 30
0.0
  0
LINE
  5
1EE
330
70
100
AcDbEntity
  8
Make2D__可见线__正切线
 62
    18
420
        0
370
    35
100
AcDbLine
 10
255.7131020589425
 20
177.6380902518466
 30
0.0
 11
255.4498334557564
 21
178.3105407349046
 31
0.0
  0
SPLINE
  5
1EF
330
70
100
AcDbEntity
  8
Make2D__可见线__正切线
 62
    18
420
        0
370
    35
100
AcDbSpline
210
0.0
220
0.0
230
1.0
 70
     8
 71
     3
 72
     8
 73
     4
 74
     0
 42
0.0000000001
 43
0.0000000001
 40
0.0
 40
0.0
 40
0.0
 40
0.0
 40
1.0
 40
1.0
 40
1.0
 40
1.0
 10
279.3358814704605
 20
177.1851790107683
 30
0.0
 10
279.1663186412875
 20
180.2301704483225
 30
0.0
 10
277.9459124892211
 20
183.1573603414016
 30
0.0
 10
275.9531030284736
 20
185.4527055868266
 30
0.0
  0
SPLINE
  5
1F0
330
70
100
AcDbEntity
  8
Make2D__可见线__正切线
 62
    18
420
        0
370
    35
100
AcDbSpline
210
0.0
220
0.0
230
1.0
 70
     8
 71
     3
 72
     8
 73
     4
 74
     0
 42
0.0000000001
 43
0.0000000001
 40
0.0
 40
0.0
 40
0.0
 40
0.0
 40
1.0
 40
1.0
 40
1.0
 40
1.0
 10
254.5734613597176
 20
178.7456032571245
 30
0.0
 10
254.5560588588275
 20
179.061971798922
 30
0.0
 10
254.5582899486864
 20
179.3765554688337
 30
0.0
 10
254.5756924495758
 20
179.6929240106313
 30
0.0
  0
LINE
  5
1F1
330
70
100
AcDbEntity
  8
Make2D__可见线__正切线
 62
    18
420
        0
370
    35
100
AcDbLine
 10
259.0485813959493
 20
178.8634048016016
 30
0.0
 11
259.2382240338395
 21
178.9423853825587
 31
0.0
  0
LINE
  5
1F2
330
70
100
AcDbEntity
  8
Make2D__可见线__正切线
 62
    18
420
        0
370
    35
100
AcDbLine
 10
259.1141754377602
 20
170.450857384803
 30
0.0
 11
258.9249790178415
 21
170.3656297522455
 31
0.0
  0
LINE
  5
1F3
330
70
100
AcDbEntity
  8
Make2D__可见线__正切线
 62
    18
420
        0
370
    35
100
AcDbLine
 10
267.4191843234264
 20
157.2075542084806
 30
0.0
 11
267.2081232229039
 21
157.0656568935415
 31
0.0
  0
SPLINE
  5
1F4
330
70
100
AcDbEntity
  8
Make2D__可见线__正切线
 62
    18
420
        0
370
    35
100
AcDbSpline
210
0.0
220
0.0
230
1.0
 70
     8
 71
     3
 72
     8
 73
     4
 74
     0
 42
0.0000000001
 43
0.0000000001
 40
0.0
 40
0.0
 40
0.0
 40
0.0
 40
1.0
 40
1.0
 40
1.0
 40
1.0
 10
279.2140639642393
 20
177.2052588194855
 30
0.0
 10
279.2319126831003
 20
176.8906751495758
 30
0.0
 10
279.2506538379046
 20
176.5760914796616
 30
0.0
 10
279.2792117880804
 20
176.2619540277222
 30
0.0
  0
SPLINE
  5
1F5
330
70
100
AcDbEntity
  8
Make2D__可见线__正切线
 62
    18
420
        0
370
    35
100
AcDbSpline
210
0.0
220
0.0
230
1.0
 70
     8
 71
     3
 72
     8
 73
     4
 74
     0
 42
0.0000000001
 43
0.0000000001
 40
0.0
 40
0.0
 40
0.0
 40
0.0
 40
1.0
 40
1.0
 40
1.0
 40
1.0
 10
254.635931875727
 20
173.6596108179002
 30
0.0
 10
254.6395016195001
 20
173.9808877573852
 30
0.0
 10
254.6435175812442
 20
174.3021646968695
 30
0.0
 10
254.647533542987
 20
174.6234416363537
 30
0.0
  0
SPLINE
  5
1F6
330
70
100
AcDbEntity
  8
Make2D__可见线__正切线
 62
    18
420
        0
370
    35
100
AcDbSpline
210
0.0
220
0.0
230
1.0
 70
    24
 71
     3
 72
     8
 73
     4
 74
     0
 42
0.0000000001
 43
0.0000000001
 40
0.0
 40
0.0
 40
0.0
 40
0.0
 40
1.0
 40
1.0
 40
1.0
 40
1.0
 10
254.5810470652335
 20
178.5813950436086
 30
0.0
 10
254.5810470652335
 20
178.5854110053527
 30
0.0
 10
254.5810470652335
 20
178.5894269670962
 30
0.0
 10
254.5810470652335
 20
178.5934429288403
 30
0.0
  0
SPLINE
  5
1F7
330
70
100
AcDbEntity
  8
Make2D__可见线__正切线
 62
    18
420
        0
370
    35
100
AcDbSpline
210
0.0
220
0.0
230
1.0
 70
     8
 71
     3
 72
     8
 73
     4
 74
     0
 42
0.0000000001
 43
0.0000000001
 40
0.0
 40
0.0
 40
0.0
 40
0.0
 40
1.0
 40
1.0
 40
1.0
 40
1.0
 10
254.6502108508168
 20
176.5832309672052
 30
0.0
 10
254.647533542987
 20
176.7951845036723
 30
0.0
 10
254.6435175812442
 20
177.0071380401374
 30
0.0
 10
254.6368243116722
 20
177.2190915766025
 30
0.0
  0
SPLINE
  5
1F8
330
70
100
AcDbEntity
  8
Make2D__可见线__正切线
 62
    18
420
        0
370
    35
100
AcDbSpline
210
0.0
220
0.0
230
1.0
 70
    24
 71
     3
 72
     8
 73
     4
 74
     0
 42
0.0000000001
 43
0.0000000001
 40
0.0
 40
0.0
 40
0.0
 40
0.0
 40
1.0
 40
1.0
 40
1.0
 40
1.0
 10
254.5734613597176
 20
178.7348940258071
 30
0.0
 10
254.5734613597176
 20
178.7384637695802
 30
0.0
 10
254.5734613597176
 20
178.7420335133508
 30
0.0
 10
254.5734613597176
 20
178.7456032571245
 30
0.0
  0
LINE
  5
1F9
330
70
100
AcDbEntity
  8
Make2D__可见线__正切线
 62
    18
420
        0
370
    35
100
AcDbLine
 10
279.4336032062203
 20
175.9049796505185
 30
0.0
 11
280.1265797159692
 21
175.8353696469628
 31
0.0
  0
LINE
  5
1FA
330
70
100
AcDbEntity
  8
Make2D__可见线__正切线
 62
    18
420
        0
370
    35
100
AcDbLine
 10
279.8918690629544
 20
177.1298479823025
 30
0.0
 11
279.3358814704605
 21
177.1851790107683
 31
0.0
  0
SPLINE
  5
1FB
330
70
100
AcDbEntity
  8
Make2D__可见线__正切线
 62
    18
420
        0
370
    35
100
AcDbSpline
210
0.0
220
0.0
230
1.0
 70
     8
 71
     3
 72
     8
 73
     4
 74
     0
 42
0.0000000001
 43
0.0000000001
 40
0.0
 40
0.0
 40
0.0
 40
0.0
 40
1.0
 40
1.0
 40
1.0
 40
1.0
 10
279.3358814704605
 20
177.1851790107683
 30
0.0
 10
279.3532839713486
 20
176.8344516851648
 30
0.0
 10
279.3733637800672
 20
176.4837243595608
 30
0.0
 10
279.4068301279291
 20
176.1338894699
 30
0.0
  0
SPLINE
  5
1FC
330
70
100
AcDbEntity
  8
Make2D__可见线__正切线
 62
    18
420
        0
370
    35
100
AcDbSpline
210
0.0
220
0.0
230
1.0
 70
     8
 71
     3
 72
     8
 73
     4
 74
     0
 42
0.0000000001
 43
0.0000000001
 40
0.0
 40
0.0
 40
0.0
 40
0.0
 40
1.0
 40
1.0
 40
1.0
 40
1.0
 10
279.6745609108335
 20
174.4967157324458
 30
0.0
 10
279.6214609722247
 20
174.5029627840471
 30
0.0
 10
279.5572055843268
 20
174.5319669521953
 30
0.0
 10
279.5447114811254
 20
174.5930988142914
 30
0.0
  0
LINE
  5
1FD
330
70
100
AcDbEntity
  8
Make2D__可见线__正切线
 62
    18
420
        0
370
    35
100
AcDbLine
 10
279.6745609108335
 20
174.4967157324458
 30
0.0
 11
280.8356200726907
 21
174.3789141879674
 31
0.0
  0
SPLINE
  5
1FE
330
70
100
AcDbEntity
  8
Make2D__可见线__正切线
 62
    18
420
        0
370
    35
100
AcDbSpline
210
0.0
220
0.0
230
1.0
 70
     8
 71
     3
 72
     8
 73
     4
 74
     0
 42
0.0000000001
 43
0.0000000001
 40
0.0
 40
0.0
 40
0.0
 40
0.0
 40
1.0
 40
1.0
 40
1.0
 40
1.0
 10
279.9507698351952
 20
171.9492573331173
 30
0.0
 10
279.917749705303
 20
172.7551269896579
 30
0.0
 10
279.8369842524628
 20
173.7028939611356
 30
0.0
 10
279.6745609108335
 20
174.4967157324458
 30
0.0
  0
LINE
  5
1FF
330
70
100
AcDbEntity
  8
Make2D__可见线__正切线
 62
    18
420
        0
370
    35
100
AcDbLine
 10
254.8367299629056
 20
174.5596324664288
 30
0.0
 11
254.7916619477837
 21
170.6913688714443
 31
0.0
  0
LINE
  5
200
330
70
100
AcDbEntity
  8
Make2D__可见线__正切线
 62
    18
420
        0
370
    35
100
AcDbLine
 10
255.7131020589425
 20
177.6380902518466
 30
0.0
 11
255.9495975838413
 21
176.9067389965483
 31
0.0
  0
LINE
  5
201
330
70
100
AcDbEntity
  8
Make2D__可见线__正切线
 62
    18
420
        0
370
    35
100
AcDbLine
 10
255.9495975838413
 20
176.9067389965483
 30
0.0
 11
254.8420845785627
 21
177.0196321433394
 31
0.0
  0
SPLINE
  5
202
330
70
100
AcDbEntity
  8
Make2D__可见线__正切线
 62
    18
420
        0
370
    35
100
AcDbSpline
210
0.0
220
0.0
230
1.0
 70
     8
 71
     3
 72
     8
 73
     4
 74
     0
 42
0.0000000001
 43
0.0000000001
 40
0.0
 40
0.0
 40
0.0
 40
0.0
 40
1.0
 40
1.0
 40
1.0
 40
1.0
 10
254.8420845785627
 20
177.0196321433394
 30
0.0
 10
254.8532400278517
 20
176.3119304405309
 30
0.0
 10
254.847439194223
 20
175.6042287377237
 30
0.0
 10
254.8398534887052
 20
174.8965270349146
 30
0.0
  0
LINE
  5
203
330
70
100
AcDbEntity
  8
Make2D__可见线__正切线
 62
    18
420
        0
370
    35
100
AcDbLine
 10
255.2958882555856
 20
179.5679829786105
 30
0.0
 11
254.7648888694944
 21
179.6206366992484
 31
0.0
  0
SPLINE
  5
204
330
70
100
AcDbEntity
  8
Make2D__可见线__正切线
 62
    18
420
        0
370
    35
100
AcDbSpline
210
0.0
220
0.0
230
1.0
 70
     8
 71
     3
 72
     8
 73
     4
 74
     0
 42
0.0000000001
 43
0.0000000001
 40
0.0
 40
0.0
 40
0.0
 40
0.0
 40
1.0
 40
1.0
 40
1.0
 40
1.0
 10
254.7648888694944
 20
179.6206366992484
 30
0.0
 10
254.7479325865766
 20
179.264108540013
 30
0.0
 10
254.7501636764342
 20
178.9098114706385
 30
0.0
 10
254.7751518828382
 20
178.5537295293767
 30
0.0
  0
LINE
  5
205
330
70
100
AcDbEntity
  8
Make2D__可见线__正切线
 62
    18
420
        0
370
    35
100
AcDbLine
 10
277.9414503095042
 20
176.8714877767992
 30
0.0
 11
277.4787222730536
 21
177.0307875926271
 31
0.0
  0
LINE
  5
206
330
70
100
AcDbEntity
  8
Make2D__可见线__正切线
 62
    18
420
        0
370
    35
100
AcDbLine
 10
277.2872947632768
 20
168.39111522833
 30
0.0
 11
277.747791709871
 21
168.2197675272724
 31
0.0
  0
SPLINE
  5
207
330
70
100
AcDbEntity
  8
Make2D__可见线__正切线
 62
    18
420
        0
370
    35
100
AcDbSpline
210
0.0
220
0.0
230
1.0
 70
     8
 71
     3
 72
     8
 73
     4
 74
     0
 42
0.0000000001
 43
0.0000000001
 40
0.0
 40
0.0
 40
0.0
 40
0.0
 40
1.0
 40
1.0
 40
1.0
 40
1.0
 10
275.8464569332836
 20
185.4045140459051
 30
0.0
 10
275.857612382572
 20
185.3915737247308
 30
0.0
 10
275.868767831861
 20
185.3786334035578
 30
0.0
 10
275.8803694991191
 20
185.3656930823854
 30
0.0
  0
SPLINE
  5
208
330
70
100
AcDbEntity
  8
Make2D__可见线__正切线
 62
    18
420
        0
370
    35
100
AcDbSpline
210
0.0
220
0.0
230
1.0
 70
     8
 71
     3
 72
     8
 73
     4
 74
     0
 42
0.0000000001
 43
0.0000000001
 40
0.0
 40
0.0
 40
0.0
 40
0.0
 40
1.0
 40
1.0
 40
1.0
 40
1.0
 10
281.6762947310087
 20
176.4997882065359
 30
0.0
 10
285.6413876258084
 20
177.5608945427757
 30
0.0
 10
290.9138991771222
 20
179.2310884101215
 30
0.0
 10
294.4662404482789
 20
181.4831505123127
 30
0.0
  0
SPLINE
  5
209
330
70
100
AcDbEntity
  8
Make2D__可见线__正切线
 62
    18
420
        0
370
    35
100
AcDbSpline
210
0.0
220
0.0
230
1.0
 70
     8
 71
     3
 72
     8
 73
     4
 74
     0
 42
0.0000000001
 43
0.0000000001
 40
0.0
 40
0.0
 40
0.0
 40
0.0
 40
1.0
 40
1.0
 40
1.0
 40
1.0
 10
281.6986056295842
 20
172.1853066400457
 30
0.0
 10
285.6958262183316
 20
173.2437356684563
 30
0.0
 10
291.1200518799573
 20
174.9509656274378
 30
0.0
 10
294.669715843286
 20
177.2967335036431
 30
0.0
  0
SPLINE
  5
20A
330
70
100
AcDbEntity
  8
Make2D__可见线__正切线
 62
    18
420
        0
370
    35
100
AcDbSpline
210
0.0
220
0.0
230
1.0
 70
     8
 71
     3
 72
     8
 73
     4
 74
     0
 42
0.0000000001
 43
0.0000000001
 40
0.0
 40
0.0
 40
0.0
 40
0.0
 40
1.0
 40
1.0
 40
1.0
 40
1.0
 10
281.6031149836807
 20
167.8583309703535
 30
0.0
 10
285.5673154425384
 20
169.0109119907534
 30
0.0
 10
290.7296111548896
 20
170.7962300947503
 30
0.0
 10
294.2243903077243
 20
173.1884046399905
 30
0.0
  0
SPLINE
  5
20B
330
70
100
AcDbEntity
  8
Make2D__可见线__正切线
 62
    18
420
        0
370
    35
100
AcDbSpline
210
0.0
220
0.0
230
1.0
 70
     8
 71
     3
 72
     8
 73
     4
 74
     0
 42
0.0000000001
 43
0.0000000001
 40
0.0
 40
0.0
 40
0.0
 40
0.0
 40
1.0
 40
1.0
 40
1.0
 40
1.0
 10
277.6835363219751
 20
200.6473199525435
 30
0.0
 10
273.5091671985387
 20
198.7004709428637
 30
0.0
 10
269.9251444514035
 20
194.3650171317129
 30
0.0
 10
267.4727304800069
 20
190.7934884877803
 30
0.0
  0
SPLINE
  5
20C
330
70
100
AcDbEntity
  8
Make2D__可见线__正切线
 62
    18
420
        0
370
    35
100
AcDbSpline
210
0.0
220
0.0
230
1.0
 70
     8
 71
     3
 72
    20
 73
    16
 74
     0
 42
0.0000000001
 43
0.0000000001
 40
0.0
 40
0.0
 40
0.0
 40
0.0
 40
1.0
 40
1.0
 40
1.0
 40
2.0
 40
2.0
 40
2.0
 40
3.0
 40
3.0
 40
3.0
 40
4.0
 40
4.0
 40
4.0
 40
5.0
 40
5.0
 40
5.0
 40
5.0
 10
267.4727304800069
 20
190.7934884877803
 30
0.0
 10
267.7948998554338
 20
190.7653767555761
 30
0.0
 10
268.1152843589761
 20
190.7310179717696
 30
0.0
 10
268.4343302086016
 20
190.6805953409893
 30
0.0
 10
268.9572976712078
 20
190.597598798289
 30
0.0
 10
269.469555902496
 20
190.4802434717836
 30
0.0
 10
269.9782443900124
 20
190.3338839771287
 30
0.0
 10
270.80107032947
 20
190.0964960162886
 30
0.0
 10
271.5877526132334
 20
189.7944064495796
 30
0.0
 10
272.3548013062524
 20
189.4133363019125
 30
0.0
 10
273.8804205508305
 20
188.6547657503527
 30
0.0
 10
275.2619113906132
 20
187.6231098002314
 30
0.0
 10
276.4265402962434
 20
186.3803927495883
 30
0.0
 10
278.7544594535883
 20
183.8954048662718
 30
0.0
 10
280.1841418342932
 20
180.5916070052436
 30
0.0
 10
280.2412577346467
 20
177.1570672785627
 30
0.0
  0
SPLINE
  5
20D
330
70
100
AcDbEntity
  8
Make2D__可见线__正切线
 62
    18
420
        0
370
    35
100
AcDbSpline
210
0.0
220
0.0
230
1.0
 70
     8
 71
     3
 72
    17
 73
    13
 74
     0
 42
0.0000000001
 43
0.0000000001
 40
0.0
 40
0.0
 40
0.0
 40
0.0
 40
1.0
 40
1.0
 40
1.0
 40
2.0
 40
2.0
 40
2.0
 40
3.0
 40
3.0
 40
3.0
 40
4.0
 40
4.0
 40
4.0
 40
4.0
 10
267.6101656152316
 20
155.6913055413057
 30
0.0
 10
269.3254274976999
 20
155.484706620497
 30
0.0
 10
271.0634464967148
 20
155.6225879736927
 30
0.0
 10
272.7193613889733
 20
156.1294915893219
 30
0.0
 10
274.3748300632601
 20
156.6363952049542
 30
0.0
 10
275.8906325124642
 20
157.4953648001033
 30
0.0
 10
277.1739553985142
 20
158.6582088338474
 30
0.0
 10
278.4577245025383
 20
159.8206066496194
 30
0.0
 10
279.4634998103117
 20
161.2449344146659
 30
0.0
 10
280.1546914481734
 20
162.8285619955412
 30
0.0
 10
280.8463293040074
 20
164.4130820123572
 30
0.0
 10
281.2082120788986
 20
166.119419535396
 30
0.0
 10
281.254618747936
 20
167.8431595593223
 30
0.0
  0
SPLINE
  5
20E
330
70
100
AcDbEntity
  8
Make2D__可见线__正切线
 62
    18
420
        0
370
    35
100
AcDbSpline
210
0.0
220
0.0
230
1.0
 70
     8
 71
     3
 72
    17
 73
    13
 74
     0
 42
0.0000000001
 43
0.0000000001
 40
0.0
 40
0.0
 40
0.0
 40
0.0
 40
1.0
 40
1.0
 40
1.0
 40
2.0
 40
2.0
 40
2.0
 40
3.0
 40
3.0
 40
3.0
 40
4.0
 40
4.0
 40
4.0
 40
4.0
 10
275.9531030284736
 20
185.4527055868266
 30
0.0
 10
274.4390854511555
 20
187.1956329835281
 30
0.0
 10
272.4975910571341
 20
188.5530280528508
 30
0.0
 10
270.3079994709552
 20
189.315614566154
 30
0.0
 10
268.119300320719
 20
190.0782010794559
 30
0.0
 10
265.7525601998531
 20
190.2192059584511
 30
0.0
 10
263.49648213592
 20
189.6221663125774
 30
0.0
 10
261.2395116360431
 20
189.0246804487311
 30
0.0
 10
259.2596424964698
 20
187.7310945493364
 30
0.0
 10
257.8009559476188
 20
185.909632789649
 30
0.0
 10
256.343608052682
 20
184.0904021198204
 30
0.0
 10
255.5056107021931
 20
181.8731450194083
 30
0.0
 10
255.2958882555856
 20
179.5679829786105
 30
0.0
  0
SPLINE
  5
20F
330
70
100
AcDbEntity
  8
Make2D__可见线__正切线
 62
    18
420
        0
370
    35
100
AcDbSpline
210
0.0
220
0.0
230
1.0
 70
     8
 71
     3
 72
    11
 73
     7
 74
     0
 42
0.0000000001
 43
0.0000000001
 40
0.0
 40
0.0
 40
0.0
 40
0.0
 40
1.0
 40
1.0
 40
1.0
 40
2.0
 40
2.0
 40
2.0
 40
2.0
 10
255.5207821132243
 20
179.567536760637
 30
0.0
 10
255.7546003302933
 20
182.1377522765113
 30
0.0
 10
256.7813478827272
 20
184.5901662479079
 30
0.0
 10
258.5706819484669
 20
186.4843615369494
 30
0.0
 10
260.3631395400049
 20
188.3821265697622
 30
0.0
 10
262.751298123503
 20
189.5356000261054
 30
0.0
 10
265.3442707559244
 20
189.7877131800063
 30
0.0
  0
SPLINE
  5
210
330
70
100
AcDbEntity
  8
Make2D__可见线__正切线
 62
    18
420
        0
370
    35
100
AcDbSpline
210
0.0
220
0.0
230
1.0
 70
     8
 71
     3
 72
    14
 73
    10
 74
     0
 42
0.0000000001
 43
0.0000000001
 40
0.0
 40
0.0
 40
0.0
 40
0.0
 40
1.0
 40
1.0
 40
1.0
 40
2.0
 40
2.0
 40
2.0
 40
3.0
 40
3.0
 40
3.0
 40
3.0
 10
267.3959809889076
 20
190.4735502022122
 30
0.0
 10
270.7479703908612
 20
190.1794925589888
 30
0.0
 10
273.8674802296568
 20
188.5909565804278
 30
0.0
 10
276.1516700257947
 20
186.1505904942622
 30
0.0
 10
277.2899720711067
 20
184.9337540859657
 30
0.0
 10
278.208734874435
 20
183.5201355522366
 30
0.0
 10
278.8526274073191
 20
181.9824684224275
 30
0.0
 10
279.495181286289
 20
180.4474786004476
 30
0.0
 10
279.8592951510358
 20
178.7973645418191
 30
0.0
 10
279.8918690629544
 20
177.1298479823025
 30
0.0
  0
SPLINE
  5
211
330
70
100
AcDbEntity
  8
Make2D__可见线__正切线
 62
    18
420
        0
370
    35
100
AcDbSpline
210
0.0
220
0.0
230
1.0
 70
     8
 71
     3
 72
    17
 73
    13
 74
     0
 42
0.0000000001
 43
0.0000000001
 40
0.0
 40
0.0
 40
0.0
 40
0.0
 40
1.0
 40
1.0
 40
1.0
 40
2.0
 40
2.0
 40
2.0
 40
3.0
 40
3.0
 40
3.0
 40
4.0
 40
4.0
 40
4.0
 40
4.0
 10
254.7648888694944
 20
179.6206366992484
 30
0.0
 10
254.8501165020509
 20
181.1761525479153
 30
0.0
 10
255.2298479958011
 20
182.7057877542382
 30
0.0
 10
255.9031909148038
 20
184.1140516723102
 30
0.0
 10
256.577426269751
 20
185.5232080263261
 30
0.0
 10
257.5292092029715
 20
186.7752956543704
 30
0.0
 10
258.7165952251482
 20
187.7931188473761
 30
0.0
 10
259.9044274652966
 20
188.8109420403804
 30
0.0
 10
261.2868107410232
 20
189.5583571426525
 30
0.0
 10
262.7820871635389
 20
190.0108221657592
 30
0.0
 10
264.2764711501114
 20
190.4628409708948
 30
0.0
 10
265.8444811019816
 20
190.6096466835207
 30
0.0
 10
267.3959809889076
 20
190.4735502022122
 30
0.0
  0
LINE
  5
212
330
70
100
AcDbEntity
  8
Make2D__可见线__正切线
 62
    18
420
        0
370
    35
100
AcDbLine
 10
258.9249790178415
 20
170.3656297522455
 30
0.0
 11
258.1494521833633
 21
170.3290398785815
 31
0.0
  0
LINE
  5
213
330
70
100
AcDbEntity
  8
Make2D__可见线__正切线
 62
    18
420
        0
370
    35
100
AcDbLine
 10
259.0485813959493
 20
178.8634048016016
 30
0.0
 11
258.2703772536445
 21
178.8294922357674
 31
0.0
  0
SPLINE
  5
214
330
70
100
AcDbEntity
  8
Make2D__可见线__正切线
 62
    18
420
        0
370
    35
100
AcDbSpline
210
0.0
220
0.0
230
1.0
 70
     8
 71
     3
 72
     8
 73
     4
 74
     0
 42
0.0000000001
 43
0.0000000001
 40
0.0
 40
0.0
 40
0.0
 40
0.0
 40
1.0
 40
1.0
 40
1.0
 40
1.0
 10
292.878596905663
 20
201.2278495334724
 30
0.0
 10
293.086980698355
 20
201.5201223048085
 30
0.0
 10
293.3694366743183
 20
201.7633110992793
 30
0.0
 10
293.702315281062
 20
201.9069932861037
 30
0.0
  0
SPLINE
  5
215
330
70
100
AcDbEntity
  8
Make2D__可见线__正切线
 62
    18
420
        0
370
    35
100
AcDbSpline
210
0.0
220
0.0
230
1.0
 70
     8
 71
     3
 72
     8
 73
     4
 74
     0
 42
0.0000000001
 43
0.0000000001
 40
0.0
 40
0.0
 40
0.0
 40
0.0
 40
1.0
 40
1.0
 40
1.0
 40
1.0
 10
293.8393041983144
 20
198.1721488645997
 30
0.0
 10
294.7268317436371
 20
198.1020926430738
 30
0.0
 10
295.4434578058783
 20
198.7852523574492
 30
0.0
 10
295.4693384482244
 20
199.6638555433443
 30
0.0
  0
SPLINE
  5
216
330
70
100
AcDbEntity
  8
Make2D__可见线__正切线
 62
    18
420
        0
370
    35
100
AcDbSpline
210
0.0
220
0.0
230
1.0
 70
     8
 71
     3
 72
     8
 73
     4
 74
     0
 42
0.0000000001
 43
0.0000000001
 40
0.0
 40
0.0
 40
0.0
 40
0.0
 40
1.0
 40
1.0
 40
1.0
 40
1.0
 10
295.4693384482244
 20
199.6638555433443
 30
0.0
 10
295.4947728726012
 20
200.53665789561
 30
0.0
 10
294.8303543130282
 20
201.3237863973456
 30
0.0
 10
293.9504124732188
 20
201.4005358884455
 30
0.0
  0
SPLINE
  5
217
330
70
100
AcDbEntity
  8
Make2D__可见线__正切线
 62
    18
420
        0
370
    35
100
AcDbSpline
210
0.0
220
0.0
230
1.0
 70
     8
 71
     3
 72
    11
 73
     7
 74
     0
 42
0.0000000001
 43
0.0000000001
 40
0.0
 40
0.0
 40
0.0
 40
0.0
 40
1.0
 40
1.0
 40
1.0
 40
2.0
 40
2.0
 40
2.0
 40
2.0
 10
293.8321647107681
 20
198.2404202142411
 30
0.0
 10
294.6911343059176
 20
198.1730413005436
 30
0.0
 10
295.3792024179804
 20
198.8437069117165
 30
0.0
 10
295.3885729953822
 20
199.6937521474357
 30
0.0
 10
295.3974973548131
 20
200.5161318689204
 30
0.0
 10
294.7674375790452
 20
201.2497142140769
 30
0.0
 10
293.9379183700175
 20
201.3224477434307
 30
0.0
  0
SPLINE
  5
218
330
70
100
AcDbEntity
  8
Make2D__可见线__正切线
 62
    18
420
        0
370
    35
100
AcDbSpline
210
0.0
220
0.0
230
1.0
 70
     8
 71
     3
 72
     8
 73
     4
 74
     0
 42
0.0000000001
 43
0.0000000001
 40
0.0
 40
0.0
 40
0.0
 40
0.0
 40
1.0
 40
1.0
 40
1.0
 40
1.0
 10
293.9321175363888
 20
201.4018745423605
 30
0.0
 10
293.0454824270042
 20
201.4688072380856
 30
0.0
 10
292.3315336725953
 20
200.7847550877682
 30
0.0
 10
292.3065454661927
 20
199.9074905557854
 30
0.0
  0
SPLINE
  5
219
330
70
100
AcDbEntity
  8
Make2D__可见线__正切线
 62
    18
420
        0
370
    35
100
AcDbSpline
210
0.0
220
0.0
230
1.0
 70
     8
 71
     3
 72
     8
 73
     4
 74
     0
 42
0.0000000001
 43
0.0000000001
 40
0.0
 40
0.0
 40
0.0
 40
0.0
 40
1.0
 40
1.0
 40
1.0
 40
1.0
 10
292.3065454661927
 20
199.9074905557854
 30
0.0
 10
292.2824496957287
 20
199.0369192933785
 30
0.0
 10
292.9437447295022
 20
198.2529143174424
 30
0.0
 10
293.8210092614824
 20
198.1734875185153
 30
0.0
  0
SPLINE
  5
21A
330
70
100
AcDbEntity
  8
Make2D__可见线__正切线
 62
    18
420
        0
370
    35
100
AcDbSpline
210
0.0
220
0.0
230
1.0
 70
     8
 71
     3
 72
    11
 73
     7
 74
     0
 42
0.0000000001
 43
0.0000000001
 40
0.0
 40
0.0
 40
0.0
 40
0.0
 40
1.0
 40
1.0
 40
1.0
 40
2.0
 40
2.0
 40
2.0
 40
2.0
 10
293.9205158691281
 20
201.3237863973456
 30
0.0
 10
293.0633311458659
 20
201.3884880032145
 30
0.0
 10
292.3779403416322
 20
200.7182686100133
 30
0.0
 10
292.3685697642304
 20
199.8700082461807
 30
0.0
 10
292.3596454048015
 20
199.0489671786089
 30
0.0
 10
292.9874740907093
 20
198.3167234873687
 30
0.0
 10
293.8147622098807
 20
198.2417588681554
 30
0.0
  0
SPLINE
  5
21B
330
70
100
AcDbEntity
  8
Make2D__可见线__正切线
 62
    18
420
        0
370
    35
100
AcDbSpline
210
0.0
220
0.0
230
1.0
 70
     8
 71
     3
 72
     8
 73
     4
 74
     0
 42
0.0000000001
 43
0.0000000001
 40
0.0
 40
0.0
 40
0.0
 40
0.0
 40
1.0
 40
1.0
 40
1.0
 40
1.0
 10
293.9504124732188
 20
201.5129828172649
 30
0.0
 10
293.0164782588574
 20
201.5754533332756
 30
0.0
 10
292.2690631565853
 20
200.8530264374076
 30
0.0
 10
292.2431825142374
 20
199.9298014543625
 30
0.0
  0
SPLINE
  5
21C
330
70
100
AcDbEntity
  8
Make2D__可见线__正切线
 62
    18
420
        0
370
    35
100
AcDbSpline
210
0.0
220
0.0
230
1.0
 70
     8
 71
     3
 72
     8
 73
     4
 74
     0
 42
0.0000000001
 43
0.0000000001
 40
0.0
 40
0.0
 40
0.0
 40
0.0
 40
1.0
 40
1.0
 40
1.0
 40
1.0
 10
292.2431825142374
 20
199.9298014543625
 30
0.0
 10
292.2173018718914
 20
199.0012218556591
 30
0.0
 10
292.9285733184691
 20
198.165901813
 30
0.0
 10
293.8656310586321
 20
198.0922758477022
 30
0.0
  0
SPLINE
  5
21D
330
70
100
AcDbEntity
  8
Make2D__可见线__正切线
 62
    18
420
        0
370
    35
100
AcDbSpline
210
0.0
220
0.0
230
1.0
 70
     8
 71
     3
 72
     8
 73
     4
 74
     0
 42
0.0000000001
 43
0.0000000001
 40
0.0
 40
0.0
 40
0.0
 40
0.0
 40
1.0
 40
1.0
 40
1.0
 40
1.0
 10
293.8790175977767
 20
198.0913834117583
 30
0.0
 10
294.8138442480821
 20
198.0257893699462
 30
0.0
 10
295.5639366581827
 20
198.7473238298722
 30
0.0
 10
295.5911559544461
 20
199.6718874668306
 30
0.0
  0
SPLINE
  5
21E
330
70
100
AcDbEntity
  8
Make2D__可见线__正切线
 62
    18
420
        0
370
    35
100
AcDbSpline
210
0.0
220
0.0
230
1.0
 70
     8
 71
     3
 72
     8
 73
     4
 74
     0
 42
0.0000000001
 43
0.0000000001
 40
0.0
 40
0.0
 40
0.0
 40
0.0
 40
1.0
 40
1.0
 40
1.0
 40
1.0
 10
295.5911559544461
 20
199.6718874668306
 30
0.0
 10
295.6188214686788
 20
200.6031443733641
 30
0.0
 10
294.903980278326
 20
201.4406955058804
 30
0.0
 10
293.9637990123635
 20
201.51164416335
 30
0.0
  0
SPLINE
  5
21F
330
70
100
AcDbEntity
  8
Make2D__可见线__正切线
 62
    18
420
        0
370
    35
100
AcDbSpline
210
0.0
220
0.0
230
1.0
 70
     8
 71
     3
 72
     8
 73
     4
 74
     0
 42
0.0000000001
 43
0.0000000001
 40
0.0
 40
0.0
 40
0.0
 40
0.0
 40
1.0
 40
1.0
 40
1.0
 40
1.0
 10
293.8656310586321
 20
198.0922758477022
 30
0.0
 10
293.8687545844322
 20
198.0833514882714
 30
0.0
 10
293.8745554180629
 20
198.0672876412963
 30
0.0
 10
293.8870495212642
 20
198.0739809108689
 30
0.0
  0
SPLINE
  5
220
330
70
100
AcDbEntity
  8
Make2D__可见线__正切线
 62
    18
420
        0
370
    35
100
AcDbSpline
210
0.0
220
0.0
230
1.0
 70
     8
 71
     3
 72
    11
 73
     7
 74
     0
 42
0.0000000001
 43
0.0000000001
 40
0.0
 40
0.0
 40
0.0
 40
0.0
 40
1.0
 40
1.0
 40
1.0
 40
2.0
 40
2.0
 40
2.0
 40
2.0
 10
293.9870023468823
 20
201.5535886526711
 30
0.0
 10
294.7602980915029
 20
201.4955803163748
 30
0.0
 10
295.3997284446693
 20
200.919959133134
 30
0.0
 10
295.5880324286454
 20
200.180129736376
 30
0.0
 10
295.7781212845066
 20
199.4327146341039
 30
0.0
 10
295.4769241537402
 20
198.6277374135079
 30
0.0
 10
294.778146810362
 20
198.2564840612156
 30
0.0
  0
SPLINE
  5
221
330
70
100
AcDbEntity
  8
Make2D__可见线__正切线
 62
    18
420
        0
370
    35
100
AcDbSpline
210
0.0
220
0.0
230
1.0
 70
     8
 71
     3
 72
     8
 73
     4
 74
     0
 42
0.0000000001
 43
0.0000000001
 40
0.0
 40
0.0
 40
0.0
 40
0.0
 40
1.0
 40
1.0
 40
1.0
 40
1.0
 10
294.7540510399006
 20
198.2439899580129
 30
0.0
 10
294.4903362187403
 20
198.1096783485897
 30
0.0
 10
294.1958323575485
 20
198.0521162302651
 30
0.0
 10
293.9008822783805
 20
198.0726422569534
 30
0.0
  0
SPLINE
  5
222
330
70
100
AcDbEntity
  8
Make2D__可见线__正切线
 62
    18
420
        0
370
    35
100
AcDbSpline
210
0.0
220
0.0
230
1.0
 70
     8
 71
     3
 72
     8
 73
     4
 74
     0
 42
0.0000000001
 43
0.0000000001
 40
0.0
 40
0.0
 40
0.0
 40
0.0
 40
1.0
 40
1.0
 40
1.0
 40
1.0
 10
277.8758562676933
 20
200.7365635468441
 30
0.0
 10
278.6768175265471
 20
201.120311002339
 30
0.0
 10
279.6344012933971
 20
201.4460501215384
 30
0.0
 10
280.5607498022432
 20
201.3755476820402
 30
0.0
  0
SPLINE
  5
223
330
70
100
AcDbEntity
  8
Make2D__可见线__正切线
 62
    18
420
        0
370
    35
100
AcDbSpline
210
0.0
220
0.0
230
1.0
 70
     8
 71
     3
 72
    17
 73
    13
 74
     0
 42
0.0000000001
 43
0.0000000001
 40
0.0
 40
0.0
 40
0.0
 40
0.0
 40
1.0
 40
1.0
 40
1.0
 40
2.0
 40
2.0
 40
2.0
 40
3.0
 40
3.0
 40
3.0
 40
4.0
 40
4.0
 40
4.0
 40
4.0
 10
306.2414864983467
 20
192.578806591776
 30
0.0
 10
306.2080201504829
 20
192.6109342857236
 30
0.0
 10
306.1758924565339
 20
192.6439544156152
 30
0.0
 10
306.1451034165012
 20
192.6787594173927
 30
0.0
 10
306.129932005468
 20
192.6961619182814
 30
0.0
 10
306.1152068124085
 20
192.7135644191702
 30
0.0
 10
306.1009278373225
 20
192.7323055739732
 30
0.0
 10
306.0942345677486
 20
192.741676151375
 30
0.0
 10
306.087541298176
 20
192.7510467287762
 30
0.0
 10
306.0817404645466
 20
192.760863524149
 30
0.0
 10
306.0781707207735
 20
192.7662181398074
 30
0.0
 10
306.0652303996011
 20
192.7849592946114
 30
0.0
 10
306.0719236691731
 20
192.7925450001263
 30
0.0
  0
SPLINE
  5
224
330
70
100
AcDbEntity
  8
Make2D__可见线__正切线
 62
    18
420
        0
370
    35
100
AcDbSpline
210
0.0
220
0.0
230
1.0
 70
     8
 71
     3
 72
    14
 73
    10
 74
     0
 42
0.0000000001
 43
0.0000000001
 40
0.0
 40
0.0
 40
0.0
 40
0.0
 40
1.0
 40
1.0
 40
1.0
 40
2.0
 40
2.0
 40
2.0
 40
3.0
 40
3.0
 40
3.0
 40
3.0
 10
294.5608386582372
 20
202.0488906010441
 30
0.0
 10
294.5362966698054
 20
202.0506754729281
 30
0.0
 10
294.5251412205177
 20
202.090388872393
 30
0.0
 10
294.5206790408033
 20
202.1068989373384
 30
0.0
 10
294.5144319892023
 20
202.1309947078008
 30
0.0
 10
294.5113084634008
 20
202.1550904782612
 30
0.0
 10
294.5090773735426
 20
202.1800786846646
 30
0.0
 10
294.5055076297714
 20
202.2296088795023
 30
0.0
 10
294.5068462836851
 20
202.2786928563683
 30
0.0
 10
294.5113084634008
 20
202.328223051206
 30
0.0
  0
SPLINE
  5
225
330
70
100
AcDbEntity
  8
Make2D__可见线__正切线
 62
    18
420
        0
370
    35
100
AcDbSpline
210
0.0
220
0.0
230
1.0
 70
     8
 71
     3
 72
    14
 73
    10
 74
     0
 42
0.0000000001
 43
0.0000000001
 40
0.0
 40
0.0
 40
0.0
 40
0.0
 40
1.0
 40
1.0
 40
1.0
 40
2.0
 40
2.0
 40
2.0
 40
3.0
 40
3.0
 40
3.0
 40
3.0
 10
295.395712482924
 20
201.7807136001693
 30
0.0
 10
295.3783099820372
 20
201.7918690494558
 30
0.0
 10
295.3858956875524
 20
201.8275664871765
 30
0.0
 10
295.3890192133526
 20
201.8413992442916
 30
0.0
 10
295.39392761104
 20
201.8623714889534
 30
0.0
 10
295.4010670985842
 20
201.8824512976713
 30
0.0
 10
295.4090990220712
 20
201.9025311063892
 30
0.0
 10
295.4256090870173
 20
201.9422445058534
 30
0.0
 10
295.4456888957346
 20
201.9797268154601
 30
0.0
 10
295.4679997943094
 20
202.0167629070945
 30
0.0
  0
SPLINE
  5
226
330
70
100
AcDbEntity
  8
Make2D__可见线__正切线
 62
    18
420
        0
370
    35
100
AcDbSpline
210
0.0
220
0.0
230
1.0
 70
     8
 71
     3
 72
     8
 73
     4
 74
     0
 42
0.0000000001
 43
0.0000000001
 40
0.0
 40
0.0
 40
0.0
 40
0.0
 40
1.0
 40
1.0
 40
1.0
 40
1.0
 10
305.0456223347108
 20
196.0133463184555
 30
0.0
 10
304.4084230714013
 20
196.1213310675604
 30
0.0
 10
303.7141079077362
 20
195.9187481084972
 30
0.0
 10
303.2527185251999
 20
195.4555738540724
 30
0.0
  0
SPLINE
  5
227
330
70
100
AcDbEntity
  8
Make2D__可见线__正切线
 62
    18
420
        0
370
    35
100
AcDbSpline
210
0.0
220
0.0
230
1.0
 70
     8
 71
     3
 72
     8
 73
     4
 74
     0
 42
0.0000000001
 43
0.0000000001
 40
0.0
 40
0.0
 40
0.0
 40
0.0
 40
1.0
 40
1.0
 40
1.0
 40
1.0
 10
306.4355913159515
 20
193.2972175258986
 30
0.0
 10
306.3405468880195
 20
193.1075748880083
 30
0.0
 10
306.2227453435424
 20
192.9438128924679
 30
0.0
 10
306.0728161051164
 20
192.793437436069
 30
0.0
  0
SPLINE
  5
228
330
70
100
AcDbEntity
  8
Make2D__可见线__正切线
 62
    18
420
        0
370
    35
100
AcDbSpline
210
0.0
220
0.0
230
1.0
 70
     8
 71
     3
 72
    11
 73
     7
 74
     0
 42
0.0000000001
 43
0.0000000001
 40
0.0
 40
0.0
 40
0.0
 40
0.0
 40
1.0
 40
1.0
 40
1.0
 40
2.0
 40
2.0
 40
2.0
 40
2.0
 10
290.3115049155895
 20
205.7368821355376
 30
0.0
 10
289.9875506682741
 20
205.5490243695339
 30
0.0
 10
288.9920383738464
 20
205.4999403926698
 30
0.0
 10
288.6582673311608
 20
205.4883387254097
 30
0.0
 10
288.0964789050342
 20
205.4687051346628
 30
0.0
 10
287.5373677867363
 20
205.4794143659802
 30
0.0
 10
286.9764717965543
 20
205.5200202013858
 30
0.0
  0
SPLINE
  5
229
330
70
100
AcDbEntity
  8
Make2D__可见线__正切线
 62
    18
420
        0
370
    35
100
AcDbSpline
210
0.0
220
0.0
230
1.0
 70
     8
 71
     3
 72
     8
 73
     4
 74
     0
 42
0.0000000001
 43
0.0000000001
 40
0.0
 40
0.0
 40
0.0
 40
0.0
 40
1.0
 40
1.0
 40
1.0
 40
1.0
 10
267.6784369648717
 20
155.4632881578648
 30
0.0
 10
267.9582156330045
 20
155.4048336035982
 30
0.0
 10
268.238886737082
 20
155.3584269345614
 30
0.0
 10
268.5226813669596
 20
155.3240681507562
 30
0.0
  0
SPLINE
  5
22A
330
70
100
AcDbEntity
  8
Make2D__可见线__正切线
 62
    18
420
        0
370
    35
100
AcDbSpline
210
0.0
220
0.0
230
1.0
 70
     8
 71
     3
 72
    14
 73
    10
 74
     0
 42
0.0000000001
 43
0.0000000001
 40
0.0
 40
0.0
 40
0.0
 40
0.0
 40
1.0
 40
1.0
 40
1.0
 40
2.0
 40
2.0
 40
2.0
 40
3.0
 40
3.0
 40
3.0
 40
3.0
 10
254.5756924495758
 20
179.699171062231
 30
0.0
 10
254.7519485483188
 20
182.9052471875013
 30
0.0
 10
256.1450410553602
 20
185.9377445218545
 30
0.0
 10
258.6068256041587
 20
188.0519252708503
 30
0.0
 10
259.8187536147672
 20
189.0925055803999
 30
0.0
 10
261.2337108024124
 20
189.8582156195046
 30
0.0
 10
262.7602224829351
 20
190.3200512200137
 30
0.0
 10
264.2987820486862
 20
190.785902782265
 30
0.0
 10
265.8757163599892
 20
190.9327084948903
 30
0.0
 10
267.4727304800069
 20
190.7934884877803
 30
0.0
  0
SPLINE
  5
22B
330
70
100
AcDbEntity
  8
Make2D__可见线__正切线
 62
    18
420
        0
370
    35
100
AcDbSpline
210
0.0
220
0.0
230
1.0
 70
     8
 71
     3
 72
    14
 73
    10
 74
     0
 42
0.0000000001
 43
0.0000000001
 40
0.0
 40
0.0
 40
0.0
 40
0.0
 40
1.0
 40
1.0
 40
1.0
 40
2.0
 40
2.0
 40
2.0
 40
3.0
 40
3.0
 40
3.0
 40
3.0
 10
279.3358814704605
 20
177.1851790107683
 30
0.0
 10
279.3135705718857
 20
177.1856252287386
 30
0.0
 10
279.2917058912818
 20
177.1865176646825
 30
0.0
 10
279.2693949927051
 20
177.189641190484
 30
0.0
 10
279.258239543418
 20
177.190979844397
 30
0.0
 10
279.2475303121012
 20
177.1927647162835
 30
0.0
 10
279.2368210807864
 20
177.195442024114
 30
0.0
 10
279.2301278112138
 20
177.197226895998
 30
0.0
 10
279.2104942204681
 20
177.2021352936847
 30
0.0
 10
279.2100480024946
 20
177.2123983070311
 30
0.0
  0
SPLINE
  5
22C
330
70
100
AcDbEntity
  8
Make2D__可见线__正切线
 62
    18
420
        0
370
    35
100
AcDbSpline
210
0.0
220
0.0
230
1.0
 70
     8
 71
     3
 72
     8
 73
     4
 74
     0
 42
0.0000000001
 43
0.0000000001
 40
0.0
 40
0.0
 40
0.0
 40
0.0
 40
1.0
 40
1.0
 40
1.0
 40
1.0
 10
279.2765344802487
 20
176.233842295518
 30
0.0
 10
279.2823353138794
 20
176.170479343564
 30
0.0
 10
279.3564074971494
 20
176.1414751754159
 30
0.0
 10
279.4068301279291
 20
176.1338894699
 30
0.0
  0
SPLINE
  5
22D
330
70
100
AcDbEntity
  8
Make2D__可见线__正切线
 62
    18
420
        0
370
    35
100
AcDbSpline
210
0.0
220
0.0
230
1.0
 70
     8
 71
     3
 72
     8
 73
     4
 74
     0
 42
0.0000000001
 43
0.0000000001
 40
0.0
 40
0.0
 40
0.0
 40
0.0
 40
1.0
 40
1.0
 40
1.0
 40
1.0
 10
279.3006302507101
 20
176.0143030535376
 30
0.0
 10
279.3095546101409
 20
175.9482627937551
 30
0.0
 10
279.3769335238383
 20
175.9134577919751
 30
0.0
 10
279.4336032062203
 20
175.9049796505185
 30
0.0
  0
SPLINE
  5
22E
330
70
100
AcDbEntity
  8
Make2D__可见线__正切线
 62
    18
420
        0
370
    35
100
AcDbSpline
210
0.0
220
0.0
230
1.0
 70
     8
 71
     3
 72
    14
 73
    10
 74
     0
 42
0.0000000001
 43
0.0000000001
 40
0.0
 40
0.0
 40
0.0
 40
0.0
 40
1.0
 40
1.0
 40
1.0
 40
2.0
 40
2.0
 40
2.0
 40
3.0
 40
3.0
 40
3.0
 40
3.0
 10
254.7916619477837
 20
170.6913688714443
 30
0.0
 10
254.7559645100636
 20
170.6949386152161
 30
0.0
 10
254.7211595082848
 20
170.7002932308745
 30
0.0
 10
254.6863545065086
 20
170.7092175903033
 30
0.0
 10
254.6693982235908
 20
170.7132335520487
 30
0.0
 10
254.652441940675
 20
170.7185881677058
 30
0.0
 10
254.635931875727
 20
170.7261738732211
 30
0.0
 10
254.6238839904985
 20
170.7315284888782
 30
0.0
 10
254.5980033481506
 20
170.7440225920815
 30
0.0
 10
254.6038041817793
 20
170.7627637468852
 30
0.0
  0
SPLINE
  5
22F
330
70
100
AcDbEntity
  8
Make2D__可见线__正切线
 62
    18
420
        0
370
    35
100
AcDbSpline
210
0.0
220
0.0
230
1.0
 70
     8
 71
     3
 72
    14
 73
    10
 74
     0
 42
0.0000000001
 43
0.0000000001
 40
0.0
 40
0.0
 40
0.0
 40
0.0
 40
1.0
 40
1.0
 40
1.0
 40
2.0
 40
2.0
 40
2.0
 40
3.0
 40
3.0
 40
3.0
 40
3.0
 10
254.8367299629056
 20
174.5596324664288
 30
0.0
 10
254.8023711790985
 20
174.5632022102006
 30
0.0
 10
254.7684586132649
 20
174.568556825858
 30
0.0
 10
254.7349922654036
 20
174.5774811852879
 30
0.0
 10
254.7180359824859
 20
174.5819433650023
 30
0.0
 10
254.7019721355114
 20
174.5868517626897
 30
0.0
 10
254.6859082885363
 20
174.593545032263
 30
0.0
 10
254.6760914931628
 20
174.5975609940061
 30
0.0
 10
254.647979760958
 20
174.6100550972078
 30
0.0
 10
254.647533542987
 20
174.6252265082403
 30
0.0
  0
SPLINE
  5
230
330
70
100
AcDbEntity
  8
Make2D__可见线__正切线
 62
    18
420
        0
370
    35
100
AcDbSpline
210
0.0
220
0.0
230
1.0
 70
     8
 71
     3
 72
     8
 73
     4
 74
     0
 42
0.0000000001
 43
0.0000000001
 40
0.0
 40
0.0
 40
0.0
 40
0.0
 40
1.0
 40
1.0
 40
1.0
 40
1.0
 10
254.7894308579255
 20
178.3765809946884
 30
0.0
 10
254.7015259175398
 20
178.3962145854341
 30
0.0
 10
254.5899714246637
 20
178.4756413843625
 30
0.0
 10
254.5814932832045
 20
178.5773790818664
 30
0.0
  0
SPLINE
  5
231
330
70
100
AcDbEntity
  8
Make2D__可见线__正切线
 62
    18
420
        0
370
    35
100
AcDbSpline
210
0.0
220
0.0
230
1.0
 70
     8
 71
     3
 72
     8
 73
     4
 74
     0
 42
0.0000000001
 43
0.0000000001
 40
0.0
 40
0.0
 40
0.0
 40
0.0
 40
1.0
 40
1.0
 40
1.0
 40
1.0
 10
254.635931875727
 20
177.2405100392347
 30
0.0
 10
254.621652900641
 20
177.6916364084271
 30
0.0
 10
254.6051428356949
 20
178.1427627776188
 30
0.0
 10
254.5810470652335
 20
178.5934429288403
 30
0.0
  0
SPLINE
  5
232
330
70
100
AcDbEntity
  8
Make2D__可见线__正切线
 62
    18
420
        0
370
    35
100
AcDbSpline
210
0.0
220
0.0
230
1.0
 70
     8
 71
     3
 72
     8
 73
     4
 74
     0
 42
0.0000000001
 43
0.0000000001
 40
0.0
 40
0.0
 40
0.0
 40
0.0
 40
1.0
 40
1.0
 40
1.0
 40
1.0
 10
254.635931875727
 20
177.2262310641461
 30
0.0
 10
254.6421789273292
 20
177.1236009307002
 30
0.0
 10
254.7532872022344
 20
177.0406043879999
 30
0.0
 10
254.8420845785627
 20
177.0196321433394
 30
0.0
  0
SPLINE
  5
233
330
70
100
AcDbEntity
  8
Make2D__可见线__正切线
 62
    18
420
        0
370
    35
100
AcDbSpline
210
0.0
220
0.0
230
1.0
 70
     8
 71
     3
 72
    11
 73
     7
 74
     0
 42
0.0000000001
 43
0.0000000001
 40
0.0
 40
0.0
 40
0.0
 40
0.0
 40
1.0
 40
1.0
 40
1.0
 40
2.0
 40
2.0
 40
2.0
 40
2.0
 10
254.8398534887052
 20
174.8965270349146
 30
0.0
 10
254.804156050985
 20
174.9014354326013
 30
0.0
 10
254.7693510492082
 20
174.908574920145
 30
0.0
 10
254.7349922654036
 20
174.9206228053754
 30
0.0
 10
254.7149124566844
 20
174.9277622929203
 30
0.0
 10
254.6528881586466
 20
174.9500731914964
 30
0.0
 10
254.6511032867601
 20
174.9817546674724
 30
0.0
  0
SPLINE
  5
234
330
70
100
AcDbEntity
  8
Make2D__可见线__正切线
 62
    18
420
        0
370
    35
100
AcDbSpline
210
0.0
220
0.0
230
1.0
 70
     8
 71
     3
 72
     8
 73
     4
 74
     0
 42
0.0000000001
 43
0.0000000001
 40
0.0
 40
0.0
 40
0.0
 40
0.0
 40
1.0
 40
1.0
 40
1.0
 40
1.0
 10
254.5810470652335
 20
178.5934429288403
 30
0.0
 10
254.5788159753747
 20
178.640742033821
 30
0.0
 10
254.5761386675468
 20
178.6875949208283
 30
0.0
 10
254.5739075776886
 20
178.7348940258071
 30
0.0
  0
SPLINE
  5
235
330
70
100
AcDbEntity
  8
Make2D__可见线__正切线
 62
    18
420
        0
370
    35
100
AcDbSpline
210
0.0
220
0.0
230
1.0
 70
     8
 71
     3
 72
    14
 73
    10
 74
     0
 42
0.0000000001
 43
0.0000000001
 40
0.0
 40
0.0
 40
0.0
 40
0.0
 40
1.0
 40
1.0
 40
1.0
 40
2.0
 40
2.0
 40
2.0
 40
3.0
 40
3.0
 40
3.0
 40
3.0
 10
254.5752462316022
 20
179.6956013184592
 30
0.0
 10
254.5743537956608
 20
179.6786450355427
 30
0.0
 10
254.6002344380088
 20
179.6657047143684
 30
0.0
 10
254.6113898872953
 20
179.6603500987103
 30
0.0
 10
254.6274537342697
 20
179.6523181752225
 30
0.0
 10
254.6439637992139
 20
179.6469635595654
 30
0.0
 10
254.6609200821317
 20
179.6420551618793
 30
0.0
 10
254.6952788659388
 20
179.6322383665068
 30
0.0
 10
254.730083867715
 20
179.6255450969332
 30
0.0
 10
254.7648888694944
 20
179.6206366992484
 30
0.0
  0
SPLINE
  5
236
330
70
100
AcDbEntity
  8
Make2D__可见线__正切线
 62
    18
420
        0
370
    35
100
AcDbSpline
210
0.0
220
0.0
230
1.0
 70
     8
 71
     3
 72
     8
 73
     4
 74
     0
 42
0.0000000001
 43
0.0000000001
 40
0.0
 40
0.0
 40
0.0
 40
0.0
 40
1.0
 40
1.0
 40
1.0
 40
1.0
 10
254.7751518828382
 20
178.5537295293767
 30
0.0
 10
254.6966175198537
 20
178.5702395943215
 30
0.0
 10
254.5823857191478
 20
178.6367260720757
 30
0.0
 10
254.5739075776886
 20
178.7313242820353
 30
0.0
  0
ENDSEC
  0
SECTION
  2
OBJECTS
  0
DICTIONARY
  5
C
330
0
100
AcDbDictionary
281
     1
  3
ACAD_COLOR
350
63
  3
ACAD_DETAILVIEWSTYLE
350
6A
  3
ACAD_GROUP
350
D
  3
ACAD_LAYOUT
350
62
  3
ACAD_MATERIAL
350
10
  3
ACAD_MLEADERSTYLE
350
66
  3
ACAD_MLINESTYLE
350
5F
  3
ACAD_PLOTSETTINGS
350
61
  3
ACAD_PLOTSTYLENAME
350
E
  3
ACAD_SCALELIST
350
42
  3
ACAD_SECTIONVIEWSTYLE
350
68
  3
ACAD_TABLESTYLE
350
64
  3
ACAD_VISUALSTYLE
350
29
  3
ACDB_RECOMPOSE_DATA
350
23F
  3
AcDbVariableDictionary
350
237
  0
DICTIONARY
  5
63
102
{ACAD_REACTORS
330
C
102
}
330
C
100
AcDbDictionary
281
     1
  0
DICTIONARY
  5
6A
102
{ACAD_REACTORS
330
C
102
}
330
C
100
AcDbDictionary
281
     1
  3
Imperial24
350
6B
  0
DICTIONARY
  5
D
102
{ACAD_REACTORS
330
C
102
}
330
C
100
AcDbDictionary
281
     1
  0
DICTIONARY
  5
62
102
{ACAD_REACTORS
330
C
102
}
330
C
100
AcDbDictionary
281
     1
  3
Layout1
350
6F
  3
Layout2
350
77
  3
Model
350
73
  0
DICTIONARY
  5
10
102
{ACAD_REACTORS
330
C
102
}
330
C
100
AcDbDictionary
281
     1
  3
ByBlock
350
19
  3
ByLayer
350
11
  3
Global
350
21
  0
DICTIONARY
  5
66
102
{ACAD_REACTORS
330
C
102
}
330
C
100
AcDbDictionary
281
     1
  3
Standard
350
67
  0
DICTIONARY
  5
5F
102
{ACAD_REACTORS
330
C
102
}
330
C
100
AcDbDictionary
281
     1
  3
Standard
350
60
  0
DICTIONARY
  5
61
102
{ACAD_REACTORS
330
C
102
}
330
C
100
AcDbDictionary
281
     1
  0
ACDBDICTIONARYWDFLT
  5
E
102
{ACAD_REACTORS
330
C
102
}
330
C
100
AcDbDictionary
281
     1
  3
Normal
350
F
100
AcDbDictionaryWithDefault
340
F
  0
DICTIONARY
  5
42
102
{ACAD_REACTORS
330
C
102
}
330
C
100
AcDbDictionary
281
     1
  3
A0
350
43
  3
A1
350
44
  3
A2
350
45
  3
A3
350
46
  3
A4
350
47
  3
A5
350
48
  3
A6
350
49
  3
A7
350
4A
  3
A8
350
4B
  3
A9
350
4C
  3
B0
350
4D
  3
B1
350
4E
  3
B2
350
4F
  3
B3
350
50
  3
B4
350
51
  3
B5
350
52
  3
B6
350
53
  0
DICTIONARY
  5
68
102
{ACAD_REACTORS
330
C
102
}
330
C
100
AcDbDictionary
281
     1
  3
Imperial24
350
69
  0
DICTIONARY
  5
64
102
{ACAD_REACTORS
330
C
102
}
330
C
100
AcDbDictionary
281
     1
  3
Standard
350
65
  0
DICTIONARY
  5
29
102
{ACAD_REACTORS
330
C
102
}
330
C
100
AcDbDictionary
281
     1
  3
2dWireframe
350
2F
  3
Basic
350
2E
  3
Brighten
350
35
  3
ColorChange
350
39
  3
Conceptual
350
32
  3
Dim
350
34
  3
EdgeColorOff
350
41
  3
Facepattern
350
38
  3
Flat
350
2A
  3
FlatWithEdges
350
2B
  3
Gouraud
350
2C
  3
GouraudWithEdges
350
2D
  3
Hidden
350
31
  3
JitterOff
350
3F
  3
Linepattern
350
37
  3
OverhangOff
350
40
  3
Realistic
350
33
  3
Shaded
350
3E
  3
Shaded with edges
350
3D
  3
Shades of Gray
350
3A
  3
Sketchy
350
3B
  3
Thicken
350
36
  3
Wireframe
350
30
  3
X-Ray
350
3C
  0
XRECORD
  5
23F
102
{ACAD_REACTORS
330
C
102
}
330
C
100
AcDbXrecord
280
     1
 90
        1
330
65
  0
DICTIONARY
  5
237
102
{ACAD_REACTORS
330
C
102
}
330
C
100
AcDbDictionary
281
     1
  3
CANNOSCALE
350
23C
  3
CMLEADERSTYLE
350
239
  3
CTABLESTYLE
350
238
  3
CVIEWDETAILSTYLE
350
23A
  3
CVIEWSECTIONSTYLE
350
23B
  0
ACDBDETAILVIEWSTYLE
  5
6B
102
{ACAD_REACTORS
330
6A
102
}
330
6A
100
AcDbModelDocViewStyle
 70
     0
  3
Imperial24
290
     1
300
Imperial24
 90
        0
100
AcDbDetailViewStyle
 70
     0
 71
     0
 90
        3
 71
     1
340
55
 62
   256
 40
0.24
340
0
 62
   256
 40
0.24
300

 40
0.36
280
     3
 71
     2
340
5D
 90
       25
 62
   256
 71
     3
340
55
 62
   256
 40
0.24
 90
        1
 40
0.75
 90
        1
300
%<\AcVar ViewType \f "%tc1">% %<\AcVar ViewDetailId>%\PSCALE %<\AcVar ViewScale \f "%sn">%
 71
     4
340
5D
 90
       25
 62
   256
340
5D
 90
       25
 62
   256
280
     0
  0
LAYOUT
  5
6F
102
{ACAD_REACTORS
330
62
102
}
330
62
100
AcDbPlotSettings
  1

  2

  4

  6

 40
0.0
 41
0.0
 42
0.0
 43
0.0
 44
0.0
 45
0.0
 46
0.0
 47
0.0
 48
0.0
 49
0.0
140
0.0
141
0.0
142
1.0
143
1.0
 70
   688
 72
     0
 73
     0
 74
     5
  7

 75
    16
147
1.0
 76
     0
 77
     2
 78
   300
148
0.0
149
0.0
100
AcDbLayout
  1
Layout1
 70
     1
 71
     1
 10
0.0
 20
0.0
 11
12.0
 21
9.0
 12
0.0
 22
0.0
 32
0.0
 14
0.0
 24
0.0
 34
0.0
 15
0.0
 25
0.0
 35
0.0
146
0.0
 13
0.0
 23
0.0
 33
0.0
 16
1.0
 26
0.0
 36
0.0
 17
0.0
 27
1.0
 37
0.0
 76
     0
330
6C
  0
LAYOUT
  5
77
102
{ACAD_REACTORS
330
62
102
}
330
62
100
AcDbPlotSettings
  1

  2

  4

  6

 40
0.0
 41
0.0
 42
0.0
 43
0.0
 44
0.0
 45
0.0
 46
0.0
 47
0.0
 48
0.0
 49
0.0
140
0.0
141
0.0
142
1.0
143
1.0
 70
   688
 72
     0
 73
     0
 74
     5
  7

 75
    16
147
1.0
 76
     0
 77
     2
 78
   300
148
0.0
149
0.0
100
AcDbLayout
  1
Layout2
 70
     1
 71
     2
 10
0.0
 20
0.0
 11
12.0
 21
9.0
 12
0.0
 22
0.0
 32
0.0
 14
0.0
 24
0.0
 34
0.0
 15
0.0
 25
0.0
 35
0.0
146
0.0
 13
0.0
 23
0.0
 33
0.0
 16
1.0
 26
0.0
 36
0.0
 17
0.0
 27
1.0
 37
0.0
 76
     0
330
74
  0
LAYOUT
  5
73
102
{ACAD_REACTORS
330
62
102
}
330
62
100
AcDbPlotSettings
  1

  2

  4

  6

 40
0.0
 41
0.0
 42
0.0
 43
0.0
 44
0.0
 45
0.0
 46
0.0
 47
0.0
 48
0.0
 49
0.0
140
0.0
141
0.0
142
1.0
143
1.0
 70
  1712
 72
     0
 73
     0
 74
     0
  7

 75
     0
147
1.0
 76
     0
 77
     2
 78
   300
148
0.0
149
0.0
100
AcDbLayout
  1
Model
 70
     1
 71
     0
 10
0.0
 20
0.0
 11
12.0
 21
9.0
 12
0.0
 22
0.0
 32
0.0
 14
0.0
 24
0.0
 34
0.0
 15
0.0
 25
0.0
 35
0.0
146
0.0
 13
0.0
 23
0.0
 33
0.0
 16
1.0
 26
0.0
 36
0.0
 17
0.0
 27
1.0
 37
0.0
 76
     0
330
70
  0
MATERIAL
  5
19
102
{ACAD_XDICTIONARY
360
1A
102
}
102
{ACAD_REACTORS
330
10
102
}
330
10
100
AcDbMaterial
  1
ByBlock
 72
     0
 43
0.0208333333333333
 43
0.0
 43
0.0
 43
0.0
 43
0.0
 43
0.0208333333333333
 43
0.0
 43
0.0
 43
0.0
 43
0.0
 43
1.0
 43
0.0
 43
0.0
 43
0.0
 43
0.0
 43
1.0
 77
     0
 47
0.0208333333333333
 47
0.0
 47
0.0
 47
0.0
 47
0.0
 47
0.0208333333333333
 47
0.0
 47
0.0
 47
0.0
 47
0.0
 47
1.0
 47
0.0
 47
0.0
 47
0.0
 47
0.0
 47
1.0
171
     0
 49
0.0208333333333333
 49
0.0
 49
0.0
 49
0.0
 49
0.0
 49
0.0208333333333333
 49
0.0
 49
0.0
 49
0.0
 49
0.0
 49
1.0
 49
0.0
 49
0.0
 49
0.0
 49
0.0
 49
1.0
175
     0
142
0.0208333333333333
142
0.0
142
0.0
142
0.0
142
0.0
142
0.0208333333333333
142
0.0
142
0.0
142
0.0
142
0.0
142
1.0
142
0.0
142
0.0
142
0.0
142
0.0
142
1.0
179
     0
144
0.0208333333333333
144
0.0
144
0.0
144
0.0
144
0.0
144
0.0208333333333333
144
0.0
144
0.0
144
0.0
144
0.0
144
1.0
144
0.0
144
0.0
144
0.0
144
0.0
144
1.0
147
0.0208333333333333
147
0.0
147
0.0
147
0.0
147
0.0
147
0.0208333333333333
147
0.0
147
0.0
147
0.0
147
0.0
147
1.0
147
0.0
147
0.0
147
0.0
147
0.0
147
1.0
  0
MATERIAL
  5
11
102
{ACAD_XDICTIONARY
360
12
102
}
102
{ACAD_REACTORS
330
10
102
}
330
10
100
AcDbMaterial
  1
ByLayer
 72
     0
 43
0.0208333333333333
 43
0.0
 43
0.0
 43
0.0
 43
0.0
 43
0.0208333333333333
 43
0.0
 43
0.0
 43
0.0
 43
0.0
 43
1.0
 43
0.0
 43
0.0
 43
0.0
 43
0.0
 43
1.0
 77
     0
 47
0.0208333333333333
 47
0.0
 47
0.0
 47
0.0
 47
0.0
 47
0.0208333333333333
 47
0.0
 47
0.0
 47
0.0
 47
0.0
 47
1.0
 47
0.0
 47
0.0
 47
0.0
 47
0.0
 47
1.0
171
     0
 49
0.0208333333333333
 49
0.0
 49
0.0
 49
0.0
 49
0.0
 49
0.0208333333333333
 49
0.0
 49
0.0
 49
0.0
 49
0.0
 49
1.0
 49
0.0
 49
0.0
 49
0.0
 49
0.0
 49
1.0
175
     0
142
0.0208333333333333
142
0.0
142
0.0
142
0.0
142
0.0
142
0.0208333333333333
142
0.0
142
0.0
142
0.0
142
0.0
142
1.0
142
0.0
142
0.0
142
0.0
142
0.0
142
1.0
179
     0
144
0.0208333333333333
144
0.0
144
0.0
144
0.0
144
0.0
144
0.0208333333333333
144
0.0
144
0.0
144
0.0
144
0.0
144
1.0
144
0.0
144
0.0
144
0.0
144
0.0
144
1.0
147
0.0208333333333333
147
0.0
147
0.0
147
0.0
147
0.0
147
0.0208333333333333
147
0.0
147
0.0
147
0.0
147
0.0
147
1.0
147
0.0
147
0.0
147
0.0
147
0.0
147
1.0
  0
MATERIAL
  5
21
102
{ACAD_XDICTIONARY
360
22
102
}
102
{ACAD_REACTORS
330
10
102
}
330
10
100
AcDbMaterial
  1
Global
 72
     0
 43
0.0208333333333333
 43
0.0
 43
0.0
 43
0.0
 43
0.0
 43
0.0208333333333333
 43
0.0
 43
0.0
 43
0.0
 43
0.0
 43
1.0
 43
0.0
 43
0.0
 43
0.0
 43
0.0
 43
1.0
 77
     0
 47
0.0208333333333333
 47
0.0
 47
0.0
 47
0.0
 47
0.0
 47
0.0208333333333333
 47
0.0
 47
0.0
 47
0.0
 47
0.0
 47
1.0
 47
0.0
 47
0.0
 47
0.0
 47
0.0
 47
1.0
171
     0
 49
0.0208333333333333
 49
0.0
 49
0.0
 49
0.0
 49
0.0
 49
0.0208333333333333
 49
0.0
 49
0.0
 49
0.0
 49
0.0
 49
1.0
 49
0.0
 49
0.0
 49
0.0
 49
0.0
 49
1.0
175
     0
142
0.0208333333333333
142
0.0
142
0.0
142
0.0
142
0.0
142
0.0208333333333333
142
0.0
142
0.0
142
0.0
142
0.0
142
1.0
142
0.0
142
0.0
142
0.0
142
0.0
142
1.0
179
     0
144
0.0208333333333333
144
0.0
144
0.0
144
0.0
144
0.0
144
0.0208333333333333
144
0.0
144
0.0
144
0.0
144
0.0
144
1.0
144
0.0
144
0.0
144
0.0
144
0.0
144
1.0
147
0.0208333333333333
147
0.0
147
0.0
147
0.0
147
0.0
147
0.0208333333333333
147
0.0
147
0.0
147
0.0
147
0.0
147
1.0
147
0.0
147
0.0
147
0.0
147
0.0
147
1.0
  0
MLEADERSTYLE
  5
67
102
{ACAD_REACTORS
330
66
102
}
330
66
100
AcDbMLeaderStyle
179
     2
170
     2
171
     1
172
     0
 90
        2
 40
0.0
 41
0.0
173
     1
 91
-1056964608
340
5B
 92
       -2
290
     1
 42
0.09
291
     1
 43
0.36
  3
Standard
 44
0.18
300

342
55
174
     1
178
     6
175
     1
176
     0
 93
-1056964608
 45
0.18
292
     0
297
     0
 46
0.18
 94
-1056964608
 47
1.0
 49
1.0
140
1.0
293
     1
141
0.0
294
     1
177
     0
142
1.0
295
     1
296
     0
143
0.125
271
     0
272
     9
273
     9
298
     1
  0
MLINESTYLE
  5
60
102
{ACAD_REACTORS
330
5F
102
}
330
5F
100
AcDbMlineStyle
  2
STANDARD
 70
     0
  3

 62
   256
 51
90.0
 52
90.0
 71
     2
 49
0.5
 62
   256
  6
BYLAYER
 49
-0.5
 62
   256
  6
BYLAYER
  0
ACDBPLACEHOLDER
  5
F
102
{ACAD_REACTORS
330
E
102
}
330
E
  0
SCALE
  5
43
102
{ACAD_REACTORS
330
42
102
}
330
42
100
AcDbScale
 70
     0
300
1:1
140
1.0
141
1.0
290
     1
  0
SCALE
  5
44
102
{ACAD_REACTORS
330
42
102
}
330
42
100
AcDbScale
 70
     0
300
1/128" = 1'-0"
140
0.0078125
141
12.0
290
     0
  0
SCALE
  5
45
102
{ACAD_REACTORS
330
42
102
}
330
42
100
AcDbScale
 70
     0
300
1/64" = 1'-0"
140
0.015625
141
12.0
290
     0
  0
SCALE
  5
46
102
{ACAD_REACTORS
330
42
102
}
330
42
100
AcDbScale
 70
     0
300
1/32" = 1'-0"
140
0.03125
141
12.0
290
     0
  0
SCALE
  5
47
102
{ACAD_REACTORS
330
42
102
}
330
42
100
AcDbScale
 70
     0
300
1/16" = 1'-0"
140
0.0625
141
12.0
290
     0
  0
SCALE
  5
48
102
{ACAD_REACTORS
330
42
102
}
330
42
100
AcDbScale
 70
     0
300
3/32" = 1'-0"
140
0.09375
141
12.0
290
     0
  0
SCALE
  5
49
102
{ACAD_REACTORS
330
42
102
}
330
42
100
AcDbScale
 70
     0
300
1/8" = 1'-0"
140
0.125
141
12.0
290
     0
  0
SCALE
  5
4A
102
{ACAD_REACTORS
330
42
102
}
330
42
100
AcDbScale
 70
     0
300
3/16" = 1'-0"
140
0.1875
141
12.0
290
     0
  0
SCALE
  5
4B
102
{ACAD_REACTORS
330
42
102
}
330
42
100
AcDbScale
 70
     0
300
1/4" = 1'-0"
140
0.25
141
12.0
290
     0
  0
SCALE
  5
4C
102
{ACAD_REACTORS
330
42
102
}
330
42
100
AcDbScale
 70
     0
300
3/8" = 1'-0"
140
0.375
141
12.0
290
     0
  0
SCALE
  5
4D
102
{ACAD_REACTORS
330
42
102
}
330
42
100
AcDbScale
 70
     0
300
1/2" = 1'-0"
140
0.5
141
12.0
290
     0
  0
SCALE
  5
4E
102
{ACAD_REACTORS
330
42
102
}
330
42
100
AcDbScale
 70
     0
300
3/4" = 1'-0"
140
0.75
141
12.0
290
     0
  0
SCALE
  5
4F
102
{ACAD_REACTORS
330
42
102
}
330
42
100
AcDbScale
 70
     0
300
1" = 1'-0"
140
1.0
141
12.0
290
     0
  0
SCALE
  5
50
102
{ACAD_REACTORS
330
42
102
}
330
42
100
AcDbScale
 70
     0
300
1-1/2" = 1'-0"
140
1.5
141
12.0
290
     0
  0
SCALE
  5
51
102
{ACAD_REACTORS
330
42
102
}
330
42
100
AcDbScale
 70
     0
300
3" = 1'-0"
140
3.0
141
12.0
290
     0
  0
SCALE
  5
52
102
{ACAD_REACTORS
330
42
102
}
330
42
100
AcDbScale
 70
     0
300
6" = 1'-0"
140
6.0
141
12.0
290
     0
  0
SCALE
  5
53
102
{ACAD_REACTORS
330
42
102
}
330
42
100
AcDbScale
 70
     0
300
1'-0" = 1'-0"
140
12.0
141
12.0
290
     0
  0
ACDBSECTIONVIEWSTYLE
  5
69
102
{ACAD_REACTORS
330
68
102
}
330
68
100
AcDbModelDocViewStyle
 70
     0
  3
Imperial24
290
     1
300
Imperial24
 90
        0
100
AcDbSectionViewStyle
 70
     0
 71
     0
 90
       78
 71
     1
340
55
 62
   256
 40
0.24
340
0
340
0
 62
   256
 40
0.24
300
I, O, Q, S, X, Z
 40
0.48
 90
        3
 40
0.18
 90
        1
 71
     2
340
5D
 90
       25
 62
   256
340
5D
 90
       50
 62
   256
 40
0.24
 40
0.0
 40
0.24
 71
     3
340
55
 62
   256
 40
0.24
 90
        1
 40
0.75
 90
        1
300
%<\AcVar ViewType \f "%tc1">% %<\AcVar ViewSectionStartId>%-%<\AcVar ViewSectionEndId>%\PSCALE %<\AcVar ViewScale \f "%sn">%
 71
     4
 62
   256
 62
   257
300
ANSI31
 40
1.0
 90
        0
290
     0
290
     0
 90
        6
 40
0.0
 40
1.570796326794896
 40
0.2617993877991494
 40
1.308996938995747
 40
-0.2617993877991494
 40
1.832595714594046
  0
TABLESTYLE
  5
65
102
{ACAD_XDICTIONARY
360
23D
102
}
102
{ACAD_REACTORS
330
64
102
}
330
64
100
AcDbTableStyle
280
     0
  3
Standard
 70
     0
 71
     0
 40
0.06
 41
0.06
280
     0
281
     0
  7
Standard
140
0.18
170
     2
 62
     0
 63
     7
283
     0
 90
      512
 91
        0
  1

274
    -2
284
     1
 64
     0
275
    -2
285
     1
 65
     0
276
    -2
286
     1
 66
     0
277
    -2
287
     1
 67
     0
278
    -2
288
     1
 68
     0
279
    -2
289
     1
 69
     0
  7
Standard
140
0.25
170
     5
 62
     0
 63
     7
283
     0
 90
      512
 91
        0
  1

274
    -2
284
     1
 64
     0
275
    -2
285
     1
 65
     0
276
    -2
286
     1
 66
     0
277
    -2
287
     1
 67
     0
278
    -2
288
     1
 68
     0
279
    -2
289
     1
 69
     0
  7
Standard
140
0.18
170
     5
 62
     0
 63
     7
283
     0
 90
      512
 91
        0
  1

274
    -2
284
     1
 64
     0
275
    -2
285
     1
 65
     0
276
    -2
286
     1
 66
     0
277
    -2
287
     1
 67
     0
278
    -2
288
     1
 68
     0
279
    -2
289
     1
 69
     0
  0
VISUALSTYLE
  5
2F
102
{ACAD_REACTORS
330
29
102
}
330
29
100
AcDbVisualStyle
  2
2dWireframe
 70
     4
177
     3
291
     0
 70
    58
 90
        0
176
     1
 90
        2
176
     1
 90
        0
176
     1
 90
        0
176
     1
 40
0.6
176
     1
 40
30.0
176
     1
 62
     7
420
 16777215
176
     1
 90
        1
176
     1
 90
        4
176
     1
 62
     7
176
     1
 62
   257
176
     1
 90
        1
176
     1
 90
        1
176
     1
 40
1.0
176
     1
 90
        0
176
     1
 62
   257
176
     1
 40
1.0
176
     1
 90
        1
176
     1
 90
        6
176
     1
 90
        2
176
     1
 62
     7
176
     1
 90
        5
176
     1
 90
        0
176
     1
 90
        0
176
     1
290
     0
176
     1
 90
        1
176
     1
 40
0.0
176
     1
 90
        0
176
     1
290
     1
176
     1
290
     1
176
     1
290
     0
176
     1
290
     0
176
     1
290
     0
176
     1
290
     0
176
     1
290
     0
176
     1
290
     0
176
     1
290
     0
176
     1
 90
       50
176
     1
 40
0.0
176
     1
 40
1.0
176
     1
 90
        0
176
     1
 62
    18
420
        0
176
     1
 90
       50
176
     1
 90
        3
176
     1
 62
     5
420
      255
176
     1
290
     0
176
     1
 90
       50
176
     1
 90
       50
176
     1
 90
       50
176
     1
290
     0
176
     1
 90
       50
176
     1
 62
   256
176
     0
 40
1.0
176
     0
 90
        2
176
     1
  1
strokes_ogs.tif
176
     1
290
     0
176
     1
 40
1.0
176
     1
 40
1.0
176
     1
  0
VISUALSTYLE
  5
2E
102
{ACAD_REACTORS
330
29
102
}
330
29
100
AcDbVisualStyle
  2
Basic
 70
     7
177
     3
291
     1
 70
    58
 90
        1
176
     1
 90
        0
176
     1
 90
        1
176
     1
 90
        0
176
     1
 40
0.6
176
     1
 40
30.0
176
     1
 62
     7
420
 16777215
176
     1
 90
        0
176
     1
 90
        4
176
     1
 62
     7
176
     1
 62
   257
176
     1
 90
        1
176
     1
 90
        1
176
     1
 40
1.0
176
     1
 90
        8
176
     1
 62
     7
176
     1
 40
1.0
176
     1
 90
        1
176
     1
 90
        6
176
     1
 90
        2
176
     1
 62
     7
176
     1
 90
        5
176
     1
 90
        0
176
     1
 90
        0
176
     1
290
     0
176
     1
 90
        1
176
     1
 40
0.0
176
     1
 90
        0
176
     1
290
     0
176
     1
290
     1
176
     1
290
     1
176
     1
290
     0
176
     1
290
     0
176
     1
290
     0
176
     1
290
     0
176
     1
290
     0
176
     1
290
     0
176
     1
 90
       50
176
     1
 40
0.0
176
     1
 40
1.0
176
     1
 90
        0
176
     1
 62
    18
420
        0
176
     1
 90
       50
176
     1
 90
        3
176
     1
 62
     5
420
      255
176
     1
290
     0
176
     1
 90
       50
176
     1
 90
       50
176
     1
 90
       50
176
     1
290
     0
176
     1
 90
       50
176
     1
 62
   256
176
     0
 40
1.0
176
     0
 90
        2
176
     1
  1
strokes_ogs.tif
176
     1
290
     0
176
     1
 40
1.0
176
     1
 40
1.0
176
     1
  0
VISUALSTYLE
  5
35
102
{ACAD_REACTORS
330
29
102
}
330
29
100
AcDbVisualStyle
  2
Brighten
 70
    12
177
     3
291
     1
 70
    58
 90
        2
176
     1
 90
        2
176
     1
 90
        0
176
     1
 90
        0
176
     1
 40
0.6
176
     1
 40
30.0
176
     1
 62
     7
420
 16777215
176
     1
 90
        1
176
     1
 90
        4
176
     1
 62
     7
176
     1
 62
   257
176
     1
 90
        1
176
     1
 90
        1
176
     1
 40
1.0
176
     1
 90
        8
176
     1
 62
     7
176
     1
 40
1.0
176
     1
 90
        1
176
     1
 90
        6
176
     1
 90
        2
176
     1
 62
     7
176
     1
 90
        5
176
     1
 90
        0
176
     1
 90
        0
176
     1
290
     0
176
     1
 90
        1
176
     1
 40
50.0
176
     1
 90
        0
176
     1
290
     0
176
     1
290
     1
176
     1
290
     1
176
     1
290
     0
176
     1
290
     0
176
     1
290
     0
176
     1
290
     0
176
     1
290
     0
176
     1
290
     0
176
     1
 90
       50
176
     1
 40
0.0
176
     1
 40
1.0
176
     1
 90
        0
176
     1
 62
    18
420
        0
176
     1
 90
       50
176
     1
 90
        3
176
     1
 62
     5
420
      255
176
     1
290
     0
176
     1
 90
       50
176
     1
 90
       50
176
     1
 90
       50
176
     1
290
     0
176
     1
 90
       50
176
     1
 62
   256
176
     0
 40
1.0
176
     0
 90
        2
176
     1
  1
strokes_ogs.tif
176
     1
290
     0
176
     1
 40
1.0
176
     1
 40
1.0
176
     1
  0
VISUALSTYLE
  5
39
102
{ACAD_REACTORS
330
29
102
}
330
29
100
AcDbVisualStyle
  2
ColorChange
 70
    16
177
     3
291
     1
 70
    58
 90
        2
176
     1
 90
        2
176
     1
 90
        3
176
     1
 90
        0
176
     1
 40
0.6
176
     1
 40
30.0
176
     1
 62
     8
420
  8421504
176
     1
 90
        1
176
     1
 90
        4
176
     1
 62
     7
176
     1
 62
   257
176
     1
 90
        1
176
     1
 90
        1
176
     1
 40
1.0
176
     1
 90
        8
176
     1
 62
     8
420
  8421504
176
     1
 40
1.0
176
     1
 90
        1
176
     1
 90
        6
176
     1
 90
        2
176
     1
 62
     7
176
     1
 90
        5
176
     1
 90
        0
176
     1
 90
        0
176
     1
290
     0
176
     1
 90
        1
176
     1
 40
0.0
176
     1
 90
        0
176
     1
290
     0
176
     1
290
     1
176
     1
290
     1
176
     1
290
     0
176
     1
290
     0
176
     1
290
     0
176
     1
290
     0
176
     1
290
     0
176
     1
290
     0
176
     1
 90
       50
176
     1
 40
0.0
176
     1
 40
1.0
176
     1
 90
        0
176
     1
 62
    18
420
        0
176
     1
 90
       50
176
     1
 90
        3
176
     1
 62
     5
420
      255
176
     1
290
     0
176
     1
 90
       50
176
     1
 90
       50
176
     1
 90
       50
176
     1
290
     0
176
     1
 90
       50
176
     1
 62
   256
176
     0
 40
1.0
176
     0
 90
        2
176
     1
  1
strokes_ogs.tif
176
     1
290
     0
176
     1
 40
1.0
176
     1
 40
1.0
176
     1
  0
VISUALSTYLE
  5
32
102
{ACAD_REACTORS
330
29
102
}
330
29
100
AcDbVisualStyle
  2
Conceptual
 70
     9
177
     3
291
     0
 70
    58
 90
        3
176
     1
 90
        2
176
     1
 90
        0
176
     1
 90
        0
176
     1
 40
0.6
176
     1
 40
30.0
176
     1
 62
     7
420
 16777215
176
     1
 90
        2
176
     1
 90
        2
176
     1
 62
     7
176
     1
 62
   257
176
     1
 90
        1
176
     1
 90
        1
176
     1
 40
179.0
176
     1
 90
        8
176
     1
 62
     7
176
     1
 40
1.0
176
     1
 90
        1
176
     1
 90
        6
176
     1
 90
        2
176
     1
 62
     7
176
     1
 90
        3
176
     1
 90
        0
176
     1
 90
        0
176
     1
290
     0
176
     1
 90
        1
176
     1
 40
0.0
176
     1
 90
        0
176
     1
290
     0
176
     1
290
     1
176
     1
290
     1
176
     1
290
     0
176
     1
290
     0
176
     1
290
     0
176
     1
290
     0
176
     1
290
     0
176
     1
290
     0
176
     1
 90
       50
176
     1
 40
0.0
176
     1
 40
1.0
176
     1
 90
        0
176
     1
 62
    18
420
        0
176
     1
 90
       50
176
     1
 90
        3
176
     1
 62
     5
420
      255
176
     1
290
     0
176
     1
 90
       50
176
     1
 90
       50
176
     1
 90
       50
176
     1
290
     0
176
     1
 90
       50
176
     1
 62
   256
176
     0
 40
1.0
176
     0
 90
        2
176
     1
  1
strokes_ogs.tif
176
     1
290
     0
176
     1
 40
1.0
176
     1
 40
1.0
176
     1
  0
VISUALSTYLE
  5
34
102
{ACAD_REACTORS
330
29
102
}
330
29
100
AcDbVisualStyle
  2
Dim
 70
    11
177
     3
291
     1
 70
    58
 90
        2
176
     1
 90
        2
176
     1
 90
        0
176
     1
 90
        0
176
     1
 40
0.6
176
     1
 40
30.0
176
     1
 62
     7
420
 16777215
176
     1
 90
        1
176
     1
 90
        4
176
     1
 62
     7
176
     1
 62
   257
176
     1
 90
        1
176
     1
 90
        1
176
     1
 40
1.0
176
     1
 90
        8
176
     1
 62
     7
176
     1
 40
1.0
176
     1
 90
        1
176
     1
 90
        6
176
     1
 90
        2
176
     1
 62
     7
176
     1
 90
        5
176
     1
 90
        0
176
     1
 90
        0
176
     1
290
     0
176
     1
 90
        1
176
     1
 40
-50.0
176
     1
 90
        0
176
     1
290
     0
176
     1
290
     1
176
     1
290
     1
176
     1
290
     0
176
     1
290
     0
176
     1
290
     0
176
     1
290
     0
176
     1
290
     0
176
     1
290
     0
176
     1
 90
       50
176
     1
 40
0.0
176
     1
 40
1.0
176
     1
 90
        0
176
     1
 62
    18
420
        0
176
     1
 90
       50
176
     1
 90
        3
176
     1
 62
     5
420
      255
176
     1
290
     0
176
     1
 90
       50
176
     1
 90
       50
176
     1
 90
       50
176
     1
290
     0
176
     1
 90
       50
176
     1
 62
   256
176
     0
 40
1.0
176
     0
 90
        2
176
     1
  1
strokes_ogs.tif
176
     1
290
     0
176
     1
 40
1.0
176
     1
 40
1.0
176
     1
  0
VISUALSTYLE
  5
41
102
{ACAD_REACTORS
330
29
102
}
330
29
100
AcDbVisualStyle
  2
EdgeColorOff
 70
    22
177
     3
291
     1
 70
    58
 90
        2
176
     0
 90
        2
176
     0
 90
        0
176
     0
 90
        0
176
     0
 40
0.6
176
     0
 40
30.0
176
     0
 62
     7
420
 16777215
176
     0
 90
        1
176
     0
 90
        4
176
     0
 62
     7
176
     0
 62
   257
176
     0
 90
        1
176
     0
 90
        1
176
     0
 40
1.0
176
     0
 90
        8
176
     2
 62
     7
176
     0
 40
1.0
176
     0
 90
        1
176
     0
 90
        6
176
     0
 90
        2
176
     0
 62
     7
176
     0
 90
        5
176
     0
 90
        0
176
     0
 90
        0
176
     0
290
     0
176
     0
 90
        1
176
     0
 40
0.0
176
     0
 90
        0
176
     0
290
     0
176
     0
290
     1
176
     0
290
     1
176
     0
290
     0
176
     0
290
     0
176
     0
290
     0
176
     0
290
     0
176
     0
290
     0
176
     0
290
     0
176
     0
 90
       50
176
     0
 40
0.0
176
     0
 40
1.0
176
     0
 90
        0
176
     0
 62
    18
420
        0
176
     0
 90
       50
176
     0
 90
        3
176
     0
 62
     5
420
      255
176
     0
290
     0
176
     0
 90
       50
176
     0
 90
       50
176
     0
 90
       50
176
     0
290
     0
176
     0
 90
       50
176
     0
 62
   256
176
     0
 40
1.0
176
     0
 90
        2
176
     0
  1
strokes_ogs.tif
176
     0
290
     0
176
     0
 40
1.0
176
     0
 40
1.0
176
     0
  0
VISUALSTYLE
  5
38
102
{ACAD_REACTORS
330
29
102
}
330
29
100
AcDbVisualStyle
  2
Facepattern
 70
    15
177
     3
291
     1
 70
    58
 90
        2
176
     1
 90
        2
176
     1
 90
        0
176
     1
 90
        0
176
     1
 40
0.6
176
     1
 40
30.0
176
     1
 62
     7
420
 16777215
176
     1
 90
        1
176
     1
 90
        4
176
     1
 62
     7
176
     1
 62
   257
176
     1
 90
        1
176
     1
 90
        1
176
     1
 40
1.0
176
     1
 90
        8
176
     1
 62
     7
176
     1
 40
1.0
176
     1
 90
        1
176
     1
 90
        6
176
     1
 90
        2
176
     1
 62
     7
176
     1
 90
        5
176
     1
 90
        0
176
     1
 90
        0
176
     1
290
     0
176
     1
 90
        1
176
     1
 40
0.0
176
     1
 90
        0
176
     1
290
     0
176
     1
290
     1
176
     1
290
     1
176
     1
290
     0
176
     1
290
     0
176
     1
290
     0
176
     1
290
     0
176
     1
290
     0
176
     1
290
     0
176
     1
 90
       50
176
     1
 40
0.0
176
     1
 40
1.0
176
     1
 90
        0
176
     1
 62
    18
420
        0
176
     1
 90
       50
176
     1
 90
        3
176
     1
 62
     5
420
      255
176
     1
290
     0
176
     1
 90
       50
176
     1
 90
       50
176
     1
 90
       50
176
     1
290
     0
176
     1
 90
       50
176
     1
 62
   256
176
     0
 40
1.0
176
     0
 90
        2
176
     1
  1
strokes_ogs.tif
176
     1
290
     0
176
     1
 40
1.0
176
     1
 40
1.0
176
     1
  0
VISUALSTYLE
  5
2A
102
{ACAD_REACTORS
330
29
102
}
330
29
100
AcDbVisualStyle
  2
Flat
 70
     0
177
     3
291
     1
 70
    58
 90
        2
176
     1
 90
        1
176
     1
 90
        1
176
     1
 90
        2
176
     1
 40
0.6
176
     1
 40
30.0
176
     1
 62
     7
420
 16777215
176
     1
 90
        0
176
     1
 90
        0
176
     1
 62
     7
176
     1
 62
   257
176
     1
 90
        1
176
     1
 90
        1
176
     1
 40
1.0
176
     1
 90
        8
176
     1
 62
     7
176
     1
 40
1.0
176
     1
 90
        1
176
     1
 90
        6
176
     1
 90
        2
176
     1
 62
     7
176
     1
 90
        5
176
     1
 90
        0
176
     1
 90
        0
176
     1
290
     0
176
     1
 90
       13
176
     1
 40
0.0
176
     1
 90
        0
176
     1
290
     0
176
     1
290
     1
176
     1
290
     1
176
     1
290
     0
176
     1
290
     0
176
     1
290
     0
176
     1
290
     0
176
     1
290
     0
176
     1
290
     0
176
     1
 90
       50
176
     1
 40
0.0
176
     1
 40
1.0
176
     1
 90
        0
176
     1
 62
    18
420
        0
176
     1
 90
       50
176
     1
 90
        3
176
     1
 62
     5
420
      255
176
     1
290
     0
176
     1
 90
       50
176
     1
 90
       50
176
     1
 90
       50
176
     1
290
     0
176
     1
 90
       50
176
     1
 62
   256
176
     0
 40
1.0
176
     0
 90
        2
176
     1
  1
strokes_ogs.tif
176
     1
290
     0
176
     1
 40
1.0
176
     1
 40
1.0
176
     1
  0
VISUALSTYLE
  5
2B
102
{ACAD_REACTORS
330
29
102
}
330
29
100
AcDbVisualStyle
  2
FlatWithEdges
 70
     1
177
     3
291
     1
 70
    58
 90
        2
176
     1
 90
        1
176
     1
 90
        1
176
     1
 90
        2
176
     1
 40
0.6
176
     1
 40
30.0
176
     1
 62
     7
420
 16777215
176
     1
 90
        1
176
     1
 90
        0
176
     1
 62
     7
176
     1
 62
   257
176
     1
 90
        1
176
     1
 90
        1
176
     1
 40
1.0
176
     1
 90
        0
176
     1
 62
   257
176
     1
 40
1.0
176
     1
 90
        1
176
     1
 90
        6
176
     1
 90
        2
176
     1
 62
     7
176
     1
 90
        5
176
     1
 90
        0
176
     1
 90
        0
176
     1
290
     0
176
     1
 90
       13
176
     1
 40
0.0
176
     1
 90
        0
176
     1
290
     0
176
     1
290
     1
176
     1
290
     1
176
     1
290
     0
176
     1
290
     0
176
     1
290
     0
176
     1
290
     0
176
     1
290
     0
176
     1
290
     0
176
     1
 90
       50
176
     1
 40
0.0
176
     1
 40
1.0
176
     1
 90
        0
176
     1
 62
    18
420
        0
176
     1
 90
       50
176
     1
 90
        3
176
     1
 62
     5
420
      255
176
     1
290
     0
176
     1
 90
       50
176
     1
 90
       50
176
     1
 90
       50
176
     1
290
     0
176
     1
 90
       50
176
     1
 62
   256
176
     0
 40
1.0
176
     0
 90
        2
176
     1
  1
strokes_ogs.tif
176
     1
290
     0
176
     1
 40
1.0
176
     1
 40
1.0
176
     1
  0
VISUALSTYLE
  5
2C
102
{ACAD_REACTORS
330
29
102
}
330
29
100
AcDbVisualStyle
  2
Gouraud
 70
     2
177
     3
291
     1
 70
    58
 90
        2
176
     1
 90
        2
176
     1
 90
        1
176
     1
 90
        2
176
     1
 40
0.6
176
     1
 40
30.0
176
     1
 62
     7
420
 16777215
176
     1
 90
        0
176
     1
 90
        0
176
     1
 62
     7
176
     1
 62
   257
176
     1
 90
        1
176
     1
 90
        1
176
     1
 40
1.0
176
     1
 90
        0
176
     1
 62
     7
176
     1
 40
1.0
176
     1
 90
        1
176
     1
 90
        6
176
     1
 90
        2
176
     1
 62
     7
176
     1
 90
        5
176
     1
 90
        0
176
     1
 90
        0
176
     1
290
     0
176
     1
 90
       13
176
     1
 40
0.0
176
     1
 90
        0
176
     1
290
     0
176
     1
290
     1
176
     1
290
     1
176
     1
290
     0
176
     1
290
     0
176
     1
290
     0
176
     1
290
     0
176
     1
290
     0
176
     1
290
     0
176
     1
 90
       50
176
     1
 40
0.0
176
     1
 40
1.0
176
     1
 90
        0
176
     1
 62
    18
420
        0
176
     1
 90
       50
176
     1
 90
        3
176
     1
 62
     5
420
      255
176
     1
290
     0
176
     1
 90
       50
176
     1
 90
       50
176
     1
 90
       50
176
     1
290
     0
176
     1
 90
       50
176
     1
 62
   256
176
     0
 40
1.0
176
     0
 90
        2
176
     1
  1
strokes_ogs.tif
176
     1
290
     0
176
     1
 40
1.0
176
     1
 40
1.0
176
     1
  0
VISUALSTYLE
  5
2D
102
{ACAD_REACTORS
330
29
102
}
330
29
100
AcDbVisualStyle
  2
GouraudWithEdges
 70
     3
177
     3
291
     1
 70
    58
 90
        2
176
     1
 90
        2
176
     1
 90
        1
176
     1
 90
        2
176
     1
 40
0.6
176
     1
 40
30.0
176
     1
 62
     7
420
 16777215
176
     1
 90
        1
176
     1
 90
        0
176
     1
 62
     7
176
     1
 62
   257
176
     1
 90
        1
176
     1
 90
        1
176
     1
 40
1.0
176
     1
 90
        0
176
     1
 62
   257
176
     1
 40
1.0
176
     1
 90
        1
176
     1
 90
        6
176
     1
 90
        2
176
     1
 62
     7
176
     1
 90
        5
176
     1
 90
        0
176
     1
 90
        0
176
     1
290
     0
176
     1
 90
       13
176
     1
 40
0.0
176
     1
 90
        0
176
     1
290
     0
176
     1
290
     1
176
     1
290
     1
176
     1
290
     0
176
     1
290
     0
176
     1
290
     0
176
     1
290
     0
176
     1
290
     0
176
     1
290
     0
176
     1
 90
       50
176
     1
 40
0.0
176
     1
 40
1.0
176
     1
 90
        0
176
     1
 62
    18
420
        0
176
     1
 90
       50
176
     1
 90
        3
176
     1
 62
     5
420
      255
176
     1
290
     0
176
     1
 90
       50
176
     1
 90
       50
176
     1
 90
       50
176
     1
290
     0
176
     1
 90
       50
176
     1
 62
   256
176
     0
 40
1.0
176
     0
 90
        2
176
     1
  1
strokes_ogs.tif
176
     1
290
     0
176
     1
 40
1.0
176
     1
 40
1.0
176
     1
  0
VISUALSTYLE
  5
31
102
{ACAD_REACTORS
330
29
102
}
330
29
100
AcDbVisualStyle
  2
Hidden
 70
     6
177
     3
291
     0
 70
    58
 90
        1
176
     1
 90
        2
176
     1
 90
        2
176
     1
 90
        0
176
     1
 40
0.6
176
     1
 40
30.0
176
     1
 62
     7
420
 16777215
176
     1
 90
        2
176
     1
 90
        2
176
     1
 62
     7
176
     1
 62
   257
176
     1
 90
        2
176
     1
 90
        1
176
     1
 40
40.0
176
     1
 90
        0
176
     1
 62
   257
176
     1
 40
1.0
176
     1
 90
        1
176
     1
 90
        6
176
     1
 90
        2
176
     1
 62
     7
176
     1
 90
        3
176
     1
 90
        0
176
     1
 90
        0
176
     1
290
     0
176
     1
 90
        1
176
     1
 40
0.0
176
     1
 90
        0
176
     1
290
     0
176
     1
290
     1
176
     1
290
     1
176
     1
290
     0
176
     1
290
     0
176
     1
290
     0
176
     1
290
     0
176
     1
290
     0
176
     1
290
     0
176
     1
 90
       50
176
     1
 40
0.0
176
     1
 40
1.0
176
     1
 90
        0
176
     1
 62
    18
420
        0
176
     1
 90
       50
176
     1
 90
        3
176
     1
 62
     5
420
      255
176
     1
290
     0
176
     1
 90
       50
176
     1
 90
       50
176
     1
 90
       50
176
     1
290
     0
176
     1
 90
       50
176
     1
 62
   256
176
     0
 40
1.0
176
     0
 90
        2
176
     1
  1
strokes_ogs.tif
176
     1
290
     0
176
     1
 40
1.0
176
     1
 40
1.0
176
     1
  0
VISUALSTYLE
  5
3F
102
{ACAD_REACTORS
330
29
102
}
330
29
100
AcDbVisualStyle
  2
JitterOff
 70
    20
177
     3
291
     1
 70
    58
 90
        2
176
     0
 90
        2
176
     0
 90
        0
176
     0
 90
        0
176
     0
 40
0.6
176
     0
 40
30.0
176
     0
 62
     7
420
 16777215
176
     0
 90
        1
176
     0
 90
        4
176
     0
 62
     7
176
     0
 62
   257
176
     0
 90
        1
176
     0
 90
        1
176
     0
 40
1.0
176
     0
 90
       10
176
     2
 62
     7
176
     0
 40
1.0
176
     0
 90
        1
176
     0
 90
        6
176
     0
 90
        2
176
     0
 62
     7
176
     0
 90
        5
176
     0
 90
        0
176
     0
 90
        0
176
     0
290
     0
176
     0
 90
        1
176
     0
 40
0.0
176
     0
 90
        0
176
     0
290
     0
176
     0
290
     1
176
     0
290
     1
176
     0
290
     0
176
     0
290
     0
176
     0
290
     0
176
     0
290
     0
176
     0
290
     0
176
     0
290
     0
176
     0
 90
       50
176
     0
 40
0.0
176
     0
 40
1.0
176
     0
 90
        0
176
     0
 62
    18
420
        0
176
     0
 90
       50
176
     0
 90
        3
176
     0
 62
     5
420
      255
176
     0
290
     0
176
     0
 90
       50
176
     0
 90
       50
176
     0
 90
       50
176
     0
290
     0
176
     0
 90
       50
176
     0
 62
   256
176
     0
 40
1.0
176
     0
 90
        2
176
     0
  1
strokes_ogs.tif
176
     0
290
     0
176
     0
 40
1.0
176
     0
 40
1.0
176
     0
  0
VISUALSTYLE
  5
37
102
{ACAD_REACTORS
330
29
102
}
330
29
100
AcDbVisualStyle
  2
Linepattern
 70
    14
177
     3
291
     1
 70
    58
 90
        2
176
     1
 90
        2
176
     1
 90
        0
176
     1
 90
        0
176
     1
 40
0.6
176
     1
 40
30.0
176
     1
 62
     7
420
 16777215
176
     1
 90
        1
176
     1
 90
        4
176
     1
 62
     7
176
     1
 62
   257
176
     1
 90
        7
176
     1
 90
        7
176
     1
 40
1.0
176
     1
 90
        8
176
     1
 62
     7
176
     1
 40
1.0
176
     1
 90
        1
176
     1
 90
        6
176
     1
 90
        2
176
     1
 62
     7
176
     1
 90
        5
176
     1
 90
        0
176
     1
 90
        0
176
     1
290
     0
176
     1
 90
        1
176
     1
 40
0.0
176
     1
 90
        0
176
     1
290
     0
176
     1
290
     1
176
     1
290
     1
176
     1
290
     0
176
     1
290
     0
176
     1
290
     0
176
     1
290
     0
176
     1
290
     0
176
     1
290
     0
176
     1
 90
       50
176
     1
 40
0.0
176
     1
 40
1.0
176
     1
 90
        0
176
     1
 62
    18
420
        0
176
     1
 90
       50
176
     1
 90
        3
176
     1
 62
     5
420
      255
176
     1
290
     0
176
     1
 90
       50
176
     1
 90
       50
176
     1
 90
       50
176
     1
290
     0
176
     1
 90
       50
176
     1
 62
   256
176
     0
 40
1.0
176
     0
 90
        2
176
     1
  1
strokes_ogs.tif
176
     1
290
     0
176
     1
 40
1.0
176
     1
 40
1.0
176
     1
  0
VISUALSTYLE
  5
40
102
{ACAD_REACTORS
330
29
102
}
330
29
100
AcDbVisualStyle
  2
OverhangOff
 70
    21
177
     3
291
     1
 70
    58
 90
        2
176
     0
 90
        2
176
     0
 90
        0
176
     0
 90
        0
176
     0
 40
0.6
176
     0
 40
30.0
176
     0
 62
     7
420
 16777215
176
     0
 90
        1
176
     0
 90
        4
176
     0
 62
     7
176
     0
 62
   257
176
     0
 90
        1
176
     0
 90
        1
176
     0
 40
1.0
176
     0
 90
        9
176
     2
 62
     7
176
     0
 40
1.0
176
     0
 90
        1
176
     0
 90
        6
176
     0
 90
        2
176
     0
 62
     7
176
     0
 90
        5
176
     0
 90
        0
176
     0
 90
        0
176
     0
290
     0
176
     0
 90
        1
176
     0
 40
0.0
176
     0
 90
        0
176
     0
290
     0
176
     0
290
     1
176
     0
290
     1
176
     0
290
     0
176
     0
290
     0
176
     0
290
     0
176
     0
290
     0
176
     0
290
     0
176
     0
290
     0
176
     0
 90
       50
176
     0
 40
0.0
176
     0
 40
1.0
176
     0
 90
        0
176
     0
 62
    18
420
        0
176
     0
 90
       50
176
     0
 90
        3
176
     0
 62
     5
420
      255
176
     0
290
     0
176
     0
 90
       50
176
     0
 90
       50
176
     0
 90
       50
176
     0
290
     0
176
     0
 90
       50
176
     0
 62
   256
176
     0
 40
1.0
176
     0
 90
        2
176
     0
  1
strokes_ogs.tif
176
     0
290
     0
176
     0
 40
1.0
176
     0
 40
1.0
176
     0
  0
VISUALSTYLE
  5
33
102
{ACAD_REACTORS
330
29
102
}
330
29
100
AcDbVisualStyle
  2
Realistic
 70
     8
177
     3
291
     0
 70
    58
 90
        2
176
     1
 90
        3
176
     1
 90
        0
176
     1
 90
        2
176
     1
 40
0.6
176
     1
 40
30.0
176
     1
 62
     7
420
 16777215
176
     1
 90
        0
176
     1
 90
        0
176
     1
 62
     7
176
     1
 62
   257
176
     1
 90
        1
176
     1
 90
        1
176
     1
 40
1.0
176
     1
 90
        8
176
     1
 62
   257
176
     1
 40
1.0
176
     1
 90
        1
176
     1
 90
        6
176
     1
 90
        2
176
     1
 62
     7
176
     1
 90
        3
176
     1
 90
        0
176
     1
 90
        0
176
     1
290
     0
176
     1
 90
       13
176
     1
 40
0.0
176
     1
 90
        0
176
     1
290
     0
176
     1
290
     1
176
     1
290
     1
176
     1
290
     0
176
     1
290
     0
176
     1
290
     0
176
     1
290
     0
176
     1
290
     0
176
     1
290
     0
176
     1
 90
       50
176
     1
 40
0.0
176
     1
 40
1.0
176
     1
 90
        0
176
     1
 62
    18
420
        0
176
     1
 90
       50
176
     1
 90
        3
176
     1
 62
     5
420
      255
176
     1
290
     0
176
     1
 90
       50
176
     1
 90
       50
176
     1
 90
       50
176
     1
290
     0
176
     1
 90
       50
176
     1
 62
   256
176
     0
 40
1.0
176
     0
 90
        2
176
     1
  1
strokes_ogs.tif
176
     1
290
     0
176
     1
 40
1.0
176
     1
 40
1.0
176
     1
  0
VISUALSTYLE
  5
3E
102
{ACAD_REACTORS
330
29
102
}
330
29
100
AcDbVisualStyle
  2
Shaded
 70
    27
177
     3
291
     0
 70
    58
 90
        2
176
     1
 90
        2
176
     1
 90
        1
176
     1
 90
        2
176
     1
 40
0.6
176
     1
 40
30.0
176
     1
 62
     7
420
 16777215
176
     1
 90
        0
176
     1
 90
        4
176
     1
 62
     7
176
     1
 62
   257
176
     1
 90
        1
176
     1
 90
        1
176
     1
 40
1.0
176
     1
 90
        8
176
     1
 62
   257
176
     1
 40
1.0
176
     1
 90
        1
176
     1
 90
        6
176
     1
 90
        2
176
     1
 62
     8
420
  7895160
176
     1
 90
        3
176
     1
 90
        0
176
     1
 90
        0
176
     1
290
     0
176
     1
 90
        5
176
     1
 40
0.0
176
     1
 90
        0
176
     1
290
     0
176
     1
290
     1
176
     1
290
     1
176
     1
290
     0
176
     1
290
     0
176
     1
290
     0
176
     1
290
     0
176
     1
290
     0
176
     1
290
     0
176
     1
 90
       50
176
     1
 40
0.0
176
     1
 40
1.0
176
     1
 90
        0
176
     1
 62
    18
420
        0
176
     1
 90
       50
176
     1
 90
        3
176
     1
 62
     5
420
      255
176
     1
290
     0
176
     1
 90
       50
176
     1
 90
       50
176
     1
 90
       50
176
     1
290
     0
176
     1
 90
       50
176
     1
 62
   256
176
     0
 40
1.0
176
     0
 90
        2
176
     1
  1
strokes_ogs.tif
176
     1
290
     0
176
     1
 40
1.0
176
     1
 40
1.0
176
     1
  0
VISUALSTYLE
  5
3D
102
{ACAD_REACTORS
330
29
102
}
330
29
100
AcDbVisualStyle
  2
Shaded with edges
 70
    26
177
     3
291
     0
 70
    58
 90
        2
176
     1
 90
        2
176
     1
 90
        1
176
     1
 90
        2
176
     1
 40
0.6
176
     1
 40
30.0
176
     1
 62
     7
420
 16777215
176
     1
 90
        1
176
     1
 90
        2
176
     1
 62
     7
176
     1
 62
   257
176
     1
 90
        2
176
     1
 90
        1
176
     1
 40
1.0
176
     1
 90
        8
176
     1
 62
   257
176
     1
 40
1.0
176
     1
 90
        1
176
     1
 90
        6
176
     1
 90
        2
176
     1
 62
     7
176
     1
 90
        3
176
     1
 90
        0
176
     1
 90
        0
176
     1
290
     0
176
     1
 90
        5
176
     1
 40
0.0
176
     1
 90
        0
176
     1
290
     0
176
     1
290
     1
176
     1
290
     1
176
     1
290
     0
176
     1
290
     0
176
     1
290
     0
176
     1
290
     0
176
     1
290
     0
176
     1
290
     0
176
     1
 90
       50
176
     1
 40
0.0
176
     1
 40
1.0
176
     1
 90
        0
176
     1
 62
    18
420
        0
176
     1
 90
       50
176
     1
 90
        3
176
     1
 62
     5
420
      255
176
     1
290
     0
176
     1
 90
       50
176
     1
 90
       50
176
     1
 90
       50
176
     1
290
     0
176
     1
 90
       50
176
     1
 62
   256
176
     0
 40
1.0
176
     0
 90
        2
176
     1
  1
strokes_ogs.tif
176
     1
290
     0
176
     1
 40
1.0
176
     1
 40
1.0
176
     1
  0
VISUALSTYLE
  5
3A
102
{ACAD_REACTORS
330
29
102
}
330
29
100
AcDbVisualStyle
  2
Shades of Gray
 70
    23
177
     3
291
     0
 70
    58
 90
        2
176
     1
 90
        2
176
     1
 90
        3
176
     1
 90
        0
176
     1
 40
0.6
176
     1
 40
30.0
176
     1
 62
     7
420
 16777215
176
     1
 90
        2
176
     1
 90
        2
176
     1
 62
     7
176
     1
 62
     7
176
     1
 90
        1
176
     1
 90
        1
176
     1
 40
40.0
176
     1
 90
        8
176
     1
 62
     7
176
     1
 40
1.0
176
     1
 90
        1
176
     1
 90
        6
176
     1
 90
        2
176
     1
 62
     7
176
     1
 90
        3
176
     1
 90
        0
176
     1
 90
        0
176
     1
290
     0
176
     1
 90
        1
176
     1
 40
0.0
176
     1
 90
        0
176
     1
290
     0
176
     1
290
     1
176
     1
290
     1
176
     1
290
     0
176
     1
290
     0
176
     1
290
     0
176
     1
290
     0
176
     1
290
     0
176
     1
290
     0
176
     1
 90
       50
176
     1
 40
0.0
176
     1
 40
1.0
176
     1
 90
        0
176
     1
 62
    18
420
        0
176
     1
 90
       50
176
     1
 90
        3
176
     1
 62
     5
420
      255
176
     1
290
     0
176
     1
 90
       50
176
     1
 90
       50
176
     1
 90
       50
176
     1
290
     0
176
     1
 90
       50
176
     1
 62
   256
176
     0
 40
1.0
176
     0
 90
        2
176
     1
  1
strokes_ogs.tif
176
     1
290
     0
176
     1
 40
1.0
176
     1
 40
1.0
176
     1
  0
VISUALSTYLE
  5
3B
102
{ACAD_REACTORS
330
29
102
}
330
29
100
AcDbVisualStyle
  2
Sketchy
 70
    24
177
     3
291
     0
 70
    58
 90
        1
176
     1
 90
        2
176
     1
 90
        2
176
     1
 90
        0
176
     1
 40
0.6
176
     1
 40
30.0
176
     1
 62
     7
420
 16777215
176
     1
 90
        2
176
     1
 90
        2
176
     1
 62
     7
176
     1
 62
     7
176
     1
 90
        1
176
     1
 90
        1
176
     1
 40
40.0
176
     1
 90
       11
176
     1
 62
     7
176
     1
 40
1.0
176
     1
 90
        1
176
     1
 90
        6
176
     1
 90
        2
176
     1
 62
     7
176
     1
 90
        6
176
     1
 90
        0
176
     1
 90
        0
176
     1
290
     0
176
     1
 90
        1
176
     1
 40
0.0
176
     1
 90
        0
176
     1
290
     0
176
     1
290
     1
176
     1
290
     1
176
     1
290
     0
176
     1
290
     0
176
     1
290
     0
176
     1
290
     0
176
     1
290
     0
176
     1
290
     0
176
     1
 90
       50
176
     1
 40
0.0
176
     1
 40
1.0
176
     1
 90
        0
176
     1
 62
    18
420
        0
176
     1
 90
       50
176
     1
 90
        3
176
     1
 62
     5
420
      255
176
     1
290
     0
176
     1
 90
       50
176
     1
 90
       50
176
     1
 90
       50
176
     1
290
     0
176
     1
 90
       50
176
     1
 62
   256
176
     0
 40
1.0
176
     0
 90
        2
176
     1
  1
strokes_ogs.tif
176
     1
290
     0
176
     1
 40
1.0
176
     1
 40
1.0
176
     1
  0
VISUALSTYLE
  5
36
102
{ACAD_REACTORS
330
29
102
}
330
29
100
AcDbVisualStyle
  2
Thicken
 70
    13
177
     3
291
     1
 70
    58
 90
        2
176
     1
 90
        2
176
     1
 90
        0
176
     1
 90
        0
176
     1
 40
0.6
176
     1
 40
30.0
176
     1
 62
     7
420
 16777215
176
     1
 90
        1
176
     1
 90
        4
176
     1
 62
     7
176
     1
 62
   257
176
     1
 90
        1
176
     1
 90
        1
176
     1
 40
1.0
176
     1
 90
       12
176
     1
 62
     7
176
     1
 40
1.0
176
     1
 90
        1
176
     1
 90
        6
176
     1
 90
        2
176
     1
 62
     7
176
     1
 90
        5
176
     1
 90
        0
176
     1
 90
        0
176
     1
290
     0
176
     1
 90
        1
176
     1
 40
0.0
176
     1
 90
        0
176
     1
290
     0
176
     1
290
     1
176
     1
290
     1
176
     1
290
     0
176
     1
290
     0
176
     1
290
     0
176
     1
290
     0
176
     1
290
     0
176
     1
290
     0
176
     1
 90
       50
176
     1
 40
0.0
176
     1
 40
1.0
176
     1
 90
        0
176
     1
 62
    18
420
        0
176
     1
 90
       50
176
     1
 90
        3
176
     1
 62
     5
420
      255
176
     1
290
     0
176
     1
 90
       50
176
     1
 90
       50
176
     1
 90
       50
176
     1
290
     0
176
     1
 90
       50
176
     1
 62
   256
176
     0
 40
1.0
176
     0
 90
        2
176
     1
  1
strokes_ogs.tif
176
     1
290
     0
176
     1
 40
1.0
176
     1
 40
1.0
176
     1
  0
VISUALSTYLE
  5
30
102
{ACAD_REACTORS
330
29
102
}
330
29
100
AcDbVisualStyle
  2
Wireframe
 70
     5
177
     3
291
     0
 70
    58
 90
        0
176
     1
 90
        2
176
     1
 90
        0
176
     1
 90
        0
176
     1
 40
0.6
176
     1
 40
30.0
176
     1
 62
     7
420
 16777215
176
     1
 90
        1
176
     1
 90
        4
176
     1
 62
     7
176
     1
 62
   257
176
     1
 90
        1
176
     1
 90
        1
176
     1
 40
1.0
176
     1
 90
        0
176
     1
 62
   257
176
     1
 40
1.0
176
     1
 90
        1
176
     1
 90
        6
176
     1
 90
        2
176
     1
 62
     7
176
     1
 90
        3
176
     1
 90
        0
176
     1
 90
        0
176
     1
290
     0
176
     1
 90
        1
176
     1
 40
0.0
176
     1
 90
        0
176
     1
290
     0
176
     1
290
     1
176
     1
290
     1
176
     1
290
     0
176
     1
290
     0
176
     1
290
     0
176
     1
290
     0
176
     1
290
     0
176
     1
290
     0
176
     1
 90
       50
176
     1
 40
0.0
176
     1
 40
1.0
176
     1
 90
        0
176
     1
 62
    18
420
        0
176
     1
 90
       50
176
     1
 90
        3
176
     1
 62
     5
420
      255
176
     1
290
     0
176
     1
 90
       50
176
     1
 90
       50
176
     1
 90
       50
176
     1
290
     0
176
     1
 90
       50
176
     1
 62
   256
176
     0
 40
1.0
176
     0
 90
        2
176
     1
  1
strokes_ogs.tif
176
     1
290
     0
176
     1
 40
1.0
176
     1
 40
1.0
176
     1
  0
VISUALSTYLE
  5
3C
102
{ACAD_REACTORS
330
29
102
}
330
29
100
AcDbVisualStyle
  2
X-Ray
 70
    25
177
     3
291
     0
 70
    58
 90
        2
176
     1
 90
        2
176
     1
 90
        1
176
     1
 90
        1
176
     1
 40
0.5
176
     1
 40
30.0
176
     1
 62
     7
420
 16777215
176
     1
 90
        1
176
     1
 90
        0
176
     1
 62
     7
176
     1
 62
   257
176
     1
 90
        1
176
     1
 90
        1
176
     1
 40
1.0
176
     1
 90
        8
176
     1
 62
     7
176
     1
 40
1.0
176
     1
 90
        1
176
     1
 90
        6
176
     1
 90
        2
176
     1
 62
     7
176
     1
 90
        3
176
     1
 90
        0
176
     1
 90
        0
176
     1
290
     0
176
     1
 90
       13
176
     1
 40
0.0
176
     1
 90
        0
176
     1
290
     0
176
     1
290
     1
176
     1
290
     1
176
     1
290
     0
176
     1
290
     0
176
     1
290
     0
176
     1
290
     0
176
     1
290
     0
176
     1
290
     0
176
     1
 90
       50
176
     1
 40
0.0
176
     1
 40
1.0
176
     1
 90
        0
176
     1
 62
    18
420
        0
176
     1
 90
       50
176
     1
 90
        3
176
     1
 62
     5
420
      255
176
     1
290
     0
176
     1
 90
       50
176
     1
 90
       50
176
     1
 90
       50
176
     1
290
     0
176
     1
 90
       50
176
     1
 62
   256
176
     0
 40
1.0
176
     0
 90
        2
176
     1
  1
strokes_ogs.tif
176
     1
290
     0
176
     1
 40
1.0
176
     1
 40
1.0
176
     1
  0
DICTIONARYVAR
  5
23C
102
{ACAD_REACTORS
330
237
102
}
330
237
100
DictionaryVariables
280
     0
  1
1:1
  0
DICTIONARYVAR
  5
239
102
{ACAD_REACTORS
330
237
102
}
330
237
100
DictionaryVariables
280
     0
  1
STANDARD
  0
DICTIONARYVAR
  5
238
102
{ACAD_REACTORS
330
237
102
}
330
237
100
DictionaryVariables
280
     0
  1
STANDARD
  0
DICTIONARYVAR
  5
23A
102
{ACAD_REACTORS
330
237
102
}
330
237
100
DictionaryVariables
280
     0
  1
Imperial24
  0
DICTIONARYVAR
  5
23B
102
{ACAD_REACTORS
330
237
102
}
330
237
100
DictionaryVariables
280
     0
  1
Imperial24
  0
DICTIONARY
  5
1A
330
19
100
AcDbDictionary
280
     1
281
     1
  3
BUMPTILE
360
1C
  3
DIFFUSETILE
360
1B
  3
OPACITYTILE
360
1F
  3
REFLECTIONTILE
360
1E
  3
REFRACTIONTILE
360
20
  3
SPECULARTILE
360
1D
  0
DICTIONARY
  5
12
330
11
100
AcDbDictionary
280
     1
281
     1
  3
BUMPTILE
360
14
  3
DIFFUSETILE
360
13
  3
OPACITYTILE
360
17
  3
REFLECTIONTILE
360
16
  3
REFRACTIONTILE
360
18
  3
SPECULARTILE
360
15
  0
DICTIONARY
  5
22
330
21
100
AcDbDictionary
280
     1
281
     1
  3
BUMPTILE
360
24
  3
DIFFUSETILE
360
23
  3
OPACITYTILE
360
27
  3
REFLECTIONTILE
360
26
  3
REFRACTIONTILE
360
28
  3
SPECULARTILE
360
25
  0
DICTIONARY
  5
23D
330
65
100
AcDbDictionary
280
     1
281
     1
  3
ACAD_ROUNDTRIP_2008_TABLESTYLE_CELLSTYLEMAP
360
23E
  0
XRECORD
  5
1C
102
{ACAD_REACTORS
330
1A
102
}
330
1A
100
AcDbXrecord
280
     1
270
     1
271
     1
  0
XRECORD
  5
1B
102
{ACAD_REACTORS
330
1A
102
}
330
1A
100
AcDbXrecord
280
     1
270
     1
271
     1
  0
XRECORD
  5
1F
102
{ACAD_REACTORS
330
1A
102
}
330
1A
100
AcDbXrecord
280
     1
270
     1
271
     1
  0
XRECORD
  5
1E
102
{ACAD_REACTORS
330
1A
102
}
330
1A
100
AcDbXrecord
280
     1
270
     1
271
     1
  0
XRECORD
  5
20
102
{ACAD_REACTORS
330
1A
102
}
330
1A
100
AcDbXrecord
280
     1
270
     1
271
     1
  0
XRECORD
  5
1D
102
{ACAD_REACTORS
330
1A
102
}
330
1A
100
AcDbXrecord
280
     1
270
     1
271
     1
  0
XRECORD
  5
14
102
{ACAD_REACTORS
330
12
102
}
330
12
100
AcDbXrecord
280
     1
270
     1
271
     1
  0
XRECORD
  5
13
102
{ACAD_REACTORS
330
12
102
}
330
12
100
AcDbXrecord
280
     1
270
     1
271
     1
  0
XRECORD
  5
17
102
{ACAD_REACTORS
330
12
102
}
330
12
100
AcDbXrecord
280
     1
270
     1
271
     1
  0
XRECORD
  5
16
102
{ACAD_REACTORS
330
12
102
}
330
12
100
AcDbXrecord
280
     1
270
     1
271
     1
  0
XRECORD
  5
18
102
{ACAD_REACTORS
330
12
102
}
330
12
100
AcDbXrecord
280
     1
270
     1
271
     1
  0
XRECORD
  5
15
102
{ACAD_REACTORS
330
12
102
}
330
12
100
AcDbXrecord
280
     1
270
     1
271
     1
  0
XRECORD
  5
24
102
{ACAD_REACTORS
330
22
102
}
330
22
100
AcDbXrecord
280
     1
270
     1
271
     1
  0
XRECORD
  5
23
102
{ACAD_REACTORS
330
22
102
}
330
22
100
AcDbXrecord
280
     1
270
     1
271
     1
  0
XRECORD
  5
27
102
{ACAD_REACTORS
330
22
102
}
330
22
100
AcDbXrecord
280
     1
270
     1
271
     1
  0
XRECORD
  5
26
102
{ACAD_REACTORS
330
22
102
}
330
22
100
AcDbXrecord
280
     1
270
     1
271
     1
  0
XRECORD
  5
28
102
{ACAD_REACTORS
330
22
102
}
330
22
100
AcDbXrecord
280
     1
270
     1
271
     1
  0
XRECORD
  5
25
102
{ACAD_REACTORS
330
22
102
}
330
22
100
AcDbXrecord
280
     1
270
     1
271
     1
  0
CELLSTYLEMAP
  5
23E
102
{ACAD_REACTORS
330
23D
102
}
330
23D
100
AcDbCellStyleMap
 90
        3
300
CELLSTYLE
  1
TABLEFORMAT_BEGIN
 90
        5
170
     1
 91
        0
 92
    32768
 62
   257
 93
        1
300
CONTENTFORMAT
  1
CONTENTFORMAT_BEGIN
 90
        0
 91
        0
 92
      512
 93
        0
300

 40
0.0
140
1.0
 94
        5
 62
     0
340
55
144
0.25
309
CONTENTFORMAT_END
171
     0
 94
        0
309
TABLEFORMAT_END
  1
CELLSTYLE_BEGIN
 90
        1
 91
        1
300
_TITLE
309
CELLSTYLE_END
300
CELLSTYLE
  1
TABLEFORMAT_BEGIN
 90
        5
170
     1
 91
        0
 92
        0
 62
   257
 93
        1
300
CONTENTFORMAT
  1
CONTENTFORMAT_BEGIN
 90
        0
 91
        0
 92
      512
 93
        0
300

 40
0.0
140
1.0
 94
        5
 62
     0
340
55
144
0.18
309
CONTENTFORMAT_END
171
     0
 94
        0
309
TABLEFORMAT_END
  1
CELLSTYLE_BEGIN
 90
        2
 91
        1
300
_HEADER
309
CELLSTYLE_END
300
CELLSTYLE
  1
TABLEFORMAT_BEGIN
 90
        5
170
     1
 91
        0
 92
        0
 62
   257
 93
        1
300
CONTENTFORMAT
  1
CONTENTFORMAT_BEGIN
 90
        0
 91
        0
 92
      512
 93
        0
300

 40
0.0
140
1.0
 94
        2
 62
     0
340
55
144
0.18
309
CONTENTFORMAT_END
171
     0
 94
        0
309
TABLEFORMAT_END
  1
CELLSTYLE_BEGIN
 90
        3
 91
        2
300
_DATA
309
CELLSTYLE_END
  0
ENDSEC
  0
EOF
