  0
SECTION
  2
HEADER
  9
$ACADVER
  1
AC1032
  9
$ACADMAINTVER
 90
      155
  9
$DWGCODEPAGE
  3
ANSI_1252
  9
$REQUIREDVERSIONS
160
                 0
  9
$INSBASE
 10
0.0
 20
0.0
 30
0.0
  9
$EXTMIN
 10
1.000000000000000E+20
 20
1.000000000000000E+20
 30
1.000000000000000E+20
  9
$EXTMAX
 10
-1.000000000000000E+20
 20
-1.000000000000000E+20
 30
-1.000000000000000E+20
  9
$LIMMIN
 10
0.0
 20
0.0
  9
$LIMMAX
 10
12.0
 20
9.0
  9
$ORTHOMODE
 70
     0
  9
$REGENMODE
 70
     1
  9
$FILLMODE
 70
     1
  9
$QTEXTMODE
 70
     0
  9
$MIRRTEXT
 70
     0
  9
$LTSCALE
 40
1.0
  9
$ATTMODE
 70
     1
  9
$TEXTSIZE
 40
0.2
  9
$TRACEWID
 40
0.05
  9
$TEXTSTYLE
  7
Standard
  9
$CLAYER
  8
0
  9
$CELTYPE
  6
ByLayer
  9
$CECOLOR
 62
   256
  9
$CELTSCALE
 40
1.0
  9
$DISPSILH
 70
     0
  9
$DIMSCALE
 40
1.0
  9
$DIMASZ
 40
0.18
  9
$DIMEXO
 40
0.0625
  9
$DIMDLI
 40
0.38
  9
$DIMRND
 40
0.0
  9
$DIMDLE
 40
0.0
  9
$DIMEXE
 40
0.18
  9
$DIMTP
 40
0.0
  9
$DIMTM
 40
0.0
  9
$DIMTXT
 40
0.18
  9
$DIMCEN
 40
0.09
  9
$DIMTSZ
 40
0.0
  9
$DIMTOL
 70
     0
  9
$DIMLIM
 70
     0
  9
$DIMTIH
 70
     1
  9
$DIMTOH
 70
     1
  9
$DIMSE1
 70
     0
  9
$DIMSE2
 70
     0
  9
$DIMTAD
 70
     0
  9
$DIMZIN
 70
     0
  9
$DIMBLK
  1

  9
$DIMASO
 70
     1
  9
$DIMSHO
 70
     1
  9
$DIMPOST
  1

  9
$DIMAPOST
  1

  9
$DIMALT
 70
     0
  9
$DIMALTD
 70
     2
  9
$DIMALTF
 40
25.4
  9
$DIMLFAC
 40
1.0
  9
$DIMTOFL
 70
     0
  9
$DIMTVP
 40
0.0
  9
$DIMTIX
 70
     0
  9
$DIMSOXD
 70
     0
  9
$DIMSAH
 70
     0
  9
$DIMBLK1
  1

  9
$DIMBLK2
  1

  9
$DIMSTYLE
  2
Standard
  9
$DIMCLRD
 70
     0
  9
$DIMCLRE
 70
     0
  9
$DIMCLRT
 70
     0
  9
$DIMTFAC
 40
1.0
  9
$DIMGAP
 40
0.09
  9
$DIMJUST
 70
     0
  9
$DIMSD1
 70
     0
  9
$DIMSD2
 70
     0
  9
$DIMTOLJ
 70
     1
  9
$DIMTZIN
 70
     0
  9
$DIMALTZ
 70
     0
  9
$DIMALTTZ
 70
     0
  9
$DIMUPT
 70
     0
  9
$DIMDEC
 70
     4
  9
$DIMTDEC
 70
     4
  9
$DIMALTU
 70
     2
  9
$DIMALTTD
 70
     2
  9
$DIMTXSTY
  7
Standard
  9
$DIMAUNIT
 70
     0
  9
$DIMADEC
 70
     0
  9
$DIMALTRND
 40
0.0
  9
$DIMAZIN
 70
     0
  9
$DIMDSEP
 70
    46
  9
$DIMATFIT
 70
     3
  9
$DIMFRAC
 70
     0
  9
$DIMLDRBLK
  1

  9
$DIMLUNIT
 70
     2
  9
$DIMLWD
 70
    -2
  9
$DIMLWE
 70
    -2
  9
$DIMTMOVE
 70
     0
  9
$DIMFXL
 40
1.0
  9
$DIMFXLON
 70
     0
  9
$DIMJOGANG
 40
0.7853981633974483
  9
$DIMTFILL
 70
     0
  9
$DIMTFILLCLR
 70
     0
  9
$DIMARCSYM
 70
     0
  9
$DIMLTYPE
  6

  9
$DIMLTEX1
  6

  9
$DIMLTEX2
  6

  9
$DIMTXTDIRECTION
 70
     0
  9
$LUNITS
 70
     2
  9
$LUPREC
 70
     4
  9
$SKETCHINC
 40
0.1
  9
$FILLETRAD
 40
0.0
  9
$AUNITS
 70
     0
  9
$AUPREC
 70
     0
  9
$MENU
  1
.
  9
$ELEVATION
 40
0.0
  9
$PELEVATION
 40
0.0
  9
$THICKNESS
 40
0.0
  9
$LIMCHECK
 70
     0
  9
$CHAMFERA
 40
0.0
  9
$CHAMFERB
 40
0.0
  9
$CHAMFERC
 40
0.0
  9
$CHAMFERD
 40
0.0
  9
$SKPOLY
 70
     0
  9
$TDCREATE
 40
2460186.376932871
  9
$TDUCREATE
 40
2460186.293599537
  9
$TDUPDATE
 40
2460186.376932871
  9
$TDUUPDATE
 40
2460186.293599537
  9
$TDINDWG
 40
0.0000000000
  9
$TDUSRTIMER
 40
0.0000000000
  9
$USRTIMER
 70
     1
  9
$ANGBASE
 50
0.0
  9
$ANGDIR
 70
     0
  9
$PDMODE
 70
     0
  9
$PDSIZE
 40
0.0
  9
$PLINEWID
 40
0.0
  9
$SPLFRAME
 70
     0
  9
$SPLINETYPE
 70
     6
  9
$SPLINESEGS
 70
     8
  9
$HANDSEED
  5
1CB
  9
$SURFTAB1
 70
     6
  9
$SURFTAB2
 70
     6
  9
$SURFTYPE
 70
     6
  9
$SURFU
 70
     6
  9
$SURFV
 70
     6
  9
$UCSBASE
  2

  9
$UCSNAME
  2

  9
$UCSORG
 10
0.0
 20
0.0
 30
0.0
  9
$UCSXDIR
 10
1.0
 20
0.0
 30
0.0
  9
$UCSYDIR
 10
0.0
 20
1.0
 30
0.0
  9
$UCSORTHOREF
  2

  9
$UCSORTHOVIEW
 70
     0
  9
$UCSORGTOP
 10
0.0
 20
0.0
 30
0.0
  9
$UCSORGBOTTOM
 10
0.0
 20
0.0
 30
0.0
  9
$UCSORGLEFT
 10
0.0
 20
0.0
 30
0.0
  9
$UCSORGRIGHT
 10
0.0
 20
0.0
 30
0.0
  9
$UCSORGFRONT
 10
0.0
 20
0.0
 30
0.0
  9
$UCSORGBACK
 10
0.0
 20
0.0
 30
0.0
  9
$PUCSBASE
  2

  9
$PUCSNAME
  2

  9
$PUCSORG
 10
0.0
 20
0.0
 30
0.0
  9
$PUCSXDIR
 10
1.0
 20
0.0
 30
0.0
  9
$PUCSYDIR
 10
0.0
 20
1.0
 30
0.0
  9
$PUCSORTHOREF
  2

  9
$PUCSORTHOVIEW
 70
     0
  9
$PUCSORGTOP
 10
0.0
 20
0.0
 30
0.0
  9
$PUCSORGBOTTOM
 10
0.0
 20
0.0
 30
0.0
  9
$PUCSORGLEFT
 10
0.0
 20
0.0
 30
0.0
  9
$PUCSORGRIGHT
 10
0.0
 20
0.0
 30
0.0
  9
$PUCSORGFRONT
 10
0.0
 20
0.0
 30
0.0
  9
$PUCSORGBACK
 10
0.0
 20
0.0
 30
0.0
  9
$USERI1
 70
     0
  9
$USERI2
 70
     0
  9
$USERI3
 70
     0
  9
$USERI4
 70
     0
  9
$USERI5
 70
     0
  9
$USERR1
 40
0.0
  9
$USERR2
 40
0.0
  9
$USERR3
 40
0.0
  9
$USERR4
 40
0.0
  9
$USERR5
 40
0.0
  9
$WORLDVIEW
 70
     1
  9
$SHADEDGE
 70
     3
  9
$SHADEDIF
 70
    70
  9
$TILEMODE
 70
     1
  9
$MAXACTVP
 70
    64
  9
$PINSBASE
 10
0.0
 20
0.0
 30
0.0
  9
$PLIMCHECK
 70
     0
  9
$PEXTMIN
 10
1.000000000000000E+20
 20
1.000000000000000E+20
 30
1.000000000000000E+20
  9
$PEXTMAX
 10
-1.000000000000000E+20
 20
-1.000000000000000E+20
 30
-1.000000000000000E+20
  9
$PLIMMIN
 10
0.0
 20
0.0
  9
$PLIMMAX
 10
12.0
 20
9.0
  9
$UNITMODE
 70
     0
  9
$VISRETAIN
 70
     1
  9
$PLINEGEN
 70
     0
  9
$PSLTSCALE
 70
     1
  9
$TREEDEPTH
 70
  3020
  9
$CMLSTYLE
  2
Standard
  9
$CMLJUST
 70
     0
  9
$CMLSCALE
 40
1.0
  9
$PROXYGRAPHICS
 70
     1
  9
$MEASUREMENT
 70
     0
  9
$CELWEIGHT
370
    -1
  9
$ENDCAPS
280
     0
  9
$JOINSTYLE
280
     0
  9
$LWDISPLAY
290
     1
  9
$INSUNITS
 70
     4
  9
$HYPERLINKBASE
  1

  9
$STYLESHEET
  1

  9
$XEDIT
290
     1
  9
$CEPSNTYPE
380
     0
  9
$PSTYLEMODE
290
     1
  9
$FINGERPRINTGUID
  2
{970363B2-0A0C-6241-A18F-0899E27E6951}
  9
$VERSIONGUID
  2
{96FC6333-1104-744D-8606-D2074773810B}
  9
$EXTNAMES
290
     1
  9
$PSVPSCALE
 40
0.0
  9
$OLESTARTUP
290
     0
  9
$SORTENTS
280
   127
  9
$INDEXCTL
280
     0
  9
$HIDETEXT
280
     1
  9
$XCLIPFRAME
280
     2
  9
$HALOGAP
280
     0
  9
$OBSCOLOR
 70
   257
  9
$OBSLTYPE
280
     0
  9
$INTERSECTIONDISPLAY
280
     0
  9
$INTERSECTIONCOLOR
 70
   257
  9
$DIMASSOC
280
     2
  9
$PROJECTNAME
  1

  9
$CAMERADISPLAY
290
     0
  9
$LENSLENGTH
 40
50.0
  9
$CAMERAHEIGHT
 40
0.0
  9
$STEPSPERSEC
 40
2.0
  9
$STEPSIZE
 40
6.0
  9
$3DDWFPREC
 40
2.0
  9
$PSOLWIDTH
 40
0.25
  9
$PSOLHEIGHT
 40
4.0
  9
$LOFTANG1
 40
1.570796326794896
  9
$LOFTANG2
 40
1.570796326794896
  9
$LOFTMAG1
 40
0.0
  9
$LOFTMAG2
 40
0.0
  9
$LOFTPARAM
 70
     7
  9
$LOFTNORMALS
280
     1
  9
$LATITUDE
 40
37.795
  9
$LONGITUDE
 40
-122.394
  9
$NORTHDIRECTION
 40
0.0
  9
$TIMEZONE
 70
 -8000
  9
$LIGHTGLYPHDISPLAY
280
     1
  9
$TILEMODELIGHTSYNCH
280
     1
  9
$CMATERIAL
347
11
  9
$SOLIDHIST
280
     0
  9
$SHOWHIST
280
     1
  9
$DWFFRAME
280
     2
  9
$DGNFRAME
280
     0
  9
$REALWORLDSCALE
290
     1
  9
$INTERFERECOLOR
 62
     1
  9
$INTERFEREOBJVS
345
33
  9
$INTERFEREVPVS
346
30
  9
$CSHADOW
280
     0
  9
$SHADOWPLANELOCATION
 40
0.0
  0
ENDSEC
  0
SECTION
  2
CLASSES
  0
CLASS
  1
ACDBDICTIONARYWDFLT
  2
AcDbDictionaryWithDefault
  3
ObjectDBX Classes
 90
        0
 91
        1
280
     0
281
     0
  0
CLASS
  1
MATERIAL
  2
AcDbMaterial
  3
ObjectDBX Classes
 90
     1153
 91
        3
280
     0
281
     0
  0
CLASS
  1
VISUALSTYLE
  2
AcDbVisualStyle
  3
ObjectDBX Classes
 90
     4095
 91
       24
280
     0
281
     0
  0
CLASS
  1
SCALE
  2
AcDbScale
  3
ObjectDBX Classes
 90
     1153
 91
       17
280
     0
281
     0
  0
CLASS
  1
TABLESTYLE
  2
AcDbTableStyle
  3
ObjectDBX Classes
 90
     4095
 91
        1
280
     0
281
     0
  0
CLASS
  1
MLEADERSTYLE
  2
AcDbMLeaderStyle
  3
ACDB_MLEADERSTYLE_CLASS
 90
     4095
 91
        1
280
     0
281
     0
  0
CLASS
  1
ACDBSECTIONVIEWSTYLE
  2
AcDbSectionViewStyle
  3
ObjectDBX Classes
 90
     1025
 91
        1
280
     0
281
     0
  0
CLASS
  1
ACDBDETAILVIEWSTYLE
  2
AcDbDetailViewStyle
  3
ObjectDBX Classes
 90
     1025
 91
        1
280
     0
281
     0
  0
CLASS
  1
DICTIONARYVAR
  2
AcDbDictionaryVar
  3
ObjectDBX Classes
 90
        0
 91
        5
280
     0
281
     0
  0
CLASS
  1
CELLSTYLEMAP
  2
AcDbCellStyleMap
  3
ObjectDBX Classes
 90
     1152
 91
        1
280
     0
281
     0
  0
ENDSEC
  0
SECTION
  2
TABLES
  0
TABLE
  2
VPORT
  5
8
330
0
100
AcDbSymbolTable
 70
     1
  0
VPORT
  5
57
330
8
100
AcDbSymbolTableRecord
100
AcDbViewportTableRecord
  2
*Active
 70
     0
 10
0.0
 20
0.0
 11
1.0
 21
1.0
 12
0.0
 22
0.0
 13
0.0
 23
0.0
 14
1.0
 24
1.0
 15
0.0
 25
0.0
 16
0.0
 26
0.0
 36
1.0
 17
152.5172913427724
 27
135.4861110772445
 37
0.0
 40
302.9399999242551
 41
1.758739710009871
 42
50.0
 43
0.0
 44
0.0
 50
0.0
 51
0.0
 71
     0
 72
   100
 73
     1
 74
     0
 75
     1
 76
     0
 77
     0
 78
     0
281
     0
 65
     1
110
0.0
120
0.0
130
0.0
111
1.0
121
0.0
131
0.0
112
0.0
122
1.0
132
0.0
 79
     0
146
0.0
 60
     3
 61
     5
292
     1
282
     1
141
0.0
142
0.0
 63
   250
421
  3355443
  0
ENDTAB
  0
TABLE
  2
LTYPE
  5
5
330
0
100
AcDbSymbolTable
 70
     1
  0
LTYPE
  5
5B
330
5
100
AcDbSymbolTableRecord
100
AcDbLinetypeTableRecord
  2
ByBlock
 70
     0
  3

 72
    65
 73
     0
 40
0.0
  0
LTYPE
  5
5C
330
5
100
AcDbSymbolTableRecord
100
AcDbLinetypeTableRecord
  2
ByLayer
 70
     0
  3

 72
    65
 73
     0
 40
0.0
  0
LTYPE
  5
5D
330
5
100
AcDbSymbolTableRecord
100
AcDbLinetypeTableRecord
  2
Continuous
 70
     0
  3
Solid line
 72
    65
 73
     0
 40
0.0
  0
ENDTAB
  0
TABLE
  2
LAYER
  5
2
330
0
100
AcDbSymbolTable
 70
     4
  0
LAYER
  5
54
330
2
100
AcDbSymbolTableRecord
100
AcDbLayerTableRecord
  2
0
 70
     0
 62
     7
  6
Continuous
370
    -3
390
F
347
21
348
0
  0
LAYER
  5
78
330
2
100
AcDbSymbolTableRecord
100
AcDbLayerTableRecord
  2
默认值
 70
     0
 62
     7
  6
Continuous
370
     0
390
F
347
21
348
0
  0
LAYER
  5
79
330
2
100
AcDbSymbolTableRecord
100
AcDbLayerTableRecord
  2
Make2D__可见线__曲线
 70
     0
 62
     7
  6
Continuous
370
     0
390
F
347
21
348
0
  0
LAYER
  5
1B5
330
2
100
AcDbSymbolTableRecord
100
AcDbLayerTableRecord
  2
Make2D__可见线__正切线
 70
     0
 62
     7
  6
Continuous
370
     0
390
F
347
21
348
0
  0
ENDTAB
  0
TABLE
  2
STYLE
  5
3
330
0
100
AcDbSymbolTable
 70
     2
  0
STYLE
  5
55
330
3
100
AcDbSymbolTableRecord
100
AcDbTextStyleTableRecord
  2
Standard
 70
     0
 40
0.0
 41
1.0
 50
0.0
 71
     0
 42
0.2
  3
txt
  4

  0
STYLE
  5
5A
330
3
100
AcDbSymbolTableRecord
100
AcDbTextStyleTableRecord
  2
Annotative
 70
     0
 40
0.0
 41
1.0
 50
0.0
 71
     0
 42
0.2
  3
txt
  4

1001
AcadAnnotative
1000
AnnotativeData
1002
{
1070
     1
1070
     1
1002
}
  0
ENDTAB
  0
TABLE
  2
VIEW
  5
6
330
0
100
AcDbSymbolTable
 70
     0
  0
ENDTAB
  0
TABLE
  2
UCS
  5
7
330
0
100
AcDbSymbolTable
 70
     0
  0
ENDTAB
  0
TABLE
  2
APPID
  5
9
330
0
100
AcDbSymbolTable
 70
     2
  0
APPID
  5
56
330
9
100
AcDbSymbolTableRecord
100
AcDbRegAppTableRecord
  2
ACAD
 70
     0
  0
APPID
  5
5E
330
9
100
AcDbSymbolTableRecord
100
AcDbRegAppTableRecord
  2
AcadAnnotative
 70
     0
  0
ENDTAB
  0
TABLE
  2
DIMSTYLE
  5
A
330
0
100
AcDbSymbolTable
 70
     2
100
AcDbDimStyleTable
 71
     0
  0
DIMSTYLE
105
58
330
A
100
AcDbSymbolTableRecord
100
AcDbDimStyleTableRecord
  2
Standard
 70
     0
340
55
  0
DIMSTYLE
105
59
330
A
100
AcDbSymbolTableRecord
100
AcDbDimStyleTableRecord
  2
Annotative
 70
     0
340
55
1001
AcadAnnotative
1000
AnnotativeData
1002
{
1070
     1
1070
     1
1002
}
  0
ENDTAB
  0
TABLE
  2
BLOCK_RECORD
  5
1
330
0
100
AcDbSymbolTable
 70
     1
  0
BLOCK_RECORD
  5
70
330
1
100
AcDbSymbolTableRecord
100
AcDbBlockTableRecord
  2
*Model_Space
340
73
 70
     0
280
     1
281
     0
  0
BLOCK_RECORD
  5
6C
330
1
100
AcDbSymbolTableRecord
100
AcDbBlockTableRecord
  2
*Paper_Space
340
6F
 70
     0
280
     1
281
     0
  0
BLOCK_RECORD
  5
74
330
1
100
AcDbSymbolTableRecord
100
AcDbBlockTableRecord
  2
*Paper_Space0
340
77
 70
     0
280
     1
281
     0
  0
ENDTAB
  0
ENDSEC
  0
SECTION
  2
BLOCKS
  0
BLOCK
  5
71
330
70
100
AcDbEntity
  8
0
100
AcDbBlockBegin
  2
*Model_Space
 70
     0
 10
0.0
 20
0.0
 30
0.0
  3
*Model_Space
  1

  0
ENDBLK
  5
72
330
70
100
AcDbEntity
  8
0
100
AcDbBlockEnd
  0
BLOCK
  5
6D
330
6C
100
AcDbEntity
 67
     1
  8
0
100
AcDbBlockBegin
  2
*Paper_Space
 70
     0
 10
0.0
 20
0.0
 30
0.0
  3
*Paper_Space
  1

  0
ENDBLK
  5
6E
330
6C
100
AcDbEntity
 67
     1
  8
0
100
AcDbBlockEnd
  0
BLOCK
  5
75
330
74
100
AcDbEntity
 67
     1
  8
0
100
AcDbBlockBegin
  2
*Paper_Space0
 70
     0
 10
0.0
 20
0.0
 30
0.0
  3
*Paper_Space0
  1

  0
ENDBLK
  5
76
330
74
100
AcDbEntity
 67
     1
  8
0
100
AcDbBlockEnd
  0
ENDSEC
  0
SECTION
  2
ENTITIES
  0
SPLINE
  5
7A
330
70
100
AcDbEntity
  8
Make2D__可见线__曲线
 62
    18
420
        0
370
    35
100
AcDbSpline
210
0.0
220
0.0
230
1.0
 70
     8
 71
     3
 72
     8
 73
     4
 74
     0
 42
0.0000000001
 43
0.0000000001
 40
0.0
 40
0.0
 40
0.0
 40
0.0
 40
1.0
 40
1.0
 40
1.0
 40
1.0
 10
325.5240533176861
 20
152.2119346588112
 30
0.0
 10
325.5436733370688
 20
150.0048675728058
 30
0.0
 10
326.5054244758539
 20
148.0317599632126
 30
0.0
 10
327.8392156048162
 20
146.3777553103673
 30
0.0
  0
SPLINE
  5
7B
330
70
100
AcDbEntity
  8
Make2D__可见线__曲线
 62
    18
420
        0
370
    35
100
AcDbSpline
210
0.0
220
0.0
230
1.0
 70
     8
 71
     3
 72
     8
 73
     4
 74
     0
 42
0.0000000001
 43
0.0000000001
 40
0.0
 40
0.0
 40
0.0
 40
0.0
 40
1.0
 40
1.0
 40
1.0
 40
1.0
 10
413.5128066561487
 20
152.393142196314
 30
0.0
 10
413.4974438107861
 20
149.2491266375365
 30
0.0
 10
411.5848621100398
 20
146.6172676224503
 30
0.0
 10
409.4425781069032
 20
144.6728496638409
 30
0.0
  0
SPLINE
  5
7C
330
70
100
AcDbEntity
  8
Make2D__可见线__曲线
 62
    18
420
        0
370
    35
100
AcDbSpline
210
0.0
220
0.0
230
1.0
 70
     8
 71
     3
 72
    17
 73
    13
 74
     0
 42
0.0000000001
 43
0.0000000001
 40
0.0
 40
0.0
 40
0.0
 40
0.0
 40
1.0
 40
1.0
 40
1.0
 40
2.0
 40
2.0
 40
2.0
 40
3.0
 40
3.0
 40
3.0
 40
4.0
 40
4.0
 40
4.0
 40
4.0
 10
325.5240533176861
 20
152.2119346588112
 30
0.0
 10
325.4452030511106
 20
161.173656153531
 30
0.0
 10
326.9052286444018
 20
170.1013202561162
 30
0.0
 10
329.8528589148327
 20
178.5666182415563
 30
0.0
 10
331.3238050849494
 20
182.7914007170718
 30
0.0
 10
333.1608682205253
 20
186.8862468378088
 30
0.0
 10
335.3455388693083
 20
190.7904456003946
 30
0.0
 10
336.4394474971416
 20
192.7455990413089
 30
0.0
 10
337.6142424312982
 20
194.6426328021656
 30
0.0
 10
338.8784380198062
 20
196.4922823652683
 30
0.0
 10
340.142448513796
 20
198.3419319283703
 30
0.0
 10
341.483088140089
 20
200.125317652427
 30
0.0
 10
342.9107221919486
 20
201.8520644526058
 30
0.0
  0
SPLINE
  5
7D
330
70
100
AcDbEntity
  8
Make2D__可见线__曲线
 62
    18
420
        0
370
    35
100
AcDbSpline
210
0.0
220
0.0
230
1.0
 70
     8
 71
     3
 72
    14
 73
    10
 74
     0
 42
0.0000000001
 43
0.0000000001
 40
0.0
 40
0.0
 40
0.0
 40
0.0
 40
1.0
 40
1.0
 40
1.0
 40
2.0
 40
2.0
 40
2.0
 40
3.0
 40
3.0
 40
3.0
 40
3.0
 10
344.7727730880542
 20
197.0488615943534
 30
0.0
 10
346.0351177313447
 20
195.5216466894042
 30
0.0
 10
347.958249819867
 20
194.3351908003333
 30
0.0
 10
349.69073455024
 20
193.5065226232071
 30
0.0
 10
351.4961465224775
 20
192.6428715813344
 30
0.0
 10
353.504051902294
 20
191.968757330477
 30
0.0
 10
355.4329219210156
 20
191.4630790950729
 30
0.0
 10
359.3004719681511
 20
190.4491313009484
 30
0.0
 10
363.532658224569
 20
189.9406766477066
 30
0.0
 10
367.5151519701612
 20
189.8259180437719
 30
0.0
  0
SPLINE
  5
7E
330
70
100
AcDbEntity
  8
Make2D__可见线__曲线
 62
    18
420
        0
370
    35
100
AcDbSpline
210
0.0
220
0.0
230
1.0
 70
     8
 71
     3
 72
     8
 73
     4
 74
     0
 42
0.0000000001
 43
0.0000000001
 40
0.0
 40
0.0
 40
0.0
 40
0.0
 40
1.0
 40
1.0
 40
1.0
 40
1.0
 10
344.7653693071569
 20
197.0579312259545
 30
0.0
 10
343.8500768935126
 20
198.1684983608102
 30
0.0
 10
343.2357481734172
 20
199.5213542255885
 30
0.0
 10
343.4056649450491
 20
201.0274683549752
 30
0.0
  0
SPLINE
  5
7F
330
70
100
AcDbEntity
  8
Make2D__可见线__曲线
 62
    18
420
        0
370
    35
100
AcDbSpline
210
0.0
220
0.0
230
1.0
 70
     8
 71
     3
 72
     8
 73
     4
 74
     0
 42
0.0000000001
 43
0.0000000001
 40
0.0
 40
0.0
 40
0.0
 40
0.0
 40
1.0
 40
1.0
 40
1.0
 40
1.0
 10
355.5713726238292
 20
134.8326695654495
 30
0.0
 10
350.3716972984327
 20
135.5525021633582
 30
0.0
 10
344.8140491665706
 20
136.7918950858565
 30
0.0
 10
339.8844267494622
 20
138.667457882106
 30
0.0
  0
SPLINE
  5
80
330
70
100
AcDbEntity
  8
Make2D__可见线__曲线
 62
    18
420
        0
370
    35
100
AcDbSpline
210
0.0
220
0.0
230
1.0
 70
     8
 71
     3
 72
     8
 73
     4
 74
     0
 42
0.0000000001
 43
0.0000000001
 40
0.0
 40
0.0
 40
0.0
 40
0.0
 40
1.0
 40
1.0
 40
1.0
 40
1.0
 10
393.1681422182009
 20
219.920251358623
 30
0.0
 10
392.8299745256363
 20
220.7670587989515
 30
0.0
 10
392.4055527855976
 20
221.5439005097834
 30
0.0
 10
391.872110371821
 20
222.283538221597
 30
0.0
  0
SPLINE
  5
81
330
70
100
AcDbEntity
  8
Make2D__可见线__曲线
 62
    18
420
        0
370
    35
100
AcDbSpline
210
0.0
220
0.0
230
1.0
 70
     8
 71
     3
 72
     8
 73
     4
 74
     0
 42
0.0000000001
 43
0.0000000001
 40
0.0
 40
0.0
 40
0.0
 40
0.0
 40
1.0
 40
1.0
 40
1.0
 40
1.0
 10
366.3749697117053
 20
212.1348055542378
 30
0.0
 10
366.2970449177462
 20
210.4121308335532
 30
0.0
 10
366.5604344232295
 20
208.6881604512121
 30
0.0
 10
367.2060441176232
 20
207.0811698070755
 30
0.0
  0
SPLINE
  5
82
330
70
100
AcDbEntity
  8
Make2D__可见线__曲线
 62
    18
420
        0
370
    35
100
AcDbSpline
210
0.0
220
0.0
230
1.0
 70
     8
 71
     3
 72
    11
 73
     7
 74
     0
 42
0.0000000001
 43
0.0000000001
 40
0.0
 40
0.0
 40
0.0
 40
0.0
 40
1.0
 40
1.0
 40
1.0
 40
2.0
 40
2.0
 40
2.0
 40
2.0
 10
367.2060441176232
 20
207.0811698070755
 30
0.0
 10
368.550015445325
 20
203.7366968804564
 30
0.0
 10
371.3419812223494
 20
201.3939555094783
 30
0.0
 10
374.7878859472871
 20
200.4745910163385
 30
0.0
 10
378.1986227129504
 20
199.5644812493243
 30
0.0
 10
381.8329536617714
 20
200.1362382292532
 30
0.0
 10
384.9312508734937
 20
201.6693761589218
 30
0.0
  0
SPLINE
  5
83
330
70
100
AcDbEntity
  8
Make2D__可见线__曲线
 62
    18
420
        0
370
    35
100
AcDbSpline
210
0.0
220
0.0
230
1.0
 70
     8
 71
     3
 72
    11
 73
     7
 74
     0
 42
0.0000000001
 43
0.0000000001
 40
0.0
 40
0.0
 40
0.0
 40
0.0
 40
1.0
 40
1.0
 40
1.0
 40
2.0
 40
2.0
 40
2.0
 40
2.0
 10
384.9312508734937
 20
201.6693761589218
 30
0.0
 10
388.2011307075573
 20
203.28765756893
 30
0.0
 10
390.9405296402035
 20
205.995775527276
 30
0.0
 10
392.5364146129906
 20
209.2908282163933
 30
0.0
 10
394.123044859652
 20
212.5662608861305
 30
0.0
 10
394.5593126491321
 20
216.4365873511024
 30
0.0
 10
393.1681422182009
 20
219.920251358623
 30
0.0
  0
SPLINE
  5
84
330
70
100
AcDbEntity
  8
Make2D__可见线__曲线
 62
    18
420
        0
370
    35
100
AcDbSpline
210
0.0
220
0.0
230
1.0
 70
     8
 71
     3
 72
     8
 73
     4
 74
     0
 42
0.0000000001
 43
0.0000000001
 40
0.0
 40
0.0
 40
0.0
 40
0.0
 40
1.0
 40
1.0
 40
1.0
 40
1.0
 10
370.5984565255655
 20
208.0547669952999
 30
0.0
 10
370.929590626276
 20
207.2298007086228
 30
0.0
 10
371.3841827734772
 20
206.4636944800958
 30
0.0
 10
371.9542739027023
 20
205.7808807866818
 30
0.0
  0
SPLINE
  5
85
330
70
100
AcDbEntity
  8
Make2D__可见线__曲线
 62
    18
420
        0
370
    35
100
AcDbSpline
210
0.0
220
0.0
230
1.0
 70
     8
 71
     3
 72
     8
 73
     4
 74
     0
 42
0.0000000001
 43
0.0000000001
 40
0.0
 40
0.0
 40
0.0
 40
0.0
 40
1.0
 40
1.0
 40
1.0
 40
1.0
 10
369.9741327012518
 20
212.2155067660372
 30
0.0
 10
369.8727009029352
 20
210.8011995197988
 30
0.0
 10
370.0672352460599
 20
209.3776375474354
 30
0.0
 10
370.5984565255655
 20
208.0547669952999
 30
0.0
  0
SPLINE
  5
86
330
70
100
AcDbEntity
  8
Make2D__可见线__曲线
 62
    18
420
        0
370
    35
100
AcDbSpline
210
0.0
220
0.0
230
1.0
 70
     8
 71
     3
 72
    14
 73
    10
 74
     0
 42
0.0000000001
 43
0.0000000001
 40
0.0
 40
0.0
 40
0.0
 40
0.0
 40
1.0
 40
1.0
 40
1.0
 40
2.0
 40
2.0
 40
2.0
 40
3.0
 40
3.0
 40
3.0
 40
3.0
 10
336.0581527808419
 20
225.9793205518761
 30
0.0
 10
336.4142746420847
 20
225.6541094758849
 30
0.0
 10
336.6965437888635
 20
225.0294154625286
 30
0.0
 10
336.8597971576854
 20
224.6057341005811
 30
0.0
 10
337.0528507446251
 20
224.1044981337159
 30
0.0
 10
337.1974095666814
 20
223.593637251683
 30
0.0
 10
337.3164253446331
 20
223.0709303202099
 30
0.0
 10
337.5463127415464
 20
222.061054605581
 30
0.0
 10
337.6858740114959
 20
220.9303121677753
 30
0.0
 10
337.6897609964669
 20
219.8930424638191
 30
0.0
  0
SPLINE
  5
87
330
70
100
AcDbEntity
  8
Make2D__可见线__曲线
 62
    18
420
        0
370
    35
100
AcDbSpline
210
0.0
220
0.0
230
1.0
 70
     8
 71
     3
 72
     8
 73
     4
 74
     0
 42
0.0000000001
 43
0.0000000001
 40
0.0
 40
0.0
 40
0.0
 40
0.0
 40
1.0
 40
1.0
 40
1.0
 40
1.0
 10
336.1181234061234
 20
222.4297628943533
 30
0.0
 10
336.115161893765
 20
223.1893908145943
 30
0.0
 10
336.2652735514909
 20
223.9416149539373
 30
0.0
 10
336.5595738422284
 20
224.6418275324635
 30
0.0
  0
SPLINE
  5
88
330
70
100
AcDbEntity
  8
Make2D__可见线__曲线
 62
    18
420
        0
370
    35
100
AcDbSpline
210
0.0
220
0.0
230
1.0
 70
     8
 71
     3
 72
    17
 73
    13
 74
     0
 42
0.0000000001
 43
0.0000000001
 40
0.0
 40
0.0
 40
0.0
 40
0.0
 40
1.0
 40
1.0
 40
1.0
 40
2.0
 40
2.0
 40
2.0
 40
3.0
 40
3.0
 40
3.0
 40
4.0
 40
4.0
 40
4.0
 40
4.0
 10
350.1531006673876
 20
195.4948079836442
 30
0.0
 10
353.2032733032697
 20
193.9377928605778
 30
0.0
 10
356.90072148425
 20
192.9804839903311
 30
0.0
 10
360.2357545902253
 20
192.4353806216389
 30
0.0
 10
363.682399693251
 20
191.8721379897445
 30
0.0
 10
367.2887813691703
 20
191.6533562641781
 30
0.0
 10
370.7765174561866
 20
191.7383146499944
 30
0.0
 10
374.2537031554225
 20
191.822902846766
 30
0.0
 10
377.8639718163173
 20
192.2158585179819
 30
0.0
 10
381.2628625325451
 20
192.9865921095725
 30
0.0
 10
384.4616660699739
 20
193.7117924486335
 30
0.0
 10
388.264247939723
 20
194.9611804753468
 30
0.0
 10
390.9899498777039
 20
196.9637181140138
 30
0.0
  0
SPLINE
  5
89
330
70
100
AcDbEntity
  8
Make2D__可见线__曲线
 62
    18
420
        0
370
    35
100
AcDbSpline
210
0.0
220
0.0
230
1.0
 70
     8
 71
     3
 72
     8
 73
     4
 74
     0
 42
0.0000000001
 43
0.0000000001
 40
0.0
 40
0.0
 40
0.0
 40
0.0
 40
1.0
 40
1.0
 40
1.0
 40
1.0
 10
349.359785544054
 20
195.8496341832305
 30
0.0
 10
348.8561433484016
 20
196.1796577168065
 30
0.0
 10
348.3615707843437
 20
196.5217123943414
 30
0.0
 10
347.8749572847525
 20
196.8761684048831
 30
0.0
  0
SPLINE
  5
8A
330
70
100
AcDbEntity
  8
Make2D__可见线__曲线
 62
    18
420
        0
370
    35
100
AcDbSpline
210
0.0
220
0.0
230
1.0
 70
     8
 71
     3
 72
     8
 73
     4
 74
     0
 42
0.0000000001
 43
0.0000000001
 40
0.0
 40
0.0
 40
0.0
 40
0.0
 40
1.0
 40
1.0
 40
1.0
 40
1.0
 10
377.9998311958114
 20
210.7504836206398
 30
0.0
 10
377.7105284571852
 20
210.7917596991518
 30
0.0
 10
377.4208555295091
 20
210.8306295488706
 30
0.0
 10
377.1308124127898
 20
210.8672782643222
 30
0.0
  0
SPLINE
  5
8B
330
70
100
AcDbEntity
  8
Make2D__可见线__曲线
 62
    18
420
        0
370
    35
100
AcDbSpline
210
0.0
220
0.0
230
1.0
 70
     8
 71
     3
 72
     8
 73
     4
 74
     0
 42
0.0000000001
 43
0.0000000001
 40
0.0
 40
0.0
 40
0.0
 40
0.0
 40
1.0
 40
1.0
 40
1.0
 40
1.0
 10
343.4199172232809
 20
201.1401909191634
 30
0.0
 10
343.2048373881623
 20
199.5896541043818
 30
0.0
 10
343.8219425260974
 20
198.2025557529468
 30
0.0
 10
344.7653693071569
 20
197.0579312259545
 30
0.0
  0
SPLINE
  5
8C
330
70
100
AcDbEntity
  8
Make2D__可见线__曲线
 62
    18
420
        0
370
    35
100
AcDbSpline
210
0.0
220
0.0
230
1.0
 70
     8
 71
     3
 72
     8
 73
     4
 74
     0
 42
0.0000000001
 43
0.0000000001
 40
0.0
 40
0.0
 40
0.0
 40
0.0
 40
1.0
 40
1.0
 40
1.0
 40
1.0
 10
389.5926713275313
 20
196.0526828743877
 30
0.0
 10
389.3255799315964
 20
195.8411198351966
 30
0.0
 10
389.0510847547648
 20
195.6414028454457
 30
0.0
 10
388.7656690011083
 20
195.4550126613127
 30
0.0
  0
SPLINE
  5
8D
330
70
100
AcDbEntity
  8
Make2D__可见线__曲线
 62
    18
420
        0
370
    35
100
AcDbSpline
210
0.0
220
0.0
230
1.0
 70
     8
 71
     3
 72
     8
 73
     4
 74
     0
 42
0.0000000001
 43
0.0000000001
 40
0.0
 40
0.0
 40
0.0
 40
0.0
 40
1.0
 40
1.0
 40
1.0
 40
1.0
 10
391.1495013560795
 20
197.4897567468912
 30
0.0
 10
390.6614071003084
 20
196.975008879886
 30
0.0
 10
390.1494356511358
 20
196.4937631214475
 30
0.0
 10
389.5926713275313
 20
196.0526828743877
 30
0.0
  0
SPLINE
  5
8E
330
70
100
AcDbEntity
  8
Make2D__可见线__曲线
 62
    18
420
        0
370
    35
100
AcDbSpline
210
0.0
220
0.0
230
1.0
 70
     8
 71
     3
 72
     8
 73
     4
 74
     0
 42
0.0000000001
 43
0.0000000001
 40
0.0
 40
0.0
 40
0.0
 40
0.0
 40
1.0
 40
1.0
 40
1.0
 40
1.0
 10
349.0815884767766
 20
196.4922823652683
 30
0.0
 10
348.5598070179155
 20
196.7886186957517
 30
0.0
 10
348.0483908523114
 20
197.1005029661236
 30
0.0
 10
347.546414507357
 20
197.4294159325638
 30
0.0
  0
SPLINE
  5
8F
330
70
100
AcDbEntity
  8
Make2D__可见线__曲线
 62
    18
420
        0
370
    35
100
AcDbSpline
210
0.0
220
0.0
230
1.0
 70
     8
 71
     3
 72
     8
 73
     4
 74
     0
 42
0.0000000001
 43
0.0000000001
 40
0.0
 40
0.0
 40
0.0
 40
0.0
 40
1.0
 40
1.0
 40
1.0
 40
1.0
 10
347.546414507357
 20
197.4294159325638
 30
0.0
 10
347.4770040614317
 20
197.5067854429588
 30
0.0
 10
347.4092594662032
 20
197.5854506150117
 30
0.0
 10
347.3431807216797
 20
197.6655965432425
 30
0.0
  0
SPLINE
  5
90
330
70
100
AcDbEntity
  8
Make2D__可见线__曲线
 62
    18
420
        0
370
    35
100
AcDbSpline
210
0.0
220
0.0
230
1.0
 70
     8
 71
     3
 72
     8
 73
     4
 74
     0
 42
0.0000000001
 43
0.0000000001
 40
0.0
 40
0.0
 40
0.0
 40
0.0
 40
1.0
 40
1.0
 40
1.0
 40
1.0
 10
345.9849571157517
 20
198.6147612545007
 30
0.0
 10
346.428443591604
 20
198.2847377209253
 30
0.0
 10
346.8808146045334
 20
197.9687813710592
 30
0.0
 10
347.3431807216797
 20
197.6655965432425
 30
0.0
  0
SPLINE
  5
91
330
70
100
AcDbEntity
  8
Make2D__可见线__曲线
 62
    18
420
        0
370
    35
100
AcDbSpline
210
0.0
220
0.0
230
1.0
 70
     8
 71
     3
 72
     8
 73
     4
 74
     0
 42
0.0000000001
 43
0.0000000001
 40
0.0
 40
0.0
 40
0.0
 40
0.0
 40
1.0
 40
1.0
 40
1.0
 40
1.0
 10
350.1532857619122
 20
195.4946228891228
 30
0.0
 10
350.2210303571394
 20
195.4407603830815
 30
0.0
 10
350.2895153304547
 20
195.3876382551307
 30
0.0
 10
350.3585555873373
 20
195.3352565052712
 30
0.0
  0
SPLINE
  5
92
330
70
100
AcDbEntity
  8
Make2D__可见线__曲线
 62
    18
420
        0
370
    35
100
AcDbSpline
210
0.0
220
0.0
230
1.0
 70
     8
 71
     3
 72
     8
 73
     4
 74
     0
 42
0.0000000001
 43
0.0000000001
 40
0.0
 40
0.0
 40
0.0
 40
0.0
 40
1.0
 40
1.0
 40
1.0
 40
1.0
 10
349.0815884767766
 20
196.4922823652683
 30
0.0
 10
349.4110567267828
 20
196.127090872423
 30
0.0
 10
349.7692146277735
 20
195.800399040252
 30
0.0
 10
350.1532857619122
 20
195.4946228891228
 30
0.0
  0
SPLINE
  5
93
330
70
100
AcDbEntity
  8
Make2D__可见线__曲线
 62
    18
420
        0
370
    35
100
AcDbSpline
210
0.0
220
0.0
230
1.0
 70
     8
 71
     3
 72
    14
 73
    10
 74
     0
 42
0.0000000001
 43
0.0000000001
 40
0.0
 40
0.0
 40
0.0
 40
0.0
 40
1.0
 40
1.0
 40
1.0
 40
2.0
 40
2.0
 40
2.0
 40
3.0
 40
3.0
 40
3.0
 40
3.0
 10
344.7727730880542
 20
197.0488615943534
 30
0.0
 10
346.5557886230694
 20
194.8919551239404
 30
0.0
 10
349.6089227713106
 20
193.4117542276992
 30
0.0
 10
352.0925210738946
 20
192.5007189880731
 30
0.0
 10
354.7812041073798
 20
191.5145353723205
 30
0.0
 10
357.7171734228927
 20
190.8496758475875
 30
0.0
 10
360.539679796128
 20
190.4309920377461
 30
0.0
 10
366.1600749711111
 20
189.5973263085138
 30
0.0
 10
372.2941074459661
 20
189.5917734728397
 30
0.0
 10
377.9165386607015
 20
190.4028576703296
 30
0.0
  0
SPLINE
  5
94
330
70
100
AcDbEntity
  8
Make2D__可见线__曲线
 62
    18
420
        0
370
    35
100
AcDbSpline
210
0.0
220
0.0
230
1.0
 70
     8
 71
     3
 72
    14
 73
    10
 74
     0
 42
0.0000000001
 43
0.0000000001
 40
0.0
 40
0.0
 40
0.0
 40
0.0
 40
1.0
 40
1.0
 40
1.0
 40
2.0
 40
2.0
 40
2.0
 40
3.0
 40
3.0
 40
3.0
 40
3.0
 10
377.9165386607015
 20
190.4028576703296
 30
0.0
 10
381.4703534922367
 20
190.9155694975883
 30
0.0
 10
385.3382737284219
 20
191.8336383290696
 30
0.0
 10
388.6405451039152
 20
193.3308679213772
 30
0.0
 10
390.2752999264225
 20
194.0719863893713
 30
0.0
 10
391.9972342690152
 20
195.0605762339157
 30
0.0
 10
393.3173284033149
 20
196.3192189867527
 30
0.0
 10
394.6342759307322
 20
197.5750853217521
 30
0.0
 10
395.7106005789306
 20
199.2644430283912
 30
0.0
 10
395.4281463376331
 20
201.2456947969743
 30
0.0
  0
SPLINE
  5
95
330
70
100
AcDbEntity
  8
Make2D__可见线__曲线
 62
    18
420
        0
370
    35
100
AcDbSpline
210
0.0
220
0.0
230
1.0
 70
     8
 71
     3
 72
    11
 73
     7
 74
     0
 42
0.0000000001
 43
0.0000000001
 40
0.0
 40
0.0
 40
0.0
 40
0.0
 40
1.0
 40
1.0
 40
1.0
 40
2.0
 40
2.0
 40
2.0
 40
2.0
 10
377.5204363825974
 20
192.2591706362416
 30
0.0
 10
380.3973605454459
 20
192.673782366588
 30
0.0
 10
383.4101440877883
 20
193.3540047366869
 30
0.0
 10
386.1413988614434
 20
194.3853514159237
 30
0.0
 10
388.5920503390254
 20
195.3108240283036
 30
0.0
 10
391.8306491987857
 20
196.9148531600812
 30
0.0
 10
393.3971041425029
 20
199.2985004205266
 30
0.0
  0
SPLINE
  5
96
330
70
100
AcDbEntity
  8
Make2D__可见线__曲线
 62
    18
420
        0
370
    35
100
AcDbSpline
210
0.0
220
0.0
230
1.0
 70
     8
 71
     3
 72
     8
 73
     4
 74
     0
 42
0.0000000001
 43
0.0000000001
 40
0.0
 40
0.0
 40
0.0
 40
0.0
 40
1.0
 40
1.0
 40
1.0
 40
1.0
 10
350.3585555873373
 20
195.3352565052712
 30
0.0
 10
349.9744844531985
 20
195.5246082017632
 30
0.0
 10
349.5968916273511
 20
195.7245102860375
 30
0.0
 10
349.2255920152592
 20
195.9381093649744
 30
0.0
  0
SPLINE
  5
97
330
70
100
AcDbEntity
  8
Make2D__可见线__曲线
 62
    18
420
        0
370
    35
100
AcDbSpline
210
0.0
220
0.0
230
1.0
 70
     8
 71
     3
 72
    11
 73
     7
 74
     0
 42
0.0000000001
 43
0.0000000001
 40
0.0
 40
0.0
 40
0.0
 40
0.0
 40
1.0
 40
1.0
 40
1.0
 40
2.0
 40
2.0
 40
2.0
 40
2.0
 10
377.5204363825974
 20
192.2591706362416
 30
0.0
 10
373.0220842028674
 20
191.6105994294857
 30
0.0
 10
368.2312826776173
 20
191.5163863175456
 30
0.0
 10
363.7101638716216
 20
191.9500627837062
 30
0.0
 10
359.3732141154852
 20
192.366155270233
 30
0.0
 10
354.3436406562451
 20
193.3715887163231
 30
0.0
 10
350.3585555873373
 20
195.3352565052712
 30
0.0
  0
SPLINE
  5
98
330
70
100
AcDbEntity
  8
Make2D__可见线__曲线
 62
    18
420
        0
370
    35
100
AcDbSpline
210
0.0
220
0.0
230
1.0
 70
     8
 71
     3
 72
    11
 73
     7
 74
     0
 42
0.0000000001
 43
0.0000000001
 40
0.0
 40
0.0
 40
0.0
 40
0.0
 40
1.0
 40
1.0
 40
1.0
 40
2.0
 40
2.0
 40
2.0
 40
2.0
 10
342.9173855947535
 20
201.8602086115943
 30
0.0
 10
344.3018926228786
 20
200.9528752624172
 30
0.0
 10
345.4507743238878
 20
201.4507795278774
 30
0.0
 10
346.304245167021
 20
202.7399628769228
 30
0.0
 10
347.0031620838926
 20
203.7959271276491
 30
0.0
 10
347.4322111869935
 20
205.2633565018389
 30
0.0
 10
347.6924540855932
 20
206.4648050472303
 30
0.0
  0
SPLINE
  5
99
330
70
100
AcDbEntity
  8
Make2D__可见线__曲线
 62
    18
420
        0
370
    35
100
AcDbSpline
210
0.0
220
0.0
230
1.0
 70
     8
 71
     3
 72
     8
 73
     4
 74
     0
 42
0.0000000001
 43
0.0000000001
 40
0.0
 40
0.0
 40
0.0
 40
0.0
 40
1.0
 40
1.0
 40
1.0
 40
1.0
 10
341.6681826625648
 20
203.0122369194859
 30
0.0
 10
341.9876558083585
 20
202.6342739045892
 30
0.0
 10
342.3260085954432
 20
202.2890726201713
 30
0.0
 10
342.7265531420848
 20
201.9932915732545
 30
0.0
  0
SPLINE
  5
9A
330
70
100
AcDbEntity
  8
Make2D__可见线__曲线
 62
    18
420
        0
370
    35
100
AcDbSpline
210
0.0
220
0.0
230
1.0
 70
     8
 71
     3
 72
    14
 73
    10
 74
     0
 42
0.0000000001
 43
0.0000000001
 40
0.0
 40
0.0
 40
0.0
 40
0.0
 40
1.0
 40
1.0
 40
1.0
 40
2.0
 40
2.0
 40
2.0
 40
3.0
 40
3.0
 40
3.0
 40
3.0
 10
336.0122493392684
 20
228.6785539731436
 30
0.0
 10
336.5340307981231
 20
227.9542791066945
 30
0.0
 10
336.9460512051589
 20
226.9360741385543
 30
0.0
 10
337.224248272442
 20
226.1059252052489
 30
0.0
 10
337.5278032893008
 20
225.2004428012957
 30
0.0
 10
337.7578757807381
 20
224.282188875293
 30
0.0
 10
337.9422299251258
 20
223.3461658751315
 30
0.0
 10
338.295760463053
 20
221.5503788180694
 30
0.0
 10
338.5002899103914
 20
219.5058247227994
 30
0.0
 10
338.4262521013969
 20
217.6702423434052
 30
0.0
  0
SPLINE
  5
9B
330
70
100
AcDbEntity
  8
Make2D__可见线__曲线
 62
    18
420
        0
370
    35
100
AcDbSpline
210
0.0
220
0.0
230
1.0
 70
     8
 71
     3
 72
    17
 73
    13
 74
     0
 42
0.0000000001
 43
0.0000000001
 40
0.0
 40
0.0
 40
0.0
 40
0.0
 40
1.0
 40
1.0
 40
1.0
 40
2.0
 40
2.0
 40
2.0
 40
3.0
 40
3.0
 40
3.0
 40
4.0
 40
4.0
 40
4.0
 40
4.0
 10
345.2884464276726
 20
233.8963685617411
 30
0.0
 10
344.5745368544824
 20
236.0995486627735
 30
0.0
 10
343.5602188713133
 20
238.6810619677466
 30
0.0
 10
342.284177233364
 20
240.6499124033235
 30
0.0
 10
341.6950213683247
 20
241.5589116032031
 30
0.0
 10
340.7736208354384
 20
242.7623961883429
 30
0.0
 10
339.7013682667349
 20
243.2386443946739
 30
0.0
 10
339.1107316455158
 20
243.5009233330214
 30
0.0
 10
338.5043619898799
 20
243.5275769442581
 30
0.0
 10
337.9172421645884
 20
243.2138417286611
 30
0.0
 10
337.3665859602208
 20
242.9195414379241
 30
0.0
 10
336.9590078217298
 20
242.4033128147384
 30
0.0
 10
336.6515658198955
 20
241.8915264600929
 30
0.0
  0
SPLINE
  5
9C
330
70
100
AcDbEntity
  8
Make2D__可见线__曲线
 62
    18
420
        0
370
    35
100
AcDbSpline
210
0.0
220
0.0
230
1.0
 70
     8
 71
     3
 72
     8
 73
     4
 74
     0
 42
0.0000000001
 43
0.0000000001
 40
0.0
 40
0.0
 40
0.0
 40
0.0
 40
1.0
 40
1.0
 40
1.0
 40
1.0
 10
353.8886783200006
 20
132.6087588778998
 30
0.0
 10
352.6046776175809
 20
132.8330934391404
 30
0.0
 10
351.3284508851122
 20
133.0887089746791
 30
0.0
 10
350.0581471773557
 20
133.380417942101
 30
0.0
  0
SPLINE
  5
9D
330
70
100
AcDbEntity
  8
Make2D__可见线__曲线
 62
    18
420
        0
370
    35
100
AcDbSpline
210
0.0
220
0.0
230
1.0
 70
     8
 71
     3
 72
     8
 73
     4
 74
     0
 42
0.0000000001
 43
0.0000000001
 40
0.0
 40
0.0
 40
0.0
 40
0.0
 40
1.0
 40
1.0
 40
1.0
 40
1.0
 10
336.3158043561272
 20
241.1616987579703
 30
0.0
 10
337.606653555877
 20
244.051209348343
 30
0.0
 10
339.5264539429962
 20
244.2540729449776
 30
0.0
 10
341.5376910242209
 20
241.8437720732943
 30
0.0
  0
SPLINE
  5
9E
330
70
100
AcDbEntity
  8
Make2D__可见线__曲线
 62
    18
420
        0
370
    35
100
AcDbSpline
210
0.0
220
0.0
230
1.0
 70
     8
 71
     3
 72
    20
 73
    16
 74
     0
 42
0.0000000001
 43
0.0000000001
 40
0.0
 40
0.0
 40
0.0
 40
0.0
 40
1.0
 40
1.0
 40
1.0
 40
2.0
 40
2.0
 40
2.0
 40
3.0
 40
3.0
 40
3.0
 40
4.0
 40
4.0
 40
4.0
 40
5.0
 40
5.0
 40
5.0
 40
5.0
 10
336.3158043561272
 20
241.1616987579703
 30
0.0
 10
336.8931141717308
 20
242.4536585248515
 30
0.0
 10
337.5403897168276
 20
243.7013807008629
 30
0.0
 10
338.2644794887548
 20
244.9172666190088
 30
0.0
 10
338.9885692606812
 20
246.1335227261975
 30
0.0
 10
339.7772570209521
 20
247.2973970835272
 30
0.0
 10
340.6383167395071
 20
248.4209208349569
 30
0.0
 10
342.3563640971295
 20
250.6622304076195
 30
0.0
 10
344.3307673683812
 20
252.6951235479716
 30
0.0
 10
346.5211759473636
 20
254.4777688939382
 30
0.0
 10
348.7130652825238
 20
256.2615248070407
 30
0.0
 10
351.1061523636155
 20
257.7826315927479
 30
0.0
 10
353.6517573312282
 20
259.009993371286
 30
0.0
 10
356.1975473933653
 20
260.2375402443468
 30
0.0
 10
358.8782713623847
 20
261.1626426676821
 30
0.0
 10
361.6391412596349
 20
261.7666060945211
 30
0.0
  0
SPLINE
  5
9F
330
70
100
AcDbEntity
  8
Make2D__可见线__曲线
 62
    18
420
        0
370
    35
100
AcDbSpline
210
0.0
220
0.0
230
1.0
 70
     8
 71
     3
 72
     8
 73
     4
 74
     0
 42
0.0000000001
 43
0.0000000001
 40
0.0
 40
0.0
 40
0.0
 40
0.0
 40
1.0
 40
1.0
 40
1.0
 40
1.0
 10
344.9463917501364
 20
235.5202028074228
 30
0.0
 10
345.1290800438211
 20
234.2084379266363
 30
0.0
 10
345.524071754784
 20
232.9375789353151
 30
0.0
 10
346.1380302858406
 20
231.7613032449806
 30
0.0
  0
SPLINE
  5
A0
330
70
100
AcDbEntity
  8
Make2D__可见线__曲线
 62
    18
420
        0
370
    35
100
AcDbSpline
210
0.0
220
0.0
230
1.0
 70
     8
 71
     3
 72
     8
 73
     4
 74
     0
 42
0.0000000001
 43
0.0000000001
 40
0.0
 40
0.0
 40
0.0
 40
0.0
 40
1.0
 40
1.0
 40
1.0
 40
1.0
 10
341.5376910242209
 20
241.8437720732943
 30
0.0
 10
344.6583846731655
 20
246.4635462597728
 30
0.0
 10
348.7308343566833
 20
250.4314175380911
 30
0.0
 10
353.4072474670395
 20
253.4584533586635
 30
0.0
  0
SPLINE
  5
A1
330
70
100
AcDbEntity
  8
Make2D__可见线__曲线
 62
    18
420
        0
370
    35
100
AcDbSpline
210
0.0
220
0.0
230
1.0
 70
     8
 71
     3
 72
     8
 73
     4
 74
     0
 42
0.0000000001
 43
0.0000000001
 40
0.0
 40
0.0
 40
0.0
 40
0.0
 40
1.0
 40
1.0
 40
1.0
 40
1.0
 10
352.3401775449669
 20
194.4675333839029
 30
0.0
 10
352.2430029206633
 20
194.5221362680335
 30
0.0
 10
352.1460133908906
 20
194.5772944357307
 30
0.0
 10
352.049394050155
 20
194.6331929815186
 30
0.0
  0
SPLINE
  5
A2
330
70
100
AcDbEntity
  8
Make2D__可见线__曲线
 62
    18
420
        0
370
    35
100
AcDbSpline
210
0.0
220
0.0
230
1.0
 70
     8
 71
     3
 72
     8
 73
     4
 74
     0
 42
0.0000000001
 43
0.0000000001
 40
0.0
 40
0.0
 40
0.0
 40
0.0
 40
1.0
 40
1.0
 40
1.0
 40
1.0
 10
342.8329824925083
 20
201.7578513406645
 30
0.0
 10
342.49981235205
 20
202.116934714269
 30
0.0
 10
342.1742310870135
 20
202.4823113016362
 30
0.0
 10
341.8558685083549
 20
202.8545363863355
 30
0.0
  0
SPLINE
  5
A3
330
70
100
AcDbEntity
  8
Make2D__可见线__曲线
 62
    18
420
        0
370
    35
100
AcDbSpline
210
0.0
220
0.0
230
1.0
 70
     8
 71
     3
 72
     8
 73
     4
 74
     0
 42
0.0000000001
 43
0.0000000001
 40
0.0
 40
0.0
 40
0.0
 40
0.0
 40
1.0
 40
1.0
 40
1.0
 40
1.0
 10
347.3731660343233
 20
197.6295031113607
 30
0.0
 10
345.736930455631
 20
198.8812973668658
 30
0.0
 10
344.2343331221707
 20
200.2476651317842
 30
0.0
 10
342.8329824925083
 20
201.7578513406645
 30
0.0
  0
SPLINE
  5
A4
330
70
100
AcDbEntity
  8
Make2D__可见线__曲线
 62
    18
420
        0
370
    35
100
AcDbSpline
210
0.0
220
0.0
230
1.0
 70
     8
 71
     3
 72
     8
 73
     4
 74
     0
 42
0.0000000001
 43
0.0000000001
 40
0.0
 40
0.0
 40
0.0
 40
0.0
 40
1.0
 40
1.0
 40
1.0
 40
1.0
 10
348.1094720447339
 20
197.0808829467415
 30
0.0
 10
348.0968856172
 20
197.0899525783426
 30
0.0
 10
348.0842991896726
 20
197.0992073044664
 30
0.0
 10
348.0717127621444
 20
197.1082769360675
 30
0.0
  0
SPLINE
  5
A5
330
70
100
AcDbEntity
  8
Make2D__可见线__曲线
 62
    18
420
        0
370
    35
100
AcDbSpline
210
0.0
220
0.0
230
1.0
 70
     8
 71
     3
 72
     8
 73
     4
 74
     0
 42
0.0000000001
 43
0.0000000001
 40
0.0
 40
0.0
 40
0.0
 40
0.0
 40
1.0
 40
1.0
 40
1.0
 40
1.0
 10
393.1712888250845
 20
199.0998939979102
 30
0.0
 10
391.2894328150678
 20
197.4584757725923
 30
0.0
 10
389.2911523504151
 20
196.0480555113255
 30
0.0
 10
387.1144407660968
 20
194.8243956232363
 30
0.0
  0
SPLINE
  5
A6
330
70
100
AcDbEntity
  8
Make2D__可见线__曲线
 62
    18
420
        0
370
    35
100
AcDbSpline
210
0.0
220
0.0
230
1.0
 70
     8
 71
     3
 72
    11
 73
     7
 74
     0
 42
0.0000000001
 43
0.0000000001
 40
0.0
 40
0.0
 40
0.0
 40
0.0
 40
1.0
 40
1.0
 40
1.0
 40
2.0
 40
2.0
 40
2.0
 40
2.0
 10
344.7144683134766
 20
201.2884516316661
 30
0.0
 10
345.8420641443993
 20
201.4504093388322
 30
0.0
 10
346.5680048615483
 20
202.6266850291679
 30
0.0
 10
346.9705854479326
 20
203.4883000312942
 30
0.0
 10
347.4211055156446
 20
204.4519021153031
 30
0.0
 10
347.7292878955656
 20
205.583940214766
 30
0.0
 10
347.9406658402333
 20
206.6171378392279
 30
0.0
  0
SPLINE
  5
A7
330
70
100
AcDbEntity
  8
Make2D__可见线__曲线
 62
    18
420
        0
370
    35
100
AcDbSpline
210
0.0
220
0.0
230
1.0
 70
     8
 71
     3
 72
    17
 73
    13
 74
     0
 42
0.0000000001
 43
0.0000000001
 40
0.0
 40
0.0
 40
0.0
 40
0.0
 40
1.0
 40
1.0
 40
1.0
 40
2.0
 40
2.0
 40
2.0
 40
3.0
 40
3.0
 40
3.0
 40
4.0
 40
4.0
 40
4.0
 40
4.0
 10
368.8657867006678
 20
204.0931889307458
 30
0.0
 10
371.045459797344
 20
201.4770629500695
 30
0.0
 10
374.2290855839343
 20
200.1156927372585
 30
0.0
 10
377.5594913268421
 20
199.975946372789
 30
0.0
 10
380.8845293286005
 20
199.8363851028421
 30
0.0
 10
384.1768055998859
 20
200.9012338906457
 30
0.0
 10
386.9002864035952
 20
202.7397777824008
 30
0.0
 10
389.6315411772515
 20
204.5836894153067
 30
0.0
 10
391.8406443030039
 20
207.2347982607303
 30
0.0
 10
393.0635638130013
 20
210.3151413037761
 30
0.0
 10
394.2800050147118
 20
213.3786407452763
 30
0.0
 10
394.4952699443551
 20
216.8476822855218
 30
0.0
 10
393.2434756888455
 20
219.9822580236523
 30
0.0
  0
SPLINE
  5
A8
330
70
100
AcDbEntity
  8
Make2D__可见线__曲线
 62
    18
420
        0
370
    35
100
AcDbSpline
210
0.0
220
0.0
230
1.0
 70
     8
 71
     3
 72
     8
 73
     4
 74
     0
 42
0.0000000001
 43
0.0000000001
 40
0.0
 40
0.0
 40
0.0
 40
0.0
 40
1.0
 40
1.0
 40
1.0
 40
1.0
 10
342.7265531420848
 20
201.9932915732545
 30
0.0
 10
343.2657334860563
 20
201.5579492563908
 30
0.0
 10
343.9631696467468
 20
201.1805415250627
 30
0.0
 10
344.7144683134766
 20
201.2884516316661
 30
0.0
  0
SPLINE
  5
A9
330
70
100
AcDbEntity
  8
Make2D__可见线__曲线
 62
    18
420
        0
370
    35
100
AcDbSpline
210
0.0
220
0.0
230
1.0
 70
     8
 71
     3
 72
    14
 73
    10
 74
     0
 42
0.0000000001
 43
0.0000000001
 40
0.0
 40
0.0
 40
0.0
 40
0.0
 40
1.0
 40
1.0
 40
1.0
 40
2.0
 40
2.0
 40
2.0
 40
3.0
 40
3.0
 40
3.0
 40
3.0
 10
396.915751014769
 20
249.9011217311967
 30
0.0
 10
394.5548703805881
 20
252.6675444641223
 30
0.0
 10
391.6770207451335
 20
254.9060776189485
 30
0.0
 10
388.4395324525045
 20
256.5515679237594
 30
0.0
 10
385.2037100105787
 20
258.1961327559597
 30
0.0
 10
381.6957986206176
 20
259.2052680924987
 30
0.0
 10
378.099226954386
 20
259.6185841611872
 30
0.0
 10
370.8603652748689
 20
260.4505840397177
 30
0.0
 10
363.5182208518126
 20
258.857845673811
 30
0.0
 10
357.0996980959136
 20
255.5875956507046
 30
0.0
  0
SPLINE
  5
AA
330
70
100
AcDbEntity
  8
Make2D__可见线__曲线
 62
    18
420
        0
370
    35
100
AcDbSpline
210
0.0
220
0.0
230
1.0
 70
     8
 71
     3
 72
     8
 73
     4
 74
     0
 42
0.0000000001
 43
0.0000000001
 40
0.0
 40
0.0
 40
0.0
 40
0.0
 40
1.0
 40
1.0
 40
1.0
 40
1.0
 10
366.2637279037001
 20
212.1285123404737
 30
0.0
 10
366.1874689604397
 20
210.3984338388906
 30
0.0
 10
366.4528945056708
 20
208.6676149592162
 30
0.0
 10
367.1014657124286
 20
207.0539609122715
 30
0.0
  0
SPLINE
  5
AB
330
70
100
AcDbEntity
  8
Make2D__可见线__曲线
 62
    18
420
        0
370
    35
100
AcDbSpline
210
0.0
220
0.0
230
1.0
 70
     8
 71
     3
 72
     8
 73
     4
 74
     0
 42
0.0000000001
 43
0.0000000001
 40
0.0
 40
0.0
 40
0.0
 40
0.0
 40
1.0
 40
1.0
 40
1.0
 40
1.0
 10
391.4221455876833
 20
223.0229908388887
 30
0.0
 10
390.092981821782
 20
224.5962942799347
 30
0.0
 10
388.3669753996944
 20
225.7386976726565
 30
0.0
 10
386.4281102767597
 20
226.4050379535701
 30
0.0
  0
SPLINE
  5
AC
330
70
100
AcDbEntity
  8
Make2D__可见线__曲线
 62
    18
420
        0
370
    35
100
AcDbSpline
210
0.0
220
0.0
230
1.0
 70
     8
 71
     3
 72
     8
 73
     4
 74
     0
 42
0.0000000001
 43
0.0000000001
 40
0.0
 40
0.0
 40
0.0
 40
0.0
 40
1.0
 40
1.0
 40
1.0
 40
1.0
 10
382.8861414946556
 20
209.3311788222946
 30
0.0
 10
382.9176075634791
 20
209.2473310036116
 30
0.0
 10
382.9148311456439
 20
209.1566346875985
 30
0.0
 10
382.8898433851072
 20
209.0726017743942
 30
0.0
  0
SPLINE
  5
AD
330
70
100
AcDbEntity
  8
Make2D__可见线__曲线
 62
    18
420
        0
370
    35
100
AcDbSpline
210
0.0
220
0.0
230
1.0
 70
     8
 71
     3
 72
    11
 73
     7
 74
     0
 42
0.0000000001
 43
0.0000000001
 40
0.0
 40
0.0
 40
0.0
 40
0.0
 40
1.0
 40
1.0
 40
1.0
 40
2.0
 40
2.0
 40
2.0
 40
2.0
 10
382.3217882956292
 20
209.5120161707527
 30
0.0
 10
382.4222946213346
 20
209.5545879109212
 30
0.0
 10
382.5383488869271
 20
209.5706911343777
 30
0.0
 10
382.6464440880544
 20
209.5420014833945
 30
0.0
 10
382.7562051398796
 20
209.5129416433647
 30
0.0
 10
382.8454206997122
 20
209.4394591179419
 30
0.0
 10
382.8861414946556
 20
209.3311788222946
 30
0.0
  0
SPLINE
  5
AE
330
70
100
AcDbEntity
  8
Make2D__可见线__曲线
 62
    18
420
        0
370
    35
100
AcDbSpline
210
0.0
220
0.0
230
1.0
 70
     8
 71
     3
 72
     8
 73
     4
 74
     0
 42
0.0000000001
 43
0.0000000001
 40
0.0
 40
0.0
 40
0.0
 40
0.0
 40
1.0
 40
1.0
 40
1.0
 40
1.0
 10
349.2962981228455
 20
196.2999691564153
 30
0.0
 10
348.8892752679224
 20
196.5437386425166
 30
0.0
 10
348.4935431788681
 20
196.8021305958924
 30
0.0
 10
348.1094720447339
 20
197.0808829467415
 30
0.0
  0
SPLINE
  5
AF
330
70
100
AcDbEntity
  8
Make2D__可见线__曲线
 62
    18
420
        0
370
    35
100
AcDbSpline
210
0.0
220
0.0
230
1.0
 70
     8
 71
     3
 72
     8
 73
     4
 74
     0
 42
0.0000000001
 43
0.0000000001
 40
0.0
 40
0.0
 40
0.0
 40
0.0
 40
1.0
 40
1.0
 40
1.0
 40
1.0
 10
367.1014657124286
 20
207.0539609122715
 30
0.0
 10
367.5329210443201
 20
205.9802275873881
 30
0.0
 10
368.1244831381504
 20
204.9827532057653
 30
0.0
 10
368.8657867006678
 20
204.0931889307458
 30
0.0
  0
SPLINE
  5
B0
330
70
100
AcDbEntity
  8
Make2D__可见线__曲线
 62
    18
420
        0
370
    35
100
AcDbSpline
210
0.0
220
0.0
230
1.0
 70
     8
 71
     3
 72
     8
 73
     4
 74
     0
 42
0.0000000001
 43
0.0000000001
 40
0.0
 40
0.0
 40
0.0
 40
0.0
 40
1.0
 40
1.0
 40
1.0
 40
1.0
 10
391.872110371821
 20
222.283538221597
 30
0.0
 10
391.5746634742049
 20
222.7736685171133
 30
0.0
 10
391.2442697515862
 20
223.2336284054659
 30
0.0
 10
390.8742658011554
 20
223.671562045644
 30
0.0
  0
SPLINE
  5
B1
330
70
100
AcDbEntity
  8
Make2D__可见线__曲线
 62
    18
420
        0
370
    35
100
AcDbSpline
210
0.0
220
0.0
230
1.0
 70
     8
 71
     3
 72
     8
 73
     4
 74
     0
 42
0.0000000001
 43
0.0000000001
 40
0.0
 40
0.0
 40
0.0
 40
0.0
 40
1.0
 40
1.0
 40
1.0
 40
1.0
 10
370.0809322407244
 20
212.2147663879472
 30
0.0
 10
369.9798706314505
 20
210.8115648130564
 30
0.0
 10
370.1723689348236
 20
209.3991085120419
 30
0.0
 10
370.6993330403142
 20
208.0866032531649
 30
0.0
  0
SPLINE
  5
B2
330
70
100
AcDbEntity
  8
Make2D__可见线__曲线
 62
    18
420
        0
370
    35
100
AcDbSpline
210
0.0
220
0.0
230
1.0
 70
     8
 71
     3
 72
     8
 73
     4
 74
     0
 42
0.0000000001
 43
0.0000000001
 40
0.0
 40
0.0
 40
0.0
 40
0.0
 40
1.0
 40
1.0
 40
1.0
 40
1.0
 10
390.5342471633669
 20
217.8960576608262
 30
0.0
 10
390.2784465333056
 20
218.5359294250251
 30
0.0
 10
389.9580479148998
 20
219.1237896284091
 30
0.0
 10
389.5562077066023
 20
219.6837005588984
 30
0.0
  0
SPLINE
  5
B3
330
70
100
AcDbEntity
  8
Make2D__可见线__曲线
 62
    18
420
        0
370
    35
100
AcDbSpline
210
0.0
220
0.0
230
1.0
 70
     8
 71
     3
 72
    17
 73
    13
 74
     0
 42
0.0000000001
 43
0.0000000001
 40
0.0
 40
0.0
 40
0.0
 40
0.0
 40
1.0
 40
1.0
 40
1.0
 40
2.0
 40
2.0
 40
2.0
 40
3.0
 40
3.0
 40
3.0
 40
4.0
 40
4.0
 40
4.0
 40
4.0
 10
370.6993330403142
 20
208.0866032531649
 30
0.0
 10
371.7534463458154
 20
205.4614076408874
 30
0.0
 10
373.9706936305577
 20
203.6513683055948
 30
0.0
 10
376.6862153698017
 20
202.9878044425189
 30
0.0
 10
379.3723070799712
 20
202.3314592658184
 30
0.0
 10
382.213137810934
 20
202.8576829932178
 30
0.0
 10
384.5995614892202
 20
204.1348351983024
 30
0.0
 10
386.9978312169421
 20
205.418095522629
 30
0.0
 10
388.9905588459148
 20
207.4783826523089
 30
0.0
 10
390.1392554524039
 20
209.9566132137395
 30
0.0
 10
391.2811035615585
 20
212.4202213078949
 30
0.0
 10
391.5711466782779
 20
215.3012175502338
 30
0.0
 10
390.5342471633669
 20
217.8960576608262
 30
0.0
  0
SPLINE
  5
B4
330
70
100
AcDbEntity
  8
Make2D__可见线__曲线
 62
    18
420
        0
370
    35
100
AcDbSpline
210
0.0
220
0.0
230
1.0
 70
     8
 71
     3
 72
    14
 73
    10
 74
     0
 42
0.0000000001
 43
0.0000000001
 40
0.0
 40
0.0
 40
0.0
 40
0.0
 40
1.0
 40
1.0
 40
1.0
 40
2.0
 40
2.0
 40
2.0
 40
3.0
 40
3.0
 40
3.0
 40
3.0
 10
378.9095707737867
 20
211.2278423941047
 30
0.0
 10
378.8101750152108
 20
211.4756839597002
 30
0.0
 10
378.9736134785624
 20
211.7387032761389
 30
0.0
 10
379.1940610548306
 20
211.8458730046523
 30
0.0
 10
379.3054879573603
 20
211.9001056997383
 30
0.0
 10
379.4356094066602
 20
211.9189853410311
 30
0.0
 10
379.5574016024521
 20
211.8865937995976
 30
0.0
 10
379.67993417633
 20
211.8542022581648
 30
0.0
 10
379.7819212582146
 20
211.771465006617
 30
0.0
 10
379.8298607395359
 20
211.6517088505748
 30
0.0
  0
SPLINE
  5
B5
330
70
100
AcDbEntity
  8
Make2D__可见线__曲线
 62
    18
420
        0
370
    35
100
AcDbSpline
210
0.0
220
0.0
230
1.0
 70
     8
 71
     3
 72
    11
 73
     7
 74
     0
 42
0.0000000001
 43
0.0000000001
 40
0.0
 40
0.0
 40
0.0
 40
0.0
 40
1.0
 40
1.0
 40
1.0
 40
2.0
 40
2.0
 40
2.0
 40
2.0
 10
377.9994610067674
 20
210.7499283370725
 30
0.0
 10
378.051287473059
 20
210.5011612988644
 30
0.0
 10
377.8685991793802
 20
210.2740503197862
 30
0.0
 10
377.6485217921559
 20
210.1922385408516
 30
0.0
 10
377.4241872309115
 20
210.1087609112152
 30
0.0
 10
377.1382161936871
 20
210.1700271981545
 30
0.0
 10
377.0406713803408
 20
210.4134264952111
 30
0.0
  0
SPLINE
  5
B6
330
70
100
AcDbEntity
  8
Make2D__可见线__曲线
 62
    18
420
        0
370
    35
100
AcDbSpline
210
0.0
220
0.0
230
1.0
 70
     8
 71
     3
 72
     8
 73
     4
 74
     0
 42
0.0000000001
 43
0.0000000001
 40
0.0
 40
0.0
 40
0.0
 40
0.0
 40
1.0
 40
1.0
 40
1.0
 40
1.0
 10
377.979840987386
 20
210.8148965144614
 30
0.0
 10
377.9883553354185
 20
210.7937957388982
 30
0.0
 10
377.9946485491851
 20
210.7723247742923
 30
0.0
 10
377.9994610067674
 20
210.7499283370725
 30
0.0
  0
SPLINE
  5
B7
330
70
100
AcDbEntity
  8
Make2D__可见线__曲线
 62
    18
420
        0
370
    35
100
AcDbSpline
210
0.0
220
0.0
230
1.0
 70
     8
 71
     3
 72
    14
 73
    10
 74
     0
 42
0.0000000001
 43
0.0000000001
 40
0.0
 40
0.0
 40
0.0
 40
0.0
 40
1.0
 40
1.0
 40
1.0
 40
2.0
 40
2.0
 40
2.0
 40
3.0
 40
3.0
 40
3.0
 40
3.0
 10
383.620411465319
 20
210.2066759136049
 30
0.0
 10
383.5306406219185
 20
210.4435969023754
 30
0.0
 10
383.6920430455173
 20
210.7023590447959
 30
0.0
 10
383.8884283338652
 20
210.8185984049111
 30
0.0
 10
383.9904154157498
 20
210.8791243137605
 30
0.0
 10
384.1144287458082
 20
210.9118860442399
 30
0.0
 10
384.2347401854196
 20
210.8907852686766
 30
0.0
 10
384.3572727592982
 20
210.869499398592
 30
0.0
 10
384.4583343685664
 20
210.7932404553322
 30
0.0
 10
384.5031272430091
 20
210.6747799609467
 30
0.0
  0
SPLINE
  5
B8
330
70
100
AcDbEntity
  8
Make2D__可见线__曲线
 62
    18
420
        0
370
    35
100
AcDbSpline
210
0.0
220
0.0
230
1.0
 70
     8
 71
     3
 72
     8
 73
     4
 74
     0
 42
0.0000000001
 43
0.0000000001
 40
0.0
 40
0.0
 40
0.0
 40
0.0
 40
1.0
 40
1.0
 40
1.0
 40
1.0
 10
385.4091649305277
 20
209.1305363599291
 30
0.0
 10
385.241654387687
 20
209.1001808582435
 30
0.0
 10
385.0665549694249
 20
209.1614471451827
 30
0.0
 10
385.0030675482165
 20
209.334140334653
 30
0.0
  0
SPLINE
  5
B9
330
70
100
AcDbEntity
  8
Make2D__可见线__曲线
 62
    18
420
        0
370
    35
100
AcDbSpline
210
0.0
220
0.0
230
1.0
 70
     8
 71
     3
 72
     8
 73
     4
 74
     0
 42
0.0000000001
 43
0.0000000001
 40
0.0
 40
0.0
 40
0.0
 40
0.0
 40
1.0
 40
1.0
 40
1.0
 40
1.0
 10
377.12951675113
 20
210.8663527917097
 30
0.0
 10
377.4197449623733
 20
210.82970407626
 30
0.0
 10
377.7097880790927
 20
210.7908342265392
 30
0.0
 10
377.9994610067674
 20
210.7497432425492
 30
0.0
  0
SPLINE
  5
BA
330
70
100
AcDbEntity
  8
Make2D__可见线__曲线
 62
    18
420
        0
370
    35
100
AcDbSpline
210
0.0
220
0.0
230
1.0
 70
     8
 71
     3
 72
     8
 73
     4
 74
     0
 42
0.0000000001
 43
0.0000000001
 40
0.0
 40
0.0
 40
0.0
 40
0.0
 40
1.0
 40
1.0
 40
1.0
 40
1.0
 10
385.1104223712506
 20
209.1897666071219
 30
0.0
 10
385.1816837624055
 20
209.1677403589474
 30
0.0
 10
385.2527600590359
 20
209.1453439217277
 30
0.0
 10
385.3238363556655
 20
209.1227623899859
 30
0.0
  0
SPLINE
  5
BB
330
70
100
AcDbEntity
  8
Make2D__可见线__曲线
 62
    18
420
        0
370
    35
100
AcDbSpline
210
0.0
220
0.0
230
1.0
 70
     8
 71
     3
 72
     8
 73
     4
 74
     0
 42
0.0000000001
 43
0.0000000001
 40
0.0
 40
0.0
 40
0.0
 40
0.0
 40
1.0
 40
1.0
 40
1.0
 40
1.0
 10
386.3538873732471
 20
208.7790418617472
 30
0.0
 10
386.5954357250766
 20
208.6942685704535
 30
0.0
 10
386.8360586042949
 20
208.6065337668002
 30
0.0
 10
387.0757560109018
 20
208.5158374507865
 30
0.0
  0
SPLINE
  5
BC
330
70
100
AcDbEntity
  8
Make2D__可见线__曲线
 62
    18
420
        0
370
    35
100
AcDbSpline
210
0.0
220
0.0
230
1.0
 70
     8
 71
     3
 72
     8
 73
     4
 74
     0
 42
0.0000000001
 43
0.0000000001
 40
0.0
 40
0.0
 40
0.0
 40
0.0
 40
1.0
 40
1.0
 40
1.0
 40
1.0
 10
387.0764963889937
 20
208.5167629233997
 30
0.0
 10
386.8367989823873
 20
208.6076443339347
 30
0.0
 10
386.5959910086452
 20
208.6955642321114
 30
0.0
 10
386.3542575622904
 20
208.7805226179276
 30
0.0
  0
SPLINE
  5
BD
330
70
100
AcDbEntity
  8
Make2D__可见线__曲线
 62
    18
420
        0
370
    35
100
AcDbSpline
210
0.0
220
0.0
230
1.0
 70
     8
 71
     3
 72
     8
 73
     4
 74
     0
 42
0.0000000001
 43
0.0000000001
 40
0.0
 40
0.0
 40
0.0
 40
0.0
 40
1.0
 40
1.0
 40
1.0
 40
1.0
 10
385.3292040968151
 20
209.1229474845085
 30
0.0
 10
385.2551662878263
 20
209.1464544888629
 30
0.0
 10
385.1809433843137
 20
209.1697763986946
 30
0.0
 10
385.1065353862809
 20
209.1927281194816
 30
0.0
  0
SPLINE
  5
BE
330
70
100
AcDbEntity
  8
Make2D__可见线__曲线
 62
    18
420
        0
370
    35
100
AcDbSpline
210
0.0
220
0.0
230
1.0
 70
     8
 71
     3
 72
     8
 73
     4
 74
     0
 42
0.0000000001
 43
0.0000000001
 40
0.0
 40
0.0
 40
0.0
 40
0.0
 40
1.0
 40
1.0
 40
1.0
 40
1.0
 10
347.9417764073685
 20
206.6206546351556
 30
0.0
 10
347.8584838722541
 20
206.5703089250412
 30
0.0
 10
347.775561526183
 20
206.5192228368389
 30
0.0
 10
347.6930093691617
 20
206.4675814650674
 30
0.0
  0
SPLINE
  5
BF
330
70
100
AcDbEntity
  8
Make2D__可见线__曲线
 62
    18
420
        0
370
    35
100
AcDbSpline
210
0.0
220
0.0
230
1.0
 70
     8
 71
     3
 72
     8
 73
     4
 74
     0
 42
0.0000000001
 43
0.0000000001
 40
0.0
 40
0.0
 40
0.0
 40
0.0
 40
1.0
 40
1.0
 40
1.0
 40
1.0
 10
348.2268219719817
 20
220.4390713051239
 30
0.0
 10
348.1607432274576
 20
220.4325929968371
 30
0.0
 10
348.0948495774535
 20
220.4261146885498
 30
0.0
 10
348.02877083293
 20
220.4198214747864
 30
0.0
  0
SPLINE
  5
C0
330
70
100
AcDbEntity
  8
Make2D__可见线__曲线
 62
    18
420
        0
370
    35
100
AcDbSpline
210
0.0
220
0.0
230
1.0
 70
     8
 71
     3
 72
    14
 73
    10
 74
     0
 42
0.0000000001
 43
0.0000000001
 40
0.0
 40
0.0
 40
0.0
 40
0.0
 40
1.0
 40
1.0
 40
1.0
 40
2.0
 40
2.0
 40
2.0
 40
3.0
 40
3.0
 40
3.0
 40
3.0
 10
396.0124897450906
 20
201.8657614472697
 30
0.0
 10
398.8625752021733
 20
198.4341090005639
 30
0.0
 10
401.3985552546175
 20
194.7357353469698
 30
0.0
 10
403.5869277938514
 20
190.8498609421094
 30
0.0
 10
405.7773363728331
 20
186.9602846467989
 30
0.0
 10
407.6219883838284
 20
182.8800609933377
 30
0.0
 10
409.1027445636343
 20
178.6695307960535
 30
0.0
 10
412.0692544753593
 20
170.2338479342091
 30
0.0
 10
413.5566740579758
 20
161.3332076319059
 30
0.0
 10
413.5128066561487
 20
152.393142196314
 30
0.0
  0
SPLINE
  5
C1
330
70
100
AcDbEntity
  8
Make2D__可见线__曲线
 62
    18
420
        0
370
    35
100
AcDbSpline
210
0.0
220
0.0
230
1.0
 70
     8
 71
     3
 72
     8
 73
     4
 74
     0
 42
0.0000000001
 43
0.0000000001
 40
0.0
 40
0.0
 40
0.0
 40
0.0
 40
1.0
 40
1.0
 40
1.0
 40
1.0
 10
377.2553810264155
 20
210.1966808093918
 30
0.0
 10
377.2922148363891
 20
210.1914981627617
 30
0.0
 10
377.3290486463615
 20
210.1865006106549
 30
0.0
 10
377.36569736181
 20
210.181317964026
 30
0.0
  0
LINE
  5
C2
330
70
100
AcDbEntity
  8
Make2D__可见线__曲线
 62
    18
420
        0
370
    35
100
AcDbLine
 10
382.9090932154452
 20
209.1906920797339
 30
0.0
 11
382.7987768800456
 21
209.0970342513611
 31
0.0
  0
LINE
  5
C3
330
70
100
AcDbEntity
  8
Make2D__可见线__曲线
 62
    18
420
        0
370
    35
100
AcDbLine
 10
382.3217882956292
 20
209.5120161707527
 30
0.0
 11
382.8457908887562
 21
209.4074377655537
 31
0.0
  0
SPLINE
  5
C4
330
70
100
AcDbEntity
  8
Make2D__可见线__曲线
 62
    18
420
        0
370
    35
100
AcDbSpline
210
0.0
220
0.0
230
1.0
 70
     8
 71
     3
 72
     8
 73
     4
 74
     0
 42
0.0000000001
 43
0.0000000001
 40
0.0
 40
0.0
 40
0.0
 40
0.0
 40
1.0
 40
1.0
 40
1.0
 40
1.0
 10
366.284828679262
 20
210.6249895344009
 30
0.0
 10
366.3214773947105
 20
210.627025574148
 30
0.0
 10
366.3581261101634
 20
210.6290616138951
 30
0.0
 10
366.3947748256112
 20
210.6309125591196
 30
0.0
  0
SPLINE
  5
C5
330
70
100
AcDbEntity
  8
Make2D__可见线__曲线
 62
    18
420
        0
370
    35
100
AcDbSpline
210
0.0
220
0.0
230
1.0
 70
     8
 71
     3
 72
     8
 73
     4
 74
     0
 42
0.0000000001
 43
0.0000000001
 40
0.0
 40
0.0
 40
0.0
 40
0.0
 40
1.0
 40
1.0
 40
1.0
 40
1.0
 10
366.2544731775744
 20
211.2504239258465
 30
0.0
 10
366.2914920820714
 20
211.2524599655943
 30
0.0
 10
366.3285109865696
 20
211.2543109108194
 30
0.0
 10
366.365344796542
 20
211.2561618560439
 30
0.0
  0
SPLINE
  5
C6
330
70
100
AcDbEntity
  8
Make2D__可见线__曲线
 62
    18
420
        0
370
    35
100
AcDbSpline
210
0.0
220
0.0
230
1.0
 70
     8
 71
     3
 72
     8
 73
     4
 74
     0
 42
0.0000000001
 43
0.0000000001
 40
0.0
 40
0.0
 40
0.0
 40
0.0
 40
1.0
 40
1.0
 40
1.0
 40
1.0
 10
385.8974442808176
 20
209.6632383956158
 30
0.0
 10
385.6718140579244
 20
209.7454203635951
 30
0.0
 10
385.4450732678894
 20
209.8250110082598
 30
0.0
 10
385.2174070052427
 20
209.9021954241322
 30
0.0
  0
SPLINE
  5
C7
330
70
100
AcDbEntity
  8
Make2D__可见线__曲线
 62
    18
420
        0
370
    35
100
AcDbSpline
210
0.0
220
0.0
230
1.0
 70
     8
 71
     3
 72
     8
 73
     4
 74
     0
 42
0.0000000001
 43
0.0000000001
 40
0.0
 40
0.0
 40
0.0
 40
0.0
 40
1.0
 40
1.0
 40
1.0
 40
1.0
 10
384.3744865498891
 20
210.1752098447846
 30
0.0
 10
384.1172051636472
 20
210.2548004894488
 30
0.0
 10
383.859368493838
 20
210.3314296217539
 30
0.0
 10
383.6004212568936
 20
210.4054674307445
 30
0.0
  0
SPLINE
  5
C8
330
70
100
AcDbEntity
  8
Make2D__可见线__曲线
 62
    18
420
        0
370
    35
100
AcDbSpline
210
0.0
220
0.0
230
1.0
 70
     8
 71
     3
 72
     8
 73
     4
 74
     0
 42
0.0000000001
 43
0.0000000001
 40
0.0
 40
0.0
 40
0.0
 40
0.0
 40
1.0
 40
1.0
 40
1.0
 40
1.0
 10
382.3092018681011
 20
210.7499283370725
 30
0.0
 10
382.0374831091034
 20
210.8176729322985
 30
0.0
 10
381.7652090665435
 20
210.8824560151655
 30
0.0
 10
381.4921946458911
 20
210.9446477747179
 30
0.0
  0
SPLINE
  5
C9
330
70
100
AcDbEntity
  8
Make2D__可见线__曲线
 62
    18
420
        0
370
    35
100
AcDbSpline
210
0.0
220
0.0
230
1.0
 70
     8
 71
     3
 72
     8
 73
     4
 74
     0
 42
0.0000000001
 43
0.0000000001
 40
0.0
 40
0.0
 40
0.0
 40
0.0
 40
1.0
 40
1.0
 40
1.0
 40
1.0
 10
379.8096854365865
 20
211.2944764221968
 30
0.0
 10
379.502983812839
 20
211.3522259132091
 30
0.0
 10
379.1959120000539
 20
211.4070138918623
 30
0.0
 10
378.8882849037002
 20
211.4588403581559
 30
0.0
  0
SPLINE
  5
CA
330
70
100
AcDbEntity
  8
Make2D__可见线__曲线
 62
    18
420
        0
370
    35
100
AcDbSpline
210
0.0
220
0.0
230
1.0
 70
     8
 71
     3
 72
     8
 73
     4
 74
     0
 42
0.0000000001
 43
0.0000000001
 40
0.0
 40
0.0
 40
0.0
 40
0.0
 40
1.0
 40
1.0
 40
1.0
 40
1.0
 10
370.0809322407244
 20
212.2145812934252
 30
0.0
 10
370.0453940924061
 20
212.2149514824699
 30
0.0
 10
370.0100410386129
 20
212.2153216715145
 30
0.0
 10
369.974502890301
 20
212.2155067660372
 30
0.0
  0
SPLINE
  5
CB
330
70
100
AcDbEntity
  8
Make2D__可见线__曲线
 62
    18
420
        0
370
    35
100
AcDbSpline
210
0.0
220
0.0
230
1.0
 70
     8
 71
     3
 72
     8
 73
     4
 74
     0
 42
0.0000000001
 43
0.0000000001
 40
0.0
 40
0.0
 40
0.0
 40
0.0
 40
1.0
 40
1.0
 40
1.0
 40
1.0
 10
391.872110371821
 20
222.283538221597
 30
0.0
 10
390.4661323790957
 20
224.2331388268372
 30
0.0
 10
388.4858060831265
 20
225.6207924618395
 30
0.0
 10
386.2150664813888
 20
226.3606152681758
 30
0.0
  0
SPLINE
  5
CC
330
70
100
AcDbEntity
  8
Make2D__可见线__曲线
 62
    18
420
        0
370
    35
100
AcDbSpline
210
0.0
220
0.0
230
1.0
 70
     8
 71
     3
 72
     8
 73
     4
 74
     0
 42
0.0000000001
 43
0.0000000001
 40
0.0
 40
0.0
 40
0.0
 40
0.0
 40
1.0
 40
1.0
 40
1.0
 40
1.0
 10
372.4782764958293
 20
205.3510913054923
 30
0.0
 10
372.2056322642254
 20
205.5813488914522
 30
0.0
 10
371.950201823208
 20
205.8262289446874
 30
0.0
 10
371.7090236604212
 20
206.0890631666041
 30
0.0
  0
SPLINE
  5
CD
330
70
100
AcDbEntity
  8
Make2D__可见线__曲线
 62
    18
420
        0
370
    35
100
AcDbSpline
210
0.0
220
0.0
230
1.0
 70
     8
 71
     3
 72
     8
 73
     4
 74
     0
 42
0.0000000001
 43
0.0000000001
 40
0.0
 40
0.0
 40
0.0
 40
0.0
 40
1.0
 40
1.0
 40
1.0
 40
1.0
 10
342.7265531420848
 20
201.9932915732545
 30
0.0
 10
342.788929996158
 20
201.9472030371584
 30
0.0
 10
342.852602511891
 20
201.9027803517647
 30
0.0
 10
342.9173855947535
 20
201.8602086115943
 30
0.0
  0
SPLINE
  5
CE
330
70
100
AcDbEntity
  8
Make2D__可见线__曲线
 62
    18
420
        0
370
    35
100
AcDbSpline
210
0.0
220
0.0
230
1.0
 70
     8
 71
     3
 72
     8
 73
     4
 74
     0
 42
0.0000000001
 43
0.0000000001
 40
0.0
 40
0.0
 40
0.0
 40
0.0
 40
1.0
 40
1.0
 40
1.0
 40
1.0
 10
386.4281102767597
 20
226.4052230480928
 30
0.0
 10
386.3570339801307
 20
226.3904154862942
 30
0.0
 10
386.2861427780191
 20
226.3754228299743
 30
0.0
 10
386.2150664813888
 20
226.3606152681758
 30
0.0
  0
SPLINE
  5
CF
330
70
100
AcDbEntity
  8
Make2D__可见线__曲线
 62
    18
420
        0
370
    35
100
AcDbSpline
210
0.0
220
0.0
230
1.0
 70
     8
 71
     3
 72
     8
 73
     4
 74
     0
 42
0.0000000001
 43
0.0000000001
 40
0.0
 40
0.0
 40
0.0
 40
0.0
 40
1.0
 40
1.0
 40
1.0
 40
1.0
 10
348.0717127621444
 20
197.1082769360675
 30
0.0
 10
347.8368278131249
 20
197.2793042748359
 30
0.0
 10
347.603978903848
 20
197.4529229369181
 30
0.0
 10
347.3731660343233
 20
197.6295031113607
 30
0.0
  0
SPLINE
  5
D0
330
70
100
AcDbEntity
  8
Make2D__可见线__曲线
 62
    18
420
        0
370
    35
100
AcDbSpline
210
0.0
220
0.0
230
1.0
 70
     8
 71
     3
 72
     8
 73
     4
 74
     0
 42
0.0000000001
 43
0.0000000001
 40
0.0
 40
0.0
 40
0.0
 40
0.0
 40
1.0
 40
1.0
 40
1.0
 40
1.0
 10
368.6003611554367
 20
204.4245081259778
 30
0.0
 10
368.8881831378895
 20
204.1050349801833
 30
0.0
 10
369.1922934383156
 20
203.8051818537723
 30
0.0
 10
369.5156535690811
 20
203.5216170453396
 30
0.0
  0
SPLINE
  5
D1
330
70
100
AcDbEntity
  8
Make2D__可见线__曲线
 62
    18
420
        0
370
    35
100
AcDbSpline
210
0.0
220
0.0
230
1.0
 70
     8
 71
     3
 72
    11
 73
     7
 74
     0
 42
0.0000000001
 43
0.0000000001
 40
0.0
 40
0.0
 40
0.0
 40
0.0
 40
1.0
 40
1.0
 40
1.0
 40
2.0
 40
2.0
 40
2.0
 40
2.0
 10
386.4281102767597
 20
226.4050379535701
 30
0.0
 10
384.1223878102735
 20
227.1976126988119
 30
0.0
 10
381.6395298857819
 20
227.2784990051352
 30
0.0
 10
379.2738367940181
 20
226.7955873959949
 30
0.0
 10
376.9014802994398
 20
226.3113801251973
 30
0.0
 10
374.6581346870307
 20
225.2659662622532
 30
0.0
 10
372.7294497628336
 20
223.8159357731751
 30
0.0
  0
SPLINE
  5
D2
330
70
100
AcDbEntity
  8
Make2D__可见线__曲线
 62
    18
420
        0
370
    35
100
AcDbSpline
210
0.0
220
0.0
230
1.0
 70
     8
 71
     3
 72
    11
 73
     7
 74
     0
 42
0.0000000001
 43
0.0000000001
 40
0.0
 40
0.0
 40
0.0
 40
0.0
 40
1.0
 40
1.0
 40
1.0
 40
2.0
 40
2.0
 40
2.0
 40
2.0
 10
372.7294497628336
 20
223.8159357731751
 30
0.0
 10
370.8938673834395
 20
222.435685919072
 30
0.0
 10
369.3338907480077
 20
220.6821004131345
 30
0.0
 10
368.200556986887
 20
218.6801180580342
 30
0.0
 10
367.0701847381297
 20
216.6831332550407
 30
0.0
 10
366.3655298910608
 20
214.4364559412265
 30
0.0
 10
366.2637279037001
 20
212.1285123404737
 30
0.0
  0
SPLINE
  5
D3
330
70
100
AcDbEntity
  8
Make2D__可见线__曲线
 62
    18
420
        0
370
    35
100
AcDbSpline
210
0.0
220
0.0
230
1.0
 70
     8
 71
     3
 72
     8
 73
     4
 74
     0
 42
0.0000000001
 43
0.0000000001
 40
0.0
 40
0.0
 40
0.0
 40
0.0
 40
1.0
 40
1.0
 40
1.0
 40
1.0
 10
348.0717127621444
 20
197.1082769360675
 30
0.0
 10
347.3574329999116
 20
197.6302434894506
 30
0.0
 10
346.7084916041097
 20
198.1977432953613
 30
0.0
 10
346.1358091515696
 20
198.8777805709388
 30
0.0
  0
LINE
  5
D4
330
70
100
AcDbEntity
  8
Make2D__可见线__曲线
 62
    18
420
        0
370
    35
100
AcDbLine
 10
347.9406658402333
 20
206.6171378392279
 30
0.0
 11
347.9410360292761
 21
206.6193589734971
 31
0.0
  0
SPLINE
  5
D5
330
70
100
AcDbEntity
  8
Make2D__可见线__曲线
 62
    18
420
        0
370
    35
100
AcDbSpline
210
0.0
220
0.0
230
1.0
 70
     8
 71
     3
 72
     8
 73
     4
 74
     0
 42
0.0000000001
 43
0.0000000001
 40
0.0
 40
0.0
 40
0.0
 40
0.0
 40
1.0
 40
1.0
 40
1.0
 40
1.0
 10
347.9412211238013
 20
206.6204695406329
 30
0.0
 10
347.9769443666372
 20
206.7944583917591
 30
0.0
 10
348.0102613806838
 20
206.9688174319325
 30
0.0
 10
348.0419125440254
 20
207.1435466611493
 30
0.0
  0
SPLINE
  5
D6
330
70
100
AcDbEntity
  8
Make2D__可见线__曲线
 62
    18
420
        0
370
    35
100
AcDbSpline
210
0.0
220
0.0
230
1.0
 70
     8
 71
     3
 72
     8
 73
     4
 74
     0
 42
0.0000000001
 43
0.0000000001
 40
0.0
 40
0.0
 40
0.0
 40
0.0
 40
1.0
 40
1.0
 40
1.0
 40
1.0
 10
348.0419125440254
 20
207.1435466611493
 30
0.0
 10
348.7869179969937
 20
211.2659718657356
 30
0.0
 10
348.6458759708651
 20
216.3270113937972
 30
0.0
 10
348.2268219719817
 20
220.4390713051239
 30
0.0
  0
SPLINE
  5
D7
330
70
100
AcDbEntity
  8
Make2D__可见线__曲线
 62
    18
420
        0
370
    35
100
AcDbSpline
210
0.0
220
0.0
230
1.0
 70
     8
 71
     3
 72
     8
 73
     4
 74
     0
 42
0.0000000001
 43
0.0000000001
 40
0.0
 40
0.0
 40
0.0
 40
0.0
 40
1.0
 40
1.0
 40
1.0
 40
1.0
 10
348.2268219719817
 20
220.4390713051239
 30
0.0
 10
347.8444166885462
 20
224.1890863304888
 30
0.0
 10
347.1417978812243
 20
228.1241958783277
 30
0.0
 10
346.1380302858406
 20
231.7613032449806
 30
0.0
  0
SPLINE
  5
D8
330
70
100
AcDbEntity
  8
Make2D__可见线__曲线
 62
    18
420
        0
370
    35
100
AcDbSpline
210
0.0
220
0.0
230
1.0
 70
     8
 71
     3
 72
     8
 73
     4
 74
     0
 42
0.0000000001
 43
0.0000000001
 40
0.0
 40
0.0
 40
0.0
 40
0.0
 40
1.0
 40
1.0
 40
1.0
 40
1.0
 10
346.1380302858406
 20
231.7613032449806
 30
0.0
 10
345.7876463547913
 20
233.0301261965539
 30
0.0
 10
345.3965416287999
 20
234.2828459246716
 30
0.0
 10
344.9463917501364
 20
235.5202028074228
 30
0.0
  0
SPLINE
  5
D9
330
70
100
AcDbEntity
  8
Make2D__可见线__曲线
 62
    18
420
        0
370
    35
100
AcDbSpline
210
0.0
220
0.0
230
1.0
 70
     8
 71
     3
 72
     8
 73
     4
 74
     0
 42
0.0000000001
 43
0.0000000001
 40
0.0
 40
0.0
 40
0.0
 40
0.0
 40
1.0
 40
1.0
 40
1.0
 40
1.0
 10
344.9463917501364
 20
235.5202028074228
 30
0.0
 10
344.1976844067229
 20
237.5778986137895
 30
0.0
 10
343.0504685564175
 20
240.216791220729
 30
0.0
 10
341.6071014701474
 20
241.9463144387455
 30
0.0
  0
SPLINE
  5
DA
330
70
100
AcDbEntity
  8
Make2D__可见线__曲线
 62
    18
420
        0
370
    35
100
AcDbSpline
210
0.0
220
0.0
230
1.0
 70
     8
 71
     3
 72
     8
 73
     4
 74
     0
 42
0.0000000001
 43
0.0000000001
 40
0.0
 40
0.0
 40
0.0
 40
0.0
 40
1.0
 40
1.0
 40
1.0
 40
1.0
 10
396.0126748396094
 20
201.8661316363144
 30
0.0
 10
395.8203616307565
 20
201.6569748259151
 30
0.0
 10
395.6256421931123
 20
201.4504093388322
 30
0.0
 10
395.4283314321525
 20
201.245879891497
 30
0.0
  0
LINE
  5
DB
330
70
100
AcDbEntity
  8
Make2D__可见线__曲线
 62
    18
420
        0
370
    35
100
AcDbLine
 10
395.4283314321525
 20
201.245879891497
 30
0.0
 11
395.4277761485845
 21
201.2455097024523
 31
0.0
  0
SPLINE
  5
DC
330
70
100
AcDbEntity
  8
Make2D__可见线__曲线
 62
    18
420
        0
370
    35
100
AcDbSpline
210
0.0
220
0.0
230
1.0
 70
     8
 71
     3
 72
     8
 73
     4
 74
     0
 42
0.0000000001
 43
0.0000000001
 40
0.0
 40
0.0
 40
0.0
 40
0.0
 40
1.0
 40
1.0
 40
1.0
 40
1.0
 10
395.4275910540658
 20
201.245139513407
 30
0.0
 10
394.7755030513803
 20
200.5693594118465
 30
0.0
 10
394.099722949819
 20
199.9215285831811
 30
0.0
 10
393.3971041425029
 20
199.2985004205266
 30
0.0
  0
SPLINE
  5
DD
330
70
100
AcDbEntity
  8
Make2D__可见线__曲线
 62
    18
420
        0
370
    35
100
AcDbSpline
210
0.0
220
0.0
230
1.0
 70
     8
 71
     3
 72
     8
 73
     4
 74
     0
 42
0.0000000001
 43
0.0000000001
 40
0.0
 40
0.0
 40
0.0
 40
0.0
 40
1.0
 40
1.0
 40
1.0
 40
1.0
 10
393.3971041425029
 20
199.2985004205266
 30
0.0
 10
393.3221408609029
 20
199.2318663924345
 30
0.0
 10
393.2468073902531
 20
199.165787647911
 30
0.0
 10
393.1712888250845
 20
199.0998939979102
 30
0.0
  0
SPLINE
  5
DE
330
70
100
AcDbEntity
  8
Make2D__可见线__曲线
 62
    18
420
        0
370
    35
100
AcDbSpline
210
0.0
220
0.0
230
1.0
 70
     8
 71
     3
 72
     8
 73
     4
 74
     0
 42
0.0000000001
 43
0.0000000001
 40
0.0
 40
0.0
 40
0.0
 40
0.0
 40
1.0
 40
1.0
 40
1.0
 40
1.0
 10
387.1144407660968
 20
194.8243956232363
 30
0.0
 10
386.9950547991024
 20
194.7573914061003
 30
0.0
 10
386.8754837375823
 20
194.6909424725322
 30
0.0
 10
386.7553573924955
 20
194.625233917052
 30
0.0
  0
SPLINE
  5
DF
330
70
100
AcDbEntity
  8
Make2D__可见线__曲线
 62
    18
420
        0
370
    35
100
AcDbSpline
210
0.0
220
0.0
230
1.0
 70
     8
 71
     3
 72
    11
 73
     7
 74
     0
 42
0.0000000001
 43
0.0000000001
 40
0.0
 40
0.0
 40
0.0
 40
0.0
 40
1.0
 40
1.0
 40
1.0
 40
2.0
 40
2.0
 40
2.0
 40
2.0
 10
382.8898433851072
 20
209.0726017743942
 30
0.0
 10
382.8335746502766
 20
208.8841755505147
 30
0.0
 10
382.6658790129119
 20
208.7325831366064
 30
0.0
 10
382.4800441123443
 20
208.6802013867456
 30
0.0
 10
382.2886563761084
 20
208.6263388807043
 30
0.0
 10
382.0621006805968
 20
208.6787206305663
 30
0.0
 10
381.9845460756759
 20
208.88528611765
 30
0.0
  0
SPLINE
  5
E0
330
70
100
AcDbEntity
  8
Make2D__可见线__曲线
 62
    18
420
        0
370
    35
100
AcDbSpline
210
0.0
220
0.0
230
1.0
 70
     8
 71
     3
 72
     8
 73
     4
 74
     0
 42
0.0000000001
 43
0.0000000001
 40
0.0
 40
0.0
 40
0.0
 40
0.0
 40
1.0
 40
1.0
 40
1.0
 40
1.0
 10
345.6608566068938
 20
201.9757075936202
 30
0.0
 10
345.7267502568992
 20
201.9373930274667
 30
0.0
 10
345.793754474034
 20
201.9014846901062
 30
0.0
 10
345.8620543528247
 20
201.8681676760609
 30
0.0
  0
SPLINE
  5
E1
330
70
100
AcDbEntity
  8
Make2D__可见线__曲线
 62
    18
420
        0
370
    35
100
AcDbSpline
210
0.0
220
0.0
230
1.0
 70
     8
 71
     3
 72
     8
 73
     4
 74
     0
 42
0.0000000001
 43
0.0000000001
 40
0.0
 40
0.0
 40
0.0
 40
0.0
 40
1.0
 40
1.0
 40
1.0
 40
1.0
 10
384.3746716444079
 20
210.175394939306
 30
0.0
 10
384.2865666517112
 20
210.0806265437999
 30
0.0
 10
384.1668104956678
 20
210.0106608143035
 30
0.0
 10
384.0374294244598
 20
209.9901153223076
 30
0.0
  0
SPLINE
  5
E2
330
70
100
AcDbEntity
  8
Make2D__可见线__曲线
 62
    18
420
        0
370
    35
100
AcDbSpline
210
0.0
220
0.0
230
1.0
 70
     8
 71
     3
 72
    17
 73
    13
 74
     0
 42
0.0000000001
 43
0.0000000001
 40
0.0
 40
0.0
 40
0.0
 40
0.0
 40
1.0
 40
1.0
 40
1.0
 40
2.0
 40
2.0
 40
2.0
 40
3.0
 40
3.0
 40
3.0
 40
4.0
 40
4.0
 40
4.0
 40
4.0
 10
389.5562077066023
 20
219.6837005588984
 30
0.0
 10
388.2375943284812
 20
221.521318978041
 30
0.0
 10
386.2724457833552
 20
222.6857486189367
 30
0.0
 10
384.0800011646264
 20
223.1088746973182
 30
0.0
 10
381.8938497596635
 20
223.5307051140406
 30
0.0
 10
379.6255163867233
 20
223.1969796900168
 30
0.0
 10
377.6052096738917
 20
222.330737324829
 30
0.0
 10
375.5771289911252
 20
221.4611632582363
 30
0.0
 10
373.7841183518976
 20
220.0531492257613
 30
0.0
 10
372.4508825065065
 20
218.2966022074641
 30
0.0
 10
371.1220889296485
 20
216.5457931193636
 30
0.0
 10
370.2408539081434
 20
214.4314583891197
 30
0.0
 10
370.0809322407244
 20
212.2147663879472
 30
0.0
  0
SPLINE
  5
E3
330
70
100
AcDbEntity
  8
Make2D__可见线__曲线
 62
    18
420
        0
370
    35
100
AcDbSpline
210
0.0
220
0.0
230
1.0
 70
     8
 71
     3
 72
    11
 73
     7
 74
     0
 42
0.0000000001
 43
0.0000000001
 40
0.0
 40
0.0
 40
0.0
 40
0.0
 40
1.0
 40
1.0
 40
1.0
 40
2.0
 40
2.0
 40
2.0
 40
2.0
 10
379.8096854365865
 20
211.2944764221968
 30
0.0
 10
379.7271332795588
 20
211.1249298396088
 30
0.0
 10
379.5562910353155
 20
211.0044333054768
 30
0.0
 10
379.3697157566561
 20
210.9811113956444
 30
0.0
 10
379.1803640601667
 20
210.9574192967687
 30
0.0
 10
378.9847191499055
 20
211.0403416428372
 30
0.0
 10
378.9095707737867
 20
211.2278423941047
 30
0.0
  0
LINE
  5
E4
330
70
100
AcDbEntity
  8
Make2D__可见线__曲线
 62
    18
420
        0
370
    35
100
AcDbLine
 10
377.1298869401785
 20
210.866722980755
 30
0.0
 11
377.1302571292225
 21
210.8670931697996
 31
0.0
  0
SPLINE
  5
E5
330
70
100
AcDbEntity
  8
Make2D__可见线__曲线
 62
    18
420
        0
370
    35
100
AcDbSpline
210
0.0
220
0.0
230
1.0
 70
     8
 71
     3
 72
    11
 73
     7
 74
     0
 42
0.0000000001
 43
0.0000000001
 40
0.0
 40
0.0
 40
0.0
 40
0.0
 40
1.0
 40
1.0
 40
1.0
 40
2.0
 40
2.0
 40
2.0
 40
2.0
 10
377.1302571292225
 20
210.8672782643222
 30
0.0
 10
377.239277802961
 20
210.9962891464876
 30
0.0
 10
377.4071585348452
 20
211.0745841294945
 30
0.0
 10
377.5767051174331
 20
211.0718077116574
 30
0.0
 10
377.7471771726336
 20
211.069031293821
 30
0.0
 10
377.91302186477
 20
210.9814815846897
 30
0.0
 10
377.979840987386
 20
210.8148965144614
 30
0.0
  0
SPLINE
  5
E6
330
70
100
AcDbEntity
  8
Make2D__可见线__曲线
 62
    18
420
        0
370
    35
100
AcDbSpline
210
0.0
220
0.0
230
1.0
 70
     8
 71
     3
 72
    11
 73
     7
 74
     0
 42
0.0000000001
 43
0.0000000001
 40
0.0
 40
0.0
 40
0.0
 40
0.0
 40
1.0
 40
1.0
 40
1.0
 40
2.0
 40
2.0
 40
2.0
 40
2.0
 10
381.4920095513659
 20
210.9452030582839
 30
0.0
 10
381.5952922949116
 20
211.0618126074444
 30
0.0
 10
381.7479952759526
 20
211.1415883466312
 30
0.0
 10
381.9068063762356
 20
211.1445498589903
 30
0.0
 10
382.0687640834023
 20
211.1475113713513
 30
0.0
 10
382.2216521589666
 20
211.0675505376412
 30
0.0
 10
382.283103540433
 20
210.9094798154461
 30
0.0
  0
SPLINE
  5
E7
330
70
100
AcDbEntity
  8
Make2D__可见线__曲线
 62
    18
420
        0
370
    35
100
AcDbSpline
210
0.0
220
0.0
230
1.0
 70
     8
 71
     3
 72
    11
 73
     7
 74
     0
 42
0.0000000001
 43
0.0000000001
 40
0.0
 40
0.0
 40
0.0
 40
0.0
 40
1.0
 40
1.0
 40
1.0
 40
2.0
 40
2.0
 40
2.0
 40
2.0
 10
382.3088316790571
 20
210.7501134315945
 30
0.0
 10
382.3001322365
 20
210.5285552881911
 30
0.0
 10
382.1313260319988
 20
210.3360569848154
 30
0.0
 10
381.9319792312969
 20
210.262204270348
 30
0.0
 10
381.7248584606441
 20
210.1853900435203
 30
0.0
 10
381.46961311415
 20
210.2366612262466
 30
0.0
 10
381.3815081214481
 20
210.4634020162795
 30
0.0
  0
SPLINE
  5
E8
330
70
100
AcDbEntity
  8
Make2D__可见线__曲线
 62
    18
420
        0
370
    35
100
AcDbSpline
210
0.0
220
0.0
230
1.0
 70
     8
 71
     3
 72
     8
 73
     4
 74
     0
 42
0.0000000001
 43
0.0000000001
 40
0.0
 40
0.0
 40
0.0
 40
0.0
 40
1.0
 40
1.0
 40
1.0
 40
1.0
 10
385.8974442808176
 20
209.6632383956158
 30
0.0
 10
385.8839323806782
 20
209.4068824819865
 30
0.0
 10
385.6551555509014
 20
209.1749590453241
 30
0.0
 10
385.4091649305277
 20
209.1305363599291
 30
0.0
  0
SPLINE
  5
E9
330
70
100
AcDbEntity
  8
Make2D__可见线__曲线
 62
    18
420
        0
370
    35
100
AcDbSpline
210
0.0
220
0.0
230
1.0
 70
     8
 71
     3
 72
    11
 73
     7
 74
     0
 42
0.0000000001
 43
0.0000000001
 40
0.0
 40
0.0
 40
0.0
 40
0.0
 40
1.0
 40
1.0
 40
1.0
 40
2.0
 40
2.0
 40
2.0
 40
2.0
 10
385.2174070052427
 20
209.9021954241322
 30
0.0
 10
385.3177282364235
 20
209.9793798400046
 30
0.0
 10
385.447109307636
 20
210.0315764953428
 30
0.0
 10
385.577415851461
 20
210.0241727144435
 30
0.0
 10
385.7116093802558
 20
210.0165838390223
 30
0.0
 10
385.8282189294156
 20
209.9442118807341
 30
0.0
 10
385.8761584107369
 20
209.8135351478663
 30
0.0
  0
LINE
  5
EA
330
70
100
AcDbEntity
  8
Make2D__可见线__曲线
 62
    18
420
        0
370
    35
100
AcDbLine
 10
387.0768665780376
 20
208.5171331124443
 30
0.0
 11
387.0761261999452
 21
208.5162076398311
 31
0.0
  0
SPLINE
  5
EB
330
70
100
AcDbEntity
  8
Make2D__可见线__曲线
 62
    18
420
        0
370
    35
100
AcDbSpline
210
0.0
220
0.0
230
1.0
 70
     8
 71
     3
 72
     8
 73
     4
 74
     0
 42
0.0000000001
 43
0.0000000001
 40
0.0
 40
0.0
 40
0.0
 40
0.0
 40
1.0
 40
1.0
 40
1.0
 40
1.0
 10
387.0757560109018
 20
208.5158374507865
 30
0.0
 10
386.9891317743843
 20
208.4197733936226
 30
0.0
 10
386.8706712800013
 20
208.3438846394061
 30
0.0
 10
386.7416603978315
 20
208.3176012172147
 30
0.0
  0
LINE
  5
EC
330
70
100
AcDbEntity
  8
Make2D__可见线__曲线
 62
    18
420
        0
370
    35
100
AcDbLine
 10
386.3537022787231
 20
208.7792269562704
 30
0.0
 11
386.3540724677658
 21
208.7801524288817
 31
0.0
  0
SPLINE
  5
ED
330
70
100
AcDbEntity
  8
Make2D__可见线__曲线
 62
    18
420
        0
370
    35
100
AcDbSpline
210
0.0
220
0.0
230
1.0
 70
     8
 71
     3
 72
    11
 73
     7
 74
     0
 42
0.0000000001
 43
0.0000000001
 40
0.0
 40
0.0
 40
0.0
 40
0.0
 40
1.0
 40
1.0
 40
1.0
 40
2.0
 40
2.0
 40
2.0
 40
2.0
 10
386.3542575622904
 20
208.7805226179276
 30
0.0
 10
386.4144132820958
 20
208.9545114690551
 30
0.0
 10
386.5654504124387
 20
209.104623126783
 30
0.0
 10
386.7374032238178
 20
209.1675552644248
 30
0.0
 10
386.9163896270509
 20
209.232893630859
 30
0.0
 10
387.1375775814116
 20
209.2034636017852
 30
0.0
 10
387.2097644451727
 20
208.9991192489714
 30
0.0
  0
SPLINE
  5
EE
330
70
100
AcDbEntity
  8
Make2D__可见线__曲线
 62
    18
420
        0
370
    35
100
AcDbSpline
210
0.0
220
0.0
230
1.0
 70
     8
 71
     3
 72
     8
 73
     4
 74
     0
 42
0.0000000001
 43
0.0000000001
 40
0.0
 40
0.0
 40
0.0
 40
0.0
 40
1.0
 40
1.0
 40
1.0
 40
1.0
 10
369.9495151297636
 20
211.3346419335741
 30
0.0
 10
369.9852383726007
 20
211.3344568390515
 30
0.0
 10
370.0209616154424
 20
211.3342717445295
 30
0.0
 10
370.056499763755
 20
211.3339015554842
 30
0.0
  0
SPLINE
  5
EF
330
70
100
AcDbEntity
  8
Make2D__可见线__曲线
 62
    18
420
        0
370
    35
100
AcDbSpline
210
0.0
220
0.0
230
1.0
 70
     8
 71
     3
 72
     8
 73
     4
 74
     0
 42
0.0000000001
 43
0.0000000001
 40
0.0
 40
0.0
 40
0.0
 40
0.0
 40
1.0
 40
1.0
 40
1.0
 40
1.0
 10
327.9869210337516
 20
146.1976583399977
 30
0.0
 10
327.9371306072059
 20
146.2572587762352
 30
0.0
 10
327.8878954642274
 20
146.3174144960399
 30
0.0
 10
327.8392156048162
 20
146.3777553103673
 30
0.0
  0
SPLINE
  5
F0
330
70
100
AcDbEntity
  8
Make2D__可见线__曲线
 62
    18
420
        0
370
    35
100
AcDbSpline
210
0.0
220
0.0
230
1.0
 70
     8
 71
     3
 72
     8
 73
     4
 74
     0
 42
0.0000000001
 43
0.0000000001
 40
0.0
 40
0.0
 40
0.0
 40
0.0
 40
1.0
 40
1.0
 40
1.0
 40
1.0
 10
337.6897609964669
 20
219.8930424638191
 30
0.0
 10
337.6914268471706
 20
219.4854643253267
 30
0.0
 10
337.6738428675357
 20
219.0815880772852
 30
0.0
 10
337.6207207395843
 20
218.6767863566299
 30
0.0
  0
SPLINE
  5
F1
330
70
100
AcDbEntity
  8
Make2D__可见线__曲线
 62
    18
420
        0
370
    35
100
AcDbSpline
210
0.0
220
0.0
230
1.0
 70
     8
 71
     3
 72
    14
 73
    10
 74
     0
 42
0.0000000001
 43
0.0000000001
 40
0.0
 40
0.0
 40
0.0
 40
0.0
 40
1.0
 40
1.0
 40
1.0
 40
2.0
 40
2.0
 40
2.0
 40
3.0
 40
3.0
 40
3.0
 40
3.0
 10
334.7628613125551
 20
223.4290882212006
 30
0.0
 10
334.7606401782828
 20
223.9877034900334
 30
0.0
 10
334.7980292718237
 20
224.6423828160321
 30
0.0
 10
334.9303718553953
 20
225.1908178861286
 30
0.0
 10
334.9920083313805
 20
225.4464334216667
 30
0.0
 10
335.1006588160712
 20
225.7866371539778
 30
0.0
 10
335.2846427714156
 20
225.9956088698526
 30
0.0
 10
335.530818486308
 20
226.2752866933149
 30
0.0
 10
335.8092006481105
 20
226.2064315309537
 30
0.0
 10
336.0581527808419
 20
225.9793205518761
 30
0.0
  0
SPLINE
  5
F2
330
70
100
AcDbEntity
  8
Make2D__可见线__曲线
 62
    18
420
        0
370
    35
100
AcDbSpline
210
0.0
220
0.0
230
1.0
 70
     8
 71
     3
 72
     8
 73
     4
 74
     0
 42
0.0000000001
 43
0.0000000001
 40
0.0
 40
0.0
 40
0.0
 40
0.0
 40
1.0
 40
1.0
 40
1.0
 40
1.0
 10
390.9899498777039
 20
196.9637181140138
 30
0.0
 10
391.799738413536
 20
197.5587970037743
 30
0.0
 10
392.5819478655207
 20
198.2723363879199
 30
0.0
 10
393.1712888250845
 20
199.0998939979102
 30
0.0
  0
SPLINE
  5
F3
330
70
100
AcDbEntity
  8
Make2D__可见线__曲线
 62
    18
420
        0
370
    35
100
AcDbSpline
210
0.0
220
0.0
230
1.0
 70
     8
 71
     3
 72
     8
 73
     4
 74
     0
 42
0.0000000001
 43
0.0000000001
 40
0.0
 40
0.0
 40
0.0
 40
0.0
 40
1.0
 40
1.0
 40
1.0
 40
1.0
 10
345.9031453368159
 20
198.6029152050619
 30
0.0
 10
345.7447044255768
 20
198.7950433193916
 30
0.0
 10
345.5962586185502
 20
198.993279552964
 30
0.0
 10
345.4587333883531
 20
199.2009556071815
 30
0.0
  0
SPLINE
  5
F4
330
70
100
AcDbEntity
  8
Make2D__可见线__曲线
 62
    18
420
        0
370
    35
100
AcDbSpline
210
0.0
220
0.0
230
1.0
 70
     8
 71
     3
 72
     8
 73
     4
 74
     0
 42
0.0000000001
 43
0.0000000001
 40
0.0
 40
0.0
 40
0.0
 40
0.0
 40
1.0
 40
1.0
 40
1.0
 40
1.0
 10
391.0541776769997
 20
136.3034306410433
 30
0.0
 10
379.8520720822336
 20
133.6469540544667
 30
0.0
 10
366.9258110105974
 20
133.2602915970155
 30
0.0
 10
355.5713726238292
 20
134.8326695654495
 30
0.0
  0
SPLINE
  5
F5
330
70
100
AcDbEntity
  8
Make2D__可见线__曲线
 62
    18
420
        0
370
    35
100
AcDbSpline
210
0.0
220
0.0
230
1.0
 70
     8
 71
     3
 72
     8
 73
     4
 74
     0
 42
0.0000000001
 43
0.0000000001
 40
0.0
 40
0.0
 40
0.0
 40
0.0
 40
1.0
 40
1.0
 40
1.0
 40
1.0
 10
336.7626225333812
 20
219.8308507042672
 30
0.0
 10
336.3426430618872
 20
220.6330503646787
 30
0.0
 10
336.121640202051
 20
221.5244655849233
 30
0.0
 10
336.1181234061234
 20
222.4297628943533
 30
0.0
  0
SPLINE
  5
F6
330
70
100
AcDbEntity
  8
Make2D__可见线__曲线
 62
    18
420
        0
370
    35
100
AcDbSpline
210
0.0
220
0.0
230
1.0
 70
     8
 71
     3
 72
     8
 73
     4
 74
     0
 42
0.0000000001
 43
0.0000000001
 40
0.0
 40
0.0
 40
0.0
 40
0.0
 40
1.0
 40
1.0
 40
1.0
 40
1.0
 10
329.6251926521865
 20
144.5079304443146
 30
0.0
 10
329.039553583073
 20
145.0354498333705
 30
0.0
 10
328.4922290801116
 20
145.5918439679348
 30
0.0
 10
327.9869210337516
 20
146.1976583399977
 30
0.0
  0
LINE
  5
F7
330
70
100
AcDbEntity
  8
Make2D__可见线__曲线
 62
    18
420
        0
370
    35
100
AcDbLine
 10
335.2485493395299
 20
223.3209930200753
 30
0.0
 11
336.1575485394121
 21
223.1184996124866
 31
0.0
  0
SPLINE
  5
F8
330
70
100
AcDbEntity
  8
Make2D__可见线__曲线
 62
    18
420
        0
370
    35
100
AcDbSpline
210
0.0
220
0.0
230
1.0
 70
     8
 71
     3
 72
     8
 73
     4
 74
     0
 42
0.0000000001
 43
0.0000000001
 40
0.0
 40
0.0
 40
0.0
 40
0.0
 40
1.0
 40
1.0
 40
1.0
 40
1.0
 10
386.2150664813888
 20
226.3606152681758
 30
0.0
 10
382.6355235112243
 20
227.5267107597747
 30
0.0
 10
378.7322502212516
 20
226.9843838089208
 30
0.0
 10
375.4416398006707
 20
225.3581433344455
 30
0.0
  0
SPLINE
  5
F9
330
70
100
AcDbEntity
  8
Make2D__可见线__曲线
 62
    18
420
        0
370
    35
100
AcDbSpline
210
0.0
220
0.0
230
1.0
 70
     8
 71
     3
 72
    11
 73
     7
 74
     0
 42
0.0000000001
 43
0.0000000001
 40
0.0
 40
0.0
 40
0.0
 40
0.0
 40
1.0
 40
1.0
 40
1.0
 40
2.0
 40
2.0
 40
2.0
 40
2.0
 10
372.9698875475273
 20
223.8568416626424
 30
0.0
 10
371.1020987212237
 20
222.4895484251127
 30
0.0
 10
369.51176658411
 20
220.7367032972658
 30
0.0
 10
368.3551109131563
 20
218.7275022557875
 30
0.0
 10
367.2014167545603
 20
216.7234838609401
 30
0.0
 10
366.4801034004735
 20
214.4610735127168
 30
0.0
 10
366.3749697117053
 20
212.1348055542378
 30
0.0
  0
SPLINE
  5
FA
330
70
100
AcDbEntity
  8
Make2D__可见线__曲线
 62
    18
420
        0
370
    35
100
AcDbSpline
210
0.0
220
0.0
230
1.0
 70
     8
 71
     3
 72
     8
 73
     4
 74
     0
 42
0.0000000001
 43
0.0000000001
 40
0.0
 40
0.0
 40
0.0
 40
0.0
 40
1.0
 40
1.0
 40
1.0
 40
1.0
 10
334.839675539379
 20
228.3664846082484
 30
0.0
 10
334.8172791021618
 20
228.3444583600733
 30
0.0
 10
334.7958081375578
 20
228.3215066392869
 30
0.0
 10
334.7752626455587
 20
228.2976294458872
 30
0.0
  0
SPLINE
  5
FB
330
70
100
AcDbEntity
  8
Make2D__可见线__曲线
 62
    18
420
        0
370
    35
100
AcDbSpline
210
0.0
220
0.0
230
1.0
 70
     8
 71
     3
 72
     8
 73
     4
 74
     0
 42
0.0000000001
 43
0.0000000001
 40
0.0
 40
0.0
 40
0.0
 40
0.0
 40
1.0
 40
1.0
 40
1.0
 40
1.0
 10
334.8013609732268
 20
229.5198085777965
 30
0.0
 10
335.1606294413526
 20
229.5444261492861
 30
0.0
 10
335.4862107063891
 20
229.2819621164147
 30
0.0
 10
335.703326581255
 20
229.0548511373365
 30
0.0
  0
SPLINE
  5
FC
330
70
100
AcDbEntity
  8
Make2D__可见线__曲线
 62
    18
420
        0
370
    35
100
AcDbSpline
210
0.0
220
0.0
230
1.0
 70
     8
 71
     3
 72
     8
 73
     4
 74
     0
 42
0.0000000001
 43
0.0000000001
 40
0.0
 40
0.0
 40
0.0
 40
0.0
 40
1.0
 40
1.0
 40
1.0
 40
1.0
 10
348.02858573841
 20
220.4198214747864
 30
0.0
 10
347.5980558791298
 20
224.6503418804986
 30
0.0
 10
346.7475465483544
 20
229.1942273127607
 30
0.0
 10
345.4881634174287
 20
233.2651962400987
 30
0.0
  0
SPLINE
  5
FD
330
70
100
AcDbEntity
  8
Make2D__可见线__曲线
 62
    18
420
        0
370
    35
100
AcDbSpline
210
0.0
220
0.0
230
1.0
 70
     8
 71
     3
 72
     8
 73
     4
 74
     0
 42
0.0000000001
 43
0.0000000001
 40
0.0
 40
0.0
 40
0.0
 40
0.0
 40
1.0
 40
1.0
 40
1.0
 40
1.0
 10
345.4881634174287
 20
233.2651962400987
 30
0.0
 10
345.4230101455159
 20
233.4760189011986
 30
0.0
 10
345.3563761174245
 20
233.6864713732538
 30
0.0
 10
345.2884464276726
 20
233.8963685617411
 30
0.0
  0
SPLINE
  5
FE
330
70
100
AcDbEntity
  8
Make2D__可见线__曲线
 62
    18
420
        0
370
    35
100
AcDbSpline
210
0.0
220
0.0
230
1.0
 70
     8
 71
     3
 72
     8
 73
     4
 74
     0
 42
0.0000000001
 43
0.0000000001
 40
0.0
 40
0.0
 40
0.0
 40
0.0
 40
1.0
 40
1.0
 40
1.0
 40
1.0
 10
336.6515658198955
 20
241.8915264600929
 30
0.0
 10
336.4960864210207
 20
241.6325792231492
 30
0.0
 10
336.3611525141334
 20
241.3649325436495
 30
0.0
 10
336.2386199402548
 20
241.0891417051595
 30
0.0
  0
SPLINE
  5
FF
330
70
100
AcDbEntity
  8
Make2D__可见线__曲线
 62
    18
420
        0
370
    35
100
AcDbSpline
210
0.0
220
0.0
230
1.0
 70
     8
 71
     3
 72
     8
 73
     4
 74
     0
 42
0.0000000001
 43
0.0000000001
 40
0.0
 40
0.0
 40
0.0
 40
0.0
 40
1.0
 40
1.0
 40
1.0
 40
1.0
 10
339.8846118439868
 20
138.667457882106
 30
0.0
 10
336.3530083551436
 20
140.0112441152819
 30
0.0
 10
332.4943428450891
 20
141.924936383161
 30
0.0
 10
329.6251926521865
 20
144.5079304443146
 30
0.0
  0
SPLINE
  5
100
330
70
100
AcDbEntity
  8
Make2D__可见线__曲线
 62
    18
420
        0
370
    35
100
AcDbSpline
210
0.0
220
0.0
230
1.0
 70
     8
 71
     3
 72
     8
 73
     4
 74
     0
 42
0.0000000001
 43
0.0000000001
 40
0.0
 40
0.0
 40
0.0
 40
0.0
 40
1.0
 40
1.0
 40
1.0
 40
1.0
 10
355.5713726238292
 20
134.8326695654495
 30
0.0
 10
354.4213803556854
 20
134.9918508547779
 30
0.0
 10
353.2754601670353
 20
135.1726882032361
 30
0.0
 10
352.1325014907455
 20
135.3768474615282
 30
0.0
  0
SPLINE
  5
101
330
70
100
AcDbEntity
  8
Make2D__可见线__曲线
 62
    18
420
        0
370
    35
100
AcDbSpline
210
0.0
220
0.0
230
1.0
 70
     8
 71
     3
 72
     8
 73
     4
 74
     0
 42
0.0000000001
 43
0.0000000001
 40
0.0
 40
0.0
 40
0.0
 40
0.0
 40
1.0
 40
1.0
 40
1.0
 40
1.0
 10
372.9698875475273
 20
223.8568416626424
 30
0.0
 10
372.8897416192959
 20
223.8431446679797
 30
0.0
 10
372.809595691065
 20
223.829447673317
 30
0.0
 10
372.7296348573525
 20
223.8157506786538
 30
0.0
  0
SPLINE
  5
102
330
70
100
AcDbEntity
  8
Make2D__可见线__曲线
 62
    18
420
        0
370
    35
100
AcDbSpline
210
0.0
220
0.0
230
1.0
 70
     8
 71
     3
 72
     8
 73
     4
 74
     0
 42
0.0000000001
 43
0.0000000001
 40
0.0
 40
0.0
 40
0.0
 40
0.0
 40
1.0
 40
1.0
 40
1.0
 40
1.0
 10
336.7626225333812
 20
219.8308507042672
 30
0.0
 10
336.4198274777596
 20
219.8426967537061
 30
0.0
 10
336.0775877057007
 20
219.8604658278636
 30
0.0
 10
335.7355330281645
 20
219.8889703843255
 30
0.0
  0
SPLINE
  5
103
330
70
100
AcDbEntity
  8
Make2D__可见线__曲线
 62
    18
420
        0
370
    35
100
AcDbSpline
210
0.0
220
0.0
230
1.0
 70
     8
 71
     3
 72
     8
 73
     4
 74
     0
 42
0.0000000001
 43
0.0000000001
 40
0.0
 40
0.0
 40
0.0
 40
0.0
 40
1.0
 40
1.0
 40
1.0
 40
1.0
 10
334.839675539379
 20
228.3664846082484
 30
0.0
 10
334.8232021268793
 20
228.7509259314311
 30
0.0
 10
334.8102455103084
 20
229.1351821600906
 30
0.0
 10
334.8009907841828
 20
229.5198085777965
 30
0.0
  0
SPLINE
  5
104
330
70
100
AcDbEntity
  8
Make2D__可见线__曲线
 62
    18
420
        0
370
    35
100
AcDbSpline
210
0.0
220
0.0
230
1.0
 70
     8
 71
     3
 72
     8
 73
     4
 74
     0
 42
0.0000000001
 43
0.0000000001
 40
0.0
 40
0.0
 40
0.0
 40
0.0
 40
1.0
 40
1.0
 40
1.0
 40
1.0
 10
409.4425781069032
 20
144.6728496638409
 30
0.0
 10
406.0627521264897
 20
141.6052781428465
 30
0.0
 10
401.2808351383212
 20
139.4450399710278
 30
0.0
 10
397.0825211795224
 20
138.0224034712783
 30
0.0
  0
LINE
  5
105
330
70
100
AcDbEntity
  8
Make2D__可见线__曲线
 62
    18
420
        0
370
    35
100
AcDbLine
 10
327.8392156048162
 20
146.3772000268
 30
0.0
 11
327.8390305102929
 21
146.3775702158446
 31
0.0
  0
LINE
  5
106
330
70
100
AcDbEntity
  8
Make2D__可见线__曲线
 62
    18
420
        0
370
    35
100
AcDbLine
 10
411.0756670787074
 20
146.3709068130353
 30
0.0
 11
408.2644514713442
 21
142.9725713803756
 31
0.0
  0
LINE
  5
107
330
70
100
AcDbEntity
  8
Make2D__可见线__曲线
 62
    18
420
        0
370
    35
100
AcDbLine
 10
326.4937635209377
 20
148.4287877139234
 30
0.0
 11
326.4935784264151
 21
148.4291579029681
 31
0.0
  0
SPLINE
  5
108
330
70
100
AcDbEntity
  8
Make2D__可见线__曲线
 62
    18
420
        0
370
    35
100
AcDbSpline
210
0.0
220
0.0
230
1.0
 70
     8
 71
     3
 72
    11
 73
     7
 74
     0
 42
0.0000000001
 43
0.0000000001
 40
0.0
 40
0.0
 40
0.0
 40
0.0
 40
1.0
 40
1.0
 40
1.0
 40
2.0
 40
2.0
 40
2.0
 40
2.0
 10
384.2632447418782
 20
203.8808855134642
 30
0.0
 10
386.7846023270466
 20
205.1284225949536
 30
0.0
 10
388.896901017544
 20
207.2166589975281
 30
0.0
 10
390.1274094029639
 20
209.7572664130332
 30
0.0
 10
391.3506991020097
 20
212.2830662667405
 30
0.0
 10
391.6868307548264
 20
215.2675303471438
 30
0.0
 10
390.6134676189871
 20
217.9534369627933
 30
0.0
  0
SPLINE
  5
109
330
70
100
AcDbEntity
  8
Make2D__可见线__曲线
 62
    18
420
        0
370
    35
100
AcDbSpline
210
0.0
220
0.0
230
1.0
 70
     8
 71
     3
 72
     8
 73
     4
 74
     0
 42
0.0000000001
 43
0.0000000001
 40
0.0
 40
0.0
 40
0.0
 40
0.0
 40
1.0
 40
1.0
 40
1.0
 40
1.0
 10
337.3784320096616
 20
218.8944575150617
 30
0.0
 10
337.1409557373276
 20
219.1874621441414
 30
0.0
 10
336.9377219516445
 20
219.4965699966755
 30
0.0
 10
336.7626225333812
 20
219.8308507042672
 30
0.0
  0
SPLINE
  5
10A
330
70
100
AcDbEntity
  8
Make2D__可见线__曲线
 62
    18
420
        0
370
    35
100
AcDbSpline
210
0.0
220
0.0
230
1.0
 70
     8
 71
     3
 72
     8
 73
     4
 74
     0
 42
0.0000000001
 43
0.0000000001
 40
0.0
 40
0.0
 40
0.0
 40
0.0
 40
1.0
 40
1.0
 40
1.0
 40
1.0
 10
347.6924540855932
 20
206.4646199527077
 30
0.0
 10
347.7748211480957
 20
206.5162613244786
 30
0.0
 10
347.8577434941623
 20
206.5671623181589
 30
0.0
 10
347.9410360292761
 20
206.6173229337506
 30
0.0
  0
SPLINE
  5
10B
330
70
100
AcDbEntity
  8
Make2D__可见线__曲线
 62
    18
420
        0
370
    35
100
AcDbSpline
210
0.0
220
0.0
230
1.0
 70
     8
 71
     3
 72
     8
 73
     4
 74
     0
 42
0.0000000001
 43
0.0000000001
 40
0.0
 40
0.0
 40
0.0
 40
0.0
 40
1.0
 40
1.0
 40
1.0
 40
1.0
 10
369.9796855369267
 20
210.7121690544876
 30
0.0
 10
370.0154087797683
 20
210.711798865443
 30
0.0
 10
370.0513171171242
 20
210.7116137709203
 30
0.0
 10
370.0870403599665
 20
210.7112435818744
 30
0.0
  0
LINE
  5
10C
330
70
100
AcDbEntity
  8
Make2D__可见线__曲线
 62
    18
420
        0
370
    35
100
AcDbLine
 10
347.4671940517375
 20
205.5360007334447
 30
0.0
 11
347.7502035766081
 21
205.7742173838725
 31
0.0
  0
SPLINE
  5
10D
330
70
100
AcDbEntity
  8
Make2D__可见线__曲线
 62
    18
420
        0
370
    35
100
AcDbSpline
210
0.0
220
0.0
230
1.0
 70
     8
 71
     3
 72
    11
 73
     7
 74
     0
 42
0.0000000001
 43
0.0000000001
 40
0.0
 40
0.0
 40
0.0
 40
0.0
 40
1.0
 40
1.0
 40
1.0
 40
2.0
 40
2.0
 40
2.0
 40
2.0
 10
378.4305461496161
 20
190.4794868026347
 30
0.0
 10
380.9398725908249
 20
190.8665194491325
 30
0.0
 10
383.5136119258515
 20
191.4488268168416
 30
0.0
 10
385.9222469468304
 20
192.2691657404559
 30
0.0
 10
388.2279694133173
 20
193.0545217993211
 30
0.0
 10
390.8163312156204
 20
194.2098818086157
 30
0.0
 10
392.7327999013385
 20
195.8000288512073
 30
0.0
  0
SPLINE
  5
10E
330
70
100
AcDbEntity
  8
Make2D__可见线__曲线
 62
    18
420
        0
370
    35
100
AcDbSpline
210
0.0
220
0.0
230
1.0
 70
     8
 71
     3
 72
     8
 73
     4
 74
     0
 42
0.0000000001
 43
0.0000000001
 40
0.0
 40
0.0
 40
0.0
 40
0.0
 40
1.0
 40
1.0
 40
1.0
 40
1.0
 10
395.4029734825717
 20
199.8217626355662
 30
0.0
 10
395.4881169629145
 20
200.3006021652123
 30
0.0
 10
395.4962611219043
 20
200.7635235659239
 30
0.0
 10
395.4274059595412
 20
201.2449544188851
 30
0.0
  0
LINE
  5
10F
330
70
100
AcDbEntity
  8
Make2D__可见线__曲线
 62
    18
420
        0
370
    35
100
AcDbLine
 10
347.6924540855932
 20
206.4648050472303
 30
0.0
 11
347.6928242746359
 21
206.4668410869781
 31
0.0
  0
LINE
  5
110
330
70
100
AcDbEntity
  8
Make2D__可见线__曲线
 62
    18
420
        0
370
    35
100
AcDbLine
 10
377.6711033238964
 20
210.4400801064471
 30
0.0
 11
377.9141324319052
 21
210.3915853415586
 31
0.0
  0
LINE
  5
111
330
70
100
AcDbEntity
  8
Make2D__可见线__曲线
 62
    18
420
        0
370
    35
100
AcDbLine
 10
377.36569736181
 20
210.181317964026
 30
0.0
 11
377.6711033238964
 21
210.4400801064471
 31
0.0
  0
SPLINE
  5
112
330
70
100
AcDbEntity
  8
Make2D__可见线__曲线
 62
    18
420
        0
370
    35
100
AcDbSpline
210
0.0
220
0.0
230
1.0
 70
     8
 71
     3
 72
     8
 73
     4
 74
     0
 42
0.0000000001
 43
0.0000000001
 40
0.0
 40
0.0
 40
0.0
 40
0.0
 40
1.0
 40
1.0
 40
1.0
 40
1.0
 10
382.7987768800456
 20
209.0970342513611
 30
0.0
 10
382.8291323817332
 20
209.0890751868958
 30
0.0
 10
382.8596729779441
 20
209.080745933384
 30
0.0
 10
382.8900284796317
 20
209.0726017743942
 30
0.0
  0
SPLINE
  5
113
330
70
100
AcDbEntity
  8
Make2D__可见线__曲线
 62
    18
420
        0
370
    35
100
AcDbSpline
210
0.0
220
0.0
230
1.0
 70
     8
 71
     3
 72
    29
 73
    25
 74
     0
 42
0.0000000001
 43
0.0000000001
 40
0.0
 40
0.0
 40
0.0
 40
0.0
 40
1.0
 40
1.0
 40
1.0
 40
2.0
 40
2.0
 40
2.0
 40
3.0
 40
3.0
 40
3.0
 40
4.0
 40
4.0
 40
4.0
 40
5.0
 40
5.0
 40
5.0
 40
6.0
 40
6.0
 40
6.0
 40
7.0
 40
7.0
 40
7.0
 40
8.0
 40
8.0
 40
8.0
 40
8.0
 10
336.988067661762
 20
213.7079239007611
 30
0.0
 10
336.6806256599279
 20
213.6720155634007
 30
0.0
 10
336.4044646323918
 20
213.847485170708
 30
0.0
 10
336.1964183891323
 20
214.0322095041391
 30
0.0
 10
335.8787961885604
 20
214.31410846187
 30
0.0
 10
335.6246614092027
 20
214.6970690288728
 30
0.0
 10
335.4186512056858
 20
215.0585586312691
 30
0.0
 10
335.0636399115788
 20
215.6821420774902
 30
0.0
 10
334.7852577497711
 20
216.3753210641631
 30
0.0
 10
334.5557405419017
 20
217.0511011657224
 30
0.0
 10
334.1005931111333
 20
218.3908153194041
 30
0.0
 10
333.7763075077566
 20
219.8861939664871
 30
0.0
 10
333.576960707049
 20
221.2831023276145
 30
0.0
 10
333.3777990008666
 20
222.6805659723078
 30
0.0
 10
333.2711845559185
 20
224.2075957827357
 30
0.0
 10
333.3337465045163
 20
225.6213477454068
 30
0.0
 10
333.3648423842906
 20
226.3278535376977
 30
0.0
 10
333.4403609494637
 20
227.0850752291463
 30
0.0
 10
333.6054652635134
 20
227.7764032705953
 30
0.0
 10
333.7039355494665
 20
228.1891640557166
 30
0.0
 10
333.8470136153429
 20
228.6463475262328
 30
0.0
 10
334.0850451712461
 20
229.0100582628982
 30
0.0
 10
334.2327506001803
 20
229.2358735803186
 30
0.0
 10
334.4409819379689
 20
229.4624292758295
 30
0.0
 10
334.7347269451347
 20
229.5120346078526
 30
0.0
  0
SPLINE
  5
114
330
70
100
AcDbEntity
  8
Make2D__可见线__曲线
 62
    18
420
        0
370
    35
100
AcDbSpline
210
0.0
220
0.0
230
1.0
 70
     8
 71
     3
 72
    11
 73
     7
 74
     0
 42
0.0000000001
 43
0.0000000001
 40
0.0
 40
0.0
 40
0.0
 40
0.0
 40
1.0
 40
1.0
 40
1.0
 40
2.0
 40
2.0
 40
2.0
 40
2.0
 10
336.0509340944647
 20
217.7731548979017
 30
0.0
 10
335.5752411717022
 20
218.5248237536775
 30
0.0
 10
335.2533617971167
 20
219.6764818725237
 30
0.0
 10
335.0778921898055
 20
220.5216234621477
 30
0.0
 10
334.8846535083412
 20
221.4522787211565
 30
0.0
 10
334.7665632030009
 20
222.4771470921073
 30
0.0
 10
334.7628613125551
 20
223.4290882212006
 30
0.0
  0
SPLINE
  5
115
330
70
100
AcDbEntity
  8
Make2D__可见线__曲线
 62
    18
420
        0
370
    35
100
AcDbSpline
210
0.0
220
0.0
230
1.0
 70
     8
 71
     3
 72
     8
 73
     4
 74
     0
 42
0.0000000001
 43
0.0000000001
 40
0.0
 40
0.0
 40
0.0
 40
0.0
 40
1.0
 40
1.0
 40
1.0
 40
1.0
 10
337.216844491539
 20
226.1281365479467
 30
0.0
 10
336.9817744479955
 20
226.7459820639704
 30
0.0
 10
336.6330563676493
 20
227.515605088427
 30
0.0
 10
336.2006755631466
 20
228.0370163582409
 30
0.0
  0
LINE
  5
116
330
70
100
AcDbEntity
  8
Make2D__可见线__曲线
 62
    18
420
        0
370
    35
100
AcDbLine
 10
335.1776581374242
 20
223.3367260544857
 30
0.0
 11
335.2485493395299
 21
223.3209930200753
 31
0.0
  0
SPLINE
  5
117
330
70
100
AcDbEntity
  8
Make2D__可见线__曲线
 62
    18
420
        0
370
    35
100
AcDbSpline
210
0.0
220
0.0
230
1.0
 70
     8
 71
     3
 72
    11
 73
     7
 74
     0
 42
0.0000000001
 43
0.0000000001
 40
0.0
 40
0.0
 40
0.0
 40
0.0
 40
1.0
 40
1.0
 40
1.0
 40
2.0
 40
2.0
 40
2.0
 40
2.0
 10
334.7752626455587
 20
228.2976294458872
 30
0.0
 10
334.3750882879648
 20
227.8337825725623
 30
0.0
 10
334.1935105614167
 20
226.952362456532
 30
0.0
 10
334.1116987824822
 20
226.3994851178953
 30
0.0
 10
334.0115626458253
 20
225.7244453944266
 30
0.0
 10
333.9804667660458
 20
225.0514417107024
 30
0.0
 10
333.9832431838855
 20
224.370849151559
 30
0.0
  0
SPLINE
  5
118
330
70
100
AcDbEntity
  8
Make2D__可见线__曲线
 62
    18
420
        0
370
    35
100
AcDbSpline
210
0.0
220
0.0
230
1.0
 70
     8
 71
     3
 72
    14
 73
    10
 74
     0
 42
0.0000000001
 43
0.0000000001
 40
0.0
 40
0.0
 40
0.0
 40
0.0
 40
1.0
 40
1.0
 40
1.0
 40
2.0
 40
2.0
 40
2.0
 40
3.0
 40
3.0
 40
3.0
 40
3.0
 10
336.6882145353498
 20
214.8840144965737
 30
0.0
 10
336.9917695522079
 20
214.6878143027497
 30
0.0
 10
337.3014326883144
 20
214.6741173080858
 30
0.0
 10
337.5822210789069
 20
214.9269564257881
 30
0.0
 10
337.8150699881851
 20
215.1366685197534
 30
0.0
 10
337.9712897651524
 20
215.4789082918123
 30
0.0
 10
338.0703153346786
 20
215.75914139884
 30
0.0
 10
338.2770659162829
 20
216.3434848062969
 30
0.0
 10
338.3779424310322
 20
217.0601707973235
 30
0.0
 10
338.4262521013969
 20
217.6702423434052
 30
0.0
  0
SPLINE
  5
119
330
70
100
AcDbEntity
  8
Make2D__可见线__曲线
 62
    18
420
        0
370
    35
100
AcDbSpline
210
0.0
220
0.0
230
1.0
 70
     8
 71
     3
 72
     8
 73
     4
 74
     0
 42
0.0000000001
 43
0.0000000001
 40
0.0
 40
0.0
 40
0.0
 40
0.0
 40
1.0
 40
1.0
 40
1.0
 40
1.0
 10
347.7949964510463
 20
206.9667813921854
 30
0.0
 10
347.8768082299803
 20
207.0267520174668
 30
0.0
 10
347.9591752924789
 20
207.085612075615
 30
0.0
 10
348.0422827330739
 20
207.143731755672
 30
0.0
  0
SPLINE
  5
11A
330
70
100
AcDbEntity
  8
Make2D__可见线__曲线
 62
    18
420
        0
370
    35
100
AcDbSpline
210
0.0
220
0.0
230
1.0
 70
     8
 71
     3
 72
     8
 73
     4
 74
     0
 42
0.0000000001
 43
0.0000000001
 40
0.0
 40
0.0
 40
0.0
 40
0.0
 40
1.0
 40
1.0
 40
1.0
 40
1.0
 10
335.1776581374242
 20
223.3367260544857
 30
0.0
 10
335.3966249575126
 20
221.4694925117474
 30
0.0
 10
335.686297885188
 20
219.617621814375
 30
0.0
 10
336.0509340944647
 20
217.7731548979017
 30
0.0
  0
SPLINE
  5
11B
330
70
100
AcDbEntity
  8
Make2D__可见线__曲线
 62
    18
420
        0
370
    35
100
AcDbSpline
210
0.0
220
0.0
230
1.0
 70
     8
 71
     3
 72
     8
 73
     4
 74
     0
 42
0.0000000001
 43
0.0000000001
 40
0.0
 40
0.0
 40
0.0
 40
0.0
 40
1.0
 40
1.0
 40
1.0
 40
1.0
 10
336.6878443463057
 20
214.884199591097
 30
0.0
 10
336.7840934979923
 20
214.4910588253571
 30
0.0
 10
336.8838594456051
 20
214.0990286267525
 30
0.0
 10
336.9876974727136
 20
213.7079239007611
 30
0.0
  0
SPLINE
  5
11C
330
70
100
AcDbEntity
  8
Make2D__可见线__曲线
 62
    18
420
        0
370
    35
100
AcDbSpline
210
0.0
220
0.0
230
1.0
 70
     8
 71
     3
 72
     8
 73
     4
 74
     0
 42
0.0000000001
 43
0.0000000001
 40
0.0
 40
0.0
 40
0.0
 40
0.0
 40
1.0
 40
1.0
 40
1.0
 40
1.0
 10
347.6930093691617
 20
206.46776655959
 30
0.0
 10
347.7289177065216
 20
206.633796346251
 30
0.0
 10
347.762790004131
 20
206.8001963219566
 30
0.0
 10
347.7948113565211
 20
206.9671515812307
 30
0.0
  0
SPLINE
  5
11D
330
70
100
AcDbEntity
  8
Make2D__可见线__曲线
 62
    18
420
        0
370
    35
100
AcDbSpline
210
0.0
220
0.0
230
1.0
 70
     8
 71
     3
 72
     8
 73
     4
 74
     0
 42
0.0000000001
 43
0.0000000001
 40
0.0
 40
0.0
 40
0.0
 40
0.0
 40
1.0
 40
1.0
 40
1.0
 40
1.0
 10
347.7948113565211
 20
206.9671515812307
 30
0.0
 10
348.2362617926262
 20
209.2625087544554
 30
0.0
 10
348.3767485351876
 20
211.8453177210851
 30
0.0
 10
348.3689745652411
 20
214.1706602069508
 30
0.0
  0
SPLINE
  5
11E
330
70
100
AcDbEntity
  8
Make2D__可见线__曲线
 62
    18
420
        0
370
    35
100
AcDbSpline
210
0.0
220
0.0
230
1.0
 70
     8
 71
     3
 72
    14
 73
    10
 74
     0
 42
0.0000000001
 43
0.0000000001
 40
0.0
 40
0.0
 40
0.0
 40
0.0
 40
1.0
 40
1.0
 40
1.0
 40
2.0
 40
2.0
 40
2.0
 40
3.0
 40
3.0
 40
3.0
 40
3.0
 10
338.4262521013969
 20
217.6702423434052
 30
0.0
 10
338.3975624504137
 20
216.9546669195125
 30
0.0
 10
338.3211184126338
 20
216.1648685921072
 30
0.0
 10
338.1554588150162
 20
215.464285824537
 30
0.0
 10
338.073276847037
 20
215.1163081222814
 30
0.0
 10
337.9559269197847
 20
214.7359388785923
 30
0.0
 10
337.7893418495603
 20
214.4159104492319
 30
0.0
 10
337.6358984904275
 20
214.1210548749277
 30
0.0
 10
337.3758406863465
 20
213.7530869642453
 30
0.0
 10
336.988067661762
 20
213.7079239007611
 30
0.0
  0
SPLINE
  5
11F
330
70
100
AcDbEntity
  8
Make2D__可见线__曲线
 62
    18
420
        0
370
    35
100
AcDbSpline
210
0.0
220
0.0
230
1.0
 70
     8
 71
     3
 72
    14
 73
    10
 74
     0
 42
0.0000000001
 43
0.0000000001
 40
0.0
 40
0.0
 40
0.0
 40
0.0
 40
1.0
 40
1.0
 40
1.0
 40
2.0
 40
2.0
 40
2.0
 40
3.0
 40
3.0
 40
3.0
 40
3.0
 10
337.6207207395843
 20
218.6767863566299
 30
0.0
 10
337.5703750294712
 20
218.2934556005817
 30
0.0
 10
337.4513592515151
 20
217.6513627021137
 30
0.0
 10
337.1685348211737
 20
217.3292982330043
 30
0.0
 10
336.9832552041753
 20
217.1181053828584
 30
0.0
 10
336.7626225333812
 20
217.0892306373533
 30
0.0
 10
336.5273673953189
 20
217.2411932403063
 30
0.0
 10
336.3346839974219
 20
217.3655767594093
 30
0.0
 10
336.168654210761
 20
217.5871349028134
 30
0.0
 10
336.0509340944647
 20
217.7731548979017
 30
0.0
  0
SPLINE
  5
120
330
70
100
AcDbEntity
  8
Make2D__可见线__曲线
 62
    18
420
        0
370
    35
100
AcDbSpline
210
0.0
220
0.0
230
1.0
 70
     8
 71
     3
 72
     8
 73
     4
 74
     0
 42
0.0000000001
 43
0.0000000001
 40
0.0
 40
0.0
 40
0.0
 40
0.0
 40
1.0
 40
1.0
 40
1.0
 40
1.0
 10
336.5597589367478
 20
224.6421977215088
 30
0.0
 10
336.6028859604875
 20
224.7445549924387
 30
0.0
 10
336.6510105363327
 20
224.8376575372435
 30
0.0
 10
336.7311564645642
 20
224.9185438435655
 30
0.0
  0
SPLINE
  5
121
330
70
100
AcDbEntity
  8
Make2D__可见线__曲线
 62
    18
420
        0
370
    35
100
AcDbSpline
210
0.0
220
0.0
230
1.0
 70
     8
 71
     3
 72
     8
 73
     4
 74
     0
 42
0.0000000001
 43
0.0000000001
 40
0.0
 40
0.0
 40
0.0
 40
0.0
 40
1.0
 40
1.0
 40
1.0
 40
1.0
 10
366.3749697117053
 20
212.1344353651925
 30
0.0
 10
366.3379508072134
 20
212.132399325446
 30
0.0
 10
366.3007468081977
 20
212.1305483802209
 30
0.0
 10
366.2637279037001
 20
212.1285123404737
 30
0.0
  0
SPLINE
  5
122
330
70
100
AcDbEntity
  8
Make2D__可见线__曲线
 62
    18
420
        0
370
    35
100
AcDbSpline
210
0.0
220
0.0
230
1.0
 70
     8
 71
     3
 72
    11
 73
     7
 74
     0
 42
0.0000000001
 43
0.0000000001
 40
0.0
 40
0.0
 40
0.0
 40
0.0
 40
1.0
 40
1.0
 40
1.0
 40
2.0
 40
2.0
 40
2.0
 40
2.0
 10
388.9631648565927
 20
220.569377848947
 30
0.0
 10
387.4577911052928
 20
222.1924717165387
 30
0.0
 10
385.414532671683
 20
223.1133169658578
 30
0.0
 10
383.2446695846948
 20
223.3406130394567
 30
0.0
 10
381.0762872538856
 20
223.5675389240129
 30
0.0
 10
378.8821767844581
 20
223.0990646876265
 30
0.0
 10
376.9479390245818
 20
222.1428663845156
 30
0.0
  0
SPLINE
  5
123
330
70
100
AcDbEntity
  8
Make2D__可见线__曲线
 62
    18
420
        0
370
    35
100
AcDbSpline
210
0.0
220
0.0
230
1.0
 70
     8
 71
     3
 72
     8
 73
     4
 74
     0
 42
0.0000000001
 43
0.0000000001
 40
0.0
 40
0.0
 40
0.0
 40
0.0
 40
1.0
 40
1.0
 40
1.0
 40
1.0
 10
388.9631648565927
 20
220.569377848947
 30
0.0
 10
389.180095636934
 20
220.2861832295589
 30
0.0
 10
389.3768511143265
 20
219.992068033344
 30
0.0
 10
389.5562077066023
 20
219.6837005588984
 30
0.0
  0
SPLINE
  5
124
330
70
100
AcDbEntity
  8
Make2D__可见线__曲线
 62
    18
420
        0
370
    35
100
AcDbSpline
210
0.0
220
0.0
230
1.0
 70
     8
 71
     3
 72
    11
 73
     7
 74
     0
 42
0.0000000001
 43
0.0000000001
 40
0.0
 40
0.0
 40
0.0
 40
0.0
 40
1.0
 40
1.0
 40
1.0
 40
2.0
 40
2.0
 40
2.0
 40
2.0
 10
371.9542739027023
 20
205.7808807866818
 30
0.0
 10
373.4241095056851
 20
204.0195213107998
 30
0.0
 10
375.5045719383156
 20
202.9889150096529
 30
0.0
 10
377.7468069835896
 20
202.7059054847881
 30
0.0
 10
379.9857103274605
 20
202.4232661489667
 30
0.0
 10
382.2642238991382
 20
202.8917403853538
 30
0.0
 10
384.2632447418782
 20
203.8808855134642
 30
0.0
  0
SPLINE
  5
125
330
70
100
AcDbEntity
  8
Make2D__可见线__曲线
 62
    18
420
        0
370
    35
100
AcDbSpline
210
0.0
220
0.0
230
1.0
 70
     8
 71
     3
 72
     8
 73
     4
 74
     0
 42
0.0000000001
 43
0.0000000001
 40
0.0
 40
0.0
 40
0.0
 40
0.0
 40
1.0
 40
1.0
 40
1.0
 40
1.0
 10
389.2243332278036
 20
220.2741520855968
 30
0.0
 10
389.13955993651
 20
220.3746584113022
 30
0.0
 10
389.052565510944
 20
220.4729436027365
 30
0.0
 10
388.9631648565927
 20
220.569377848947
 30
0.0
  0
SPLINE
  5
126
330
70
100
AcDbEntity
  8
Make2D__可见线__曲线
 62
    18
420
        0
370
    35
100
AcDbSpline
210
0.0
220
0.0
230
1.0
 70
     8
 71
     3
 72
     8
 73
     4
 74
     0
 42
0.0000000001
 43
0.0000000001
 40
0.0
 40
0.0
 40
0.0
 40
0.0
 40
1.0
 40
1.0
 40
1.0
 40
1.0
 10
375.4416398006707
 20
225.3581433344455
 30
0.0
 10
374.5709551669452
 20
224.9277985696893
 30
0.0
 10
373.7533926611673
 20
224.4304495877964
 30
0.0
 10
372.9698875475273
 20
223.8568416626424
 30
0.0
  0
SPLINE
  5
127
330
70
100
AcDbEntity
  8
Make2D__可见线__曲线
 62
    18
420
        0
370
    35
100
AcDbSpline
210
0.0
220
0.0
230
1.0
 70
     8
 71
     3
 72
    11
 73
     7
 74
     0
 42
0.0000000001
 43
0.0000000001
 40
0.0
 40
0.0
 40
0.0
 40
0.0
 40
1.0
 40
1.0
 40
1.0
 40
2.0
 40
2.0
 40
2.0
 40
2.0
 10
376.9479390245818
 20
222.1428663845156
 30
0.0
 10
375.0536816815609
 20
221.2066582898314
 30
0.0
 10
373.3935689094787
 20
219.7984591628344
 30
0.0
 10
372.1619499569178
 20
218.0813372778246
 30
0.0
 10
370.9340328948143
 20
216.3693980394443
 30
0.0
 10
370.1260953042055
 20
214.337800560747
 30
0.0
 10
369.9741327012518
 20
212.2155067660372
 30
0.0
  0
SPLINE
  5
128
330
70
100
AcDbEntity
  8
Make2D__可见线__曲线
 62
    18
420
        0
370
    35
100
AcDbSpline
210
0.0
220
0.0
230
1.0
 70
     8
 71
     3
 72
     8
 73
     4
 74
     0
 42
0.0000000001
 43
0.0000000001
 40
0.0
 40
0.0
 40
0.0
 40
0.0
 40
1.0
 40
1.0
 40
1.0
 40
1.0
 10
390.6134676189871
 20
217.9534369627933
 30
0.0
 10
390.2764104935578
 20
218.7970977962393
 30
0.0
 10
389.8103424859657
 20
219.5793072482227
 30
0.0
 10
389.2243332278036
 20
220.2741520855968
 30
0.0
  0
LINE
  5
129
330
70
100
AcDbEntity
  8
Make2D__可见线__曲线
 62
    18
420
        0
370
    35
100
AcDbLine
 10
334.7628613125551
 20
223.4290882212006
 30
0.0
 11
335.1776581374242
 21
223.3367260544857
 31
0.0
  0
SPLINE
  5
12A
330
70
100
AcDbEntity
  8
Make2D__可见线__曲线
 62
    18
420
        0
370
    35
100
AcDbSpline
210
0.0
220
0.0
230
1.0
 70
     8
 71
     3
 72
    11
 73
     7
 74
     0
 42
0.0000000001
 43
0.0000000001
 40
0.0
 40
0.0
 40
0.0
 40
0.0
 40
1.0
 40
1.0
 40
1.0
 40
2.0
 40
2.0
 40
2.0
 40
2.0
 10
336.2006755631466
 20
228.0370163582409
 30
0.0
 10
336.0407538957271
 20
228.2298848506612
 30
0.0
 10
335.8238231153858
 20
228.4431137405535
 30
0.0
 10
335.5782026840607
 20
228.5378821360615
 30
0.0
 10
335.2963037263318
 20
228.6465326207554
 30
0.0
 10
335.0480919716871
 20
228.5715693391522
 30
0.0
 10
334.839675539379
 20
228.3664846082484
 30
0.0
  0
SPLINE
  5
12B
330
70
100
AcDbEntity
  8
Make2D__可见线__曲线
 62
    18
420
        0
370
    35
100
AcDbSpline
210
0.0
220
0.0
230
1.0
 70
     8
 71
     3
 72
     8
 73
     4
 74
     0
 42
0.0000000001
 43
0.0000000001
 40
0.0
 40
0.0
 40
0.0
 40
0.0
 40
1.0
 40
1.0
 40
1.0
 40
1.0
 10
336.2504659896905
 20
215.2917777295881
 30
0.0
 10
336.3796619663796
 20
215.1353728580968
 30
0.0
 10
336.5155213458781
 20
214.995626493628
 30
0.0
 10
336.6882145353498
 20
214.8840144965737
 30
0.0
  0
SPLINE
  5
12C
330
70
100
AcDbEntity
  8
Make2D__可见线__曲线
 62
    18
420
        0
370
    35
100
AcDbSpline
210
0.0
220
0.0
230
1.0
 70
     8
 71
     3
 72
    14
 73
    10
 74
     0
 42
0.0000000001
 43
0.0000000001
 40
0.0
 40
0.0
 40
0.0
 40
0.0
 40
1.0
 40
1.0
 40
1.0
 40
2.0
 40
2.0
 40
2.0
 40
3.0
 40
3.0
 40
3.0
 40
3.0
 10
333.9832431838855
 20
224.370849151559
 30
0.0
 10
333.9895363976469
 20
222.8336391423967
 30
0.0
 10
334.1898086709659
 20
221.167048062022
 30
0.0
 10
334.5189067319293
 20
219.6677824299654
 30
0.0
 10
334.6886384090418
 20
218.8933469479259
 30
0.0
 10
334.8955740851707
 20
218.1346445002974
 30
0.0
 10
335.1663673715507
 20
217.3883433856744
 30
0.0
 10
335.4103219521765
 20
216.7164502690867
 30
0.0
 10
335.7825470368745
 20
215.8581669683655
 30
0.0
 10
336.2504659896905
 20
215.2917777295881
 30
0.0
  0
SPLINE
  5
12D
330
70
100
AcDbEntity
  8
Make2D__可见线__曲线
 62
    18
420
        0
370
    35
100
AcDbSpline
210
0.0
220
0.0
230
1.0
 70
     8
 71
     3
 72
     8
 73
     4
 74
     0
 42
0.0000000001
 43
0.0000000001
 40
0.0
 40
0.0
 40
0.0
 40
0.0
 40
1.0
 40
1.0
 40
1.0
 40
1.0
 10
337.3784320096616
 20
218.8944575150617
 30
0.0
 10
337.4485828336806
 20
218.8080183730655
 30
0.0
 10
337.5209547919708
 20
218.7319445243271
 30
0.0
 10
337.6207207395843
 20
218.6766012621072
 30
0.0
  0
SPLINE
  5
12E
330
70
100
AcDbEntity
  8
Make2D__可见线__曲线
 62
    18
420
        0
370
    35
100
AcDbSpline
210
0.0
220
0.0
230
1.0
 70
     8
 71
     3
 72
     8
 73
     4
 74
     0
 42
0.0000000001
 43
0.0000000001
 40
0.0
 40
0.0
 40
0.0
 40
0.0
 40
1.0
 40
1.0
 40
1.0
 40
1.0
 10
349.2255920152592
 20
195.9381093649744
 30
0.0
 10
348.024883847959
 20
196.6285119338109
 30
0.0
 10
346.799928298214
 20
197.5158550745606
 30
0.0
 10
345.9031453368159
 20
198.6029152050619
 30
0.0
  0
SPLINE
  5
12F
330
70
100
AcDbEntity
  8
Make2D__可见线__曲线
 62
    18
420
        0
370
    35
100
AcDbSpline
210
0.0
220
0.0
230
1.0
 70
     8
 71
     3
 72
     8
 73
     4
 74
     0
 42
0.0000000001
 43
0.0000000001
 40
0.0
 40
0.0
 40
0.0
 40
0.0
 40
1.0
 40
1.0
 40
1.0
 40
1.0
 10
347.8749572847525
 20
196.8761684048831
 30
0.0
 10
348.5979364895432
 20
196.3495744884384
 30
0.0
 10
349.3579345988308
 20
195.9007202714354
 30
0.0
 10
350.1531006673876
 20
195.4948079836442
 30
0.0
  0
SPLINE
  5
130
330
70
100
AcDbEntity
  8
Make2D__可见线__曲线
 62
    18
420
        0
370
    35
100
AcDbSpline
210
0.0
220
0.0
230
1.0
 70
     8
 71
     3
 72
     8
 73
     4
 74
     0
 42
0.0000000001
 43
0.0000000001
 40
0.0
 40
0.0
 40
0.0
 40
0.0
 40
1.0
 40
1.0
 40
1.0
 40
1.0
 10
352.3027884514259
 20
194.1121519007487
 30
0.0
 10
351.2934680203623
 20
194.6459645035693
 30
0.0
 10
350.3146881855102
 20
195.2238296027402
 30
0.0
 10
349.359785544054
 20
195.8496341832305
 30
0.0
  0
SPLINE
  5
131
330
70
100
AcDbEntity
  8
Make2D__可见线__曲线
 62
    18
420
        0
370
    35
100
AcDbSpline
210
0.0
220
0.0
230
1.0
 70
     8
 71
     3
 72
     8
 73
     4
 74
     0
 42
0.0000000001
 43
0.0000000001
 40
0.0
 40
0.0
 40
0.0
 40
0.0
 40
1.0
 40
1.0
 40
1.0
 40
1.0
 10
390.9899498777039
 20
196.9637181140138
 30
0.0
 10
390.5479441580309
 20
196.6390623215912
 30
0.0
 10
390.099460130068
 20
196.3247718224275
 30
0.0
 10
389.643387226687
 20
196.0204764274769
 30
0.0
  0
SPLINE
  5
132
330
70
100
AcDbEntity
  8
Make2D__可见线__曲线
 62
    18
420
        0
370
    35
100
AcDbSpline
210
0.0
220
0.0
230
1.0
 70
     8
 71
     3
 72
     8
 73
     4
 74
     0
 42
0.0000000001
 43
0.0000000001
 40
0.0
 40
0.0
 40
0.0
 40
0.0
 40
1.0
 40
1.0
 40
1.0
 40
1.0
 10
389.9941413467797
 20
196.8198996700506
 30
0.0
 10
390.385431167297
 20
197.0329434654203
 30
0.0
 10
390.7702426795223
 20
197.2559823650036
 30
0.0
 10
391.1495013560795
 20
197.4897567468912
 30
0.0
  0
SPLINE
  5
133
330
70
100
AcDbEntity
  8
Make2D__可见线__曲线
 62
    18
420
        0
370
    35
100
AcDbSpline
210
0.0
220
0.0
230
1.0
 70
     8
 71
     3
 72
     8
 73
     4
 74
     0
 42
0.0000000001
 43
0.0000000001
 40
0.0
 40
0.0
 40
0.0
 40
0.0
 40
1.0
 40
1.0
 40
1.0
 40
1.0
 10
388.7656690011083
 20
195.4550126613127
 30
0.0
 10
388.3862252300324
 20
195.2212382794251
 30
0.0
 10
388.0012286232824
 20
194.9981993798418
 30
0.0
 10
387.6099388027709
 20
194.7851555844716
 30
0.0
  0
SPLINE
  5
134
330
70
100
AcDbEntity
  8
Make2D__可见线__曲线
 62
    18
420
        0
370
    35
100
AcDbSpline
210
0.0
220
0.0
230
1.0
 70
     8
 71
     3
 72
     8
 73
     4
 74
     0
 42
0.0000000001
 43
0.0000000001
 40
0.0
 40
0.0
 40
0.0
 40
0.0
 40
1.0
 40
1.0
 40
1.0
 40
1.0
 10
345.9849571157517
 20
198.6147612545007
 30
0.0
 10
346.5282095392169
 20
197.9560098490084
 30
0.0
 10
347.1888118899349
 20
197.3761087100911
 30
0.0
 10
347.8749572847525
 20
196.8761684048831
 30
0.0
  0
SPLINE
  5
135
330
70
100
AcDbEntity
  8
Make2D__可见线__曲线
 62
    18
420
        0
370
    35
100
AcDbSpline
210
0.0
220
0.0
230
1.0
 70
     8
 71
     3
 72
     8
 73
     4
 74
     0
 42
0.0000000001
 43
0.0000000001
 40
0.0
 40
0.0
 40
0.0
 40
0.0
 40
1.0
 40
1.0
 40
1.0
 40
1.0
 10
344.7653693071569
 20
197.0579312259545
 30
0.0
 10
344.7677755359474
 20
197.0549697135948
 30
0.0
 10
344.7703668592637
 20
197.051823106713
 30
0.0
 10
344.7727730880542
 20
197.0488615943534
 30
0.0
  0
SPLINE
  5
136
330
70
100
AcDbEntity
  8
Make2D__可见线__曲线
 62
    18
420
        0
370
    35
100
AcDbSpline
210
0.0
220
0.0
230
1.0
 70
     8
 71
     3
 72
     8
 73
     4
 74
     0
 42
0.0000000001
 43
0.0000000001
 40
0.0
 40
0.0
 40
0.0
 40
0.0
 40
1.0
 40
1.0
 40
1.0
 40
1.0
 10
334.7347269451347
 20
229.5120346078526
 30
0.0
 10
334.7567531933131
 20
229.5157364983023
 30
0.0
 10
334.7789645360096
 20
229.518327821616
 30
0.0
 10
334.8013609732268
 20
229.5198085777965
 30
0.0
  0
SPLINE
  5
137
330
70
100
AcDbEntity
  8
Make2D__可见线__曲线
 62
    18
420
        0
370
    35
100
AcDbSpline
210
0.0
220
0.0
230
1.0
 70
     8
 71
     3
 72
     8
 73
     4
 74
     0
 42
0.0000000001
 43
0.0000000001
 40
0.0
 40
0.0
 40
0.0
 40
0.0
 40
1.0
 40
1.0
 40
1.0
 40
1.0
 10
334.7343567560908
 20
229.51184951333
 30
0.0
 10
334.7437965767359
 20
229.1070477926753
 30
0.0
 10
334.7576786659244
 20
228.7022460720199
 30
0.0
 10
334.7752626455587
 20
228.2976294458872
 30
0.0
  0
SPLINE
  5
138
330
70
100
AcDbEntity
  8
Make2D__可见线__曲线
 62
    18
420
        0
370
    35
100
AcDbSpline
210
0.0
220
0.0
230
1.0
 70
     8
 71
     3
 72
    14
 73
    10
 74
     0
 42
0.0000000001
 43
0.0000000001
 40
0.0
 40
0.0
 40
0.0
 40
0.0
 40
1.0
 40
1.0
 40
1.0
 40
2.0
 40
2.0
 40
2.0
 40
3.0
 40
3.0
 40
3.0
 40
3.0
 10
341.3931322021646
 20
203.3418902640147
 30
0.0
 10
337.1118958972953
 20
208.5328661468548
 30
0.0
 10
334.3619465768688
 20
214.8138636725553
 30
0.0
 10
333.451281526288
 20
221.4805981830963
 30
0.0
 10
332.9979850407474
 20
224.7986025930007
 30
0.0
 10
333.0070546723427
 20
228.1636210116151
 30
0.0
 10
333.4784904210914
 20
231.4792191927284
 30
0.0
 10
333.9497410753155
 20
234.7948173738403
 30
0.0
 10
334.8787304836231
 20
238.028973965063
 30
0.0
 10
336.2386199402548
 20
241.0891417051595
 30
0.0
  0
SPLINE
  5
139
330
70
100
AcDbEntity
  8
Make2D__可见线__曲线
 62
    18
420
        0
370
    35
100
AcDbSpline
210
0.0
220
0.0
230
1.0
 70
     8
 71
     3
 72
     8
 73
     4
 74
     0
 42
0.0000000001
 43
0.0000000001
 40
0.0
 40
0.0
 40
0.0
 40
0.0
 40
1.0
 40
1.0
 40
1.0
 40
1.0
 10
341.6681826625648
 20
203.0122369194859
 30
0.0
 10
341.5758204958486
 20
203.1216277822691
 30
0.0
 10
341.4841987072248
 20
203.2313888340969
 30
0.0
 10
341.3931322021646
 20
203.3418902640147
 30
0.0
  0
SPLINE
  5
13A
330
70
100
AcDbEntity
  8
Make2D__可见线__曲线
 62
    18
420
        0
370
    35
100
AcDbSpline
210
0.0
220
0.0
230
1.0
 70
     8
 71
     3
 72
    26
 73
    22
 74
     0
 42
0.0000000001
 43
0.0000000001
 40
0.0
 40
0.0
 40
0.0
 40
0.0
 40
1.0
 40
1.0
 40
1.0
 40
2.0
 40
2.0
 40
2.0
 40
3.0
 40
3.0
 40
3.0
 40
4.0
 40
4.0
 40
4.0
 40
5.0
 40
5.0
 40
5.0
 40
6.0
 40
6.0
 40
6.0
 40
7.0
 40
7.0
 40
7.0
 40
7.0
 10
338.7597924308986
 20
207.1605753572182
 30
0.0
 10
338.65077175716
 20
207.2929179407879
 30
0.0
 10
338.4806698910042
 20
207.5694491573659
 30
0.0
 10
338.394971127098
 20
207.7160440191681
 30
0.0
 10
338.338887486792
 20
207.811737887288
 30
0.0
 10
338.2846547917042
 20
207.9083572280198
 30
0.0
 10
338.2341239870678
 20
208.0070126085
 30
0.0
 10
338.2089511320116
 20
208.0564328460018
 30
0.0
 10
338.1843335605233
 20
208.1060381780249
 30
0.0
 10
338.163232784962
 20
208.1573093607505
 30
0.0
 10
338.1558290040602
 20
208.1754486239534
 30
0.0
 10
338.1486103176868
 20
208.1935878871556
 30
0.0
 10
338.1437978600994
 20
208.2126526229711
 30
0.0
 10
338.1425021984441
 20
208.2180203641232
 30
0.0
 10
338.1376897408567
 20
208.2326428313984
 30
0.0
 10
338.143427671056
 20
208.2381956670726
 30
0.0
 10
338.1484252231616
 20
208.24319321918
 30
0.0
 10
338.160086178079
 20
208.2330130204431
 30
0.0
 10
338.163232784962
 20
208.230421697128
 30
0.0
 10
338.1784105358052
 20
208.2176501750779
 30
0.0
 10
338.1906267742848
 20
208.20284261328
 30
0.0
 10
338.2030281072935
 20
208.1878499569595
 30
0.0
  0
SPLINE
  5
13B
330
70
100
AcDbEntity
  8
Make2D__可见线__曲线
 62
    18
420
        0
370
    35
100
AcDbSpline
210
0.0
220
0.0
230
1.0
 70
     8
 71
     3
 72
    26
 73
    22
 74
     0
 42
0.0000000001
 43
0.0000000001
 40
0.0
 40
0.0
 40
0.0
 40
0.0
 40
1.0
 40
1.0
 40
1.0
 40
2.0
 40
2.0
 40
2.0
 40
3.0
 40
3.0
 40
3.0
 40
4.0
 40
4.0
 40
4.0
 40
5.0
 40
5.0
 40
5.0
 40
6.0
 40
6.0
 40
6.0
 40
7.0
 40
7.0
 40
7.0
 40
7.0
 10
338.2030281072935
 20
208.1878499569595
 30
0.0
 10
338.3113084029402
 20
208.0566179405245
 30
0.0
 10
338.4812251745721
 20
207.7773103061074
 30
0.0
 10
338.5659984658664
 20
207.6318260114411
 30
0.0
 10
338.6217119171335
 20
207.5359470487986
 30
0.0
 10
338.6757595176974
 20
207.4395128025894
 30
0.0
 10
338.7264754168532
 20
207.3408574221091
 30
0.0
 10
338.7518333664333
 20
207.2916222791307
 30
0.0
 10
338.7764509379216
 20
207.2422020416296
 30
0.0
 10
338.7979219025321
 20
207.1909308589033
 30
0.0
 10
338.8055107779539
 20
207.1727915957005
 30
0.0
 10
338.8129145588513
 20
207.1548374270208
 30
0.0
 10
338.8179121109569
 20
207.1355875966828
 30
0.0
 10
338.819392867136
 20
207.1304049500539
 30
0.0
 10
338.8243904192429
 20
207.1157824827781
 30
0.0
 10
338.8190226780933
 20
207.1100445525819
 30
0.0
 10
338.8142102205059
 20
207.1052320949977
 30
0.0
 10
338.8025492655949
 20
207.1154122937334
 30
0.0
 10
338.7994026587119
 20
207.1180036170478
 30
0.0
 10
338.7844100023926
 20
207.1307751390986
 30
0.0
 10
338.7721937639073
 20
207.1455827008971
 30
0.0
 10
338.7597924308986
 20
207.1605753572182
 30
0.0
  0
SPLINE
  5
13C
330
70
100
AcDbEntity
  8
Make2D__可见线__曲线
 62
    18
420
        0
370
    35
100
AcDbSpline
210
0.0
220
0.0
230
1.0
 70
     8
 71
     3
 72
     8
 73
     4
 74
     0
 42
0.0000000001
 43
0.0000000001
 40
0.0
 40
0.0
 40
0.0
 40
0.0
 40
1.0
 40
1.0
 40
1.0
 40
1.0
 10
336.2291801196103
 20
229.5979184662809
 30
0.0
 10
336.1527360818253
 20
229.2923274096736
 30
0.0
 10
336.0803641235397
 20
228.9859959749752
 30
0.0
 10
336.0122493392684
 20
228.6785539731436
 30
0.0
  0
SPLINE
  5
13D
330
70
100
AcDbEntity
  8
Make2D__可见线__曲线
 62
    18
420
        0
370
    35
100
AcDbSpline
210
0.0
220
0.0
230
1.0
 70
     8
 71
     3
 72
    14
 73
    10
 74
     0
 42
0.0000000001
 43
0.0000000001
 40
0.0
 40
0.0
 40
0.0
 40
0.0
 40
1.0
 40
1.0
 40
1.0
 40
2.0
 40
2.0
 40
2.0
 40
3.0
 40
3.0
 40
3.0
 40
3.0
 10
335.9200722670723
 20
229.9692180783682
 30
0.0
 10
335.9402475700217
 20
230.0495491011229
 30
0.0
 10
335.9768962854753
 20
230.1567188296369
 30
0.0
 10
336.0339053983976
 20
230.2226124796378
 30
0.0
 10
336.121640202051
 20
230.3242293724771
 30
0.0
 10
336.1954929165158
 20
230.2618525184032
 30
0.0
 10
336.2325118210127
 20
230.1517212775301
 30
0.0
 10
336.287114705144
 20
229.9893933813182
 30
0.0
 10
336.2684201583738
 20
229.7567295665665
 30
0.0
 10
336.2291801196103
 20
229.5979184662809
 30
0.0
  0
SPLINE
  5
13E
330
70
100
AcDbEntity
  8
Make2D__可见线__曲线
 62
    18
420
        0
370
    35
100
AcDbSpline
210
0.0
220
0.0
230
1.0
 70
     8
 71
     3
 72
     8
 73
     4
 74
     0
 42
0.0000000001
 43
0.0000000001
 40
0.0
 40
0.0
 40
0.0
 40
0.0
 40
1.0
 40
1.0
 40
1.0
 40
1.0
 10
335.703326581255
 20
229.0548511373365
 30
0.0
 10
335.7714413655263
 20
229.3606272884676
 30
0.0
 10
335.8436282292918
 20
229.6652928724628
 30
0.0
 10
335.9200722670723
 20
229.9692180783682
 30
0.0
  0
SPLINE
  5
13F
330
70
100
AcDbEntity
  8
Make2D__可见线__曲线
 62
    18
420
        0
370
    35
100
AcDbSpline
210
0.0
220
0.0
230
1.0
 70
     8
 71
     3
 72
     8
 73
     4
 74
     0
 42
0.0000000001
 43
0.0000000001
 40
0.0
 40
0.0
 40
0.0
 40
0.0
 40
1.0
 40
1.0
 40
1.0
 40
1.0
 10
348.3689745652411
 20
214.1706602069508
 30
0.0
 10
348.3621260679123
 20
216.2622283109296
 30
0.0
 10
348.2403338721211
 20
218.3397292312011
 30
0.0
 10
348.02858573841
 20
220.4198214747864
 30
0.0
  0
SPLINE
  5
140
330
70
100
AcDbEntity
  8
Make2D__可见线__曲线
 62
    18
420
        0
370
    35
100
AcDbSpline
210
0.0
220
0.0
230
1.0
 70
     8
 71
     3
 72
     8
 73
     4
 74
     0
 42
0.0000000001
 43
0.0000000001
 40
0.0
 40
0.0
 40
0.0
 40
0.0
 40
1.0
 40
1.0
 40
1.0
 40
1.0
 10
351.2111009578592
 20
135.5467642331608
 30
0.0
 10
347.4068532374127
 20
136.2702987215193
 30
0.0
 10
343.5126495790405
 20
137.2870229334809
 30
0.0
 10
339.8846118439868
 20
138.667457882106
 30
0.0
  0
SPLINE
  5
141
330
70
100
AcDbEntity
  8
Make2D__可见线__曲线
 62
    18
420
        0
370
    35
100
AcDbSpline
210
0.0
220
0.0
230
1.0
 70
     8
 71
     3
 72
     8
 73
     4
 74
     0
 42
0.0000000001
 43
0.0000000001
 40
0.0
 40
0.0
 40
0.0
 40
0.0
 40
1.0
 40
1.0
 40
1.0
 40
1.0
 10
397.0825211795224
 20
138.0224034712783
 30
0.0
 10
396.8704028567628
 20
137.9505867965574
 30
0.0
 10
396.6579143449597
 20
137.8798806889711
 30
0.0
 10
396.4450556441134
 20
137.8104702430426
 30
0.0
  0
SPLINE
  5
142
330
70
100
AcDbEntity
  8
Make2D__可见线__曲线
 62
    18
420
        0
370
    35
100
AcDbSpline
210
0.0
220
0.0
230
1.0
 70
     8
 71
     3
 72
     8
 73
     4
 74
     0
 42
0.0000000001
 43
0.0000000001
 40
0.0
 40
0.0
 40
0.0
 40
0.0
 40
1.0
 40
1.0
 40
1.0
 40
1.0
 10
396.4450556441134
 20
137.8104702430426
 30
0.0
 10
394.6679631338215
 20
137.2305691041252
 30
0.0
 10
392.8725462658022
 20
136.7347008784127
 30
0.0
 10
391.0541776769997
 20
136.3034306410433
 30
0.0
  0
SPLINE
  5
143
330
70
100
AcDbEntity
  8
Make2D__可见线__曲线
 62
    18
420
        0
370
    35
100
AcDbSpline
210
0.0
220
0.0
230
1.0
 70
     8
 71
     3
 72
     8
 73
     4
 74
     0
 42
0.0000000001
 43
0.0000000001
 40
0.0
 40
0.0
 40
0.0
 40
0.0
 40
1.0
 40
1.0
 40
1.0
 40
1.0
 10
352.1325014907455
 20
135.3768474615282
 30
0.0
 10
351.8250594889158
 20
135.4318205347034
 30
0.0
 10
351.5179876761255
 20
135.4884594585812
 30
0.0
 10
351.2111009578592
 20
135.5467642331608
 30
0.0
  0
SPLINE
  5
144
330
70
100
AcDbEntity
  8
Make2D__可见线__曲线
 62
    18
420
        0
370
    35
100
AcDbSpline
210
0.0
220
0.0
230
1.0
 70
     8
 71
     3
 72
     8
 73
     4
 74
     0
 42
0.0000000001
 43
0.0000000001
 40
0.0
 40
0.0
 40
0.0
 40
0.0
 40
1.0
 40
1.0
 40
1.0
 40
1.0
 10
408.2311344572976
 20
142.9324058689982
 30
0.0
 10
406.8018345547348
 20
141.2175051182581
 30
0.0
 10
404.9260866639652
 20
139.7963493746872
 30
0.0
 10
403.0396032908915
 20
138.6580180614602
 30
0.0
  0
SPLINE
  5
145
330
70
100
AcDbEntity
  8
Make2D__可见线__曲线
 62
    18
420
        0
370
    35
100
AcDbSpline
210
0.0
220
0.0
230
1.0
 70
     8
 71
     3
 72
     8
 73
     4
 74
     0
 42
0.0000000001
 43
0.0000000001
 40
0.0
 40
0.0
 40
0.0
 40
0.0
 40
1.0
 40
1.0
 40
1.0
 40
1.0
 10
403.0396032908915
 20
138.6580180614602
 30
0.0
 10
402.3169942751442
 20
138.2219353665066
 30
0.0
 10
401.5788373195103
 20
137.8182442129877
 30
0.0
 10
400.8249473294648
 20
137.4391706309559
 30
0.0
  0
SPLINE
  5
146
330
70
100
AcDbEntity
  8
Make2D__可见线__曲线
 62
    18
420
        0
370
    35
100
AcDbSpline
210
0.0
220
0.0
230
1.0
 70
     8
 71
     3
 72
    23
 73
    19
 74
     0
 42
0.0000000001
 43
0.0000000001
 40
0.0
 40
0.0
 40
0.0
 40
0.0
 40
1.0
 40
1.0
 40
1.0
 40
2.0
 40
2.0
 40
2.0
 40
3.0
 40
3.0
 40
3.0
 40
4.0
 40
4.0
 40
4.0
 40
5.0
 40
5.0
 40
5.0
 40
6.0
 40
6.0
 40
6.0
 40
6.0
 10
400.8249473294648
 20
137.4391706309559
 30
0.0
 10
397.2872357213796
 20
135.6598569863936
 30
0.0
 10
393.2886387523323
 20
134.3675270304662
 30
0.0
 10
389.4577374206447
 20
133.4585278305866
 30
0.0
 10
387.4970311440563
 20
132.9932002010819
 30
0.0
 10
385.5244788180329
 20
132.6135713354834
 30
0.0
 10
383.5336021342776
 20
132.3039081993806
 30
0.0
 10
381.5417999779168
 20
131.9940599687565
 30
0.0
 10
379.5450002694421
 20
131.7567687909426
 30
0.0
 10
377.5369097951017
 20
131.5840756014717
 30
0.0
 10
375.5301149824159
 20
131.4113824120021
 30
0.0
 10
373.5229499806854
 20
131.3043977780126
 30
0.0
 10
371.5093066706708
 20
131.2597899980944
 30
0.0
 10
369.4958484551744
 20
131.2149971236548
 30
0.0
 10
367.4857219410855
 20
131.2329512923344
 30
0.0
 10
365.4731891982068
 20
131.314022693181
 30
0.0
 10
361.4745922291537
 20
131.4750549277331
 30
0.0
 10
357.417875580047
 20
131.8900368471255
 30
0.0
 10
353.4759175348781
 20
132.5930258434881
 30
0.0
  0
SPLINE
  5
147
330
70
100
AcDbEntity
  8
Make2D__可见线__曲线
 62
    18
420
        0
370
    35
100
AcDbSpline
210
0.0
220
0.0
230
1.0
 70
     8
 71
     3
 72
     8
 73
     4
 74
     0
 42
0.0000000001
 43
0.0000000001
 40
0.0
 40
0.0
 40
0.0
 40
0.0
 40
1.0
 40
1.0
 40
1.0
 40
1.0
 10
353.4759175348781
 20
132.5930258434881
 30
0.0
 10
352.4119942196839
 20
132.7829328235493
 30
0.0
 10
351.3532535511243
 20
132.9941256736951
 30
0.0
 10
350.2983998675313
 20
133.2293808117612
 30
0.0
  0
SPLINE
  5
148
330
70
100
AcDbEntity
  8
Make2D__可见线__曲线
 62
    18
420
        0
370
    35
100
AcDbSpline
210
0.0
220
0.0
230
1.0
 70
     8
 71
     3
 72
    11
 73
     7
 74
     0
 42
0.0000000001
 43
0.0000000001
 40
0.0
 40
0.0
 40
0.0
 40
0.0
 40
1.0
 40
1.0
 40
1.0
 40
2.0
 40
2.0
 40
2.0
 40
2.0
 10
350.2983998675313
 20
133.2293808117612
 30
0.0
 10
346.7616137320618
 20
134.0184387610767
 30
0.0
 10
343.1272827832472
 20
135.1112368217741
 30
0.0
 10
339.8042808212308
 20
136.5886613001779
 30
0.0
 10
336.6230612634368
 20
138.0031536409396
 30
0.0
 10
333.1188517639215
 20
140.0438207512374
 30
0.0
 10
330.8096125015115
 20
142.812649712956
 30
0.0
  0
SPLINE
  5
149
330
70
100
AcDbEntity
  8
Make2D__可见线__曲线
 62
    18
420
        0
370
    35
100
AcDbSpline
210
0.0
220
0.0
230
1.0
 70
     8
 71
     3
 72
     8
 73
     4
 74
     0
 42
0.0000000001
 43
0.0000000001
 40
0.0
 40
0.0
 40
0.0
 40
0.0
 40
1.0
 40
1.0
 40
1.0
 40
1.0
 10
353.4759175348781
 20
132.5932109380107
 30
0.0
 10
352.4967675109782
 20
132.5789586597801
 30
0.0
 10
351.1940722617928
 20
132.7305510736878
 30
0.0
 10
350.2983998675313
 20
133.2293808117612
 30
0.0
  0
SPLINE
  5
14A
330
70
100
AcDbEntity
  8
Make2D__可见线__曲线
 62
    18
420
        0
370
    35
100
AcDbSpline
210
0.0
220
0.0
230
1.0
 70
     8
 71
     3
 72
    11
 73
     7
 74
     0
 42
0.0000000001
 43
0.0000000001
 40
0.0
 40
0.0
 40
0.0
 40
0.0
 40
1.0
 40
1.0
 40
1.0
 40
2.0
 40
2.0
 40
2.0
 40
2.0
 10
403.0394181963669
 20
138.6582031559828
 30
0.0
 10
402.8874555934139
 20
138.2565480422098
 30
0.0
 10
402.4197217351168
 20
137.9770553132708
 30
0.0
 10
402.07526082879
 20
137.8191696855984
 30
0.0
 10
401.6721249588372
 20
137.6344453521673
 30
0.0
 10
401.2578834175368
 20
137.5211675044131
 30
0.0
 10
400.8249473294648
 20
137.4391706309559
 30
0.0
  0
LINE
  5
14B
330
70
100
AcDbEntity
  8
Make2D__可见线__曲线
 62
    18
420
        0
370
    35
100
AcDbLine
 10
330.8096125015115
 20
142.812649712956
 30
0.0
 11
327.986735939229
 21
146.1974732454751
 31
0.0
  0
SPLINE
  5
14C
330
70
100
AcDbEntity
  8
Make2D__可见线__曲线
 62
    18
420
        0
370
    35
100
AcDbSpline
210
0.0
220
0.0
230
1.0
 70
     8
 71
     3
 72
    14
 73
    10
 74
     0
 42
0.0000000001
 43
0.0000000001
 40
0.0
 40
0.0
 40
0.0
 40
0.0
 40
1.0
 40
1.0
 40
1.0
 40
2.0
 40
2.0
 40
2.0
 40
3.0
 40
3.0
 40
3.0
 40
3.0
 10
368.5849983100697
 20
262.5945338935567
 30
0.0
 10
373.9532947454416
 20
262.7118838208058
 30
0.0
 10
379.2806852913482
 20
261.6337082273842
 30
0.0
 10
384.1808776793757
 20
259.4379319072504
 30
0.0
 10
386.6230148089239
 20
258.3438381848945
 30
0.0
 10
388.9363261508327
 20
256.9820977830389
 30
0.0
 10
391.0782399649252
 20
255.3780686512626
 30
0.0
 10
393.2205239680611
 20
253.7738544249624
 30
0.0
 10
395.1784538268137
 20
251.9369763839097
 30
0.0
 10
396.915751014769
 20
249.9011217311967
 30
0.0
  0
SPLINE
  5
14D
330
70
100
AcDbEntity
  8
Make2D__可见线__曲线
 62
    18
420
        0
370
    35
100
AcDbSpline
210
0.0
220
0.0
230
1.0
 70
     8
 71
     3
 72
     8
 73
     4
 74
     0
 42
0.0000000001
 43
0.0000000001
 40
0.0
 40
0.0
 40
0.0
 40
0.0
 40
1.0
 40
1.0
 40
1.0
 40
1.0
 10
361.6391412596349
 20
261.7666060945211
 30
0.0
 10
363.9363493780834
 20
262.2691377230435
 30
0.0
 10
366.2285599444309
 20
262.5425223327399
 30
0.0
 10
368.5796305689188
 20
262.5943487990347
 30
0.0
  0
SPLINE
  5
14E
330
70
100
AcDbEntity
  8
Make2D__可见线__曲线
 62
    18
420
        0
370
    35
100
AcDbSpline
210
0.0
220
0.0
230
1.0
 70
     8
 71
     3
 72
     8
 73
     4
 74
     0
 42
0.0000000001
 43
0.0000000001
 40
0.0
 40
0.0
 40
0.0
 40
0.0
 40
1.0
 40
1.0
 40
1.0
 40
1.0
 10
335.7355330281645
 20
219.8889703843255
 30
0.0
 10
335.5458111426266
 20
221.0295228318222
 30
0.0
 10
335.383668340936
 20
222.1728516971573
 30
0.0
 10
335.2485493395299
 20
223.3209930200753
 30
0.0
  0
SPLINE
  5
14F
330
70
100
AcDbEntity
  8
Make2D__可见线__曲线
 62
    18
420
        0
370
    35
100
AcDbSpline
210
0.0
220
0.0
230
1.0
 70
     8
 71
     3
 72
     8
 73
     4
 74
     0
 42
0.0000000001
 43
0.0000000001
 40
0.0
 40
0.0
 40
0.0
 40
0.0
 40
1.0
 40
1.0
 40
1.0
 40
1.0
 10
353.4072474670395
 20
253.4584533586635
 30
0.0
 10
354.6031431767581
 20
254.2325186516584
 30
0.0
 10
355.8305049552931
 20
254.9408753891738
 30
0.0
 10
357.0996980959136
 20
255.5875956507046
 30
0.0
  0
SPLINE
  5
150
330
70
100
AcDbEntity
  8
Make2D__可见线__曲线
 62
    18
420
        0
370
    35
100
AcDbSpline
210
0.0
220
0.0
230
1.0
 70
     8
 71
     3
 72
     8
 73
     4
 74
     0
 42
0.0000000001
 43
0.0000000001
 40
0.0
 40
0.0
 40
0.0
 40
0.0
 40
1.0
 40
1.0
 40
1.0
 40
1.0
 10
368.3221640881536
 20
204.7454620279507
 30
0.0
 10
368.4128604041712
 20
204.6366264487348
 30
0.0
 10
368.5055927599294
 20
204.5296418147441
 30
0.0
 10
368.6003611554367
 20
204.4245081259778
 30
0.0
  0
SPLINE
  5
151
330
70
100
AcDbEntity
  8
Make2D__可见线__曲线
 62
    18
420
        0
370
    35
100
AcDbSpline
210
0.0
220
0.0
230
1.0
 70
     8
 71
     3
 72
     8
 73
     4
 74
     0
 42
0.0000000001
 43
0.0000000001
 40
0.0
 40
0.0
 40
0.0
 40
0.0
 40
1.0
 40
1.0
 40
1.0
 40
1.0
 10
391.9133864503367
 20
222.2148681537585
 30
0.0
 10
391.8996894556734
 20
222.2378198745462
 30
0.0
 10
391.8859924610095
 20
222.2607715953326
 30
0.0
 10
391.872110371821
 20
222.283538221597
 30
0.0
  0
LINE
  5
152
330
70
100
AcDbEntity
  8
Make2D__可见线__曲线
 62
    18
420
        0
370
    35
100
AcDbLine
 10
348.072453140237
 20
197.1077216525015
 30
0.0
 11
348.071897856669
 21
197.1080918415449
 31
0.0
  0
SPLINE
  5
153
330
70
100
AcDbEntity
  8
Make2D__可见线__曲线
 62
    18
420
        0
370
    35
100
AcDbSpline
210
0.0
220
0.0
230
1.0
 70
     8
 71
     3
 72
     8
 73
     4
 74
     0
 42
0.0000000001
 43
0.0000000001
 40
0.0
 40
0.0
 40
0.0
 40
0.0
 40
1.0
 40
1.0
 40
1.0
 40
1.0
 10
342.0615085228285
 20
202.6227980441957
 30
0.0
 10
341.9569301176282
 20
202.7408883495354
 30
0.0
 10
341.8534622795637
 20
202.8597190329656
 30
0.0
 10
341.7509199141106
 20
202.9794751890065
 30
0.0
  0
SPLINE
  5
154
330
70
100
AcDbEntity
  8
Make2D__可见线__曲线
 62
    18
420
        0
370
    35
100
AcDbSpline
210
0.0
220
0.0
230
1.0
 70
     8
 71
     3
 72
     8
 73
     4
 74
     0
 42
0.0000000001
 43
0.0000000001
 40
0.0
 40
0.0
 40
0.0
 40
0.0
 40
1.0
 40
1.0
 40
1.0
 40
1.0
 10
401.6227047213368
 20
209.9266279010979
 30
0.0
 10
400.1275111687737
 20
206.9975070829164
 30
0.0
 10
398.2401023230887
 20
204.2856872341201
 30
0.0
 10
396.0126748396094
 20
201.8661316363144
 30
0.0
  0
SPLINE
  5
155
330
70
100
AcDbEntity
  8
Make2D__可见线__曲线
 62
    18
420
        0
370
    35
100
AcDbSpline
210
0.0
220
0.0
230
1.0
 70
     8
 71
     3
 72
    11
 73
     7
 74
     0
 42
0.0000000001
 43
0.0000000001
 40
0.0
 40
0.0
 40
0.0
 40
0.0
 40
1.0
 40
1.0
 40
1.0
 40
2.0
 40
2.0
 40
2.0
 40
2.0
 10
403.6983546963812
 20
237.9242104653427
 30
0.0
 10
405.233158476751
 20
233.3545968944545
 30
0.0
 10
405.8402685104737
 20
228.5247404249655
 30
0.0
 10
405.4839615547069
 20
223.7174654872188
 30
0.0
 10
405.12765459894
 20
218.9092650768595
 30
0.0
 10
403.8149642455422
 20
214.2206357280198
 30
0.0
 10
401.6227047213368
 20
209.9266279010979
 30
0.0
  0
LINE
  5
156
330
70
100
AcDbEntity
  8
Make2D__可见线__曲线
 62
    18
420
        0
370
    35
100
AcDbLine
 10
368.8657867006678
 20
204.0931889307458
 30
0.0
 11
368.3221640881536
 21
204.7454620279507
 31
0.0
  0
SPLINE
  5
157
330
70
100
AcDbEntity
  8
Make2D__可见线__曲线
 62
    18
420
        0
370
    35
100
AcDbSpline
210
0.0
220
0.0
230
1.0
 70
     8
 71
     3
 72
     8
 73
     4
 74
     0
 42
0.0000000001
 43
0.0000000001
 40
0.0
 40
0.0
 40
0.0
 40
0.0
 40
1.0
 40
1.0
 40
1.0
 40
1.0
 10
396.915751014769
 20
249.9011217311967
 30
0.0
 10
399.9216860597814
 20
246.3791431575238
 30
0.0
 10
402.2240768248613
 20
242.3133568768153
 30
0.0
 10
403.6983546963812
 20
237.9242104653427
 30
0.0
  0
LINE
  5
158
330
70
100
AcDbEntity
  8
Make2D__可见线__曲线
 62
    18
420
        0
370
    35
100
AcDbLine
 10
390.8742658011554
 20
223.671562045644
 30
0.0
 11
391.4221455876833
 21
223.0229908388887
 31
0.0
  0
SPLINE
  5
159
330
70
100
AcDbEntity
  8
Make2D__可见线__曲线
 62
    18
420
        0
370
    35
100
AcDbSpline
210
0.0
220
0.0
230
1.0
 70
     8
 71
     3
 72
    17
 73
    13
 74
     0
 42
0.0000000001
 43
0.0000000001
 40
0.0
 40
0.0
 40
0.0
 40
0.0
 40
1.0
 40
1.0
 40
1.0
 40
2.0
 40
2.0
 40
2.0
 40
3.0
 40
3.0
 40
3.0
 40
4.0
 40
4.0
 40
4.0
 40
4.0
 10
374.1659683517698
 20
209.2771312217306
 30
0.0
 10
374.2150184002217
 20
209.1549688368967
 30
0.0
 10
374.1948430972724
 20
209.0229964423711
 30
0.0
 10
374.1276537856176
 20
208.9139757686325
 30
0.0
 10
374.0608346630016
 20
208.8053252839392
 30
0.0
 10
373.9531096509177
 20
208.7268452064096
 30
0.0
 10
373.834649156534
 20
208.6853840333744
 30
0.0
 10
373.7161886621509
 20
208.6439228603405
 30
0.0
 10
373.5831057004921
 20
208.6389253082336
 30
0.0
 10
373.4624240718367
 20
208.6779802524764
 30
0.0
 10
373.3421126322253
 20
208.7170351967179
 30
0.0
 10
373.2367938489376
 20
208.800512826355
 30
0.0
 10
373.1882990840478
 20
208.921749738577
 30
0.0
  0
SPLINE
  5
15A
330
70
100
AcDbEntity
  8
Make2D__可见线__曲线
 62
    18
420
        0
370
    35
100
AcDbSpline
210
0.0
220
0.0
230
1.0
 70
     8
 71
     3
 72
    17
 73
    13
 74
     0
 42
0.0000000001
 43
0.0000000001
 40
0.0
 40
0.0
 40
0.0
 40
0.0
 40
1.0
 40
1.0
 40
1.0
 40
2.0
 40
2.0
 40
2.0
 40
3.0
 40
3.0
 40
3.0
 40
4.0
 40
4.0
 40
4.0
 40
4.0
 10
373.1882990840478
 20
208.921749738577
 30
0.0
 10
373.1392490355958
 20
209.0437270288883
 30
0.0
 10
373.1594243385458
 20
209.175699423414
 30
0.0
 10
373.2266136502
 20
209.2847200971525
 30
0.0
 10
373.293432772816
 20
209.3931854873225
 30
0.0
 10
373.4011577849006
 20
209.4718506593754
 30
0.0
 10
373.5196182792837
 20
209.5131267378874
 30
0.0
 10
373.6380787736673
 20
209.5547730054439
 30
0.0
 10
373.7711617353262
 20
209.5597705575514
 30
0.0
 10
373.8918433639809
 20
209.5207156133086
 30
0.0
 10
374.0121548035936
 20
209.4818457635884
 30
0.0
 10
374.11747358688
 20
209.39818303943
 30
0.0
 10
374.1659683517698
 20
209.2771312217306
 30
0.0
  0
SPLINE
  5
15B
330
70
100
AcDbEntity
  8
Make2D__可见线__曲线
 62
    18
420
        0
370
    35
100
AcDbSpline
210
0.0
220
0.0
230
1.0
 70
     8
 71
     3
 72
    17
 73
    13
 74
     0
 42
0.0000000001
 43
0.0000000001
 40
0.0
 40
0.0
 40
0.0
 40
0.0
 40
1.0
 40
1.0
 40
1.0
 40
2.0
 40
2.0
 40
2.0
 40
3.0
 40
3.0
 40
3.0
 40
4.0
 40
4.0
 40
4.0
 40
4.0
 10
376.0920619526511
 20
210.0230621473083
 30
0.0
 10
376.140556717541
 20
209.9021954241322
 30
0.0
 10
376.1224174543387
 20
209.7704081241293
 30
0.0
 10
376.0594853166982
 20
209.6604619777788
 30
0.0
 10
375.9965531790577
 20
209.5505158314283
 30
0.0
 10
375.8932704355121
 20
209.4677785798805
 30
0.0
 10
375.7768459808762
 20
209.421875138307
 30
0.0
 10
375.6604215262397
 20
209.3761567912549
 30
0.0
 10
375.5282640371926
 20
209.3667169706091
 30
0.0
 10
375.4073973140127
 20
209.4035507805815
 30
0.0
 10
375.286345496314
 20
209.4403845905539
 30
0.0
 10
375.1823223746823
 20
209.5236771256689
 30
0.0
 10
375.1338276097982
 20
209.644358754323
 30
0.0
  0
SPLINE
  5
15C
330
70
100
AcDbEntity
  8
Make2D__可见线__曲线
 62
    18
420
        0
370
    35
100
AcDbSpline
210
0.0
220
0.0
230
1.0
 70
     8
 71
     3
 72
    17
 73
    13
 74
     0
 42
0.0000000001
 43
0.0000000001
 40
0.0
 40
0.0
 40
0.0
 40
0.0
 40
1.0
 40
1.0
 40
1.0
 40
2.0
 40
2.0
 40
2.0
 40
3.0
 40
3.0
 40
3.0
 40
4.0
 40
4.0
 40
4.0
 40
4.0
 10
375.1338276097982
 20
209.644358754323
 30
0.0
 10
375.0853328449084
 20
209.7650403829778
 30
0.0
 10
375.1034721081106
 20
209.8968276829808
 30
0.0
 10
375.166589340275
 20
210.0069589238539
 30
0.0
 10
375.2295214779155
 20
210.1169050702044
 30
0.0
 10
375.3328042214554
 20
210.1996423217503
 30
0.0
 10
375.4492286760919
 20
210.245360668803
 30
0.0
 10
375.565468036209
 20
210.2912641103765
 30
0.0
 10
375.6976255252566
 20
210.3007039310235
 30
0.0
 10
375.8186773429547
 20
210.2638701210505
 30
0.0
 10
375.9395440661347
 20
210.2270363110781
 30
0.0
 10
376.0437522822865
 20
210.1437437759624
 30
0.0
 10
376.0920619526511
 20
210.0230621473083
 30
0.0
  0
SPLINE
  5
15D
330
70
100
AcDbEntity
  8
Make2D__可见线__曲线
 62
    18
420
        0
370
    35
100
AcDbSpline
210
0.0
220
0.0
230
1.0
 70
     8
 71
     3
 72
    11
 73
     7
 74
     0
 42
0.0000000001
 43
0.0000000001
 40
0.0
 40
0.0
 40
0.0
 40
0.0
 40
1.0
 40
1.0
 40
1.0
 40
2.0
 40
2.0
 40
2.0
 40
2.0
 10
381.9845460756759
 20
208.88528611765
 30
0.0
 10
381.9373469724465
 20
209.0111503929329
 30
0.0
 10
381.9671471905662
 20
209.1497861902666
 30
0.0
 10
382.0321153679538
 20
209.259917431141
 30
0.0
 10
382.0980090179534
 20
209.371899617238
 30
0.0
 10
382.202587423153
 20
209.4614853661164
 30
0.0
 10
382.3217882956292
 20
209.5120161707527
 30
0.0
  0
SPLINE
  5
15E
330
70
100
AcDbEntity
  8
Make2D__可见线__曲线
 62
    18
420
        0
370
    35
100
AcDbSpline
210
0.0
220
0.0
230
1.0
 70
     8
 71
     3
 72
    17
 73
    13
 74
     0
 42
0.0000000001
 43
0.0000000001
 40
0.0
 40
0.0
 40
0.0
 40
0.0
 40
1.0
 40
1.0
 40
1.0
 40
2.0
 40
2.0
 40
2.0
 40
3.0
 40
3.0
 40
3.0
 40
4.0
 40
4.0
 40
4.0
 40
4.0
 10
383.9770886101299
 20
206.3122871607101
 30
0.0
 10
384.0166988379418
 20
206.1984540293873
 30
0.0
 10
383.9848625800757
 20
206.0738854157609
 30
0.0
 10
383.9276683726293
 20
205.9761555078939
 30
0.0
 10
383.8688083144831
 20
205.8758342767112
 30
0.0
 10
383.7788523765581
 20
205.7921715525521
 30
0.0
 10
383.677605672766
 20
205.7366431958089
 30
0.0
 10
383.5772844415846
 20
205.681855217157
 30
0.0
 10
383.4566028129291
 20
205.6496487702461
 30
0.0
 10
383.3403634528127
 20
205.6651967101352
 30
0.0
 10
383.2217178639045
 20
205.6811148390657
 30
0.0
 10
383.1171394587093
 20
205.7479339616811
 30
0.0
 10
383.0760484747181
 20
205.8663944560648
 30
0.0
  0
SPLINE
  5
15F
330
70
100
AcDbEntity
  8
Make2D__可见线__曲线
 62
    18
420
        0
370
    35
100
AcDbSpline
210
0.0
220
0.0
230
1.0
 70
     8
 71
     3
 72
    17
 73
    13
 74
     0
 42
0.0000000001
 43
0.0000000001
 40
0.0
 40
0.0
 40
0.0
 40
0.0
 40
1.0
 40
1.0
 40
1.0
 40
2.0
 40
2.0
 40
2.0
 40
3.0
 40
3.0
 40
3.0
 40
4.0
 40
4.0
 40
4.0
 40
4.0
 10
383.0760484747181
 20
205.8663944560648
 30
0.0
 10
383.0366233414293
 20
205.9804126819108
 30
0.0
 10
383.0682745047722
 20
206.1049812955372
 30
0.0
 10
383.1254687122192
 20
206.2027112034042
 30
0.0
 10
383.1843287703641
 20
206.3032175291089
 30
0.0
 10
383.2742847082886
 20
206.386880253268
 30
0.0
 10
383.375531412082
 20
206.4422235154885
 30
0.0
 10
383.4758526432679
 20
206.4971965886631
 30
0.0
 10
383.5965342719175
 20
206.5292179410526
 30
0.0
 10
383.7129587265591
 20
206.5136700011635
 30
0.0
 10
383.8314192209422
 20
206.4977518722304
 30
0.0
 10
383.9361827206619
 20
206.4309327496164
 30
0.0
 10
383.9770886101299
 20
206.3122871607101
 30
0.0
  0
SPLINE
  5
160
330
70
100
AcDbEntity
  8
Make2D__可见线__曲线
 62
    18
420
        0
370
    35
100
AcDbSpline
210
0.0
220
0.0
230
1.0
 70
     8
 71
     3
 72
    17
 73
    13
 74
     0
 42
0.0000000001
 43
0.0000000001
 40
0.0
 40
0.0
 40
0.0
 40
0.0
 40
1.0
 40
1.0
 40
1.0
 40
2.0
 40
2.0
 40
2.0
 40
3.0
 40
3.0
 40
3.0
 40
4.0
 40
4.0
 40
4.0
 40
4.0
 10
383.4510499772557
 20
207.7984110816706
 30
0.0
 10
383.4926962448103
 20
207.68328228869
 30
0.0
 10
383.4658575390555
 20
207.5572329188838
 30
0.0
 10
383.4097738987444
 20
207.4556160260438
 30
0.0
 10
383.3525796912974
 20
207.351963093458
 30
0.0
 10
383.262438658853
 20
207.2658941405066
 30
0.0
 10
383.159155915308
 20
207.2096254056741
 30
0.0
 10
383.0567986443794
 20
207.1539119544083
 30
0.0
 10
382.9340809759775
 20
207.1237415472446
 30
0.0
 10
382.8159906706423
 20
207.142991377582
 30
0.0
 10
382.6958643255555
 20
207.1626113969648
 30
0.0
 10
382.5925815820099
 20
207.2338727881177
 30
0.0
 10
382.5498247473193
 20
207.3525183770253
 30
0.0
  0
SPLINE
  5
161
330
70
100
AcDbEntity
  8
Make2D__可见线__曲线
 62
    18
420
        0
370
    35
100
AcDbSpline
210
0.0
220
0.0
230
1.0
 70
     8
 71
     3
 72
    17
 73
    13
 74
     0
 42
0.0000000001
 43
0.0000000001
 40
0.0
 40
0.0
 40
0.0
 40
0.0
 40
1.0
 40
1.0
 40
1.0
 40
2.0
 40
2.0
 40
2.0
 40
3.0
 40
3.0
 40
3.0
 40
4.0
 40
4.0
 40
4.0
 40
4.0
 10
382.5498247473193
 20
207.3525183770253
 30
0.0
 10
382.5081784797596
 20
207.4674620754833
 30
0.0
 10
382.5348320910001
 20
207.5936965398109
 30
0.0
 10
382.59110082583
 20
207.6953134326508
 30
0.0
 10
382.648295033277
 20
207.7989663652366
 30
0.0
 10
382.7384360657214
 20
207.8850353181894
 30
0.0
 10
382.8417188092613
 20
207.9413040530212
 30
0.0
 10
382.944076080195
 20
207.9970175042857
 30
0.0
 10
383.0667937485923
 20
208.02718791145
 30
0.0
 10
383.1848840539321
 20
208.0079380811132
 30
0.0
 10
383.3050103990189
 20
207.9883180617299
 30
0.0
 10
383.4081080480406
 20
207.9170566705769
 30
0.0
 10
383.4510499772557
 20
207.7984110816706
 30
0.0
  0
SPLINE
  5
162
330
70
100
AcDbEntity
  8
Make2D__可见线__曲线
 62
    18
420
        0
370
    35
100
AcDbSpline
210
0.0
220
0.0
230
1.0
 70
     8
 71
     3
 72
    14
 73
    10
 74
     0
 42
0.0000000001
 43
0.0000000001
 40
0.0
 40
0.0
 40
0.0
 40
0.0
 40
1.0
 40
1.0
 40
1.0
 40
2.0
 40
2.0
 40
2.0
 40
3.0
 40
3.0
 40
3.0
 40
3.0
 10
388.5163466793329
 20
216.5024810011038
 30
0.0
 10
388.6090790350925
 20
216.2707426589641
 30
0.0
 10
388.4911738242761
 20
215.9919903081156
 30
0.0
 10
388.3055240182337
 20
215.849282431287
 30
0.0
 10
388.2102003391591
 20
215.775799905863
 30
0.0
 10
388.0874826707559
 20
215.7293411807209
 30
0.0
 10
387.9634693406981
 20
215.7469251603572
 30
0.0
 10
387.8359392147133
 20
215.7652495180826
 30
0.0
 10
387.7382093068425
 20
215.8485420531958
 30
0.0
 10
387.6911952981331
 20
215.9662621694915
 30
0.0
  0
SPLINE
  5
163
330
70
100
AcDbEntity
  8
Make2D__可见线__曲线
 62
    18
420
        0
370
    35
100
AcDbSpline
210
0.0
220
0.0
230
1.0
 70
     8
 71
     3
 72
    14
 73
    10
 74
     0
 42
0.0000000001
 43
0.0000000001
 40
0.0
 40
0.0
 40
0.0
 40
0.0
 40
1.0
 40
1.0
 40
1.0
 40
2.0
 40
2.0
 40
2.0
 40
3.0
 40
3.0
 40
3.0
 40
3.0
 10
387.6911952981331
 20
215.9662621694915
 30
0.0
 10
387.5984629423736
 20
216.1980005116312
 30
0.0
 10
387.7167383422378
 20
216.4763826734351
 30
0.0
 10
387.9022030537569
 20
216.6192756447864
 30
0.0
 10
387.9975267328309
 20
216.6925730756877
 30
0.0
 10
388.120244401234
 20
216.7392168953512
 30
0.0
 10
388.2442577312912
 20
216.7216329157149
 30
0.0
 10
388.371787857276
 20
216.7034936525127
 30
0.0
 10
388.4693326706223
 20
216.6200160228769
 30
0.0
 10
388.5163466793329
 20
216.5024810011038
 30
0.0
  0
SPLINE
  5
164
330
70
100
AcDbEntity
  8
Make2D__可见线__曲线
 62
    18
420
        0
370
    35
100
AcDbSpline
210
0.0
220
0.0
230
1.0
 70
     8
 71
     3
 72
    14
 73
    10
 74
     0
 42
0.0000000001
 43
0.0000000001
 40
0.0
 40
0.0
 40
0.0
 40
0.0
 40
1.0
 40
1.0
 40
1.0
 40
2.0
 40
2.0
 40
2.0
 40
3.0
 40
3.0
 40
3.0
 40
3.0
 10
386.8560488127203
 20
215.4417042927946
 30
0.0
 10
386.9498917356202
 20
215.2070044382945
 30
0.0
 10
386.8236572712913
 20
214.9308434107604
 30
0.0
 10
386.6302334953018
 20
214.7947989367405
 30
0.0
 10
386.5312079257757
 20
214.7252033962893
 30
0.0
 10
386.40663931215
 20
214.68485279039
 30
0.0
 10
386.2829961711355
 20
214.7059535659519
 30
0.0
 10
386.1565766122866
 20
214.7276096250818
 30
0.0
 10
386.0582914208535
 20
214.8107170656729
 30
0.0
 10
386.0110923176196
 20
214.9286222764899
 30
0.0
  0
SPLINE
  5
165
330
70
100
AcDbEntity
  8
Make2D__可见线__曲线
 62
    18
420
        0
370
    35
100
AcDbSpline
210
0.0
220
0.0
230
1.0
 70
     8
 71
     3
 72
    14
 73
    10
 74
     0
 42
0.0000000001
 43
0.0000000001
 40
0.0
 40
0.0
 40
0.0
 40
0.0
 40
1.0
 40
1.0
 40
1.0
 40
2.0
 40
2.0
 40
2.0
 40
3.0
 40
3.0
 40
3.0
 40
3.0
 10
386.0110923176196
 20
214.9286222764899
 30
0.0
 10
385.9170643001997
 20
215.1633221309895
 30
0.0
 10
386.0434838590537
 20
215.4394831585241
 30
0.0
 10
386.2367225405193
 20
215.5755276325434
 30
0.0
 10
386.3357481100442
 20
215.6451231729952
 30
0.0
 10
386.4605018181951
 20
215.6854737788952
 30
0.0
 10
386.5841449592037
 20
215.664373003332
 30
0.0
 10
386.7105645180572
 20
215.6427169442028
 30
0.0
 10
386.8088497094915
 20
215.559794598133
 30
0.0
 10
386.8560488127203
 20
215.4417042927946
 30
0.0
  0
SPLINE
  5
166
330
70
100
AcDbEntity
  8
Make2D__可见线__曲线
 62
    18
420
        0
370
    35
100
AcDbSpline
210
0.0
220
0.0
230
1.0
 70
     8
 71
     3
 72
    14
 73
    10
 74
     0
 42
0.0000000001
 43
0.0000000001
 40
0.0
 40
0.0
 40
0.0
 40
0.0
 40
1.0
 40
1.0
 40
1.0
 40
2.0
 40
2.0
 40
2.0
 40
3.0
 40
3.0
 40
3.0
 40
3.0
 10
381.6426764926649
 20
212.5325736830379
 30
0.0
 10
381.7405914950553
 20
212.2884340078926
 30
0.0
 10
381.5873332304406
 20
212.0213426119597
 30
0.0
 10
381.3729937734156
 20
211.9067691025476
 30
0.0
 10
381.2645283832443
 20
211.8486494224894
 30
0.0
 10
381.1351473120364
 20
211.8247722290904
 30
0.0
 10
381.0129849272017
 20
211.8545724472082
 30
0.0
 10
380.8895268807067
 20
211.8847428543725
 30
0.0
 10
380.7888354604819
 20
211.9672950113976
 30
0.0
 10
380.7408959791607
 20
212.0866809783939
 30
0.0
  0
SPLINE
  5
167
330
70
100
AcDbEntity
  8
Make2D__可见线__曲线
 62
    18
420
        0
370
    35
100
AcDbSpline
210
0.0
220
0.0
230
1.0
 70
     8
 71
     3
 72
    14
 73
    10
 74
     0
 42
0.0000000001
 43
0.0000000001
 40
0.0
 40
0.0
 40
0.0
 40
0.0
 40
1.0
 40
1.0
 40
1.0
 40
2.0
 40
2.0
 40
2.0
 40
3.0
 40
3.0
 40
3.0
 40
3.0
 10
380.7408959791607
 20
212.0866809783939
 30
0.0
 10
380.6431660712949
 20
212.3308206535391
 30
0.0
 10
380.7962392413793
 20
212.5979120494728
 30
0.0
 10
381.0105786984055
 20
212.7126706534074
 30
0.0
 10
381.1192291831007
 20
212.770605238943
 30
0.0
 10
381.2484251597886
 20
212.7946675268653
 30
0.0
 10
381.3705875446239
 20
212.7646822142236
 30
0.0
 10
381.4940455911137
 20
212.7345118070606
 30
0.0
 10
381.5949221058631
 20
212.652144744558
 30
0.0
 10
381.6426764926649
 20
212.5325736830379
 30
0.0
  0
SPLINE
  5
168
330
70
100
AcDbEntity
  8
Make2D__可见线__曲线
 62
    18
420
        0
370
    35
100
AcDbSpline
210
0.0
220
0.0
230
1.0
 70
     8
 71
     3
 72
    11
 73
     7
 74
     0
 42
0.0000000001
 43
0.0000000001
 40
0.0
 40
0.0
 40
0.0
 40
0.0
 40
1.0
 40
1.0
 40
1.0
 40
2.0
 40
2.0
 40
2.0
 40
2.0
 10
380.2500253055557
 20
215.9129549470174
 30
0.0
 10
380.3547888052742
 20
215.6652984759439
 30
0.0
 10
380.2230015052712
 20
215.3832144236917
 30
0.0
 10
379.9951501481056
 20
215.2629029840829
 30
0.0
 10
379.758414253857
 20
215.137779086888
 30
0.0
 10
379.4572654657894
 20
215.2084851944743
 30
0.0
 10
379.3480596975269
 20
215.4670622423734
 30
0.0
  0
SPLINE
  5
169
330
70
100
AcDbEntity
  8
Make2D__可见线__曲线
 62
    18
420
        0
370
    35
100
AcDbSpline
210
0.0
220
0.0
230
1.0
 70
     8
 71
     3
 72
    11
 73
     7
 74
     0
 42
0.0000000001
 43
0.0000000001
 40
0.0
 40
0.0
 40
0.0
 40
0.0
 40
1.0
 40
1.0
 40
1.0
 40
2.0
 40
2.0
 40
2.0
 40
2.0
 10
379.3480596975269
 20
215.4670622423734
 30
0.0
 10
379.2431111032826
 20
215.7145336189237
 30
0.0
 10
379.3748984032869
 20
215.9968027656998
 30
0.0
 10
379.6027497604577
 20
216.1172992998313
 30
0.0
 10
379.8394856546998
 20
216.2422381025029
 30
0.0
 10
380.1406344427732
 20
216.1715319949166
 30
0.0
 10
380.2500253055557
 20
215.9129549470174
 30
0.0
  0
SPLINE
  5
16A
330
70
100
AcDbEntity
  8
Make2D__可见线__曲线
 62
    18
420
        0
370
    35
100
AcDbSpline
210
0.0
220
0.0
230
1.0
 70
     8
 71
     3
 72
    11
 73
     7
 74
     0
 42
0.0000000001
 43
0.0000000001
 40
0.0
 40
0.0
 40
0.0
 40
0.0
 40
1.0
 40
1.0
 40
1.0
 40
2.0
 40
2.0
 40
2.0
 40
2.0
 10
378.7052264209671
 20
219.475284126591
 30
0.0
 10
378.8162831344541
 20
219.2250363322037
 30
0.0
 10
378.7078177442828
 20
218.9257384893593
 30
0.0
 10
378.4660842979294
 20
218.800059308599
 30
0.0
 10
378.2173172597213
 20
218.6706782373884
 30
0.0
 10
377.9172790387888
 20
218.7715547521378
 30
0.0
 10
377.8028906239007
 20
219.0292063274243
 30
0.0
  0
SPLINE
  5
16B
330
70
100
AcDbEntity
  8
Make2D__可见线__曲线
 62
    18
420
        0
370
    35
100
AcDbSpline
210
0.0
220
0.0
230
1.0
 70
     8
 71
     3
 72
    11
 73
     7
 74
     0
 42
0.0000000001
 43
0.0000000001
 40
0.0
 40
0.0
 40
0.0
 40
0.0
 40
1.0
 40
1.0
 40
1.0
 40
2.0
 40
2.0
 40
2.0
 40
2.0
 10
377.8028906239007
 20
219.0292063274243
 30
0.0
 10
377.6918339104144
 20
219.279454121811
 30
0.0
 10
377.8001142060604
 20
219.5787519646548
 30
0.0
 10
378.0418476524152
 20
219.704616239939
 30
0.0
 10
378.2907997851472
 20
219.8339973111496
 30
0.0
 10
378.590838006079
 20
219.7329357018782
 30
0.0
 10
378.7052264209671
 20
219.475284126591
 30
0.0
  0
SPLINE
  5
16C
330
70
100
AcDbEntity
  8
Make2D__可见线__曲线
 62
    18
420
        0
370
    35
100
AcDbSpline
210
0.0
220
0.0
230
1.0
 70
     8
 71
     3
 72
    11
 73
     7
 74
     0
 42
0.0000000001
 43
0.0000000001
 40
0.0
 40
0.0
 40
0.0
 40
0.0
 40
1.0
 40
1.0
 40
1.0
 40
2.0
 40
2.0
 40
2.0
 40
2.0
 10
379.4968756935963
 20
217.6709827214951
 30
0.0
 10
379.6049708947236
 20
217.4218454942424
 30
0.0
 10
379.484659455118
 20
217.1314321884771
 30
0.0
 10
379.2499596006178
 20
217.0083443310312
 30
0.0
 10
379.0071155871272
 20
216.8809992995672
 30
0.0
 10
378.7068922716715
 20
216.9666980634734
 30
0.0
 10
378.5949100855733
 20
217.2249049223285
 30
0.0
  0
SPLINE
  5
16D
330
70
100
AcDbEntity
  8
Make2D__可见线__曲线
 62
    18
420
        0
370
    35
100
AcDbSpline
210
0.0
220
0.0
230
1.0
 70
     8
 71
     3
 72
    11
 73
     7
 74
     0
 42
0.0000000001
 43
0.0000000001
 40
0.0
 40
0.0
 40
0.0
 40
0.0
 40
1.0
 40
1.0
 40
1.0
 40
2.0
 40
2.0
 40
2.0
 40
2.0
 10
378.5949100855733
 20
217.2249049223285
 30
0.0
 10
378.486814884446
 20
217.473857055058
 30
0.0
 10
378.607126324058
 20
217.7644554553452
 30
0.0
 10
378.8418261785581
 20
217.8875433127924
 30
0.0
 10
379.0846701920436
 20
218.0148883442552
 30
0.0
 10
379.3850786020239
 20
217.929004485827
 30
0.0
 10
379.4968756935963
 20
217.6709827214951
 30
0.0
  0
SPLINE
  5
16E
330
70
100
AcDbEntity
  8
Make2D__可见线__曲线
 62
    18
420
        0
370
    35
100
AcDbSpline
210
0.0
220
0.0
230
1.0
 70
     8
 71
     3
 72
     8
 73
     4
 74
     0
 42
0.0000000001
 43
0.0000000001
 40
0.0
 40
0.0
 40
0.0
 40
0.0
 40
1.0
 40
1.0
 40
1.0
 40
1.0
 10
341.7509199141106
 20
202.9794751890065
 30
0.0
 10
341.785532589817
 20
202.9376438269285
 30
0.0
 10
341.8205154545617
 20
202.8959975593707
 30
0.0
 10
341.8558685083549
 20
202.8545363863355
 30
0.0
  0
SPLINE
  5
16F
330
70
100
AcDbEntity
  8
Make2D__可见线__曲线
 62
    18
420
        0
370
    35
100
AcDbSpline
210
0.0
220
0.0
230
1.0
 70
     8
 71
     3
 72
    14
 73
    10
 74
     0
 42
0.0000000001
 43
0.0000000001
 40
0.0
 40
0.0
 40
0.0
 40
0.0
 40
1.0
 40
1.0
 40
1.0
 40
2.0
 40
2.0
 40
2.0
 40
3.0
 40
3.0
 40
3.0
 40
3.0
 10
352.049394050155
 20
194.6331929815186
 30
0.0
 10
351.5848067987414
 20
194.9015800391094
 30
0.0
 10
351.1248469103857
 20
195.1773708775982
 30
0.0
 10
350.6671081563022
 20
195.4568636065366
 30
0.0
 10
350.4381462320001
 20
195.5967950655287
 30
0.0
 10
350.209739591266
 20
195.7376519971335
 30
0.0
 10
349.9817031395758
 20
195.8786940232602
 30
0.0
 10
349.7536666878862
 20
196.019736049387
 30
0.0
 10
349.5263706142828
 20
196.1620737371709
 30
0.0
 10
349.2962981228455
 20
196.2999691564153
 30
0.0
  0
SPLINE
  5
170
330
70
100
AcDbEntity
  8
Make2D__可见线__曲线
 62
    18
420
        0
370
    35
100
AcDbSpline
210
0.0
220
0.0
230
1.0
 70
     8
 71
     3
 72
    11
 73
     7
 74
     0
 42
0.0000000001
 43
0.0000000001
 40
0.0
 40
0.0
 40
0.0
 40
0.0
 40
1.0
 40
1.0
 40
1.0
 40
2.0
 40
2.0
 40
2.0
 40
2.0
 10
378.6319289900702
 20
214.5687985247968
 30
0.0
 10
378.6963418838899
 20
214.4157253547092
 30
0.0
 10
378.6665416657715
 20
214.2435874488063
 30
0.0
 10
378.574179499056
 20
214.1110597707133
 30
0.0
 10
378.4820024268637
 20
213.9785320926211
 30
0.0
 10
378.3320758636585
 20
213.8909823834897
 30
0.0
 10
378.1704883455351
 20
213.878210861439
 30
0.0
  0
SPLINE
  5
171
330
70
100
AcDbEntity
  8
Make2D__可见线__曲线
 62
    18
420
        0
370
    35
100
AcDbSpline
210
0.0
220
0.0
230
1.0
 70
     8
 71
     3
 72
    11
 73
     7
 74
     0
 42
0.0000000001
 43
0.0000000001
 40
0.0
 40
0.0
 40
0.0
 40
0.0
 40
1.0
 40
1.0
 40
1.0
 40
2.0
 40
2.0
 40
2.0
 40
2.0
 10
377.8027055293761
 20
207.9187225212801
 30
0.0
 10
377.8613804930029
 20
207.7652791621472
 30
0.0
 10
377.8040011910365
 20
207.6014705097548
 30
0.0
 10
377.7016439201028
 20
207.4868970003421
 30
0.0
 10
377.5983611765623
 20
207.3710278292729
 30
0.0
 10
377.4471389517012
 20
207.2979154928941
 30
0.0
 10
377.2927701199564
 20
207.2868098215465
 30
0.0
  0
SPLINE
  5
172
330
70
100
AcDbEntity
  8
Make2D__可见线__曲线
 62
    18
420
        0
370
    35
100
AcDbSpline
210
0.0
220
0.0
230
1.0
 70
     8
 71
     3
 72
     8
 73
     4
 74
     0
 42
0.0000000001
 43
0.0000000001
 40
0.0
 40
0.0
 40
0.0
 40
0.0
 40
1.0
 40
1.0
 40
1.0
 40
1.0
 10
385.1474412757476
 20
217.5475246750034
 30
0.0
 10
385.274786307209
 20
217.2424889019634
 30
0.0
 10
385.0539685418968
 20
216.8586028623474
 30
0.0
 10
384.730238222088
 20
216.8045552617847
 30
0.0
  0
SPLINE
  5
173
330
70
100
AcDbEntity
  8
Make2D__可见线__曲线
 62
    18
420
        0
370
    35
100
AcDbSpline
210
0.0
220
0.0
230
1.0
 70
     8
 71
     3
 72
     8
 73
     4
 74
     0
 42
0.0000000001
 43
0.0000000001
 40
0.0
 40
0.0
 40
0.0
 40
0.0
 40
1.0
 40
1.0
 40
1.0
 40
1.0
 10
384.5031272430091
 20
210.6747799609467
 30
0.0
 10
384.56994636562
 20
210.4985699755494
 30
0.0
 10
384.4927619497482
 20
210.3025548762474
 30
0.0
 10
384.3746716444079
 20
210.175394939306
 30
0.0
  0
SPLINE
  5
174
330
70
100
AcDbEntity
  8
Make2D__可见线__曲线
 62
    18
420
        0
370
    35
100
AcDbSpline
210
0.0
220
0.0
230
1.0
 70
     8
 71
     3
 72
     8
 73
     4
 74
     0
 42
0.0000000001
 43
0.0000000001
 40
0.0
 40
0.0
 40
0.0
 40
0.0
 40
1.0
 40
1.0
 40
1.0
 40
1.0
 10
393.2434756888455
 20
219.9822580236523
 30
0.0
 10
392.8020252527405
 20
221.0880127009238
 30
0.0
 10
392.1910282340475
 20
222.1128810718739
 30
0.0
 10
391.4221455876833
 20
223.0229908388887
 30
0.0
  0
SPLINE
  5
175
330
70
100
AcDbEntity
  8
Make2D__可见线__曲线
 62
    18
420
        0
370
    35
100
AcDbSpline
210
0.0
220
0.0
230
1.0
 70
     8
 71
     3
 72
    17
 73
    13
 74
     0
 42
0.0000000001
 43
0.0000000001
 40
0.0
 40
0.0
 40
0.0
 40
0.0
 40
1.0
 40
1.0
 40
1.0
 40
2.0
 40
2.0
 40
2.0
 40
3.0
 40
3.0
 40
3.0
 40
4.0
 40
4.0
 40
4.0
 40
4.0
 10
378.1860362854224
 20
209.0043018956009
 30
0.0
 10
378.1399477493288
 20
209.1229474845085
 30
0.0
 10
378.1604932413228
 20
209.2526987447637
 30
0.0
 10
378.2199085830356
 20
209.3602386623218
 30
0.0
 10
378.2798792083229
 20
209.4683338634478
 30
0.0
 10
378.377424021664
 20
209.5534773437867
 30
0.0
 10
378.4888509241937
 20
209.6043783374683
 30
0.0
 10
378.5999076376801
 20
209.6549091421047
 30
0.0
 10
378.7289185198499
 20
209.6726782162622
 30
0.0
 10
378.8492299594555
 20
209.6419525255306
 30
0.0
 10
378.9702817771548
 20
209.611041740277
 30
0.0
 10
379.0735645206947
 20
209.5314510956129
 30
0.0
 10
379.1200232458368
 20
209.4118800340927
 30
0.0
  0
SPLINE
  5
176
330
70
100
AcDbEntity
  8
Make2D__可见线__曲线
 62
    18
420
        0
370
    35
100
AcDbSpline
210
0.0
220
0.0
230
1.0
 70
     8
 71
     3
 72
    17
 73
    13
 74
     0
 42
0.0000000001
 43
0.0000000001
 40
0.0
 40
0.0
 40
0.0
 40
0.0
 40
1.0
 40
1.0
 40
1.0
 40
2.0
 40
2.0
 40
2.0
 40
3.0
 40
3.0
 40
3.0
 40
4.0
 40
4.0
 40
4.0
 40
4.0
 10
379.1200232458368
 20
209.4118800340927
 30
0.0
 10
379.1661117819348
 20
209.2930493506637
 30
0.0
 10
379.1455662899421
 20
209.1634831849305
 30
0.0
 10
379.0861509482228
 20
209.0559432673718
 30
0.0
 10
379.0261803229407
 20
208.9478480662465
 30
0.0
 10
378.9286355095995
 20
208.8625194913842
 30
0.0
 10
378.8172086070698
 20
208.8118035922252
 30
0.0
 10
378.7061518935835
 20
208.7612727875902
 30
0.0
 10
378.577141011415
 20
208.7435037134326
 30
0.0
 10
378.4568295718082
 20
208.7742294041643
 30
0.0
 10
378.3357777541088
 20
208.8051401894166
 30
0.0
 10
378.2324950105644
 20
208.8847308340807
 30
0.0
 10
378.1860362854224
 20
209.0043018956009
 30
0.0
  0
SPLINE
  5
177
330
70
100
AcDbEntity
  8
Make2D__可见线__曲线
 62
    18
420
        0
370
    35
100
AcDbSpline
210
0.0
220
0.0
230
1.0
 70
     8
 71
     3
 72
    17
 73
    13
 74
     0
 42
0.0000000001
 43
0.0000000001
 40
0.0
 40
0.0
 40
0.0
 40
0.0
 40
1.0
 40
1.0
 40
1.0
 40
2.0
 40
2.0
 40
2.0
 40
3.0
 40
3.0
 40
3.0
 40
4.0
 40
4.0
 40
4.0
 40
4.0
 10
376.8522451564633
 20
207.5309494966917
 30
0.0
 10
376.8067119039325
 20
207.6501503691666
 30
0.0
 10
376.8313294754208
 20
207.7789761568099
 30
0.0
 10
376.8948168966298
 20
207.8839247510542
 30
0.0
 10
376.9586745068867
 20
207.9894286288645
 30
0.0
 10
377.0597361161594
 20
208.0703149351865
 30
0.0
 10
377.1720884913017
 20
208.1171438493732
 30
0.0
 10
377.2842557719232
 20
208.1639727635599
 30
0.0
 10
377.4130815595633
 20
208.1789654198804
 30
0.0
 10
377.5324675265634
 20
208.1478695401041
 30
0.0
 10
377.6522236826017
 20
208.1165885658059
 30
0.0
 10
377.756802087802
 20
208.0384786773209
 30
0.0
 10
377.8027055293761
 20
207.9187225212801
 30
0.0
  0
SPLINE
  5
178
330
70
100
AcDbEntity
  8
Make2D__可见线__曲线
 62
    18
420
        0
370
    35
100
AcDbSpline
210
0.0
220
0.0
230
1.0
 70
     8
 71
     3
 72
     8
 73
     4
 74
     0
 42
0.0000000001
 43
0.0000000001
 40
0.0
 40
0.0
 40
0.0
 40
0.0
 40
1.0
 40
1.0
 40
1.0
 40
1.0
 10
377.2927701199564
 20
207.2868098215465
 30
0.0
 10
377.1150793783787
 20
207.2742233940184
 30
0.0
 10
376.9216556023898
 20
207.349556864665
 30
0.0
 10
376.8522451564633
 20
207.5309494966917
 30
0.0
  0
SPLINE
  5
179
330
70
100
AcDbEntity
  8
Make2D__可见线__曲线
 62
    18
420
        0
370
    35
100
AcDbSpline
210
0.0
220
0.0
230
1.0
 70
     8
 71
     3
 72
    17
 73
    13
 74
     0
 42
0.0000000001
 43
0.0000000001
 40
0.0
 40
0.0
 40
0.0
 40
0.0
 40
1.0
 40
1.0
 40
1.0
 40
2.0
 40
2.0
 40
2.0
 40
3.0
 40
3.0
 40
3.0
 40
4.0
 40
4.0
 40
4.0
 40
4.0
 10
375.4797692723028
 20
206.1042409174473
 30
0.0
 10
375.4347913033406
 20
206.2241821680121
 30
0.0
 10
375.4642213324169
 20
206.3518973885195
 30
0.0
 10
375.5315957385957
 20
206.4538844704041
 30
0.0
 10
375.5995254283417
 20
206.5564268358559
 30
0.0
 10
375.7037336444987
 20
206.6328708736377
 30
0.0
 10
375.8168263977321
 20
206.6759978973761
 30
0.0
 10
375.9299191509663
 20
206.7191249211119
 30
0.0
 10
376.0585598440863
 20
206.7313411595954
 30
0.0
 10
376.1773905275133
 20
206.6998750907751
 30
0.0
 10
376.2956659273769
 20
206.6684090219535
 30
0.0
 10
376.4020952778004
 20
206.5915947951258
 30
0.0
 10
376.4470732467626
 20
206.471653544561
 30
0.0
  0
SPLINE
  5
17A
330
70
100
AcDbEntity
  8
Make2D__可见线__曲线
 62
    18
420
        0
370
    35
100
AcDbSpline
210
0.0
220
0.0
230
1.0
 70
     8
 71
     3
 72
    17
 73
    13
 74
     0
 42
0.0000000001
 43
0.0000000001
 40
0.0
 40
0.0
 40
0.0
 40
0.0
 40
1.0
 40
1.0
 40
1.0
 40
2.0
 40
2.0
 40
2.0
 40
3.0
 40
3.0
 40
3.0
 40
4.0
 40
4.0
 40
4.0
 40
4.0
 10
376.4470732467626
 20
206.471653544561
 30
0.0
 10
376.4922363102449
 20
206.3517122939975
 30
0.0
 10
376.4628062811743
 20
206.2239970734894
 30
0.0
 10
376.395431874991
 20
206.1218248970822
 30
0.0
 10
376.3275021852437
 20
206.0194676261523
 30
0.0
 10
376.2232939690868
 20
205.9430235883705
 30
0.0
 10
376.1102012158533
 20
205.8998965646334
 30
0.0
 10
375.997108462625
 20
205.8567695408963
 30
0.0
 10
375.8682826749798
 20
205.8445533024129
 30
0.0
 10
375.7496370860722
 20
205.8760193712338
 30
0.0
 10
375.6311765916891
 20
205.9074854400547
 30
0.0
 10
375.5249323357851
 20
205.9842996668824
 30
0.0
 10
375.4797692723028
 20
206.1042409174473
 30
0.0
  0
SPLINE
  5
17B
330
70
100
AcDbEntity
  8
Make2D__可见线__曲线
 62
    18
420
        0
370
    35
100
AcDbSpline
210
0.0
220
0.0
230
1.0
 70
     8
 71
     3
 72
    17
 73
    13
 74
     0
 42
0.0000000001
 43
0.0000000001
 40
0.0
 40
0.0
 40
0.0
 40
0.0
 40
1.0
 40
1.0
 40
1.0
 40
2.0
 40
2.0
 40
2.0
 40
3.0
 40
3.0
 40
3.0
 40
4.0
 40
4.0
 40
4.0
 40
4.0
 10
379.9957054316729
 20
208.4451313432015
 30
0.0
 10
379.951097651754
 20
208.5624812704499
 30
0.0
 10
379.9736791834945
 20
208.6907517745259
 30
0.0
 10
380.031613769034
 20
208.7962556523375
 30
0.0
 10
380.0902887326556
 20
208.9028700972842
 30
0.0
 10
380.1845018445995
 20
208.9887539557125
 30
0.0
 10
380.2927821402462
 20
209.0420611781865
 30
0.0
 10
380.4005071523295
 20
209.0949982116133
 30
0.0
 10
380.5271118057024
 20
209.117949932401
 30
0.0
 10
380.6468679617406
 20
209.091481415687
 30
0.0
 10
380.7677346849207
 20
209.0646427099276
 30
0.0
 10
380.8706472394172
 20
208.9880135776232
 30
0.0
 10
380.9158103028988
 20
208.8688127051477
 30
0.0
  0
SPLINE
  5
17C
330
70
100
AcDbEntity
  8
Make2D__可见线__曲线
 62
    18
420
        0
370
    35
100
AcDbSpline
210
0.0
220
0.0
230
1.0
 70
     8
 71
     3
 72
    17
 73
    13
 74
     0
 42
0.0000000001
 43
0.0000000001
 40
0.0
 40
0.0
 40
0.0
 40
0.0
 40
1.0
 40
1.0
 40
1.0
 40
2.0
 40
2.0
 40
2.0
 40
3.0
 40
3.0
 40
3.0
 40
4.0
 40
4.0
 40
4.0
 40
4.0
 10
380.9158103028988
 20
208.8688127051477
 30
0.0
 10
380.9604180828176
 20
208.7514627778992
 30
0.0
 10
380.9376514565526
 20
208.6231922738232
 30
0.0
 10
380.8797168710183
 20
208.5176883960116
 30
0.0
 10
380.821227001916
 20
208.4110739510661
 30
0.0
 10
380.7268287954534
 20
208.3251900926366
 30
0.0
 10
380.6185484998015
 20
208.2718828701639
 30
0.0
 10
380.5110085822479
 20
208.2189458367358
 30
0.0
 10
380.3842188343505
 20
208.1961792104707
 30
0.0
 10
380.2646477728303
 20
208.2224626326621
 30
0.0
 10
380.143781049651
 20
208.2493013384214
 30
0.0
 10
380.0408684951545
 20
208.3259304707266
 30
0.0
 10
379.9957054316729
 20
208.4451313432015
 30
0.0
  0
SPLINE
  5
17D
330
70
100
AcDbEntity
  8
Make2D__可见线__曲线
 62
    18
420
        0
370
    35
100
AcDbSpline
210
0.0
220
0.0
230
1.0
 70
     8
 71
     3
 72
    17
 73
    13
 74
     0
 42
0.0000000001
 43
0.0000000001
 40
0.0
 40
0.0
 40
0.0
 40
0.0
 40
1.0
 40
1.0
 40
1.0
 40
2.0
 40
2.0
 40
2.0
 40
3.0
 40
3.0
 40
3.0
 40
4.0
 40
4.0
 40
4.0
 40
4.0
 10
379.566656328572
 20
206.6922862153539
 30
0.0
 10
379.5235293048381
 20
206.8094510480803
 30
0.0
 10
379.5514785777282
 20
206.9362407959765
 30
0.0
 10
379.6123746756267
 20
207.0380427833384
 30
0.0
 10
379.6738260570873
 20
207.1413255268802
 30
0.0
 10
379.7698901142493
 20
207.2235074948601
 30
0.0
 10
379.8776151263332
 20
207.2744084885404
 30
0.0
 10
379.9847848548492
 20
207.3249392931761
 30
0.0
 10
380.1102789410855
 20
207.3471506358739
 30
0.0
 10
380.2287394354693
 20
207.3223479698623
 30
0.0
 10
380.3479403079454
 20
207.2973602093268
 30
0.0
 10
380.452518713145
 20
207.2238776839053
 30
0.0
 10
380.4962010204475
 20
207.1046768114292
 30
0.0
  0
SPLINE
  5
17E
330
70
100
AcDbEntity
  8
Make2D__可见线__曲线
 62
    18
420
        0
370
    35
100
AcDbSpline
210
0.0
220
0.0
230
1.0
 70
     8
 71
     3
 72
    17
 73
    13
 74
     0
 42
0.0000000001
 43
0.0000000001
 40
0.0
 40
0.0
 40
0.0
 40
0.0
 40
1.0
 40
1.0
 40
1.0
 40
2.0
 40
2.0
 40
2.0
 40
3.0
 40
3.0
 40
3.0
 40
4.0
 40
4.0
 40
4.0
 40
4.0
 10
380.4962010204475
 20
207.1046768114292
 30
0.0
 10
380.5393280441819
 20
206.9876970732241
 30
0.0
 10
380.5113787712913
 20
206.8609073253298
 30
0.0
 10
380.4506677679167
 20
206.7591053379672
 30
0.0
 10
380.3890312919321
 20
206.6558225944261
 30
0.0
 10
380.2929672347702
 20
206.5736406264462
 30
0.0
 10
380.1852422226863
 20
206.5227396327646
 30
0.0
 10
380.078072494176
 20
206.4723939226516
 30
0.0
 10
379.9525784079332
 20
206.4499974854324
 30
0.0
 10
379.8341179135502
 20
206.4748001514447
 30
0.0
 10
379.7149170410741
 20
206.4997879119782
 30
0.0
 10
379.6103386358788
 20
206.5732704374009
 30
0.0
 10
379.566656328572
 20
206.6922862153539
 30
0.0
  0
SPLINE
  5
17F
330
70
100
AcDbEntity
  8
Make2D__可见线__曲线
 62
    18
420
        0
370
    35
100
AcDbSpline
210
0.0
220
0.0
230
1.0
 70
     8
 71
     3
 72
    17
 73
    13
 74
     0
 42
0.0000000001
 43
0.0000000001
 40
0.0
 40
0.0
 40
0.0
 40
0.0
 40
1.0
 40
1.0
 40
1.0
 40
2.0
 40
2.0
 40
2.0
 40
3.0
 40
3.0
 40
3.0
 40
4.0
 40
4.0
 40
4.0
 40
4.0
 10
379.0989224702755
 20
204.9864550962137
 30
0.0
 10
379.0574612972396
 20
205.1032497398967
 30
0.0
 10
379.091148500329
 20
205.2283736370898
 30
0.0
 10
379.1546359215432
 20
205.3262886394801
 30
0.0
 10
379.2192339098868
 20
205.4260545870949
 30
0.0
 10
379.3169638177526
 20
205.5045346646245
 30
0.0
 10
379.4241335462686
 20
205.552844334991
 30
0.0
 10
379.5307479912115
 20
205.6009689108349
 30
0.0
 10
379.6551315103172
 20
205.6228100644874
 30
0.0
 10
379.772111248521
 20
205.5996732491777
 30
0.0
 10
379.8896462702934
 20
205.5763513393447
 30
0.0
 10
379.9960756207162
 20
205.5062005153263
 30
0.0
 10
380.0382771718388
 20
205.3869996428527
 30
0.0
  0
SPLINE
  5
180
330
70
100
AcDbEntity
  8
Make2D__可见线__曲线
 62
    18
420
        0
370
    35
100
AcDbSpline
210
0.0
220
0.0
230
1.0
 70
     8
 71
     3
 72
    17
 73
    13
 74
     0
 42
0.0000000001
 43
0.0000000001
 40
0.0
 40
0.0
 40
0.0
 40
0.0
 40
1.0
 40
1.0
 40
1.0
 40
2.0
 40
2.0
 40
2.0
 40
3.0
 40
3.0
 40
3.0
 40
4.0
 40
4.0
 40
4.0
 40
4.0
 10
380.0382771718388
 20
205.3869996428527
 30
0.0
 10
380.0797383448747
 20
205.2702049991703
 30
0.0
 10
380.0460511417859
 20
205.145081101976
 30
0.0
 10
379.9825637205769
 20
205.0471660995857
 30
0.0
 10
379.9179657322332
 20
204.9475852464941
 30
0.0
 10
379.8200507298422
 20
204.8689200744425
 30
0.0
 10
379.7130660958508
 20
204.8207954985986
 30
0.0
 10
379.6064516509034
 20
204.7726709227547
 30
0.0
 10
379.4820681318022
 20
204.7508297691023
 30
0.0
 10
379.3650883935978
 20
204.7739665844119
 30
0.0
 10
379.2475533718266
 20
204.7971033997217
 30
0.0
 10
379.1411240214032
 20
204.8674393182627
 30
0.0
 10
379.0989224702755
 20
204.9864550962137
 30
0.0
  0
SPLINE
  5
181
330
70
100
AcDbEntity
  8
Make2D__可见线__曲线
 62
    18
420
        0
370
    35
100
AcDbSpline
210
0.0
220
0.0
230
1.0
 70
     8
 71
     3
 72
    11
 73
     7
 74
     0
 42
0.0000000001
 43
0.0000000001
 40
0.0
 40
0.0
 40
0.0
 40
0.0
 40
1.0
 40
1.0
 40
1.0
 40
2.0
 40
2.0
 40
2.0
 40
2.0
 10
376.8668676237385
 20
212.295097410702
 30
0.0
 10
376.7624743130627
 20
212.5477514338811
 30
0.0
 10
376.9227661695256
 20
212.8153981133813
 30
0.0
 10
377.1552448897541
 20
212.919421235013
 30
0.0
 10
377.3905000278221
 20
213.0245549237806
 30
0.0
 10
377.6953507063407
 20
212.9590314628231
 30
0.0
 10
377.8010396786717
 20
212.7026755491931
 30
0.0
  0
SPLINE
  5
182
330
70
100
AcDbEntity
  8
Make2D__可见线__曲线
 62
    18
420
        0
370
    35
100
AcDbSpline
210
0.0
220
0.0
230
1.0
 70
     8
 71
     3
 72
    11
 73
     7
 74
     0
 42
0.0000000001
 43
0.0000000001
 40
0.0
 40
0.0
 40
0.0
 40
0.0
 40
1.0
 40
1.0
 40
1.0
 40
2.0
 40
2.0
 40
2.0
 40
2.0
 10
377.8010396786717
 20
212.7026755491931
 30
0.0
 10
377.9052478948286
 20
212.449836431492
 30
0.0
 10
377.7449560383657
 20
212.1821897519918
 30
0.0
 10
377.5126624126574
 20
212.07816663036
 30
0.0
 10
377.2772221800699
 20
211.9730329415938
 30
0.0
 10
376.9725565960702
 20
212.03855640255
 30
0.0
 10
376.8668676237385
 20
212.295097410702
 30
0.0
  0
SPLINE
  5
183
330
70
100
AcDbEntity
  8
Make2D__可见线__曲线
 62
    18
420
        0
370
    35
100
AcDbSpline
210
0.0
220
0.0
230
1.0
 70
     8
 71
     3
 72
     8
 73
     4
 74
     0
 42
0.0000000001
 43
0.0000000001
 40
0.0
 40
0.0
 40
0.0
 40
0.0
 40
1.0
 40
1.0
 40
1.0
 40
1.0
 10
379.8298607395359
 20
211.6517088505748
 30
0.0
 10
379.8768747482407
 20
211.5345440178484
 30
0.0
 10
379.8631777535812
 20
211.4049778521145
 30
0.0
 10
379.8096854365865
 20
211.2944764221968
 30
0.0
  0
SPLINE
  5
184
330
70
100
AcDbEntity
  8
Make2D__可见线__曲线
 62
    18
420
        0
370
    35
100
AcDbSpline
210
0.0
220
0.0
230
1.0
 70
     8
 71
     3
 72
     8
 73
     4
 74
     0
 42
0.0000000001
 43
0.0000000001
 40
0.0
 40
0.0
 40
0.0
 40
0.0
 40
1.0
 40
1.0
 40
1.0
 40
1.0
 10
377.0406713803408
 20
210.4134264952111
 30
0.0
 10
376.9775541481815
 20
210.5707568393149
 30
0.0
 10
377.0258638185461
 20
210.7430798397405
 30
0.0
 10
377.1298869401785
 20
210.866722980755
 30
0.0
  0
SPLINE
  5
185
330
70
100
AcDbEntity
  8
Make2D__可见线__曲线
 62
    18
420
        0
370
    35
100
AcDbSpline
210
0.0
220
0.0
230
1.0
 70
     8
 71
     3
 72
    11
 73
     7
 74
     0
 42
0.0000000001
 43
0.0000000001
 40
0.0
 40
0.0
 40
0.0
 40
0.0
 40
1.0
 40
1.0
 40
1.0
 40
2.0
 40
2.0
 40
2.0
 40
2.0
 10
374.8726592385815
 20
212.466680033037
 30
0.0
 10
374.7651193210214
 20
212.724146513801
 30
0.0
 10
374.9294832569792
 20
212.9919782878238
 30
0.0
 10
375.1712167033334
 20
213.0897081956915
 30
0.0
 10
375.4114693935076
 20
213.1868828199912
 30
0.0
 10
375.7166902610695
 20
213.1100685931629
 30
0.0
 10
375.8234898005428
 20
212.8546381521467
 30
0.0
  0
SPLINE
  5
186
330
70
100
AcDbEntity
  8
Make2D__可见线__曲线
 62
    18
420
        0
370
    35
100
AcDbSpline
210
0.0
220
0.0
230
1.0
 70
     8
 71
     3
 72
    11
 73
     7
 74
     0
 42
0.0000000001
 43
0.0000000001
 40
0.0
 40
0.0
 40
0.0
 40
0.0
 40
1.0
 40
1.0
 40
1.0
 40
2.0
 40
2.0
 40
2.0
 40
2.0
 10
375.8234898005428
 20
212.8546381521467
 30
0.0
 10
375.9312148126203
 20
212.5971716713828
 30
0.0
 10
375.7668508766631
 20
212.3291548028373
 30
0.0
 10
375.5251174303097
 20
212.2316099894929
 30
0.0
 10
375.2848647401341
 20
212.1344353651925
 30
0.0
 10
374.9796438725716
 20
212.2112495920202
 30
0.0
 10
374.8726592385815
 20
212.466680033037
 30
0.0
  0
SPLINE
  5
187
330
70
100
AcDbEntity
  8
Make2D__可见线__曲线
 62
    18
420
        0
370
    35
100
AcDbSpline
210
0.0
220
0.0
230
1.0
 70
     8
 71
     3
 72
    11
 73
     7
 74
     0
 42
0.0000000001
 43
0.0000000001
 40
0.0
 40
0.0
 40
0.0
 40
0.0
 40
1.0
 40
1.0
 40
1.0
 40
2.0
 40
2.0
 40
2.0
 40
2.0
 10
373.8074402617307
 20
213.0525041966745
 30
0.0
 10
373.8727786281674
 20
212.8981353649284
 30
0.0
 10
373.8400168976893
 20
212.7272931206833
 30
0.0
 10
373.7372894377116
 20
212.5993928056526
 30
0.0
 10
373.635302355827
 20
212.4726030577564
 30
0.0
 10
373.4772316336365
 20
212.4007863830355
 30
0.0
 10
373.3165695881251
 20
212.3972695871085
 30
0.0
  0
SPLINE
  5
188
330
70
100
AcDbEntity
  8
Make2D__可见线__曲线
 62
    18
420
        0
370
    35
100
AcDbSpline
210
0.0
220
0.0
230
1.0
 70
     8
 71
     3
 72
    11
 73
     7
 74
     0
 42
0.0000000001
 43
0.0000000001
 40
0.0
 40
0.0
 40
0.0
 40
0.0
 40
1.0
 40
1.0
 40
1.0
 40
2.0
 40
2.0
 40
2.0
 40
2.0
 10
372.839581003708
 20
212.6849064750361
 30
0.0
 10
372.7283391956971
 20
212.9471854133856
 30
0.0
 10
372.8971454001932
 20
213.2152022819304
 30
0.0
 10
373.1483186671969
 20
213.3060836924655
 30
0.0
 10
373.3933838149547
 20
213.3947439687314
 30
0.0
 10
373.6995301551279
 20
213.3073793541227
 30
0.0
 10
373.8074402617307
 20
213.0525041966745
 30
0.0
  0
SPLINE
  5
189
330
70
100
AcDbEntity
  8
Make2D__可见线__曲线
 62
    18
420
        0
370
    35
100
AcDbSpline
210
0.0
220
0.0
230
1.0
 70
     8
 71
     3
 72
     8
 73
     4
 74
     0
 42
0.0000000001
 43
0.0000000001
 40
0.0
 40
0.0
 40
0.0
 40
0.0
 40
1.0
 40
1.0
 40
1.0
 40
1.0
 10
373.3165695881251
 20
212.3972695871085
 30
0.0
 10
373.1190737326471
 20
212.3930124130916
 30
0.0
 10
372.9200971209829
 20
212.4948144004536
 30
0.0
 10
372.839581003708
 20
212.6849064750361
 30
0.0
  0
SPLINE
  5
18A
330
70
100
AcDbEntity
  8
Make2D__可见线__曲线
 62
    18
420
        0
370
    35
100
AcDbSpline
210
0.0
220
0.0
230
1.0
 70
     8
 71
     3
 72
    11
 73
     7
 74
     0
 42
0.0000000001
 43
0.0000000001
 40
0.0
 40
0.0
 40
0.0
 40
0.0
 40
1.0
 40
1.0
 40
1.0
 40
2.0
 40
2.0
 40
2.0
 40
2.0
 10
377.7112688352719
 20
214.1449320683273
 30
0.0
 10
377.6057649574654
 20
214.3959202408052
 30
0.0
 10
377.7503237795166
 20
214.6724514573833
 30
0.0
 10
377.983172688789
 20
214.7840634544362
 30
0.0
 10
378.2212042446967
 20
214.8980816802823
 30
0.0
 10
378.5238337889429
 20
214.8258948165167
 30
0.0
 10
378.6319289900702
 20
214.5687985247968
 30
0.0
  0
SPLINE
  5
18B
330
70
100
AcDbEntity
  8
Make2D__可见线__曲线
 62
    18
420
        0
370
    35
100
AcDbSpline
210
0.0
220
0.0
230
1.0
 70
     8
 71
     3
 72
     8
 73
     4
 74
     0
 42
0.0000000001
 43
0.0000000001
 40
0.0
 40
0.0
 40
0.0
 40
0.0
 40
1.0
 40
1.0
 40
1.0
 40
1.0
 10
378.1704883455351
 20
213.878210861439
 30
0.0
 10
377.9770645695457
 20
213.8630331105958
 30
0.0
 10
377.7888234401928
 20
213.9605779239408
 30
0.0
 10
377.7112688352719
 20
214.1449320683273
 30
0.0
  0
SPLINE
  5
18C
330
70
100
AcDbEntity
  8
Make2D__可见线__曲线
 62
    18
420
        0
370
    35
100
AcDbSpline
210
0.0
220
0.0
230
1.0
 70
     8
 71
     3
 72
    11
 73
     7
 74
     0
 42
0.0000000001
 43
0.0000000001
 40
0.0
 40
0.0
 40
0.0
 40
0.0
 40
1.0
 40
1.0
 40
1.0
 40
2.0
 40
2.0
 40
2.0
 40
2.0
 10
377.0699163148919
 20
215.6541928045963
 30
0.0
 10
377.1358099648966
 20
215.5009345399861
 30
0.0
 10
377.1108222043598
 20
215.3273158779045
 30
0.0
 10
377.0179047540815
 20
215.1923819710192
 30
0.0
 10
376.9251723983161
 20
215.0576331586559
 30
0.0
 10
376.7726545117997
 20
214.9721194892723
 30
0.0
 10
376.6095862374978
 20
214.9623094795806
 30
0.0
  0
SPLINE
  5
18D
330
70
100
AcDbEntity
  8
Make2D__可见线__曲线
 62
    18
420
        0
370
    35
100
AcDbSpline
210
0.0
220
0.0
230
1.0
 70
     8
 71
     3
 72
    11
 73
     7
 74
     0
 42
0.0000000001
 43
0.0000000001
 40
0.0
 40
0.0
 40
0.0
 40
0.0
 40
1.0
 40
1.0
 40
1.0
 40
2.0
 40
2.0
 40
2.0
 40
2.0
 10
376.1394461504045
 20
215.2416171139977
 30
0.0
 10
376.0302403821465
 20
215.4961220824019
 30
0.0
 10
376.1699867466159
 20
215.7782061346554
 30
0.0
 10
376.412645665582
 20
215.8874119029166
 30
0.0
 10
376.6573406242945
 20
215.9975431437891
 30
0.0
 10
376.959599979498
 20
215.9105487182263
 30
0.0
 10
377.0699163148919
 20
215.6541928045963
 30
0.0
  0
SPLINE
  5
18E
330
70
100
AcDbEntity
  8
Make2D__可见线__曲线
 62
    18
420
        0
370
    35
100
AcDbSpline
210
0.0
220
0.0
230
1.0
 70
     8
 71
     3
 72
     8
 73
     4
 74
     0
 42
0.0000000001
 43
0.0000000001
 40
0.0
 40
0.0
 40
0.0
 40
0.0
 40
1.0
 40
1.0
 40
1.0
 40
1.0
 10
376.6095862374978
 20
214.9623094795806
 30
0.0
 10
376.410979814877
 20
214.9504634301431
 30
0.0
 10
376.2197771731611
 20
215.0548567408194
 30
0.0
 10
376.1394461504045
 20
215.2416171139977
 30
0.0
  0
SPLINE
  5
18F
330
70
100
AcDbEntity
  8
Make2D__可见线__曲线
 62
    18
420
        0
370
    35
100
AcDbSpline
210
0.0
220
0.0
230
1.0
 70
     8
 71
     3
 72
     8
 73
     4
 74
     0
 42
0.0000000001
 43
0.0000000001
 40
0.0
 40
0.0
 40
0.0
 40
0.0
 40
1.0
 40
1.0
 40
1.0
 40
1.0
 10
375.4688486954798
 20
216.7858607150152
 30
0.0
 10
375.6132224230051
 20
216.4567626540537
 30
0.0
 10
375.3583472655607
 20
216.1067489120503
 30
0.0
 10
375.0096291852151
 20
216.092496633819
 30
0.0
  0
SPLINE
  5
190
330
70
100
AcDbEntity
  8
Make2D__可见线__曲线
 62
    18
420
        0
370
    35
100
AcDbSpline
210
0.0
220
0.0
230
1.0
 70
     8
 71
     3
 72
    11
 73
     7
 74
     0
 42
0.0000000001
 43
0.0000000001
 40
0.0
 40
0.0
 40
0.0
 40
0.0
 40
1.0
 40
1.0
 40
1.0
 40
2.0
 40
2.0
 40
2.0
 40
2.0
 10
374.5285685212987
 20
216.3849459793315
 30
0.0
 10
374.4154757680646
 20
216.6429677436633
 30
0.0
 10
374.5504096749525
 20
216.9307897261129
 30
0.0
 10
374.8034338871736
 20
217.0374041710597
 30
0.0
 10
375.0544220596534
 20
217.1430931433933
 30
0.0
 10
375.356681414857
 20
217.041476250554
 30
0.0
 10
375.4688486954798
 20
216.7858607150152
 30
0.0
  0
SPLINE
  5
191
330
70
100
AcDbEntity
  8
Make2D__可见线__曲线
 62
    18
420
        0
370
    35
100
AcDbSpline
210
0.0
220
0.0
230
1.0
 70
     8
 71
     3
 72
     8
 73
     4
 74
     0
 42
0.0000000001
 43
0.0000000001
 40
0.0
 40
0.0
 40
0.0
 40
0.0
 40
1.0
 40
1.0
 40
1.0
 40
1.0
 10
375.0096291852151
 20
216.092496633819
 30
0.0
 10
374.8062103050139
 20
216.0841673803085
 30
0.0
 10
374.6118610564132
 20
216.1954091883162
 30
0.0
 10
374.5285685212987
 20
216.3849459793315
 30
0.0
  0
SPLINE
  5
192
330
70
100
AcDbEntity
  8
Make2D__可见线__曲线
 62
    18
420
        0
370
    35
100
AcDbSpline
210
0.0
220
0.0
230
1.0
 70
     8
 71
     3
 72
    14
 73
    10
 74
     0
 42
0.0000000001
 43
0.0000000001
 40
0.0
 40
0.0
 40
0.0
 40
0.0
 40
1.0
 40
1.0
 40
1.0
 40
2.0
 40
2.0
 40
2.0
 40
3.0
 40
3.0
 40
3.0
 40
3.0
 10
384.464997771377
 20
212.0555850986176
 30
0.0
 10
384.3731908882287
 20
212.2919508038196
 30
0.0
 10
384.5205261281201
 20
212.5579316326167
 30
0.0
 10
384.7169114164674
 20
212.6815747736312
 30
0.0
 10
384.8181581202608
 20
212.7454323838855
 30
0.0
 10
384.9427267338859
 20
212.7806003431567
 30
0.0
 10
385.0643338351583
 20
212.7591293785495
 30
0.0
 10
385.1883471652155
 20
212.7372882248976
 30
0.0
 10
385.2881131128283
 20
212.6582528638001
 30
0.0
 10
385.3342016489277
 20
212.5397923694151
 30
0.0
  0
SPLINE
  5
193
330
70
100
AcDbEntity
  8
Make2D__可见线__曲线
 62
    18
420
        0
370
    35
100
AcDbSpline
210
0.0
220
0.0
230
1.0
 70
     8
 71
     3
 72
    14
 73
    10
 74
     0
 42
0.0000000001
 43
0.0000000001
 40
0.0
 40
0.0
 40
0.0
 40
0.0
 40
1.0
 40
1.0
 40
1.0
 40
2.0
 40
2.0
 40
2.0
 40
3.0
 40
3.0
 40
3.0
 40
3.0
 10
385.3342016489277
 20
212.5397923694151
 30
0.0
 10
385.4258234375507
 20
212.3036117587358
 30
0.0
 10
385.2784881976599
 20
212.0374458354154
 30
0.0
 10
385.082102909312
 20
211.913802694401
 30
0.0
 10
384.9808562055187
 20
211.8499450841466
 30
0.0
 10
384.856287591893
 20
211.8147771248761
 30
0.0
 10
384.7348655851464
 20
211.8362480894839
 30
0.0
 10
384.6106671605685
 20
211.8580892431364
 30
0.0
 10
384.5109012129504
 20
211.9371246042333
 30
0.0
 10
384.464997771377
 20
212.0555850986176
 30
0.0
  0
SPLINE
  5
194
330
70
100
AcDbEntity
  8
Make2D__可见线__曲线
 62
    18
420
        0
370
    35
100
AcDbSpline
210
0.0
220
0.0
230
1.0
 70
     8
 71
     3
 72
    14
 73
    10
 74
     0
 42
0.0000000001
 43
0.0000000001
 40
0.0
 40
0.0
 40
0.0
 40
0.0
 40
1.0
 40
1.0
 40
1.0
 40
2.0
 40
2.0
 40
2.0
 40
3.0
 40
3.0
 40
3.0
 40
3.0
 10
386.2700395545647
 20
212.1070413758659
 30
0.0
 10
386.1813792783
 20
212.3395200960962
 30
0.0
 10
386.3259381003506
 20
212.6049456413261
 30
0.0
 10
386.513253757098
 20
212.7326608618348
 30
0.0
 10
386.6106134759198
 20
212.7991097954036
 30
0.0
 10
386.732775860755
 20
212.8400156848708
 30
0.0
 10
386.8536425839292
 20
212.8231720833265
 30
0.0
 10
386.9782111975555
 20
212.8059582927356
 30
0.0
 10
387.0774218616056
 20
212.7289589713851
 30
0.0
 10
387.1223998305684
 20
212.6108686660461
 30
0.0
  0
SPLINE
  5
195
330
70
100
AcDbEntity
  8
Make2D__可见线__曲线
 62
    18
420
        0
370
    35
100
AcDbSpline
210
0.0
220
0.0
230
1.0
 70
     8
 71
     3
 72
    14
 73
    10
 74
     0
 42
0.0000000001
 43
0.0000000001
 40
0.0
 40
0.0
 40
0.0
 40
0.0
 40
1.0
 40
1.0
 40
1.0
 40
2.0
 40
2.0
 40
2.0
 40
3.0
 40
3.0
 40
3.0
 40
3.0
 10
387.1223998305684
 20
212.6108686660461
 30
0.0
 10
387.2110601068325
 20
212.3783899458158
 30
0.0
 10
387.0665012847755
 20
212.1129644005847
 30
0.0
 10
386.8791856280338
 20
211.9852491800772
 30
0.0
 10
386.7818259092121
 20
211.9188002465078
 30
0.0
 10
386.6598486188963
 20
211.8778943570405
 30
0.0
 10
386.5387968011969
 20
211.8945528640635
 30
0.0
 10
386.4144132820958
 20
211.9119517491764
 30
0.0
 10
386.3150175235269
 20
211.9889510705269
 30
0.0
 10
386.2700395545647
 20
212.1070413758659
 30
0.0
  0
SPLINE
  5
196
330
70
100
AcDbEntity
  8
Make2D__可见线__曲线
 62
    18
420
        0
370
    35
100
AcDbSpline
210
0.0
220
0.0
230
1.0
 70
     8
 71
     3
 72
    11
 73
     7
 74
     0
 42
0.0000000001
 43
0.0000000001
 40
0.0
 40
0.0
 40
0.0
 40
0.0
 40
1.0
 40
1.0
 40
1.0
 40
2.0
 40
2.0
 40
2.0
 40
2.0
 10
388.8713579734399
 20
212.7284036878179
 30
0.0
 10
388.9272565192316
 20
212.5790324081799
 30
0.0
 10
388.8815381721763
 20
212.4072646913229
 30
0.0
 10
388.8017624329894
 20
212.281215321516
 30
0.0
 10
388.7205059376215
 20
212.1527597229186
 30
0.0
 10
388.5877931650066
 20
212.0433688601341
 30
0.0
 10
388.4352752784902
 20
212.0085710899083
 30
0.0
  0
SPLINE
  5
197
330
70
100
AcDbEntity
  8
Make2D__可见线__曲线
 62
    18
420
        0
370
    35
100
AcDbSpline
210
0.0
220
0.0
230
1.0
 70
     8
 71
     3
 72
    14
 73
    10
 74
     0
 42
0.0000000001
 43
0.0000000001
 40
0.0
 40
0.0
 40
0.0
 40
0.0
 40
1.0
 40
1.0
 40
1.0
 40
2.0
 40
2.0
 40
2.0
 40
3.0
 40
3.0
 40
3.0
 40
3.0
 10
388.0360263935076
 20
212.2042160001663
 30
0.0
 10
387.9505127241222
 20
212.4329928299463
 30
0.0
 10
388.0924802228628
 20
212.6980481861328
 30
0.0
 10
388.2707262480078
 20
212.8290951080452
 30
0.0
 10
388.3640138873359
 20
212.8979502704064
 30
0.0
 10
388.4833998543302
 20
212.9447791845918
 30
0.0
 10
388.6033411048989
 20
212.9331182296769
 30
0.0
 10
388.728279907568
 20
212.9210870857161
 30
0.0
 10
388.8273054770935
 20
212.8461238041129
 30
0.0
 10
388.8713579734399
 20
212.7284036878179
 30
0.0
  0
SPLINE
  5
198
330
70
100
AcDbEntity
  8
Make2D__可见线__曲线
 62
    18
420
        0
370
    35
100
AcDbSpline
210
0.0
220
0.0
230
1.0
 70
     8
 71
     3
 72
     8
 73
     4
 74
     0
 42
0.0000000001
 43
0.0000000001
 40
0.0
 40
0.0
 40
0.0
 40
0.0
 40
1.0
 40
1.0
 40
1.0
 40
1.0
 10
388.4352752784902
 20
212.0085710899083
 30
0.0
 10
388.2670243575575
 20
211.9700714292341
 30
0.0
 10
388.0998840037601
 20
212.0339290394884
 30
0.0
 10
388.0360263935076
 20
212.2042160001663
 30
0.0
  0
SPLINE
  5
199
330
70
100
AcDbEntity
  8
Make2D__可见线__曲线
 62
    18
420
        0
370
    35
100
AcDbSpline
210
0.0
220
0.0
230
1.0
 70
     8
 71
     3
 72
     8
 73
     4
 74
     0
 42
0.0000000001
 43
0.0000000001
 40
0.0
 40
0.0
 40
0.0
 40
0.0
 40
1.0
 40
1.0
 40
1.0
 40
1.0
 10
381.3815081214481
 20
210.4634020162795
 30
0.0
 10
381.315984660492
 20
210.6320231262555
 30
0.0
 10
381.3802124597929
 20
210.8185984049111
 30
0.0
 10
381.4920095513659
 20
210.9452030582839
 30
0.0
  0
SPLINE
  5
19A
330
70
100
AcDbEntity
  8
Make2D__可见线__曲线
 62
    18
420
        0
370
    35
100
AcDbSpline
210
0.0
220
0.0
230
1.0
 70
     8
 71
     3
 72
     8
 73
     4
 74
     0
 42
0.0000000001
 43
0.0000000001
 40
0.0
 40
0.0
 40
0.0
 40
0.0
 40
1.0
 40
1.0
 40
1.0
 40
1.0
 10
382.283103540433
 20
210.9094798154461
 30
0.0
 10
382.3034639379024
 20
210.8570980655853
 30
0.0
 10
382.3110528133243
 20
210.8060119773817
 30
0.0
 10
382.3088316790571
 20
210.7501134315945
 30
0.0
  0
SPLINE
  5
19B
330
70
100
AcDbEntity
  8
Make2D__可见线__曲线
 62
    18
420
        0
370
    35
100
AcDbSpline
210
0.0
220
0.0
230
1.0
 70
     8
 71
     3
 72
     8
 73
     4
 74
     0
 42
0.0000000001
 43
0.0000000001
 40
0.0
 40
0.0
 40
0.0
 40
0.0
 40
1.0
 40
1.0
 40
1.0
 40
1.0
 10
384.0374294244598
 20
209.9901153223076
 30
0.0
 10
383.8641809514209
 20
209.9627213329823
 30
0.0
 10
383.6866753043671
 20
210.0317615898655
 30
0.0
 10
383.620411465319
 20
210.2066759136049
 30
0.0
  0
SPLINE
  5
19C
330
70
100
AcDbEntity
  8
Make2D__可见线__曲线
 62
    18
420
        0
370
    35
100
AcDbSpline
210
0.0
220
0.0
230
1.0
 70
     8
 71
     3
 72
     8
 73
     4
 74
     0
 42
0.0000000001
 43
0.0000000001
 40
0.0
 40
0.0
 40
0.0
 40
0.0
 40
1.0
 40
1.0
 40
1.0
 40
1.0
 10
385.8761584107369
 20
209.8135351478663
 30
0.0
 10
385.8942976739391
 20
209.7639298158432
 30
0.0
 10
385.9002206986578
 20
209.715620145476
 30
0.0
 10
385.8974442808176
 20
209.6632383956158
 30
0.0
  0
SPLINE
  5
19D
330
70
100
AcDbEntity
  8
Make2D__可见线__曲线
 62
    18
420
        0
370
    35
100
AcDbSpline
210
0.0
220
0.0
230
1.0
 70
     8
 71
     3
 72
     8
 73
     4
 74
     0
 42
0.0000000001
 43
0.0000000001
 40
0.0
 40
0.0
 40
0.0
 40
0.0
 40
1.0
 40
1.0
 40
1.0
 40
1.0
 10
385.0030675482165
 20
209.334140334653
 30
0.0
 10
384.9255129433001
 20
209.5457033738441
 30
0.0
 10
385.0578555268665
 20
209.7792926612077
 30
0.0
 10
385.2174070052427
 20
209.9021954241322
 30
0.0
  0
SPLINE
  5
19E
330
70
100
AcDbEntity
  8
Make2D__可见线__曲线
 62
    18
420
        0
370
    35
100
AcDbSpline
210
0.0
220
0.0
230
1.0
 70
     8
 71
     3
 72
     8
 73
     4
 74
     0
 42
0.0000000001
 43
0.0000000001
 40
0.0
 40
0.0
 40
0.0
 40
0.0
 40
1.0
 40
1.0
 40
1.0
 40
1.0
 10
387.2097644451727
 20
208.9991192489714
 30
0.0
 10
387.269920164978
 20
208.8290173828162
 30
0.0
 10
387.1855170627329
 20
208.6383700246663
 30
0.0
 10
387.0768665780376
 20
208.5171331124443
 30
0.0
  0
SPLINE
  5
19F
330
70
100
AcDbEntity
  8
Make2D__可见线__曲线
 62
    18
420
        0
370
    35
100
AcDbSpline
210
0.0
220
0.0
230
1.0
 70
     8
 71
     3
 72
     8
 73
     4
 74
     0
 42
0.0000000001
 43
0.0000000001
 40
0.0
 40
0.0
 40
0.0
 40
0.0
 40
1.0
 40
1.0
 40
1.0
 40
1.0
 10
386.3468537813931
 20
208.5080634808432
 30
0.0
 10
386.3155728070942
 20
208.5963535680638
 30
0.0
 10
386.3244573441714
 20
208.6933430978409
 30
0.0
 10
386.3537022787231
 20
208.7792269562704
 30
0.0
  0
SPLINE
  5
1A0
330
70
100
AcDbEntity
  8
Make2D__可见线__曲线
 62
    18
420
        0
370
    35
100
AcDbSpline
210
0.0
220
0.0
230
1.0
 70
     8
 71
     3
 72
     8
 73
     4
 74
     0
 42
0.0000000001
 43
0.0000000001
 40
0.0
 40
0.0
 40
0.0
 40
0.0
 40
1.0
 40
1.0
 40
1.0
 40
1.0
 10
386.7416603978315
 20
208.3176012172147
 30
0.0
 10
386.5798877851895
 20
208.2844692976919
 30
0.0
 10
386.4071945957185
 20
208.3375914256421
 30
0.0
 10
386.3468537813931
 20
208.5080634808432
 30
0.0
  0
SPLINE
  5
1A1
330
70
100
AcDbEntity
  8
Make2D__可见线__曲线
 62
    18
420
        0
370
    35
100
AcDbSpline
210
0.0
220
0.0
230
1.0
 70
     8
 71
     3
 72
     8
 73
     4
 74
     0
 42
0.0000000001
 43
0.0000000001
 40
0.0
 40
0.0
 40
0.0
 40
0.0
 40
1.0
 40
1.0
 40
1.0
 40
1.0
 10
384.0170690269858
 20
215.8309580735608
 30
0.0
 10
384.1438587748833
 20
215.5229607881612
 30
0.0
 10
383.9045315573203
 20
215.1546226884336
 30
0.0
 10
383.5841329389146
 20
215.106683207113
 30
0.0
  0
SPLINE
  5
1A2
330
70
100
AcDbEntity
  8
Make2D__可见线__曲线
 62
    18
420
        0
370
    35
100
AcDbSpline
210
0.0
220
0.0
230
1.0
 70
     8
 71
     3
 72
    11
 73
     7
 74
     0
 42
0.0000000001
 43
0.0000000001
 40
0.0
 40
0.0
 40
0.0
 40
0.0
 40
1.0
 40
1.0
 40
1.0
 40
2.0
 40
2.0
 40
2.0
 40
2.0
 10
383.1474949603911
 20
215.3465657082413
 30
0.0
 10
383.0486544853902
 20
215.5868183984156
 30
0.0
 10
383.1754442332869
 20
215.866496221876
 30
0.0
 10
383.384230854639
 20
215.9971729547444
 30
0.0
 10
383.6089356049274
 20
216.1378447918265
 30
0.0
 10
383.9089738258585
 20
216.0932370119096
 30
0.0
 10
384.0170690269858
 20
215.8309580735608
 30
0.0
  0
SPLINE
  5
1A3
330
70
100
AcDbEntity
  8
Make2D__可见线__曲线
 62
    18
420
        0
370
    35
100
AcDbSpline
210
0.0
220
0.0
230
1.0
 70
     8
 71
     3
 72
     8
 73
     4
 74
     0
 42
0.0000000001
 43
0.0000000001
 40
0.0
 40
0.0
 40
0.0
 40
0.0
 40
1.0
 40
1.0
 40
1.0
 40
1.0
 10
383.5841329389146
 20
215.106683207113
 30
0.0
 10
383.3973725657358
 20
215.0787339342191
 30
0.0
 10
383.2207923912932
 20
215.1686898721422
 30
0.0
 10
383.1474949603911
 20
215.3465657082413
 30
0.0
  0
SPLINE
  5
1A4
330
70
100
AcDbEntity
  8
Make2D__可见线__曲线
 62
    18
420
        0
370
    35
100
AcDbSpline
210
0.0
220
0.0
230
1.0
 70
     8
 71
     3
 72
    14
 73
    10
 74
     0
 42
0.0000000001
 43
0.0000000001
 40
0.0
 40
0.0
 40
0.0
 40
0.0
 40
1.0
 40
1.0
 40
1.0
 40
2.0
 40
2.0
 40
2.0
 40
3.0
 40
3.0
 40
3.0
 40
3.0
 10
382.5352022800428
 20
212.9895720590321
 30
0.0
 10
382.438768033833
 20
213.2303800327736
 30
0.0
 10
382.5825864777975
 20
213.5008031301103
 30
0.0
 10
382.7902625320131
 20
213.6227804204228
 30
0.0
 10
382.8959515043491
 20
213.6849721799741
 30
0.0
 10
383.0236667248585
 20
213.7138469254812
 30
0.0
 10
383.146384393261
 20
213.6868231251992
 30
0.0
 10
383.2707679123629
 20
213.6592440413506
 30
0.0
 10
383.3707189544997
 20
213.5765067898028
 30
0.0
 10
383.4182882467776
 20
213.4576761063738
 30
0.0
  0
SPLINE
  5
1A5
330
70
100
AcDbEntity
  8
Make2D__可见线__曲线
 62
    18
420
        0
370
    35
100
AcDbSpline
210
0.0
220
0.0
230
1.0
 70
     8
 71
     3
 72
    14
 73
    10
 74
     0
 42
0.0000000001
 43
0.0000000001
 40
0.0
 40
0.0
 40
0.0
 40
0.0
 40
1.0
 40
1.0
 40
1.0
 40
2.0
 40
2.0
 40
2.0
 40
3.0
 40
3.0
 40
3.0
 40
3.0
 10
383.4182882467776
 20
213.4576761063738
 30
0.0
 10
383.5147224929887
 20
213.2168681326323
 30
0.0
 10
383.3709040490242
 20
212.946445035295
 30
0.0
 10
383.1632279948029
 20
212.824467744983
 30
0.0
 10
383.0575390224719
 20
212.7624610799545
 30
0.0
 10
382.9298238019632
 20
212.733401239926
 30
0.0
 10
382.80710613356
 20
212.7606101347287
 30
0.0
 10
382.6827226144589
 20
212.7881892185779
 30
0.0
 10
382.5827715723214
 20
212.8707413756031
 30
0.0
 10
382.5352022800428
 20
212.9895720590321
 30
0.0
  0
SPLINE
  5
1A6
330
70
100
AcDbEntity
  8
Make2D__可见线__曲线
 62
    18
420
        0
370
    35
100
AcDbSpline
210
0.0
220
0.0
230
1.0
 70
     8
 71
     3
 72
    14
 73
    10
 74
     0
 42
0.0000000001
 43
0.0000000001
 40
0.0
 40
0.0
 40
0.0
 40
0.0
 40
1.0
 40
1.0
 40
1.0
 40
2.0
 40
2.0
 40
2.0
 40
3.0
 40
3.0
 40
3.0
 40
3.0
 10
384.2919343928614
 20
213.9368858250632
 30
0.0
 10
384.1969809028359
 20
214.1743620974004
 30
0.0
 10
384.3317297151935
 20
214.4479318016201
 30
0.0
 10
384.5323721775603
 20
214.576942683786
 30
0.0
 10
384.6349145430076
 20
214.6428363337881
 30
0.0
 10
384.7611490073384
 20
214.6774490094907
 30
0.0
 10
384.8844219593082
 20
214.6530165325238
 30
0.0
 10
385.0097309510264
 20
214.6283989610342
 30
0.0
 10
385.1089416150714
 20
214.5456617094884
 30
0.0
 10
385.1563258128253
 20
214.4272012151028
 30
0.0
  0
SPLINE
  5
1A7
330
70
100
AcDbEntity
  8
Make2D__可见线__曲线
 62
    18
420
        0
370
    35
100
AcDbSpline
210
0.0
220
0.0
230
1.0
 70
     8
 71
     3
 72
    14
 73
    10
 74
     0
 42
0.0000000001
 43
0.0000000001
 40
0.0
 40
0.0
 40
0.0
 40
0.0
 40
1.0
 40
1.0
 40
1.0
 40
2.0
 40
2.0
 40
2.0
 40
3.0
 40
3.0
 40
3.0
 40
3.0
 10
385.1563258128253
 20
214.4272012151028
 30
0.0
 10
385.251279302856
 20
214.1895398482436
 30
0.0
 10
385.1165304904933
 20
213.9161552385472
 30
0.0
 10
384.9158880281317
 20
213.7869592618593
 30
0.0
 10
384.8133456626785
 20
213.7210656118572
 30
0.0
 10
384.687111198349
 20
213.6866380306759
 30
0.0
 10
384.5640233409018
 20
213.7108854131202
 30
0.0
 10
384.4385292546655
 20
213.7356880791318
 30
0.0
 10
384.3395036851394
 20
213.8184253306796
 30
0.0
 10
384.2919343928614
 20
213.9368858250632
 30
0.0
  0
SPLINE
  5
1A8
330
70
100
AcDbEntity
  8
Make2D__可见线__曲线
 62
    18
420
        0
370
    35
100
AcDbSpline
210
0.0
220
0.0
230
1.0
 70
     8
 71
     3
 72
    11
 73
     7
 74
     0
 42
0.0000000001
 43
0.0000000001
 40
0.0
 40
0.0
 40
0.0
 40
0.0
 40
1.0
 40
1.0
 40
1.0
 40
2.0
 40
2.0
 40
2.0
 40
2.0
 10
384.294710810701
 20
217.0435122903017
 30
0.0
 10
384.195129957607
 20
217.2819140352509
 30
0.0
 10
384.309148183453
 20
217.5673297889081
 30
0.0
 10
384.5144180088768
 20
217.7061506807657
 30
0.0
 10
384.7385674755966
 20
217.8579281891954
 30
0.0
 10
385.0373100348738
 20
217.8114694640546
 30
0.0
 10
385.1474412757476
 20
217.5475246750034
 30
0.0
  0
SPLINE
  5
1A9
330
70
100
AcDbEntity
  8
Make2D__可见线__曲线
 62
    18
420
        0
370
    35
100
AcDbSpline
210
0.0
220
0.0
230
1.0
 70
     8
 71
     3
 72
     8
 73
     4
 74
     0
 42
0.0000000001
 43
0.0000000001
 40
0.0
 40
0.0
 40
0.0
 40
0.0
 40
1.0
 40
1.0
 40
1.0
 40
1.0
 10
384.730238222088
 20
216.8045552617847
 30
0.0
 10
384.5423672817733
 20
216.7732742874871
 30
0.0
 10
384.3683784306471
 20
216.8667470213359
 30
0.0
 10
384.294710810701
 20
217.0435122903017
 30
0.0
  0
SPLINE
  5
1AA
330
70
100
AcDbEntity
  8
Make2D__可见线__曲线
 62
    18
420
        0
370
    35
100
AcDbSpline
210
0.0
220
0.0
230
1.0
 70
     8
 71
     3
 72
    11
 73
     7
 74
     0
 42
0.0000000001
 43
0.0000000001
 40
0.0
 40
0.0
 40
0.0
 40
0.0
 40
1.0
 40
1.0
 40
1.0
 40
2.0
 40
2.0
 40
2.0
 40
2.0
 10
385.4032419058103
 20
218.786362313935
 30
0.0
 10
385.3031057691476
 20
219.022913113659
 30
0.0
 10
385.404907756514
 20
219.3138817029929
 30
0.0
 10
385.6055502188763
 20
219.4608467538377
 30
0.0
 10
385.828774212979
 20
219.6242852171843
 30
0.0
 10
386.1264062051248
 20
219.576345735863
 30
0.0
 10
386.2389436747903
 20
219.3105500015873
 30
0.0
  0
SPLINE
  5
1AB
330
70
100
AcDbEntity
  8
Make2D__可见线__曲线
 62
    18
420
        0
370
    35
100
AcDbSpline
210
0.0
220
0.0
230
1.0
 70
     8
 71
     3
 72
    11
 73
     7
 74
     0
 42
0.0000000001
 43
0.0000000001
 40
0.0
 40
0.0
 40
0.0
 40
0.0
 40
1.0
 40
1.0
 40
1.0
 40
2.0
 40
2.0
 40
2.0
 40
2.0
 10
386.2389436747903
 20
219.3105500015873
 30
0.0
 10
386.3390798114472
 20
219.0739992018639
 30
0.0
 10
386.237462918606
 20
218.7830306125313
 30
0.0
 10
386.0366353617192
 20
218.6358804671626
 30
0.0
 10
385.8135964621352
 20
218.4726270983393
 30
0.0
 10
385.5155942809513
 20
218.5203814851373
 30
0.0
 10
385.4032419058103
 20
218.786362313935
 30
0.0
  0
SPLINE
  5
1AC
330
70
100
AcDbEntity
  8
Make2D__可见线__曲线
 62
    18
420
        0
370
    35
100
AcDbSpline
210
0.0
220
0.0
230
1.0
 70
     8
 71
     3
 72
    11
 73
     7
 74
     0
 42
0.0000000001
 43
0.0000000001
 40
0.0
 40
0.0
 40
0.0
 40
0.0
 40
1.0
 40
1.0
 40
1.0
 40
2.0
 40
2.0
 40
2.0
 40
2.0
 10
380.0630798378523
 20
213.7543826259026
 30
0.0
 10
379.9618331340589
 20
214.0005583407956
 30
0.0
 10
380.1043559163681
 20
214.2748684231051
 30
0.0
 10
380.3253587761992
 20
214.3924034448782
 30
0.0
 10
380.5561716457289
 20
214.5151211132794
 30
0.0
 10
380.8584310009324
 20
214.4594076620136
 30
0.0
 10
380.9650454458805
 20
214.2004604250698
 30
0.0
  0
SPLINE
  5
1AD
330
70
100
AcDbEntity
  8
Make2D__可见线__曲线
 62
    18
420
        0
370
    35
100
AcDbSpline
210
0.0
220
0.0
230
1.0
 70
     8
 71
     3
 72
    11
 73
     7
 74
     0
 42
0.0000000001
 43
0.0000000001
 40
0.0
 40
0.0
 40
0.0
 40
0.0
 40
1.0
 40
1.0
 40
1.0
 40
2.0
 40
2.0
 40
2.0
 40
2.0
 10
380.9650454458805
 20
214.2004604250698
 30
0.0
 10
381.0664772441977
 20
213.9542847101762
 30
0.0
 10
380.9237693673692
 20
213.6799746278672
 30
0.0
 10
380.702766507533
 20
213.5624396060955
 30
0.0
 10
380.4719536380032
 20
213.439721937693
 30
0.0
 10
380.1698793773243
 20
213.4954353889588
 30
0.0
 10
380.0630798378523
 20
213.7543826259026
 30
0.0
  0
SPLINE
  5
1AE
330
70
100
AcDbEntity
  8
Make2D__可见线__曲线
 62
    18
420
        0
370
    35
100
AcDbSpline
210
0.0
220
0.0
230
1.0
 70
     8
 71
     3
 72
     8
 73
     4
 74
     0
 42
0.0000000001
 43
0.0000000001
 40
0.0
 40
0.0
 40
0.0
 40
0.0
 40
1.0
 40
1.0
 40
1.0
 40
1.0
 10
382.2210968753993
 20
216.3749508751184
 30
0.0
 10
382.3523288918356
 20
216.0626964157006
 30
0.0
 10
382.1135569578392
 20
215.6950986940636
 30
0.0
 10
381.7851992749683
 20
215.6541928045963
 30
0.0
  0
SPLINE
  5
1AF
330
70
100
AcDbEntity
  8
Make2D__可见线__曲线
 62
    18
420
        0
370
    35
100
AcDbSpline
210
0.0
220
0.0
230
1.0
 70
     8
 71
     3
 72
    11
 73
     7
 74
     0
 42
0.0000000001
 43
0.0000000001
 40
0.0
 40
0.0
 40
0.0
 40
0.0
 40
1.0
 40
1.0
 40
1.0
 40
2.0
 40
2.0
 40
2.0
 40
2.0
 10
381.3378258141463
 20
215.9068468277754
 30
0.0
 10
381.2354685432178
 20
216.1506163138773
 30
0.0
 10
381.3609626294542
 20
216.4336258387427
 30
0.0
 10
381.5797443550187
 20
216.5611559647281
 30
0.0
 10
381.8114826971603
 20
216.6962749661361
 30
0.0
 10
382.1117060126173
 20
216.6353788682414
 30
0.0
 10
382.2210968753993
 20
216.3749508751184
 30
0.0
  0
SPLINE
  5
1B0
330
70
100
AcDbEntity
  8
Make2D__可见线__曲线
 62
    18
420
        0
370
    35
100
AcDbSpline
210
0.0
220
0.0
230
1.0
 70
     8
 71
     3
 72
     8
 73
     4
 74
     0
 42
0.0000000001
 43
0.0000000001
 40
0.0
 40
0.0
 40
0.0
 40
0.0
 40
1.0
 40
1.0
 40
1.0
 40
1.0
 10
381.7851992749683
 20
215.6541928045963
 30
0.0
 10
381.5939966332511
 20
215.6303156111967
 30
0.0
 10
381.4137145683628
 20
215.7263796683619
 30
0.0
 10
381.3378258141463
 20
215.9068468277754
 30
0.0
  0
SPLINE
  5
1B1
330
70
100
AcDbEntity
  8
Make2D__可见线__曲线
 62
    18
420
        0
370
    35
100
AcDbSpline
210
0.0
220
0.0
230
1.0
 70
     8
 71
     3
 72
    11
 73
     7
 74
     0
 42
0.0000000001
 43
0.0000000001
 40
0.0
 40
0.0
 40
0.0
 40
0.0
 40
1.0
 40
1.0
 40
1.0
 40
2.0
 40
2.0
 40
2.0
 40
2.0
 10
381.5801145440684
 20
217.8843967059101
 30
0.0
 10
381.475721233392
 20
218.1276109084434
 30
0.0
 10
381.5869630413978
 20
218.418764592298
 30
0.0
 10
381.8074106176661
 20
218.5529581210928
 30
0.0
 10
382.0426657557348
 20
218.6960361869672
 30
0.0
 10
382.3417785040546
 20
218.6247747958137
 30
0.0
 10
382.4539457846762
 20
218.3637915191234
 30
0.0
  0
SPLINE
  5
1B2
330
70
100
AcDbEntity
  8
Make2D__可见线__曲线
 62
    18
420
        0
370
    35
100
AcDbSpline
210
0.0
220
0.0
230
1.0
 70
     8
 71
     3
 72
    11
 73
     7
 74
     0
 42
0.0000000001
 43
0.0000000001
 40
0.0
 40
0.0
 40
0.0
 40
0.0
 40
1.0
 40
1.0
 40
1.0
 40
2.0
 40
2.0
 40
2.0
 40
2.0
 10
382.4539457846762
 20
218.3637915191234
 30
0.0
 10
382.5583390953532
 20
218.1205773165888
 30
0.0
 10
382.4470972873417
 20
217.8294236327342
 30
0.0
 10
382.2264646165546
 20
217.6952301039394
 30
0.0
 10
381.9913945730105
 20
217.5521520380649
 30
0.0
 10
381.692096730166
 20
217.6234134292185
 30
0.0
 10
381.5801145440684
 20
217.8843967059101
 30
0.0
  0
SPLINE
  5
1B3
330
70
100
AcDbEntity
  8
Make2D__可见线__曲线
 62
    18
420
        0
370
    35
100
AcDbSpline
210
0.0
220
0.0
230
1.0
 70
     8
 71
     3
 72
    11
 73
     7
 74
     0
 42
0.0000000001
 43
0.0000000001
 40
0.0
 40
0.0
 40
0.0
 40
0.0
 40
1.0
 40
1.0
 40
1.0
 40
2.0
 40
2.0
 40
2.0
 40
2.0
 10
381.7837185187891
 20
219.9080351201396
 30
0.0
 10
381.6772891683656
 20
220.1506940391056
 30
0.0
 10
381.7744637926692
 20
220.4501769764714
 30
0.0
 10
381.9962070305927
 20
220.5914040971221
 30
0.0
 10
382.2344236810192
 20
220.7429965110291
 30
0.0
 10
382.5331662402963
 20
220.6604443540053
 30
0.0
 10
382.6477397497097
 20
220.3990908882691
 30
0.0
  0
SPLINE
  5
1B4
330
70
100
AcDbEntity
  8
Make2D__可见线__曲线
 62
    18
420
        0
370
    35
100
AcDbSpline
210
0.0
220
0.0
230
1.0
 70
     8
 71
     3
 72
    11
 73
     7
 74
     0
 42
0.0000000001
 43
0.0000000001
 40
0.0
 40
0.0
 40
0.0
 40
0.0
 40
1.0
 40
1.0
 40
1.0
 40
2.0
 40
2.0
 40
2.0
 40
2.0
 10
382.6477397497097
 20
220.3990908882691
 30
0.0
 10
382.7541691001331
 20
220.1564319693031
 30
0.0
 10
382.6569944758353
 20
219.856949031936
 30
0.0
 10
382.435251237906
 20
219.7159070058093
 30
0.0
 10
382.1970345874796
 20
219.5644996864242
 30
0.0
 10
381.8984771227263
 20
219.6464965598821
 30
0.0
 10
381.7837185187891
 20
219.9080351201396
 30
0.0
  0
SPLINE
  5
1B6
330
70
100
AcDbEntity
  8
Make2D__可见线__正切线
 62
    18
420
        0
370
    35
100
AcDbSpline
210
0.0
220
0.0
230
1.0
 70
     8
 71
     3
 72
    11
 73
     7
 74
     0
 42
0.0000000001
 43
0.0000000001
 40
0.0
 40
0.0
 40
0.0
 40
0.0
 40
1.0
 40
1.0
 40
1.0
 40
2.0
 40
2.0
 40
2.0
 40
2.0
 10
353.4072474670395
 20
253.4584533586635
 30
0.0
 10
353.0081836765822
 20
253.9311847690668
 30
0.0
 10
352.5994949709553
 20
254.3935508862125
 30
0.0
 10
352.1661886938407
 20
254.8357417004075
 30
0.0
 10
351.7804517089975
 20
255.229067560668
 30
0.0
 10
351.2342377731727
 20
255.7436303331519
 30
0.0
 10
350.7740927902982
 20
256.055884792569
 30
0.0
  0
LINE
  5
1B7
330
70
100
AcDbEntity
  8
Make2D__可见线__正切线
 62
    18
420
        0
370
    35
100
AcDbLine
 10
328.1335158955531
 20
146.0244098669595
 30
0.0
 11
330.6739382165356
 21
142.9781242160503
 31
0.0
  0
SPLINE
  5
1B8
330
70
100
AcDbEntity
  8
Make2D__可见线__正切线
 62
    18
420
        0
370
    35
100
AcDbSpline
210
0.0
220
0.0
230
1.0
 70
     8
 71
     3
 72
     8
 73
     4
 74
     0
 42
0.0000000001
 43
0.0000000001
 40
0.0
 40
0.0
 40
0.0
 40
0.0
 40
1.0
 40
1.0
 40
1.0
 40
1.0
 10
336.1181234061234
 20
222.429207610786
 30
0.0
 10
336.1194190677786
 20
222.1474937475772
 30
0.0
 10
336.2449131540163
 20
221.8976161422345
 30
0.0
 10
336.417421248969
 20
221.6893848044497
 30
0.0
  0
SPLINE
  5
1B9
330
70
100
AcDbEntity
  8
Make2D__可见线__正切线
 62
    18
420
        0
370
    35
100
AcDbSpline
210
0.0
220
0.0
230
1.0
 70
     8
 71
     3
 72
     8
 73
     4
 74
     0
 42
0.0000000001
 43
0.0000000001
 40
0.0
 40
0.0
 40
0.0
 40
0.0
 40
1.0
 40
1.0
 40
1.0
 40
1.0
 10
336.417421248969
 20
221.6893848044497
 30
0.0
 10
336.7289353302924
 20
221.3130876402549
 30
0.0
 10
337.2201761929465
 20
221.0361862346315
 30
0.0
 10
337.6507060522221
 20
220.8494258614527
 30
0.0
  0
SPLINE
  5
1BA
330
70
100
AcDbEntity
  8
Make2D__可见线__正切线
 62
    18
420
        0
370
    35
100
AcDbSpline
210
0.0
220
0.0
230
1.0
 70
     8
 71
     3
 72
    11
 73
     7
 74
     0
 42
0.0000000001
 43
0.0000000001
 40
0.0
 40
0.0
 40
0.0
 40
0.0
 40
1.0
 40
1.0
 40
1.0
 40
2.0
 40
2.0
 40
2.0
 40
2.0
 10
327.8392156048162
 20
146.3777553103673
 30
0.0
 10
327.7625864725111
 20
155.4562714487702
 30
0.0
 10
329.3458850177708
 20
164.4772231906835
 30
0.0
 10
332.2735250797724
 20
173.0441380689629
 30
0.0
 10
335.2044968431841
 20
181.6214182405007
 30
0.0
 10
339.471295775297
 20
189.717082464556
 30
0.0
 10
344.7653693071569
 20
197.0579312259545
 30
0.0
  0
LINE
  5
1BB
330
70
100
AcDbEntity
  8
Make2D__可见线__正切线
 62
    18
420
        0
370
    35
100
AcDbLine
 10
393.0441288881437
 20
220.2184386343323
 30
0.0
 11
393.2434756888455
 21
219.9822580236523
 31
0.0
  0
LINE
  5
1BC
330
70
100
AcDbEntity
  8
Make2D__可见线__正切线
 62
    18
420
        0
370
    35
100
AcDbLine
 10
390.4063468483337
 20
218.199242488641
 30
0.0
 11
390.6134676189871
 21
217.9534369627933
 31
0.0
  0
SPLINE
  5
1BD
330
70
100
AcDbEntity
  8
Make2D__可见线__正切线
 62
    18
420
        0
370
    35
100
AcDbSpline
210
0.0
220
0.0
230
1.0
 70
     8
 71
     3
 72
    35
 73
    31
 74
     0
 42
0.0000000001
 43
0.0000000001
 40
0.0
 40
0.0
 40
0.0
 40
0.0
 40
1.0
 40
1.0
 40
1.0
 40
2.0
 40
2.0
 40
2.0
 40
3.0
 40
3.0
 40
3.0
 40
4.0
 40
4.0
 40
4.0
 40
5.0
 40
5.0
 40
5.0
 40
6.0
 40
6.0
 40
6.0
 40
7.0
 40
7.0
 40
7.0
 40
8.0
 40
8.0
 40
8.0
 40
9.0
 40
9.0
 40
9.0
 40
10.0
 40
10.0
 40
10.0
 40
10.0
 10
346.5987305522787
 20
241.8047171290515
 30
0.0
 10
348.679563173959
 20
243.9438545253063
 30
0.0
 10
350.8512772061705
 20
245.8656909521746
 30
0.0
 10
353.2850850822049
 20
247.6016924784771
 30
0.0
 10
355.6844653770627
 20
249.3130764332902
 30
0.0
 10
358.2778247314727
 20
250.7980897871162
 30
0.0
 10
360.9809451377131
 20
251.9769568007645
 30
0.0
 10
366.3214773947105
 20
254.3061862716038
 30
0.0
 10
372.3985007566463
 20
255.5452090050581
 30
0.0
 10
378.2502640847233
 20
255.2603485349669
 30
0.0
 10
384.0925875921544
 20
254.9760433484443
 30
0.0
 10
390.0254223210786
 20
253.1539728691902
 30
0.0
 10
394.8330674478712
 20
249.6954817167257
 30
0.0
 10
395.7183745488763
 20
249.0585714648866
 30
0.0
 10
396.5531508452407
 20
248.3716856919784
 30
0.0
 10
397.3479467247535
 20
247.6248292937869
 30
0.0
 10
398.7067256142493
 20
246.3480472777476
 30
0.0
 10
399.942046457256
 20
244.9276319122665
 30
0.0
 10
400.9896814544654
 20
243.3820926495924
 30
0.0
 10
401.4996168638902
 20
242.6296834157267
 30
0.0
 10
401.9558748617957
 20
241.8528417048954
 30
0.0
 10
402.3630828112371
 20
241.0400916567024
 30
0.0
 10
402.743822243974
 20
240.2802786419387
 30
0.0
 10
403.0793986132229
 20
239.50436240372
 30
0.0
 10
403.379807023198
 20
238.7093814296851
 30
0.0
 10
403.6317206682891
 20
238.0434113378169
 30
0.0
 10
403.8566105130962
 20
237.3702225595714
 30
0.0
 10
404.0533659904934
 20
236.6857430154556
 30
0.0
 10
404.1890402754673
 20
236.2135668886189
 30
0.0
 10
404.3130536055257
 20
235.7397249110804
 30
0.0
 10
404.4074518119891
 20
235.2569983964634
 30
0.0
  0
SPLINE
  5
1BE
330
70
100
AcDbEntity
  8
Make2D__可见线__正切线
 62
    18
420
        0
370
    35
100
AcDbSpline
210
0.0
220
0.0
230
1.0
 70
     8
 71
     3
 72
     8
 73
     4
 74
     0
 42
0.0000000001
 43
0.0000000001
 40
0.0
 40
0.0
 40
0.0
 40
0.0
 40
1.0
 40
1.0
 40
1.0
 40
1.0
 10
343.8791367335398
 20
244.9746459209759
 30
0.0
 10
344.7751793168505
 20
243.9088716605591
 30
0.0
 10
345.6751088851264
 20
242.8469843851133
 30
0.0
 10
346.5987305522787
 20
241.8047171290515
 30
0.0
  0
SPLINE
  5
1BF
330
70
100
AcDbEntity
  8
Make2D__可见线__正切线
 62
    18
420
        0
370
    35
100
AcDbSpline
210
0.0
220
0.0
230
1.0
 70
     8
 71
     3
 72
    14
 73
    10
 74
     0
 42
0.0000000001
 43
0.0000000001
 40
0.0
 40
0.0
 40
0.0
 40
0.0
 40
1.0
 40
1.0
 40
1.0
 40
2.0
 40
2.0
 40
2.0
 40
3.0
 40
3.0
 40
3.0
 40
3.0
 10
350.7740927902982
 20
256.055884792569
 30
0.0
 10
353.4996096337551
 20
257.9090511515981
 30
0.0
 10
356.0801974661182
 20
259.5208542533202
 30
0.0
 10
359.1747927873901
 20
260.7446992359314
 30
0.0
 10
360.6790559715536
 20
261.3397781256913
 30
0.0
 10
362.2046050258028
 20
261.788262153651
 30
0.0
 10
363.79382659578
 20
262.0932979266909
 30
0.0
 10
365.3436230324691
 20
262.3905597297876
 30
0.0
 10
367.0079929785766
 20
262.5599212178534
 30
0.0
 10
368.5849983100697
 20
262.5945338935567
 30
0.0
  0
SPLINE
  5
1C0
330
70
100
AcDbEntity
  8
Make2D__可见线__正切线
 62
    18
420
        0
370
    35
100
AcDbSpline
210
0.0
220
0.0
230
1.0
 70
     8
 71
     3
 72
    29
 73
    25
 74
     0
 42
0.0000000001
 43
0.0000000001
 40
0.0
 40
0.0
 40
0.0
 40
0.0
 40
1.0
 40
1.0
 40
1.0
 40
2.0
 40
2.0
 40
2.0
 40
3.0
 40
3.0
 40
3.0
 40
4.0
 40
4.0
 40
4.0
 40
5.0
 40
5.0
 40
5.0
 40
6.0
 40
6.0
 40
6.0
 40
7.0
 40
7.0
 40
7.0
 40
8.0
 40
8.0
 40
8.0
 40
8.0
 10
408.2646365658637
 20
142.9727564748982
 30
0.0
 10
407.2612391595226
 20
141.7596469745912
 30
0.0
 10
406.0373941769134
 20
140.7109014102415
 30
0.0
 10
404.7600568773043
 20
139.8087507076933
 30
0.0
 10
403.2304357435659
 20
138.7283539800006
 30
0.0
 10
401.5519986137504
 20
137.8080640142501
 30
0.0
 10
399.8572731659617
 20
137.0234483334743
 30
0.0
 10
396.7476851883654
 20
135.5837831376558
 30
0.0
 10
393.3589746708753
 20
134.4972782907214
 30
0.0
 10
390.0417106390576
 20
133.6869344713214
 30
0.0
 10
383.4201391920008
 20
132.0695785339264
 30
0.0
 10
376.2503177693714
 20
131.3491906524496
 30
0.0
 10
369.4558680383241
 20
131.3425272496409
 30
0.0
 10
362.6614183072705
 20
131.3356787523096
 30
0.0
 10
355.4849334818312
 20
132.0418143555558
 30
0.0
 10
348.8609558059825
 20
133.6525068901408
 30
0.0
 10
345.5312904411619
 20
134.4622954259742
 30
0.0
 10
342.1625701320973
 20
135.5399157358288
 30
0.0
 10
339.0439125228998
 20
136.9890207522943
 30
0.0
 10
337.2925481512321
 20
137.8026962730987
 30
0.0
 10
335.5669119181878
 20
138.7585243871649
 30
0.0
 10
333.9991613128166
 20
139.8968557003919
 30
0.0
 10
332.7812393549249
 20
140.7810522342599
 30
0.0
 10
331.6251389675384
 20
141.7990721078774
 30
0.0
 10
330.6739382165356
 20
142.9781242160503
 30
0.0
  0
SPLINE
  5
1C1
330
70
100
AcDbEntity
  8
Make2D__可见线__正切线
 62
    18
420
        0
370
    35
100
AcDbSpline
210
0.0
220
0.0
230
1.0
 70
     8
 71
     3
 72
     8
 73
     4
 74
     0
 42
0.0000000001
 43
0.0000000001
 40
0.0
 40
0.0
 40
0.0
 40
0.0
 40
1.0
 40
1.0
 40
1.0
 40
1.0
 10
377.9165386607015
 20
190.4028576703296
 30
0.0
 10
377.786787400445
 20
191.0221839425338
 30
0.0
 10
377.6546299113922
 20
191.6407698366494
 30
0.0
 10
377.5204363825974
 20
192.2591706362416
 30
0.0
  0
ENDSEC
  0
SECTION
  2
OBJECTS
  0
DICTIONARY
  5
C
330
0
100
AcDbDictionary
281
     1
  3
ACAD_COLOR
350
63
  3
ACAD_DETAILVIEWSTYLE
350
6A
  3
ACAD_GROUP
350
D
  3
ACAD_LAYOUT
350
62
  3
ACAD_MATERIAL
350
10
  3
ACAD_MLEADERSTYLE
350
66
  3
ACAD_MLINESTYLE
350
5F
  3
ACAD_PLOTSETTINGS
350
61
  3
ACAD_PLOTSTYLENAME
350
E
  3
ACAD_SCALELIST
350
42
  3
ACAD_SECTIONVIEWSTYLE
350
68
  3
ACAD_TABLESTYLE
350
64
  3
ACAD_VISUALSTYLE
350
29
  3
ACDB_RECOMPOSE_DATA
350
1CA
  3
AcDbVariableDictionary
350
1C2
  0
DICTIONARY
  5
63
102
{ACAD_REACTORS
330
C
102
}
330
C
100
AcDbDictionary
281
     1
  0
DICTIONARY
  5
6A
102
{ACAD_REACTORS
330
C
102
}
330
C
100
AcDbDictionary
281
     1
  3
Imperial24
350
6B
  0
DICTIONARY
  5
D
102
{ACAD_REACTORS
330
C
102
}
330
C
100
AcDbDictionary
281
     1
  0
DICTIONARY
  5
62
102
{ACAD_REACTORS
330
C
102
}
330
C
100
AcDbDictionary
281
     1
  3
Layout1
350
6F
  3
Layout2
350
77
  3
Model
350
73
  0
DICTIONARY
  5
10
102
{ACAD_REACTORS
330
C
102
}
330
C
100
AcDbDictionary
281
     1
  3
ByBlock
350
19
  3
ByLayer
350
11
  3
Global
350
21
  0
DICTIONARY
  5
66
102
{ACAD_REACTORS
330
C
102
}
330
C
100
AcDbDictionary
281
     1
  3
Standard
350
67
  0
DICTIONARY
  5
5F
102
{ACAD_REACTORS
330
C
102
}
330
C
100
AcDbDictionary
281
     1
  3
Standard
350
60
  0
DICTIONARY
  5
61
102
{ACAD_REACTORS
330
C
102
}
330
C
100
AcDbDictionary
281
     1
  0
ACDBDICTIONARYWDFLT
  5
E
102
{ACAD_REACTORS
330
C
102
}
330
C
100
AcDbDictionary
281
     1
  3
Normal
350
F
100
AcDbDictionaryWithDefault
340
F
  0
DICTIONARY
  5
42
102
{ACAD_REACTORS
330
C
102
}
330
C
100
AcDbDictionary
281
     1
  3
A0
350
43
  3
A1
350
44
  3
A2
350
45
  3
A3
350
46
  3
A4
350
47
  3
A5
350
48
  3
A6
350
49
  3
A7
350
4A
  3
A8
350
4B
  3
A9
350
4C
  3
B0
350
4D
  3
B1
350
4E
  3
B2
350
4F
  3
B3
350
50
  3
B4
350
51
  3
B5
350
52
  3
B6
350
53
  0
DICTIONARY
  5
68
102
{ACAD_REACTORS
330
C
102
}
330
C
100
AcDbDictionary
281
     1
  3
Imperial24
350
69
  0
DICTIONARY
  5
64
102
{ACAD_REACTORS
330
C
102
}
330
C
100
AcDbDictionary
281
     1
  3
Standard
350
65
  0
DICTIONARY
  5
29
102
{ACAD_REACTORS
330
C
102
}
330
C
100
AcDbDictionary
281
     1
  3
2dWireframe
350
2F
  3
Basic
350
2E
  3
Brighten
350
35
  3
ColorChange
350
39
  3
Conceptual
350
32
  3
Dim
350
34
  3
EdgeColorOff
350
41
  3
Facepattern
350
38
  3
Flat
350
2A
  3
FlatWithEdges
350
2B
  3
Gouraud
350
2C
  3
GouraudWithEdges
350
2D
  3
Hidden
350
31
  3
JitterOff
350
3F
  3
Linepattern
350
37
  3
OverhangOff
350
40
  3
Realistic
350
33
  3
Shaded
350
3E
  3
Shaded with edges
350
3D
  3
Shades of Gray
350
3A
  3
Sketchy
350
3B
  3
Thicken
350
36
  3
Wireframe
350
30
  3
X-Ray
350
3C
  0
XRECORD
  5
1CA
102
{ACAD_REACTORS
330
C
102
}
330
C
100
AcDbXrecord
280
     1
 90
        1
330
65
  0
DICTIONARY
  5
1C2
102
{ACAD_REACTORS
330
C
102
}
330
C
100
AcDbDictionary
281
     1
  3
CANNOSCALE
350
1C7
  3
CMLEADERSTYLE
350
1C4
  3
CTABLESTYLE
350
1C3
  3
CVIEWDETAILSTYLE
350
1C5
  3
CVIEWSECTIONSTYLE
350
1C6
  0
ACDBDETAILVIEWSTYLE
  5
6B
102
{ACAD_REACTORS
330
6A
102
}
330
6A
100
AcDbModelDocViewStyle
 70
     0
  3
Imperial24
290
     1
300
Imperial24
 90
        0
100
AcDbDetailViewStyle
 70
     0
 71
     0
 90
        3
 71
     1
340
55
 62
   256
 40
0.24
340
0
 62
   256
 40
0.24
300

 40
0.36
280
     3
 71
     2
340
5D
 90
       25
 62
   256
 71
     3
340
55
 62
   256
 40
0.24
 90
        1
 40
0.75
 90
        1
300
%<\AcVar ViewType \f "%tc1">% %<\AcVar ViewDetailId>%\PSCALE %<\AcVar ViewScale \f "%sn">%
 71
     4
340
5D
 90
       25
 62
   256
340
5D
 90
       25
 62
   256
280
     0
  0
LAYOUT
  5
6F
102
{ACAD_REACTORS
330
62
102
}
330
62
100
AcDbPlotSettings
  1

  2

  4

  6

 40
0.0
 41
0.0
 42
0.0
 43
0.0
 44
0.0
 45
0.0
 46
0.0
 47
0.0
 48
0.0
 49
0.0
140
0.0
141
0.0
142
1.0
143
1.0
 70
   688
 72
     0
 73
     0
 74
     5
  7

 75
    16
147
1.0
 76
     0
 77
     2
 78
   300
148
0.0
149
0.0
100
AcDbLayout
  1
Layout1
 70
     1
 71
     1
 10
0.0
 20
0.0
 11
12.0
 21
9.0
 12
0.0
 22
0.0
 32
0.0
 14
0.0
 24
0.0
 34
0.0
 15
0.0
 25
0.0
 35
0.0
146
0.0
 13
0.0
 23
0.0
 33
0.0
 16
1.0
 26
0.0
 36
0.0
 17
0.0
 27
1.0
 37
0.0
 76
     0
330
6C
  0
LAYOUT
  5
77
102
{ACAD_REACTORS
330
62
102
}
330
62
100
AcDbPlotSettings
  1

  2

  4

  6

 40
0.0
 41
0.0
 42
0.0
 43
0.0
 44
0.0
 45
0.0
 46
0.0
 47
0.0
 48
0.0
 49
0.0
140
0.0
141
0.0
142
1.0
143
1.0
 70
   688
 72
     0
 73
     0
 74
     5
  7

 75
    16
147
1.0
 76
     0
 77
     2
 78
   300
148
0.0
149
0.0
100
AcDbLayout
  1
Layout2
 70
     1
 71
     2
 10
0.0
 20
0.0
 11
12.0
 21
9.0
 12
0.0
 22
0.0
 32
0.0
 14
0.0
 24
0.0
 34
0.0
 15
0.0
 25
0.0
 35
0.0
146
0.0
 13
0.0
 23
0.0
 33
0.0
 16
1.0
 26
0.0
 36
0.0
 17
0.0
 27
1.0
 37
0.0
 76
     0
330
74
  0
LAYOUT
  5
73
102
{ACAD_REACTORS
330
62
102
}
330
62
100
AcDbPlotSettings
  1

  2

  4

  6

 40
0.0
 41
0.0
 42
0.0
 43
0.0
 44
0.0
 45
0.0
 46
0.0
 47
0.0
 48
0.0
 49
0.0
140
0.0
141
0.0
142
1.0
143
1.0
 70
  1712
 72
     0
 73
     0
 74
     0
  7

 75
     0
147
1.0
 76
     0
 77
     2
 78
   300
148
0.0
149
0.0
100
AcDbLayout
  1
Model
 70
     1
 71
     0
 10
0.0
 20
0.0
 11
12.0
 21
9.0
 12
0.0
 22
0.0
 32
0.0
 14
0.0
 24
0.0
 34
0.0
 15
0.0
 25
0.0
 35
0.0
146
0.0
 13
0.0
 23
0.0
 33
0.0
 16
1.0
 26
0.0
 36
0.0
 17
0.0
 27
1.0
 37
0.0
 76
     0
330
70
  0
MATERIAL
  5
19
102
{ACAD_XDICTIONARY
360
1A
102
}
102
{ACAD_REACTORS
330
10
102
}
330
10
100
AcDbMaterial
  1
ByBlock
 72
     0
 43
0.0208333333333333
 43
0.0
 43
0.0
 43
0.0
 43
0.0
 43
0.0208333333333333
 43
0.0
 43
0.0
 43
0.0
 43
0.0
 43
1.0
 43
0.0
 43
0.0
 43
0.0
 43
0.0
 43
1.0
 77
     0
 47
0.0208333333333333
 47
0.0
 47
0.0
 47
0.0
 47
0.0
 47
0.0208333333333333
 47
0.0
 47
0.0
 47
0.0
 47
0.0
 47
1.0
 47
0.0
 47
0.0
 47
0.0
 47
0.0
 47
1.0
171
     0
 49
0.0208333333333333
 49
0.0
 49
0.0
 49
0.0
 49
0.0
 49
0.0208333333333333
 49
0.0
 49
0.0
 49
0.0
 49
0.0
 49
1.0
 49
0.0
 49
0.0
 49
0.0
 49
0.0
 49
1.0
175
     0
142
0.0208333333333333
142
0.0
142
0.0
142
0.0
142
0.0
142
0.0208333333333333
142
0.0
142
0.0
142
0.0
142
0.0
142
1.0
142
0.0
142
0.0
142
0.0
142
0.0
142
1.0
179
     0
144
0.0208333333333333
144
0.0
144
0.0
144
0.0
144
0.0
144
0.0208333333333333
144
0.0
144
0.0
144
0.0
144
0.0
144
1.0
144
0.0
144
0.0
144
0.0
144
0.0
144
1.0
147
0.0208333333333333
147
0.0
147
0.0
147
0.0
147
0.0
147
0.0208333333333333
147
0.0
147
0.0
147
0.0
147
0.0
147
1.0
147
0.0
147
0.0
147
0.0
147
0.0
147
1.0
  0
MATERIAL
  5
11
102
{ACAD_XDICTIONARY
360
12
102
}
102
{ACAD_REACTORS
330
10
102
}
330
10
100
AcDbMaterial
  1
ByLayer
 72
     0
 43
0.0208333333333333
 43
0.0
 43
0.0
 43
0.0
 43
0.0
 43
0.0208333333333333
 43
0.0
 43
0.0
 43
0.0
 43
0.0
 43
1.0
 43
0.0
 43
0.0
 43
0.0
 43
0.0
 43
1.0
 77
     0
 47
0.0208333333333333
 47
0.0
 47
0.0
 47
0.0
 47
0.0
 47
0.0208333333333333
 47
0.0
 47
0.0
 47
0.0
 47
0.0
 47
1.0
 47
0.0
 47
0.0
 47
0.0
 47
0.0
 47
1.0
171
     0
 49
0.0208333333333333
 49
0.0
 49
0.0
 49
0.0
 49
0.0
 49
0.0208333333333333
 49
0.0
 49
0.0
 49
0.0
 49
0.0
 49
1.0
 49
0.0
 49
0.0
 49
0.0
 49
0.0
 49
1.0
175
     0
142
0.0208333333333333
142
0.0
142
0.0
142
0.0
142
0.0
142
0.0208333333333333
142
0.0
142
0.0
142
0.0
142
0.0
142
1.0
142
0.0
142
0.0
142
0.0
142
0.0
142
1.0
179
     0
144
0.0208333333333333
144
0.0
144
0.0
144
0.0
144
0.0
144
0.0208333333333333
144
0.0
144
0.0
144
0.0
144
0.0
144
1.0
144
0.0
144
0.0
144
0.0
144
0.0
144
1.0
147
0.0208333333333333
147
0.0
147
0.0
147
0.0
147
0.0
147
0.0208333333333333
147
0.0
147
0.0
147
0.0
147
0.0
147
1.0
147
0.0
147
0.0
147
0.0
147
0.0
147
1.0
  0
MATERIAL
  5
21
102
{ACAD_XDICTIONARY
360
22
102
}
102
{ACAD_REACTORS
330
10
102
}
330
10
100
AcDbMaterial
  1
Global
 72
     0
 43
0.0208333333333333
 43
0.0
 43
0.0
 43
0.0
 43
0.0
 43
0.0208333333333333
 43
0.0
 43
0.0
 43
0.0
 43
0.0
 43
1.0
 43
0.0
 43
0.0
 43
0.0
 43
0.0
 43
1.0
 77
     0
 47
0.0208333333333333
 47
0.0
 47
0.0
 47
0.0
 47
0.0
 47
0.0208333333333333
 47
0.0
 47
0.0
 47
0.0
 47
0.0
 47
1.0
 47
0.0
 47
0.0
 47
0.0
 47
0.0
 47
1.0
171
     0
 49
0.0208333333333333
 49
0.0
 49
0.0
 49
0.0
 49
0.0
 49
0.0208333333333333
 49
0.0
 49
0.0
 49
0.0
 49
0.0
 49
1.0
 49
0.0
 49
0.0
 49
0.0
 49
0.0
 49
1.0
175
     0
142
0.0208333333333333
142
0.0
142
0.0
142
0.0
142
0.0
142
0.0208333333333333
142
0.0
142
0.0
142
0.0
142
0.0
142
1.0
142
0.0
142
0.0
142
0.0
142
0.0
142
1.0
179
     0
144
0.0208333333333333
144
0.0
144
0.0
144
0.0
144
0.0
144
0.0208333333333333
144
0.0
144
0.0
144
0.0
144
0.0
144
1.0
144
0.0
144
0.0
144
0.0
144
0.0
144
1.0
147
0.0208333333333333
147
0.0
147
0.0
147
0.0
147
0.0
147
0.0208333333333333
147
0.0
147
0.0
147
0.0
147
0.0
147
1.0
147
0.0
147
0.0
147
0.0
147
0.0
147
1.0
  0
MLEADERSTYLE
  5
67
102
{ACAD_REACTORS
330
66
102
}
330
66
100
AcDbMLeaderStyle
179
     2
170
     2
171
     1
172
     0
 90
        2
 40
0.0
 41
0.0
173
     1
 91
-1056964608
340
5B
 92
       -2
290
     1
 42
0.09
291
     1
 43
0.36
  3
Standard
 44
0.18
300

342
55
174
     1
178
     6
175
     1
176
     0
 93
-1056964608
 45
0.18
292
     0
297
     0
 46
0.18
 94
-1056964608
 47
1.0
 49
1.0
140
1.0
293
     1
141
0.0
294
     1
177
     0
142
1.0
295
     1
296
     0
143
0.125
271
     0
272
     9
273
     9
298
     1
  0
MLINESTYLE
  5
60
102
{ACAD_REACTORS
330
5F
102
}
330
5F
100
AcDbMlineStyle
  2
STANDARD
 70
     0
  3

 62
   256
 51
90.0
 52
90.0
 71
     2
 49
0.5
 62
   256
  6
BYLAYER
 49
-0.5
 62
   256
  6
BYLAYER
  0
ACDBPLACEHOLDER
  5
F
102
{ACAD_REACTORS
330
E
102
}
330
E
  0
SCALE
  5
43
102
{ACAD_REACTORS
330
42
102
}
330
42
100
AcDbScale
 70
     0
300
1:1
140
1.0
141
1.0
290
     1
  0
SCALE
  5
44
102
{ACAD_REACTORS
330
42
102
}
330
42
100
AcDbScale
 70
     0
300
1/128" = 1'-0"
140
0.0078125
141
12.0
290
     0
  0
SCALE
  5
45
102
{ACAD_REACTORS
330
42
102
}
330
42
100
AcDbScale
 70
     0
300
1/64" = 1'-0"
140
0.015625
141
12.0
290
     0
  0
SCALE
  5
46
102
{ACAD_REACTORS
330
42
102
}
330
42
100
AcDbScale
 70
     0
300
1/32" = 1'-0"
140
0.03125
141
12.0
290
     0
  0
SCALE
  5
47
102
{ACAD_REACTORS
330
42
102
}
330
42
100
AcDbScale
 70
     0
300
1/16" = 1'-0"
140
0.0625
141
12.0
290
     0
  0
SCALE
  5
48
102
{ACAD_REACTORS
330
42
102
}
330
42
100
AcDbScale
 70
     0
300
3/32" = 1'-0"
140
0.09375
141
12.0
290
     0
  0
SCALE
  5
49
102
{ACAD_REACTORS
330
42
102
}
330
42
100
AcDbScale
 70
     0
300
1/8" = 1'-0"
140
0.125
141
12.0
290
     0
  0
SCALE
  5
4A
102
{ACAD_REACTORS
330
42
102
}
330
42
100
AcDbScale
 70
     0
300
3/16" = 1'-0"
140
0.1875
141
12.0
290
     0
  0
SCALE
  5
4B
102
{ACAD_REACTORS
330
42
102
}
330
42
100
AcDbScale
 70
     0
300
1/4" = 1'-0"
140
0.25
141
12.0
290
     0
  0
SCALE
  5
4C
102
{ACAD_REACTORS
330
42
102
}
330
42
100
AcDbScale
 70
     0
300
3/8" = 1'-0"
140
0.375
141
12.0
290
     0
  0
SCALE
  5
4D
102
{ACAD_REACTORS
330
42
102
}
330
42
100
AcDbScale
 70
     0
300
1/2" = 1'-0"
140
0.5
141
12.0
290
     0
  0
SCALE
  5
4E
102
{ACAD_REACTORS
330
42
102
}
330
42
100
AcDbScale
 70
     0
300
3/4" = 1'-0"
140
0.75
141
12.0
290
     0
  0
SCALE
  5
4F
102
{ACAD_REACTORS
330
42
102
}
330
42
100
AcDbScale
 70
     0
300
1" = 1'-0"
140
1.0
141
12.0
290
     0
  0
SCALE
  5
50
102
{ACAD_REACTORS
330
42
102
}
330
42
100
AcDbScale
 70
     0
300
1-1/2" = 1'-0"
140
1.5
141
12.0
290
     0
  0
SCALE
  5
51
102
{ACAD_REACTORS
330
42
102
}
330
42
100
AcDbScale
 70
     0
300
3" = 1'-0"
140
3.0
141
12.0
290
     0
  0
SCALE
  5
52
102
{ACAD_REACTORS
330
42
102
}
330
42
100
AcDbScale
 70
     0
300
6" = 1'-0"
140
6.0
141
12.0
290
     0
  0
SCALE
  5
53
102
{ACAD_REACTORS
330
42
102
}
330
42
100
AcDbScale
 70
     0
300
1'-0" = 1'-0"
140
12.0
141
12.0
290
     0
  0
ACDBSECTIONVIEWSTYLE
  5
69
102
{ACAD_REACTORS
330
68
102
}
330
68
100
AcDbModelDocViewStyle
 70
     0
  3
Imperial24
290
     1
300
Imperial24
 90
        0
100
AcDbSectionViewStyle
 70
     0
 71
     0
 90
       78
 71
     1
340
55
 62
   256
 40
0.24
340
0
340
0
 62
   256
 40
0.24
300
I, O, Q, S, X, Z
 40
0.48
 90
        3
 40
0.18
 90
        1
 71
     2
340
5D
 90
       25
 62
   256
340
5D
 90
       50
 62
   256
 40
0.24
 40
0.0
 40
0.24
 71
     3
340
55
 62
   256
 40
0.24
 90
        1
 40
0.75
 90
        1
300
%<\AcVar ViewType \f "%tc1">% %<\AcVar ViewSectionStartId>%-%<\AcVar ViewSectionEndId>%\PSCALE %<\AcVar ViewScale \f "%sn">%
 71
     4
 62
   256
 62
   257
300
ANSI31
 40
1.0
 90
        0
290
     0
290
     0
 90
        6
 40
0.0
 40
1.570796326794896
 40
0.2617993877991494
 40
1.308996938995747
 40
-0.2617993877991494
 40
1.832595714594046
  0
TABLESTYLE
  5
65
102
{ACAD_XDICTIONARY
360
1C8
102
}
102
{ACAD_REACTORS
330
64
102
}
330
64
100
AcDbTableStyle
280
     0
  3
Standard
 70
     0
 71
     0
 40
0.06
 41
0.06
280
     0
281
     0
  7
Standard
140
0.18
170
     2
 62
     0
 63
     7
283
     0
 90
      512
 91
        0
  1

274
    -2
284
     1
 64
     0
275
    -2
285
     1
 65
     0
276
    -2
286
     1
 66
     0
277
    -2
287
     1
 67
     0
278
    -2
288
     1
 68
     0
279
    -2
289
     1
 69
     0
  7
Standard
140
0.25
170
     5
 62
     0
 63
     7
283
     0
 90
      512
 91
        0
  1

274
    -2
284
     1
 64
     0
275
    -2
285
     1
 65
     0
276
    -2
286
     1
 66
     0
277
    -2
287
     1
 67
     0
278
    -2
288
     1
 68
     0
279
    -2
289
     1
 69
     0
  7
Standard
140
0.18
170
     5
 62
     0
 63
     7
283
     0
 90
      512
 91
        0
  1

274
    -2
284
     1
 64
     0
275
    -2
285
     1
 65
     0
276
    -2
286
     1
 66
     0
277
    -2
287
     1
 67
     0
278
    -2
288
     1
 68
     0
279
    -2
289
     1
 69
     0
  0
VISUALSTYLE
  5
2F
102
{ACAD_REACTORS
330
29
102
}
330
29
100
AcDbVisualStyle
  2
2dWireframe
 70
     4
177
     3
291
     0
 70
    58
 90
        0
176
     1
 90
        2
176
     1
 90
        0
176
     1
 90
        0
176
     1
 40
0.6
176
     1
 40
30.0
176
     1
 62
     7
420
 16777215
176
     1
 90
        1
176
     1
 90
        4
176
     1
 62
     7
176
     1
 62
   257
176
     1
 90
        1
176
     1
 90
        1
176
     1
 40
1.0
176
     1
 90
        0
176
     1
 62
   257
176
     1
 40
1.0
176
     1
 90
        1
176
     1
 90
        6
176
     1
 90
        2
176
     1
 62
     7
176
     1
 90
        5
176
     1
 90
        0
176
     1
 90
        0
176
     1
290
     0
176
     1
 90
        1
176
     1
 40
0.0
176
     1
 90
        0
176
     1
290
     1
176
     1
290
     1
176
     1
290
     0
176
     1
290
     0
176
     1
290
     0
176
     1
290
     0
176
     1
290
     0
176
     1
290
     0
176
     1
290
     0
176
     1
 90
       50
176
     1
 40
0.0
176
     1
 40
1.0
176
     1
 90
        0
176
     1
 62
    18
420
        0
176
     1
 90
       50
176
     1
 90
        3
176
     1
 62
     5
420
      255
176
     1
290
     0
176
     1
 90
       50
176
     1
 90
       50
176
     1
 90
       50
176
     1
290
     0
176
     1
 90
       50
176
     1
 62
   256
176
     0
 40
1.0
176
     0
 90
        2
176
     1
  1
strokes_ogs.tif
176
     1
290
     0
176
     1
 40
1.0
176
     1
 40
1.0
176
     1
  0
VISUALSTYLE
  5
2E
102
{ACAD_REACTORS
330
29
102
}
330
29
100
AcDbVisualStyle
  2
Basic
 70
     7
177
     3
291
     1
 70
    58
 90
        1
176
     1
 90
        0
176
     1
 90
        1
176
     1
 90
        0
176
     1
 40
0.6
176
     1
 40
30.0
176
     1
 62
     7
420
 16777215
176
     1
 90
        0
176
     1
 90
        4
176
     1
 62
     7
176
     1
 62
   257
176
     1
 90
        1
176
     1
 90
        1
176
     1
 40
1.0
176
     1
 90
        8
176
     1
 62
     7
176
     1
 40
1.0
176
     1
 90
        1
176
     1
 90
        6
176
     1
 90
        2
176
     1
 62
     7
176
     1
 90
        5
176
     1
 90
        0
176
     1
 90
        0
176
     1
290
     0
176
     1
 90
        1
176
     1
 40
0.0
176
     1
 90
        0
176
     1
290
     0
176
     1
290
     1
176
     1
290
     1
176
     1
290
     0
176
     1
290
     0
176
     1
290
     0
176
     1
290
     0
176
     1
290
     0
176
     1
290
     0
176
     1
 90
       50
176
     1
 40
0.0
176
     1
 40
1.0
176
     1
 90
        0
176
     1
 62
    18
420
        0
176
     1
 90
       50
176
     1
 90
        3
176
     1
 62
     5
420
      255
176
     1
290
     0
176
     1
 90
       50
176
     1
 90
       50
176
     1
 90
       50
176
     1
290
     0
176
     1
 90
       50
176
     1
 62
   256
176
     0
 40
1.0
176
     0
 90
        2
176
     1
  1
strokes_ogs.tif
176
     1
290
     0
176
     1
 40
1.0
176
     1
 40
1.0
176
     1
  0
VISUALSTYLE
  5
35
102
{ACAD_REACTORS
330
29
102
}
330
29
100
AcDbVisualStyle
  2
Brighten
 70
    12
177
     3
291
     1
 70
    58
 90
        2
176
     1
 90
        2
176
     1
 90
        0
176
     1
 90
        0
176
     1
 40
0.6
176
     1
 40
30.0
176
     1
 62
     7
420
 16777215
176
     1
 90
        1
176
     1
 90
        4
176
     1
 62
     7
176
     1
 62
   257
176
     1
 90
        1
176
     1
 90
        1
176
     1
 40
1.0
176
     1
 90
        8
176
     1
 62
     7
176
     1
 40
1.0
176
     1
 90
        1
176
     1
 90
        6
176
     1
 90
        2
176
     1
 62
     7
176
     1
 90
        5
176
     1
 90
        0
176
     1
 90
        0
176
     1
290
     0
176
     1
 90
        1
176
     1
 40
50.0
176
     1
 90
        0
176
     1
290
     0
176
     1
290
     1
176
     1
290
     1
176
     1
290
     0
176
     1
290
     0
176
     1
290
     0
176
     1
290
     0
176
     1
290
     0
176
     1
290
     0
176
     1
 90
       50
176
     1
 40
0.0
176
     1
 40
1.0
176
     1
 90
        0
176
     1
 62
    18
420
        0
176
     1
 90
       50
176
     1
 90
        3
176
     1
 62
     5
420
      255
176
     1
290
     0
176
     1
 90
       50
176
     1
 90
       50
176
     1
 90
       50
176
     1
290
     0
176
     1
 90
       50
176
     1
 62
   256
176
     0
 40
1.0
176
     0
 90
        2
176
     1
  1
strokes_ogs.tif
176
     1
290
     0
176
     1
 40
1.0
176
     1
 40
1.0
176
     1
  0
VISUALSTYLE
  5
39
102
{ACAD_REACTORS
330
29
102
}
330
29
100
AcDbVisualStyle
  2
ColorChange
 70
    16
177
     3
291
     1
 70
    58
 90
        2
176
     1
 90
        2
176
     1
 90
        3
176
     1
 90
        0
176
     1
 40
0.6
176
     1
 40
30.0
176
     1
 62
     8
420
  8421504
176
     1
 90
        1
176
     1
 90
        4
176
     1
 62
     7
176
     1
 62
   257
176
     1
 90
        1
176
     1
 90
        1
176
     1
 40
1.0
176
     1
 90
        8
176
     1
 62
     8
420
  8421504
176
     1
 40
1.0
176
     1
 90
        1
176
     1
 90
        6
176
     1
 90
        2
176
     1
 62
     7
176
     1
 90
        5
176
     1
 90
        0
176
     1
 90
        0
176
     1
290
     0
176
     1
 90
        1
176
     1
 40
0.0
176
     1
 90
        0
176
     1
290
     0
176
     1
290
     1
176
     1
290
     1
176
     1
290
     0
176
     1
290
     0
176
     1
290
     0
176
     1
290
     0
176
     1
290
     0
176
     1
290
     0
176
     1
 90
       50
176
     1
 40
0.0
176
     1
 40
1.0
176
     1
 90
        0
176
     1
 62
    18
420
        0
176
     1
 90
       50
176
     1
 90
        3
176
     1
 62
     5
420
      255
176
     1
290
     0
176
     1
 90
       50
176
     1
 90
       50
176
     1
 90
       50
176
     1
290
     0
176
     1
 90
       50
176
     1
 62
   256
176
     0
 40
1.0
176
     0
 90
        2
176
     1
  1
strokes_ogs.tif
176
     1
290
     0
176
     1
 40
1.0
176
     1
 40
1.0
176
     1
  0
VISUALSTYLE
  5
32
102
{ACAD_REACTORS
330
29
102
}
330
29
100
AcDbVisualStyle
  2
Conceptual
 70
     9
177
     3
291
     0
 70
    58
 90
        3
176
     1
 90
        2
176
     1
 90
        0
176
     1
 90
        0
176
     1
 40
0.6
176
     1
 40
30.0
176
     1
 62
     7
420
 16777215
176
     1
 90
        2
176
     1
 90
        2
176
     1
 62
     7
176
     1
 62
   257
176
     1
 90
        1
176
     1
 90
        1
176
     1
 40
179.0
176
     1
 90
        8
176
     1
 62
     7
176
     1
 40
1.0
176
     1
 90
        1
176
     1
 90
        6
176
     1
 90
        2
176
     1
 62
     7
176
     1
 90
        3
176
     1
 90
        0
176
     1
 90
        0
176
     1
290
     0
176
     1
 90
        1
176
     1
 40
0.0
176
     1
 90
        0
176
     1
290
     0
176
     1
290
     1
176
     1
290
     1
176
     1
290
     0
176
     1
290
     0
176
     1
290
     0
176
     1
290
     0
176
     1
290
     0
176
     1
290
     0
176
     1
 90
       50
176
     1
 40
0.0
176
     1
 40
1.0
176
     1
 90
        0
176
     1
 62
    18
420
        0
176
     1
 90
       50
176
     1
 90
        3
176
     1
 62
     5
420
      255
176
     1
290
     0
176
     1
 90
       50
176
     1
 90
       50
176
     1
 90
       50
176
     1
290
     0
176
     1
 90
       50
176
     1
 62
   256
176
     0
 40
1.0
176
     0
 90
        2
176
     1
  1
strokes_ogs.tif
176
     1
290
     0
176
     1
 40
1.0
176
     1
 40
1.0
176
     1
  0
VISUALSTYLE
  5
34
102
{ACAD_REACTORS
330
29
102
}
330
29
100
AcDbVisualStyle
  2
Dim
 70
    11
177
     3
291
     1
 70
    58
 90
        2
176
     1
 90
        2
176
     1
 90
        0
176
     1
 90
        0
176
     1
 40
0.6
176
     1
 40
30.0
176
     1
 62
     7
420
 16777215
176
     1
 90
        1
176
     1
 90
        4
176
     1
 62
     7
176
     1
 62
   257
176
     1
 90
        1
176
     1
 90
        1
176
     1
 40
1.0
176
     1
 90
        8
176
     1
 62
     7
176
     1
 40
1.0
176
     1
 90
        1
176
     1
 90
        6
176
     1
 90
        2
176
     1
 62
     7
176
     1
 90
        5
176
     1
 90
        0
176
     1
 90
        0
176
     1
290
     0
176
     1
 90
        1
176
     1
 40
-50.0
176
     1
 90
        0
176
     1
290
     0
176
     1
290
     1
176
     1
290
     1
176
     1
290
     0
176
     1
290
     0
176
     1
290
     0
176
     1
290
     0
176
     1
290
     0
176
     1
290
     0
176
     1
 90
       50
176
     1
 40
0.0
176
     1
 40
1.0
176
     1
 90
        0
176
     1
 62
    18
420
        0
176
     1
 90
       50
176
     1
 90
        3
176
     1
 62
     5
420
      255
176
     1
290
     0
176
     1
 90
       50
176
     1
 90
       50
176
     1
 90
       50
176
     1
290
     0
176
     1
 90
       50
176
     1
 62
   256
176
     0
 40
1.0
176
     0
 90
        2
176
     1
  1
strokes_ogs.tif
176
     1
290
     0
176
     1
 40
1.0
176
     1
 40
1.0
176
     1
  0
VISUALSTYLE
  5
41
102
{ACAD_REACTORS
330
29
102
}
330
29
100
AcDbVisualStyle
  2
EdgeColorOff
 70
    22
177
     3
291
     1
 70
    58
 90
        2
176
     0
 90
        2
176
     0
 90
        0
176
     0
 90
        0
176
     0
 40
0.6
176
     0
 40
30.0
176
     0
 62
     7
420
 16777215
176
     0
 90
        1
176
     0
 90
        4
176
     0
 62
     7
176
     0
 62
   257
176
     0
 90
        1
176
     0
 90
        1
176
     0
 40
1.0
176
     0
 90
        8
176
     2
 62
     7
176
     0
 40
1.0
176
     0
 90
        1
176
     0
 90
        6
176
     0
 90
        2
176
     0
 62
     7
176
     0
 90
        5
176
     0
 90
        0
176
     0
 90
        0
176
     0
290
     0
176
     0
 90
        1
176
     0
 40
0.0
176
     0
 90
        0
176
     0
290
     0
176
     0
290
     1
176
     0
290
     1
176
     0
290
     0
176
     0
290
     0
176
     0
290
     0
176
     0
290
     0
176
     0
290
     0
176
     0
290
     0
176
     0
 90
       50
176
     0
 40
0.0
176
     0
 40
1.0
176
     0
 90
        0
176
     0
 62
    18
420
        0
176
     0
 90
       50
176
     0
 90
        3
176
     0
 62
     5
420
      255
176
     0
290
     0
176
     0
 90
       50
176
     0
 90
       50
176
     0
 90
       50
176
     0
290
     0
176
     0
 90
       50
176
     0
 62
   256
176
     0
 40
1.0
176
     0
 90
        2
176
     0
  1
strokes_ogs.tif
176
     0
290
     0
176
     0
 40
1.0
176
     0
 40
1.0
176
     0
  0
VISUALSTYLE
  5
38
102
{ACAD_REACTORS
330
29
102
}
330
29
100
AcDbVisualStyle
  2
Facepattern
 70
    15
177
     3
291
     1
 70
    58
 90
        2
176
     1
 90
        2
176
     1
 90
        0
176
     1
 90
        0
176
     1
 40
0.6
176
     1
 40
30.0
176
     1
 62
     7
420
 16777215
176
     1
 90
        1
176
     1
 90
        4
176
     1
 62
     7
176
     1
 62
   257
176
     1
 90
        1
176
     1
 90
        1
176
     1
 40
1.0
176
     1
 90
        8
176
     1
 62
     7
176
     1
 40
1.0
176
     1
 90
        1
176
     1
 90
        6
176
     1
 90
        2
176
     1
 62
     7
176
     1
 90
        5
176
     1
 90
        0
176
     1
 90
        0
176
     1
290
     0
176
     1
 90
        1
176
     1
 40
0.0
176
     1
 90
        0
176
     1
290
     0
176
     1
290
     1
176
     1
290
     1
176
     1
290
     0
176
     1
290
     0
176
     1
290
     0
176
     1
290
     0
176
     1
290
     0
176
     1
290
     0
176
     1
 90
       50
176
     1
 40
0.0
176
     1
 40
1.0
176
     1
 90
        0
176
     1
 62
    18
420
        0
176
     1
 90
       50
176
     1
 90
        3
176
     1
 62
     5
420
      255
176
     1
290
     0
176
     1
 90
       50
176
     1
 90
       50
176
     1
 90
       50
176
     1
290
     0
176
     1
 90
       50
176
     1
 62
   256
176
     0
 40
1.0
176
     0
 90
        2
176
     1
  1
strokes_ogs.tif
176
     1
290
     0
176
     1
 40
1.0
176
     1
 40
1.0
176
     1
  0
VISUALSTYLE
  5
2A
102
{ACAD_REACTORS
330
29
102
}
330
29
100
AcDbVisualStyle
  2
Flat
 70
     0
177
     3
291
     1
 70
    58
 90
        2
176
     1
 90
        1
176
     1
 90
        1
176
     1
 90
        2
176
     1
 40
0.6
176
     1
 40
30.0
176
     1
 62
     7
420
 16777215
176
     1
 90
        0
176
     1
 90
        0
176
     1
 62
     7
176
     1
 62
   257
176
     1
 90
        1
176
     1
 90
        1
176
     1
 40
1.0
176
     1
 90
        8
176
     1
 62
     7
176
     1
 40
1.0
176
     1
 90
        1
176
     1
 90
        6
176
     1
 90
        2
176
     1
 62
     7
176
     1
 90
        5
176
     1
 90
        0
176
     1
 90
        0
176
     1
290
     0
176
     1
 90
       13
176
     1
 40
0.0
176
     1
 90
        0
176
     1
290
     0
176
     1
290
     1
176
     1
290
     1
176
     1
290
     0
176
     1
290
     0
176
     1
290
     0
176
     1
290
     0
176
     1
290
     0
176
     1
290
     0
176
     1
 90
       50
176
     1
 40
0.0
176
     1
 40
1.0
176
     1
 90
        0
176
     1
 62
    18
420
        0
176
     1
 90
       50
176
     1
 90
        3
176
     1
 62
     5
420
      255
176
     1
290
     0
176
     1
 90
       50
176
     1
 90
       50
176
     1
 90
       50
176
     1
290
     0
176
     1
 90
       50
176
     1
 62
   256
176
     0
 40
1.0
176
     0
 90
        2
176
     1
  1
strokes_ogs.tif
176
     1
290
     0
176
     1
 40
1.0
176
     1
 40
1.0
176
     1
  0
VISUALSTYLE
  5
2B
102
{ACAD_REACTORS
330
29
102
}
330
29
100
AcDbVisualStyle
  2
FlatWithEdges
 70
     1
177
     3
291
     1
 70
    58
 90
        2
176
     1
 90
        1
176
     1
 90
        1
176
     1
 90
        2
176
     1
 40
0.6
176
     1
 40
30.0
176
     1
 62
     7
420
 16777215
176
     1
 90
        1
176
     1
 90
        0
176
     1
 62
     7
176
     1
 62
   257
176
     1
 90
        1
176
     1
 90
        1
176
     1
 40
1.0
176
     1
 90
        0
176
     1
 62
   257
176
     1
 40
1.0
176
     1
 90
        1
176
     1
 90
        6
176
     1
 90
        2
176
     1
 62
     7
176
     1
 90
        5
176
     1
 90
        0
176
     1
 90
        0
176
     1
290
     0
176
     1
 90
       13
176
     1
 40
0.0
176
     1
 90
        0
176
     1
290
     0
176
     1
290
     1
176
     1
290
     1
176
     1
290
     0
176
     1
290
     0
176
     1
290
     0
176
     1
290
     0
176
     1
290
     0
176
     1
290
     0
176
     1
 90
       50
176
     1
 40
0.0
176
     1
 40
1.0
176
     1
 90
        0
176
     1
 62
    18
420
        0
176
     1
 90
       50
176
     1
 90
        3
176
     1
 62
     5
420
      255
176
     1
290
     0
176
     1
 90
       50
176
     1
 90
       50
176
     1
 90
       50
176
     1
290
     0
176
     1
 90
       50
176
     1
 62
   256
176
     0
 40
1.0
176
     0
 90
        2
176
     1
  1
strokes_ogs.tif
176
     1
290
     0
176
     1
 40
1.0
176
     1
 40
1.0
176
     1
  0
VISUALSTYLE
  5
2C
102
{ACAD_REACTORS
330
29
102
}
330
29
100
AcDbVisualStyle
  2
Gouraud
 70
     2
177
     3
291
     1
 70
    58
 90
        2
176
     1
 90
        2
176
     1
 90
        1
176
     1
 90
        2
176
     1
 40
0.6
176
     1
 40
30.0
176
     1
 62
     7
420
 16777215
176
     1
 90
        0
176
     1
 90
        0
176
     1
 62
     7
176
     1
 62
   257
176
     1
 90
        1
176
     1
 90
        1
176
     1
 40
1.0
176
     1
 90
        0
176
     1
 62
     7
176
     1
 40
1.0
176
     1
 90
        1
176
     1
 90
        6
176
     1
 90
        2
176
     1
 62
     7
176
     1
 90
        5
176
     1
 90
        0
176
     1
 90
        0
176
     1
290
     0
176
     1
 90
       13
176
     1
 40
0.0
176
     1
 90
        0
176
     1
290
     0
176
     1
290
     1
176
     1
290
     1
176
     1
290
     0
176
     1
290
     0
176
     1
290
     0
176
     1
290
     0
176
     1
290
     0
176
     1
290
     0
176
     1
 90
       50
176
     1
 40
0.0
176
     1
 40
1.0
176
     1
 90
        0
176
     1
 62
    18
420
        0
176
     1
 90
       50
176
     1
 90
        3
176
     1
 62
     5
420
      255
176
     1
290
     0
176
     1
 90
       50
176
     1
 90
       50
176
     1
 90
       50
176
     1
290
     0
176
     1
 90
       50
176
     1
 62
   256
176
     0
 40
1.0
176
     0
 90
        2
176
     1
  1
strokes_ogs.tif
176
     1
290
     0
176
     1
 40
1.0
176
     1
 40
1.0
176
     1
  0
VISUALSTYLE
  5
2D
102
{ACAD_REACTORS
330
29
102
}
330
29
100
AcDbVisualStyle
  2
GouraudWithEdges
 70
     3
177
     3
291
     1
 70
    58
 90
        2
176
     1
 90
        2
176
     1
 90
        1
176
     1
 90
        2
176
     1
 40
0.6
176
     1
 40
30.0
176
     1
 62
     7
420
 16777215
176
     1
 90
        1
176
     1
 90
        0
176
     1
 62
     7
176
     1
 62
   257
176
     1
 90
        1
176
     1
 90
        1
176
     1
 40
1.0
176
     1
 90
        0
176
     1
 62
   257
176
     1
 40
1.0
176
     1
 90
        1
176
     1
 90
        6
176
     1
 90
        2
176
     1
 62
     7
176
     1
 90
        5
176
     1
 90
        0
176
     1
 90
        0
176
     1
290
     0
176
     1
 90
       13
176
     1
 40
0.0
176
     1
 90
        0
176
     1
290
     0
176
     1
290
     1
176
     1
290
     1
176
     1
290
     0
176
     1
290
     0
176
     1
290
     0
176
     1
290
     0
176
     1
290
     0
176
     1
290
     0
176
     1
 90
       50
176
     1
 40
0.0
176
     1
 40
1.0
176
     1
 90
        0
176
     1
 62
    18
420
        0
176
     1
 90
       50
176
     1
 90
        3
176
     1
 62
     5
420
      255
176
     1
290
     0
176
     1
 90
       50
176
     1
 90
       50
176
     1
 90
       50
176
     1
290
     0
176
     1
 90
       50
176
     1
 62
   256
176
     0
 40
1.0
176
     0
 90
        2
176
     1
  1
strokes_ogs.tif
176
     1
290
     0
176
     1
 40
1.0
176
     1
 40
1.0
176
     1
  0
VISUALSTYLE
  5
31
102
{ACAD_REACTORS
330
29
102
}
330
29
100
AcDbVisualStyle
  2
Hidden
 70
     6
177
     3
291
     0
 70
    58
 90
        1
176
     1
 90
        2
176
     1
 90
        2
176
     1
 90
        0
176
     1
 40
0.6
176
     1
 40
30.0
176
     1
 62
     7
420
 16777215
176
     1
 90
        2
176
     1
 90
        2
176
     1
 62
     7
176
     1
 62
   257
176
     1
 90
        2
176
     1
 90
        1
176
     1
 40
40.0
176
     1
 90
        0
176
     1
 62
   257
176
     1
 40
1.0
176
     1
 90
        1
176
     1
 90
        6
176
     1
 90
        2
176
     1
 62
     7
176
     1
 90
        3
176
     1
 90
        0
176
     1
 90
        0
176
     1
290
     0
176
     1
 90
        1
176
     1
 40
0.0
176
     1
 90
        0
176
     1
290
     0
176
     1
290
     1
176
     1
290
     1
176
     1
290
     0
176
     1
290
     0
176
     1
290
     0
176
     1
290
     0
176
     1
290
     0
176
     1
290
     0
176
     1
 90
       50
176
     1
 40
0.0
176
     1
 40
1.0
176
     1
 90
        0
176
     1
 62
    18
420
        0
176
     1
 90
       50
176
     1
 90
        3
176
     1
 62
     5
420
      255
176
     1
290
     0
176
     1
 90
       50
176
     1
 90
       50
176
     1
 90
       50
176
     1
290
     0
176
     1
 90
       50
176
     1
 62
   256
176
     0
 40
1.0
176
     0
 90
        2
176
     1
  1
strokes_ogs.tif
176
     1
290
     0
176
     1
 40
1.0
176
     1
 40
1.0
176
     1
  0
VISUALSTYLE
  5
3F
102
{ACAD_REACTORS
330
29
102
}
330
29
100
AcDbVisualStyle
  2
JitterOff
 70
    20
177
     3
291
     1
 70
    58
 90
        2
176
     0
 90
        2
176
     0
 90
        0
176
     0
 90
        0
176
     0
 40
0.6
176
     0
 40
30.0
176
     0
 62
     7
420
 16777215
176
     0
 90
        1
176
     0
 90
        4
176
     0
 62
     7
176
     0
 62
   257
176
     0
 90
        1
176
     0
 90
        1
176
     0
 40
1.0
176
     0
 90
       10
176
     2
 62
     7
176
     0
 40
1.0
176
     0
 90
        1
176
     0
 90
        6
176
     0
 90
        2
176
     0
 62
     7
176
     0
 90
        5
176
     0
 90
        0
176
     0
 90
        0
176
     0
290
     0
176
     0
 90
        1
176
     0
 40
0.0
176
     0
 90
        0
176
     0
290
     0
176
     0
290
     1
176
     0
290
     1
176
     0
290
     0
176
     0
290
     0
176
     0
290
     0
176
     0
290
     0
176
     0
290
     0
176
     0
290
     0
176
     0
 90
       50
176
     0
 40
0.0
176
     0
 40
1.0
176
     0
 90
        0
176
     0
 62
    18
420
        0
176
     0
 90
       50
176
     0
 90
        3
176
     0
 62
     5
420
      255
176
     0
290
     0
176
     0
 90
       50
176
     0
 90
       50
176
     0
 90
       50
176
     0
290
     0
176
     0
 90
       50
176
     0
 62
   256
176
     0
 40
1.0
176
     0
 90
        2
176
     0
  1
strokes_ogs.tif
176
     0
290
     0
176
     0
 40
1.0
176
     0
 40
1.0
176
     0
  0
VISUALSTYLE
  5
37
102
{ACAD_REACTORS
330
29
102
}
330
29
100
AcDbVisualStyle
  2
Linepattern
 70
    14
177
     3
291
     1
 70
    58
 90
        2
176
     1
 90
        2
176
     1
 90
        0
176
     1
 90
        0
176
     1
 40
0.6
176
     1
 40
30.0
176
     1
 62
     7
420
 16777215
176
     1
 90
        1
176
     1
 90
        4
176
     1
 62
     7
176
     1
 62
   257
176
     1
 90
        7
176
     1
 90
        7
176
     1
 40
1.0
176
     1
 90
        8
176
     1
 62
     7
176
     1
 40
1.0
176
     1
 90
        1
176
     1
 90
        6
176
     1
 90
        2
176
     1
 62
     7
176
     1
 90
        5
176
     1
 90
        0
176
     1
 90
        0
176
     1
290
     0
176
     1
 90
        1
176
     1
 40
0.0
176
     1
 90
        0
176
     1
290
     0
176
     1
290
     1
176
     1
290
     1
176
     1
290
     0
176
     1
290
     0
176
     1
290
     0
176
     1
290
     0
176
     1
290
     0
176
     1
290
     0
176
     1
 90
       50
176
     1
 40
0.0
176
     1
 40
1.0
176
     1
 90
        0
176
     1
 62
    18
420
        0
176
     1
 90
       50
176
     1
 90
        3
176
     1
 62
     5
420
      255
176
     1
290
     0
176
     1
 90
       50
176
     1
 90
       50
176
     1
 90
       50
176
     1
290
     0
176
     1
 90
       50
176
     1
 62
   256
176
     0
 40
1.0
176
     0
 90
        2
176
     1
  1
strokes_ogs.tif
176
     1
290
     0
176
     1
 40
1.0
176
     1
 40
1.0
176
     1
  0
VISUALSTYLE
  5
40
102
{ACAD_REACTORS
330
29
102
}
330
29
100
AcDbVisualStyle
  2
OverhangOff
 70
    21
177
     3
291
     1
 70
    58
 90
        2
176
     0
 90
        2
176
     0
 90
        0
176
     0
 90
        0
176
     0
 40
0.6
176
     0
 40
30.0
176
     0
 62
     7
420
 16777215
176
     0
 90
        1
176
     0
 90
        4
176
     0
 62
     7
176
     0
 62
   257
176
     0
 90
        1
176
     0
 90
        1
176
     0
 40
1.0
176
     0
 90
        9
176
     2
 62
     7
176
     0
 40
1.0
176
     0
 90
        1
176
     0
 90
        6
176
     0
 90
        2
176
     0
 62
     7
176
     0
 90
        5
176
     0
 90
        0
176
     0
 90
        0
176
     0
290
     0
176
     0
 90
        1
176
     0
 40
0.0
176
     0
 90
        0
176
     0
290
     0
176
     0
290
     1
176
     0
290
     1
176
     0
290
     0
176
     0
290
     0
176
     0
290
     0
176
     0
290
     0
176
     0
290
     0
176
     0
290
     0
176
     0
 90
       50
176
     0
 40
0.0
176
     0
 40
1.0
176
     0
 90
        0
176
     0
 62
    18
420
        0
176
     0
 90
       50
176
     0
 90
        3
176
     0
 62
     5
420
      255
176
     0
290
     0
176
     0
 90
       50
176
     0
 90
       50
176
     0
 90
       50
176
     0
290
     0
176
     0
 90
       50
176
     0
 62
   256
176
     0
 40
1.0
176
     0
 90
        2
176
     0
  1
strokes_ogs.tif
176
     0
290
     0
176
     0
 40
1.0
176
     0
 40
1.0
176
     0
  0
VISUALSTYLE
  5
33
102
{ACAD_REACTORS
330
29
102
}
330
29
100
AcDbVisualStyle
  2
Realistic
 70
     8
177
     3
291
     0
 70
    58
 90
        2
176
     1
 90
        3
176
     1
 90
        0
176
     1
 90
        2
176
     1
 40
0.6
176
     1
 40
30.0
176
     1
 62
     7
420
 16777215
176
     1
 90
        0
176
     1
 90
        0
176
     1
 62
     7
176
     1
 62
   257
176
     1
 90
        1
176
     1
 90
        1
176
     1
 40
1.0
176
     1
 90
        8
176
     1
 62
   257
176
     1
 40
1.0
176
     1
 90
        1
176
     1
 90
        6
176
     1
 90
        2
176
     1
 62
     7
176
     1
 90
        3
176
     1
 90
        0
176
     1
 90
        0
176
     1
290
     0
176
     1
 90
       13
176
     1
 40
0.0
176
     1
 90
        0
176
     1
290
     0
176
     1
290
     1
176
     1
290
     1
176
     1
290
     0
176
     1
290
     0
176
     1
290
     0
176
     1
290
     0
176
     1
290
     0
176
     1
290
     0
176
     1
 90
       50
176
     1
 40
0.0
176
     1
 40
1.0
176
     1
 90
        0
176
     1
 62
    18
420
        0
176
     1
 90
       50
176
     1
 90
        3
176
     1
 62
     5
420
      255
176
     1
290
     0
176
     1
 90
       50
176
     1
 90
       50
176
     1
 90
       50
176
     1
290
     0
176
     1
 90
       50
176
     1
 62
   256
176
     0
 40
1.0
176
     0
 90
        2
176
     1
  1
strokes_ogs.tif
176
     1
290
     0
176
     1
 40
1.0
176
     1
 40
1.0
176
     1
  0
VISUALSTYLE
  5
3E
102
{ACAD_REACTORS
330
29
102
}
330
29
100
AcDbVisualStyle
  2
Shaded
 70
    27
177
     3
291
     0
 70
    58
 90
        2
176
     1
 90
        2
176
     1
 90
        1
176
     1
 90
        2
176
     1
 40
0.6
176
     1
 40
30.0
176
     1
 62
     7
420
 16777215
176
     1
 90
        0
176
     1
 90
        4
176
     1
 62
     7
176
     1
 62
   257
176
     1
 90
        1
176
     1
 90
        1
176
     1
 40
1.0
176
     1
 90
        8
176
     1
 62
   257
176
     1
 40
1.0
176
     1
 90
        1
176
     1
 90
        6
176
     1
 90
        2
176
     1
 62
     8
420
  7895160
176
     1
 90
        3
176
     1
 90
        0
176
     1
 90
        0
176
     1
290
     0
176
     1
 90
        5
176
     1
 40
0.0
176
     1
 90
        0
176
     1
290
     0
176
     1
290
     1
176
     1
290
     1
176
     1
290
     0
176
     1
290
     0
176
     1
290
     0
176
     1
290
     0
176
     1
290
     0
176
     1
290
     0
176
     1
 90
       50
176
     1
 40
0.0
176
     1
 40
1.0
176
     1
 90
        0
176
     1
 62
    18
420
        0
176
     1
 90
       50
176
     1
 90
        3
176
     1
 62
     5
420
      255
176
     1
290
     0
176
     1
 90
       50
176
     1
 90
       50
176
     1
 90
       50
176
     1
290
     0
176
     1
 90
       50
176
     1
 62
   256
176
     0
 40
1.0
176
     0
 90
        2
176
     1
  1
strokes_ogs.tif
176
     1
290
     0
176
     1
 40
1.0
176
     1
 40
1.0
176
     1
  0
VISUALSTYLE
  5
3D
102
{ACAD_REACTORS
330
29
102
}
330
29
100
AcDbVisualStyle
  2
Shaded with edges
 70
    26
177
     3
291
     0
 70
    58
 90
        2
176
     1
 90
        2
176
     1
 90
        1
176
     1
 90
        2
176
     1
 40
0.6
176
     1
 40
30.0
176
     1
 62
     7
420
 16777215
176
     1
 90
        1
176
     1
 90
        2
176
     1
 62
     7
176
     1
 62
   257
176
     1
 90
        2
176
     1
 90
        1
176
     1
 40
1.0
176
     1
 90
        8
176
     1
 62
   257
176
     1
 40
1.0
176
     1
 90
        1
176
     1
 90
        6
176
     1
 90
        2
176
     1
 62
     7
176
     1
 90
        3
176
     1
 90
        0
176
     1
 90
        0
176
     1
290
     0
176
     1
 90
        5
176
     1
 40
0.0
176
     1
 90
        0
176
     1
290
     0
176
     1
290
     1
176
     1
290
     1
176
     1
290
     0
176
     1
290
     0
176
     1
290
     0
176
     1
290
     0
176
     1
290
     0
176
     1
290
     0
176
     1
 90
       50
176
     1
 40
0.0
176
     1
 40
1.0
176
     1
 90
        0
176
     1
 62
    18
420
        0
176
     1
 90
       50
176
     1
 90
        3
176
     1
 62
     5
420
      255
176
     1
290
     0
176
     1
 90
       50
176
     1
 90
       50
176
     1
 90
       50
176
     1
290
     0
176
     1
 90
       50
176
     1
 62
   256
176
     0
 40
1.0
176
     0
 90
        2
176
     1
  1
strokes_ogs.tif
176
     1
290
     0
176
     1
 40
1.0
176
     1
 40
1.0
176
     1
  0
VISUALSTYLE
  5
3A
102
{ACAD_REACTORS
330
29
102
}
330
29
100
AcDbVisualStyle
  2
Shades of Gray
 70
    23
177
     3
291
     0
 70
    58
 90
        2
176
     1
 90
        2
176
     1
 90
        3
176
     1
 90
        0
176
     1
 40
0.6
176
     1
 40
30.0
176
     1
 62
     7
420
 16777215
176
     1
 90
        2
176
     1
 90
        2
176
     1
 62
     7
176
     1
 62
     7
176
     1
 90
        1
176
     1
 90
        1
176
     1
 40
40.0
176
     1
 90
        8
176
     1
 62
     7
176
     1
 40
1.0
176
     1
 90
        1
176
     1
 90
        6
176
     1
 90
        2
176
     1
 62
     7
176
     1
 90
        3
176
     1
 90
        0
176
     1
 90
        0
176
     1
290
     0
176
     1
 90
        1
176
     1
 40
0.0
176
     1
 90
        0
176
     1
290
     0
176
     1
290
     1
176
     1
290
     1
176
     1
290
     0
176
     1
290
     0
176
     1
290
     0
176
     1
290
     0
176
     1
290
     0
176
     1
290
     0
176
     1
 90
       50
176
     1
 40
0.0
176
     1
 40
1.0
176
     1
 90
        0
176
     1
 62
    18
420
        0
176
     1
 90
       50
176
     1
 90
        3
176
     1
 62
     5
420
      255
176
     1
290
     0
176
     1
 90
       50
176
     1
 90
       50
176
     1
 90
       50
176
     1
290
     0
176
     1
 90
       50
176
     1
 62
   256
176
     0
 40
1.0
176
     0
 90
        2
176
     1
  1
strokes_ogs.tif
176
     1
290
     0
176
     1
 40
1.0
176
     1
 40
1.0
176
     1
  0
VISUALSTYLE
  5
3B
102
{ACAD_REACTORS
330
29
102
}
330
29
100
AcDbVisualStyle
  2
Sketchy
 70
    24
177
     3
291
     0
 70
    58
 90
        1
176
     1
 90
        2
176
     1
 90
        2
176
     1
 90
        0
176
     1
 40
0.6
176
     1
 40
30.0
176
     1
 62
     7
420
 16777215
176
     1
 90
        2
176
     1
 90
        2
176
     1
 62
     7
176
     1
 62
     7
176
     1
 90
        1
176
     1
 90
        1
176
     1
 40
40.0
176
     1
 90
       11
176
     1
 62
     7
176
     1
 40
1.0
176
     1
 90
        1
176
     1
 90
        6
176
     1
 90
        2
176
     1
 62
     7
176
     1
 90
        6
176
     1
 90
        0
176
     1
 90
        0
176
     1
290
     0
176
     1
 90
        1
176
     1
 40
0.0
176
     1
 90
        0
176
     1
290
     0
176
     1
290
     1
176
     1
290
     1
176
     1
290
     0
176
     1
290
     0
176
     1
290
     0
176
     1
290
     0
176
     1
290
     0
176
     1
290
     0
176
     1
 90
       50
176
     1
 40
0.0
176
     1
 40
1.0
176
     1
 90
        0
176
     1
 62
    18
420
        0
176
     1
 90
       50
176
     1
 90
        3
176
     1
 62
     5
420
      255
176
     1
290
     0
176
     1
 90
       50
176
     1
 90
       50
176
     1
 90
       50
176
     1
290
     0
176
     1
 90
       50
176
     1
 62
   256
176
     0
 40
1.0
176
     0
 90
        2
176
     1
  1
strokes_ogs.tif
176
     1
290
     0
176
     1
 40
1.0
176
     1
 40
1.0
176
     1
  0
VISUALSTYLE
  5
36
102
{ACAD_REACTORS
330
29
102
}
330
29
100
AcDbVisualStyle
  2
Thicken
 70
    13
177
     3
291
     1
 70
    58
 90
        2
176
     1
 90
        2
176
     1
 90
        0
176
     1
 90
        0
176
     1
 40
0.6
176
     1
 40
30.0
176
     1
 62
     7
420
 16777215
176
     1
 90
        1
176
     1
 90
        4
176
     1
 62
     7
176
     1
 62
   257
176
     1
 90
        1
176
     1
 90
        1
176
     1
 40
1.0
176
     1
 90
       12
176
     1
 62
     7
176
     1
 40
1.0
176
     1
 90
        1
176
     1
 90
        6
176
     1
 90
        2
176
     1
 62
     7
176
     1
 90
        5
176
     1
 90
        0
176
     1
 90
        0
176
     1
290
     0
176
     1
 90
        1
176
     1
 40
0.0
176
     1
 90
        0
176
     1
290
     0
176
     1
290
     1
176
     1
290
     1
176
     1
290
     0
176
     1
290
     0
176
     1
290
     0
176
     1
290
     0
176
     1
290
     0
176
     1
290
     0
176
     1
 90
       50
176
     1
 40
0.0
176
     1
 40
1.0
176
     1
 90
        0
176
     1
 62
    18
420
        0
176
     1
 90
       50
176
     1
 90
        3
176
     1
 62
     5
420
      255
176
     1
290
     0
176
     1
 90
       50
176
     1
 90
       50
176
     1
 90
       50
176
     1
290
     0
176
     1
 90
       50
176
     1
 62
   256
176
     0
 40
1.0
176
     0
 90
        2
176
     1
  1
strokes_ogs.tif
176
     1
290
     0
176
     1
 40
1.0
176
     1
 40
1.0
176
     1
  0
VISUALSTYLE
  5
30
102
{ACAD_REACTORS
330
29
102
}
330
29
100
AcDbVisualStyle
  2
Wireframe
 70
     5
177
     3
291
     0
 70
    58
 90
        0
176
     1
 90
        2
176
     1
 90
        0
176
     1
 90
        0
176
     1
 40
0.6
176
     1
 40
30.0
176
     1
 62
     7
420
 16777215
176
     1
 90
        1
176
     1
 90
        4
176
     1
 62
     7
176
     1
 62
   257
176
     1
 90
        1
176
     1
 90
        1
176
     1
 40
1.0
176
     1
 90
        0
176
     1
 62
   257
176
     1
 40
1.0
176
     1
 90
        1
176
     1
 90
        6
176
     1
 90
        2
176
     1
 62
     7
176
     1
 90
        3
176
     1
 90
        0
176
     1
 90
        0
176
     1
290
     0
176
     1
 90
        1
176
     1
 40
0.0
176
     1
 90
        0
176
     1
290
     0
176
     1
290
     1
176
     1
290
     1
176
     1
290
     0
176
     1
290
     0
176
     1
290
     0
176
     1
290
     0
176
     1
290
     0
176
     1
290
     0
176
     1
 90
       50
176
     1
 40
0.0
176
     1
 40
1.0
176
     1
 90
        0
176
     1
 62
    18
420
        0
176
     1
 90
       50
176
     1
 90
        3
176
     1
 62
     5
420
      255
176
     1
290
     0
176
     1
 90
       50
176
     1
 90
       50
176
     1
 90
       50
176
     1
290
     0
176
     1
 90
       50
176
     1
 62
   256
176
     0
 40
1.0
176
     0
 90
        2
176
     1
  1
strokes_ogs.tif
176
     1
290
     0
176
     1
 40
1.0
176
     1
 40
1.0
176
     1
  0
VISUALSTYLE
  5
3C
102
{ACAD_REACTORS
330
29
102
}
330
29
100
AcDbVisualStyle
  2
X-Ray
 70
    25
177
     3
291
     0
 70
    58
 90
        2
176
     1
 90
        2
176
     1
 90
        1
176
     1
 90
        1
176
     1
 40
0.5
176
     1
 40
30.0
176
     1
 62
     7
420
 16777215
176
     1
 90
        1
176
     1
 90
        0
176
     1
 62
     7
176
     1
 62
   257
176
     1
 90
        1
176
     1
 90
        1
176
     1
 40
1.0
176
     1
 90
        8
176
     1
 62
     7
176
     1
 40
1.0
176
     1
 90
        1
176
     1
 90
        6
176
     1
 90
        2
176
     1
 62
     7
176
     1
 90
        3
176
     1
 90
        0
176
     1
 90
        0
176
     1
290
     0
176
     1
 90
       13
176
     1
 40
0.0
176
     1
 90
        0
176
     1
290
     0
176
     1
290
     1
176
     1
290
     1
176
     1
290
     0
176
     1
290
     0
176
     1
290
     0
176
     1
290
     0
176
     1
290
     0
176
     1
290
     0
176
     1
 90
       50
176
     1
 40
0.0
176
     1
 40
1.0
176
     1
 90
        0
176
     1
 62
    18
420
        0
176
     1
 90
       50
176
     1
 90
        3
176
     1
 62
     5
420
      255
176
     1
290
     0
176
     1
 90
       50
176
     1
 90
       50
176
     1
 90
       50
176
     1
290
     0
176
     1
 90
       50
176
     1
 62
   256
176
     0
 40
1.0
176
     0
 90
        2
176
     1
  1
strokes_ogs.tif
176
     1
290
     0
176
     1
 40
1.0
176
     1
 40
1.0
176
     1
  0
DICTIONARYVAR
  5
1C7
102
{ACAD_REACTORS
330
1C2
102
}
330
1C2
100
DictionaryVariables
280
     0
  1
1:1
  0
DICTIONARYVAR
  5
1C4
102
{ACAD_REACTORS
330
1C2
102
}
330
1C2
100
DictionaryVariables
280
     0
  1
STANDARD
  0
DICTIONARYVAR
  5
1C3
102
{ACAD_REACTORS
330
1C2
102
}
330
1C2
100
DictionaryVariables
280
     0
  1
STANDARD
  0
DICTIONARYVAR
  5
1C5
102
{ACAD_REACTORS
330
1C2
102
}
330
1C2
100
DictionaryVariables
280
     0
  1
Imperial24
  0
DICTIONARYVAR
  5
1C6
102
{ACAD_REACTORS
330
1C2
102
}
330
1C2
100
DictionaryVariables
280
     0
  1
Imperial24
  0
DICTIONARY
  5
1A
330
19
100
AcDbDictionary
280
     1
281
     1
  3
BUMPTILE
360
1C
  3
DIFFUSETILE
360
1B
  3
OPACITYTILE
360
1F
  3
REFLECTIONTILE
360
1E
  3
REFRACTIONTILE
360
20
  3
SPECULARTILE
360
1D
  0
DICTIONARY
  5
12
330
11
100
AcDbDictionary
280
     1
281
     1
  3
BUMPTILE
360
14
  3
DIFFUSETILE
360
13
  3
OPACITYTILE
360
17
  3
REFLECTIONTILE
360
16
  3
REFRACTIONTILE
360
18
  3
SPECULARTILE
360
15
  0
DICTIONARY
  5
22
330
21
100
AcDbDictionary
280
     1
281
     1
  3
BUMPTILE
360
24
  3
DIFFUSETILE
360
23
  3
OPACITYTILE
360
27
  3
REFLECTIONTILE
360
26
  3
REFRACTIONTILE
360
28
  3
SPECULARTILE
360
25
  0
DICTIONARY
  5
1C8
330
65
100
AcDbDictionary
280
     1
281
     1
  3
ACAD_ROUNDTRIP_2008_TABLESTYLE_CELLSTYLEMAP
360
1C9
  0
XRECORD
  5
1C
102
{ACAD_REACTORS
330
1A
102
}
330
1A
100
AcDbXrecord
280
     1
270
     1
271
     1
  0
XRECORD
  5
1B
102
{ACAD_REACTORS
330
1A
102
}
330
1A
100
AcDbXrecord
280
     1
270
     1
271
     1
  0
XRECORD
  5
1F
102
{ACAD_REACTORS
330
1A
102
}
330
1A
100
AcDbXrecord
280
     1
270
     1
271
     1
  0
XRECORD
  5
1E
102
{ACAD_REACTORS
330
1A
102
}
330
1A
100
AcDbXrecord
280
     1
270
     1
271
     1
  0
XRECORD
  5
20
102
{ACAD_REACTORS
330
1A
102
}
330
1A
100
AcDbXrecord
280
     1
270
     1
271
     1
  0
XRECORD
  5
1D
102
{ACAD_REACTORS
330
1A
102
}
330
1A
100
AcDbXrecord
280
     1
270
     1
271
     1
  0
XRECORD
  5
14
102
{ACAD_REACTORS
330
12
102
}
330
12
100
AcDbXrecord
280
     1
270
     1
271
     1
  0
XRECORD
  5
13
102
{ACAD_REACTORS
330
12
102
}
330
12
100
AcDbXrecord
280
     1
270
     1
271
     1
  0
XRECORD
  5
17
102
{ACAD_REACTORS
330
12
102
}
330
12
100
AcDbXrecord
280
     1
270
     1
271
     1
  0
XRECORD
  5
16
102
{ACAD_REACTORS
330
12
102
}
330
12
100
AcDbXrecord
280
     1
270
     1
271
     1
  0
XRECORD
  5
18
102
{ACAD_REACTORS
330
12
102
}
330
12
100
AcDbXrecord
280
     1
270
     1
271
     1
  0
XRECORD
  5
15
102
{ACAD_REACTORS
330
12
102
}
330
12
100
AcDbXrecord
280
     1
270
     1
271
     1
  0
XRECORD
  5
24
102
{ACAD_REACTORS
330
22
102
}
330
22
100
AcDbXrecord
280
     1
270
     1
271
     1
  0
XRECORD
  5
23
102
{ACAD_REACTORS
330
22
102
}
330
22
100
AcDbXrecord
280
     1
270
     1
271
     1
  0
XRECORD
  5
27
102
{ACAD_REACTORS
330
22
102
}
330
22
100
AcDbXrecord
280
     1
270
     1
271
     1
  0
XRECORD
  5
26
102
{ACAD_REACTORS
330
22
102
}
330
22
100
AcDbXrecord
280
     1
270
     1
271
     1
  0
XRECORD
  5
28
102
{ACAD_REACTORS
330
22
102
}
330
22
100
AcDbXrecord
280
     1
270
     1
271
     1
  0
XRECORD
  5
25
102
{ACAD_REACTORS
330
22
102
}
330
22
100
AcDbXrecord
280
     1
270
     1
271
     1
  0
CELLSTYLEMAP
  5
1C9
102
{ACAD_REACTORS
330
1C8
102
}
330
1C8
100
AcDbCellStyleMap
 90
        3
300
CELLSTYLE
  1
TABLEFORMAT_BEGIN
 90
        5
170
     1
 91
        0
 92
    32768
 62
   257
 93
        1
300
CONTENTFORMAT
  1
CONTENTFORMAT_BEGIN
 90
        0
 91
        0
 92
      512
 93
        0
300

 40
0.0
140
1.0
 94
        5
 62
     0
340
55
144
0.25
309
CONTENTFORMAT_END
171
     0
 94
        0
309
TABLEFORMAT_END
  1
CELLSTYLE_BEGIN
 90
        1
 91
        1
300
_TITLE
309
CELLSTYLE_END
300
CELLSTYLE
  1
TABLEFORMAT_BEGIN
 90
        5
170
     1
 91
        0
 92
        0
 62
   257
 93
        1
300
CONTENTFORMAT
  1
CONTENTFORMAT_BEGIN
 90
        0
 91
        0
 92
      512
 93
        0
300

 40
0.0
140
1.0
 94
        5
 62
     0
340
55
144
0.18
309
CONTENTFORMAT_END
171
     0
 94
        0
309
TABLEFORMAT_END
  1
CELLSTYLE_BEGIN
 90
        2
 91
        1
300
_HEADER
309
CELLSTYLE_END
300
CELLSTYLE
  1
TABLEFORMAT_BEGIN
 90
        5
170
     1
 91
        0
 92
        0
 62
   257
 93
        1
300
CONTENTFORMAT
  1
CONTENTFORMAT_BEGIN
 90
        0
 91
        0
 92
      512
 93
        0
300

 40
0.0
140
1.0
 94
        2
 62
     0
340
55
144
0.18
309
CONTENTFORMAT_END
171
     0
 94
        0
309
TABLEFORMAT_END
  1
CELLSTYLE_BEGIN
 90
        3
 91
        2
300
_DATA
309
CELLSTYLE_END
  0
ENDSEC
  0
EOF
