  0
SECTION
  2
HEADER
  9
$ACADVER
  1
AC1024
  9
$DWGCODEPAGE
  3
ANSI_1252
  9
$EXTMAX
 10
297.0
 20
210.0
 30
0.0
  9
$EXTMIN
 10
0.0
 20
0.0
 30
0.0
  9
$LIMMIN
 10
0.0
 20
0.0
  9
$LIMMAX
 10
297.0
 20
210.0
  9
$VIEWCTR
 10
148.5
 20
105.0
  9
$VIEWSIZE
 40
210.0
  9
$CLAYER
  8
0
  9
$LTSCALE
 40
16.335
  9
$CELTYPE
  6
BYLAYER
  9
$DIMSCALE
 40
1.0
  9
$DIMASZ
 40
3.0
  9
$DIMEXO
 40
0.5
  9
$DIMDLI
 40
11.286
  9
$DIMEXE
 40
1.5
  9
$DIMCEN
 40
2.673
  9
$DIMLFAC
 40
1.0
  9
$DIMBLK
  1
_FILLED
  9
$DIMALT
 70
0
  9
$DIMALTF
 40
0.0393700787
  9
$DIMTXT
 40
3.0
  9
$DIMTOL
 70
1
  9
$DIMLIM
 70
0
  9
$DIMTFAC
 40
1.0
  9
$DIMTP
 40
0.01
  9
$DIMTM
 40
0.01
  9
$DIMGAP
 40
0.625
  9
$DIMDSEP
 70
44
  9
$AUNITS
 70
0
  9
$PDMODE
 70
3
  9
$PDSIZE
 40
3.0
  9
$HANDSEED
  5
50A
  9
$TILEMODE
 70
1
  9
$MEASUREMENT
 70
1
  9
$INSUNITS
 70
4
  0
ENDSEC
  0
SECTION
  2
CLASSES
  0
CLASS
  1
ACDBDICTIONARYWDFLT
  2
AcDbDictionaryWithDefault
  3
AutoCAD 2000
 90
0
 91
1
280
0
281
0
  0
CLASS
  1
ACDBPLACEHOLDER
  2
AcDbPlaceHolder
  3
AutoCAD 2000
 90
0
 91
1
280
0
281
0
  0
CLASS
  1
LAYOUT
  2
AcDbLayout
  3
AutoCAD 2000
 90
0
 91
0
280
0
281
0
  0
ENDSEC
  0
SECTION
  2
TABLES
  0
TABLE
  2
VPORT
  5
8
100
AcDbSymbolTable
 70
2
  0
VPORT
  5
1F4
100
AcDbSymbolTableRecord
100
AcDbViewportTableRecord
  2
*ACTIVE
 70
0
 10
0.0
 20
0.0
 11
1.0
 21
1.0
 12
148.5
 22
105.0
 13
0.0
 23
0.0
 14
1.0
 24
1.0
 15
0.0
 25
0.0
 16
0.0
 26
0.0
 36
1.0
 17
0.0
 27
0.0
 37
0.0
 40
210.0
 41
1.4142857143
 42
50.0
 43
0.0
 44
0.0
 50
0.0
 51
0.0
 71
0
 72
100
 73
1
 74
1
 75
0
 76
0
 77
0
 78
0
  0
ENDTAB
  0
TABLE
  2
LTYPE
  5
5
100
AcDbSymbolTable
 70
6
  0
LTYPE
  5
14
100
AcDbSymbolTableRecord
100
AcDbLinetypeTableRecord
  2
BYBLOCK
 70
0
  3

 72
65
 73
0
 40
0.0
  0
LTYPE
  5
15
100
AcDbSymbolTableRecord
100
AcDbLinetypeTableRecord
  2
BYLAYER
 70
0
  3

 72
65
 73
0
 40
0.0
  0
LTYPE
  5
16
100
AcDbSymbolTableRecord
100
AcDbLinetypeTableRecord
  2
CONTINUOUS
 70
64
  3
Solid line
 72
65
 73
0
 40
0.0
  0
LTYPE
  5
1F5
100
AcDbSymbolTableRecord
100
AcDbLinetypeTableRecord
  2
CENTER
 70
64
  3
____ _ ____ _ ____ _ ____ _ ____ _ ____ _ ____
 72
65
 73
4
 40
0.6
 49
0.375
 74
0
 49
-0.075
 74
0
 49
0.075
 74
0
 49
-0.075
 74
0
  0
LTYPE
  5
1F6
100
AcDbSymbolTableRecord
100
AcDbLinetypeTableRecord
  2
HIDDEN
 70
64
  3
- - - - - - - - - - - - - - - - - - - -
 72
65
 73
2
 40
0.2
 49
0.1
 74
0
 49
-0.1
 74
0
  0
LTYPE
  5
1F7
100
AcDbSymbolTableRecord
100
AcDbLinetypeTableRecord
  2
PHANTOM
 70
64
  3
_____ _ _ _____ _ _ _____ _ _ _____
 72
65
 73
6
 40
0.8
 49
0.45
 74
0
 49
-0.05
 74
0
 49
0.1
 74
0
 49
-0.05
 74
0
 49
0.1
 74
0
 49
-0.05
 74
0
  0
LTYPE
  5
1F8
100
AcDbSymbolTableRecord
100
AcDbLinetypeTableRecord
  2
DOT
 70
64
  3
. . . . . . . . . . . . . . . . . . . .
 72
65
 73
2
 40
0.2
 49
0.1
 74
0
 49
-0.1
 74
0
  0
LTYPE
  5
1F9
100
AcDbSymbolTableRecord
100
AcDbLinetypeTableRecord
  2
DASHED
 70
64
  3
- - - - - - - - - - - - - - - - - - - -
 72
65
 73
2
 40
0.2
 49
0.1
 74
0
 49
-0.1
 74
0
  0
ENDTAB
  0
TABLE
  2
LAYER
  5
2
100
AcDbSymbolTable
 70
36
  0
LAYER
  5
10
100
AcDbSymbolTableRecord
100
AcDbLayerTableRecord
  2
0
 70
0
 62
7
  6
CONTINUOUS
370
-3
390
F
  0
LAYER
  5
1FA
100
AcDbSymbolTableRecord
100
AcDbLayerTableRecord
  2
DEFAULT_1
 70
0
 62
7
  6
CENTER
370
-3
390
F
  0
LAYER
  5
1FB
100
AcDbSymbolTableRecord
100
AcDbLayerTableRecord
  2
DEFAULT_2
 70
0
 62
7
  6
HIDDEN
370
-3
390
F
  0
LAYER
  5
1FC
100
AcDbSymbolTableRecord
100
AcDbLayerTableRecord
  2
DEFAULT_3
 70
0
 62
7
  6
PHANTOM
370
-3
390
F
  0
LAYER
  5
1FD
100
AcDbSymbolTableRecord
100
AcDbLayerTableRecord
  2
0603_C_REF_90000
 70
0
 62
7
  6
CONTINUOUS
370
-3
390
F
  0
LAYER
  5
1FE
100
AcDbSymbolTableRecord
100
AcDbLayerTableRecord
  2
0603_C_REF_90000_1
 70
0
 62
7
  6
CONTINUOUS
370
-3
390
F
  0
LAYER
  5
1FF
100
AcDbSymbolTableRecord
100
AcDbLayerTableRecord
  2
0603_C_REF_90000_2
 70
0
 62
7
  6
CONTINUOUS
370
-3
390
F
  0
LAYER
  5
200
100
AcDbSymbolTableRecord
100
AcDbLayerTableRecord
  2
0603_C_REF_90000_3
 70
0
 62
7
  6
CONTINUOUS
370
-3
390
F
  0
LAYER
  5
201
100
AcDbSymbolTableRecord
100
AcDbLayerTableRecord
  2
0603_R_REF_55000
 70
0
 62
7
  6
CONTINUOUS
370
-3
390
F
  0
LAYER
  5
202
100
AcDbSymbolTableRecord
100
AcDbLayerTableRecord
  2
0603_R_REF_55000_1
 70
0
 62
7
  6
CONTINUOUS
370
-3
390
F
  0
LAYER
  5
203
100
AcDbSymbolTableRecord
100
AcDbLayerTableRecord
  2
0603_R_REF_55000_2
 70
0
 62
7
  6
CONTINUOUS
370
-3
390
F
  0
LAYER
  5
204
100
AcDbSymbolTableRecord
100
AcDbLayerTableRecord
  2
0603_R_REF_55000_3
 70
0
 62
7
  6
CONTINUOUS
370
-3
390
F
  0
LAYER
  5
205
100
AcDbSymbolTableRecord
100
AcDbLayerTableRecord
  2
06___PRT_ALL_SURFS
 70
0
 62
7
  6
CONTINUOUS
370
-3
390
F
  0
LAYER
  5
206
100
AcDbSymbolTableRecord
100
AcDbLayerTableRecord
  2
06___PRT_ALL_SURFS_2
 70
0
 62
7
  6
CONTINUOUS
370
-3
390
F
  0
LAYER
  5
207
100
AcDbSymbolTableRecord
100
AcDbLayerTableRecord
  2
06___PRT_ALL_SURFS_4
 70
0
 62
7
  6
CONTINUOUS
370
-3
390
F
  0
LAYER
  5
208
100
AcDbSymbolTableRecord
100
AcDbLayerTableRecord
  2
06___PRT_ALL_SURFS_5
 70
0
 62
7
  6
CONTINUOUS
370
-3
390
F
  0
LAYER
  5
209
100
AcDbSymbolTableRecord
100
AcDbLayerTableRecord
  2
06___PRT_ALL_SURFS_8
 70
0
 62
7
  6
CONTINUOUS
370
-3
390
F
  0
LAYER
  5
20A
100
AcDbSymbolTableRecord
100
AcDbLayerTableRecord
  2
43900969A0
 70
0
 62
7
  6
CONTINUOUS
370
-3
390
F
  0
LAYER
  5
20B
100
AcDbSymbolTableRecord
100
AcDbLayerTableRecord
  2
ASSI
 70
0
 62
7
  6
CONTINUOUS
370
-3
390
F
  0
LAYER
  5
20C
100
AcDbSymbolTableRecord
100
AcDbLayerTableRecord
  2
COLOR5
 70
0
 62
7
  6
CONTINUOUS
370
-3
390
F
  0
LAYER
  5
20D
100
AcDbSymbolTableRecord
100
AcDbLayerTableRecord
  2
COORDINATE
 70
0
 62
7
  6
CONTINUOUS
370
-3
390
F
  0
LAYER
  5
20E
100
AcDbSymbolTableRecord
100
AcDbLayerTableRecord
  2
COPY_PUBLISH
 70
0
 62
7
  6
CONTINUOUS
370
-3
390
F
  0
LAYER
  5
20F
100
AcDbSymbolTableRecord
100
AcDbLayerTableRecord
  2
COSMETICI
 70
0
 62
7
  6
CONTINUOUS
370
-3
390
F
  0
LAYER
  5
210
100
AcDbSymbolTableRecord
100
AcDbLayerTableRecord
  2
CR_MR6P5_MSB_SW__1000000
 70
0
 62
7
  6
CONTINUOUS
370
-3
390
F
  0
LAYER
  5
211
100
AcDbSymbolTableRecord
100
AcDbLayerTableRecord
  2
CURVE
 70
0
 62
7
  6
CONTINUOUS
370
-3
390
F
  0
LAYER
  5
212
100
AcDbSymbolTableRecord
100
AcDbLayerTableRecord
  2
DATAMATRIX_RESIST_10000
 70
0
 62
7
  6
CONTINUOUS
370
-3
390
F
  0
LAYER
  5
213
100
AcDbSymbolTableRecord
100
AcDbLayerTableRecord
  2
DRAFT
 70
0
 62
7
  6
CONTINUOUS
370
-3
390
F
  0
LAYER
  5
214
100
AcDbSymbolTableRecord
100
AcDbLayerTableRecord
  2
FIDUCIAL_1MM_0
 70
0
 62
7
  6
CONTINUOUS
370
-3
390
F
  0
LAYER
  5
215
100
AcDbSymbolTableRecord
100
AcDbLayerTableRecord
  2
FIDUCIAL_1MM_0_1
 70
0
 62
7
  6
CONTINUOUS
370
-3
390
F
  0
LAYER
  5
216
100
AcDbSymbolTableRecord
100
AcDbLayerTableRecord
  2
FIDUCIAL_1MM_0_2
 70
0
 62
7
  6
CONTINUOUS
370
-3
390
F
  0
LAYER
  5
217
100
AcDbSymbolTableRecord
100
AcDbLayerTableRecord
  2
FIDUCIAL_1MM_0_3
 70
0
 62
7
  6
CONTINUOUS
370
-3
390
F
  0
LAYER
  5
218
100
AcDbSymbolTableRecord
100
AcDbLayerTableRecord
  2
IMPORT_IGES
 70
0
 62
7
  6
CONTINUOUS
370
-3
390
F
  0
LAYER
  5
219
100
AcDbSymbolTableRecord
100
AcDbLayerTableRecord
  2
LOGO_RESIST-RESTYLING_10000
 70
0
 62
7
  6
CONTINUOUS
370
-3
390
F
  0
LAYER
  5
21A
100
AcDbSymbolTableRecord
100
AcDbLayerTableRecord
  2
NOTE
 70
0
 62
7
  6
CONTINUOUS
370
-3
390
F
  0
LAYER
  5
21B
100
AcDbSymbolTableRecord
100
AcDbLayerTableRecord
  2
P528-691D
 70
0
 62
7
  6
CONTINUOUS
370
-3
390
F
  0
LAYER
  5
21C
100
AcDbSymbolTableRecord
100
AcDbLayerTableRecord
  2
PIANI
 70
0
 62
7
  6
CONTINUOUS
370
-3
390
F
  0
LAYER
  5
21D
100
AcDbSymbolTableRecord
100
AcDbLayerTableRecord
  2
PUNTI
 70
0
 62
7
  6
CONTINUOUS
370
-3
390
F
  0
LAYER
  5
21E
100
AcDbSymbolTableRecord
100
AcDbLayerTableRecord
  2
RACCORDO
 70
0
 62
7
  6
CONTINUOUS
370
-3
390
F
  0
LAYER
  5
21F
100
AcDbSymbolTableRecord
100
AcDbLayerTableRecord
  2
SIMBOLI
 70
0
 62
7
  6
CONTINUOUS
370
-3
390
F
  0
LAYER
  5
220
100
AcDbSymbolTableRecord
100
AcDbLayerTableRecord
  2
SMUSSO
 70
0
 62
7
  6
CONTINUOUS
370
-3
390
F
  0
LAYER
  5
221
100
AcDbSymbolTableRecord
100
AcDbLayerTableRecord
  2
SUPERFICI
 70
0
 62
7
  6
CONTINUOUS
370
-3
390
F
  0
LAYER
  5
222
100
AcDbSymbolTableRecord
100
AcDbLayerTableRecord
  2
SYMBOL_DATA_10000
 70
0
 62
7
  6
CONTINUOUS
370
-3
390
F
  0
LAYER
  5
223
100
AcDbSymbolTableRecord
100
AcDbLayerTableRecord
  2
SYMBOL_E2_10000
 70
0
 62
7
  6
CONTINUOUS
370
-3
390
F
  0
LAYER
  5
224
100
AcDbSymbolTableRecord
100
AcDbLayerTableRecord
  2
SYMBOL_NO-PB_10000
 70
0
 62
7
  6
CONTINUOUS
370
-3
390
F
  0
LAYER
  5
225
100
AcDbSymbolTableRecord
100
AcDbLayerTableRecord
  2
TRASH
 70
0
 62
7
  6
CONTINUOUS
370
-3
390
F
  0
LAYER
  5
226
100
AcDbSymbolTableRecord
100
AcDbLayerTableRecord
  2
VG_IND-PS-6_6-3_0_300000
 70
0
 62
7
  6
CONTINUOUS
370
-3
390
F
  0
LAYER
  5
227
100
AcDbSymbolTableRecord
100
AcDbLayerTableRecord
  2
VG_IND-PS-6_6-3_0_300000_1
 70
0
 62
7
  6
CONTINUOUS
370
-3
390
F
  0
LAYER
  5
228
100
AcDbSymbolTableRecord
100
AcDbLayerTableRecord
  2
VG_IND-RAD-7_0-12_0-2_5-0_6_120
 70
0
 62
7
  6
CONTINUOUS
370
-3
390
F
  0
LAYER
  5
229
100
AcDbSymbolTableRecord
100
AcDbLayerTableRecord
  2
VG_IND-RAD-7_0-12_0-2_5-0_6_1_1
 70
0
 62
7
  6
CONTINUOUS
370
-3
390
F
  0
LAYER
  5
22A
100
AcDbSymbolTableRecord
100
AcDbLayerTableRecord
  2
VG_IND-RAD-7_0-12_0-2_5-0_6_A90
 70
0
 62
7
  6
CONTINUOUS
370
-3
390
F
  0
LAYER
  5
22B
100
AcDbSymbolTableRecord
100
AcDbLayerTableRecord
  2
VG_IND-RAD-7_0-12_0-2_5-0_6_A_1
 70
0
 62
7
  6
CONTINUOUS
370
-3
390
F
  0
LAYER
  5
22C
100
AcDbSymbolTableRecord
100
AcDbLayerTableRecord
  2
VG_TRA-THT-MAGNETICA-1574_0009_
 70
0
 62
7
  6
CONTINUOUS
370
-3
390
F
  0
LAYER
  5
22D
100
AcDbSymbolTableRecord
100
AcDbLayerTableRecord
  2
___SHELL
 70
0
 62
7
  6
CONTINUOUS
370
-3
390
F
  0
ENDTAB
  0
TABLE
  2
STYLE
  5
3
100
AcDbSymbolTable
 70
1
  0
STYLE
  5
11
100
AcDbSymbolTableRecord
100
AcDbTextStyleTableRecord
  2
STANDARD
 70
0
 40
0.0
 41
0.8
 50
0.0
 71
0
 42
0.2
  3
txt
  4

  0
STYLE
  5
22E
100
AcDbSymbolTableRecord
100
AcDbTextStyleTableRecord
  2
TEXTSTYLE_1
 70
0
 40
0.0
 41
0.8
 50
0.0
 71
0
 42
0.2
  3
gdt
  4

  0
ENDTAB
  0
TABLE
  2
VIEW
  5
6
100
AcDbSymbolTable
 70
0
  0
ENDTAB
  0
TABLE
  2
UCS
  5
7
100
AcDbSymbolTable
 70
0
  0
ENDTAB
  0
TABLE
  2
APPID
  5
9
100
AcDbSymbolTable
 70
1
  0
APPID
  5
22F
100
AcDbSymbolTableRecord
100
AcDbRegAppTableRecord
  2
ACAD
 70
0
  0
ENDTAB
  0
TABLE
  2
BLOCK_RECORD
  5
1
100
AcDbSymbolTable
 70
0
  0
BLOCK_RECORD
  5
230
100
AcDbSymbolTableRecord
100
AcDbBlockTableRecord
  2
*Model_Space
  0
BLOCK_RECORD
  5
231
100
AcDbSymbolTableRecord
100
AcDbBlockTableRecord
  2
*Paper_Space
  0
BLOCK_RECORD
  5
232
100
AcDbSymbolTableRecord
100
AcDbBlockTableRecord
  2
_FILLED
  0
ENDTAB
  0
TABLE
  2
DIMSTYLE
  5
A
100
AcDbSymbolTable
 70
1
100
AcDbDimStyleTable
 71
0
  0
DIMSTYLE
105
233
100
AcDbSymbolTableRecord
100
AcDbDimStyleTableRecord
  2
STANDARD
 70
0
  3

  4

 40
1.0
 41
3.0
 42
0.5
 43
0.38
 44
1.5
 45
0.0
 46
0.0
 47
0.01
 48
0.01
140
3.0
141
0.09
142
0.0
143
25.4
144
1.0
145
0.0
146
1.0
147
0.625
 71
1.0
 72
0.0
 73
0
 74
0
 75
0
 76
0
 77
1
 78
8
 79
2
170
0
171
1
172
0
173
0
174
0
175
0
176
0
177
0
178
0
270
2
179
2
271
2
272
2
273
2
274
2
275
0
280
0
281
0
282
0
283
1
284
8
285
0
286
0
287
3
288
0
340
11
278
44
341
232
342
232
343
232
344
232
  0
ENDTAB
  0
ENDSEC
  0
SECTION
  2
BLOCKS
  0
BLOCK
  5
20
100
AcDbEntity
  8
0
100
AcDbBlockBegin
  2
*Model_Space
 70
0
 10
0.0
 20
0.0
 30
0.0
  3
*Model_Space
  1

  0
ENDBLK
  5
21
100
AcDbEntity
  8
0
100
AcDbBlockEnd
  0
BLOCK
  5
1C
100
AcDbEntity
  8
0
100
AcDbBlockBegin
  2
*Paper_Space
 70
0
 10
0.0
 20
0.0
 30
0.0
  3
*Paper_Space
  1

  0
ENDBLK
  5
1D
100
AcDbEntity
  8
0
100
AcDbBlockEnd
  0
BLOCK
  5
234
100
AcDbEntity
  8
0
100
AcDbBlockBegin
  2
_FILLED
 70
64
 10
0.0
 20
0.0
  3
_FILLED
  1

  0
SOLID
  5
235
100
AcDbEntity
  8
0
  6
BYBLOCK
 62
0
100
AcDbTrace
 10
0.0
 20
0.0
 11
-1.0
 21
0.3166666667
 12
-1.0
 22
-0.3166666667
 13
-1.0
 23
-0.3166666667
  0
ENDBLK
  5
236
100
AcDbEntity
  8
0
  6
BYBLOCK
 62
0
100
AcDbBlockEnd
  0
ENDSEC
  0
SECTION
  2
ENTITIES
  0
LWPOLYLINE
  5
237
100
AcDbEntity
  8
RACCORDO
100
AcDbPolyline
 62
250
  6
CONTINUOUS
 90
11
 70
0
 10
130.5152628115
 20
121.7035048263
 10
130.5404946739
 20
121.7135613351
 10
130.5659968673
 20
121.7157225502
 10
130.5931480709
 20
121.7105984181
 10
130.6220020721
 20
121.6981694418
 10
130.652269801
 20
121.6781634091
 10
130.6836395976
 20
121.6505004901
 10
130.7160210557
 20
121.6157225884
 10
130.7490906052
 20
121.5741799297
 10
130.782346656
 20
121.5258359267
 10
130.815375954
 20
121.4708877618
  0
LWPOLYLINE
  5
238
100
AcDbEntity
  8
RACCORDO
100
AcDbPolyline
 62
7
  6
CONTINUOUS
 90
16
 70
0
 10
124.2756499999
 20
116.4677322178
 10
124.1588484682
 20
116.3951114681
 10
124.0505009701
 20
116.3173384691
 10
123.9506622533
 20
116.2349572112
 10
123.8595191493
 20
116.1486927337
 10
123.7767929482
 20
116.0588839803
 10
123.7019892324
 20
115.9654827676
 10
123.6352546209
 20
115.8691148075
 10
123.5765489028
 20
115.7702376003
 10
123.5254513815
 20
115.6685208416
 10
123.4820911577
 20
115.5644513512
 10
123.4465779691
 20
115.4586137588
 10
123.4187731642
 20
115.3507878926
 10
123.3987869815
 20
115.2412700839
 10
123.3867826865
 20
115.1308929078
 10
123.3827857732
 20
115.0202438791
  0
LWPOLYLINE
  5
239
100
AcDbEntity
  8
RACCORDO
100
AcDbPolyline
 62
7
  6
CONTINUOUS
 90
14
 70
0
 10
130.1600547564
 20
121.4984219928
 10
130.126569625
 20
121.478361715
 10
130.0430216497
 20
121.4213919355
 10
129.9653016262
 20
121.3581448332
 10
129.8940258476
 20
121.2893676206
 10
129.8289525334
 20
121.2149491924
 10
129.7707729726
 20
121.1357981175
 10
129.7198589895
 20
121.0527526367
 10
129.6758962451
 20
120.9653273264
 10
129.6394564175
 20
120.8743673049
 10
129.6109243449
 20
120.7806877344
 10
129.5902280771
 20
120.6837325914
 10
129.5777791391
 20
120.5840883982
 10
129.5739864693
 20
120.4916535487
  0
LINE
  5
23A
100
AcDbEntity
  8
RACCORDO
100
AcDbLine
 62
7
  6
CONTINUOUS
 10
130.1596973856
 20
121.4982058071
 11
130.5154047457
 21
121.7035867788
  0
LINE
  5
23B
100
AcDbEntity
  8
RACCORDO
100
AcDbLine
 62
250
  6
CONTINUOUS
 10
130.7952674704
 20
121.4592773754
 11
130.815375954
 21
121.4708877618
  0
LINE
  5
23C
100
AcDbEntity
  8
RACCORDO
100
AcDbLine
 62
7
  6
CONTINUOUS
 10
124.2756499999
 20
116.4677322178
 11
129.6094909771
 21
119.5474251493
  0
LWPOLYLINE
  5
23D
100
AcDbEntity
  8
RACCORDO
100
AcDbPolyline
 62
250
  6
CONTINUOUS
 90
10
 70
0
 10
129.6094909762
 20
119.5474251488
 10
129.6640965956
 20
119.5736750459
 10
129.7228242236
 20
119.591799383
 10
129.7852559001
 20
119.6016769613
 10
129.8509164824
 20
119.6032326064
 10
129.9193062537
 20
119.5964544789
 10
129.9899047267
 20
119.5813941646
 10
130.0621746043
 20
119.5581662814
 10
130.1355658691
 20
119.5269476076
 10
130.2095199693
 20
119.4879757361
  0
LWPOLYLINE
  5
23E
100
AcDbEntity
  8
IMPORT_IGES
100
AcDbPolyline
 62
7
  6
CONTINUOUS
 90
3
 70
0
 10
143.9506006523
 20
78.322400032
 10
143.8905091144
 20
78.3135571901
 10
143.8297329984
 20
78.3129346753
  0
LWPOLYLINE
  5
23F
100
AcDbEntity
  8
RACCORDO
100
AcDbPolyline
 62
250
  6
CONTINUOUS
 90
16
 70
0
 10
130.2095199693
 20
119.4879757361
 10
130.3360210182
 20
119.5664385139
 10
130.4523377071
 20
119.6470876722
 10
130.5584700357
 20
119.7299232112
 10
130.6540710439
 20
119.814868477
 10
130.7394876919
 20
119.9020001235
 10
130.8157608611
 20
119.9915481118
 10
130.883431131
 20
120.0838950563
 10
130.9419579222
 20
120.1786583427
 10
130.9907603773
 20
120.2749200892
 10
131.0297498092
 20
120.3727185517
 10
131.059014905
 20
120.4720154743
 10
131.0782408694
 20
120.5717782071
 10
131.0873185834
 20
120.6719965084
 10
131.0863571659
 20
120.77268062
 10
131.0753691789
 20
120.8728286177
  0
LINE
  5
240
100
AcDbEntity
  8
RACCORDO
100
AcDbLine
 62
250
  6
CONTINUOUS
 10
124.8756789921
 20
116.4082828045
 11
130.2095199693
 21
119.4879757361
  0
LWPOLYLINE
  5
241
100
AcDbEntity
  8
RACCORDO
100
AcDbPolyline
 62
250
  6
CONTINUOUS
 90
10
 70
0
 10
124.2756499999
 20
116.4677322178
 10
124.3302556188
 20
116.4939821145
 10
124.3889832468
 20
116.5121064515
 10
124.4514149233
 20
116.5219840298
 10
124.5170755056
 20
116.5235396748
 10
124.5854652769
 20
116.5167615473
 10
124.6560637498
 20
116.501701233
 10
124.7283336273
 20
116.4784733498
 10
124.801724892
 20
116.447254676
 10
124.8756789921
 20
116.4082828045
  0
LWPOLYLINE
  5
242
100
AcDbEntity
  8
0
100
AcDbPolyline
 62
250
  6
CONTINUOUS
 90
8
 70
0
 10
144.3748709392
 20
78.8635462118
 10
144.3205632534
 20
78.853267209
 10
144.2313672968
 20
78.8492219712
 10
144.1374691304
 20
78.8568596029
 10
144.0410178883
 20
78.8760844015
 10
143.9427299486
 20
78.9068644662
 10
143.8418889333
 20
78.9492316977
 10
143.7384948423
 20
79.0031860961
  0
LWPOLYLINE
  5
243
100
AcDbEntity
  8
IMPORT_IGES
100
AcDbPolyline
 62
250
  6
CONTINUOUS
 90
9
 70
0
 10
144.3745366098
 20
78.8621865564
 10
144.3057669332
 20
78.8517929869
 10
144.2310836717
 20
78.8490945391
 10
144.1535665529
 20
78.8546879946
 10
144.07326222
 20
78.8684490788
 10
143.9914726817
 20
78.8901974638
 10
143.9086319407
 20
78.9198730404
 10
143.8243059943
 20
78.9575359178
 10
143.7384948423
 20
79.0031860961
  0
LINE
  5
244
100
AcDbEntity
  8
IMPORT_IGES
100
AcDbLine
 62
7
  6
CONTINUOUS
 10
151.6404131221
 20
80.3852448927
 11
151.479372016
 21
80.3708707303
  0
LWPOLYLINE
  5
245
100
AcDbEntity
  8
IMPORT_IGES
100
AcDbPolyline
 62
7
  6
CONTINUOUS
 90
30
 70
0
 10
143.8297329984
 20
78.3129346753
 10
143.8225811365
 20
78.3135279734
 10
143.815797323
 20
78.3142866859
 10
143.8093856566
 20
78.3152055432
 10
143.8033537242
 20
78.3162815472
 10
143.7977018659
 20
78.3175063683
 10
143.7924230162
 20
78.3188663833
 10
143.7875192457
 20
78.320353448
 10
143.7829952611
 20
78.3219629627
 10
143.7788477842
 20
78.3236862199
 10
143.775077758
 20
78.3255148898
 10
143.7716904213
 20
78.327442941
 10
143.7686890214
 20
78.3294645912
 10
143.7660749746
 20
78.3315699557
 10
143.7638519562
 20
78.3337530136
 10
143.7620270937
 20
78.3360129248
 10
143.7606005039
 20
78.3383412229
 10
143.7595771403
 20
78.3407279527
 10
143.7589713501
 20
78.3431694202
 10
143.7587876679
 20
78.3456646472
 10
143.7590246835
 20
78.3481945447
 10
143.7596829725
 20
78.350731844
 10
143.760760872
 20
78.3532675886
 10
143.7622515778
 20
78.3557994808
 10
143.7641428088
 20
78.3583150325
 10
143.7664255436
 20
78.3608061184
 10
143.7690979673
 20
78.3632723837
 10
143.7721584037
 20
78.3657131242
 10
143.7755992925
 20
78.3681219398
 10
143.7794181228
 20
78.37049564
  0
LWPOLYLINE
  5
246
100
AcDbEntity
  8
0
100
AcDbPolyline
 62
7
  6
CONTINUOUS
 90
28
 70
0
 10
143.8297329984
 20
78.3129346753
 10
143.8223004409
 20
78.3135532201
 10
143.8152514994
 20
78.3143554659
 10
143.8085920083
 20
78.3153352445
 10
143.8023303645
 20
78.3164869374
 10
143.7964695241
 20
78.317802627
 10
143.7910071696
 20
78.3192720463
 10
143.7859464875
 20
78.3208849943
 10
143.7812951045
 20
78.3226355872
 10
143.7770577775
 20
78.3245191681
 10
143.7732373842
 20
78.3265239906
 10
143.7698415808
 20
78.3286427237
 10
143.7668832854
 20
78.330876025
 10
143.7643644371
 20
78.3332112665
 10
143.7622936725
 20
78.3356381529
 10
143.7606949014
 20
78.3381592421
 10
143.7595707876
 20
78.3407623475
 10
143.7589281131
 20
78.3434326286
 10
143.7587962443
 20
78.346167949
 10
143.7591826122
 20
78.3489621615
 10
143.7600851753
 20
78.3517919295
 10
143.761513364
 20
78.3546334069
 10
143.7634903654
 20
78.3574987959
 10
143.765987229
 20
78.3603525862
 10
143.768918787
 20
78.36311789
 10
143.7722415578
 20
78.3657787546
 10
143.7759664419
 20
78.3683643463
 10
143.7800793038
 20
78.3708807966
  0
LWPOLYLINE
  5
247
100
AcDbEntity
  8
0
100
AcDbPolyline
 62
250
  6
CONTINUOUS
 90
8
 70
0
 10
140.8393370333
 20
80.9049191785
 10
140.7850293474
 20
80.8946401756
 10
140.6958333909
 20
80.8905949378
 10
140.6019352245
 20
80.8982325695
 10
140.5054839824
 20
80.9174573682
 10
140.4071960427
 20
80.9482374328
 10
140.3063550274
 20
80.9906046643
 10
140.2029609364
 20
81.0445590627
  0
LWPOLYLINE
  5
248
100
AcDbEntity
  8
IMPORT_IGES
100
AcDbPolyline
 62
250
  6
CONTINUOUS
 90
9
 70
0
 10
140.8390027039
 20
80.903559523
 10
140.7702330273
 20
80.8931659535
 10
140.6955497658
 20
80.8904675058
 10
140.6180326469
 20
80.8960609612
 10
140.5377283141
 20
80.9098220454
 10
140.4559387757
 20
80.9315704305
 10
140.3730980348
 20
80.961246007
 10
140.2887720883
 20
80.9989088845
 10
140.2029609364
 20
81.0445590627
  0
LWPOLYLINE
  5
249
100
AcDbEntity
  8
IMPORT_IGES
100
AcDbPolyline
 62
7
  6
CONTINUOUS
 90
3
 70
0
 10
140.4150667464
 20
80.3637729986
 10
140.3549752085
 20
80.3549301567
 10
140.2941990925
 20
80.354307642
  0
LWPOLYLINE
  5
24A
100
AcDbEntity
  8
IMPORT_IGES
100
AcDbPolyline
 62
7
  6
CONTINUOUS
 90
19
 70
0
 10
142.0971283314
 20
80.2008464502
 10
142.1438124675
 20
80.2041066739
 10
142.1892509949
 20
80.2066850293
 10
142.2334439138
 20
80.2085815163
 10
142.2763666426
 20
80.2097847134
 10
142.3180437628
 20
80.210306042
 10
142.358549019
 20
80.2101797674
 10
142.3978840269
 20
80.2094085765
 10
142.4360471707
 20
80.2079897822
 10
142.4731073482
 20
80.2059495888
 10
142.5090701958
 20
80.2032904008
 10
142.5439300771
 20
80.2000098135
 10
142.5777389799
 20
80.1961268176
 10
142.6105044291
 20
80.1916424352
 10
142.6422188999
 20
80.1865556442
 10
142.6729118056
 20
80.1808823683
 10
142.7025820649
 20
80.1746246576
 10
142.7312307591
 20
80.1677804621
 10
142.7413047024
 20
80.1650777009
  0
LWPOLYLINE
  5
24B
100
AcDbEntity
  8
IMPORT_IGES
100
AcDbPolyline
 62
7
  6
CONTINUOUS
 90
16
 70
0
 10
151.479372016
 20
80.3708707303
 10
151.4701926646
 20
80.3711136344
 10
151.4608713111
 20
80.3729985482
 10
151.4514079555
 20
80.3765254718
 10
151.4416153302
 20
80.3818252578
 10
151.4316807029
 20
80.3887670536
 10
151.4221658757
 20
80.3969583012
 10
151.4130950446
 20
80.4064710144
 10
151.4044440136
 20
80.4172331794
 10
151.396701998
 20
80.4286361966
 10
151.38992139
 20
80.4407170025
 10
151.3840497974
 20
80.4534386606
 10
151.3794192581
 20
80.4660817622
 10
151.3761404516
 20
80.4784065044
 10
151.3741026985
 20
80.4906526902
 10
151.3733059988
 20
80.5028203195
  0
LWPOLYLINE
  5
24C
100
AcDbEntity
  8
IMPORT_IGES
100
AcDbPolyline
 62
7
  6
CONTINUOUS
 90
16
 70
0
 10
151.6404131221
 20
80.3852448927
 10
151.6541821492
 20
80.3848805366
 10
151.6681641794
 20
80.3820531658
 10
151.6823592129
 20
80.3767627805
 10
151.6970481507
 20
80.3688131014
 10
151.7119500918
 20
80.3584004078
 10
151.7262223325
 20
80.3461135364
 10
151.7398285792
 20
80.3318444666
 10
151.7528051256
 20
80.3157012191
 10
151.7644181491
 20
80.2985966933
 10
151.774589061
 20
80.2804754845
 10
151.78339645
 20
80.2613929973
 10
151.7903422589
 20
80.2424283449
 10
151.7952604686
 20
80.2239412316
 10
151.7983170983
 20
80.2055719529
 10
151.7995121479
 20
80.187320509
  0
LWPOLYLINE
  5
24D
100
AcDbEntity
  8
IMPORT_IGES
100
AcDbPolyline
 62
7
  6
CONTINUOUS
 90
30
 70
0
 10
140.2941990925
 20
80.354307642
 10
140.2870472306
 20
80.3549009401
 10
140.2802634171
 20
80.3556596525
 10
140.2738517507
 20
80.3565785098
 10
140.2678198183
 20
80.3576545138
 10
140.2621679599
 20
80.3588793349
 10
140.2568891102
 20
80.3602393499
 10
140.2519853398
 20
80.3617264146
 10
140.2474613552
 20
80.3633359293
 10
140.2433138782
 20
80.3650591866
 10
140.239543852
 20
80.3668878565
 10
140.2361565154
 20
80.3688159076
 10
140.2331551155
 20
80.3708375579
 10
140.2305410687
 20
80.3729429224
 10
140.2283180503
 20
80.3751259802
 10
140.2264931878
 20
80.3773858914
 10
140.2250665979
 20
80.3797141895
 10
140.2240432343
 20
80.3821009193
 10
140.2234374442
 20
80.3845423868
 10
140.223253762
 20
80.3870376138
 10
140.2234907775
 20
80.3895675114
 10
140.2241490665
 20
80.3921048106
 10
140.2252269661
 20
80.3946405552
 10
140.2267176719
 20
80.3971724475
 10
140.2286089028
 20
80.3996879991
 10
140.2308916377
 20
80.402179085
 10
140.2335640614
 20
80.4046453504
 10
140.2366244978
 20
80.4070860908
 10
140.2400653866
 20
80.4094949064
 10
140.2438842169
 20
80.4118686067
  0
LWPOLYLINE
  5
24E
100
AcDbEntity
  8
0
100
AcDbPolyline
 62
7
  6
CONTINUOUS
 90
28
 70
0
 10
140.2941990925
 20
80.354307642
 10
140.286766535
 20
80.3549261867
 10
140.2797175935
 20
80.3557284325
 10
140.2730581024
 20
80.3567082112
 10
140.2667964585
 20
80.357859904
 10
140.2609356181
 20
80.3591755937
 10
140.2554732637
 20
80.360645013
 10
140.2504125815
 20
80.362257961
 10
140.2457611986
 20
80.3640085538
 10
140.2415238716
 20
80.3658921348
 10
140.2377034783
 20
80.3678969572
 10
140.2343076748
 20
80.3700156903
 10
140.2313493794
 20
80.3722489916
 10
140.2288305311
 20
80.3745842331
 10
140.2267597665
 20
80.3770111195
 10
140.2251609954
 20
80.3795322087
 10
140.2240368816
 20
80.3821353142
 10
140.2233942071
 20
80.3848055953
 10
140.2232623384
 20
80.3875409156
 10
140.2236487063
 20
80.3903351281
 10
140.2245512694
 20
80.3931648961
 10
140.225979458
 20
80.3960063735
 10
140.2279564594
 20
80.3988717625
 10
140.230453323
 20
80.4017255528
 10
140.2333848811
 20
80.4044908567
 10
140.2367076518
 20
80.4071517212
 10
140.240432536
 20
80.409737313
 10
140.2445453979
 20
80.4122537633
  0
LWPOLYLINE
  5
24F
100
AcDbEntity
  8
RACCORDO
100
AcDbPolyline
 62
250
  6
CONTINUOUS
 90
11
 70
0
 10
130.815375954
 20
121.4708877618
 10
130.8484052835
 20
121.5258359014
 10
130.8816610688
 20
121.5741799686
 10
130.9147300602
 20
121.6157228067
 10
130.9471114313
 20
121.6505007421
 10
130.9784808548
 20
121.6781638226
 10
131.0087457005
 20
121.6981711565
 10
131.0375926154
 20
121.7106035862
 10
131.0647344547
 20
121.7157328349
 10
131.0902281415
 20
121.7135769957
 10
131.1154171316
 20
121.703546375
  0
LWPOLYLINE
  5
250
100
AcDbEntity
  8
0
100
AcDbPolyline
 62
250
  6
CONTINUOUS
 90
8
 70
0
 10
137.3038031274
 20
82.9462921451
 10
137.2494954415
 20
82.9360131422
 10
137.160299485
 20
82.9319679044
 10
137.0664013185
 20
82.9396055362
 10
136.9699500764
 20
82.9588303348
 10
136.8716621368
 20
82.9896103995
 10
136.7708211214
 20
83.031977631
 10
136.6674270305
 20
83.0859320294
  0
LINE
  5
251
100
AcDbEntity
  8
RACCORDO
100
AcDbLine
 62
7
  6
CONTINUOUS
 10
145.4973289945
 20
83.9266182567
 11
148.5128210875
 21
84.4004255857
  0
LWPOLYLINE
  5
252
100
AcDbEntity
  8
IMPORT_IGES
100
AcDbPolyline
 62
250
  6
CONTINUOUS
 90
9
 70
0
 10
137.3034687979
 20
82.9449324896
 10
137.2346991214
 20
82.9345389201
 10
137.1600158599
 20
82.9318404724
 10
137.082498741
 20
82.9374339279
 10
137.0021944082
 20
82.9511950121
 10
136.9204048698
 20
82.9729433971
 10
136.8375641288
 20
83.0026189737
 10
136.7532381824
 20
83.0402818511
 10
136.6674270305
 20
83.0859320294
  0
LWPOLYLINE
  5
253
100
AcDbEntity
  8
IMPORT_IGES
100
AcDbPolyline
 62
7
  6
CONTINUOUS
 90
3
 70
0
 10
136.8795328405
 20
82.4051459653
 10
136.8194413026
 20
82.3963031233
 10
136.7586651865
 20
82.3956806086
  0
LWPOLYLINE
  5
254
100
AcDbEntity
  8
IMPORT_IGES
100
AcDbPolyline
 62
7
  6
CONTINUOUS
 90
19
 70
0
 10
138.5615944255
 20
82.2422194169
 10
138.6082785615
 20
82.2454796406
 10
138.653717089
 20
82.248057996
 10
138.6979100079
 20
82.249954483
 10
138.7408327367
 20
82.25115768
 10
138.7825098569
 20
82.2516790087
 10
138.8230151131
 20
82.251552734
 10
138.862350121
 20
82.2507815431
 10
138.9005132648
 20
82.2493627489
 10
138.9375734423
 20
82.2473225555
 10
138.9735362899
 20
82.2446633674
 10
139.0083961711
 20
82.2413827802
 10
139.0422050739
 20
82.2374997843
 10
139.0749705232
 20
82.2330154019
 10
139.106684994
 20
82.2279286108
 10
139.1373778996
 20
82.2222553349
 10
139.167048159
 20
82.2159976243
 10
139.1956968532
 20
82.2091534288
 10
139.2057707964
 20
82.2064506676
  0
LWPOLYLINE
  5
255
100
AcDbEntity
  8
IMPORT_IGES
100
AcDbPolyline
 62
7
  6
CONTINUOUS
 90
30
 70
0
 10
136.7586651865
 20
82.3956806086
 10
136.7515133247
 20
82.3962739067
 10
136.7447295111
 20
82.3970326192
 10
136.7383178447
 20
82.3979514765
 10
136.7322859123
 20
82.3990274805
 10
136.726634054
 20
82.4002523016
 10
136.7213552043
 20
82.4016123166
 10
136.7164514339
 20
82.4030993813
 10
136.7119274493
 20
82.404708896
 10
136.7077799723
 20
82.4064321532
 10
136.7040099461
 20
82.4082608231
 10
136.7006226095
 20
82.4101888743
 10
136.6976212095
 20
82.4122105245
 10
136.6950071627
 20
82.414315889
 10
136.6927841444
 20
82.4164989469
 10
136.6909592819
 20
82.4187588581
 10
136.689532692
 20
82.4210871562
 10
136.6885093284
 20
82.423473886
 10
136.6879035383
 20
82.4259153535
 10
136.687719856
 20
82.4284105804
 10
136.6879568716
 20
82.430940478
 10
136.6886151606
 20
82.4334777773
 10
136.6896930601
 20
82.4360135218
 10
136.691183766
 20
82.4385454141
 10
136.6930749969
 20
82.4410609657
 10
136.6953577318
 20
82.4435520517
 10
136.6980301554
 20
82.446018317
 10
136.7010905918
 20
82.4484590574
 10
136.7045314807
 20
82.450867873
 10
136.7083503109
 20
82.4532415733
  0
LWPOLYLINE
  5
256
100
AcDbEntity
  8
0
100
AcDbPolyline
 62
7
  6
CONTINUOUS
 90
28
 70
0
 10
136.7586651865
 20
82.3956806086
 10
136.751232629
 20
82.3962991534
 10
136.7441836876
 20
82.3971013992
 10
136.7375241965
 20
82.3980811778
 10
136.7312625526
 20
82.3992328707
 10
136.7254017122
 20
82.4005485603
 10
136.7199393578
 20
82.4020179796
 10
136.7148786756
 20
82.4036309276
 10
136.7102272926
 20
82.4053815205
 10
136.7059899656
 20
82.4072651014
 10
136.7021695724
 20
82.4092699238
 10
136.6987737689
 20
82.4113886569
 10
136.6958154735
 20
82.4136219582
 10
136.6932966252
 20
82.4159571998
 10
136.6912258606
 20
82.4183840862
 10
136.6896270895
 20
82.4209051753
 10
136.6885029757
 20
82.4235082808
 10
136.6878603012
 20
82.4261785619
 10
136.6877284324
 20
82.4289138823
 10
136.6881148004
 20
82.4317080948
 10
136.6890173635
 20
82.4345378627
 10
136.6904455521
 20
82.4373793402
 10
136.6924225535
 20
82.4402447291
 10
136.6949194171
 20
82.4430985195
 10
136.6978509752
 20
82.4458638233
 10
136.7011737459
 20
82.4485246879
 10
136.70489863
 20
82.4511102796
 10
136.709011492
 20
82.4536267299
  0
LWPOLYLINE
  5
257
100
AcDbEntity
  8
0
100
AcDbPolyline
 62
7
  6
CONTINUOUS
 90
10
 70
0
 10
143.1020987393
 20
78.4316213929
 10
143.217851897
 20
78.3709461068
 10
143.3309961706
 20
78.3228630892
 10
143.4415315601
 20
78.28737234
 10
143.5502815565
 20
78.2644202647
 10
143.6564226688
 20
78.2540604578
 10
143.7574844239
 20
78.2564537031
 10
143.8533181214
 20
78.2719334749
 10
143.9440724616
 20
78.3001662988
 10
144.0271398247
 20
78.3399764751
  0
LWPOLYLINE
  5
258
100
AcDbEntity
  8
0
100
AcDbPolyline
 62
7
  6
CONTINUOUS
 90
10
 70
0
 10
139.5665648333
 20
80.4729943595
 10
139.682317991
 20
80.4123190735
 10
139.7954622646
 20
80.3642360559
 10
139.9059976541
 20
80.3287453067
 10
140.0147476505
 20
80.3057932313
 10
140.1208887629
 20
80.2954334244
 10
140.221950518
 20
80.2978266697
 10
140.3177842154
 20
80.3133064415
 10
140.4085385557
 20
80.3415392654
 10
140.4916059187
 20
80.3813494417
  0
LWPOLYLINE
  5
259
100
AcDbEntity
  8
0
100
AcDbPolyline
 62
7
  6
CONTINUOUS
 90
10
 70
0
 10
136.0310309274
 20
82.5143673262
 10
136.1467840851
 20
82.4536920401
 10
136.2599283587
 20
82.4056090225
 10
136.3704637482
 20
82.3701182733
 10
136.4792137446
 20
82.347166198
 10
136.5853548569
 20
82.3368063911
 10
136.6864166121
 20
82.3391996364
 10
136.7822503095
 20
82.3546794081
 10
136.8730046497
 20
82.3829122321
 10
136.9560720128
 20
82.4227224083
  0
LWPOLYLINE
  5
25A
100
AcDbEntity
  8
IMPORT_IGES
100
AcDbPolyline
 62
7
  6
CONTINUOUS
 90
11
 70
0
 10
143.1020987393
 20
78.4316213929
 10
143.2086462805
 20
78.3752837879
 10
143.313155268
 20
78.3296166217
 10
143.4156257018
 20
78.2946198942
 10
143.5167153817
 20
78.2702175463
 10
143.6157665079
 20
78.2564856372
 10
143.7108056806
 20
78.2536523441
 10
143.8017399438
 20
78.2619686834
 10
143.8886622535
 20
78.2811836388
 10
143.9698780789
 20
78.3107723389
 10
144.0271406535
 20
78.3399750301
  0
LWPOLYLINE
  5
25B
100
AcDbEntity
  8
IMPORT_IGES
100
AcDbPolyline
 62
7
  6
CONTINUOUS
 90
11
 70
0
 10
139.5665648333
 20
80.4729943595
 10
139.6731123746
 20
80.4166567546
 10
139.7776213621
 20
80.3709895883
 10
139.8800917959
 20
80.3359928608
 10
139.9811814758
 20
80.3115905129
 10
140.0802326019
 20
80.2978586038
 10
140.1752717747
 20
80.2950253108
 10
140.2662060378
 20
80.30334165
 10
140.3531283476
 20
80.3225566054
 10
140.434344173
 20
80.3521453055
 10
140.4916067476
 20
80.3813479967
  0
LWPOLYLINE
  5
25C
100
AcDbEntity
  8
IMPORT_IGES
100
AcDbPolyline
 62
7
  6
CONTINUOUS
 90
11
 70
0
 10
136.0310309274
 20
82.5143673262
 10
136.1375784686
 20
82.4580297212
 10
136.2420874562
 20
82.412362555
 10
136.3445578899
 20
82.3773658275
 10
136.4456475698
 20
82.3529634796
 10
136.544698696
 20
82.3392315704
 10
136.6397378688
 20
82.3363982774
 10
136.7306721319
 20
82.3447146167
 10
136.8175944417
 20
82.363929572
 10
136.8988102671
 20
82.3935182722
 10
136.9560728416
 20
82.4227209633
  0
LINE
  5
25D
100
AcDbEntity
  8
0
100
AcDbLine
 62
7
  6
CONTINUOUS
 10
123.6980787808
 20
89.1839502851
 11
144.9112822164
 21
76.9357124853
  0
LINE
  5
25E
100
AcDbEntity
  8
IMPORT_IGES
100
AcDbLine
 62
7
  6
CONTINUOUS
 10
123.6980787808
 20
89.1839502851
 11
144.9112822164
 21
76.9357124853
  0
LINE
  5
25F
100
AcDbEntity
  8
IMPORT_IGES
100
AcDbLine
 62
250
  6
CONTINUOUS
 10
144.8698656922
 20
77.0272598575
 11
123.6566622566
 21
89.2754976574
  0
LINE
  5
260
100
AcDbEntity
  8
0
100
AcDbLine
 62
250
  6
CONTINUOUS
 10
123.6566622566
 20
89.2754976574
 11
144.8698656922
 21
77.0272598575
  0
LWPOLYLINE
  5
261
100
AcDbEntity
  8
IMPORT_IGES
100
AcDbPolyline
 62
7
  6
CONTINUOUS
 90
10
 70
0
 10
124.8996753592
 20
89.2429127069
 10
124.8145310557
 20
89.327787843
 10
124.7361633773
 20
89.4165753012
 10
124.6645723238
 20
89.5092750813
 10
124.5997578954
 20
89.6058871835
 10
124.5417200919
 20
89.7064116078
 10
124.4904589135
 20
89.810848354
 10
124.44597436
 20
89.9191974223
 10
124.4082664316
 20
90.0314588127
 10
124.3773351281
 20
90.147632525
  0
LINE
  5
262
100
AcDbEntity
  8
0
100
AcDbLine
 62
250
  6
CONTINUOUS
 10
124.8996753592
 20
89.2429127069
 11
124.3773351281
 21
90.147632525
  0
LINE
  5
263
100
AcDbEntity
  8
IMPORT_IGES
100
AcDbLine
 62
250
  6
CONTINUOUS
 10
124.8996753592
 20
89.2429127069
 11
124.3773351281
 21
90.147632525
  0
LINE
  5
264
100
AcDbEntity
  8
0
100
AcDbLine
 62
250
  6
CONTINUOUS
 10
124.4194588017
 20
90.4077112834
 11
125.1459709069
 21
89.1493554063
  0
LINE
  5
265
100
AcDbEntity
  8
IMPORT_IGES
100
AcDbLine
 62
250
  6
CONTINUOUS
 10
125.1459709069
 20
89.1493554063
 11
124.4194588017
 21
90.4077112834
  0
LINE
  5
266
100
AcDbEntity
  8
0
100
AcDbLine
 62
7
  6
CONTINUOUS
 10
124.8959960223
 20
90.9514990583
 11
124.8969291784
 21
90.9413527613
  0
LINE
  5
267
100
AcDbEntity
  8
IMPORT_IGES
100
AcDbLine
 62
7
  6
CONTINUOUS
 10
124.8960063708
 20
90.9513865382
 11
124.8969263136
 21
90.9413501797
  0
LWPOLYLINE
  5
268
100
AcDbEntity
  8
0
100
AcDbPolyline
 62
7
  6
CONTINUOUS
 90
8
 70
0
 10
123.6566622566
 20
89.2754976574
 10
123.6579190375
 20
89.2556317859
 10
123.6610948752
 20
89.2378263455
 10
123.6661897697
 20
89.2220813361
 10
123.6733336638
 20
89.2082592878
 10
123.6823966147
 20
89.1964976705
 10
123.6929887944
 20
89.1872088939
 10
123.6980874368
 20
89.1839653199
  0
LWPOLYLINE
  5
269
100
AcDbEntity
  8
IMPORT_IGES
100
AcDbPolyline
 62
7
  6
CONTINUOUS
 90
8
 70
0
 10
123.6566622566
 20
89.2754976574
 10
123.6579190375
 20
89.2556317859
 10
123.6610948752
 20
89.2378263455
 10
123.6661897697
 20
89.2220813361
 10
123.6733336638
 20
89.2082592878
 10
123.6823966147
 20
89.1964976705
 10
123.6929887944
 20
89.1872088939
 10
123.6980874368
 20
89.1839653199
  0
LINE
  5
26A
100
AcDbEntity
  8
RACCORDO
100
AcDbLine
 62
250
  6
CONTINUOUS
 10
123.3827857934
 20
95.4663488674
 11
123.3828785986
 21
95.4517986472
  0
LWPOLYLINE
  5
26B
100
AcDbEntity
  8
RACCORDO
100
AcDbPolyline
 62
250
  6
CONTINUOUS
 90
9
 70
0
 10
124.0271508546
 20
94.6553941513
 10
124.0315447469
 20
94.5583527051
 10
124.0446809184
 20
94.4673902257
 10
124.0664233242
 20
94.3834487662
 10
124.0965467891
 20
94.3073976667
 10
124.1347393394
 20
94.2400245506
 10
124.1806054336
 20
94.1820271679
 10
124.2336700596
 20
94.1340061686
 10
124.2755079214
 20
94.1061919911
  0
LWPOLYLINE
  5
26C
100
AcDbEntity
  8
RACCORDO
100
AcDbPolyline
 62
7
  6
CONTINUOUS
 90
16
 70
0
 10
123.3827970958
 20
95.4664158347
 10
123.3828785986
 20
95.4517986472
 10
123.3894224127
 20
95.3335415043
 10
123.4064726462
 20
95.2155899982
 10
123.434047432
 20
95.0986608141
 10
123.4720047333
 20
94.9837779539
 10
123.5195345147
 20
94.8729465857
 10
123.5758770395
 20
94.7669704192
 10
123.6406124202
 20
94.6658391528
 10
123.7132870765
 20
94.5696844099
 10
123.7932944516
 20
94.4787593113
 10
123.8806842306
 20
94.3925330091
 10
123.9768961489
 20
94.309562388
 10
124.0831608651
 20
94.2292005801
 10
124.1996055927
 20
94.1517601348
 10
124.2755079217
 20
94.106191991
  0
LINE
  5
26D
100
AcDbEntity
  8
RACCORDO
100
AcDbLine
 62
7
  6
CONTINUOUS
 10
123.3827857733
 20
95.4664881482
 11
123.3827857934
 21
95.4663488674
  0
LINE
  5
26E
100
AcDbEntity
  8
SUPERFICI
100
AcDbLine
 62
7
  6
CONTINUOUS
 10
123.3827857732
 20
95.4665554454
 11
123.3827857732
 21
115.0202438791
  0
LINE
  5
26F
100
AcDbEntity
  8
0
100
AcDbLine
 62
7
  6
CONTINUOUS
 10
123.6566622566
 20
93.0855184778
 11
123.6566622566
 21
89.2754976574
  0
LINE
  5
270
100
AcDbEntity
  8
IMPORT_IGES
100
AcDbLine
 62
7
  6
CONTINUOUS
 10
123.6566622566
 20
89.2754976574
 11
123.6566622566
 21
93.0855184778
  0
LINE
  5
271
100
AcDbEntity
  8
RACCORDO
100
AcDbLine
 62
250
  6
CONTINUOUS
 10
124.0271508546
 20
94.6553941513
 11
124.0271508546
 21
114.1220397737
  0
LWPOLYLINE
  5
272
100
AcDbEntity
  8
RACCORDO
100
AcDbPolyline
 62
250
  6
CONTINUOUS
 90
19
 70
0
 10
124.0271508546
 20
114.1220397737
 10
124.0303797604
 20
114.2092961915
 10
124.0400419037
 20
114.2996171947
 10
124.0560637498
 20
114.3923153859
 10
124.0783233628
 20
114.4866852759
 10
124.1066513336
 20
114.5820086529
 10
124.1408320692
 20
114.6775600484
 10
124.1806054337
 20
114.7726122586
 10
124.2256687276
 20
114.8664418787
 10
124.2756789921
 20
114.9583348088
 10
124.3302556189
 20
115.0475916881
 10
124.3889832469
 20
115.1335332178
 10
124.4514149234
 20
115.2155053311
 10
124.5170755056
 20
115.2928841707
 10
124.5854652769
 20
115.3650808369
 10
124.6560637498
 20
115.4315458694
 10
124.7283336273
 20
115.4917734292
 10
124.801724892
 20
115.5453051483
 10
124.8756789921
 20
115.5917336179
  0
LINE
  5
273
100
AcDbEntity
  8
RACCORDO
100
AcDbLine
 62
250
  6
CONTINUOUS
 10
146.1595931058
 20
84.6221446538
 11
149.9499081775
 21
85.2176955639
  0
LWPOLYLINE
  5
274
100
AcDbEntity
  8
RACCORDO
100
AcDbPolyline
 62
7
  6
CONTINUOUS
 90
10
 70
0
 10
150.7997580606
 20
85.0283780868
 10
150.9017607306
 20
85.0407909474
 10
151.0041357117
 20
85.049772127
 10
151.1068830039
 20
85.0553216256
 10
151.2103094276
 20
85.0574399175
 10
151.3141081625
 20
85.0561265284
 10
151.4173587478
 20
85.0513800354
 10
151.5197543634
 20
85.0431999642
 10
151.6216018295
 20
85.031586789
 10
151.722901146
 20
85.0165405099
  0
LWPOLYLINE
  5
275
100
AcDbEntity
  8
IMPORT_IGES
100
AcDbPolyline
 62
7
  6
CONTINUOUS
 90
19
 70
0
 10
135.0260605195
 20
84.2835923835
 10
135.0727446556
 20
84.2868526072
 10
135.1181831831
 20
84.2894309626
 10
135.162376102
 20
84.2913274496
 10
135.2052988308
 20
84.2925306466
 10
135.246975951
 20
84.2930519753
 10
135.2874812072
 20
84.2929257007
 10
135.326816215
 20
84.2921545097
 10
135.3649793589
 20
84.2907357155
 10
135.4020395364
 20
84.2886955221
 10
135.438002384
 20
84.2860363341
 10
135.4728622652
 20
84.2827557468
 10
135.506671168
 20
84.2788727509
 10
135.5394366172
 20
84.2743883685
 10
135.571151088
 20
84.2693015775
 10
135.6018439937
 20
84.2636283016
 10
135.631514253
 20
84.2573705909
 10
135.6601629472
 20
84.2505263954
 10
135.6702368905
 20
84.2478236342
  0
LWPOLYLINE
  5
276
100
AcDbEntity
  8
IMPORT_IGES
100
AcDbPolyline
 62
7
  6
CONTINUOUS
 90
30
 70
0
 10
133.2231312806
 20
84.4370535753
 10
133.2159794187
 20
84.4376468734
 10
133.2091956052
 20
84.4384055858
 10
133.2027839388
 20
84.4393244431
 10
133.1967520064
 20
84.4404004471
 10
133.1911001481
 20
84.4416252682
 10
133.1858212984
 20
84.4429852832
 10
133.1809175279
 20
84.4444723479
 10
133.1763935433
 20
84.4460818626
 10
133.1722460664
 20
84.4478051198
 10
133.1684760402
 20
84.4496337897
 10
133.1650887035
 20
84.4515618409
 10
133.1620873036
 20
84.4535834912
 10
133.1594732568
 20
84.4556888556
 10
133.1572502384
 20
84.4578719135
 10
133.1554253759
 20
84.4601318247
 10
133.1539987861
 20
84.4624601228
 10
133.1529754225
 20
84.4648468526
 10
133.1523696323
 20
84.4672883201
 10
133.1521859501
 20
84.4697835471
 10
133.1524229657
 20
84.4723134447
 10
133.1530812547
 20
84.4748507439
 10
133.1541591542
 20
84.4773864885
 10
133.15564986
 20
84.4799183807
 10
133.157541091
 20
84.4824339324
 10
133.1598238258
 20
84.4849250183
 10
133.1624962495
 20
84.4873912836
 10
133.1655566859
 20
84.4898320241
 10
133.1689975747
 20
84.4922408397
 10
133.172816405
 20
84.4946145399
  0
LWPOLYLINE
  5
277
100
AcDbEntity
  8
0
100
AcDbPolyline
 62
7
  6
CONTINUOUS
 90
28
 70
0
 10
133.2231312806
 20
84.4370535753
 10
133.2156987231
 20
84.43767212
 10
133.2086497816
 20
84.4384743658
 10
133.2019902905
 20
84.4394541444
 10
133.1957286467
 20
84.4406058373
 10
133.1898678063
 20
84.441921527
 10
133.1844054518
 20
84.4433909462
 10
133.1793447697
 20
84.4450038943
 10
133.1746933867
 20
84.4467544871
 10
133.1704560597
 20
84.448638068
 10
133.1666356664
 20
84.4506428905
 10
133.163239863
 20
84.4527616236
 10
133.1602815676
 20
84.4549949249
 10
133.1577627193
 20
84.4573301664
 10
133.1556919547
 20
84.4597570528
 10
133.1540931835
 20
84.462278142
 10
133.1529690698
 20
84.4648812475
 10
133.1523263953
 20
84.4675515286
 10
133.1521945265
 20
84.4702868489
 10
133.1525808944
 20
84.4730810614
 10
133.1534834575
 20
84.4759108294
 10
133.1549116461
 20
84.4787523068
 10
133.1568886476
 20
84.4816176958
 10
133.1593855111
 20
84.4844714861
 10
133.1623170692
 20
84.4872367899
 10
133.16563984
 20
84.4898976545
 10
133.1693647241
 20
84.4924832462
 10
133.173477586
 20
84.4949996965
  0
LINE
  5
278
100
AcDbEntity
  8
RACCORDO
100
AcDbLine
 62
7
  6
CONTINUOUS
 10
142.1897882119
 20
84.5565108383
 11
142.1897518898
 21
84.5565159548
  0
LWPOLYLINE
  5
279
100
AcDbEntity
  8
IMPORT_IGES
100
AcDbPolyline
 62
7
  6
CONTINUOUS
 90
8
 70
0
 10
142.995551198
 20
81.508899022
 10
142.8910422105
 20
81.5545661883
 10
142.7885717767
 20
81.5895629158
 10
142.6874820968
 20
81.6139652636
 10
142.5884309707
 20
81.6276971728
 10
142.4933917979
 20
81.6305304658
 10
142.4024575347
 20
81.6222141266
 10
142.315535225
 20
81.6029991712
  0
LWPOLYLINE
  5
27A
100
AcDbEntity
  8
IMPORT_IGES
100
AcDbPolyline
 62
7
  6
CONTINUOUS
 90
8
 70
0
 10
139.4600172921
 20
83.5502719887
 10
139.3555083046
 20
83.5959391549
 10
139.2530378708
 20
83.6309358824
 10
139.1519481909
 20
83.6553382303
 10
139.0528970647
 20
83.6690701394
 10
138.9578578919
 20
83.6719034325
 10
138.8669236288
 20
83.6635870932
 10
138.7800013191
 20
83.6443721378
  0
LWPOLYLINE
  5
27B
100
AcDbEntity
  8
0
100
AcDbPolyline
 62
7
  6
CONTINUOUS
 90
10
 70
0
 10
132.4954970215
 20
84.5557402928
 10
132.6112501792
 20
84.4950650068
 10
132.7243944528
 20
84.4469819891
 10
132.8349298423
 20
84.41149124
 10
132.9436798387
 20
84.3885391646
 10
133.049820951
 20
84.3781793577
 10
133.1508827061
 20
84.380572603
 10
133.2467164036
 20
84.3960523748
 10
133.3374707438
 20
84.4242851987
 10
133.4205381069
 20
84.464095375
  0
LWPOLYLINE
  5
27C
100
AcDbEntity
  8
0
100
AcDbPolyline
 62
7
  6
CONTINUOUS
 90
10
 70
0
 10
128.9599631155
 20
86.5971132595
 10
129.0757162732
 20
86.5364379734
 10
129.1888605468
 20
86.4883549558
 10
129.2993959363
 20
86.4528642066
 10
129.4081459327
 20
86.4299121313
 10
129.5142870451
 20
86.4195523244
 10
129.6153488002
 20
86.4219455696
 10
129.7111824976
 20
86.4374253414
 10
129.8019368379
 20
86.4656581654
 10
129.8850042009
 20
86.5054683416
  0
LWPOLYLINE
  5
27D
100
AcDbEntity
  8
0
100
AcDbPolyline
 62
7
  6
CONTINUOUS
 90
10
 70
0
 10
125.4244292096
 20
88.6384862261
 10
125.5401823673
 20
88.57781094
 10
125.6533266409
 20
88.5297279224
 10
125.7638620304
 20
88.4942371732
 10
125.8726120268
 20
88.4712850979
 10
125.9787531391
 20
88.460925291
 10
126.0798148943
 20
88.4633185363
 10
126.1756485917
 20
88.4787983081
 10
126.2664029319
 20
88.507031132
 10
126.349470295
 20
88.5468413083
  0
LWPOLYLINE
  5
27E
100
AcDbEntity
  8
IMPORT_IGES
100
AcDbPolyline
 62
7
  6
CONTINUOUS
 90
11
 70
0
 10
132.4954970215
 20
84.5557402928
 10
132.6020445627
 20
84.4994026878
 10
132.7065535502
 20
84.4537355216
 10
132.809023984
 20
84.4187387941
 10
132.9101136639
 20
84.3943364462
 10
133.0091647901
 20
84.3806045371
 10
133.1042039628
 20
84.377771244
 10
133.195138226
 20
84.3860875833
 10
133.2820605357
 20
84.4053025387
 10
133.3632763611
 20
84.4348912388
 10
133.4205389357
 20
84.46409393
  0
LWPOLYLINE
  5
27F
100
AcDbEntity
  8
IMPORT_IGES
100
AcDbPolyline
 62
7
  6
CONTINUOUS
 90
11
 70
0
 10
128.9599631155
 20
86.5971132595
 10
129.0665106568
 20
86.5407756545
 10
129.1710196443
 20
86.4951084882
 10
129.2734900781
 20
86.4601117607
 10
129.374579758
 20
86.4357094129
 10
129.4736308841
 20
86.4219775037
 10
129.5686700569
 20
86.4191442107
 10
129.65960432
 20
86.4274605499
 10
129.7465266298
 20
86.4466755053
 10
129.8277424552
 20
86.4762642054
 10
129.8850050298
 20
86.5054668966
  0
LWPOLYLINE
  5
280
100
AcDbEntity
  8
IMPORT_IGES
100
AcDbPolyline
 62
7
  6
CONTINUOUS
 90
11
 70
0
 10
125.4244292096
 20
88.6384862261
 10
125.5309767508
 20
88.5821486211
 10
125.6354857384
 20
88.5364814549
 10
125.7379561721
 20
88.5014847274
 10
125.839045852
 20
88.4770823795
 10
125.9380969782
 20
88.4633504704
 10
126.033136151
 20
88.4605171773
 10
126.1240704141
 20
88.4688335166
 10
126.2109927239
 20
88.488048472
 10
126.2922085493
 20
88.5176371721
 10
126.3494711238
 20
88.5468398632
  0
LINE
  5
281
100
AcDbEntity
  8
0
100
AcDbLine
 62
7
  6
CONTINUOUS
 10
144.3501027855
 20
79.6706391809
 11
142.634524734
 21
80.6611924466
  0
LINE
  5
282
100
AcDbEntity
  8
0
100
AcDbLine
 62
7
  6
CONTINUOUS
 10
140.8145688796
 20
81.7120121476
 11
139.0989908281
 21
82.7025654133
  0
LINE
  5
283
100
AcDbEntity
  8
0
100
AcDbLine
 62
7
  6
CONTINUOUS
 10
137.2790349737
 20
83.7533851142
 11
135.5634569222
 21
84.7439383799
  0
LINE
  5
284
100
AcDbEntity
  8
0
100
AcDbLine
 62
7
  6
CONTINUOUS
 10
133.7435010677
 20
85.7947580808
 11
132.0279230162
 21
86.7853113465
  0
LINE
  5
285
100
AcDbEntity
  8
0
100
AcDbLine
 62
7
  6
CONTINUOUS
 10
130.2079671618
 20
87.8361310475
 11
128.4923891103
 21
88.8266843132
  0
LINE
  5
286
100
AcDbEntity
  8
0
100
AcDbLine
 62
7
  6
CONTINUOUS
 10
126.6724332559
 20
89.8775040141
 11
124.9568552044
 21
90.8680572798
  0
LINE
  5
287
100
AcDbEntity
  8
IMPORT_IGES
100
AcDbLine
 62
7
  6
CONTINUOUS
 10
124.9568552044
 20
90.8680572798
 11
126.6724332559
 21
89.8775040141
  0
LINE
  5
288
100
AcDbEntity
  8
IMPORT_IGES
100
AcDbLine
 62
7
  6
CONTINUOUS
 10
128.4923891103
 20
88.8266843132
 11
130.2079671618
 21
87.8361310475
  0
LINE
  5
289
100
AcDbEntity
  8
IMPORT_IGES
100
AcDbLine
 62
7
  6
CONTINUOUS
 10
132.0279230162
 20
86.7853113465
 11
133.7435010677
 21
85.7947580808
  0
LINE
  5
28A
100
AcDbEntity
  8
IMPORT_IGES
100
AcDbLine
 62
7
  6
CONTINUOUS
 10
135.5634569222
 20
84.7439383799
 11
137.2790349737
 21
83.7533851142
  0
LINE
  5
28B
100
AcDbEntity
  8
IMPORT_IGES
100
AcDbLine
 62
7
  6
CONTINUOUS
 10
139.0989908281
 20
82.7025654133
 11
140.8145688796
 21
81.7120121476
  0
LINE
  5
28C
100
AcDbEntity
  8
IMPORT_IGES
100
AcDbLine
 62
7
  6
CONTINUOUS
 10
142.634524734
 20
80.6611924466
 11
144.3501027855
 21
79.6706391809
  0
LWPOLYLINE
  5
28D
100
AcDbEntity
  8
IMPORT_IGES
100
AcDbPolyline
 62
250
  6
CONTINUOUS
 90
19
 70
0
 10
126.0608253127
 20
89.2100509293
 10
125.9750196037
 20
89.2634894044
 10
125.8906982947
 20
89.3232001098
 10
125.8078613858
 20
89.3891830453
 10
125.7260748708
 20
89.4618790994
 10
125.6457727559
 20
89.5408473838
 10
125.5682570593
 20
89.624765233
 10
125.4935743612
 20
89.7137031188
 10
125.4216780815
 20
89.8075905696
 10
125.3537304979
 20
89.9048935056
 10
125.2897910695
 20
90.0056634072
 10
125.2298003372
 20
90.1098487939
 10
125.1747422011
 20
90.2157611451
 10
125.1246887205
 20
90.3234327014
 10
125.0795678362
 20
90.432831222
 10
125.0401472702
 20
90.5421714645
 10
125.0066829299
 20
90.6508583478
 10
124.978918908
 20
90.7594869529
 10
124.9568552044
 20
90.8680572798
  0
LWPOLYLINE
  5
28E
100
AcDbEntity
  8
IMPORT_IGES
100
AcDbPolyline
 62
250
  6
CONTINUOUS
 90
19
 70
0
 10
129.5963592186
 20
87.1686779627
 10
129.5105535096
 20
87.2221164378
 10
129.4262322007
 20
87.2818271431
 10
129.3433952917
 20
87.3478100787
 10
129.2616087768
 20
87.4205061328
 10
129.1813066618
 20
87.4994744171
 10
129.1037909652
 20
87.5833922664
 10
129.0291082672
 20
87.6723301522
 10
128.9572119875
 20
87.766217603
 10
128.8892644038
 20
87.863520539
 10
128.8253249755
 20
87.9642904405
 10
128.7653342431
 20
88.0684758273
 10
128.710276107
 20
88.1743881785
 10
128.6602226265
 20
88.2820597347
 10
128.6151017421
 20
88.3914582554
 10
128.5756811762
 20
88.5007984978
 10
128.5422168359
 20
88.6094853812
 10
128.5144528139
 20
88.7181139863
 10
128.4923891103
 20
88.8266843132
  0
LWPOLYLINE
  5
28F
100
AcDbEntity
  8
IMPORT_IGES
100
AcDbPolyline
 62
250
  6
CONTINUOUS
 90
19
 70
0
 10
133.1318931245
 20
85.127304996
 10
133.0460874155
 20
85.1807434712
 10
132.9617661066
 20
85.2404541765
 10
132.8789291977
 20
85.306437112
 10
132.7971426827
 20
85.3791331662
 10
132.7168405677
 20
85.4581014505
 10
132.6393248711
 20
85.5420192998
 10
132.5646421731
 20
85.6309571856
 10
132.4927458934
 20
85.7248446364
 10
132.4247983098
 20
85.8221475724
 10
132.3608588814
 20
85.9229174739
 10
132.3008681491
 20
86.0271028607
 10
132.245810013
 20
86.1330152118
 10
132.1957565324
 20
86.2406867681
 10
132.1506356481
 20
86.3500852887
 10
132.1112150821
 20
86.4594255312
 10
132.0777507418
 20
86.5681124145
 10
132.0499867199
 20
86.6767410196
 10
132.0279230162
 20
86.7853113465
  0
LWPOLYLINE
  5
290
100
AcDbEntity
  8
IMPORT_IGES
100
AcDbPolyline
 62
250
  6
CONTINUOUS
 90
19
 70
0
 10
136.6674270305
 20
83.0859320294
 10
136.5816213215
 20
83.1393705045
 10
136.4973000125
 20
83.1990812099
 10
136.4144631036
 20
83.2650641454
 10
136.3326765886
 20
83.3377601995
 10
136.2523744737
 20
83.4167284838
 10
136.1748587771
 20
83.5006463331
 10
136.100176079
 20
83.5895842189
 10
136.0282797993
 20
83.6834716697
 10
135.9603322157
 20
83.7807746057
 10
135.8963927873
 20
83.8815445073
 10
135.836402055
 20
83.985729894
 10
135.7813439189
 20
84.0916422452
 10
135.7312904383
 20
84.1993138014
 10
135.686169554
 20
84.3087123221
 10
135.646748988
 20
84.4180525646
 10
135.6132846477
 20
84.5267394479
 10
135.5855206258
 20
84.635368053
 10
135.5634569222
 20
84.7439383799
  0
LWPOLYLINE
  5
291
100
AcDbEntity
  8
IMPORT_IGES
100
AcDbPolyline
 62
250
  6
CONTINUOUS
 90
19
 70
0
 10
140.2029609364
 20
81.0445590627
 10
140.1171552274
 20
81.0979975379
 10
140.0328339185
 20
81.1577082432
 10
139.9499970095
 20
81.2236911788
 10
139.8682104946
 20
81.2963872329
 10
139.7879083796
 20
81.3753555172
 10
139.710392683
 20
81.4592733665
 10
139.635709985
 20
81.5482112523
 10
139.5638137053
 20
81.6420987031
 10
139.4958661216
 20
81.7394016391
 10
139.4319266932
 20
81.8401715406
 10
139.3719359609
 20
81.9443569274
 10
139.3168778248
 20
82.0502692786
 10
139.2668243443
 20
82.1579408348
 10
139.2217034599
 20
82.2673393555
 10
139.182282894
 20
82.3766795979
 10
139.1488185537
 20
82.4853664812
 10
139.1210545317
 20
82.5939950864
 10
139.0989908281
 20
82.7025654133
  0
LWPOLYLINE
  5
292
100
AcDbEntity
  8
IMPORT_IGES
100
AcDbPolyline
 62
250
  6
CONTINUOUS
 90
19
 70
0
 10
143.7384948423
 20
79.0031860961
 10
143.6526891333
 20
79.0566245713
 10
143.5683678244
 20
79.1163352766
 10
143.4855309155
 20
79.1823182121
 10
143.4037444005
 20
79.2550142662
 10
143.3234422855
 20
79.3339825506
 10
143.2459265889
 20
79.4179003999
 10
143.1712438909
 20
79.5068382857
 10
143.0993476112
 20
79.6007257364
 10
143.0314000276
 20
79.6980286724
 10
142.9674605992
 20
79.798798574
 10
142.9074698669
 20
79.9029839607
 10
142.8524117308
 20
80.0088963119
 10
142.8023582502
 20
80.1165678682
 10
142.7572373659
 20
80.2259663888
 10
142.7178167999
 20
80.3353066313
 10
142.6843524596
 20
80.4439935146
 10
142.6565884376
 20
80.5526221197
 10
142.634524734
 20
80.6611924466
  0
LWPOLYLINE
  5
293
100
AcDbEntity
  8
0
100
AcDbPolyline
 62
250
  6
CONTINUOUS
 90
16
 70
0
 10
126.0608253127
 20
89.2100509293
 10
125.9574202872
 20
89.2755017693
 10
125.8565703174
 20
89.3495912555
 10
125.7582754034
 20
89.4323193881
 10
125.6618192321
 20
89.5244819947
 10
125.5679181165
 20
89.6252832476
 10
125.4787209962
 20
89.7323356636
 10
125.3943288674
 20
89.8457678566
 10
125.314640734
 20
89.9654512127
 10
125.2415025466
 20
90.0886124068
 10
125.1750503255
 20
90.2153273766
 10
125.1151480504
 20
90.3455201845
 10
125.0632336117
 20
90.4761896925
 10
125.0197863062
 20
90.6063355215
 10
124.9843268371
 20
90.7369580506
 10
124.9568552044
 20
90.8680572798
  0
LWPOLYLINE
  5
294
100
AcDbEntity
  8
0
100
AcDbPolyline
 62
250
  6
CONTINUOUS
 90
16
 70
0
 10
129.5963592186
 20
87.1686779627
 10
129.4929541931
 20
87.2341288026
 10
129.3921042233
 20
87.3082182889
 10
129.2938093094
 20
87.3909464215
 10
129.197353138
 20
87.4831090281
 10
129.1034520224
 20
87.583910281
 10
129.0142549021
 20
87.690962697
 10
128.9298627733
 20
87.80439489
 10
128.8501746399
 20
87.924078246
 10
128.7770364525
 20
88.0472394401
 10
128.7105842314
 20
88.17395441
 10
128.6506819563
 20
88.3041472178
 10
128.5987675177
 20
88.4348167259
 10
128.5553202122
 20
88.5649625548
 10
128.519860743
 20
88.6955850839
 10
128.4923891103
 20
88.8266843132
  0
LWPOLYLINE
  5
295
100
AcDbEntity
  8
0
100
AcDbPolyline
 62
250
  6
CONTINUOUS
 90
16
 70
0
 10
133.1318931245
 20
85.127304996
 10
133.028488099
 20
85.192755836
 10
132.9276381293
 20
85.2668453222
 10
132.8293432153
 20
85.3495734548
 10
132.7328870439
 20
85.4417360614
 10
132.6389859283
 20
85.5425373144
 10
132.549788808
 20
85.6495897304
 10
132.4653966793
 20
85.7630219233
 10
132.3857085458
 20
85.8827052794
 10
132.3125703585
 20
86.0058664735
 10
132.2461181373
 20
86.1325814433
 10
132.1862158623
 20
86.2627742512
 10
132.1343014236
 20
86.3934437593
 10
132.0908541181
 20
86.5235895882
 10
132.055394649
 20
86.6542121173
 10
132.0279230162
 20
86.7853113465
  0
LWPOLYLINE
  5
296
100
AcDbEntity
  8
0
100
AcDbPolyline
 62
250
  6
CONTINUOUS
 90
16
 70
0
 10
136.6674270305
 20
83.0859320294
 10
136.5640220049
 20
83.1513828693
 10
136.4631720352
 20
83.2254723556
 10
136.3648771212
 20
83.3082004882
 10
136.2684209499
 20
83.4003630948
 10
136.1745198343
 20
83.5011643477
 10
136.085322714
 20
83.6082167637
 10
136.0009305852
 20
83.7216489567
 10
135.9212424518
 20
83.8413323127
 10
135.8481042644
 20
83.9644935069
 10
135.7816520433
 20
84.0912084767
 10
135.7217497682
 20
84.2214012846
 10
135.6698353295
 20
84.3520707926
 10
135.626388024
 20
84.4822166215
 10
135.5909285549
 20
84.6128391506
 10
135.5634569222
 20
84.7439383799
  0
LWPOLYLINE
  5
297
100
AcDbEntity
  8
0
100
AcDbPolyline
 62
250
  6
CONTINUOUS
 90
16
 70
0
 10
140.2029609364
 20
81.0445590627
 10
140.0995559109
 20
81.1100099027
 10
139.9987059411
 20
81.184099389
 10
139.9004110272
 20
81.2668275215
 10
139.8039548558
 20
81.3589901282
 10
139.7100537402
 20
81.4597913811
 10
139.6208566199
 20
81.5668437971
 10
139.5364644911
 20
81.6802759901
 10
139.4567763577
 20
81.7999593461
 10
139.3836381703
 20
81.9231205402
 10
139.3171859492
 20
82.04983551
 10
139.2572836741
 20
82.1800283179
 10
139.2053692355
 20
82.310697826
 10
139.16192193
 20
82.4408436549
 10
139.1264624608
 20
82.571466184
 10
139.0989908281
 20
82.7025654133
  0
LWPOLYLINE
  5
298
100
AcDbEntity
  8
0
100
AcDbPolyline
 62
250
  6
CONTINUOUS
 90
16
 70
0
 10
143.7384948423
 20
79.0031860961
 10
143.6350898168
 20
79.0686369361
 10
143.5342398471
 20
79.1427264223
 10
143.4359449331
 20
79.2254545549
 10
143.3394887617
 20
79.3176171615
 10
143.2455876461
 20
79.4184184144
 10
143.1563905258
 20
79.5254708304
 10
143.0719983971
 20
79.6389030234
 10
142.9923102636
 20
79.7585863795
 10
142.9191720763
 20
79.8817475736
 10
142.8527198551
 20
80.0084625434
 10
142.7928175801
 20
80.1386553513
 10
142.7409031414
 20
80.2693248593
 10
142.6974558359
 20
80.3994706883
 10
142.6619963668
 20
80.5300932174
 10
142.634524734
 20
80.6611924466
  0
LWPOLYLINE
  5
299
100
AcDbEntity
  8
0
100
AcDbPolyline
 62
7
  6
CONTINUOUS
 90
8
 70
0
 10
144.9112908724
 20
76.9357275201
 10
144.90619223
 20
76.9389710941
 10
144.8956000503
 20
76.9482598706
 10
144.8865370994
 20
76.9600214879
 10
144.8793932053
 20
76.9738435363
 10
144.8742983108
 20
76.9895885457
 10
144.8711224731
 20
77.0073939861
 10
144.8698656922
 20
77.0272598575
  0
LWPOLYLINE
  5
29A
100
AcDbEntity
  8
IMPORT_IGES
100
AcDbPolyline
 62
7
  6
CONTINUOUS
 90
8
 70
0
 10
144.9112908724
 20
76.9357275201
 10
144.90619223
 20
76.9389710941
 10
144.8956000503
 20
76.9482598706
 10
144.8865370994
 20
76.9600214879
 10
144.8793932053
 20
76.9738435363
 10
144.8742983108
 20
76.9895885457
 10
144.8711224731
 20
77.0073939861
 10
144.8698656922
 20
77.0272598575
  0
LWPOLYLINE
  5
29B
100
AcDbEntity
  8
IMPORT_IGES
100
AcDbPolyline
 62
7
  6
CONTINUOUS
 90
10
 70
0
 10
128.4352092651
 20
87.2015397402
 10
128.3500649617
 20
87.2864148764
 10
128.2716972832
 20
87.3752023345
 10
128.2001062298
 20
87.4679021147
 10
128.1352918013
 20
87.5645142169
 10
128.0772539979
 20
87.6650386411
 10
128.0259928194
 20
87.7694753874
 10
127.9815082659
 20
87.8778244557
 10
127.9438003375
 20
87.990085846
 10
127.9128690341
 20
88.1062595584
  0
LWPOLYLINE
  5
29C
100
AcDbEntity
  8
IMPORT_IGES
100
AcDbPolyline
 62
7
  6
CONTINUOUS
 90
10
 70
0
 10
131.9707431711
 20
85.1601667736
 10
131.8855988676
 20
85.2450419097
 10
131.8072311892
 20
85.3338293679
 10
131.7356401357
 20
85.426529148
 10
131.6708257072
 20
85.5231412503
 10
131.6127879038
 20
85.6236656745
 10
131.5615267253
 20
85.7281024208
 10
131.5170421719
 20
85.8364514891
 10
131.4793342434
 20
85.9487128794
 10
131.44840294
 20
86.0648865917
  0
LWPOLYLINE
  5
29D
100
AcDbEntity
  8
0
100
AcDbPolyline
 62
7
  6
CONTINUOUS
 90
7
 70
0
 10
126.0837283965
 20
91.0728841579
 10
125.9817818629
 20
91.193438495
 10
125.874651233
 20
91.3069745478
 10
125.7650766395
 20
91.4106278013
 10
125.6539714599
 20
91.503443417
 10
125.5404223166
 20
91.5863762333
 10
125.4244292096
 20
91.6594262502
  0
LWPOLYLINE
  5
29E
100
AcDbEntity
  8
IMPORT_IGES
100
AcDbPolyline
 62
7
  6
CONTINUOUS
 90
6
 70
0
 10
126.1279802358
 20
91.0159996302
 10
126.0364703826
 20
91.130519104
 10
125.9407474005
 20
91.2385243891
 10
125.8409314619
 20
91.3401839595
 10
125.7391763003
 20
91.4333215567
 10
125.6361998265
 20
91.5172117611
  0
LINE
  5
29F
100
AcDbEntity
  8
0
100
AcDbLine
 62
7
  6
CONTINUOUS
 10
124.9121074713
 20
91.4779648732
 11
124.9035024465
 21
91.4924267044
  0
LINE
  5
2A0
100
AcDbEntity
  8
IMPORT_IGES
100
AcDbLine
 62
7
  6
CONTINUOUS
 10
124.9121743134
 20
91.4778526398
 11
124.9035024465
 21
91.4924267044
  0
LINE
  5
2A1
100
AcDbEntity
  8
0
100
AcDbLine
 62
250
  6
CONTINUOUS
 10
128.4352092651
 20
87.2015397402
 11
127.9128690341
 21
88.1062595584
  0
LINE
  5
2A2
100
AcDbEntity
  8
IMPORT_IGES
100
AcDbLine
 62
250
  6
CONTINUOUS
 10
128.4352092651
 20
87.2015397402
 11
127.9128690341
 21
88.1062595584
  0
LINE
  5
2A3
100
AcDbEntity
  8
0
100
AcDbLine
 62
250
  6
CONTINUOUS
 10
127.9549927077
 20
88.3663383168
 11
128.6815048128
 21
87.1079824396
  0
LINE
  5
2A4
100
AcDbEntity
  8
IMPORT_IGES
100
AcDbLine
 62
250
  6
CONTINUOUS
 10
128.6815048128
 20
87.1079824396
 11
127.9549927077
 21
88.3663383168
  0
LWPOLYLINE
  5
2A5
100
AcDbEntity
  8
IMPORT_IGES
100
AcDbPolyline
 62
7
  6
CONTINUOUS
 90
8
 70
0
 10
126.6086727956
 20
90.106580051
 10
126.5600102191
 20
90.2428889686
 10
126.5044097904
 20
90.3777150309
 10
126.4418364383
 20
90.5108883419
 10
126.3723252339
 20
90.6425787976
 10
126.2969278581
 20
90.7706052194
 10
126.2153971327
 20
90.8951344417
 10
126.1279802358
 20
91.0159996302
  0
LINE
  5
2A6
100
AcDbEntity
  8
0
100
AcDbLine
 62
7
  6
CONTINUOUS
 10
124.9033931876
 20
91.4926109788
 11
124.8980104074
 21
91.5077774206
  0
LINE
  5
2A7
100
AcDbEntity
  8
IMPORT_IGES
100
AcDbLine
 62
7
  6
CONTINUOUS
 10
124.9035024465
 20
91.4924267044
 11
124.8980104074
 21
91.5077774206
  0
LWPOLYLINE
  5
2A8
100
AcDbEntity
  8
0
100
AcDbPolyline
 62
7
  6
CONTINUOUS
 90
8
 70
0
 10
126.613219598
 20
90.0926002382
 10
126.5615326127
 20
90.2391340496
 10
126.5011201426
 20
90.3849807069
 10
126.4320986907
 20
90.5302524261
 10
126.3557232871
 20
90.671975956
 10
126.2716889901
 20
90.8103169109
 10
126.1803007414
 20
90.9451096766
 10
126.0837283965
 20
91.0728841579
  0
LWPOLYLINE
  5
2A9
100
AcDbEntity
  8
IMPORT_IGES
100
AcDbPolyline
 62
7
  6
CONTINUOUS
 90
22
 70
0
 10
124.9191043856
 20
90.8241804897
 10
124.9513438651
 20
90.693344294
 10
124.9912869367
 20
90.5622108226
 10
125.0386112078
 20
90.4315388245
 10
125.0929756173
 20
90.3020662512
 10
125.15401231
 20
90.1745343626
 10
125.2212963405
 20
90.0497342536
 10
125.294429027
 20
89.9283443389
 10
125.3730595257
 20
89.8109449011
 10
125.4567656252
 20
89.6982128337
 10
125.545059769
 20
89.590870298
 10
125.6375049414
 20
89.4895358712
 10
125.7336771726
 20
89.3947986469
 10
125.8330174446
 20
89.3073532719
 10
125.9349207085
 20
89.2278727791
 10
126.0391282836
 20
89.156745423
 10
126.1448958849
 20
89.094693987
 10
126.2509510479
 20
89.0425659209
 10
126.3569942923
 20
89.0005601883
 10
126.4623568994
 20
88.9690277863
 10
126.5652896393
 20
88.9483957452
 10
126.6586049944
 20
88.9391406025
  0
LWPOLYLINE
  5
2AA
100
AcDbEntity
  8
IMPORT_IGES
100
AcDbPolyline
 62
7
  6
CONTINUOUS
 90
34
 70
0
 10
124.3773351281
 20
90.147632525
 10
124.3742722125
 20
90.1616585258
 10
124.3715366604
 20
90.1753230662
 10
124.3691259559
 20
90.188624694
 10
124.3670413
 20
90.2015558565
 10
124.3652756416
 20
90.2141207293
 10
124.36381363
 20
90.2263351893
 10
124.3626492458
 20
90.2381987243
 10
124.3617808571
 20
90.2497074296
 10
124.3611992645
 20
90.2608718447
 10
124.3608977243
 20
90.2716932791
 10
124.3608736312
 20
90.2821650264
 10
124.3611235827
 20
90.2922853651
 10
124.3616397256
 20
90.3020514986
 10
124.3624186828
 20
90.3114597402
 10
124.3634632727
 20
90.3205067483
 10
124.3647662249
 20
90.329197163
 10
124.3663213916
 20
90.3375185977
 10
124.3681327208
 20
90.3454418502
 10
124.3702016367
 20
90.3529768183
 10
124.372510902
 20
90.360104475
 10
124.3750371566
 20
90.366752626
 10
124.3777718059
 20
90.3728949417
 10
124.3807094729
 20
90.378549685
 10
124.3838332028
 20
90.3837124606
 10
124.3871314235
 20
90.3883753007
 10
124.3906029535
 20
90.3925388095
 10
124.3942464266
 20
90.3962114518
 10
124.3980525075
 20
90.3993945017
 10
124.402017186
 20
90.4020789799
 10
124.4061460728
 20
90.4042573879
 10
124.4104360507
 20
90.4059243466
 10
124.4148759546
 20
90.4070769891
 10
124.4194588017
 20
90.4077112834
  0
LWPOLYLINE
  5
2AB
100
AcDbEntity
  8
0
100
AcDbPolyline
 62
7
  6
CONTINUOUS
 90
28
 70
0
 10
124.3773351281
 20
90.147632525
 10
124.3741539382
 20
90.1622148208
 10
124.3713237487
 20
90.1764368124
 10
124.3688421247
 20
90.1902970944
 10
124.3667084559
 20
90.2037887399
 10
124.3649172884
 20
90.2169151754
 10
124.3634583752
 20
90.2296902097
 10
124.3623243965
 20
90.2421150069
 10
124.3615141589
 20
90.2541834887
 10
124.3610260759
 20
90.2658982941
 10
124.3608513794
 20
90.2772596917
 10
124.3609875923
 20
90.2882609214
 10
124.3614419288
 20
90.2988937132
 10
124.3622044725
 20
90.3091614287
 10
124.3632705705
 20
90.3190522957
 10
124.3646544189
 20
90.3285348158
 10
124.3663469015
 20
90.3376126071
 10
124.3683384359
 20
90.3462712568
 10
124.3706415535
 20
90.3544516637
 10
124.3732545283
 20
90.3621570213
 10
124.376156273
 20
90.3693709656
 10
124.3793309437
 20
90.3760054437
 10
124.3828007914
 20
90.3820541871
 10
124.3865204988
 20
90.3875101472
 10
124.3903807147
 20
90.3922886289
 10
124.3943458383
 20
90.3963618902
 10
124.3984466586
 20
90.3997548934
 10
124.4026814361
 20
90.4024666334
  0
LWPOLYLINE
  5
2AC
100
AcDbEntity
  8
IMPORT_IGES
100
AcDbPolyline
 62
7
  6
CONTINUOUS
 90
7
 70
0
 10
124.8969263136
 20
90.9413501797
 10
124.8980167535
 20
90.9361160193
 10
124.9034777641
 20
90.9208932537
 10
124.9121183716
 20
90.9063999084
 10
124.9238510523
 20
90.8928896119
 10
124.9387633299
 20
90.8801087357
 10
124.9568552044
 20
90.8680572798
  0
LWPOLYLINE
  5
2AD
100
AcDbEntity
  8
0
100
AcDbPolyline
 62
7
  6
CONTINUOUS
 90
7
 70
0
 10
124.8969291784
 20
90.9413527613
 10
124.8979430337
 20
90.9363981326
 10
124.9032862982
 20
90.9212362729
 10
124.9118652082
 20
90.9067478234
 10
124.923626228
 20
90.8931775654
 10
124.9386228934
 20
90.8802807175
 10
124.9568552044
 20
90.8680572798
  0
LWPOLYLINE
  5
2AE
100
AcDbEntity
  8
0
100
AcDbPolyline
 62
7
  6
CONTINUOUS
 90
21
 70
0
 10
124.8968720746
 20
90.9413495558
 10
124.922708686
 20
90.8078414573
 10
124.9606326445
 20
90.6605141104
 10
125.0082038059
 20
90.5130659361
 10
125.0649395336
 20
90.3665972854
 10
125.1303409453
 20
90.2221362031
 10
125.2038945165
 20
90.0806709935
 10
125.2849953926
 20
89.9432866003
 10
125.3730426882
 20
89.8109687829
 10
125.4675073647
 20
89.684554454
 10
125.5677806629
 20
89.5649702918
 10
125.6731314054
 20
89.4532290383
 10
125.7828803698
 20
89.3502165321
 10
125.8965834149
 20
89.256598416
 10
126.013267683
 20
89.1734613416
 10
126.1315273579
 20
89.1019804126
 10
126.2509998655
 20
89.0425443166
 10
126.3706369501
 20
88.995898134
 10
126.4881140928
 20
88.9629039872
 10
126.6024276068
 20
88.9435182878
 10
126.6590592396
 20
88.9404433049
  0
LINE
  5
2AF
100
AcDbEntity
  8
IMPORT_IGES
100
AcDbLine
 62
7
  6
CONTINUOUS
 10
124.8968724669
 20
90.9413471345
 11
124.9191043856
 21
90.8241804897
  0
LWPOLYLINE
  5
2B0
100
AcDbEntity
  8
RACCORDO
100
AcDbPolyline
 62
250
  6
CONTINUOUS
 90
11
 70
0
 10
123.3855253681
 20
95.4133725844
 10
123.3997988547
 20
95.3333422888
 10
123.4254428674
 20
95.2547490453
 10
123.4619010465
 20
95.177303156
 10
123.5093339286
 20
95.1001091902
 10
123.567553801
 20
95.0236597788
 10
123.6362827762
 20
94.9483669923
 10
123.7164379652
 20
94.8734004441
 10
123.8085305804
 20
94.7989467871
 10
123.9121505579
 20
94.7260650562
 10
124.0271508546
 20
94.6553941513
  0
LINE
  5
2B1
100
AcDbEntity
  8
0
100
AcDbLine
 62
7
  6
CONTINUOUS
 10
124.8980104074
 20
91.5077774206
 11
124.89600214
 21
91.5230121797
  0
LINE
  5
2B2
100
AcDbEntity
  8
IMPORT_IGES
100
AcDbLine
 62
7
  6
CONTINUOUS
 10
124.8980104074
 20
91.5077774206
 11
124.89600214
 21
91.5230121797
  0
LINE
  5
2B3
100
AcDbEntity
  8
0
100
AcDbLine
 62
7
  6
CONTINUOUS
 10
124.89600214
 20
91.5230121797
 11
124.8973345572
 21
91.536800056
  0
LINE
  5
2B4
100
AcDbEntity
  8
IMPORT_IGES
100
AcDbLine
 62
7
  6
CONTINUOUS
 10
124.89600214
 20
91.5230121797
 11
124.8973702873
 21
91.5367975461
  0
LWPOLYLINE
  5
2B5
100
AcDbEntity
  8
IMPORT_IGES
100
AcDbPolyline
 62
7
  6
CONTINUOUS
 90
3
 70
0
 10
123.6601627835
 20
93.1234081142
 10
123.6576323599
 20
93.1043544807
 10
123.6566622566
 20
93.0855184778
  0
LWPOLYLINE
  5
2B6
100
AcDbEntity
  8
RACCORDO
100
AcDbPolyline
 62
7
  6
CONTINUOUS
 90
14
 70
0
 10
129.893560839
 20
119.7778146951
 10
129.8949827215
 20
119.7828505548
 10
129.8969992089
 20
119.7887119599
 10
129.8968684381
 20
119.7886343275
 10
129.8932425645
 20
119.7822934023
 10
129.8849566218
 20
119.7698840582
 10
129.8714596275
 20
119.7523766415
 10
129.8525048746
 20
119.730769742
 10
129.827817993
 20
119.7057585607
 10
129.7971092887
 20
119.6778877389
 10
129.7601040616
 20
119.64764009
 10
129.7165255755
 20
119.6154509536
 10
129.6663222975
 20
119.5818740332
 10
129.609490974
 20
119.5474251501
  0
LWPOLYLINE
  5
2B7
100
AcDbEntity
  8
0
100
AcDbPolyline
 62
250
  6
CONTINUOUS
 90
8
 70
0
 10
133.7682692214
 20
84.9876651118
 10
133.7139615356
 20
84.9773861089
 10
133.624765579
 20
84.9733408711
 10
133.5308674126
 20
84.9809785028
 10
133.4344161705
 20
85.0002033015
 10
133.3361282308
 20
85.0309833661
 10
133.2352872155
 20
85.0733505976
 10
133.1318931245
 20
85.127304996
  0
LWPOLYLINE
  5
2B8
100
AcDbEntity
  8
IMPORT_IGES
100
AcDbPolyline
 62
250
  6
CONTINUOUS
 90
9
 70
0
 10
133.767934892
 20
84.9863054563
 10
133.6991652154
 20
84.9759118868
 10
133.6244819539
 20
84.9732134391
 10
133.5469648351
 20
84.9788068945
 10
133.4666605022
 20
84.9925679787
 10
133.3848709639
 20
85.0143163637
 10
133.3020302229
 20
85.0439919403
 10
133.2177042765
 20
85.0816548177
 10
133.1318931245
 20
85.127304996
  0
LWPOLYLINE
  5
2B9
100
AcDbEntity
  8
IMPORT_IGES
100
AcDbPolyline
 62
7
  6
CONTINUOUS
 90
3
 70
0
 10
133.3439989345
 20
84.4465189319
 10
133.2839073966
 20
84.43767609
 10
133.2231312806
 20
84.4370535753
  0
LWPOLYLINE
  5
2BA
100
AcDbEntity
  8
IMPORT_IGES
100
AcDbPolyline
 62
7
  6
CONTINUOUS
 90
19
 70
0
 10
131.4905266136
 20
86.3249653502
 10
131.5372107497
 20
86.3282255739
 10
131.5826492771
 20
86.3308039292
 10
131.626842196
 20
86.3327004163
 10
131.6697649248
 20
86.3339036133
 10
131.711442045
 20
86.3344249419
 10
131.7519473012
 20
86.3342986673
 10
131.7912823091
 20
86.3335274764
 10
131.829445453
 20
86.3321086822
 10
131.8665056304
 20
86.3300684888
 10
131.9024684781
 20
86.3274093007
 10
131.9373283593
 20
86.3241287135
 10
131.9711372621
 20
86.3202457175
 10
132.0039027113
 20
86.3157613352
 10
132.0356171821
 20
86.3106745441
 10
132.0663100878
 20
86.3050012682
 10
132.0959803471
 20
86.2987435576
 10
132.1246290413
 20
86.291899362
 10
132.1347029846
 20
86.2891966009
  0
LWPOLYLINE
  5
2BB
100
AcDbEntity
  8
IMPORT_IGES
100
AcDbPolyline
 62
7
  6
CONTINUOUS
 90
30
 70
0
 10
129.6875973747
 20
86.4784265419
 10
129.6804455128
 20
86.47901984
 10
129.6736616993
 20
86.4797785524
 10
129.6672500329
 20
86.4806974097
 10
129.6612181005
 20
86.4817734137
 10
129.6555662421
 20
86.4829982349
 10
129.6502873924
 20
86.4843582498
 10
129.645383622
 20
86.4858453146
 10
129.6408596374
 20
86.4874548292
 10
129.6367121604
 20
86.4891780865
 10
129.6329421342
 20
86.4910067564
 10
129.6295547976
 20
86.4929348075
 10
129.6265533977
 20
86.4949564578
 10
129.6239393509
 20
86.4970618223
 10
129.6217163325
 20
86.4992448801
 10
129.61989147
 20
86.5015047914
 10
129.6184648801
 20
86.5038330895
 10
129.6174415165
 20
86.5062198193
 10
129.6168357264
 20
86.5086612868
 10
129.6166520442
 20
86.5111565137
 10
129.6168890597
 20
86.5136864113
 10
129.6175473487
 20
86.5162237105
 10
129.6186252483
 20
86.5187594551
 10
129.6201159541
 20
86.5212913474
 10
129.622007185
 20
86.523806899
 10
129.6242899199
 20
86.5262979849
 10
129.6269623436
 20
86.5287642503
 10
129.63002278
 20
86.5312049907
 10
129.6334636688
 20
86.5336138063
 10
129.637282499
 20
86.5359875066
  0
LWPOLYLINE
  5
2BC
100
AcDbEntity
  8
0
100
AcDbPolyline
 62
7
  6
CONTINUOUS
 90
28
 70
0
 10
129.6875973747
 20
86.4784265419
 10
129.6801648172
 20
86.4790450866
 10
129.6731158757
 20
86.4798473324
 10
129.6664563846
 20
86.4808271111
 10
129.6601947407
 20
86.481978804
 10
129.6543339003
 20
86.4832944936
 10
129.6488715459
 20
86.4847639129
 10
129.6438108637
 20
86.4863768609
 10
129.6391594808
 20
86.4881274537
 10
129.6349221538
 20
86.4900110347
 10
129.6311017605
 20
86.4920158571
 10
129.627705957
 20
86.4941345902
 10
129.6247476616
 20
86.4963678915
 10
129.6222288133
 20
86.498703133
 10
129.6201580487
 20
86.5011300195
 10
129.6185592776
 20
86.5036511086
 10
129.6174351638
 20
86.5062542141
 10
129.6167924893
 20
86.5089244952
 10
129.6166606206
 20
86.5116598156
 10
129.6170469885
 20
86.5144540281
 10
129.6179495516
 20
86.517283796
 10
129.6193777402
 20
86.5201252734
 10
129.6213547416
 20
86.5229906624
 10
129.6238516052
 20
86.5258444528
 10
129.6267831633
 20
86.5286097566
 10
129.630105934
 20
86.5312706211
 10
129.6338308182
 20
86.5338562129
 10
129.6379436801
 20
86.5363726632
  0
LWPOLYLINE
  5
2BD
100
AcDbEntity
  8
RACCORDO
100
AcDbPolyline
 62
250
  6
CONTINUOUS
 90
19
 70
0
 10
149.9499081775
 20
85.2176955639
 10
149.992688989
 20
85.212070716
 10
150.036211461
 20
85.2057935673
 10
150.0803765607
 20
85.198873476
 10
150.1250301102
 20
85.1913096932
 10
150.1701351523
 20
85.1831306161
 10
150.2157857719
 20
85.174382974
 10
150.2619132325
 20
85.1650759679
 10
150.3084396079
 20
85.1552176634
 10
150.3554702762
 20
85.1448368833
 10
150.4029449934
 20
85.1339374154
 10
150.4508061257
 20
85.1225231988
 10
150.4991822509
 20
85.1106067459
 10
150.5480229637
 20
85.0981831865
 10
150.5972813605
 20
85.0852526877
 10
150.6471063518
 20
85.0718174809
 10
150.6975221389
 20
85.0578673383
 10
150.7484208969
 20
85.0433905428
 10
150.7997592511
 20
85.0283782902
  0
LWPOLYLINE
  5
2BE
100
AcDbEntity
  8
0
100
AcDbPolyline
 62
7
  6
CONTINUOUS
 90
13
 70
0
 10
151.722901146
 20
85.0165405099
 10
151.8192216198
 20
85.0032341838
 10
151.9156704501
 20
84.9949189684
 10
152.0122476369
 20
84.9915948637
 10
152.1097142289
 20
84.993314198
 10
152.2073091774
 20
85.0000246429
 10
152.3027493363
 20
85.0115692137
 10
152.3959838999
 20
85.0280618891
 10
152.4870636739
 20
85.0493886904
 10
152.5738579287
 20
85.0750506962
 10
152.6556564213
 20
85.1048815993
 10
152.7331693947
 20
85.1390477069
 10
152.8063968489
 20
85.177549019
  0
LWPOLYLINE
  5
2BF
100
AcDbEntity
  8
RACCORDO
100
AcDbPolyline
 62
7
  6
CONTINUOUS
 90
12
 70
0
 10
142.2557423753
 20
84.5468523461
 10
142.4051006269
 20
84.5225949826
 10
142.5551327086
 20
84.4949683192
 10
142.7050207963
 20
84.4641613223
 10
142.8540583388
 20
84.4303631675
 10
143.0017034417
 20
84.3937475635
 10
143.1472765039
 20
84.3545367086
 10
143.2901212002
 20
84.3129692784
 10
143.4298071403
 20
84.2692431287
 10
143.5657234754
 20
84.2236118517
 10
143.6971050575
 20
84.1764137132
 10
143.7521169467
 20
84.1556960109
  0
LWPOLYLINE
  5
2C0
100
AcDbEntity
  8
RACCORDO
100
AcDbPolyline
 62
250
  6
CONTINUOUS
 90
19
 70
0
 10
143.6718218536
 20
84.6491200872
 10
143.8098032955
 20
84.6074080814
 10
143.9496415833
 20
84.5705693404
 10
144.0905750923
 20
84.5385201422
 10
144.2311914716
 20
84.5112040701
 10
144.371482866
 20
84.4883703846
 10
144.5129099376
 20
84.4698347563
 10
144.6549434615
 20
84.4556734212
 10
144.796936015
 20
84.4458808342
 10
144.9401971758
 20
84.4405646189
 10
145.0847194977
 20
84.4399261318
 10
145.2291061783
 20
84.4441763232
 10
145.372493979
 20
84.4536031752
 10
145.5142583546
 20
84.4682960094
 10
145.6533574196
 20
84.4883341314
 10
145.7883167955
 20
84.5138487505
 10
145.9181234062
 20
84.5447739089
 10
146.0421569686
 20
84.580930469
 10
146.1595931058
 20
84.6221446538
  0
LWPOLYLINE
  5
2C1
100
AcDbEntity
  8
RACCORDO
100
AcDbPolyline
 62
250
  6
CONTINUOUS
 90
13
 70
0
 10
142.5783368991
 20
85.063631132
 10
142.6645735478
 20
85.0364101084
 10
142.7520981719
 20
85.0080275685
 10
142.8407128973
 20
84.9784097852
 10
142.9299887428
 20
84.9474284044
 10
143.0199265845
 20
84.9150926108
 10
143.1109534444
 20
84.8814860963
 10
143.2027831021
 20
84.8464488323
 10
143.2951764542
 20
84.8099325447
 10
143.3885744102
 20
84.7720737241
 10
143.4828681978
 20
84.7327879264
 10
143.5774240339
 20
84.6918471243
 10
143.6718218536
 20
84.6491200872
  0
LWPOLYLINE
  5
2C2
100
AcDbEntity
  8
RACCORDO
100
AcDbPolyline
 62
7
  6
CONTINUOUS
 90
13
 70
0
 10
143.7519987515
 20
84.1557412513
 10
143.8382186909
 20
84.1240246432
 10
143.9848865773
 20
84.0753339358
 10
144.1327821381
 20
84.0324925068
 10
144.2794286864
 20
83.9958670459
 10
144.4264441857
 20
83.9648125959
 10
144.5797926731
 20
83.9384104993
 10
144.7442805039
 20
83.9170258075
 10
144.9140604791
 20
83.9028286938
 10
145.0805746865
 20
83.8972925833
 10
145.2420937442
 20
83.9007113827
 10
145.4015626347
 20
83.9136760005
 10
145.4987443092
 20
83.9268422186
  0
LINE
  5
2C3
100
AcDbEntity
  8
RACCORDO
100
AcDbLine
 62
7
  6
CONTINUOUS
 10
143.7519987515
 20
84.1557412513
 11
143.7521169441
 21
84.1556960119
  0
LWPOLYLINE
  5
2C4
100
AcDbEntity
  8
IMPORT_IGES
100
AcDbPolyline
 62
7
  6
CONTINUOUS
 90
8
 70
0
 10
135.9244833861
 20
85.5916449553
 10
135.8199743986
 20
85.6373121215
 10
135.7175039649
 20
85.672308849
 10
135.616414285
 20
85.6967111969
 10
135.5173631588
 20
85.7104431061
 10
135.422323986
 20
85.7132763991
 10
135.3313897229
 20
85.7049600598
 10
135.2444674131
 20
85.6857451045
  0
LWPOLYLINE
  5
2C5
100
AcDbEntity
  8
IMPORT_IGES
100
AcDbPolyline
 62
7
  6
CONTINUOUS
 90
8
 70
0
 10
132.3889494802
 20
87.6330179219
 10
132.2844404927
 20
87.6786850882
 10
132.1819700589
 20
87.7136818157
 10
132.080880379
 20
87.7380841636
 10
131.9818292529
 20
87.7518160727
 10
131.8867900801
 20
87.7546493657
 10
131.7958558169
 20
87.7463330265
 10
131.7089335072
 20
87.7271180711
  0
LWPOLYLINE
  5
2C6
100
AcDbEntity
  8
IMPORT_IGES
100
AcDbPolyline
 62
7
  6
CONTINUOUS
 90
8
 70
0
 10
128.8534155743
 20
89.6743908886
 10
128.7489065868
 20
89.7200580548
 10
128.646436153
 20
89.7550547823
 10
128.5453464731
 20
89.7794571302
 10
128.4462953469
 20
89.7931890393
 10
128.3512561742
 20
89.7960223324
 10
128.260321911
 20
89.7877059931
 10
128.1733996013
 20
89.7684910377
  0
LWPOLYLINE
  5
2C7
100
AcDbEntity
  8
0
100
AcDbPolyline
 62
7
  6
CONTINUOUS
 90
9
 70
0
 10
143.1020987393
 20
81.452561417
 10
142.9863455815
 20
81.5132367031
 10
142.8732013079
 20
81.5613197207
 10
142.7626659185
 20
81.5968104699
 10
142.653915922
 20
81.6197625452
 10
142.5477748097
 20
81.6301223521
 10
142.4467130546
 20
81.6277291069
 10
142.3508793572
 20
81.6122493351
 10
142.2601250169
 20
81.5840165111
  0
LWPOLYLINE
  5
2C8
100
AcDbEntity
  8
0
100
AcDbPolyline
 62
7
  6
CONTINUOUS
 90
9
 70
0
 10
139.5665648333
 20
83.4939343837
 10
139.4508116756
 20
83.5546096697
 10
139.337667402
 20
83.6026926874
 10
139.2271320125
 20
83.6381834365
 10
139.1183820161
 20
83.6611355119
 10
139.0122409038
 20
83.6714953188
 10
138.9111791487
 20
83.6691020735
 10
138.8153454512
 20
83.6536223017
 10
138.724591111
 20
83.6253894778
  0
LWPOLYLINE
  5
2C9
100
AcDbEntity
  8
0
100
AcDbPolyline
 62
7
  6
CONTINUOUS
 90
9
 70
0
 10
136.0310309274
 20
85.5353073503
 10
135.9152777697
 20
85.5959826364
 10
135.8021334961
 20
85.644065654
 10
135.6915981066
 20
85.6795564032
 10
135.5828481102
 20
85.7025084785
 10
135.4767069979
 20
85.7128682854
 10
135.3756452427
 20
85.7104750401
 10
135.2798115453
 20
85.6949952684
 10
135.189057205
 20
85.6667624444
  0
LWPOLYLINE
  5
2CA
100
AcDbEntity
  8
0
100
AcDbPolyline
 62
7
  6
CONTINUOUS
 90
9
 70
0
 10
132.4954970215
 20
87.576680317
 10
132.3797438638
 20
87.637355603
 10
132.2665995902
 20
87.6854386206
 10
132.1560642007
 20
87.7209293698
 10
132.0473142042
 20
87.7438814451
 10
131.9411730919
 20
87.754241252
 10
131.8401113368
 20
87.7518480068
 10
131.7442776394
 20
87.736368235
 10
131.6535232991
 20
87.7081354111
  0
LWPOLYLINE
  5
2CB
100
AcDbEntity
  8
0
100
AcDbPolyline
 62
7
  6
CONTINUOUS
 90
9
 70
0
 10
128.9599631155
 20
89.6180532836
 10
128.8442099578
 20
89.6787285696
 10
128.7310656842
 20
89.7268115873
 10
128.6205302947
 20
89.7623023365
 10
128.5117802983
 20
89.7852544118
 10
128.405639186
 20
89.7956142187
 10
128.3045774309
 20
89.7932209734
 10
128.2087437334
 20
89.7777412016
 10
128.1179893932
 20
89.7495083777
  0
LWPOLYLINE
  5
2CC
100
AcDbEntity
  8
0
100
AcDbPolyline
 62
7
  6
CONTINUOUS
 90
9
 70
0
 10
125.4244292096
 20
91.6594262502
 10
125.3086760519
 20
91.7201015363
 10
125.1955317783
 20
91.7681845539
 10
125.0849963888
 20
91.8036753031
 10
124.9762463924
 20
91.8266273784
 10
124.8701052801
 20
91.8369871853
 10
124.7690435249
 20
91.83459394
 10
124.6732098275
 20
91.8191141683
 10
124.5824554872
 20
91.7908813443
  0
LINE
  5
2CD
100
AcDbEntity
  8
IMPORT_IGES
100
AcDbLine
 62
7
  6
CONTINUOUS
 10
143.1020987393
 20
81.452561417
 11
142.995551198
 21
81.508899022
  0
LINE
  5
2CE
100
AcDbEntity
  8
IMPORT_IGES
100
AcDbLine
 62
7
  6
CONTINUOUS
 10
139.5665648333
 20
83.4939343837
 11
139.4600172921
 21
83.5502719887
  0
LINE
  5
2CF
100
AcDbEntity
  8
IMPORT_IGES
100
AcDbLine
 62
7
  6
CONTINUOUS
 10
136.0310309274
 20
85.5353073503
 11
135.9244833861
 21
85.5916449553
  0
LINE
  5
2D0
100
AcDbEntity
  8
IMPORT_IGES
100
AcDbLine
 62
7
  6
CONTINUOUS
 10
132.4954970215
 20
87.576680317
 11
132.3889494802
 21
87.6330179219
  0
LINE
  5
2D1
100
AcDbEntity
  8
IMPORT_IGES
100
AcDbLine
 62
7
  6
CONTINUOUS
 10
128.9599631155
 20
89.6180532836
 11
128.8534155743
 21
89.6743908886
  0
LINE
  5
2D2
100
AcDbEntity
  8
IMPORT_IGES
100
AcDbLine
 62
7
  6
CONTINUOUS
 10
125.4244292096
 20
91.6594262502
 11
125.3178816683
 21
91.7157638552
  0
LINE
  5
2D3
100
AcDbEntity
  8
0
100
AcDbLine
 62
7
  6
CONTINUOUS
 10
147.9518413755
 20
77.6461453043
 11
147.3329714029
 21
78.0034730702
  0
LINE
  5
2D4
100
AcDbEntity
  8
IMPORT_IGES
100
AcDbLine
 62
7
  6
CONTINUOUS
 10
147.9518413755
 20
77.6461453043
 11
147.3329714029
 21
78.0034730702
  0
LINE
  5
2D5
100
AcDbEntity
  8
IMPORT_IGES
100
AcDbLine
 62
250
  6
CONTINUOUS
 10
147.9104248513
 20
77.7376926765
 11
147.3984184837
 21
78.0333187362
  0
LINE
  5
2D6
100
AcDbEntity
  8
0
100
AcDbLine
 62
250
  6
CONTINUOUS
 10
147.3984184837
 20
78.0333187362
 11
147.9104248513
 21
77.7376926765
  0
LINE
  5
2D7
100
AcDbEntity
  8
0
100
AcDbLine
 62
7
  6
CONTINUOUS
 10
144.0653819466
 20
80.4065626187
 11
142.634524734
 21
81.2327216404
  0
LINE
  5
2D8
100
AcDbEntity
  8
IMPORT_IGES
100
AcDbLine
 62
7
  6
CONTINUOUS
 10
144.0653819466
 20
80.4065626187
 11
142.634524734
 21
81.2327216404
  0
LINE
  5
2D9
100
AcDbEntity
  8
0
100
AcDbLine
 62
7
  6
CONTINUOUS
 10
140.5298480407
 20
82.4479355853
 11
139.0989908281
 21
83.274094607
  0
LINE
  5
2DA
100
AcDbEntity
  8
IMPORT_IGES
100
AcDbLine
 62
7
  6
CONTINUOUS
 10
140.5298480407
 20
82.4479355853
 11
139.0989908281
 21
83.274094607
  0
LINE
  5
2DB
100
AcDbEntity
  8
0
100
AcDbLine
 62
7
  6
CONTINUOUS
 10
136.9943141348
 20
84.489308552
 11
135.5634569222
 21
85.3154675737
  0
LINE
  5
2DC
100
AcDbEntity
  8
IMPORT_IGES
100
AcDbLine
 62
7
  6
CONTINUOUS
 10
136.9943141348
 20
84.489308552
 11
135.5634569222
 21
85.3154675737
  0
LINE
  5
2DD
100
AcDbEntity
  8
0
100
AcDbLine
 62
7
  6
CONTINUOUS
 10
133.4587802288
 20
86.5306815186
 11
132.0279230162
 21
87.3568405403
  0
LINE
  5
2DE
100
AcDbEntity
  8
IMPORT_IGES
100
AcDbLine
 62
7
  6
CONTINUOUS
 10
133.4587802288
 20
86.5306815186
 11
132.0279230162
 21
87.3568405403
  0
LINE
  5
2DF
100
AcDbEntity
  8
0
100
AcDbLine
 62
7
  6
CONTINUOUS
 10
129.9232463229
 20
88.5720544852
 11
128.4923891103
 21
89.3982135069
  0
LINE
  5
2E0
100
AcDbEntity
  8
IMPORT_IGES
100
AcDbLine
 62
7
  6
CONTINUOUS
 10
129.9232463229
 20
88.5720544852
 11
128.4923891103
 21
89.3982135069
  0
LINE
  5
2E1
100
AcDbEntity
  8
0
100
AcDbLine
 62
7
  6
CONTINUOUS
 10
126.387712417
 20
90.6134274519
 11
124.9568552044
 21
91.4395864736
  0
LINE
  5
2E2
100
AcDbEntity
  8
IMPORT_IGES
100
AcDbLine
 62
7
  6
CONTINUOUS
 10
126.387712417
 20
90.6134274519
 11
124.9568552044
 21
91.4395864736
  0
LINE
  5
2E3
100
AcDbEntity
  8
0
100
AcDbLine
 62
250
  6
CONTINUOUS
 10
144.8698656922
 20
80.837280678
 11
123.6566622566
 21
93.0855184778
  0
LINE
  5
2E4
100
AcDbEntity
  8
IMPORT_IGES
100
AcDbLine
 62
250
  6
CONTINUOUS
 10
144.8698656922
 20
80.837280678
 11
123.6566622566
 21
93.0855184778
  0
LINE
  5
2E5
100
AcDbEntity
  8
IMPORT_IGES
100
AcDbLine
 62
250
  6
CONTINUOUS
 10
144.9746845081
 20
81.0555316939
 11
123.7614810725
 21
93.3037694938
  0
LINE
  5
2E6
100
AcDbEntity
  8
0
100
AcDbLine
 62
250
  6
CONTINUOUS
 10
123.7614810725
 20
93.3037694938
 11
144.9746845081
 21
81.0555316939
  0
LWPOLYLINE
  5
2E7
100
AcDbEntity
  8
IMPORT_IGES
100
AcDbPolyline
 62
7
  6
CONTINUOUS
 90
4
 70
0
 10
124.9568552044
 20
91.4395864736
 10
124.938794578
 20
91.4515823729
 10
124.9239009477
 20
91.4643377617
 10
124.9121743134
 20
91.4778526398
  0
LWPOLYLINE
  5
2E8
100
AcDbEntity
  8
IMPORT_IGES
100
AcDbPolyline
 62
7
  6
CONTINUOUS
 90
4
 70
0
 10
128.4923891103
 20
89.3982135069
 10
128.4743284839
 20
89.4102094063
 10
128.4594348536
 20
89.422964795
 10
128.4477082193
 20
89.4364796731
  0
LWPOLYLINE
  5
2E9
100
AcDbEntity
  8
IMPORT_IGES
100
AcDbPolyline
 62
7
  6
CONTINUOUS
 90
4
 70
0
 10
132.0279230162
 20
87.3568405403
 10
132.0098623899
 20
87.3688364397
 10
131.9949687595
 20
87.3815918284
 10
131.9832421252
 20
87.3951067065
  0
LWPOLYLINE
  5
2EA
100
AcDbEntity
  8
IMPORT_IGES
100
AcDbPolyline
 62
7
  6
CONTINUOUS
 90
4
 70
0
 10
135.5634569222
 20
85.3154675737
 10
135.5453962958
 20
85.327463473
 10
135.5305026655
 20
85.3402188618
 10
135.5187760312
 20
85.3537337398
  0
LWPOLYLINE
  5
2EB
100
AcDbEntity
  8
IMPORT_IGES
100
AcDbPolyline
 62
7
  6
CONTINUOUS
 90
4
 70
0
 10
139.0989908281
 20
83.274094607
 10
139.0809302017
 20
83.2860905064
 10
139.0660365714
 20
83.2988458951
 10
139.0543099371
 20
83.3123607732
  0
LWPOLYLINE
  5
2EC
100
AcDbEntity
  8
IMPORT_IGES
100
AcDbPolyline
 62
7
  6
CONTINUOUS
 90
4
 70
0
 10
142.634524734
 20
81.2327216404
 10
142.6164641077
 20
81.2447175397
 10
142.6015704773
 20
81.2574729285
 10
142.589843843
 20
81.2709878066
  0
LWPOLYLINE
  5
2ED
100
AcDbEntity
  8
0
100
AcDbPolyline
 62
7
  6
CONTINUOUS
 90
4
 70
0
 10
124.9568552044
 20
91.4395864736
 10
124.9387040507
 20
91.451694472
 10
124.9237560562
 20
91.4645242911
 10
124.9121074713
 20
91.4779648732
  0
LWPOLYLINE
  5
2EE
100
AcDbEntity
  8
0
100
AcDbPolyline
 62
7
  6
CONTINUOUS
 90
4
 70
0
 10
128.4923891103
 20
89.3982135069
 10
128.4742379567
 20
89.4103215054
 10
128.4592899621
 20
89.4231513245
 10
128.4476413773
 20
89.4365919066
  0
LWPOLYLINE
  5
2EF
100
AcDbEntity
  8
0
100
AcDbPolyline
 62
7
  6
CONTINUOUS
 90
4
 70
0
 10
132.0279230162
 20
87.3568405403
 10
132.0097718626
 20
87.3689485387
 10
131.994823868
 20
87.3817783579
 10
131.9831752832
 20
87.39521894
  0
LWPOLYLINE
  5
2F0
100
AcDbEntity
  8
0
100
AcDbPolyline
 62
7
  6
CONTINUOUS
 90
4
 70
0
 10
135.5634569222
 20
85.3154675737
 10
135.5453057685
 20
85.3275755721
 10
135.530357774
 20
85.3404053912
 10
135.5187091891
 20
85.3538459733
  0
LWPOLYLINE
  5
2F1
100
AcDbEntity
  8
0
100
AcDbPolyline
 62
7
  6
CONTINUOUS
 90
4
 70
0
 10
139.0989908281
 20
83.274094607
 10
139.0808396745
 20
83.2862026054
 10
139.0658916799
 20
83.2990324246
 10
139.0542430951
 20
83.3124730067
  0
LWPOLYLINE
  5
2F2
100
AcDbEntity
  8
0
100
AcDbPolyline
 62
7
  6
CONTINUOUS
 90
4
 70
0
 10
142.634524734
 20
81.2327216404
 10
142.6163735804
 20
81.2448296388
 10
142.6014255858
 20
81.2576594579
 10
142.589777001
 20
81.2711000401
  0
LWPOLYLINE
  5
2F3
100
AcDbEntity
  8
IMPORT_IGES
100
AcDbPolyline
 62
7
  6
CONTINUOUS
 90
3
 70
0
 10
125.6361998265
 20
91.5172117611
 10
125.5312841296
 20
91.5925799923
 10
125.4244292096
 20
91.6594262502
  0
LWPOLYLINE
  5
2F4
100
AcDbEntity
  8
IMPORT_IGES
100
AcDbPolyline
 62
7
  6
CONTINUOUS
 90
3
 70
0
 10
129.1717337325
 20
89.4758387944
 10
129.0668180356
 20
89.5512070256
 10
128.9599631155
 20
89.6180532836
  0
LWPOLYLINE
  5
2F5
100
AcDbEntity
  8
IMPORT_IGES
100
AcDbPolyline
 62
7
  6
CONTINUOUS
 90
3
 70
0
 10
132.7072676384
 20
87.4344658278
 10
132.6023519415
 20
87.509834059
 10
132.4954970215
 20
87.576680317
  0
LWPOLYLINE
  5
2F6
100
AcDbEntity
  8
IMPORT_IGES
100
AcDbPolyline
 62
7
  6
CONTINUOUS
 90
3
 70
0
 10
136.2428015443
 20
85.3930928612
 10
136.1378858474
 20
85.4684610924
 10
136.0310309274
 20
85.5353073503
  0
LWPOLYLINE
  5
2F7
100
AcDbEntity
  8
IMPORT_IGES
100
AcDbPolyline
 62
7
  6
CONTINUOUS
 90
10
 70
0
 10
135.506277077
 20
83.118793807
 10
135.4211327735
 20
83.2036689431
 10
135.3427650951
 20
83.2924564012
 10
135.2711740416
 20
83.3851561814
 10
135.2063596132
 20
83.4817682836
 10
135.1483218097
 20
83.5822927079
 10
135.0970606313
 20
83.6867294541
 10
135.0525760778
 20
83.7950785224
 10
135.0148681494
 20
83.9073399127
 10
134.9839368459
 20
84.0235136251
  0
LWPOLYLINE
  5
2F8
100
AcDbEntity
  8
IMPORT_IGES
100
AcDbPolyline
 62
7
  6
CONTINUOUS
 90
10
 70
0
 10
139.0418109829
 20
81.0774208403
 10
138.9566666795
 20
81.1622959764
 10
138.878299001
 20
81.2510834346
 10
138.8067079476
 20
81.3437832148
 10
138.7418935191
 20
81.440395317
 10
138.6838557157
 20
81.5409197412
 10
138.6325945372
 20
81.6453564875
 10
138.5881099838
 20
81.7537055558
 10
138.5504020553
 20
81.8659669461
 10
138.5194707519
 20
81.9821406584
  0
LWPOLYLINE
  5
2F9
100
AcDbEntity
  8
0
100
AcDbPolyline
 62
7
  6
CONTINUOUS
 90
7
 70
0
 10
129.6192623024
 20
89.0315111913
 10
129.5173157688
 20
89.1520655284
 10
129.410185139
 20
89.2656015812
 10
129.3006105455
 20
89.3692548347
 10
129.1895053658
 20
89.4620704504
 10
129.0759562225
 20
89.5450032667
 10
128.9599631155
 20
89.6180532836
  0
LWPOLYLINE
  5
2FA
100
AcDbEntity
  8
IMPORT_IGES
100
AcDbPolyline
 62
7
  6
CONTINUOUS
 90
6
 70
0
 10
129.6635141418
 20
88.9746266636
 10
129.5720042886
 20
89.0891461374
 10
129.4762813064
 20
89.1971514224
 10
129.3764653679
 20
89.2988109928
 10
129.2747102062
 20
89.39194859
 10
129.1717337325
 20
89.4758387944
  0
LINE
  5
2FB
100
AcDbEntity
  8
0
100
AcDbLine
 62
7
  6
CONTINUOUS
 10
128.4476413773
 20
89.4365919066
 11
128.4390363524
 21
89.4510537378
  0
LINE
  5
2FC
100
AcDbEntity
  8
IMPORT_IGES
100
AcDbLine
 62
7
  6
CONTINUOUS
 10
128.4477082193
 20
89.4364796731
 11
128.4390363524
 21
89.4510537378
  0
LINE
  5
2FD
100
AcDbEntity
  8
0
100
AcDbLine
 62
250
  6
CONTINUOUS
 10
131.9707431711
 20
85.1601667736
 11
131.44840294
 21
86.0648865917
  0
LINE
  5
2FE
100
AcDbEntity
  8
IMPORT_IGES
100
AcDbLine
 62
250
  6
CONTINUOUS
 10
131.9707431711
 20
85.1601667736
 11
131.44840294
 21
86.0648865917
  0
LINE
  5
2FF
100
AcDbEntity
  8
0
100
AcDbLine
 62
250
  6
CONTINUOUS
 10
131.4905266136
 20
86.3249653502
 11
132.2170387188
 21
85.066609473
  0
LINE
  5
300
100
AcDbEntity
  8
IMPORT_IGES
100
AcDbLine
 62
250
  6
CONTINUOUS
 10
132.2170387188
 20
85.066609473
 11
131.4905266136
 21
86.3249653502
  0
LINE
  5
301
100
AcDbEntity
  8
0
100
AcDbLine
 62
7
  6
CONTINUOUS
 10
128.4389270935
 20
89.4512380122
 11
128.4335443133
 21
89.4664044539
  0
LINE
  5
302
100
AcDbEntity
  8
IMPORT_IGES
100
AcDbLine
 62
7
  6
CONTINUOUS
 10
128.4390363524
 20
89.4510537378
 11
128.4335443133
 21
89.4664044539
  0
LWPOLYLINE
  5
303
100
AcDbEntity
  8
IMPORT_IGES
100
AcDbPolyline
 62
7
  6
CONTINUOUS
 90
3
 70
0
 10
126.6821773087
 20
89.8376602
 10
126.6494510528
 20
89.9714791437
 10
126.6086727956
 20
90.106580051
  0
LWPOLYLINE
  5
304
100
AcDbEntity
  8
0
100
AcDbPolyline
 62
7
  6
CONTINUOUS
 90
3
 70
0
 10
126.689861101
 20
89.8011177005
 10
126.6562976014
 20
89.9454914886
 10
126.613219598
 20
90.0926002382
  0
LWPOLYLINE
  5
305
100
AcDbEntity
  8
IMPORT_IGES
100
AcDbPolyline
 62
7
  6
CONTINUOUS
 90
34
 70
0
 10
127.9128690341
 20
88.1062595584
 10
127.9098061184
 20
88.1202855591
 10
127.9070705663
 20
88.1339500996
 10
127.9046598618
 20
88.1472517274
 10
127.902575206
 20
88.1601828899
 10
127.9008095475
 20
88.1727477627
 10
127.899347536
 20
88.1849622227
 10
127.8981831517
 20
88.1968257577
 10
127.897314763
 20
88.2083344629
 10
127.8967331705
 20
88.2194988781
 10
127.8964316302
 20
88.2303203125
 10
127.8964075372
 20
88.2407920598
 10
127.8966574887
 20
88.2509123984
 10
127.8971736315
 20
88.260678532
 10
127.8979525887
 20
88.2700867736
 10
127.8989971787
 20
88.2791337817
 10
127.9003001308
 20
88.2878241964
 10
127.9018552975
 20
88.296145631
 10
127.9036666267
 20
88.3040688836
 10
127.9057355427
 20
88.3116038517
 10
127.9080448079
 20
88.3187315084
 10
127.9105710626
 20
88.3253796593
 10
127.9133057118
 20
88.331521975
 10
127.9162433789
 20
88.3371767184
 10
127.9193671088
 20
88.342339494
 10
127.9226653295
 20
88.3470023341
 10
127.9261368594
 20
88.3511658428
 10
127.9297803325
 20
88.3548384852
 10
127.9335864134
 20
88.3580215351
 10
127.9375510919
 20
88.3607060132
 10
127.9416799788
 20
88.3628844212
 10
127.9459699566
 20
88.36455138
 10
127.9504098606
 20
88.3657040224
 10
127.9549927077
 20
88.3663383168
  0
LWPOLYLINE
  5
306
100
AcDbEntity
  8
0
100
AcDbPolyline
 62
7
  6
CONTINUOUS
 90
28
 70
0
 10
127.9128690341
 20
88.1062595584
 10
127.9096878441
 20
88.1208418541
 10
127.9068576546
 20
88.1350638457
 10
127.9043760306
 20
88.1489241277
 10
127.9022423618
 20
88.1624157733
 10
127.9004511943
 20
88.1755422088
 10
127.8989922812
 20
88.1883172431
 10
127.8978583024
 20
88.2007420403
 10
127.8970480648
 20
88.212810522
 10
127.8965599818
 20
88.2245253275
 10
127.8963852853
 20
88.235886725
 10
127.8965214982
 20
88.2468879547
 10
127.8969758347
 20
88.2575207466
 10
127.8977383784
 20
88.2677884621
 10
127.8988044764
 20
88.277679329
 10
127.9001883248
 20
88.2871618492
 10
127.9018808074
 20
88.2962396404
 10
127.9038723418
 20
88.3048982902
 10
127.9061754594
 20
88.3130786971
 10
127.9087884342
 20
88.3207840547
 10
127.9116901789
 20
88.327997999
 10
127.9148648497
 20
88.3346324771
 10
127.9183346973
 20
88.3406812205
 10
127.9220544047
 20
88.3461371805
 10
127.9259146207
 20
88.3509156623
 10
127.9298797442
 20
88.3549889236
 10
127.9339805645
 20
88.3583819268
 10
127.938215342
 20
88.3610936667
  0
LINE
  5
307
100
AcDbEntity
  8
0
100
AcDbLine
 62
7
  6
CONTINUOUS
 10
128.4315299283
 20
88.9101260917
 11
128.4324630844
 21
88.8999797947
  0
LINE
  5
308
100
AcDbEntity
  8
IMPORT_IGES
100
AcDbLine
 62
7
  6
CONTINUOUS
 10
128.4315402767
 20
88.9100135716
 11
128.4324602196
 21
88.8999772131
  0
LWPOLYLINE
  5
309
100
AcDbEntity
  8
IMPORT_IGES
100
AcDbPolyline
 62
250
  6
CONTINUOUS
 90
7
 70
0
 10
124.9568552044
 20
91.4395864736
 10
124.9789170656
 20
91.5226732885
 10
125.0066790346
 20
91.599236926
 10
125.0401411114
 20
91.6692773863
 10
125.0795590522
 20
91.733094365
 10
125.1246771007
 20
91.7903881664
 10
125.1256749408
 20
91.7913824308
  0
LWPOLYLINE
  5
30A
100
AcDbEntity
  8
0
100
AcDbPolyline
 62
250
  6
CONTINUOUS
 90
6
 70
0
 10
124.9568552044
 20
91.4395864736
 10
124.9843309363
 20
91.5389716611
 10
125.0197947903
 20
91.6286534133
 10
125.0632467662
 20
91.7086317301
 10
125.1151665782
 20
91.7793530852
 10
125.1266501065
 20
91.7910493825
  0
LWPOLYLINE
  5
30B
100
AcDbEntity
  8
0
100
AcDbPolyline
 62
250
  6
CONTINUOUS
 90
8
 70
0
 10
130.2327353155
 20
87.0290380784
 10
130.1784276296
 20
87.0187590755
 10
130.0892316731
 20
87.0147138377
 10
129.9953335067
 20
87.0223514695
 10
129.8988822646
 20
87.0415762681
 10
129.8005943249
 20
87.0723563327
 10
129.6997533096
 20
87.1147235643
 10
129.5963592186
 20
87.1686779627
  0
LWPOLYLINE
  5
30C
100
AcDbEntity
  8
IMPORT_IGES
100
AcDbPolyline
 62
250
  6
CONTINUOUS
 90
9
 70
0
 10
130.2324009861
 20
87.0276784229
 10
130.1636313095
 20
87.0172848534
 10
130.088948048
 20
87.0145864057
 10
130.0114309292
 20
87.0201798611
 10
129.9311265963
 20
87.0339409453
 10
129.8493370579
 20
87.0556893304
 10
129.766496317
 20
87.0853649069
 10
129.6821703705
 20
87.1230277844
 10
129.5963592186
 20
87.1686779627
  0
LWPOLYLINE
  5
30D
100
AcDbEntity
  8
IMPORT_IGES
100
AcDbPolyline
 62
7
  6
CONTINUOUS
 90
3
 70
0
 10
129.8084650286
 20
86.4878918986
 10
129.7483734907
 20
86.4790490566
 10
129.6875973747
 20
86.4784265419
  0
LWPOLYLINE
  5
30E
100
AcDbEntity
  8
IMPORT_IGES
100
AcDbPolyline
 62
7
  6
CONTINUOUS
 90
30
 70
0
 10
126.1520634687
 20
88.5197995085
 10
126.1449116069
 20
88.5203928066
 10
126.1381277933
 20
88.5211515191
 10
126.1317161269
 20
88.5220703764
 10
126.1256841945
 20
88.5231463804
 10
126.1200323362
 20
88.5243712015
 10
126.1147534865
 20
88.5257312165
 10
126.1098497161
 20
88.5272182812
 10
126.1053257315
 20
88.5288277959
 10
126.1011782545
 20
88.5305510531
 10
126.0974082283
 20
88.532379723
 10
126.0940208917
 20
88.5343077742
 10
126.0910194917
 20
88.5363294244
 10
126.0884054449
 20
88.5384347889
 10
126.0861824266
 20
88.5406178468
 10
126.0843575641
 20
88.542877758
 10
126.0829309742
 20
88.5452060561
 10
126.0819076106
 20
88.5475927859
 10
126.0813018205
 20
88.5500342534
 10
126.0811181382
 20
88.5525294804
 10
126.0813551538
 20
88.5550593779
 10
126.0820134428
 20
88.5575966772
 10
126.0830913423
 20
88.5601324217
 10
126.0845820482
 20
88.562664314
 10
126.0864732791
 20
88.5651798656
 10
126.088756014
 20
88.5676709516
 10
126.0914284376
 20
88.5701372169
 10
126.094488874
 20
88.5725779573
 10
126.0979297628
 20
88.5749867729
 10
126.1017485931
 20
88.5773604732
  0
LWPOLYLINE
  5
30F
100
AcDbEntity
  8
0
100
AcDbPolyline
 62
7
  6
CONTINUOUS
 90
28
 70
0
 10
126.1520634687
 20
88.5197995085
 10
126.1446309112
 20
88.5204180533
 10
126.1375819698
 20
88.5212202991
 10
126.1309224787
 20
88.5222000777
 10
126.1246608348
 20
88.5233517706
 10
126.1187999944
 20
88.5246674602
 10
126.11333764
 20
88.5261368795
 10
126.1082769578
 20
88.5277498275
 10
126.1036255748
 20
88.5295004204
 10
126.0993882478
 20
88.5313840013
 10
126.0955678546
 20
88.5333888238
 10
126.0921720511
 20
88.5355075569
 10
126.0892137557
 20
88.5377408582
 10
126.0866949074
 20
88.5400760997
 10
126.0846241428
 20
88.5425029861
 10
126.0830253717
 20
88.5450240752
 10
126.0819012579
 20
88.5476271807
 10
126.0812585834
 20
88.5502974618
 10
126.0811267146
 20
88.5530327822
 10
126.0815130826
 20
88.5558269947
 10
126.0824156457
 20
88.5586567627
 10
126.0838438343
 20
88.5614982401
 10
126.0858208357
 20
88.564363629
 10
126.0883176993
 20
88.5672174194
 10
126.0912492574
 20
88.5699827232
 10
126.0945720281
 20
88.5726435878
 10
126.0982969122
 20
88.5752291795
 10
126.1024097742
 20
88.5777456298
  0
LWPOLYLINE
  5
310
100
AcDbEntity
  8
IMPORT_IGES
100
AcDbPolyline
 62
7
  6
CONTINUOUS
 90
8
 70
0
 10
125.3178816683
 20
91.7157638552
 10
125.2133726808
 20
91.7614310215
 10
125.1109022471
 20
91.796427749
 10
125.0098125672
 20
91.8208300968
 10
124.910761441
 20
91.834562006
 10
124.8157222682
 20
91.837395299
 10
124.7247880051
 20
91.8290789597
 10
124.6378656953
 20
91.8098640044
  0
LWPOLYLINE
  5
311
100
AcDbEntity
  8
RACCORDO
100
AcDbPolyline
 62
250
  6
CONTINUOUS
 90
19
 70
0
 10
128.2697915417
 20
92.2057465913
 10
128.3730849261
 20
92.1490986265
 10
128.4806309087
 20
92.0961319303
 10
128.5917288256
 20
92.0468636155
 10
128.7050283624
 20
92.0014958299
 10
128.8205106518
 20
91.9597218553
 10
128.9397185113
 20
91.9209669142
 10
129.0622289093
 20
91.8854204163
 10
129.1876112012
 20
91.8531374467
 10
129.3177165091
 20
91.8237677254
 10
129.4528628965
 20
91.7975409528
 10
129.5919444743
 20
91.7749330437
 10
129.7347275987
 20
91.7562167318
 10
129.880894105
 20
91.7416803049
 10
130.0295567885
 20
91.7317084042
 10
130.1795331192
 20
91.7266676969
 10
130.3299010517
 20
91.7267909603
 10
130.4799945738
 20
91.7322345738
 10
130.6289354466
 20
91.7431488673
  0
LWPOLYLINE
  5
312
100
AcDbEntity
  8
RACCORDO
100
AcDbPolyline
 62
250
  6
CONTINUOUS
 90
16
 70
0
 10
140.618356703
 20
85.5432803089
 10
140.7211260829
 20
85.486907789
 10
140.8281532575
 20
85.4341561248
 10
140.9387538311
 20
85.3850472349
 10
141.0509107201
 20
85.3400819421
 10
141.1652533198
 20
85.2986192796
 10
141.2855164253
 20
85.2593549417
 10
141.4129160754
 20
85.2223246298
 10
141.545757038
 20
85.1883339529
 10
141.6837280696
 20
85.1576712663
 10
141.8268027999
 20
85.1306055468
 10
141.9740427029
 20
85.1076440564
 10
142.1236328702
 20
85.089286718
 10
142.2744926039
 20
85.0757579948
 10
142.426311194
 20
85.0671600852
 10
142.5783368991
 20
85.063631132
  0
LWPOLYLINE
  5
313
100
AcDbEntity
  8
RACCORDO
100
AcDbPolyline
 62
7
  6
CONTINUOUS
 90
13
 70
0
 10
128.517268453
 20
91.6570545975
 10
128.5977812968
 20
91.6123149413
 10
128.7360098253
 20
91.5429793906
 10
128.8746724591
 20
91.4815807091
 10
129.012168541
 20
91.4276372888
 10
129.149222602
 20
91.3799698591
 10
129.2880848198
 20
91.3373398743
 10
129.428102172
 20
91.2997683706
 10
129.569065413
 20
91.2671983162
 10
129.7136156769
 20
91.239177687
 10
129.8625679155
 20
91.2160214699
 10
130.0145574897
 20
91.1985363909
 10
130.1119348843
 20
91.1907336735
  0
LWPOLYLINE
  5
314
100
AcDbEntity
  8
RACCORDO
100
AcDbPolyline
 62
7
  6
CONTINUOUS
 90
13
 70
0
 10
140.8661407129
 20
84.9944099711
 10
140.9235798606
 20
84.9621458465
 10
141.040069455
 20
84.901884891
 10
141.1581188364
 20
84.8470110901
 10
141.2777799444
 20
84.7969387526
 10
141.3986371671
 20
84.7514060633
 10
141.5190385433
 20
84.7106223869
 10
141.6366117082
 20
84.6748838879
 10
141.7529682903
 20
84.6432891492
 10
141.87204122
 20
84.6146957661
 10
141.9950073049
 20
84.5890617153
 10
142.120247298
 20
84.5669907633
 10
142.2557423753
 20
84.5468523461
  0
LINE
  5
315
100
AcDbEntity
  8
RACCORDO
100
AcDbLine
 62
7
  6
CONTINUOUS
 10
124.2756499999
 20
94.1061099179
 11
128.5182906265
 21
91.6564623929
  0
LINE
  5
316
100
AcDbEntity
  8
RACCORDO
100
AcDbLine
 62
250
  6
CONTINUOUS
 10
124.0271508546
 20
94.6553941513
 11
128.2697915417
 21
92.2057465913
  0
LINE
  5
317
100
AcDbEntity
  8
RACCORDO
100
AcDbLine
 62
7
  6
CONTINUOUS
 10
134.4130804804
 20
88.7203250882
 11
140.8668557905
 21
84.9939961089
  0
LINE
  5
318
100
AcDbEntity
  8
RACCORDO
100
AcDbLine
 62
250
  6
CONTINUOUS
 10
134.1645813351
 20
89.2696093216
 11
140.618356703
 21
85.5432803089
  0
LINE
  5
319
100
AcDbEntity
  8
IMPORT_IGES
100
AcDbLine
 62
7
  6
CONTINUOUS
 10
152.5065835737
 20
78.8401255111
 11
151.3045852345
 21
79.5341442876
  0
LINE
  5
31A
100
AcDbEntity
  8
RACCORDO
100
AcDbLine
 62
7
  6
CONTINUOUS
 10
132.8076432412
 20
90.4263518923
 11
133.2658004368
 21
90.1618176697
  0
LWPOLYLINE
  5
31B
100
AcDbEntity
  8
RACCORDO
100
AcDbPolyline
 62
7
  6
CONTINUOUS
 90
5
 70
0
 10
133.2659166164
 20
90.161750615
 10
133.2918053288
 20
90.1466391225
 10
133.3633845268
 20
90.1030116148
 10
133.4254984255
 20
90.062565941
 10
133.4784874087
 20
90.0256705377
  0
LWPOLYLINE
  5
31C
100
AcDbEntity
  8
IMPORT_IGES
100
AcDbPolyline
 62
7
  6
CONTINUOUS
 90
3
 70
0
 10
139.7783354503
 20
83.3517198945
 10
139.6734197534
 20
83.4270881257
 10
139.5665648333
 20
83.4939343837
  0
LWPOLYLINE
  5
31D
100
AcDbEntity
  8
IMPORT_IGES
100
AcDbPolyline
 62
7
  6
CONTINUOUS
 90
3
 70
0
 10
143.3138693562
 20
81.3103469279
 10
143.2089536593
 20
81.3857151591
 10
143.1020987393
 20
81.452561417
  0
LWPOLYLINE
  5
31E
100
AcDbEntity
  8
0
100
AcDbPolyline
 62
7
  6
CONTINUOUS
 90
7
 70
0
 10
147.951843545
 20
77.6461490616
 10
147.9398543748
 20
77.6550488268
 10
147.9295245516
 20
77.6668338242
 10
147.9213659804
 20
77.6810371221
 10
147.9155476855
 20
77.6975040064
 10
147.9119006424
 20
77.7163891912
 10
147.9104248513
 20
77.7376926765
  0
LWPOLYLINE
  5
31F
100
AcDbEntity
  8
IMPORT_IGES
100
AcDbPolyline
 62
7
  6
CONTINUOUS
 90
7
 70
0
 10
147.951843545
 20
77.6461490616
 10
147.9398543748
 20
77.6550488268
 10
147.9295245516
 20
77.6668338242
 10
147.9213659804
 20
77.6810371221
 10
147.9155476855
 20
77.6975040064
 10
147.9119006424
 20
77.7163891912
 10
147.9104248513
 20
77.7376926765
  0
LWPOLYLINE
  5
320
100
AcDbEntity
  8
IMPORT_IGES
100
AcDbPolyline
 62
7
  6
CONTINUOUS
 90
10
 70
0
 10
142.5773448889
 20
79.0360478737
 10
142.4922005854
 20
79.1209230098
 10
142.413832907
 20
79.209710468
 10
142.3422418535
 20
79.3024102481
 10
142.277427425
 20
79.3990223503
 10
142.2193896216
 20
79.4995467746
 10
142.1681284431
 20
79.6039835208
 10
142.1236438897
 20
79.7123325891
 10
142.0859359612
 20
79.8245939795
 10
142.0550046578
 20
79.9407676918
  0
LWPOLYLINE
  5
321
100
AcDbEntity
  8
0
100
AcDbPolyline
 62
7
  6
CONTINUOUS
 90
7
 70
0
 10
133.1547962083
 20
86.9901382246
 10
133.0528496747
 20
87.1106925617
 10
132.9457190449
 20
87.2242286146
 10
132.8361444514
 20
87.327881868
 10
132.7250392718
 20
87.4206974837
 10
132.6114901284
 20
87.5036303
 10
132.4954970215
 20
87.576680317
  0
LWPOLYLINE
  5
322
100
AcDbEntity
  8
0
100
AcDbPolyline
 62
7
  6
CONTINUOUS
 90
7
 70
0
 10
136.6903301143
 20
84.948765258
 10
136.5883835807
 20
85.0693195951
 10
136.4812529508
 20
85.1828556479
 10
136.3716783573
 20
85.2865089014
 10
136.2605731777
 20
85.3793245171
 10
136.1470240344
 20
85.4622573334
 10
136.0310309274
 20
85.5353073503
  0
LWPOLYLINE
  5
323
100
AcDbEntity
  8
IMPORT_IGES
100
AcDbPolyline
 62
7
  6
CONTINUOUS
 90
6
 70
0
 10
133.1990480477
 20
86.9332536969
 10
133.1075381945
 20
87.0477731707
 10
133.0118152123
 20
87.1557784558
 10
132.9119992738
 20
87.2574380262
 10
132.8102441121
 20
87.3505756234
 10
132.7072676384
 20
87.4344658278
  0
LINE
  5
324
100
AcDbEntity
  8
0
100
AcDbLine
 62
7
  6
CONTINUOUS
 10
131.9831752832
 20
87.39521894
 11
131.9745702583
 21
87.4096807711
  0
LINE
  5
325
100
AcDbEntity
  8
IMPORT_IGES
100
AcDbLine
 62
7
  6
CONTINUOUS
 10
131.9832421252
 20
87.3951067065
 11
131.9745702583
 21
87.4096807711
  0
LINE
  5
326
100
AcDbEntity
  8
0
100
AcDbLine
 62
250
  6
CONTINUOUS
 10
135.506277077
 20
83.118793807
 11
134.9839368459
 21
84.0235136251
  0
LINE
  5
327
100
AcDbEntity
  8
IMPORT_IGES
100
AcDbLine
 62
250
  6
CONTINUOUS
 10
135.506277077
 20
83.118793807
 11
134.9839368459
 21
84.0235136251
  0
LWPOLYLINE
  5
328
100
AcDbEntity
  8
IMPORT_IGES
100
AcDbPolyline
 62
7
  6
CONTINUOUS
 90
8
 70
0
 10
130.1442067016
 20
88.0652070843
 10
130.0955441251
 20
88.201516002
 10
130.0399436963
 20
88.3363420642
 10
129.9773703442
 20
88.4695153753
 10
129.9078591399
 20
88.6012058309
 10
129.832461764
 20
88.7292322528
 10
129.7509310386
 20
88.8537614751
 10
129.6635141418
 20
88.9746266636
  0
LWPOLYLINE
  5
329
100
AcDbEntity
  8
0
100
AcDbPolyline
 62
7
  6
CONTINUOUS
 90
8
 70
0
 10
130.1487535039
 20
88.0512272715
 10
130.0970665186
 20
88.197761083
 10
130.0366540486
 20
88.3436077403
 10
129.9676325967
 20
88.4888794595
 10
129.8912571931
 20
88.6306029893
 10
129.8072228961
 20
88.7689439443
 10
129.7158346474
 20
88.9037367099
 10
129.6192623024
 20
89.0315111913
  0
LWPOLYLINE
  5
32A
100
AcDbEntity
  8
IMPORT_IGES
100
AcDbPolyline
 62
7
  6
CONTINUOUS
 90
22
 70
0
 10
128.4546382915
 20
88.7828075231
 10
128.486877771
 20
88.6519713273
 10
128.5268208426
 20
88.520837856
 10
128.5741451137
 20
88.3901658579
 10
128.6285095232
 20
88.2606932846
 10
128.6895462159
 20
88.133161396
 10
128.7568302464
 20
88.0083612869
 10
128.829962933
 20
87.8869713723
 10
128.9085934317
 20
87.7695719345
 10
128.9922995311
 20
87.656839867
 10
129.0805936749
 20
87.5494973314
 10
129.1730388473
 20
87.4481629046
 10
129.2692110785
 20
87.3534256803
 10
129.3685513506
 20
87.2659803053
 10
129.4704546144
 20
87.1864998125
 10
129.5746621895
 20
87.1153724564
 10
129.6804297908
 20
87.0533210203
 10
129.7864849538
 20
87.0011929543
 10
129.8925281982
 20
86.9591872217
 10
129.9978908053
 20
86.9276548196
 10
130.1008235453
 20
86.9070227786
 10
130.1941389004
 20
86.8977676359
  0
LWPOLYLINE
  5
32B
100
AcDbEntity
  8
IMPORT_IGES
100
AcDbPolyline
 62
7
  6
CONTINUOUS
 90
7
 70
0
 10
128.4324602196
 20
88.8999772131
 10
128.4335506594
 20
88.8947430526
 10
128.43901167
 20
88.8795202871
 10
128.4476522775
 20
88.8650269418
 10
128.4593849582
 20
88.8515166453
 10
128.4742972358
 20
88.8387357691
 10
128.4923891103
 20
88.8266843132
  0
LWPOLYLINE
  5
32C
100
AcDbEntity
  8
0
100
AcDbPolyline
 62
7
  6
CONTINUOUS
 90
7
 70
0
 10
128.4324630844
 20
88.8999797947
 10
128.4334769397
 20
88.895025166
 10
128.4388202041
 20
88.8798633063
 10
128.4473991141
 20
88.8653748568
 10
128.4591601339
 20
88.8518045988
 10
128.4741567993
 20
88.8389077509
 10
128.4923891103
 20
88.8266843132
  0
LWPOLYLINE
  5
32D
100
AcDbEntity
  8
0
100
AcDbPolyline
 62
7
  6
CONTINUOUS
 90
21
 70
0
 10
128.4324059805
 20
88.8999765891
 10
128.458242592
 20
88.7664684906
 10
128.4961665504
 20
88.6191411438
 10
128.5437377118
 20
88.4716929695
 10
128.6004734395
 20
88.3252243188
 10
128.6658748512
 20
88.1807632364
 10
128.7394284224
 20
88.0392980269
 10
128.8205292985
 20
87.9019136337
 10
128.9085765941
 20
87.7695958163
 10
129.0030412706
 20
87.6431814874
 10
129.1033145688
 20
87.5235973252
 10
129.2086653113
 20
87.4118560717
 10
129.3184142757
 20
87.3088435654
 10
129.4321173209
 20
87.2152254494
 10
129.5488015889
 20
87.132088375
 10
129.6670612638
 20
87.060607446
 10
129.7865337714
 20
87.00117135
 10
129.9061708561
 20
86.9545251674
 10
130.0236479988
 20
86.9215310206
 10
130.1379615127
 20
86.9021453211
 10
130.1945931455
 20
86.8990703383
  0
LINE
  5
32E
100
AcDbEntity
  8
IMPORT_IGES
100
AcDbLine
 62
7
  6
CONTINUOUS
 10
128.4324063728
 20
88.8999741679
 11
128.4546382915
 21
88.7828075231
  0
LINE
  5
32F
100
AcDbEntity
  8
0
100
AcDbLine
 62
7
  6
CONTINUOUS
 10
128.4335443133
 20
89.4664044539
 11
128.4315360459
 21
89.4816392131
  0
LINE
  5
330
100
AcDbEntity
  8
IMPORT_IGES
100
AcDbLine
 62
7
  6
CONTINUOUS
 10
128.4335443133
 20
89.4664044539
 11
128.4315360459
 21
89.4816392131
  0
LWPOLYLINE
  5
331
100
AcDbEntity
  8
RACCORDO
100
AcDbPolyline
 62
250
  6
CONTINUOUS
 90
9
 70
0
 10
128.2697915417
 20
92.2057465913
 10
128.2741854493
 20
92.1087047753
 10
128.2873216972
 20
92.0177420419
 10
128.3090642196
 20
91.9338004388
 10
128.33918782
 20
91.8577492952
 10
128.3773805036
 20
91.79037622
 10
128.423246709
 20
91.7323789448
 10
128.4763114043
 20
91.6843580981
 10
128.5172684538
 20
91.657054597
  0
LINE
  5
332
100
AcDbEntity
  8
RACCORDO
100
AcDbLine
 62
250
  6
CONTINUOUS
 10
128.2697915417
 20
92.2057465913
 11
128.2697915417
 21
111.6723922138
  0
LINE
  5
333
100
AcDbEntity
  8
SUPERFICI
100
AcDbLine
 62
7
  6
CONTINUOUS
 10
129.5739545978
 20
119.5269068892
 11
129.5739545978
 21
120.4911231836
  0
LINE
  5
334
100
AcDbEntity
  8
RACCORDO
100
AcDbLine
 62
7
  6
CONTINUOUS
 10
129.5739549813
 20
120.4916535601
 11
129.5739545978
 21
120.4911231836
  0
LWPOLYLINE
  5
335
100
AcDbEntity
  8
RACCORDO
100
AcDbPolyline
 62
250
  6
CONTINUOUS
 90
19
 70
0
 10
128.2697915417
 20
111.6723922138
 10
128.2730204475
 20
111.7596486316
 10
128.2826825908
 20
111.8499696347
 10
128.2987044369
 20
111.9426678259
 10
128.3209640499
 20
112.037037716
 10
128.3492920207
 20
112.1323610929
 10
128.3834727563
 20
112.2279124884
 10
128.4232461208
 20
112.3229646986
 10
128.4683094147
 20
112.4167943187
 10
128.5183196792
 20
112.5086872488
 10
128.572896306
 20
112.5979441281
 10
128.631623934
 20
112.6838856578
 10
128.6940556105
 20
112.7658577711
 10
128.7597161927
 20
112.8432366107
 10
128.828105964
 20
112.9154332769
 10
128.8987044369
 20
112.9818983094
 10
128.9709743144
 20
113.0421258693
 10
129.0443655791
 20
113.0956575883
 10
129.1183196792
 20
113.1420860579
  0
LWPOLYLINE
  5
336
100
AcDbEntity
  8
RACCORDO
100
AcDbPolyline
 62
250
  6
CONTINUOUS
 90
19
 70
0
 10
129.693150985
 20
120.2035727147
 10
129.6973068344
 20
120.2900496815
 10
129.7097213257
 20
120.3780884771
 10
129.7303089721
 20
120.4670095331
 10
129.75892731
 20
120.5561072442
 10
129.7953764275
 20
120.6446943558
 10
129.8394073883
 20
120.7321076005
 10
129.8907182999
 20
120.817614575
 10
129.948955367
 20
120.9005570328
 10
130.0137363654
 20
120.9803919366
 10
130.0846887172
 20
121.0565438077
 10
130.1612725447
 20
121.128273058
 10
130.242764969
 20
121.1948515558
 10
130.3286159001
 20
121.2557302233
 10
130.4181474498
 20
121.3104068342
 10
130.51032724
 20
121.3583904592
 10
130.6043226544
 20
121.3993536957
 10
130.6995498275
 20
121.4330566628
 10
130.795306404
 20
121.4592998562
  0
LINE
  5
337
100
AcDbEntity
  8
0
100
AcDbLine
 62
7
  6
CONTINUOUS
 10
128.4315360459
 20
89.4816392131
 11
128.4328684632
 21
89.4954270894
  0
LINE
  5
338
100
AcDbEntity
  8
IMPORT_IGES
100
AcDbLine
 62
7
  6
CONTINUOUS
 10
128.4315360459
 20
89.4816392131
 11
128.4329041932
 21
89.4954245794
  0
LWPOLYLINE
  5
339
100
AcDbEntity
  8
IMPORT_IGES
100
AcDbPolyline
 62
7
  6
CONTINUOUS
 90
18
 70
0
 10
125.4370482925
 20
89.7247673583
 10
125.4289567352
 20
89.6965638223
 10
125.4196543791
 20
89.6672329625
 10
125.4092941828
 20
89.6372997146
 10
125.3978738029
 20
89.60676412
 10
125.3853655213
 20
89.5756045519
 10
125.3717735778
 20
89.5438252081
 10
125.3570937327
 20
89.5114218909
 10
125.3412855493
 20
89.4783603808
 10
125.3243544769
 20
89.4446451532
 10
125.3062950661
 20
89.4102717327
 10
125.2870505319
 20
89.3751924738
 10
125.2666245849
 20
89.339407925
 10
125.2450135145
 20
89.3029175377
 10
125.2221494033
 20
89.2656720213
 10
125.198009612
 20
89.2276549454
 10
125.1726167799
 20
89.1888827404
 10
125.1459709069
 20
89.1493554063
  0
LWPOLYLINE
  5
33A
100
AcDbEntity
  8
IMPORT_IGES
100
AcDbPolyline
 62
7
  6
CONTINUOUS
 90
3
 70
0
 10
126.2729311227
 20
88.5292648652
 10
126.2128395848
 20
88.5204220233
 10
126.1520634687
 20
88.5197995085
  0
LWPOLYLINE
  5
33B
100
AcDbEntity
  8
IMPORT_IGES
100
AcDbPolyline
 62
7
  6
CONTINUOUS
 90
19
 70
0
 10
127.9549927077
 20
88.3663383168
 10
128.0016768437
 20
88.3695985405
 10
128.0471153712
 20
88.3721768959
 10
128.0913082901
 20
88.3740733829
 10
128.1342310189
 20
88.3752765799
 10
128.1759081391
 20
88.3757979086
 10
128.2164133953
 20
88.375671634
 10
128.2557484032
 20
88.374900443
 10
128.293911547
 20
88.3734816488
 10
128.3309717245
 20
88.3714414554
 10
128.3669345721
 20
88.3687822673
 10
128.4017944534
 20
88.3655016801
 10
128.4356033561
 20
88.3616186842
 10
128.4683688054
 20
88.3571343018
 10
128.5000832762
 20
88.3520475108
 10
128.5307761818
 20
88.3463742348
 10
128.5604464412
 20
88.3401165242
 10
128.5890951354
 20
88.3332723287
 10
128.5991690786
 20
88.3305695675
  0
LINE
  5
33C
100
AcDbEntity
  8
RACCORDO
100
AcDbLine
 62
7
  6
CONTINUOUS
 10
130.111934884
 20
91.1907336735
 11
130.1116986218
 21
91.1907490582
  0
LWPOLYLINE
  5
33D
100
AcDbEntity
  8
RACCORDO
100
AcDbPolyline
 62
7
  6
CONTINUOUS
 90
22
 70
0
 10
130.1116986218
 20
91.1907490582
 10
130.1772937672
 20
91.1860225391
 10
130.3204575489
 20
91.1730814559
 10
130.4680030397
 20
91.1561868947
 10
130.6193246119
 20
91.1353204417
 10
130.7734481611
 20
91.1105426785
 10
130.9290929958
 20
91.0820178278
 10
131.0855162823
 20
91.0498674227
 10
131.2419210791
 20
91.0142463844
 10
131.3969775995
 20
90.9754697794
 10
131.5498819926
 20
90.9337895861
 10
131.6998619366
 20
90.8894842791
 10
131.8456751636
 20
90.8429989449
 10
131.9866206136
 20
90.794675619
 10
132.1220122524
 20
90.7449010466
 10
132.2507322316
 20
90.6942580316
 10
132.3722976167
 20
90.6431426236
 10
132.4862728931
 20
90.5919848495
 10
132.5917528208
 20
90.5414821978
 10
132.6883190565
 20
90.4921630841
 10
132.7760428252
 20
90.4443674735
 10
132.8075653
 20
90.4263969063
  0
LWPOLYLINE
  5
33E
100
AcDbEntity
  8
RACCORDO
100
AcDbPolyline
 62
250
  6
CONTINUOUS
 90
19
 70
0
 10
130.6289354466
 20
91.7431576125
 10
130.7426329436
 20
91.712234916
 10
130.8575598283
 20
91.6793645082
 10
130.9731435753
 20
91.6446022547
 10
131.0885889765
 20
91.6079766036
 10
131.2036180287
 20
91.5696538114
 10
131.3184840485
 20
91.5298443858
 10
131.4325976382
 20
91.4886034876
 10
131.5456242057
 20
91.446004887
 10
131.6582058297
 20
91.4021091717
 10
131.7703724074
 20
91.356677577
 10
131.8811163775
 20
91.3098927937
 10
131.9895144823
 20
91.262404025
 10
132.0952357352
 20
91.2143552615
 10
132.1976878901
 20
91.165783251
 10
132.2956800279
 20
91.1173407005
 10
132.3886466577
 20
91.0694336403
 10
132.476554851
 20
91.0221211122
 10
132.559144096
 20
90.9756361582
  0
LWPOLYLINE
  5
33F
100
AcDbEntity
  8
RACCORDO
100
AcDbPolyline
 62
250
  6
CONTINUOUS
 90
23
 70
0
 10
132.559144096
 20
90.9756361257
 10
133.0576243938
 20
90.6876008018
 10
133.0959212454
 20
90.6645940286
 10
133.1322241668
 20
90.6421430458
 10
133.1664747986
 20
90.6204042579
 10
133.1988150597
 20
90.5993397138
 10
133.2295498769
 20
90.5787010608
 10
133.2587491154
 20
90.5584671195
 10
133.2863648795
 20
90.5387321817
 10
133.3124850294
 20
90.5194012281
 10
133.3371088519
 20
90.500504006
 10
133.3602559534
 20
90.4820733256
 10
133.3820214316
 20
90.4640093596
 10
133.4024038575
 20
90.4463273484
 10
133.4214014212
 20
90.4290624199
 10
133.4390802647
 20
90.4121361776
 10
133.4554327129
 20
90.3955567174
 10
133.4704391039
 20
90.3793589416
 10
133.4841230042
 20
90.3634994401
 10
133.4964459207
 20
90.348011769
 10
133.5074078805
 20
90.3329043433
 10
133.5170511018
 20
90.3180910817
 10
133.5202162537
 20
90.3125380304
  0
LINE
  5
340
100
AcDbEntity
  8
RACCORDO
100
AcDbLine
 62
7
  6
CONTINUOUS
 10
133.4784874087
 20
90.0256705377
 11
133.5229231738
 21
89.9925395721
  0
LWPOLYLINE
  5
341
100
AcDbEntity
  8
0
100
AcDbPolyline
 62
7
  6
CONTINUOUS
 90
7
 70
0
 10
140.2258640202
 20
82.9073922913
 10
140.1239174866
 20
83.0279466285
 10
140.0167868568
 20
83.1414826813
 10
139.9072122633
 20
83.2451359347
 10
139.7961070836
 20
83.3379515504
 10
139.6825579403
 20
83.4208843668
 10
139.5665648333
 20
83.4939343837
  0
LWPOLYLINE
  5
342
100
AcDbEntity
  8
IMPORT_IGES
100
AcDbPolyline
 62
7
  6
CONTINUOUS
 90
6
 70
0
 10
136.7345819536
 20
84.8918807303
 10
136.6430721004
 20
85.0064002041
 10
136.5473491183
 20
85.1144054892
 10
136.4475331797
 20
85.2160650596
 10
136.3457780181
 20
85.3092026567
 10
136.2428015443
 20
85.3930928612
  0
LWPOLYLINE
  5
343
100
AcDbEntity
  8
IMPORT_IGES
100
AcDbPolyline
 62
7
  6
CONTINUOUS
 90
6
 70
0
 10
140.2701158596
 20
82.8505077636
 10
140.1786060064
 20
82.9650272375
 10
140.0828830242
 20
83.0730325225
 10
139.9830670857
 20
83.1746920929
 10
139.881311924
 20
83.2678296901
 10
139.7783354503
 20
83.3517198945
  0
LINE
  5
344
100
AcDbEntity
  8
0
100
AcDbLine
 62
7
  6
CONTINUOUS
 10
135.5187091891
 20
85.3538459733
 11
135.5101041643
 21
85.3683078045
  0
LINE
  5
345
100
AcDbEntity
  8
IMPORT_IGES
100
AcDbLine
 62
7
  6
CONTINUOUS
 10
135.5187760312
 20
85.3537337398
 11
135.5101041643
 21
85.3683078045
  0
LINE
  5
346
100
AcDbEntity
  8
0
100
AcDbLine
 62
250
  6
CONTINUOUS
 10
135.0260605195
 20
84.2835923835
 11
135.7525726247
 21
83.0252365064
  0
LINE
  5
347
100
AcDbEntity
  8
IMPORT_IGES
100
AcDbLine
 62
250
  6
CONTINUOUS
 10
135.7525726247
 20
83.0252365064
 11
135.0260605195
 21
84.2835923835
  0
LWPOLYLINE
  5
348
100
AcDbEntity
  8
IMPORT_IGES
100
AcDbPolyline
 62
7
  6
CONTINUOUS
 90
8
 70
0
 10
133.6797406075
 20
86.0238341177
 10
133.631078031
 20
86.1601430353
 10
133.5754776023
 20
86.2949690976
 10
133.5129042501
 20
86.4281424086
 10
133.4433930458
 20
86.5598328643
 10
133.36799567
 20
86.6878592862
 10
133.2864649446
 20
86.8123885084
 10
133.1990480477
 20
86.9332536969
  0
LINE
  5
349
100
AcDbEntity
  8
0
100
AcDbLine
 62
7
  6
CONTINUOUS
 10
131.9744609995
 20
87.4098650455
 11
131.9690782192
 21
87.4250314873
  0
LINE
  5
34A
100
AcDbEntity
  8
IMPORT_IGES
100
AcDbLine
 62
7
  6
CONTINUOUS
 10
131.9745702583
 20
87.4096807711
 11
131.9690782192
 21
87.4250314873
  0
LWPOLYLINE
  5
34B
100
AcDbEntity
  8
0
100
AcDbPolyline
 62
7
  6
CONTINUOUS
 90
8
 70
0
 10
133.6842874098
 20
86.0098543049
 10
133.6326004245
 20
86.1563881163
 10
133.5721879545
 20
86.3022347736
 10
133.5031665026
 20
86.4475064928
 10
133.426791099
 20
86.5892300227
 10
133.342756802
 20
86.7275709777
 10
133.2513685533
 20
86.8623637433
 10
133.1547962083
 20
86.9901382246
  0
LWPOLYLINE
  5
34C
100
AcDbEntity
  8
IMPORT_IGES
100
AcDbPolyline
 62
7
  6
CONTINUOUS
 90
22
 70
0
 10
131.9901721974
 20
86.7414345564
 10
132.0224116769
 20
86.6105983607
 10
132.0623547485
 20
86.4794648894
 10
132.1096790196
 20
86.3487928913
 10
132.1640434291
 20
86.2193203179
 10
132.2250801219
 20
86.0917884293
 10
132.2923641523
 20
85.9669883203
 10
132.3654968389
 20
85.8455984057
 10
132.4441273376
 20
85.7281989678
 10
132.527833437
 20
85.6154669004
 10
132.6161275809
 20
85.5081243648
 10
132.7085727533
 20
85.4067899379
 10
132.8047449844
 20
85.3120527136
 10
132.9040852565
 20
85.2246073386
 10
133.0059885203
 20
85.1451268458
 10
133.1101960954
 20
85.0739994897
 10
133.2159636968
 20
85.0119480537
 10
133.3220188598
 20
84.9598199877
 10
133.4280621041
 20
84.917814255
 10
133.5334247112
 20
84.886281853
 10
133.6363574512
 20
84.8656498119
 10
133.7296728063
 20
84.8563946693
  0
LWPOLYLINE
  5
34D
100
AcDbEntity
  8
IMPORT_IGES
100
AcDbPolyline
 62
7
  6
CONTINUOUS
 90
34
 70
0
 10
131.44840294
 20
86.0648865917
 10
131.4453400244
 20
86.0789125925
 10
131.4426044723
 20
86.0925771329
 10
131.4401937677
 20
86.1058787607
 10
131.4381091119
 20
86.1188099232
 10
131.4363434534
 20
86.131374796
 10
131.4348814419
 20
86.1435892561
 10
131.4337170577
 20
86.155452791
 10
131.432848669
 20
86.1669614963
 10
131.4322670764
 20
86.1781259114
 10
131.4319655361
 20
86.1889473459
 10
131.4319414431
 20
86.1994190931
 10
131.4321913946
 20
86.2095394318
 10
131.4327075375
 20
86.2193055653
 10
131.4334864946
 20
86.228713807
 10
131.4345310846
 20
86.237760815
 10
131.4358340368
 20
86.2464512297
 10
131.4373892034
 20
86.2547726644
 10
131.4392005327
 20
86.2626959169
 10
131.4412694486
 20
86.270230885
 10
131.4435787139
 20
86.2773585417
 10
131.4461049685
 20
86.2840066927
 10
131.4488396177
 20
86.2901490084
 10
131.4517772848
 20
86.2958037517
 10
131.4549010147
 20
86.3009665274
 10
131.4581992354
 20
86.3056293674
 10
131.4616707654
 20
86.3097928762
 10
131.4653142385
 20
86.3134655185
 10
131.4691203194
 20
86.3166485685
 10
131.4730849978
 20
86.3193330466
 10
131.4772138847
 20
86.3215114546
 10
131.4815038626
 20
86.3231784133
 10
131.4859437665
 20
86.3243310558
 10
131.4905266136
 20
86.3249653502
  0
LWPOLYLINE
  5
34E
100
AcDbEntity
  8
0
100
AcDbPolyline
 62
7
  6
CONTINUOUS
 90
28
 70
0
 10
131.44840294
 20
86.0648865917
 10
131.44522175
 20
86.0794688875
 10
131.4423915606
 20
86.0936908791
 10
131.4399099366
 20
86.1075511611
 10
131.4377762678
 20
86.1210428066
 10
131.4359851003
 20
86.1341692421
 10
131.4345261871
 20
86.1469442765
 10
131.4333922083
 20
86.1593690737
 10
131.4325819708
 20
86.1714375554
 10
131.4320938877
 20
86.1831523608
 10
131.4319191913
 20
86.1945137584
 10
131.4320554041
 20
86.2055149881
 10
131.4325097406
 20
86.2161477799
 10
131.4332722843
 20
86.2264154954
 10
131.4343383824
 20
86.2363063624
 10
131.4357222308
 20
86.2457888825
 10
131.4374147134
 20
86.2548666738
 10
131.4394062478
 20
86.2635253235
 10
131.4417093653
 20
86.2717057304
 10
131.4443223402
 20
86.2794110881
 10
131.4472240848
 20
86.2866250323
 10
131.4503987556
 20
86.2932595104
 10
131.4538686033
 20
86.2993082539
 10
131.4575883106
 20
86.3047642139
 10
131.4614485266
 20
86.3095426956
 10
131.4654136502
 20
86.313615957
 10
131.4695144704
 20
86.3170089601
 10
131.4737492479
 20
86.3197207001
  0
LWPOLYLINE
  5
34F
100
AcDbEntity
  8
IMPORT_IGES
100
AcDbPolyline
 62
7
  6
CONTINUOUS
 90
7
 70
0
 10
131.9679941255
 20
86.8586042464
 10
131.9690845653
 20
86.853370086
 10
131.974545576
 20
86.8381473204
 10
131.9831861834
 20
86.8236539752
 10
131.9949188642
 20
86.8101436787
 10
132.0098311418
 20
86.7973628024
 10
132.0279230162
 20
86.7853113465
  0
LWPOLYLINE
  5
350
100
AcDbEntity
  8
0
100
AcDbPolyline
 62
7
  6
CONTINUOUS
 90
7
 70
0
 10
131.9679969903
 20
86.858606828
 10
131.9690108456
 20
86.8536521993
 10
131.97435411
 20
86.8384903397
 10
131.98293302
 20
86.8240018901
 10
131.9946940398
 20
86.8104316321
 10
132.0096907052
 20
86.7975347843
 10
132.0279230162
 20
86.7853113465
  0
LINE
  5
351
100
AcDbEntity
  8
0
100
AcDbLine
 62
7
  6
CONTINUOUS
 10
131.9670638342
 20
86.8687531251
 11
131.9679969903
 21
86.858606828
  0
LINE
  5
352
100
AcDbEntity
  8
IMPORT_IGES
100
AcDbLine
 62
7
  6
CONTINUOUS
 10
131.9670741827
 20
86.8686406049
 11
131.9679941255
 21
86.8586042464
  0
LWPOLYLINE
  5
353
100
AcDbEntity
  8
RACCORDO
100
AcDbPolyline
 62
250
  6
CONTINUOUS
 90
7
 70
0
 10
129.5739545978
 20
120.4911231836
 10
129.5754098948
 20
120.4584635671
 10
129.5839817291
 20
120.4055622983
 10
129.6001814468
 20
120.3532602236
 10
129.6238955513
 20
120.3019232883
 10
129.6549579094
 20
120.2519107974
 10
129.6931509877
 20
120.2035727106
  0
LINE
  5
354
100
AcDbEntity
  8
RACCORDO
100
AcDbLine
 62
250
  6
CONTINUOUS
 10
129.8865078205
 20
119.7722071927
 11
129.8859623668
 21
119.7848366127
  0
LWPOLYLINE
  5
355
100
AcDbEntity
  8
RACCORDO
100
AcDbPolyline
 62
250
  6
CONTINUOUS
 90
19
 70
0
 10
130.6289354473
 20
111.3880970167
 10
130.6272676683
 20
111.475943523
 10
130.6222770247
 20
111.5680303009
 10
130.6140014985
 20
111.6636565145
 10
130.6025040713
 20
111.7620943905
 10
130.5878722456
 20
111.8625947572
 10
130.5702173782
 20
111.9643927462
 10
130.5496738333
 20
112.0667136133
 10
130.5263979598
 20
112.1687786349
 10
130.5005669011
 20
112.2698110345
 10
130.4723772471
 20
112.3690418946
 10
130.4420435382
 20
112.4657160085
 10
130.4097966321
 20
112.5590976277
 10
130.3758819474
 20
112.6484760617
 10
130.3405575952
 20
112.7331710868
 10
130.3040924151
 20
112.8125381226
 10
130.2667639293
 20
112.885973138
 10
130.22885623
 20
112.9529172483
 10
130.1906578177
 20
113.0128609683
  0
LINE
  5
356
100
AcDbEntity
  8
RACCORDO
100
AcDbLine
 62
250
  6
CONTINUOUS
 10
129.6931509877
 20
120.2035727106
 11
129.6931509877
 21
119.5998175785
  0
LINE
  5
357
100
AcDbEntity
  8
RACCORDO
100
AcDbLine
 62
250
  6
CONTINUOUS
 10
130.6289354466
 20
111.3880970165
 11
130.6289354466
 21
91.7431488673
  0
LWPOLYLINE
  5
358
100
AcDbEntity
  8
0
100
AcDbPolyline
 62
7
  6
CONTINUOUS
 90
5
 70
0
 10
124.9944510206
 20
91.8229597381
 10
124.9822367017
 20
91.8000282874
 10
124.9471585329
 20
91.7164982381
 10
124.9183067008
 20
91.6265178996
 10
124.89726557
 20
91.536804729
  0
LWPOLYLINE
  5
359
100
AcDbEntity
  8
IMPORT_IGES
100
AcDbPolyline
 62
7
  6
CONTINUOUS
 90
5
 70
0
 10
124.9944510206
 20
91.8229597381
 10
124.9822367017
 20
91.8000282874
 10
124.9471585329
 20
91.7164982381
 10
124.9183067008
 20
91.6265178996
 10
124.89726557
 20
91.536804729
  0
LWPOLYLINE
  5
35A
100
AcDbEntity
  8
IMPORT_IGES
100
AcDbPolyline
 62
7
  6
CONTINUOUS
 90
4
 70
0
 10
124.9108569603
 20
90.9959315459
 10
124.9026801427
 20
90.9816150216
 10
124.8976179428
 20
90.9664769032
 10
124.8960063708
 20
90.9513865382
  0
LWPOLYLINE
  5
35B
100
AcDbEntity
  8
0
100
AcDbPolyline
 62
7
  6
CONTINUOUS
 90
4
 70
0
 10
124.9106931135
 20
90.9957018879
 10
124.9025614532
 20
90.9814874257
 10
124.8975806113
 20
90.966523709
 10
124.8959960223
 20
90.9514990583
  0
LWPOLYLINE
  5
35C
100
AcDbEntity
  8
IMPORT_IGES
100
AcDbPolyline
 62
7
  6
CONTINUOUS
 90
5
 70
0
 10
124.3773351281
 20
91.5937191609
 10
124.4082664316
 20
91.6460344073
 10
124.44597436
 20
91.693646798
 10
124.4904589135
 20
91.736556333
 10
124.5289263764
 20
91.7652274261
  0
LWPOLYLINE
  5
35D
100
AcDbEntity
  8
0
100
AcDbPolyline
 62
250
  6
CONTINUOUS
 90
8
 70
0
 10
126.6972014096
 20
89.070411045
 10
126.6428937237
 20
89.0601320422
 10
126.5536977672
 20
89.0560868043
 10
126.4597996007
 20
89.0637244361
 10
126.3633483586
 20
89.0829492347
 10
126.265060419
 20
89.1137292994
 10
126.1642194036
 20
89.1560965309
 10
126.0608253127
 20
89.2100509293
  0
LWPOLYLINE
  5
35E
100
AcDbEntity
  8
IMPORT_IGES
100
AcDbPolyline
 62
250
  6
CONTINUOUS
 90
9
 70
0
 10
126.6968670802
 20
89.0690513895
 10
126.6280974036
 20
89.0586578201
 10
126.5534141421
 20
89.0559593723
 10
126.4758970232
 20
89.0615528278
 10
126.3955926904
 20
89.075313912
 10
126.313803152
 20
89.097062297
 10
126.230962411
 20
89.1267378736
 10
126.1466364646
 20
89.164400751
 10
126.0608253127
 20
89.2100509293
  0
LWPOLYLINE
  5
35F
100
AcDbEntity
  8
IMPORT_IGES
100
AcDbPolyline
 62
7
  6
CONTINUOUS
 90
19
 70
0
 10
124.4194588017
 20
90.4077112834
 10
124.4661429378
 20
90.4109715071
 10
124.5115814653
 20
90.4135498625
 10
124.5557743842
 20
90.4154463495
 10
124.598697113
 20
90.4166495466
 10
124.6403742332
 20
90.4171708752
 10
124.6808794894
 20
90.4170446006
 10
124.7202144972
 20
90.4162734097
 10
124.7583776411
 20
90.4148546154
 10
124.7954378186
 20
90.412814422
 10
124.8314006662
 20
90.410155234
 10
124.8662605474
 20
90.4068746467
 10
124.9000694502
 20
90.4029916508
 10
124.9328348994
 20
90.3985072684
 10
124.9645493702
 20
90.3934204774
 10
124.9952422759
 20
90.3877472015
 10
125.0249125352
 20
90.3814894908
 10
125.0535612294
 20
90.3746452953
 10
125.0636351727
 20
90.3719425341
  0
LWPOLYLINE
  5
360
100
AcDbEntity
  8
0
100
AcDbPolyline
 62
7
  6
CONTINUOUS
 90
7
 70
0
 10
143.7613979261
 20
80.8660193247
 10
143.6594513925
 20
80.9865736618
 10
143.5523207627
 20
81.1001097147
 10
143.4427461692
 20
81.2037629681
 10
143.3316409896
 20
81.2965785838
 10
143.2180918462
 20
81.3795114001
 10
143.1020987393
 20
81.452561417
  0
LWPOLYLINE
  5
361
100
AcDbEntity
  8
IMPORT_IGES
100
AcDbPolyline
 62
7
  6
CONTINUOUS
 90
6
 70
0
 10
143.8056497655
 20
80.809134797
 10
143.7141399123
 20
80.9236542708
 10
143.6184169301
 20
81.0316595559
 10
143.5186009916
 20
81.1333191263
 10
143.4168458299
 20
81.2264567235
 10
143.3138693562
 20
81.3103469279
  0
LINE
  5
362
100
AcDbEntity
  8
0
100
AcDbLine
 62
7
  6
CONTINUOUS
 10
139.0542430951
 20
83.3124730067
 11
139.0456380702
 21
83.3269348379
  0
LINE
  5
363
100
AcDbEntity
  8
IMPORT_IGES
100
AcDbLine
 62
7
  6
CONTINUOUS
 10
139.0543099371
 20
83.3123607732
 11
139.0456380702
 21
83.3269348379
  0
LINE
  5
364
100
AcDbEntity
  8
0
100
AcDbLine
 62
250
  6
CONTINUOUS
 10
139.0418109829
 20
81.0774208403
 11
138.5194707519
 21
81.9821406584
  0
LINE
  5
365
100
AcDbEntity
  8
IMPORT_IGES
100
AcDbLine
 62
250
  6
CONTINUOUS
 10
139.0418109829
 20
81.0774208403
 11
138.5194707519
 21
81.9821406584
  0
LINE
  5
366
100
AcDbEntity
  8
0
100
AcDbLine
 62
250
  6
CONTINUOUS
 10
138.5615944255
 20
82.2422194169
 11
139.2881065306
 21
80.9838635397
  0
LINE
  5
367
100
AcDbEntity
  8
IMPORT_IGES
100
AcDbLine
 62
250
  6
CONTINUOUS
 10
139.2881065306
 20
80.9838635397
 11
138.5615944255
 21
82.2422194169
  0
LINE
  5
368
100
AcDbEntity
  8
0
100
AcDbLine
 62
7
  6
CONTINUOUS
 10
135.5099949054
 20
85.3684920789
 11
135.5046121252
 21
85.3836585206
  0
LINE
  5
369
100
AcDbEntity
  8
IMPORT_IGES
100
AcDbLine
 62
7
  6
CONTINUOUS
 10
135.5101041643
 20
85.3683078045
 11
135.5046121252
 21
85.3836585206
  0
LWPOLYLINE
  5
36A
100
AcDbEntity
  8
0
100
AcDbPolyline
 62
7
  6
CONTINUOUS
 90
21
 70
0
 10
131.9679398865
 20
86.8586036225
 10
131.9937764979
 20
86.725095524
 10
132.0317004563
 20
86.5777681772
 10
132.0792716177
 20
86.4303200028
 10
132.1360073454
 20
86.2838513522
 10
132.2014087572
 20
86.1393902698
 10
132.2749623284
 20
85.9979250602
 10
132.3560632044
 20
85.860540667
 10
132.4441105001
 20
85.7282228496
 10
132.5385751766
 20
85.6018085208
 10
132.6388484747
 20
85.4822243585
 10
132.7441992172
 20
85.3704831051
 10
132.8539481816
 20
85.2674705988
 10
132.9676512268
 20
85.1738524827
 10
133.0843354949
 20
85.0907154084
 10
133.2025951698
 20
85.0192344793
 10
133.3220676774
 20
84.9597983833
 10
133.441704762
 20
84.9131522008
 10
133.5591819047
 20
84.8801580539
 10
133.6734954186
 20
84.8607723545
 10
133.7301270514
 20
84.8576973716
  0
LINE
  5
36B
100
AcDbEntity
  8
IMPORT_IGES
100
AcDbLine
 62
7
  6
CONTINUOUS
 10
131.9679402788
 20
86.8586012012
 11
131.9901721974
 21
86.7414345564
  0
LINE
  5
36C
100
AcDbEntity
  8
0
100
AcDbLine
 62
7
  6
CONTINUOUS
 10
131.9690782192
 20
87.4250314873
 11
131.9670699518
 21
87.4402662464
  0
LINE
  5
36D
100
AcDbEntity
  8
IMPORT_IGES
100
AcDbLine
 62
7
  6
CONTINUOUS
 10
131.9690782192
 20
87.4250314873
 11
131.9670699518
 21
87.4402662464
  0
LWPOLYLINE
  5
36E
100
AcDbEntity
  8
RACCORDO
100
AcDbPolyline
 62
250
  6
CONTINUOUS
 90
14
 70
0
 10
133.5202162537
 20
90.0807845494
 10
133.5244247855
 20
90.0148359525
 10
133.5352195526
 20
89.9557842745
 10
133.5522918224
 20
89.8974043602
 10
133.576223359
 20
89.837735381
 10
133.6076202186
 20
89.776562264
 10
133.6465700878
 20
89.7146487936
 10
133.6936693295
 20
89.6516203641
 10
133.7494386492
 20
89.5876848617
 10
133.8140799237
 20
89.5234070891
 10
133.8877695772
 20
89.45901598
 10
133.9706618208
 20
89.3948951047
 10
134.0629132173
 20
89.33159101
 10
134.1645813351
 20
89.2696093216
  0
LWPOLYLINE
  5
36F
100
AcDbEntity
  8
RACCORDO
100
AcDbPolyline
 62
250
  6
CONTINUOUS
 90
9
 70
0
 10
132.559144096
 20
90.9756361257
 10
132.5635379882
 20
90.8785946795
 10
132.5766741597
 20
90.7876322001
 10
132.5984165655
 20
90.7036907406
 10
132.6285400305
 20
90.6276396411
 10
132.6667325807
 20
90.560266525
 10
132.712598675
 20
90.5022691423
 10
132.7656633009
 20
90.454248143
 10
132.8075652998
 20
90.4263969064
  0
LWPOLYLINE
  5
370
100
AcDbEntity
  8
RACCORDO
100
AcDbPolyline
 62
250
  6
CONTINUOUS
 90
9
 70
0
 10
133.0173012903
 20
90.7111019038
 10
133.0216951717
 20
90.6140605784
 10
133.0348313133
 20
90.5230981856
 10
133.0565736761
 20
90.4391567796
 10
133.0866970898
 20
90.3631057043
 10
133.124889587
 20
90.2957325848
 10
133.1707556355
 20
90.2377351716
 10
133.2238202301
 20
90.1897141224
 10
133.2658004368
 20
90.1618176697
  0
LWPOLYLINE
  5
371
100
AcDbEntity
  8
RACCORDO
100
AcDbPolyline
 62
7
  6
CONTINUOUS
 90
15
 70
0
 10
133.5202266524
 20
90.0821747298
 10
133.5233946933
 20
89.9887235133
 10
133.5366357913
 20
89.8716279077
 10
133.5607635112
 20
89.7531016316
 10
133.596040671
 20
89.6348509825
 10
133.6418377836
 20
89.5196979541
 10
133.6977594746
 20
89.4083815923
 10
133.7634565613
 20
89.3013520208
 10
133.8376511226
 20
89.2001128642
 10
133.9191135881
 20
89.1053722013
 10
134.0081489296
 20
89.0160043089
 10
134.106450932
 20
88.930170865
 10
134.2154017778
 20
88.8470965015
 10
134.3351279952
 20
88.7671641122
 10
134.4128963147
 20
88.7204314884
  0
LINE
  5
372
100
AcDbEntity
  8
RACCORDO
100
AcDbLine
 62
250
  6
CONTINUOUS
 10
132.559144096
 20
111.1554918552
 11
132.559144096
 21
90.9756361257
  0
LINE
  5
373
100
AcDbEntity
  8
RACCORDO
100
AcDbLine
 62
250
  6
CONTINUOUS
 10
133.0173012903
 20
110.8909576332
 11
133.0173012903
 21
90.7111019038
  0
LWPOLYLINE
  5
374
100
AcDbEntity
  8
RACCORDO
100
AcDbPolyline
 62
250
  6
CONTINUOUS
 90
19
 70
0
 10
132.559144096
 20
111.1554918552
 10
132.5623730017
 20
111.2427482729
 10
132.572035145
 20
111.3330692761
 10
132.5880569911
 20
111.4257674673
 10
132.6103166041
 20
111.5201373573
 10
132.6386445749
 20
111.6154607342
 10
132.6728253105
 20
111.7110121297
 10
132.7125986749
 20
111.8060643399
 10
132.7576619688
 20
111.89989396
 10
132.8076722333
 20
111.9917868901
 10
132.8622488601
 20
112.0810437693
 10
132.9209764881
 20
112.1669852991
 10
132.9834081646
 20
112.2489574124
 10
133.0490687468
 20
112.326336252
 10
133.1174585182
 20
112.3985329182
 10
133.1880569911
 20
112.4649979508
 10
133.2603268686
 20
112.5252255106
 10
133.3337181333
 20
112.5787572297
 10
133.4076722334
 20
112.6251856993
  0
LWPOLYLINE
  5
375
100
AcDbEntity
  8
RACCORDO
100
AcDbPolyline
 62
250
  6
CONTINUOUS
 90
19
 70
0
 10
133.0173012903
 20
110.8909576332
 10
133.020530196
 20
110.978214051
 10
133.0301923393
 20
111.0685350542
 10
133.0462141855
 20
111.1612332454
 10
133.0684737985
 20
111.2556031354
 10
133.0968017693
 20
111.3509265124
 10
133.1309825049
 20
111.4464779078
 10
133.1707558693
 20
111.541530118
 10
133.2158191632
 20
111.6353597381
 10
133.2658294277
 20
111.7272526682
 10
133.3204060545
 20
111.8165095475
 10
133.3791336825
 20
111.9024510773
 10
133.441565359
 20
111.9844231906
 10
133.5072259412
 20
112.0618020302
 10
133.5756157125
 20
112.1339986963
 10
133.6462141855
 20
112.2004637288
 10
133.718484063
 20
112.2606912887
 10
133.7918753277
 20
112.3142230078
 10
133.8658294277
 20
112.3606514774
  0
LINE
  5
376
100
AcDbEntity
  8
0
100
AcDbLine
 62
7
  6
CONTINUOUS
 10
131.9670699518
 20
87.4402662464
 11
131.9684023691
 21
87.4540541227
  0
LINE
  5
377
100
AcDbEntity
  8
IMPORT_IGES
100
AcDbLine
 62
7
  6
CONTINUOUS
 10
131.9670699518
 20
87.4402662464
 11
131.9684380992
 21
87.4540516128
  0
LWPOLYLINE
  5
378
100
AcDbEntity
  8
RACCORDO
100
AcDbPolyline
 62
250
  6
CONTINUOUS
 90
16
 70
0
 10
134.7262894613
 20
110.9452148031
 10
134.7406412207
 20
111.0488381116
 10
134.7443494299
 20
111.1520620648
 10
134.7374140889
 20
111.2548866628
 10
134.7197367021
 20
111.3576825102
 10
134.691415765
 20
111.4600790023
 10
134.6527467647
 20
111.560964325
 10
134.6036167685
 20
111.6603156784
 10
134.544138709
 20
111.7581558624
 10
134.4749468706
 20
111.8534414625
 10
134.3959284455
 20
111.9461495067
 10
134.3071962416
 20
112.036302967
 10
134.209722967
 20
112.1229273441
 10
134.1038328579
 20
112.205697805
 10
133.9892016781
 20
112.2849391827
 10
133.8658294277
 20
112.3606514774
  0
LWPOLYLINE
  5
379
100
AcDbEntity
  8
RACCORDO
100
AcDbPolyline
 62
7
  6
CONTINUOUS
 90
10
 70
0
 10
133.5477606375
 20
110.1914367788
 10
133.541984211
 20
110.1595022039
 10
133.5368845838
 20
110.1274794745
 10
133.5324633919
 20
110.0953831984
 10
133.5287224706
 20
110.0632343314
 10
133.5256615892
 20
110.0310412656
 10
133.5232797876
 20
109.9987997668
 10
133.5215777721
 20
109.9665182166
 10
133.5205565814
 20
109.934217657
 10
133.5202162537
 20
109.9019128395
  0
LWPOLYLINE
  5
37A
100
AcDbEntity
  8
RACCORDO
100
AcDbPolyline
 62
250
  6
CONTINUOUS
 90
18
 70
0
 10
133.5477606375
 20
110.1914367788
 10
133.551697288
 20
110.2106715842
 10
133.5742179915
 20
110.2926793068
 10
133.6055066544
 20
110.3721966203
 10
133.6453251513
 20
110.44861835
 10
133.6933704393
 20
110.5213628805
 10
133.7492768647
 20
110.5898765818
 10
133.8126189459
 20
110.6536380234
 10
133.8829146114
 20
110.7121619422
 10
133.9596288688
 20
110.7650029358
 10
134.0421778762
 20
110.8117588524
 10
134.1299333859
 20
110.8520738511
 10
134.2222275254
 20
110.8856411106
 10
134.3183578805
 20
110.9122051637
 10
134.4175928414
 20
110.9315638419
 10
134.5191771698
 20
110.943569814
 10
134.6223377479
 20
110.9481317073
 10
134.7262894613
 20
110.9452148031
  0
LWPOLYLINE
  5
37B
100
AcDbEntity
  8
IMPORT_IGES
100
AcDbPolyline
 62
250
  6
CONTINUOUS
 90
7
 70
0
 10
128.4923891103
 20
89.3982135069
 10
128.5144509716
 20
89.4813003218
 10
128.5422129406
 20
89.5578639594
 10
128.5756750174
 20
89.6279044197
 10
128.6150929581
 20
89.6917213984
 10
128.6602110066
 20
89.7490151997
 10
128.6612088467
 20
89.7500094642
  0
LWPOLYLINE
  5
37C
100
AcDbEntity
  8
0
100
AcDbPolyline
 62
250
  6
CONTINUOUS
 90
6
 70
0
 10
128.4923891103
 20
89.3982135069
 10
128.5198648423
 20
89.4975986944
 10
128.5553286962
 20
89.5872804466
 10
128.5987806721
 20
89.6672587635
 10
128.6507004841
 20
89.7379801186
 10
128.6621840124
 20
89.7496764159
  0
LWPOLYLINE
  5
37D
100
AcDbEntity
  8
IMPORT_IGES
100
AcDbPolyline
 62
7
  6
CONTINUOUS
 90
18
 70
0
 10
128.9725821984
 20
87.6833943917
 10
128.9644906412
 20
87.6551908556
 10
128.9551882851
 20
87.6258599959
 10
128.9448280888
 20
87.595926748
 10
128.9334077088
 20
87.5653911533
 10
128.9208994273
 20
87.5342315853
 10
128.9073074838
 20
87.5024522415
 10
128.8926276387
 20
87.4700489243
 10
128.8768194552
 20
87.4369874142
 10
128.8598883828
 20
87.4032721866
 10
128.841828972
 20
87.3688987661
 10
128.8225844378
 20
87.3338195072
 10
128.8021584909
 20
87.2980349583
 10
128.7805474205
 20
87.261544571
 10
128.7576833092
 20
87.2242990546
 10
128.733543518
 20
87.1862819788
 10
128.7081506858
 20
87.1475097738
 10
128.6815048128
 20
87.1079824396
  0
LWPOLYLINE
  5
37E
100
AcDbEntity
  8
0
100
AcDbPolyline
 62
7
  6
CONTINUOUS
 90
26
 70
0
 10
124.3533060258
 20
91.6344270542
 10
124.2924997845
 20
91.5596555574
 10
124.2401494616
 20
91.4738800823
 10
124.196190458
 20
91.3774438435
 10
124.1617165671
 20
91.2726291338
 10
124.1369905666
 20
91.159291636
 10
124.1217496787
 20
91.0375756673
 10
124.1162993639
 20
90.9101964725
 10
124.1208334654
 20
90.7770830448
 10
124.1351581399
 20
90.638306391
 10
124.1589973181
 20
90.4967947759
 10
124.1925608178
 20
90.3524209877
 10
124.2356388212
 20
90.2053122382
 10
124.2873258065
 20
90.0587784267
 10
124.3477382765
 20
89.9129317694
 10
124.4167597284
 20
89.7676600502
 10
124.493135132
 20
89.6259365204
 10
124.5771694291
 20
89.4875955654
 10
124.6685576778
 20
89.3528027998
 10
124.7651300227
 20
89.2250283184
 10
124.8670765563
 20
89.1044739813
 10
124.9742071861
 20
88.9909379285
 10
125.0837817796
 20
88.887284675
 10
125.1948869593
 20
88.7944690593
 10
125.3084361026
 20
88.711536243
 10
125.4244292096
 20
88.6384862261
  0
LWPOLYLINE
  5
37F
100
AcDbEntity
  8
IMPORT_IGES
100
AcDbPolyline
 62
7
  6
CONTINUOUS
 90
10
 70
0
 10
123.7464435917
 20
93.2892749209
 10
123.7323815438
 20
93.2737801413
 10
123.719294929
 20
93.2572851547
 10
123.7070728509
 20
93.2395911285
 10
123.6958262059
 20
93.2208968954
 10
123.6858876822
 20
93.201798954
 10
123.6772841096
 20
93.1822890241
 10
123.6699886584
 20
93.1623753859
 10
123.6642535276
 20
93.1426793783
 10
123.6601627835
 20
93.1234081142
  0
LWPOLYLINE
  5
380
100
AcDbEntity
  8
0
100
AcDbPolyline
 62
7
  6
CONTINUOUS
 90
10
 70
0
 10
123.7614810725
 20
93.3037694938
 10
123.7414148416
 20
93.283822873
 10
123.7232755557
 20
93.2624303611
 10
123.7070632151
 20
93.2395919581
 10
123.6925405144
 20
93.2148143065
 10
123.6799447589
 20
93.1885907638
 10
123.6699878638
 20
93.1624014023
 10
123.6629071343
 20
93.1367395796
 10
123.6584652652
 20
93.1111119381
 10
123.6566622566
 20
93.0855184778
  0
LINE
  5
381
100
AcDbEntity
  8
IMPORT_IGES
100
AcDbLine
 62
7
  6
CONTINUOUS
 10
123.7614810725
 20
93.3037694938
 11
123.7464435917
 21
93.2892749209
  0
LINE
  5
382
100
AcDbEntity
  8
0
100
AcDbLine
 62
7
  6
CONTINUOUS
 10
142.589777001
 20
81.2711000401
 11
142.5811719761
 21
81.2855618712
  0
LINE
  5
383
100
AcDbEntity
  8
IMPORT_IGES
100
AcDbLine
 62
7
  6
CONTINUOUS
 10
142.589843843
 20
81.2709878066
 11
142.5811719761
 21
81.2855618712
  0
LINE
  5
384
100
AcDbEntity
  8
0
100
AcDbLine
 62
250
  6
CONTINUOUS
 10
142.5773448889
 20
79.0360478737
 11
142.0550046578
 21
79.9407676918
  0
LINE
  5
385
100
AcDbEntity
  8
IMPORT_IGES
100
AcDbLine
 62
250
  6
CONTINUOUS
 10
142.5773448889
 20
79.0360478737
 11
142.0550046578
 21
79.9407676918
  0
LINE
  5
386
100
AcDbEntity
  8
0
100
AcDbLine
 62
250
  6
CONTINUOUS
 10
142.0971283314
 20
80.2008464502
 11
142.8236404366
 21
78.9424905731
  0
LINE
  5
387
100
AcDbEntity
  8
IMPORT_IGES
100
AcDbLine
 62
250
  6
CONTINUOUS
 10
142.8236404366
 20
78.9424905731
 11
142.0971283314
 21
80.2008464502
  0
LWPOLYLINE
  5
388
100
AcDbEntity
  8
IMPORT_IGES
100
AcDbPolyline
 62
7
  6
CONTINUOUS
 90
8
 70
0
 10
137.2152745134
 20
83.9824611511
 10
137.1666119369
 20
84.1187700687
 10
137.1110115082
 20
84.2535961309
 10
137.0484381561
 20
84.386769442
 10
136.9789269517
 20
84.5184598976
 10
136.9035295759
 20
84.6464863195
 10
136.8219988505
 20
84.7710155418
 10
136.7345819536
 20
84.8918807303
  0
LWPOLYLINE
  5
389
100
AcDbEntity
  8
0
100
AcDbPolyline
 62
7
  6
CONTINUOUS
 90
8
 70
0
 10
137.2198213158
 20
83.9684813382
 10
137.1681343305
 20
84.1150151497
 10
137.1077218604
 20
84.260861807
 10
137.0387004085
 20
84.4061335262
 10
136.9623250049
 20
84.547857056
 10
136.8782907079
 20
84.686198011
 10
136.7869024592
 20
84.8209907766
 10
136.6903301143
 20
84.948765258
  0
LWPOLYLINE
  5
38A
100
AcDbEntity
  8
IMPORT_IGES
100
AcDbPolyline
 62
7
  6
CONTINUOUS
 90
22
 70
0
 10
135.5257061034
 20
84.7000615898
 10
135.5579455829
 20
84.5692253941
 10
135.5978886545
 20
84.4380919227
 10
135.6452129256
 20
84.3074199246
 10
135.6995773351
 20
84.1779473513
 10
135.7606140278
 20
84.0504154627
 10
135.8278980583
 20
83.9256153536
 10
135.9010307448
 20
83.804225439
 10
135.9796612435
 20
83.6868260012
 10
136.063367343
 20
83.5740939338
 10
136.1516614868
 20
83.4667513981
 10
136.2441066592
 20
83.3654169713
 10
136.3402788904
 20
83.270679747
 10
136.4396191624
 20
83.183234372
 10
136.5415224263
 20
83.1037538792
 10
136.6457300014
 20
83.0326265231
 10
136.7514976027
 20
82.9705750871
 10
136.8575527657
 20
82.918447021
 10
136.9635960101
 20
82.8764412884
 10
137.0689586172
 20
82.8449088863
 10
137.1718913571
 20
82.8242768453
 10
137.2652067122
 20
82.8150217026
  0
LWPOLYLINE
  5
38B
100
AcDbEntity
  8
IMPORT_IGES
100
AcDbPolyline
 62
7
  6
CONTINUOUS
 90
34
 70
0
 10
134.9839368459
 20
84.0235136251
 10
134.9808739303
 20
84.0375396258
 10
134.9781383782
 20
84.0512041663
 10
134.9757276737
 20
84.0645057941
 10
134.9736430178
 20
84.0774369566
 10
134.9718773594
 20
84.0900018294
 10
134.9704153478
 20
84.1022162894
 10
134.9692509636
 20
84.1140798244
 10
134.9683825749
 20
84.1255885296
 10
134.9678009823
 20
84.1367529448
 10
134.9674994421
 20
84.1475743792
 10
134.967475349
 20
84.1580461265
 10
134.9677253005
 20
84.1681664652
 10
134.9682414434
 20
84.1779325987
 10
134.9690204006
 20
84.1873408403
 10
134.9700649905
 20
84.1963878484
 10
134.9713679427
 20
84.2050782631
 10
134.9729231094
 20
84.2133996978
 10
134.9747344386
 20
84.2213229503
 10
134.9768033545
 20
84.2288579184
 10
134.9791126198
 20
84.2359855751
 10
134.9816388744
 20
84.242633726
 10
134.9843735237
 20
84.2487760418
 10
134.9873111907
 20
84.2544307851
 10
134.9904349206
 20
84.2595935607
 10
134.9937331413
 20
84.2642564008
 10
134.9972046713
 20
84.2684199095
 10
135.0008481444
 20
84.2720925519
 10
135.0046542253
 20
84.2752756018
 10
135.0086189038
 20
84.2779600799
 10
135.0127477906
 20
84.280138488
 10
135.0170377685
 20
84.2818054467
 10
135.0214776724
 20
84.2829580892
 10
135.0260605195
 20
84.2835923835
  0
LWPOLYLINE
  5
38C
100
AcDbEntity
  8
0
100
AcDbPolyline
 62
7
  6
CONTINUOUS
 90
28
 70
0
 10
134.9839368459
 20
84.0235136251
 10
134.980755656
 20
84.0380959208
 10
134.9779254665
 20
84.0523179125
 10
134.9754438425
 20
84.0661781944
 10
134.9733101737
 20
84.07966984
 10
134.9715190062
 20
84.0927962755
 10
134.970060093
 20
84.1055713098
 10
134.9689261143
 20
84.117996107
 10
134.9681158767
 20
84.1300645887
 10
134.9676277937
 20
84.1417793942
 10
134.9674530972
 20
84.1531407918
 10
134.9675893101
 20
84.1641420214
 10
134.9680436466
 20
84.1747748133
 10
134.9688061903
 20
84.1850425288
 10
134.9698722883
 20
84.1949333957
 10
134.9712561367
 20
84.2044159159
 10
134.9729486193
 20
84.2134937072
 10
134.9749401537
 20
84.2221523569
 10
134.9772432713
 20
84.2303327638
 10
134.9798562461
 20
84.2380381214
 10
134.9827579908
 20
84.2452520657
 10
134.9859326615
 20
84.2518865438
 10
134.9894025092
 20
84.2579352872
 10
134.9931222166
 20
84.2633912473
 10
134.9969824325
 20
84.268169729
 10
135.0009475561
 20
84.2722429903
 10
135.0050483764
 20
84.2756359935
 10
135.0092831539
 20
84.2783477334
  0
LWPOLYLINE
  5
38D
100
AcDbEntity
  8
IMPORT_IGES
100
AcDbPolyline
 62
7
  6
CONTINUOUS
 90
7
 70
0
 10
135.5035280314
 20
84.8172312798
 10
135.5046184713
 20
84.8119971194
 10
135.5100794819
 20
84.7967743538
 10
135.5187200894
 20
84.7822810085
 10
135.5304527701
 20
84.768770712
 10
135.5453650477
 20
84.7559898358
 10
135.5634569222
 20
84.7439383799
  0
LWPOLYLINE
  5
38E
100
AcDbEntity
  8
0
100
AcDbPolyline
 62
7
  6
CONTINUOUS
 90
7
 70
0
 10
135.5035308962
 20
84.8172338614
 10
135.5045447515
 20
84.8122792327
 10
135.509888016
 20
84.797117373
 10
135.518466926
 20
84.7826289235
 10
135.5302279458
 20
84.7690586655
 10
135.5452246112
 20
84.7561618176
 10
135.5634569222
 20
84.7439383799
  0
LWPOLYLINE
  5
38F
100
AcDbEntity
  8
0
100
AcDbPolyline
 62
7
  6
CONTINUOUS
 90
21
 70
0
 10
135.5034737924
 20
84.8172306559
 10
135.5293104038
 20
84.6837225573
 10
135.5672343623
 20
84.5363952105
 10
135.6148055237
 20
84.3889470362
 10
135.6715412514
 20
84.2424783855
 10
135.7369426631
 20
84.0980173032
 10
135.8104962343
 20
83.9565520936
 10
135.8915971104
 20
83.8191677004
 10
135.979644406
 20
83.686849883
 10
136.0741090825
 20
83.5604355541
 10
136.1743823807
 20
83.4408513919
 10
136.2797331232
 20
83.3291101384
 10
136.3894820876
 20
83.2260976321
 10
136.5031851327
 20
83.1324795161
 10
136.6198694008
 20
83.0493424417
 10
136.7381290757
 20
82.9778615127
 10
136.8576015833
 20
82.9184254167
 10
136.9772386679
 20
82.8717792341
 10
137.0947158106
 20
82.8387850873
 10
137.2090293246
 20
82.8193993879
 10
137.2656609574
 20
82.816324405
  0
LINE
  5
390
100
AcDbEntity
  8
IMPORT_IGES
100
AcDbLine
 62
7
  6
CONTINUOUS
 10
135.5034741847
 20
84.8172282346
 11
135.5257061034
 21
84.7000615898
  0
LWPOLYLINE
  5
391
100
AcDbEntity
  8
RACCORDO
100
AcDbPolyline
 62
250
  6
CONTINUOUS
 90
8
 70
0
 10
129.8859623668
 20
119.7848366127
 10
129.8775263706
 20
119.8460465946
 10
129.8629128522
 20
119.9066291662
 10
129.8421507685
 20
119.9666134918
 10
129.8149573519
 20
120.0264865094
 10
129.7810695651
 20
120.0862299305
 10
129.7404883595
 20
120.1453488396
 10
129.6931509877
 20
120.2035727158
  0
LINE
  5
392
100
AcDbEntity
  8
0
100
AcDbLine
 62
7
  6
CONTINUOUS
 10
135.5025977401
 20
84.8273801584
 11
135.5035308962
 21
84.8172338614
  0
LINE
  5
393
100
AcDbEntity
  8
IMPORT_IGES
100
AcDbLine
 62
7
  6
CONTINUOUS
 10
135.5026080886
 20
84.8272676383
 11
135.5035280314
 21
84.8172312798
  0
LWPOLYLINE
  5
394
100
AcDbEntity
  8
RACCORDO
100
AcDbPolyline
 62
250
  6
CONTINUOUS
 90
9
 70
0
 10
134.1645813351
 20
89.2696093216
 10
134.1689752274
 20
89.1725678754
 10
134.1821113988
 20
89.081605396
 10
134.2038538047
 20
88.9976639365
 10
134.2339772696
 20
88.921612837
 10
134.2721698198
 20
88.8542397209
 10
134.3180359141
 20
88.7962423382
 10
134.3711005401
 20
88.7482213389
 10
134.4128963146
 20
88.7204314885
  0
LINE
  5
395
100
AcDbEntity
  8
RACCORDO
100
AcDbLine
 62
250
  6
CONTINUOUS
 10
133.5440137989
 20
110.1707226407
 11
133.5431395979
 21
110.1965969328
  0
LINE
  5
396
100
AcDbEntity
  8
SUPERFICI
100
AcDbLine
 62
7
  6
CONTINUOUS
 10
133.5202162537
 20
90.0807811326
 11
133.5202162537
 21
109.9019128395
  0
LINE
  5
397
100
AcDbEntity
  8
RACCORDO
100
AcDbLine
 62
250
  6
CONTINUOUS
 10
134.1645813351
 20
89.2696093216
 11
134.1645813351
 21
109.0037087342
  0
LINE
  5
398
100
AcDbEntity
  8
RACCORDO
100
AcDbLine
 62
7
  6
CONTINUOUS
 10
133.5202182679
 20
90.0822187484
 11
133.5202162537
 21
90.0807845494
  0
LWPOLYLINE
  5
399
100
AcDbEntity
  8
RACCORDO
100
AcDbPolyline
 62
250
  6
CONTINUOUS
 90
19
 70
0
 10
134.1645813351
 20
109.0037087342
 10
134.1678102408
 20
109.0909651519
 10
134.1774723841
 20
109.1812861551
 10
134.1934942303
 20
109.2739843463
 10
134.2157538433
 20
109.3683542363
 10
134.2440818141
 20
109.4636776133
 10
134.2782625497
 20
109.5592290088
 10
134.3180359141
 20
109.654281219
 10
134.363099208
 20
109.7481108391
 10
134.4131094725
 20
109.8400037692
 10
134.4676860993
 20
109.9292606485
 10
134.5264137273
 20
110.0152021782
 10
134.5888454038
 20
110.0971742915
 10
134.6545059861
 20
110.1745531311
 10
134.7228957574
 20
110.2467497973
 10
134.7934942303
 20
110.3132148298
 10
134.8657641078
 20
110.3734423896
 10
134.9391553725
 20
110.4269741087
 10
135.0131094725
 20
110.4734025783
  0
LWPOLYLINE
  5
39A
100
AcDbEntity
  8
RACCORDO
100
AcDbPolyline
 62
250
  6
CONTINUOUS
 90
12
 70
0
 10
130.6289382854
 20
91.7431569757
 10
130.5932048525
 20
91.6497658769
 10
130.5537975875
 20
91.5631149993
 10
130.5110762612
 20
91.4839950343
 10
130.4654310261
 20
91.4131281176
 10
130.4172784184
 20
91.3511605459
 10
130.3670574794
 20
91.2986571749
 10
130.3152263903
 20
91.2560970915
 10
130.2622583514
 20
91.2238689344
 10
130.2086367759
 20
91.2022668635
 10
130.1548510532
 20
91.1914880683
 10
130.111934884
 20
91.1907336735
  0
LWPOLYLINE
  5
39B
100
AcDbEntity
  8
0
100
AcDbPolyline
 62
7
  6
CONTINUOUS
 90
5
 70
0
 10
128.5299849266
 20
89.7815867714
 10
128.5177706076
 20
89.7586553207
 10
128.4826924388
 20
89.6751252715
 10
128.4538406067
 20
89.585144933
 10
128.432799476
 20
89.4954317623
  0
LWPOLYLINE
  5
39C
100
AcDbEntity
  8
IMPORT_IGES
100
AcDbPolyline
 62
7
  6
CONTINUOUS
 90
5
 70
0
 10
128.5299849266
 20
89.7815867714
 10
128.5177706076
 20
89.7586553207
 10
128.4826924388
 20
89.6751252715
 10
128.4538406067
 20
89.585144933
 10
128.432799476
 20
89.4954317623
  0
LWPOLYLINE
  5
39D
100
AcDbEntity
  8
IMPORT_IGES
100
AcDbPolyline
 62
7
  6
CONTINUOUS
 90
4
 70
0
 10
128.4463908663
 20
88.9545585793
 10
128.4382140486
 20
88.9402420549
 10
128.4331518487
 20
88.9251039366
 10
128.4315402767
 20
88.9100135716
  0
LWPOLYLINE
  5
39E
100
AcDbEntity
  8
0
100
AcDbPolyline
 62
7
  6
CONTINUOUS
 90
4
 70
0
 10
128.4462270195
 20
88.9543289212
 10
128.4380953592
 20
88.9401144591
 10
128.4331145172
 20
88.9251507423
 10
128.4315299283
 20
88.9101260917
  0
LWPOLYLINE
  5
39F
100
AcDbEntity
  8
IMPORT_IGES
100
AcDbPolyline
 62
7
  6
CONTINUOUS
 90
5
 70
0
 10
127.9128690341
 20
89.5523461943
 10
127.9438003375
 20
89.6046614407
 10
127.9815082659
 20
89.6522738314
 10
128.0259928194
 20
89.6951833664
 10
128.0644602823
 20
89.7238544595
  0
LWPOLYLINE
  5
3A0
100
AcDbEntity
  8
0
100
AcDbPolyline
 62
7
  6
CONTINUOUS
 90
10
 70
0
 10
125.1459709069
 20
89.1493554063
 10
125.1447881147
 20
89.1477226679
 10
125.1435390627
 20
89.146167251
 10
125.1422246061
 20
89.1446896496
 10
125.140844498
 20
89.1432917634
 10
125.1394006593
 20
89.141972659
 10
125.1378972063
 20
89.1407285857
 10
125.1363360762
 20
89.1395586195
 10
125.1347169985
 20
89.1384646466
 10
125.1330407845
 20
89.1374471354
  0
LWPOLYLINE
  5
3A1
100
AcDbEntity
  8
IMPORT_IGES
100
AcDbPolyline
 62
7
  6
CONTINUOUS
 90
34
 70
0
 10
125.1459709069
 20
89.1493554063
 10
125.1431167971
 20
89.1456894828
 10
125.1398838693
 20
89.142409921
 10
125.136279328
 20
89.1395208804
 10
125.1323094989
 20
89.1370312263
 10
125.1279826777
 20
89.1349405354
 10
125.1233087705
 20
89.1332388891
 10
125.1183018966
 20
89.1319263051
 10
125.1129622158
 20
89.13101101
 10
125.1072775542
 20
89.1304947396
 10
125.1012460492
 20
89.1303774482
 10
125.0948821916
 20
89.1306664729
 10
125.0881979908
 20
89.1313744231
 10
125.0811799494
 20
89.1325151845
 10
125.0738554752
 20
89.1340829028
 10
125.0662995205
 20
89.1360614919
 10
125.0585379651
 20
89.1384560516
 10
125.0505607113
 20
89.1412705935
 10
125.0423894234
 20
89.1444877914
 10
125.0340371292
 20
89.1481069982
 10
125.0255041658
 20
89.1521365766
 10
125.0167926035
 20
89.1565723929
 10
125.007907463
 20
89.1614155174
 10
124.9988549309
 20
89.1666713499
 10
124.989638337
 20
89.1723419681
 10
124.9802648597
 20
89.1784262346
 10
124.9707366534
 20
89.1849306746
 10
124.9610491019
 20
89.1918686236
 10
124.9512064023
 20
89.1992395329
 10
124.9412120004
 20
89.2070483633
 10
124.9310597253
 20
89.2153164673
 10
124.9207494544
 20
89.2240520791
 10
124.91028716
 20
89.2332503413
 10
124.8996753592
 20
89.2429127069
  0
LINE
  5
3A2
100
AcDbEntity
  8
0
100
AcDbLine
 62
7
  6
CONTINUOUS
 10
124.512225924
 20
93.9695139443
 11
123.7614810725
 21
93.3037694938
  0
LINE
  5
3A3
100
AcDbEntity
  8
IMPORT_IGES
100
AcDbLine
 62
7
  6
CONTINUOUS
 10
124.512225924
 20
93.9695139443
 11
123.7614810725
 21
93.3037694938
  0
LWPOLYLINE
  5
3A4
100
AcDbEntity
  8
IMPORT_IGES
100
AcDbPolyline
 62
7
  6
CONTINUOUS
 90
8
 70
0
 10
140.7508084194
 20
81.9410881844
 10
140.7021458429
 20
82.0773971021
 10
140.6465454141
 20
82.2122231643
 10
140.583972062
 20
82.3453964753
 10
140.5144608576
 20
82.477086931
 10
140.4390634818
 20
82.6051133529
 10
140.3575327564
 20
82.7296425751
 10
140.2701158596
 20
82.8505077636
  0
LINE
  5
3A5
100
AcDbEntity
  8
0
100
AcDbLine
 62
7
  6
CONTINUOUS
 10
139.0455288113
 20
83.3271191123
 11
139.0401460311
 21
83.342285554
  0
LINE
  5
3A6
100
AcDbEntity
  8
IMPORT_IGES
100
AcDbLine
 62
7
  6
CONTINUOUS
 10
139.0456380702
 20
83.3269348379
 11
139.0401460311
 21
83.342285554
  0
LWPOLYLINE
  5
3A7
100
AcDbEntity
  8
0
100
AcDbPolyline
 62
7
  6
CONTINUOUS
 90
8
 70
0
 10
140.7553552217
 20
81.9271083716
 10
140.7036682364
 20
82.0736421831
 10
140.6432557664
 20
82.2194888404
 10
140.5742343145
 20
82.3647605596
 10
140.4978589109
 20
82.5064840894
 10
140.4138246139
 20
82.6448250444
 10
140.3224363652
 20
82.77961781
 10
140.2258640202
 20
82.9073922913
  0
LWPOLYLINE
  5
3A8
100
AcDbEntity
  8
IMPORT_IGES
100
AcDbPolyline
 62
7
  6
CONTINUOUS
 90
22
 70
0
 10
139.0612400093
 20
82.6586886231
 10
139.0934794888
 20
82.5278524274
 10
139.1334225604
 20
82.3967189561
 10
139.1807468315
 20
82.266046958
 10
139.235111241
 20
82.1365743847
 10
139.2961479337
 20
82.0090424961
 10
139.3634319642
 20
81.884242387
 10
139.4365646508
 20
81.7628524724
 10
139.5151951495
 20
81.6454530346
 10
139.5989012489
 20
81.5327209671
 10
139.6871953927
 20
81.4253784315
 10
139.7796405651
 20
81.3240440047
 10
139.8758127963
 20
81.2293067804
 10
139.9751530684
 20
81.1418614053
 10
140.0770563322
 20
81.0623809126
 10
140.1812639073
 20
80.9912535565
 10
140.2870315086
 20
80.9292021204
 10
140.3930866716
 20
80.8770740544
 10
140.499129916
 20
80.8350683218
 10
140.6044925231
 20
80.8035359197
 10
140.7074252631
 20
80.7829038787
 10
140.8007406182
 20
80.773648736
  0
LWPOLYLINE
  5
3A9
100
AcDbEntity
  8
IMPORT_IGES
100
AcDbPolyline
 62
7
  6
CONTINUOUS
 90
34
 70
0
 10
138.5194707519
 20
81.9821406584
 10
138.5164078362
 20
81.9961666592
 10
138.5136722841
 20
82.0098311996
 10
138.5112615796
 20
82.0231328275
 10
138.5091769238
 20
82.0360639899
 10
138.5074112653
 20
82.0486288627
 10
138.5059492538
 20
82.0608433228
 10
138.5047848695
 20
82.0727068578
 10
138.5039164808
 20
82.084215563
 10
138.5033348883
 20
82.0953799782
 10
138.503033348
 20
82.1062014126
 10
138.5030092549
 20
82.1166731599
 10
138.5032592065
 20
82.1267934985
 10
138.5037753493
 20
82.1365596321
 10
138.5045543065
 20
82.1459678737
 10
138.5055988965
 20
82.1550148818
 10
138.5069018486
 20
82.1637052965
 10
138.5084570153
 20
82.1720267311
 10
138.5102683445
 20
82.1799499837
 10
138.5123372605
 20
82.1874849518
 10
138.5146465257
 20
82.1946126085
 10
138.5171727804
 20
82.2012607594
 10
138.5199074296
 20
82.2074030751
 10
138.5228450967
 20
82.2130578184
 10
138.5259688266
 20
82.2182205941
 10
138.5292670473
 20
82.2228834341
 10
138.5327385772
 20
82.2270469429
 10
138.5363820503
 20
82.2307195853
 10
138.5401881312
 20
82.2339026352
 10
138.5441528097
 20
82.2365871133
 10
138.5482816966
 20
82.2387655213
 10
138.5525716744
 20
82.2404324801
 10
138.5570115784
 20
82.2415851225
 10
138.5615944255
 20
82.2422194169
  0
LWPOLYLINE
  5
3AA
100
AcDbEntity
  8
0
100
AcDbPolyline
 62
7
  6
CONTINUOUS
 90
28
 70
0
 10
138.5194707519
 20
81.9821406584
 10
138.5162895619
 20
81.9967229542
 10
138.5134593724
 20
82.0109449458
 10
138.5109777484
 20
82.0248052278
 10
138.5088440796
 20
82.0382968734
 10
138.5070529121
 20
82.0514233089
 10
138.505593999
 20
82.0641983432
 10
138.5044600202
 20
82.0766231404
 10
138.5036497826
 20
82.0886916221
 10
138.5031616996
 20
82.1004064276
 10
138.5029870032
 20
82.1117678251
 10
138.503123216
 20
82.1227690548
 10
138.5035775525
 20
82.1334018466
 10
138.5043400962
 20
82.1436695622
 10
138.5054061942
 20
82.1535604291
 10
138.5067900426
 20
82.1630429493
 10
138.5084825252
 20
82.1721207405
 10
138.5104740596
 20
82.1807793902
 10
138.5127771772
 20
82.1889597972
 10
138.5153901521
 20
82.1966651548
 10
138.5182918967
 20
82.203879099
 10
138.5214665675
 20
82.2105135772
 10
138.5249364151
 20
82.2165623206
 10
138.5286561225
 20
82.2220182806
 10
138.5325163385
 20
82.2267967623
 10
138.536481462
 20
82.2308700237
 10
138.5405822823
 20
82.2342630268
 10
138.5448170598
 20
82.2369747668
  0
LWPOLYLINE
  5
3AB
100
AcDbEntity
  8
RACCORDO
100
AcDbPolyline
 62
250
  6
CONTINUOUS
 90
11
 70
0
 10
133.5431395979
 20
110.1965969328
 10
133.5328969915
 20
110.2739249542
 10
133.5126960062
 20
110.350596684
 10
133.4826491274
 20
110.4261851858
 10
133.4429236672
 20
110.5002695534
 10
133.3937408311
 20
110.5724372586
 10
133.3353744866
 20
110.642286446
 10
133.2681496407
 20
110.7094281684
 10
133.1924406268
 20
110.7734885564
 10
133.1086690198
 20
110.8341109001
 10
133.0173012903
 20
110.8909576332
  0
LINE
  5
3AC
100
AcDbEntity
  8
0
100
AcDbLine
 62
7
  6
CONTINUOUS
 10
135.5046121252
 20
85.3836585206
 11
135.5026038578
 21
85.3988932798
  0
LINE
  5
3AD
100
AcDbEntity
  8
IMPORT_IGES
100
AcDbLine
 62
7
  6
CONTINUOUS
 10
135.5046121252
 20
85.3836585206
 11
135.5026038578
 21
85.3988932798
  0
LWPOLYLINE
  5
3AE
100
AcDbEntity
  8
IMPORT_IGES
100
AcDbPolyline
 62
250
  6
CONTINUOUS
 90
7
 70
0
 10
132.0279230162
 20
87.3568405403
 10
132.0499848775
 20
87.4399273552
 10
132.0777468465
 20
87.5164909928
 10
132.1112089233
 20
87.586531453
 10
132.150626864
 20
87.6503484317
 10
132.1957449125
 20
87.7076422331
 10
132.1967427526
 20
87.7086364976
  0
LWPOLYLINE
  5
3AF
100
AcDbEntity
  8
0
100
AcDbPolyline
 62
250
  6
CONTINUOUS
 90
6
 70
0
 10
132.0279230162
 20
87.3568405403
 10
132.0553987482
 20
87.4562257278
 10
132.0908626022
 20
87.54590748
 10
132.1343145781
 20
87.6258857968
 10
132.1862343901
 20
87.6966071519
 10
132.1977179183
 20
87.7083034492
  0
LWPOLYLINE
  5
3B0
100
AcDbEntity
  8
IMPORT_IGES
100
AcDbPolyline
 62
7
  6
CONTINUOUS
 90
18
 70
0
 10
132.5081161043
 20
85.642021425
 10
132.5000245471
 20
85.613817889
 10
132.490722191
 20
85.5844870292
 10
132.4803619947
 20
85.5545537813
 10
132.4689416147
 20
85.5240181867
 10
132.4564333332
 20
85.4928586186
 10
132.4428413897
 20
85.4610792748
 10
132.4281615446
 20
85.4286759576
 10
132.4123533611
 20
85.3956144476
 10
132.3954222887
 20
85.3618992199
 10
132.3773628779
 20
85.3275257995
 10
132.3581183437
 20
85.2924465406
 10
132.3376923968
 20
85.2566619917
 10
132.3160813264
 20
85.2201716044
 10
132.2932172152
 20
85.182926088
 10
132.2690774239
 20
85.1449090121
 10
132.2436845918
 20
85.1061368071
 10
132.2170387188
 20
85.066609473
  0
LWPOLYLINE
  5
3B1
100
AcDbEntity
  8
0
100
AcDbPolyline
 62
7
  6
CONTINUOUS
 90
26
 70
0
 10
127.8888399318
 20
89.5930540876
 10
127.8280336905
 20
89.5182825908
 10
127.7756833676
 20
89.4325071157
 10
127.7317243639
 20
89.3360708768
 10
127.697250473
 20
89.2312561672
 10
127.6725244725
 20
89.1179186693
 10
127.6572835846
 20
88.9962027007
 10
127.6518332699
 20
88.8688235058
 10
127.6563673713
 20
88.7357100782
 10
127.6706920458
 20
88.5969334244
 10
127.6945312241
 20
88.4554218092
 10
127.7280947237
 20
88.3110480211
 10
127.7711727271
 20
88.1639392715
 10
127.8228597125
 20
88.0174054601
 10
127.8832721825
 20
87.8715588028
 10
127.9522936344
 20
87.7262870836
 10
128.028669038
 20
87.5845635537
 10
128.112703335
 20
87.4462225987
 10
128.2040915837
 20
87.3114298331
 10
128.3006639286
 20
87.1836553518
 10
128.4026104622
 20
87.0631010147
 10
128.5097410921
 20
86.9495649618
 10
128.6193156856
 20
86.8459117084
 10
128.7304208652
 20
86.7530960927
 10
128.8439700085
 20
86.6701632764
 10
128.9599631155
 20
86.5971132595
  0
LINE
  5
3B2
100
AcDbEntity
  8
RACCORDO
100
AcDbLine
 62
250
  6
CONTINUOUS
 10
149.1013800401
 20
108.757345524
 11
145.3110649683
 21
106.5688651053
  0
LINE
  5
3B3
100
AcDbEntity
  8
RACCORDO
100
AcDbLine
 62
250
  6
CONTINUOUS
 10
152.0285793896
 20
109.222649962
 11
151.999204397
 21
109.2056892094
  0
LWPOLYLINE
  5
3B4
100
AcDbEntity
  8
RACCORDO
100
AcDbPolyline
 62
250
  6
CONTINUOUS
 90
15
 70
0
 10
145.3110649683
 20
106.5688651053
 10
145.2508529558
 20
106.5368554395
 10
145.1870609755
 20
106.5080546053
 10
145.1196890272
 20
106.4824626028
 10
145.0481788813
 20
106.4599231666
 10
144.9730887675
 20
106.4405925621
 10
144.8960933754
 20
106.4249395853
 10
144.8172426323
 20
106.4130689185
 10
144.7364866108
 20
106.4048758794
 10
144.6553502188
 20
106.4005152166
 10
144.5737245012
 20
106.4000755665
 10
144.4917184131
 20
106.4034682928
 10
144.411183727
 20
106.4105822347
 10
144.3327377005
 20
106.4213803384
 10
144.2557630761
 20
106.4358996577
  0
LINE
  5
3B5
100
AcDbEntity
  8
0
100
AcDbLine
 62
7
  6
CONTINUOUS
 10
142.5810627173
 20
81.2857461456
 11
142.575679937
 21
81.3009125874
  0
LINE
  5
3B6
100
AcDbEntity
  8
IMPORT_IGES
100
AcDbLine
 62
7
  6
CONTINUOUS
 10
142.5811719761
 20
81.2855618712
 11
142.575679937
 21
81.3009125874
  0
LWPOLYLINE
  5
3B7
100
AcDbEntity
  8
RACCORDO
100
AcDbPolyline
 62
250
  6
CONTINUOUS
 90
7
 70
0
 10
131.0753691789
 20
120.8728286177
 10
131.0544936597
 20
120.972150119
 10
131.023591571
 20
121.0709355066
 10
130.9822583627
 20
121.1690540036
 10
130.9303591848
 20
121.266462018
 10
130.8680288873
 20
121.3632031419
 10
130.7952674704
 20
121.4592773754
  0
LWPOLYLINE
  5
3B8
100
AcDbEntity
  8
IMPORT_IGES
100
AcDbPolyline
 62
7
  6
CONTINUOUS
 90
7
 70
0
 10
139.0390619374
 20
82.7758583132
 10
139.0401523772
 20
82.7706241527
 10
139.0456133878
 20
82.7554013871
 10
139.0542539953
 20
82.7409080419
 10
139.065986676
 20
82.7273977454
 10
139.0808989536
 20
82.7146168692
 10
139.0989908281
 20
82.7025654133
  0
LWPOLYLINE
  5
3B9
100
AcDbEntity
  8
0
100
AcDbPolyline
 62
7
  6
CONTINUOUS
 90
7
 70
0
 10
139.0390648022
 20
82.7758608947
 10
139.0400786575
 20
82.770906266
 10
139.0454219219
 20
82.7557444064
 10
139.0540008319
 20
82.7412559569
 10
139.0657618517
 20
82.7276856989
 10
139.0807585171
 20
82.714788851
 10
139.0989908281
 20
82.7025654133
  0
LWPOLYLINE
  5
3BA
100
AcDbEntity
  8
0
100
AcDbPolyline
 62
7
  6
CONTINUOUS
 90
21
 70
0
 10
139.0390076983
 20
82.7758576892
 10
139.0648443098
 20
82.6423495907
 10
139.1027682682
 20
82.4950222439
 10
139.1503394296
 20
82.3475740695
 10
139.2070751573
 20
82.2011054189
 10
139.272476569
 20
82.0566443365
 10
139.3460301402
 20
81.915179127
 10
139.4271310163
 20
81.7777947338
 10
139.5151783119
 20
81.6454769164
 10
139.6096429884
 20
81.5190625875
 10
139.7099162866
 20
81.3994784252
 10
139.8152670291
 20
81.2877371718
 10
139.9250159935
 20
81.1847246655
 10
140.0387190387
 20
81.0911065495
 10
140.1554033067
 20
81.0079694751
 10
140.2736629816
 20
80.936488546
 10
140.3931354892
 20
80.8770524501
 10
140.5127725739
 20
80.8304062675
 10
140.6302497166
 20
80.7974121207
 10
140.7445632305
 20
80.7780264212
 10
140.8011948633
 20
80.7749514383
  0
LINE
  5
3BB
100
AcDbEntity
  8
IMPORT_IGES
100
AcDbLine
 62
7
  6
CONTINUOUS
 10
139.0390080906
 20
82.775855268
 11
139.0612400093
 21
82.6586886231
  0
LINE
  5
3BC
100
AcDbEntity
  8
0
100
AcDbLine
 62
7
  6
CONTINUOUS
 10
139.0381316461
 20
82.7860071918
 11
139.0390648022
 21
82.7758608947
  0
LINE
  5
3BD
100
AcDbEntity
  8
IMPORT_IGES
100
AcDbLine
 62
7
  6
CONTINUOUS
 10
139.0381419945
 20
82.7858946717
 11
139.0390619374
 21
82.7758583132
  0
LINE
  5
3BE
100
AcDbEntity
  8
0
100
AcDbLine
 62
7
  6
CONTINUOUS
 10
135.5026038578
 20
85.3988932798
 11
135.503936275
 21
85.4126811561
  0
LINE
  5
3BF
100
AcDbEntity
  8
IMPORT_IGES
100
AcDbLine
 62
7
  6
CONTINUOUS
 10
135.5026038578
 20
85.3988932798
 11
135.5039720051
 21
85.4126786461
  0
LWPOLYLINE
  5
3C0
100
AcDbEntity
  8
0
100
AcDbPolyline
 62
7
  6
CONTINUOUS
 90
5
 70
0
 10
132.0655188325
 20
87.7402138048
 10
132.0533045135
 20
87.7172823541
 10
132.0182263447
 20
87.6337523048
 10
131.9893745127
 20
87.5437719664
 10
131.9683333819
 20
87.4540587957
  0
LWPOLYLINE
  5
3C1
100
AcDbEntity
  8
IMPORT_IGES
100
AcDbPolyline
 62
7
  6
CONTINUOUS
 90
5
 70
0
 10
132.0655188325
 20
87.7402138048
 10
132.0533045135
 20
87.7172823541
 10
132.0182263447
 20
87.6337523048
 10
131.9893745127
 20
87.5437719664
 10
131.9683333819
 20
87.4540587957
  0
LWPOLYLINE
  5
3C2
100
AcDbEntity
  8
IMPORT_IGES
100
AcDbPolyline
 62
7
  6
CONTINUOUS
 90
5
 70
0
 10
131.44840294
 20
87.5109732277
 10
131.4793342434
 20
87.5632884741
 10
131.5170421719
 20
87.6109008648
 10
131.5615267253
 20
87.6538103998
 10
131.5999941883
 20
87.6824814928
  0
LWPOLYLINE
  5
3C3
100
AcDbEntity
  8
0
100
AcDbPolyline
 62
7
  6
CONTINUOUS
 90
10
 70
0
 10
128.6815048128
 20
87.1079824396
 10
128.6803220206
 20
87.1063497012
 10
128.6790729686
 20
87.1047942844
 10
128.677758512
 20
87.1033166829
 10
128.676378404
 20
87.1019187968
 10
128.6749345652
 20
87.1005996924
 10
128.6734311122
 20
87.0993556191
 10
128.6718699822
 20
87.0981856529
 10
128.6702509045
 20
87.09709168
 10
128.6685746904
 20
87.0960741688
  0
LWPOLYLINE
  5
3C4
100
AcDbEntity
  8
IMPORT_IGES
100
AcDbPolyline
 62
7
  6
CONTINUOUS
 90
34
 70
0
 10
128.6815048128
 20
87.1079824396
 10
128.678650703
 20
87.1043165162
 10
128.6754177753
 20
87.1010369543
 10
128.6718132339
 20
87.0981479138
 10
128.6678434048
 20
87.0956582597
 10
128.6635165836
 20
87.0935675688
 10
128.6588426764
 20
87.0918659225
 10
128.6538358026
 20
87.0905533385
 10
128.6484961218
 20
87.0896380434
 10
128.6428114602
 20
87.0891217729
 10
128.6367799551
 20
87.0890044816
 10
128.6304160975
 20
87.0892935063
 10
128.6237318968
 20
87.0900014565
 10
128.6167138554
 20
87.0911422179
 10
128.6093893812
 20
87.0927099362
 10
128.6018334264
 20
87.0946885253
 10
128.594071871
 20
87.097083085
 10
128.5860946172
 20
87.0998976269
 10
128.5779233293
 20
87.1031148248
 10
128.5695710351
 20
87.1067340315
 10
128.5610380717
 20
87.1107636099
 10
128.5523265095
 20
87.1151994262
 10
128.543441369
 20
87.1200425508
 10
128.5343888368
 20
87.1252983832
 10
128.5251722429
 20
87.1309690015
 10
128.5157987656
 20
87.1370532679
 10
128.5062705593
 20
87.143557708
 10
128.4965830078
 20
87.150495657
 10
128.4867403082
 20
87.1578665663
 10
128.4767459063
 20
87.1656753966
 10
128.4665936312
 20
87.1739435006
 10
128.4562833604
 20
87.1826791125
 10
128.4458210659
 20
87.1918773746
 10
128.4352092651
 20
87.2015397402
  0
LWPOLYLINE
  5
3C5
100
AcDbEntity
  8
0
100
AcDbPolyline
 62
7
  6
CONTINUOUS
 90
3
 70
0
 10
124.4993881242
 20
91.7510711681
 10
124.4225035864
 20
91.6985377873
 10
124.3533060258
 20
91.6344270542
  0
LWPOLYLINE
  5
3C6
100
AcDbEntity
  8
0
100
AcDbPolyline
 62
7
  6
CONTINUOUS
 90
4
 70
0
 10
124.95374757
 20
91.0331614263
 10
124.9362452661
 20
91.021424168
 10
124.9218937807
 20
91.0089376552
 10
124.9107936383
 20
90.9958206774
  0
LWPOLYLINE
  5
3C7
100
AcDbEntity
  8
IMPORT_IGES
100
AcDbPolyline
 62
7
  6
CONTINUOUS
 90
4
 70
0
 10
124.95374757
 20
91.0331614263
 10
124.9363360823
 20
91.0215730602
 10
124.9220392124
 20
91.0091631
 10
124.9108569603
 20
90.9959315459
  0
LWPOLYLINE
  5
3C8
100
AcDbEntity
  8
IMPORT_IGES
100
AcDbPolyline
 62
7
  6
CONTINUOUS
 90
31
 70
0
 10
124.4993872953
 20
91.7510726131
 10
124.4813499648
 20
91.7402278108
 10
124.4117565441
 20
91.6898065727
 10
124.3489358306
 20
91.6297916067
 10
124.2928794759
 20
91.5599142441
 10
124.2435958284
 20
91.4804431536
 10
124.2021761561
 20
91.3929643588
 10
124.1688234429
 20
91.2973141162
 10
124.1433347049
 20
91.1936561693
 10
124.1261922579
 20
91.0840677715
 10
124.1175630571
 20
90.9684901959
 10
124.1172801472
 20
90.8469821695
 10
124.1253249783
 20
90.7217971265
 10
124.1418391739
 20
90.5928632097
 10
124.1666811105
 20
90.4602522763
 10
124.1994073664
 20
90.3264333326
 10
124.2401856235
 20
90.1913324253
 10
124.2888482001
 20
90.0550235077
 10
124.3444486288
 20
89.9201974455
 10
124.4070219809
 20
89.7870241344
 10
124.4765331853
 20
89.6553336788
 10
124.5519305611
 20
89.5273072569
 10
124.6334612865
 20
89.4027780346
 10
124.7208781833
 20
89.2819128461
 10
124.8123880365
 20
89.1673933723
 10
124.9081110187
 20
89.0593880872
 10
125.0079269572
 20
88.9577285168
 10
125.1096821189
 20
88.8645909197
 10
125.2126585927
 20
88.7807007153
 10
125.3175742896
 20
88.7053324841
 10
125.4244292096
 20
88.6384862261
  0
LINE
  5
3C9
100
AcDbEntity
  8
RACCORDO
100
AcDbLine
 62
250
  6
CONTINUOUS
 10
149.9499081775
 20
107.2876516798
 11
146.1595931058
 21
105.0991712612
  0
LINE
  5
3CA
100
AcDbEntity
  8
RACCORDO
100
AcDbLine
 62
250
  6
CONTINUOUS
 10
153.3013715958
 20
107.9979208738
 11
152.8063968489
 21
107.7121286585
  0
LINE
  5
3CB
100
AcDbEntity
  8
0
100
AcDbLine
 62
250
  6
CONTINUOUS
 10
124.3773351281
 20
91.5937191609
 11
124.7963855755
 21
91.8356268732
  0
LINE
  5
3CC
100
AcDbEntity
  8
IMPORT_IGES
100
AcDbLine
 62
250
  6
CONTINUOUS
 10
124.3773351281
 20
91.5937191609
 11
124.7963855755
 21
91.8356268732
  0
LINE
  5
3CD
100
AcDbEntity
  8
0
100
AcDbLine
 62
7
  6
CONTINUOUS
 10
124.4026746006
 20
91.5217575268
 11
124.9379969786
 21
91.8307862192
  0
LINE
  5
3CE
100
AcDbEntity
  8
IMPORT_IGES
100
AcDbLine
 62
7
  6
CONTINUOUS
 10
124.4026746006
 20
91.5217575268
 11
124.9379969786
 21
91.8307862192
  0
LWPOLYLINE
  5
3CF
100
AcDbEntity
  8
RACCORDO
100
AcDbPolyline
 62
250
  6
CONTINUOUS
 90
19
 70
0
 10
146.1595931058
 20
105.0991712612
 10
146.0503954225
 20
105.0402662797
 10
145.9345237512
 20
104.9857774833
 10
145.8125127338
 20
104.9359562879
 10
145.68492534
 20
104.891032573
 10
145.552350269
 20
104.8512136205
 10
145.415399234
 20
104.8166831586
 10
145.2747041388
 20
104.7876005139
 10
145.1309141631
 20
104.7640998761
 10
144.9846927665
 20
104.7462896794
 10
144.8367146271
 20
104.7342521016
 10
144.6876625292
 20
104.728042685
 10
144.5382242121
 20
104.7276900805
 10
144.3890891975
 20
104.733195915
 10
144.2409456072
 20
104.7445347841
 10
144.0944769888
 20
104.7616543693
 10
143.9503591615
 20
104.7844756793
 10
143.8092570973
 20
104.8128934145
 10
143.5573402111
 20
104.8749532075
  0
LWPOLYLINE
  5
3D0
100
AcDbEntity
  8
IMPORT_IGES
100
AcDbPolyline
 62
7
  6
CONTINUOUS
 90
8
 70
0
 10
144.2863423253
 20
79.8997152178
 10
144.2376797488
 20
80.0360241354
 10
144.1820793201
 20
80.1708501977
 10
144.1195059679
 20
80.3040235087
 10
144.0499947636
 20
80.4357139644
 10
143.9745973878
 20
80.5637403862
 10
143.8930666624
 20
80.6882696085
 10
143.8056497655
 20
80.809134797
  0
LWPOLYLINE
  5
3D1
100
AcDbEntity
  8
0
100
AcDbPolyline
 62
7
  6
CONTINUOUS
 90
8
 70
0
 10
144.2908891276
 20
79.885735405
 10
144.2392021423
 20
80.0322692164
 10
144.1787896723
 20
80.1781158737
 10
144.1097682204
 20
80.3233875929
 10
144.0333928168
 20
80.4651111228
 10
143.9493585198
 20
80.6034520777
 10
143.8579702711
 20
80.7382448434
 10
143.7613979261
 20
80.8660193247
  0
LWPOLYLINE
  5
3D2
100
AcDbEntity
  8
IMPORT_IGES
100
AcDbPolyline
 62
7
  6
CONTINUOUS
 90
22
 70
0
 10
142.5967739152
 20
80.6173156565
 10
142.6290133947
 20
80.4864794608
 10
142.6689564663
 20
80.3553459894
 10
142.7162807374
 20
80.2246739913
 10
142.7706451469
 20
80.095201418
 10
142.8316818397
 20
79.9676695294
 10
142.8989658701
 20
79.8428694204
 10
142.9720985567
 20
79.7214795058
 10
143.0507290554
 20
79.6040800679
 10
143.1344351548
 20
79.4913480005
 10
143.2227292987
 20
79.3840054648
 10
143.3151744711
 20
79.282671038
 10
143.4113467022
 20
79.1879338137
 10
143.5106869743
 20
79.1004884387
 10
143.6125902381
 20
79.0210079459
 10
143.7167978132
 20
78.9498805898
 10
143.8225654146
 20
78.8878291538
 10
143.9286205776
 20
78.8357010877
 10
144.0346638219
 20
78.7936953551
 10
144.140026429
 20
78.7621629531
 10
144.242959169
 20
78.741530912
 10
144.3362745241
 20
78.7322757693
  0
LWPOLYLINE
  5
3D3
100
AcDbEntity
  8
IMPORT_IGES
100
AcDbPolyline
 62
7
  6
CONTINUOUS
 90
34
 70
0
 10
142.0550046578
 20
79.9407676918
 10
142.0519417421
 20
79.9547936926
 10
142.0492061901
 20
79.968458233
 10
142.0467954855
 20
79.9817598608
 10
142.0447108297
 20
79.9946910233
 10
142.0429451712
 20
80.0072558961
 10
142.0414831597
 20
80.0194703561
 10
142.0403187755
 20
80.0313338911
 10
142.0394503868
 20
80.0428425964
 10
142.0388687942
 20
80.0540070115
 10
142.0385672539
 20
80.0648284459
 10
142.0385431609
 20
80.0753001932
 10
142.0387931124
 20
80.0854205319
 10
142.0393092553
 20
80.0951866654
 10
142.0400882124
 20
80.104594907
 10
142.0411328024
 20
80.1136419151
 10
142.0424357546
 20
80.1223323298
 10
142.0439909212
 20
80.1306537645
 10
142.0458022505
 20
80.138577017
 10
142.0478711664
 20
80.1461119851
 10
142.0501804317
 20
80.1532396418
 10
142.0527066863
 20
80.1598877928
 10
142.0554413355
 20
80.1660301085
 10
142.0583790026
 20
80.1716848518
 10
142.0615027325
 20
80.1768476274
 10
142.0648009532
 20
80.1815104675
 10
142.0682724832
 20
80.1856739763
 10
142.0719159563
 20
80.1893466186
 10
142.0757220372
 20
80.1925296685
 10
142.0796867156
 20
80.1952141467
 10
142.0838156025
 20
80.1973925547
 10
142.0881055804
 20
80.1990595134
 10
142.0925454843
 20
80.2002121559
 10
142.0971283314
 20
80.2008464502
  0
LWPOLYLINE
  5
3D4
100
AcDbEntity
  8
0
100
AcDbPolyline
 62
7
  6
CONTINUOUS
 90
28
 70
0
 10
142.0550046578
 20
79.9407676918
 10
142.0518234678
 20
79.9553499876
 10
142.0489932784
 20
79.9695719792
 10
142.0465116544
 20
79.9834322612
 10
142.0443779856
 20
79.9969239067
 10
142.0425868181
 20
80.0100503422
 10
142.0411279049
 20
80.0228253765
 10
142.0399939261
 20
80.0352501737
 10
142.0391836886
 20
80.0473186555
 10
142.0386956055
 20
80.0590334609
 10
142.0385209091
 20
80.0703948585
 10
142.0386571219
 20
80.0813960882
 10
142.0391114584
 20
80.09202888
 10
142.0398740021
 20
80.1022965955
 10
142.0409401002
 20
80.1121874625
 10
142.0423239486
 20
80.1216699826
 10
142.0440164312
 20
80.1307477739
 10
142.0460079656
 20
80.1394064236
 10
142.0483110831
 20
80.1475868305
 10
142.050924058
 20
80.1552921882
 10
142.0538258026
 20
80.1625061324
 10
142.0570004734
 20
80.1691406105
 10
142.0604703211
 20
80.1751893539
 10
142.0641900284
 20
80.180645314
 10
142.0680502444
 20
80.1854237957
 10
142.072015368
 20
80.189497057
 10
142.0761161882
 20
80.1928900602
 10
142.0803509657
 20
80.1956018002
  0
LWPOLYLINE
  5
3D5
100
AcDbEntity
  8
IMPORT_IGES
100
AcDbPolyline
 62
7
  6
CONTINUOUS
 90
7
 70
0
 10
142.5745958433
 20
80.7344853465
 10
142.5756862831
 20
80.7292511861
 10
142.5811472938
 20
80.7140284205
 10
142.5897879012
 20
80.6995350752
 10
142.601520582
 20
80.6860247787
 10
142.6164328596
 20
80.6732439025
 10
142.634524734
 20
80.6611924466
  0
LINE
  5
3D6
100
AcDbEntity
  8
0
100
AcDbLine
 62
7
  6
CONTINUOUS
 10
139.0401460311
 20
83.342285554
 11
139.0381377637
 21
83.3575203131
  0
LINE
  5
3D7
100
AcDbEntity
  8
IMPORT_IGES
100
AcDbLine
 62
7
  6
CONTINUOUS
 10
139.0401460311
 20
83.342285554
 11
139.0381377637
 21
83.3575203131
  0
LWPOLYLINE
  5
3D8
100
AcDbEntity
  8
RACCORDO
100
AcDbPolyline
 62
250
  6
CONTINUOUS
 90
9
 70
0
 10
140.618356703
 20
85.5432803089
 10
140.622750612
 20
85.4462384862
 10
140.6358868621
 20
85.3552757481
 10
140.6576293872
 20
85.2713341424
 10
140.6877529902
 20
85.195282998
 10
140.7259456761
 20
85.1279099236
 10
140.7718118831
 20
85.0699126501
 10
140.8248765791
 20
85.0218918059
 10
140.8661407137
 20
84.9944099706
  0
LWPOLYLINE
  5
3D9
100
AcDbEntity
  8
RACCORDO
100
AcDbPolyline
 62
250
  6
CONTINUOUS
 90
19
 70
0
 10
140.618356703
 20
105.2773797215
 10
140.6215856087
 20
105.3646361393
 10
140.631247752
 20
105.4549571425
 10
140.6472695982
 20
105.5476553337
 10
140.6695292112
 20
105.6420252237
 10
140.697857182
 20
105.7373486007
 10
140.7320379176
 20
105.8328999961
 10
140.771811282
 20
105.9279522063
 10
140.8168745759
 20
106.0217818265
 10
140.8668848404
 20
106.1136747565
 10
140.9214614672
 20
106.2029316358
 10
140.9801890952
 20
106.2888731656
 10
141.0426207717
 20
106.3708452789
 10
141.108281354
 20
106.4482241185
 10
141.1766711252
 20
106.5204207846
 10
141.2472695982
 20
106.5868858172
 10
141.3195394757
 20
106.647113377
 10
141.3929307404
 20
106.7006450961
 10
141.4668848404
 20
106.7470735657
  0
LWPOLYLINE
  5
3DA
100
AcDbEntity
  8
IMPORT_IGES
100
AcDbPolyline
 62
250
  6
CONTINUOUS
 90
7
 70
0
 10
135.5634569222
 20
85.3154675737
 10
135.5855187834
 20
85.3985543886
 10
135.6132807524
 20
85.4751180261
 10
135.6467428292
 20
85.5451584864
 10
135.68616077
 20
85.6089754651
 10
135.7312788184
 20
85.6662692665
 10
135.7322766586
 20
85.6672635309
  0
LWPOLYLINE
  5
3DB
100
AcDbEntity
  8
0
100
AcDbPolyline
 62
250
  6
CONTINUOUS
 90
6
 70
0
 10
135.5634569222
 20
85.3154675737
 10
135.5909326541
 20
85.4148527612
 10
135.6263965081
 20
85.5045345133
 10
135.669848484
 20
85.5845128302
 10
135.721768296
 20
85.6552341853
 10
135.7332518243
 20
85.6669304826
  0
LWPOLYLINE
  5
3DC
100
AcDbEntity
  8
IMPORT_IGES
100
AcDbPolyline
 62
7
  6
CONTINUOUS
 90
4
 70
0
 10
131.9819247722
 20
86.9131856127
 10
131.9737479545
 20
86.8988690883
 10
131.9686857546
 20
86.8837309699
 10
131.9670741827
 20
86.8686406049
  0
LWPOLYLINE
  5
3DD
100
AcDbEntity
  8
0
100
AcDbPolyline
 62
7
  6
CONTINUOUS
 90
4
 70
0
 10
131.9817609254
 20
86.9129559546
 10
131.9736292651
 20
86.8987414924
 10
131.9686484231
 20
86.8837777757
 10
131.9670638342
 20
86.8687531251
  0
LWPOLYLINE
  5
3DE
100
AcDbEntity
  8
IMPORT_IGES
100
AcDbPolyline
 62
7
  6
CONTINUOUS
 90
14
 70
0
 10
126.3675084543
 20
88.5576846655
 10
126.4371018751
 20
88.6081059037
 10
126.4999225886
 20
88.6681208696
 10
126.5559789433
 20
88.7379982323
 10
126.6052625908
 20
88.8174693227
 10
126.6466822631
 20
88.9049481175
 10
126.6800349762
 20
89.0005983601
 10
126.7055237142
 20
89.104256307
 10
126.7226661613
 20
89.2138447048
 10
126.7312953621
 20
89.3294222804
 10
126.7315782719
 20
89.4509303068
 10
126.7235334409
 20
89.5761153498
 10
126.7070192452
 20
89.7050492666
 10
126.6821773087
 20
89.8376602
  0
LWPOLYLINE
  5
3DF
100
AcDbEntity
  8
RACCORDO
100
AcDbPolyline
 62
250
  6
CONTINUOUS
 90
9
 70
0
 10
153.3013715958
 20
107.9979208689
 10
153.3433910646
 20
108.0248655671
 10
153.3803035929
 20
108.054199113
 10
153.4117044917
 20
108.0856003127
 10
153.4372494483
 20
108.118725345
 10
153.4566581754
 20
108.1532113562
 10
153.4697175942
 20
108.1886804125
 10
153.4762843255
 20
108.2247440582
 10
153.477107527
 20
108.2428850971
  0
LINE
  5
3E0
100
AcDbEntity
  8
0
100
AcDbLine
 62
7
  6
CONTINUOUS
 10
125.3072531271
 20
91.2372711045
 11
124.95374757
 21
91.0331614263
  0
LINE
  5
3E1
100
AcDbEntity
  8
IMPORT_IGES
100
AcDbLine
 62
7
  6
CONTINUOUS
 10
124.95374757
 20
91.0331614263
 11
125.3072531271
 21
91.2372711045
  0
LWPOLYLINE
  5
3E2
100
AcDbEntity
  8
0
100
AcDbPolyline
 62
7
  6
CONTINUOUS
 90
10
 70
0
 10
124.4026814361
 20
90.4024666334
 10
124.4044184353
 20
90.4034174841
 10
124.4061883336
 20
90.4042779546
 10
124.4079904653
 20
90.4050476608
 10
124.4098235491
 20
90.4057272046
 10
124.4116875229
 20
90.4063152084
 10
124.4135835399
 20
90.4068083122
 10
124.4155115244
 20
90.4072051304
 10
124.417470176
 20
90.4075062542
 10
124.4194588017
 20
90.4077112834
  0
LWPOLYLINE
  5
3E3
100
AcDbEntity
  8
0
100
AcDbPolyline
 62
7
  6
CONTINUOUS
 90
28
 70
0
 10
124.4026741159
 20
91.5217572471
 10
124.3984466472
 20
91.51945801
 10
124.394345837
 20
91.5175248868
 10
124.3903807477
 20
91.5159774312
 10
124.3865206178
 20
91.5148207862
 10
124.3828010274
 20
91.5140846788
 10
124.3793312498
 20
91.5138045101
 10
124.3761565486
 20
91.5139875929
 10
124.3732547164
 20
91.5146199785
 10
124.3706416622
 20
91.5156817558
 10
124.3683384973
 20
91.5171631776
 10
124.3663469255
 20
91.5190547335
 10
124.3646544151
 20
91.5213298475
 10
124.3632705496
 20
91.5239752663
 10
124.362204445
 20
91.5269825327
 10
124.3614419025
 20
91.5303318785
 10
124.3609875751
 20
91.5340104837
 10
124.3608513796
 20
91.5380104184
 10
124.3610260977
 20
91.5423208425
 10
124.3615142087
 20
91.546931428
 10
124.3623244789
 20
91.5518337899
 10
124.3634584854
 20
91.5570215613
 10
124.3649174219
 20
91.5624850719
 10
124.3667086066
 20
91.5682165663
 10
124.3688422729
 20
91.5742133931
 10
124.3713238694
 20
91.5804692255
 10
124.3741540098
 20
91.5869738522
 10
124.3773351281
 20
91.5937191609
  0
LWPOLYLINE
  5
3E4
100
AcDbEntity
  8
IMPORT_IGES
100
AcDbPolyline
 62
7
  6
CONTINUOUS
 90
30
 70
0
 10
124.4019563764
 20
91.5213468902
 10
124.3979830416
 20
91.519226162
 10
124.3941730761
 20
91.5174537384
 10
124.3905335378
 20
91.5160303227
 10
124.3870716495
 20
91.5149572631
 10
124.3837827248
 20
91.5142329246
 10
124.3806657455
 20
91.5138581434
 10
124.3777343435
 20
91.5138374348
 10
124.375005453
 20
91.5141752993
 10
124.3724843279
 20
91.5148765906
 10
124.3701796116
 20
91.5159382787
 10
124.3681149081
 20
91.5173461553
 10
124.3663075756
 20
91.5190916886
 10
124.3647560332
 20
91.5211706172
 10
124.363456157
 20
91.5235691846
 10
124.362413907
 20
91.5262784525
 10
124.3616366886
 20
91.5292939902
 10
124.3611219893
 20
91.5326091331
 10
124.3608732481
 20
91.5362176773
 10
124.3608982363
 20
91.540113537
 10
124.3612004511
 20
91.5442910086
 10
124.3617824991
 20
91.5487425309
 10
124.3626511117
 20
91.5534631782
 10
124.3638155628
 20
91.5584515197
 10
124.3652774788
 20
91.5637012023
 10
124.3670428825
 20
91.5692063849
 10
124.3691272154
 20
91.5749664597
 10
124.371537561
 20
91.5809770098
 10
124.3742726917
 20
91.5872299652
 10
124.3773351281
 20
91.5937191609
  0
LINE
  5
3E5
100
AcDbEntity
  8
0
100
AcDbLine
 62
7
  6
CONTINUOUS
 10
124.5824554872
 20
91.7908813443
 11
124.4993881242
 21
91.7510711681
  0
LWPOLYLINE
  5
3E6
100
AcDbEntity
  8
0
100
AcDbPolyline
 62
7
  6
CONTINUOUS
 90
7
 70
0
 10
142.5745987081
 20
80.7344879281
 10
142.5756125634
 20
80.7295332994
 10
142.5809558278
 20
80.7143714397
 10
142.5895347378
 20
80.6998829902
 10
142.6012957576
 20
80.6863127322
 10
142.616292423
 20
80.6734158843
 10
142.634524734
 20
80.6611924466
  0
LWPOLYLINE
  5
3E7
100
AcDbEntity
  8
0
100
AcDbPolyline
 62
7
  6
CONTINUOUS
 90
21
 70
0
 10
142.5745416043
 20
80.7344847226
 10
142.6003782157
 20
80.6009766241
 10
142.6383021741
 20
80.4536492772
 10
142.6858733355
 20
80.3062011029
 10
142.7426090632
 20
80.1597324522
 10
142.808010475
 20
80.0152713699
 10
142.8815640462
 20
79.8738061603
 10
142.9626649222
 20
79.7364217671
 10
143.0507122179
 20
79.6041039497
 10
143.1451768944
 20
79.4776896208
 10
143.2454501925
 20
79.3581054586
 10
143.350800935
 20
79.2463642051
 10
143.4605498994
 20
79.1433516989
 10
143.5742529446
 20
79.0497335828
 10
143.6909372127
 20
78.9665965085
 10
143.8091968876
 20
78.8951155794
 10
143.9286693952
 20
78.8356794834
 10
144.0483064798
 20
78.7890333008
 10
144.1657836225
 20
78.756039154
 10
144.2800971364
 20
78.7366534546
 10
144.3367287692
 20
78.7335784717
  0
LINE
  5
3E8
100
AcDbEntity
  8
IMPORT_IGES
100
AcDbLine
 62
7
  6
CONTINUOUS
 10
142.5745419966
 20
80.7344823013
 11
142.5967739152
 21
80.6173156565
  0
LINE
  5
3E9
100
AcDbEntity
  8
0
100
AcDbLine
 62
7
  6
CONTINUOUS
 10
142.575679937
 20
81.3009125874
 11
142.5736716696
 21
81.3161473465
  0
LINE
  5
3EA
100
AcDbEntity
  8
IMPORT_IGES
100
AcDbLine
 62
7
  6
CONTINUOUS
 10
142.575679937
 20
81.3009125874
 11
142.5736716696
 21
81.3161473465
  0
LINE
  5
3EB
100
AcDbEntity
  8
0
100
AcDbLine
 62
7
  6
CONTINUOUS
 10
142.573665552
 20
80.7446342251
 11
142.5745987081
 21
80.7344879281
  0
LINE
  5
3EC
100
AcDbEntity
  8
IMPORT_IGES
100
AcDbLine
 62
7
  6
CONTINUOUS
 10
142.5736759005
 20
80.744521705
 11
142.5745958433
 21
80.7344853465
  0
LINE
  5
3ED
100
AcDbEntity
  8
RACCORDO
100
AcDbLine
 62
250
  6
CONTINUOUS
 10
140.618356703
 20
85.5432803089
 11
140.618356703
 21
105.2773797215
  0
LINE
  5
3EE
100
AcDbEntity
  8
0
100
AcDbLine
 62
7
  6
CONTINUOUS
 10
139.0381377637
 20
83.3575203131
 11
139.039470181
 21
83.3713081895
  0
LINE
  5
3EF
100
AcDbEntity
  8
IMPORT_IGES
100
AcDbLine
 62
7
  6
CONTINUOUS
 10
139.0381377637
 20
83.3575203131
 11
139.039505911
 21
83.3713056795
  0
LWPOLYLINE
  5
3F0
100
AcDbEntity
  8
IMPORT_IGES
100
AcDbPolyline
 62
7
  6
CONTINUOUS
 90
18
 70
0
 10
136.0436500103
 20
83.6006484584
 10
136.035558453
 20
83.5724449223
 10
136.0262560969
 20
83.5431140626
 10
136.0158959006
 20
83.5131808147
 10
136.0044755207
 20
83.48264522
 10
135.9919672391
 20
83.451485652
 10
135.9783752956
 20
83.4197063082
 10
135.9636954505
 20
83.387302991
 10
135.9478872671
 20
83.3542414809
 10
135.9309561947
 20
83.3205262533
 10
135.9128967839
 20
83.2861528328
 10
135.8936522496
 20
83.2510735739
 10
135.8732263027
 20
83.215289025
 10
135.8516152323
 20
83.1787986378
 10
135.8287511211
 20
83.1415531213
 10
135.8046113298
 20
83.1035360455
 10
135.7792184977
 20
83.0647638405
 10
135.7525726247
 20
83.0252365064
  0
LWPOLYLINE
  5
3F1
100
AcDbEntity
  8
0
100
AcDbPolyline
 62
7
  6
CONTINUOUS
 90
10
 70
0
 10
132.2170387188
 20
85.066609473
 10
132.2158559266
 20
85.0649767346
 10
132.2146068745
 20
85.0634213177
 10
132.2132924179
 20
85.0619437163
 10
132.2119123099
 20
85.0605458301
 10
132.2104684712
 20
85.0592267257
 10
132.2089650182
 20
85.0579826524
 10
132.2074038881
 20
85.0568126862
 10
132.2057848104
 20
85.0557187133
 10
132.2041085964
 20
85.0547012021
  0
LWPOLYLINE
  5
3F2
100
AcDbEntity
  8
0
100
AcDbPolyline
 62
7
  6
CONTINUOUS
 90
26
 70
0
 10
131.4243738377
 20
87.5516811209
 10
131.3635675964
 20
87.4769096241
 10
131.3112172735
 20
87.391134149
 10
131.2672582699
 20
87.2946979102
 10
131.232784379
 20
87.1898832005
 10
131.2080583784
 20
87.0765457027
 10
131.1928174906
 20
86.954829734
 10
131.1873671758
 20
86.8274505392
 10
131.1919012772
 20
86.6943371115
 10
131.2062259517
 20
86.5555604578
 10
131.23006513
 20
86.4140488426
 10
131.2636286296
 20
86.2696750544
 10
131.3067066331
 20
86.1225663049
 10
131.3583936184
 20
85.9760324934
 10
131.4188060884
 20
85.8301858361
 10
131.4878275403
 20
85.6849141169
 10
131.5642029439
 20
85.5431905871
 10
131.6482372409
 20
85.4048496321
 10
131.7396254896
 20
85.2700568665
 10
131.8361978346
 20
85.1422823852
 10
131.9381443682
 20
85.021728048
 10
132.045274998
 20
84.9081919952
 10
132.1548495915
 20
84.8045387418
 10
132.2659547712
 20
84.7117231261
 10
132.3795039145
 20
84.6287903097
 10
132.4954970215
 20
84.5557402928
  0
LWPOLYLINE
  5
3F3
100
AcDbEntity
  8
0
100
AcDbPolyline
 62
7
  6
CONTINUOUS
 90
3
 70
0
 10
128.0349220301
 20
89.7096982014
 10
127.9580374923
 20
89.6571648207
 10
127.8888399318
 20
89.5930540876
  0
LWPOLYLINE
  5
3F4
100
AcDbEntity
  8
0
100
AcDbPolyline
 62
7
  6
CONTINUOUS
 90
13
 70
0
 10
126.349470295
 20
88.5468413083
 10
126.4263548328
 20
88.599374689
 10
126.4955523934
 20
88.6634854221
 10
126.5563586346
 20
88.7382569189
 10
126.6087089576
 20
88.824032394
 10
126.6526679612
 20
88.9204686329
 10
126.6871418521
 20
89.0252833425
 10
126.7118678526
 20
89.1386208404
 10
126.7271087405
 20
89.260336809
 10
126.7325590553
 20
89.3877160039
 10
126.7280249538
 20
89.5208294315
 10
126.7137002793
 20
89.6596060853
 10
126.689861101
 20
89.8011177005
  0
LWPOLYLINE
  5
3F5
100
AcDbEntity
  8
0
100
AcDbPolyline
 62
7
  6
CONTINUOUS
 90
4
 70
0
 10
128.4892814759
 20
88.9917884597
 10
128.4717791721
 20
88.9800512014
 10
128.4574276866
 20
88.9675646886
 10
128.4463275442
 20
88.9544477108
  0
LWPOLYLINE
  5
3F6
100
AcDbEntity
  8
IMPORT_IGES
100
AcDbPolyline
 62
7
  6
CONTINUOUS
 90
4
 70
0
 10
128.4892814759
 20
88.9917884597
 10
128.4718699883
 20
88.9802000935
 10
128.4575731184
 20
88.9677901334
 10
128.4463908663
 20
88.9545585793
  0
LWPOLYLINE
  5
3F7
100
AcDbEntity
  8
IMPORT_IGES
100
AcDbPolyline
 62
7
  6
CONTINUOUS
 90
31
 70
0
 10
128.0349212013
 20
89.7096996464
 10
128.0168838708
 20
89.6988548442
 10
127.94729045
 20
89.648433606
 10
127.8844697365
 20
89.58841864
 10
127.8284133818
 20
89.5185412774
 10
127.7791297344
 20
89.439070187
 10
127.737710062
 20
89.3515913922
 10
127.7043573489
 20
89.2559411496
 10
127.6788686109
 20
89.1522832027
 10
127.6617261638
 20
89.0426948049
 10
127.653096963
 20
88.9271172293
 10
127.6528140532
 20
88.8056092029
 10
127.6608588842
 20
88.6804241599
 10
127.6773730799
 20
88.5514902431
 10
127.7022150164
 20
88.4188793097
 10
127.7349412723
 20
88.285060366
 10
127.7757195295
 20
88.1499594587
 10
127.824382106
 20
88.0136505411
 10
127.8799825347
 20
87.8788244788
 10
127.9425558868
 20
87.7456511678
 10
128.0120670912
 20
87.6139607121
 10
128.087464467
 20
87.4859342903
 10
128.1689951924
 20
87.361405068
 10
128.2564120893
 20
87.2405398795
 10
128.3479219425
 20
87.1260204057
 10
128.4436449247
 20
87.0180151206
 10
128.5434608632
 20
86.9163555502
 10
128.6452160248
 20
86.823217953
 10
128.7481924986
 20
86.7393277486
 10
128.8531081955
 20
86.6639595174
 10
128.9599631155
 20
86.5971132595
  0
LINE
  5
3F8
100
AcDbEntity
  8
IMPORT_IGES
100
AcDbLine
 62
7
  6
CONTINUOUS
 10
126.3494711238
 20
88.5468398632
 11
126.3675084543
 21
88.5576846655
  0
LINE
  5
3F9
100
AcDbEntity
  8
0
100
AcDbLine
 62
7
  6
CONTINUOUS
 10
126.638207111
 20
88.8870485049
 11
126.1024174387
 21
88.5777500547
  0
LINE
  5
3FA
100
AcDbEntity
  8
IMPORT_IGES
100
AcDbLine
 62
7
  6
CONTINUOUS
 10
126.638207111
 20
88.8870485049
 11
126.1024174387
 21
88.5777500547
  0
LINE
  5
3FB
100
AcDbEntity
  8
0
100
AcDbLine
 62
250
  6
CONTINUOUS
 10
127.9128690341
 20
89.5523461943
 11
128.3319194815
 21
89.7942539066
  0
LINE
  5
3FC
100
AcDbEntity
  8
IMPORT_IGES
100
AcDbLine
 62
250
  6
CONTINUOUS
 10
127.9128690341
 20
89.5523461943
 11
128.3319194815
 21
89.7942539066
  0
LINE
  5
3FD
100
AcDbEntity
  8
0
100
AcDbLine
 62
250
  6
CONTINUOUS
 10
126.5704411054
 20
88.7613188234
 11
126.1520634687
 21
88.5197995085
  0
LINE
  5
3FE
100
AcDbEntity
  8
IMPORT_IGES
100
AcDbLine
 62
250
  6
CONTINUOUS
 10
126.5704411054
 20
88.7613188234
 11
126.1520634687
 21
88.5197995085
  0
LINE
  5
3FF
100
AcDbEntity
  8
0
100
AcDbLine
 62
7
  6
CONTINUOUS
 10
127.9382085065
 20
89.4803845602
 11
128.4735308845
 21
89.7894132526
  0
LINE
  5
400
100
AcDbEntity
  8
IMPORT_IGES
100
AcDbLine
 62
7
  6
CONTINUOUS
 10
127.9382085065
 20
89.4803845602
 11
128.4735308845
 21
89.7894132526
  0
LWPOLYLINE
  5
401
100
AcDbEntity
  8
0
100
AcDbPolyline
 62
7
  6
CONTINUOUS
 90
28
 70
0
 10
127.9382080219
 20
89.4803842804
 10
127.9339805532
 20
89.4780850434
 10
127.9298797429
 20
89.4761519201
 10
127.9259146536
 20
89.4746044646
 10
127.9220545238
 20
89.4734478195
 10
127.9183349333
 20
89.4727117122
 10
127.9148651557
 20
89.4724315434
 10
127.9116904545
 20
89.4726146263
 10
127.9087886223
 20
89.4732470119
 10
127.9061755681
 20
89.4743087892
 10
127.9038724032
 20
89.4757902109
 10
127.9018808314
 20
89.4776817668
 10
127.900188321
 20
89.4799568809
 10
127.8988044556
 20
89.4826022997
 10
127.897738351
 20
89.4856095661
 10
127.8969758084
 20
89.4889589119
 10
127.8965214811
 20
89.4926375171
 10
127.8963852855
 20
89.4966374518
 10
127.8965600036
 20
89.5009478759
 10
127.8970481146
 20
89.5055584613
 10
127.8978583849
 20
89.5104608233
 10
127.8989923913
 20
89.5156485946
 10
127.9004513278
 20
89.5211121053
 10
127.9022425126
 20
89.5268435997
 10
127.9043761788
 20
89.5328404264
 10
127.9068577753
 20
89.5390962589
 10
127.9096879157
 20
89.5456008855
 10
127.9128690341
 20
89.5523461943
  0
LWPOLYLINE
  5
402
100
AcDbEntity
  8
0
100
AcDbPolyline
 62
7
  6
CONTINUOUS
 90
28
 70
0
 10
125.1330407845
 20
89.1374471354
 10
125.1285736335
 20
89.1351350021
 10
125.1235838644
 20
89.1332796408
 10
125.1180732515
 20
89.1318820765
 10
125.1120051007
 20
89.1309281924
 10
125.1054209879
 20
89.1304349257
 10
125.0984480703
 20
89.1304544881
 10
125.0911143961
 20
89.1310226252
 10
125.0834149394
 20
89.1321168832
 10
125.0754350831
 20
89.1337066985
 10
125.0672001881
 20
89.1358020775
 10
125.0587077425
 20
89.1384062049
 10
125.0500019998
 20
89.1414786768
 10
125.0411002717
 20
89.145020419
 10
125.0320039324
 20
89.149041293
 10
125.0227323492
 20
89.1535137329
 10
125.0132977165
 20
89.1584360055
 10
125.0037024049
 20
89.1638182522
 10
124.9939501345
 20
89.169650192
 10
124.9840479469
 20
89.1759306711
 10
124.9740000549
 20
89.1826673404
 10
124.9638052981
 20
89.1898627575
 10
124.9534693631
 20
89.1975151173
 10
124.9429950841
 20
89.2056311437
 10
124.9323764787
 20
89.2142258745
 10
124.9216135807
 20
89.2233054928
 10
124.9107123998
 20
89.2328673041
 10
124.8996753592
 20
89.2429127069
  0
LWPOLYLINE
  5
403
100
AcDbEntity
  8
IMPORT_IGES
100
AcDbPolyline
 62
7
  6
CONTINUOUS
 90
3
 70
0
 10
124.6378656953
 20
91.8098640044
 10
124.5566498699
 20
91.7802753042
 10
124.4993872953
 20
91.7510726131
  0
LWPOLYLINE
  5
404
100
AcDbEntity
  8
RACCORDO
100
AcDbPolyline
 62
250
  6
CONTINUOUS
 90
19
 70
0
 10
142.5783368999
 20
104.9269702602
 10
142.5774976327
 20
105.0149539946
 10
142.5749862193
 20
105.1074514122
 10
142.570821773
 20
105.203758552
 10
142.5650359878
 20
105.3031424584
 10
142.557672897
 20
105.4048467599
 10
142.548788538
 20
105.5080974253
 10
142.5384505263
 20
105.6121086548
 10
142.5267375403
 20
105.71608886
 10
142.5137387228
 20
105.8192466888
 10
142.4995530029
 20
105.9207970478
 10
142.4842883423
 20
106.0199670776
 10
142.4680609143
 20
106.1160020342
 10
142.4509942196
 20
106.2081710338
 10
142.4332181458
 20
106.2957726144
 10
142.4148679797
 20
106.3781400753
 10
142.3960833772
 20
106.4546465503
 10
142.3770073003
 20
106.5247097789
 10
142.3577849296
 20
106.5877965377
  0
LINE
  5
405
100
AcDbEntity
  8
RACCORDO
100
AcDbLine
 62
250
  6
CONTINUOUS
 10
142.5783368991
 20
85.063631132
 11
142.5783368991
 21
104.9269702601
  0
LINE
  5
406
100
AcDbEntity
  8
RACCORDO
100
AcDbLine
 62
250
  6
CONTINUOUS
 10
143.6718218536
 20
84.6491200872
 11
143.6718218536
 21
104.8467764529
  0
LWPOLYLINE
  5
407
100
AcDbEntity
  8
RACCORDO
100
AcDbPolyline
 62
250
  6
CONTINUOUS
 90
19
 70
0
 10
143.6718218542
 20
104.8467764528
 10
143.673756614
 20
104.9345567462
 10
143.6795461694
 20
105.0264453889
 10
143.6891464583
 20
105.121743053
 10
143.7024844168
 20
105.2197244657
 10
143.719458535
 20
105.3196439292
 10
143.7399396294
 20
105.4207409961
 10
143.7637718265
 20
105.5222462568
 10
143.790773749
 20
105.6233871949
 10
143.820739896
 20
105.7233940667
 10
143.8534422069
 20
105.8215057596
 10
143.8886317975
 20
105.9169755843
 10
143.9260408536
 20
106.009076958
 10
143.9653846699
 20
106.0971089334
 10
144.006363816
 20
106.1804015341
 10
144.048666416
 20
106.2583208531
 10
144.0919705216
 20
106.3302738773
 10
144.1359465624
 20
106.3957130008
 10
144.1802598541
 20
106.4541401923
  0
LWPOLYLINE
  5
408
100
AcDbEntity
  8
IMPORT_IGES
100
AcDbPolyline
 62
250
  6
CONTINUOUS
 90
7
 70
0
 10
139.0989908281
 20
83.274094607
 10
139.1210526894
 20
83.3571814219
 10
139.1488146584
 20
83.4337450595
 10
139.1822767352
 20
83.5037855197
 10
139.2216946759
 20
83.5676024984
 10
139.2668127244
 20
83.6248962998
 10
139.2678105645
 20
83.6258905643
  0
LWPOLYLINE
  5
409
100
AcDbEntity
  8
0
100
AcDbPolyline
 62
250
  6
CONTINUOUS
 90
6
 70
0
 10
139.0989908281
 20
83.274094607
 10
139.1264665601
 20
83.3734797945
 10
139.161930414
 20
83.4631615467
 10
139.2053823899
 20
83.5431398635
 10
139.2573022019
 20
83.6138612186
 10
139.2687857302
 20
83.6255575159
  0
LWPOLYLINE
  5
40A
100
AcDbEntity
  8
0
100
AcDbPolyline
 62
7
  6
CONTINUOUS
 90
5
 70
0
 10
135.6010527384
 20
85.6988408381
 10
135.5888384195
 20
85.6759093874
 10
135.5537602507
 20
85.5923793382
 10
135.5249084186
 20
85.5023989997
 10
135.5038672878
 20
85.412685829
  0
LWPOLYLINE
  5
40B
100
AcDbEntity
  8
IMPORT_IGES
100
AcDbPolyline
 62
7
  6
CONTINUOUS
 90
5
 70
0
 10
135.6010527384
 20
85.6988408381
 10
135.5888384195
 20
85.6759093874
 10
135.5537602507
 20
85.5923793382
 10
135.5249084186
 20
85.5023989997
 10
135.5038672878
 20
85.412685829
  0
LWPOLYLINE
  5
40C
100
AcDbEntity
  8
IMPORT_IGES
100
AcDbPolyline
 62
7
  6
CONTINUOUS
 90
4
 70
0
 10
135.5174586781
 20
84.871812646
 10
135.5092818605
 20
84.8574961216
 10
135.5042196606
 20
84.8423580033
 10
135.5026080886
 20
84.8272676383
  0
LWPOLYLINE
  5
40D
100
AcDbEntity
  8
0
100
AcDbPolyline
 62
7
  6
CONTINUOUS
 90
4
 70
0
 10
135.5172948313
 20
84.8715829879
 10
135.509163171
 20
84.8573685258
 10
135.5041823291
 20
84.8424048091
 10
135.5025977401
 20
84.8273801584
  0
LWPOLYLINE
  5
40E
100
AcDbEntity
  8
IMPORT_IGES
100
AcDbPolyline
 62
7
  6
CONTINUOUS
 90
5
 70
0
 10
134.9839368459
 20
85.469600261
 10
135.0148681494
 20
85.5219155074
 10
135.0525760778
 20
85.5695278981
 10
135.0970606313
 20
85.6124374331
 10
135.1355280942
 20
85.6411085262
  0
LWPOLYLINE
  5
40F
100
AcDbEntity
  8
IMPORT_IGES
100
AcDbPolyline
 62
7
  6
CONTINUOUS
 90
34
 70
0
 10
132.2170387188
 20
85.066609473
 10
132.214184609
 20
85.0629435495
 10
132.2109516812
 20
85.0596639877
 10
132.2073471399
 20
85.0567749472
 10
132.2033773108
 20
85.054285293
 10
132.1990504896
 20
85.0521946021
 10
132.1943765824
 20
85.0504929558
 10
132.1893697085
 20
85.0491803719
 10
132.1840300277
 20
85.0482650767
 10
132.1783453661
 20
85.0477488063
 10
132.1723138611
 20
85.047631515
 10
132.1659500034
 20
85.0479205396
 10
132.1592658027
 20
85.0486284898
 10
132.1522477613
 20
85.0497692512
 10
132.1449232871
 20
85.0513369695
 10
132.1373673324
 20
85.0533155587
 10
132.129605777
 20
85.0557101184
 10
132.1216285231
 20
85.0585246603
 10
132.1134572352
 20
85.0617418581
 10
132.1051049411
 20
85.0653610649
 10
132.0965719777
 20
85.0693906433
 10
132.0878604154
 20
85.0738264596
 10
132.0789752749
 20
85.0786695841
 10
132.0699227427
 20
85.0839254166
 10
132.0607061488
 20
85.0895960348
 10
132.0513326715
 20
85.0956803013
 10
132.0418044653
 20
85.1021847413
 10
132.0321169138
 20
85.1091226903
 10
132.0222742142
 20
85.1164935996
 10
132.0122798123
 20
85.12430243
 10
132.0021275371
 20
85.132570534
 10
131.9918172663
 20
85.1413061458
 10
131.9813549719
 20
85.150504408
 10
131.9707431711
 20
85.1601667736
  0
LWPOLYLINE
  5
410
100
AcDbEntity
  8
IMPORT_IGES
100
AcDbPolyline
 62
7
  6
CONTINUOUS
 90
16
 70
0
 10
129.9030423603
 20
86.5163116989
 10
129.972635781
 20
86.566732937
 10
130.0354564945
 20
86.626747903
 10
130.0915128492
 20
86.6966252656
 10
130.1407964967
 20
86.7760963561
 10
130.182216169
 20
86.8635751509
 10
130.2155688822
 20
86.9592253934
 10
130.2410576202
 20
87.0628833404
 10
130.2582000672
 20
87.1724717382
 10
130.266829268
 20
87.2880493138
 10
130.2671121779
 20
87.4095573402
 10
130.2590673469
 20
87.5347423832
 10
130.2425531512
 20
87.6636763
 10
130.2177112146
 20
87.7962872333
 10
130.1849849587
 20
87.9301061771
 10
130.1442067016
 20
88.0652070843
  0
LINE
  5
411
100
AcDbEntity
  8
0
100
AcDbLine
 62
7
  6
CONTINUOUS
 10
128.842787033
 20
89.1958981379
 11
128.4892814759
 21
88.9917884597
  0
LINE
  5
412
100
AcDbEntity
  8
IMPORT_IGES
100
AcDbLine
 62
7
  6
CONTINUOUS
 10
128.4892814759
 20
88.9917884597
 11
128.842787033
 21
89.1958981379
  0
LWPOLYLINE
  5
413
100
AcDbEntity
  8
0
100
AcDbPolyline
 62
7
  6
CONTINUOUS
 90
10
 70
0
 10
127.938215342
 20
88.3610936667
 10
127.9399523412
 20
88.3620445174
 10
127.9417222395
 20
88.362904988
 10
127.9435243713
 20
88.3636746942
 10
127.9453574551
 20
88.364354238
 10
127.9472214288
 20
88.3649422417
 10
127.9491174458
 20
88.3654353455
 10
127.9510454303
 20
88.3658321638
 10
127.9530040819
 20
88.3661332876
 10
127.9549927077
 20
88.3663383168
  0
LWPOLYLINE
  5
414
100
AcDbEntity
  8
IMPORT_IGES
100
AcDbPolyline
 62
7
  6
CONTINUOUS
 90
30
 70
0
 10
127.9374902823
 20
89.4799739236
 10
127.9335169475
 20
89.4778531954
 10
127.929706982
 20
89.4760807718
 10
127.9260674437
 20
89.4746573561
 10
127.9226055554
 20
89.4735842964
 10
127.9193166308
 20
89.472859958
 10
127.9161996514
 20
89.4724851768
 10
127.9132682494
 20
89.4724644682
 10
127.9105393589
 20
89.4728023327
 10
127.9080182338
 20
89.473503624
 10
127.9057135175
 20
89.4745653121
 10
127.903648814
 20
89.4759731886
 10
127.9018414816
 20
89.477718722
 10
127.9002899391
 20
89.4797976506
 10
127.8989900629
 20
89.482196218
 10
127.897947813
 20
89.4849054859
 10
127.8971705946
 20
89.4879210236
 10
127.8966558953
 20
89.4912361664
 10
127.896407154
 20
89.4948447107
 10
127.8964321422
 20
89.4987405703
 10
127.8967343571
 20
89.502918042
 10
127.8973164051
 20
89.5073695642
 10
127.8981850176
 20
89.5120902116
 10
127.8993494688
 20
89.5170785531
 10
127.9008113847
 20
89.5223282356
 10
127.9025767885
 20
89.5278334182
 10
127.9046611213
 20
89.533593493
 10
127.9070714669
 20
89.5396040431
 10
127.9098065976
 20
89.5458569985
 10
127.9128690341
 20
89.5523461943
  0
LINE
  5
415
100
AcDbEntity
  8
0
100
AcDbLine
 62
7
  6
CONTINUOUS
 10
128.1179893932
 20
89.7495083777
 11
128.0349220301
 21
89.7096982014
  0
LWPOLYLINE
  5
416
100
AcDbEntity
  8
IMPORT_IGES
100
AcDbPolyline
 62
7
  6
CONTINUOUS
 90
3
 70
0
 10
126.3766278741
 20
88.5653974378
 10
126.3323380824
 20
88.5463280344
 10
126.2729311227
 20
88.5292648652
  0
LWPOLYLINE
  5
417
100
AcDbEntity
  8
RACCORDO
100
AcDbPolyline
 62
250
  6
CONTINUOUS
 90
15
 70
0
 10
142.4377107945
 20
104.9144907924
 10
142.2959817087
 20
104.9072857297
 10
142.1537424106
 20
104.9053852065
 10
142.0115878118
 20
104.9087971712
 10
141.8701124517
 20
104.9175073533
 10
141.7299080115
 20
104.9314793265
 10
141.5915608584
 20
104.9506546613
 10
141.455649645
 20
104.9749531594
 10
141.3227428596
 20
105.0042731852
 10
141.1933963951
 20
105.0384921006
 10
141.0681512039
 20
105.0774667904
 10
140.9475310875
 20
105.1210342527
 10
140.8320405214
 20
105.1690122736
 10
140.7221625417
 20
105.2212001869
 10
140.618356703
 20
105.2773797215
  0
LINE
  5
418
100
AcDbEntity
  8
RACCORDO
100
AcDbLine
 62
250
  6
CONTINUOUS
 10
128.2697915417
 20
111.6723922138
 11
124.0271508546
 21
114.1220397737
  0
LWPOLYLINE
  5
419
100
AcDbEntity
  8
RACCORDO
100
AcDbPolyline
 62
250
  6
CONTINUOUS
 90
12
 70
0
 10
124.0271508546
 20
114.1220397737
 10
123.915247983
 20
114.191674211
 10
123.8126706588
 20
114.265942346
 10
123.7199925362
 20
114.3444288412
 10
123.6377319089
 20
114.4266947681
 10
123.5663488117
 20
114.5122800626
 10
123.5062424476
 20
114.6007060971
 10
123.4577489559
 20
114.6914783578
 10
123.4211395321
 20
114.784089209
 10
123.3966189113
 20
114.8780207325
 10
123.3843242227
 20
114.9727476243
 10
123.3827857732
 20
115.0202438791
  0
LINE
  5
41A
100
AcDbEntity
  8
0
100
AcDbLine
 62
7
  6
CONTINUOUS
 10
144.8698656922
 20
80.837280678
 11
144.8698656922
 21
77.0272598575
  0
LINE
  5
41B
100
AcDbEntity
  8
IMPORT_IGES
100
AcDbLine
 62
7
  6
CONTINUOUS
 10
144.8698656922
 20
80.837280678
 11
144.8698656922
 21
77.0272598575
  0
LWPOLYLINE
  5
41C
100
AcDbEntity
  8
IMPORT_IGES
100
AcDbPolyline
 62
7
  6
CONTINUOUS
 90
13
 70
0
 10
144.8698656922
 20
80.837280678
 10
144.8708357955
 20
80.8561166809
 10
144.8733662191
 20
80.8751703144
 10
144.8774569632
 20
80.8944415785
 10
144.883192094
 20
80.9141375861
 10
144.8904875452
 20
80.9340512243
 10
144.8990911178
 20
80.9535611541
 10
144.9090296415
 20
80.9726590956
 10
144.9202762865
 20
80.9913533287
 10
144.9324983646
 20
81.0090473549
 10
144.9455849794
 20
81.0255423414
 10
144.9596470273
 20
81.0410371211
 10
144.9746845081
 20
81.0555316939
  0
LINE
  5
41D
100
AcDbEntity
  8
0
100
AcDbLine
 62
7
  6
CONTINUOUS
 10
142.5736716696
 20
81.3161473465
 11
142.5750040869
 21
81.3299352228
  0
LINE
  5
41E
100
AcDbEntity
  8
IMPORT_IGES
100
AcDbLine
 62
7
  6
CONTINUOUS
 10
142.5736716696
 20
81.3161473465
 11
142.575039817
 21
81.3299327129
  0
LWPOLYLINE
  5
41F
100
AcDbEntity
  8
RACCORDO
100
AcDbPolyline
 62
250
  6
CONTINUOUS
 90
12
 70
0
 10
143.671821852
 20
84.6491200877
 10
143.6624853649
 20
84.5737593494
 10
143.6567049497
 20
84.5032265407
 10
143.6545203001
 20
84.4380060695
 10
143.6559464125
 20
84.3785458573
 10
143.6609734875
 20
84.3252542642
 10
143.6695669956
 20
84.2784972838
 10
143.681667908
 20
84.2385960294
 10
143.6971931108
 20
84.2058245269
 10
143.7160359775
 20
84.1804078336
 10
143.7380670852
 20
84.1625204985
 10
143.7519987515
 20
84.1557412513
  0
LWPOLYLINE
  5
420
100
AcDbEntity
  8
IMPORT_IGES
100
AcDbPolyline
 62
7
  6
CONTINUOUS
 90
18
 70
0
 10
139.5791839162
 20
81.5592754918
 10
139.571092359
 20
81.5310719557
 10
139.5617900029
 20
81.501741096
 10
139.5514298066
 20
81.4718078481
 10
139.5400094266
 20
81.4412722534
 10
139.5275011451
 20
81.4101126854
 10
139.5139092016
 20
81.3783333415
 10
139.4992293565
 20
81.3459300243
 10
139.483421173
 20
81.3128685143
 10
139.4664901006
 20
81.2791532867
 10
139.4484306898
 20
81.2447798662
 10
139.4291861556
 20
81.2097006073
 10
139.4087602087
 20
81.1739160584
 10
139.3871491383
 20
81.1374256711
 10
139.364285027
 20
81.1001801547
 10
139.3401452358
 20
81.0621630789
 10
139.3147524036
 20
81.0233908739
 10
139.2881065306
 20
80.9838635397
  0
LWPOLYLINE
  5
421
100
AcDbEntity
  8
0
100
AcDbPolyline
 62
7
  6
CONTINUOUS
 90
26
 70
0
 10
134.9599077436
 20
85.5103081543
 10
134.8991015023
 20
85.4355366575
 10
134.8467511794
 20
85.3497611824
 10
134.8027921758
 20
85.2533249436
 10
134.7683182849
 20
85.1485102339
 10
134.7435922844
 20
85.0351727361
 10
134.7283513965
 20
84.9134567674
 10
134.7229010817
 20
84.7860775726
 10
134.7274351832
 20
84.6529641449
 10
134.7417598577
 20
84.5141874911
 10
134.7655990359
 20
84.3726758759
 10
134.7991625356
 20
84.2283020878
 10
134.842240539
 20
84.0811933383
 10
134.8939275243
 20
83.9346595268
 10
134.9543399943
 20
83.7888128695
 10
135.0233614462
 20
83.6435411503
 10
135.0997368498
 20
83.5018176205
 10
135.1837711469
 20
83.3634766655
 10
135.2751593956
 20
83.2286838999
 10
135.3717317405
 20
83.1009094185
 10
135.4736782741
 20
82.9803550814
 10
135.5808089039
 20
82.8668190286
 10
135.6903834974
 20
82.7631657751
 10
135.8014886771
 20
82.6703501594
 10
135.9150378204
 20
82.5874173431
 10
136.0310309274
 20
82.5143673262
  0
LWPOLYLINE
  5
422
100
AcDbEntity
  8
0
100
AcDbPolyline
 62
7
  6
CONTINUOUS
 90
3
 70
0
 10
131.5704559361
 20
87.6683252348
 10
131.4935713983
 20
87.615791854
 10
131.4243738377
 20
87.5516811209
  0
LWPOLYLINE
  5
423
100
AcDbEntity
  8
0
100
AcDbPolyline
 62
7
  6
CONTINUOUS
 90
15
 70
0
 10
129.8850042009
 20
86.5054683416
 10
129.9618887387
 20
86.5580017224
 10
130.0310862993
 20
86.6221124555
 10
130.0918925406
 20
86.6968839523
 10
130.1442428635
 20
86.7826594274
 10
130.1882018671
 20
86.8790956662
 10
130.222675758
 20
86.9839103759
 10
130.2474017586
 20
87.0972478737
 10
130.2626426464
 20
87.2189638424
 10
130.2680929612
 20
87.3463430372
 10
130.2635588597
 20
87.4794564649
 10
130.2492341853
 20
87.6182331187
 10
130.225395007
 20
87.7597447338
 10
130.1918315073
 20
87.904118522
 10
130.1487535039
 20
88.0512272715
  0
LWPOLYLINE
  5
424
100
AcDbEntity
  8
0
100
AcDbPolyline
 62
7
  6
CONTINUOUS
 90
4
 70
0
 10
132.0248153818
 20
86.950415493
 10
132.007313078
 20
86.9386782348
 10
131.9929615925
 20
86.926191722
 10
131.9818614502
 20
86.9130747441
  0
LWPOLYLINE
  5
425
100
AcDbEntity
  8
IMPORT_IGES
100
AcDbPolyline
 62
7
  6
CONTINUOUS
 90
4
 70
0
 10
132.0248153818
 20
86.950415493
 10
132.0074038942
 20
86.9388271269
 10
131.9931070243
 20
86.9264171668
 10
131.9819247722
 20
86.9131856127
  0
LWPOLYLINE
  5
426
100
AcDbEntity
  8
IMPORT_IGES
100
AcDbPolyline
 62
7
  6
CONTINUOUS
 90
31
 70
0
 10
131.5704551072
 20
87.6683266798
 10
131.5524177767
 20
87.6574818776
 10
131.482824356
 20
87.6070606394
 10
131.4200036425
 20
87.5470456734
 10
131.3639472878
 20
87.4771683108
 10
131.3146636403
 20
87.3976972203
 10
131.2732439679
 20
87.3102184255
 10
131.2398912548
 20
87.214568183
 10
131.2144025168
 20
87.110910236
 10
131.1972600698
 20
87.0013218382
 10
131.188630869
 20
86.8857442627
 10
131.1883479591
 20
86.7642362362
 10
131.1963927901
 20
86.6390511933
 10
131.2129069858
 20
86.5101172764
 10
131.2377489223
 20
86.3775063431
 10
131.2704751783
 20
86.2436873993
 10
131.3112534354
 20
86.1085864921
 10
131.3599160119
 20
85.9722775744
 10
131.4155164406
 20
85.8374515122
 10
131.4780897928
 20
85.7042782012
 10
131.5476009971
 20
85.5725877455
 10
131.6229983729
 20
85.4445613236
 10
131.7045290983
 20
85.3200321013
 10
131.7919459952
 20
85.1991669129
 10
131.8834558484
 20
85.084647439
 10
131.9791788306
 20
84.976642154
 10
132.0789947691
 20
84.8749825836
 10
132.1807499308
 20
84.7818449864
 10
132.2837264045
 20
84.697954782
 10
132.3886421014
 20
84.6225865508
 10
132.4954970215
 20
84.5557402928
  0
LINE
  5
427
100
AcDbEntity
  8
IMPORT_IGES
100
AcDbLine
 62
7
  6
CONTINUOUS
 10
129.8850050298
 20
86.5054668966
 11
129.9030423603
 21
86.5163116989
  0
LINE
  5
428
100
AcDbEntity
  8
0
100
AcDbLine
 62
7
  6
CONTINUOUS
 10
130.1737410169
 20
86.8456755382
 11
129.6379513446
 21
86.5363770881
  0
LINE
  5
429
100
AcDbEntity
  8
IMPORT_IGES
100
AcDbLine
 62
7
  6
CONTINUOUS
 10
130.1737410169
 20
86.8456755382
 11
129.6379513446
 21
86.5363770881
  0
LINE
  5
42A
100
AcDbEntity
  8
0
100
AcDbLine
 62
250
  6
CONTINUOUS
 10
131.44840294
 20
87.5109732277
 11
131.8674533874
 21
87.7528809399
  0
LINE
  5
42B
100
AcDbEntity
  8
IMPORT_IGES
100
AcDbLine
 62
250
  6
CONTINUOUS
 10
131.44840294
 20
87.5109732277
 11
131.8674533874
 21
87.7528809399
  0
LINE
  5
42C
100
AcDbEntity
  8
0
100
AcDbLine
 62
250
  6
CONTINUOUS
 10
130.1059750113
 20
86.7199458568
 11
129.6875973747
 21
86.4784265419
  0
LINE
  5
42D
100
AcDbEntity
  8
IMPORT_IGES
100
AcDbLine
 62
250
  6
CONTINUOUS
 10
130.1059750113
 20
86.7199458568
 11
129.6875973747
 21
86.4784265419
  0
LINE
  5
42E
100
AcDbEntity
  8
0
100
AcDbLine
 62
7
  6
CONTINUOUS
 10
131.4737424124
 20
87.4390115936
 11
132.0090647905
 21
87.748040286
  0
LINE
  5
42F
100
AcDbEntity
  8
IMPORT_IGES
100
AcDbLine
 62
7
  6
CONTINUOUS
 10
131.4737424124
 20
87.4390115936
 11
132.0090647905
 21
87.748040286
  0
LWPOLYLINE
  5
430
100
AcDbEntity
  8
0
100
AcDbPolyline
 62
7
  6
CONTINUOUS
 90
28
 70
0
 10
131.4737419278
 20
87.4390113138
 10
131.4695144591
 20
87.4367120767
 10
131.4654136489
 20
87.4347789535
 10
131.4614485596
 20
87.4332314979
 10
131.4575884297
 20
87.4320748529
 10
131.4538688392
 20
87.4313387456
 10
131.4503990616
 20
87.4310585768
 10
131.4472243604
 20
87.4312416597
 10
131.4443225283
 20
87.4318740452
 10
131.4417094741
 20
87.4329358225
 10
131.4394063091
 20
87.4344172443
 10
131.4374147374
 20
87.4363088002
 10
131.435722227
 20
87.4385839142
 10
131.4343383615
 20
87.441229333
 10
131.4332722569
 20
87.4442365994
 10
131.4325097143
 20
87.4475859452
 10
131.432055387
 20
87.4512645504
 10
131.4319191914
 20
87.4552644851
 10
131.4320939095
 20
87.4595749093
 10
131.4325820206
 20
87.4641854947
 10
131.4333922908
 20
87.4690878566
 10
131.4345262972
 20
87.474275628
 10
131.4359852338
 20
87.4797391387
 10
131.4377764185
 20
87.4854706331
 10
131.4399100847
 20
87.4914674598
 10
131.4423916812
 20
87.4977232922
 10
131.4452218216
 20
87.5042279189
 10
131.44840294
 20
87.5109732276
  0
LWPOLYLINE
  5
431
100
AcDbEntity
  8
IMPORT_IGES
100
AcDbPolyline
 62
7
  6
CONTINUOUS
 90
30
 70
0
 10
131.4730241883
 20
87.438600957
 10
131.4690508534
 20
87.4364802287
 10
131.4652408879
 20
87.4347078052
 10
131.4616013496
 20
87.4332843894
 10
131.4581394614
 20
87.4322113298
 10
131.4548505367
 20
87.4314869913
 10
131.4517335573
 20
87.4311122101
 10
131.4488021553
 20
87.4310915015
 10
131.4460732649
 20
87.4314293661
 10
131.4435521397
 20
87.4321306574
 10
131.4412474234
 20
87.4331923454
 10
131.4391827199
 20
87.434600222
 10
131.4373753875
 20
87.4363457553
 10
131.4358238451
 20
87.4384246839
 10
131.4345239689
 20
87.4408232513
 10
131.4334817189
 20
87.4435325192
 10
131.4327045005
 20
87.4465480569
 10
131.4321898012
 20
87.4498631998
 10
131.43194106
 20
87.453471744
 10
131.4319660482
 20
87.4573676037
 10
131.432268263
 20
87.4615450753
 10
131.432850311
 20
87.4659965976
 10
131.4337189236
 20
87.470717245
 10
131.4348833747
 20
87.4757055864
 10
131.4363452906
 20
87.480955269
 10
131.4381106944
 20
87.4864604516
 10
131.4401950273
 20
87.4922205264
 10
131.4426053728
 20
87.4982310765
 10
131.4453405035
 20
87.5044840319
 10
131.44840294
 20
87.5109732276
  0
LWPOLYLINE
  5
432
100
AcDbEntity
  8
0
100
AcDbPolyline
 62
7
  6
CONTINUOUS
 90
28
 70
0
 10
128.6685746904
 20
87.0960741688
 10
128.6641075395
 20
87.0937620355
 10
128.6591177704
 20
87.0919066741
 10
128.6536071574
 20
87.0905091099
 10
128.6475390066
 20
87.0895552258
 10
128.6409548938
 20
87.0890619591
 10
128.6339819762
 20
87.0890815215
 10
128.626648302
 20
87.0896496585
 10
128.6189488453
 20
87.0907439165
 10
128.6109689891
 20
87.0923337319
 10
128.602734094
 20
87.0944291108
 10
128.5942416485
 20
87.0970332383
 10
128.5855359057
 20
87.1001057101
 10
128.5766341777
 20
87.1036474524
 10
128.5675378383
 20
87.1076683264
 10
128.5582662552
 20
87.1121407663
 10
128.5488316224
 20
87.1170630389
 10
128.5392363108
 20
87.1224452855
 10
128.5294840404
 20
87.1282772253
 10
128.5195818528
 20
87.1345577045
 10
128.5095339609
 20
87.1412943737
 10
128.499339204
 20
87.1484897908
 10
128.4890032691
 20
87.1561421506
 10
128.47852899
 20
87.164258177
 10
128.4679103846
 20
87.1728529078
 10
128.4571474866
 20
87.1819325262
 10
128.4462463057
 20
87.1914943374
 10
128.4352092651
 20
87.2015397402
  0
LWPOLYLINE
  5
433
100
AcDbEntity
  8
IMPORT_IGES
100
AcDbPolyline
 62
7
  6
CONTINUOUS
 90
3
 70
0
 10
128.1733996013
 20
89.7684910377
 10
128.0921837758
 20
89.7389023376
 10
128.0349212013
 20
89.7096996464
  0
LWPOLYLINE
  5
434
100
AcDbEntity
  8
RACCORDO
100
AcDbPolyline
 62
250
  6
CONTINUOUS
 90
13
 70
0
 10
142.5639573559
 20
106.6057544365
 10
142.2773384644
 20
106.5810745985
 10
142.1970986723
 20
106.578108081
 10
142.1170655532
 20
106.5788969854
 10
142.036662682
 20
106.5834896154
 10
141.9564664838
 20
106.5918376672
 10
141.8782062339
 20
106.6037962298
 10
141.8019351486
 20
106.6194653307
 10
141.7276000116
 20
106.6387449423
 10
141.6567704496
 20
106.661190071
 10
141.5899696715
 20
106.6866523855
 10
141.5266744685
 20
106.715280217
 10
141.4668848404
 20
106.7470735657
  0
LWPOLYLINE
  5
435
100
AcDbEntity
  8
RACCORDO
100
AcDbPolyline
 62
250
  6
CONTINUOUS
 90
9
 70
0
 10
143.5573402111
 20
104.8749532075
 10
143.4397602246
 20
104.8984952912
 10
143.3196439384
 20
104.9172901706
 10
143.1975655204
 20
104.9312480042
 10
143.074108518
 20
104.9403020722
 10
142.9498630681
 20
104.9444090951
 10
142.8254230768
 20
104.9435494409
 10
142.7013833797
 20
104.937727219
 10
142.4377107945
 20
104.9144907924
  0
LWPOLYLINE
  5
436
100
AcDbEntity
  8
RACCORDO
100
AcDbPolyline
 62
250
  6
CONTINUOUS
 90
16
 70
0
 10
132.559144096
 20
111.1554918552
 10
132.4570744519
 20
111.2100382282
 10
132.3480155526
 20
111.2598715858
 10
132.2326184899
 20
111.3046944233
 10
132.1115721795
 20
111.3442391539
 10
131.9855992905
 20
111.3782696913
 10
131.8554519371
 20
111.4065828663
 10
131.721907178
 20
111.4290096484
 10
131.5857622205
 20
111.4454161748
 10
131.4478296982
 20
111.4557045169
 10
131.3089330006
 20
111.4598132431
 10
131.1699014139
 20
111.4577178068
 10
131.0315650123
 20
111.4494307114
 10
130.8947496875
 20
111.4350014293
 10
130.7602722192
 20
111.4145160995
 10
130.4684128777
 20
111.3558070533
  0
LINE
  5
437
100
AcDbEntity
  8
RACCORDO
100
AcDbLine
 62
250
  6
CONTINUOUS
 10
140.618356703
 20
105.2773797215
 11
134.1645813351
 21
109.0037087342
  0
LINE
  5
438
100
AcDbEntity
  8
RACCORDO
100
AcDbLine
 62
250
  6
CONTINUOUS
 10
129.1183196792
 20
113.1420860579
 11
124.8756789921
 21
115.5917336179
  0
LINE
  5
439
100
AcDbEntity
  8
RACCORDO
100
AcDbLine
 62
250
  6
CONTINUOUS
 10
133.0173012903
 20
110.8909576332
 11
132.559144096
 21
111.1554918552
  0
LWPOLYLINE
  5
43A
100
AcDbEntity
  8
RACCORDO
100
AcDbPolyline
 62
250
  6
CONTINUOUS
 90
12
 70
0
 10
134.1645813351
 20
109.0037087342
 10
134.0529096741
 20
109.073188069
 10
133.9505221583
 20
109.1472820407
 10
133.8579889194
 20
109.2255780685
 10
133.7758252155
 20
109.3076401751
 10
133.7044885674
 20
109.3930114085
 10
133.6443762084
 20
109.4812163862
 10
133.5958228657
 20
109.5717639516
 10
133.5590989015
 20
109.6641499035
 10
133.5344088091
 20
109.7578597981
 10
133.5218900696
 20
109.8523718232
 10
133.5202162537
 20
109.9019128395
  0
LWPOLYLINE
  5
43B
100
AcDbEntity
  8
RACCORDO
100
AcDbPolyline
 62
250
  6
CONTINUOUS
 90
13
 70
0
 10
135.0131094725
 20
110.4734025783
 10
134.962138429
 20
110.5051500725
 10
134.915792
 20
110.5386685163
 10
134.8740701854
 20
110.5739579097
 10
134.8367602925
 20
110.6112530015
 10
134.804075014
 20
110.650319043
 10
134.7766524285
 20
110.6904517878
 10
134.7546170866
 20
110.7316766998
 10
134.7378444376
 20
110.7739683152
 10
134.7265989079
 20
110.816545997
 10
134.7209686397
 20
110.8591495327
 10
134.7208654908
 20
110.9020391347
 10
134.7262894613
 20
110.9452148031
  0
LWPOLYLINE
  5
43C
100
AcDbEntity
  8
RACCORDO
100
AcDbPolyline
 62
250
  6
CONTINUOUS
 90
19
 70
0
 10
124.8756789921
 20
115.5917336179
 10
124.8165537575
 20
115.629023589
 10
124.7638345265
 20
115.6686306607
 10
124.7175212991
 20
115.7105548328
 10
124.6772948987
 20
115.7551942719
 10
124.6434745019
 20
115.8021508115
 10
124.6170176381
 20
115.8502299524
 10
124.5981622905
 20
115.8994077268
 10
124.5866704758
 20
115.9497081026
 10
124.5827857732
 20
116.0000084845
 10
124.5866705324
 20
116.0503088438
 10
124.5981624037
 20
116.1006092092
 10
124.6170179181
 20
116.149787072
 10
124.6434752369
 20
116.197866554
 10
124.6772961987
 20
116.2448235334
 10
124.7175228504
 20
116.2894631356
 10
124.7638358743
 20
116.3313870691
 10
124.8165545882
 20
116.3709936254
 10
124.8756789921
 20
116.4082828045
  0
LWPOLYLINE
  5
43D
100
AcDbEntity
  8
RACCORDO
100
AcDbPolyline
 62
250
  6
CONTINUOUS
 90
19
 70
0
 10
146.1595931058
 20
105.0991712612
 10
146.1563642
 20
105.186427679
 10
146.1467020567
 20
105.2767486822
 10
146.1306802106
 20
105.3694468734
 10
146.1084205976
 20
105.4638167634
 10
146.0800926268
 20
105.5591401404
 10
146.0459118912
 20
105.6546915359
 10
146.0061385267
 20
105.749743746
 10
145.9610752328
 20
105.8435733662
 10
145.9110649683
 20
105.9354662962
 10
145.8564883415
 20
106.0247231755
 10
145.7977607135
 20
106.1106647053
 10
145.735329037
 20
106.1926368186
 10
145.6696684548
 20
106.2700156582
 10
145.6012786835
 20
106.3422123243
 10
145.5306802106
 20
106.4086773568
 10
145.4584103331
 20
106.4689049167
 10
145.3850190684
 20
106.5224366358
 10
145.3110649683
 20
106.5688651053
  0
LINE
  5
43E
100
AcDbEntity
  8
RACCORDO
100
AcDbLine
 62
250
  6
CONTINUOUS
 10
146.1595931058
 20
84.6221446538
 11
146.1595931058
 21
105.0991712612
  0
LWPOLYLINE
  5
43F
100
AcDbEntity
  8
0
100
AcDbPolyline
 62
7
  6
CONTINUOUS
 90
10
 70
0
 10
144.8698656922
 20
80.837280678
 10
144.8716661986
 20
80.8628644096
 10
144.8761057184
 20
80.8884849004
 10
144.8831842518
 20
80.9141421505
 10
144.8931384739
 20
80.9403297117
 10
144.9057317095
 20
80.9665540321
 10
144.9202539333
 20
80.991334456
 10
144.93646847
 20
81.0141774317
 10
144.954611995
 20
81.035576511
 10
144.9746845081
 20
81.0555316939
  0
LWPOLYLINE
  5
440
100
AcDbEntity
  8
IMPORT_IGES
100
AcDbPolyline
 62
250
  6
CONTINUOUS
 90
7
 70
0
 10
142.634524734
 20
81.2327216404
 10
142.6565865953
 20
81.3158084553
 10
142.6843485643
 20
81.3923720929
 10
142.7178106411
 20
81.4624125531
 10
142.7572285818
 20
81.5262295318
 10
142.8023466303
 20
81.5835233332
 10
142.8033444704
 20
81.5845175976
  0
LWPOLYLINE
  5
441
100
AcDbEntity
  8
0
100
AcDbPolyline
 62
250
  6
CONTINUOUS
 90
6
 70
0
 10
142.634524734
 20
81.2327216404
 10
142.662000466
 20
81.3321068279
 10
142.69746432
 20
81.4217885801
 10
142.7409162959
 20
81.5017668969
 10
142.7928361079
 20
81.572488252
 10
142.8043196361
 20
81.5841845493
  0
LWPOLYLINE
  5
442
100
AcDbEntity
  8
RACCORDO
100
AcDbPolyline
 62
250
  6
CONTINUOUS
 90
12
 70
0
 10
142.5783368989
 20
85.0636311321
 10
142.5463268677
 20
84.9771629012
 10
142.5127306801
 20
84.8971516206
 10
142.4778309684
 20
84.8242704071
 10
142.4419213338
 20
84.7591323993
 10
142.4053038698
 20
84.7022855876
 10
142.368286621
 20
84.6542082086
 10
142.3311810014
 20
84.6153047378
 10
142.2942991704
 20
84.5859024752
 10
142.2579514009
 20
84.5662487878
 10
142.2224434777
 20
84.5565090373
 10
142.1897882119
 20
84.5565108383
  0
LWPOLYLINE
  5
443
100
AcDbEntity
  8
0
100
AcDbPolyline
 62
7
  6
CONTINUOUS
 90
5
 70
0
 10
139.1365866444
 20
83.6574678715
 10
139.1243723254
 20
83.6345364208
 10
139.0892941566
 20
83.5510063716
 10
139.0604423245
 20
83.4610260331
 10
139.0394011938
 20
83.3713128624
  0
LWPOLYLINE
  5
444
100
AcDbEntity
  8
IMPORT_IGES
100
AcDbPolyline
 62
7
  6
CONTINUOUS
 90
5
 70
0
 10
139.1365866444
 20
83.6574678715
 10
139.1243723254
 20
83.6345364208
 10
139.0892941566
 20
83.5510063716
 10
139.0604423245
 20
83.4610260331
 10
139.0394011938
 20
83.3713128624
  0
LWPOLYLINE
  5
445
100
AcDbEntity
  8
IMPORT_IGES
100
AcDbPolyline
 62
7
  6
CONTINUOUS
 90
4
 70
0
 10
139.0529925841
 20
82.8304396794
 10
139.0448157664
 20
82.816123155
 10
139.0397535665
 20
82.8009850366
 10
139.0381419945
 20
82.7858946717
  0
LWPOLYLINE
  5
446
100
AcDbEntity
  8
0
100
AcDbPolyline
 62
7
  6
CONTINUOUS
 90
4
 70
0
 10
139.0528287373
 20
82.8302100213
 10
139.044697077
 20
82.8159955592
 10
139.039716235
 20
82.8010318424
 10
139.0381316461
 20
82.7860071918
  0
LWPOLYLINE
  5
447
100
AcDbEntity
  8
IMPORT_IGES
100
AcDbPolyline
 62
7
  6
CONTINUOUS
 90
5
 70
0
 10
138.5194707519
 20
83.4282272944
 10
138.5504020553
 20
83.4805425408
 10
138.5881099838
 20
83.5281549315
 10
138.6325945372
 20
83.5710644665
 10
138.6710620001
 20
83.5997355596
  0
LWPOLYLINE
  5
448
100
AcDbEntity
  8
0
100
AcDbPolyline
 62
7
  6
CONTINUOUS
 90
10
 70
0
 10
135.7525726247
 20
83.0252365064
 10
135.7513898325
 20
83.0236037679
 10
135.7501407804
 20
83.0220483511
 10
135.7488263239
 20
83.0205707497
 10
135.7474462158
 20
83.0191728635
 10
135.7460023771
 20
83.0178537591
 10
135.7444989241
 20
83.0166096858
 10
135.742937794
 20
83.0154397196
 10
135.7413187163
 20
83.0143457467
 10
135.7396425023
 20
83.0133282355
  0
LWPOLYLINE
  5
449
100
AcDbEntity
  8
IMPORT_IGES
100
AcDbPolyline
 62
7
  6
CONTINUOUS
 90
34
 70
0
 10
135.7525726247
 20
83.0252365064
 10
135.7497185149
 20
83.0215705829
 10
135.7464855871
 20
83.0182910211
 10
135.7428810458
 20
83.0154019805
 10
135.7389112167
 20
83.0129123264
 10
135.7345843955
 20
83.0108216355
 10
135.7299104883
 20
83.0091199892
 10
135.7249036144
 20
83.0078074052
 10
135.7195639336
 20
83.0068921101
 10
135.713879272
 20
83.0063758397
 10
135.707847767
 20
83.0062585483
 10
135.7014839094
 20
83.006547573
 10
135.6947997086
 20
83.0072555232
 10
135.6877816672
 20
83.0083962846
 10
135.680457193
 20
83.0099640029
 10
135.6729012383
 20
83.011942592
 10
135.6651396829
 20
83.0143371517
 10
135.6571624291
 20
83.0171516936
 10
135.6489911412
 20
83.0203688915
 10
135.640638847
 20
83.0239880983
 10
135.6321058836
 20
83.0280176766
 10
135.6233943213
 20
83.032453493
 10
135.6145091808
 20
83.0372966175
 10
135.6054566487
 20
83.0425524499
 10
135.5962400548
 20
83.0482230682
 10
135.5868665775
 20
83.0543073347
 10
135.5773383712
 20
83.0608117747
 10
135.5676508197
 20
83.0677497237
 10
135.5578081201
 20
83.075120633
 10
135.5478137182
 20
83.0829294634
 10
135.5376614431
 20
83.0911975674
 10
135.5273511722
 20
83.0999331792
 10
135.5168888778
 20
83.1091314414
 10
135.506277077
 20
83.118793807
  0
LWPOLYLINE
  5
44A
100
AcDbEntity
  8
IMPORT_IGES
100
AcDbPolyline
 62
7
  6
CONTINUOUS
 90
16
 70
0
 10
133.4385762662
 20
84.4749387322
 10
133.5081696869
 20
84.5253599704
 10
133.5709904005
 20
84.5853749364
 10
133.6270467551
 20
84.655252299
 10
133.6763304026
 20
84.7347233894
 10
133.717750075
 20
84.8222021842
 10
133.7511027881
 20
84.9178524268
 10
133.7765915261
 20
85.0215103737
 10
133.7937339732
 20
85.1310987715
 10
133.802363174
 20
85.2466763471
 10
133.8026460838
 20
85.3681843735
 10
133.7946012528
 20
85.4933694165
 10
133.7780870571
 20
85.6223033333
 10
133.7532451206
 20
85.7549142667
 10
133.7205188647
 20
85.8887332104
 10
133.6797406075
 20
86.0238341177
  0
LINE
  5
44B
100
AcDbEntity
  8
0
100
AcDbLine
 62
7
  6
CONTINUOUS
 10
132.378320939
 20
87.1545251712
 11
132.0248153818
 21
86.950415493
  0
LINE
  5
44C
100
AcDbEntity
  8
IMPORT_IGES
100
AcDbLine
 62
7
  6
CONTINUOUS
 10
132.0248153818
 20
86.950415493
 11
132.378320939
 21
87.1545251712
  0
LWPOLYLINE
  5
44D
100
AcDbEntity
  8
0
100
AcDbPolyline
 62
7
  6
CONTINUOUS
 90
10
 70
0
 10
131.4737492479
 20
86.3197207001
 10
131.4754862472
 20
86.3206715508
 10
131.4772561454
 20
86.3215320214
 10
131.4790582772
 20
86.3223017275
 10
131.480891361
 20
86.3229812714
 10
131.4827553347
 20
86.3235692751
 10
131.4846513517
 20
86.3240623789
 10
131.4865793362
 20
86.3244591971
 10
131.4885379878
 20
86.3247603209
 10
131.4905266136
 20
86.3249653502
  0
LINE
  5
44E
100
AcDbEntity
  8
0
100
AcDbLine
 62
7
  6
CONTINUOUS
 10
131.6535232991
 20
87.7081354111
 11
131.5704559361
 21
87.6683252348
  0
LWPOLYLINE
  5
44F
100
AcDbEntity
  8
IMPORT_IGES
100
AcDbPolyline
 62
7
  6
CONTINUOUS
 90
3
 70
0
 10
129.9121617801
 20
86.5240244712
 10
129.8678719883
 20
86.5049550677
 10
129.8084650286
 20
86.4878918986
  0
LWPOLYLINE
  5
450
100
AcDbEntity
  8
IMPORT_IGES
100
AcDbPolyline
 62
7
  6
CONTINUOUS
 90
3
 70
0
 10
131.7089335072
 20
87.7271180711
 10
131.6277176818
 20
87.697529371
 10
131.5704551072
 20
87.6683266798
  0
LWPOLYLINE
  5
451
100
AcDbEntity
  8
RACCORDO
100
AcDbPolyline
 62
250
  6
CONTINUOUS
 90
9
 70
0
 10
144.2557630761
 20
106.4358996577
 10
143.9884087826
 20
106.5012883599
 10
143.7930248095
 20
106.5404260543
 10
143.5941079345
 20
106.5715532759
 10
143.3904963359
 20
106.5947552148
 10
143.1833518354
 20
106.6099466808
 10
142.976159898
 20
106.6168721031
 10
142.7700823454
 20
106.6154462916
 10
142.5639573559
 20
106.6057544365
  0
LWPOLYLINE
  5
452
100
AcDbEntity
  8
RACCORDO
100
AcDbPolyline
 62
250
  6
CONTINUOUS
 90
19
 70
0
 10
133.4076722334
 20
112.6251856993
 10
133.2668697275
 20
112.7014396638
 10
133.1187339159
 20
112.7719273824
 10
132.9632647985
 20
112.8366488551
 10
132.7996167866
 20
112.8958966742
 10
132.628635469
 20
112.9493782473
 10
132.4528576119
 20
112.996215798
 10
132.2723784037
 20
113.0362487556
 10
132.0871026559
 20
113.0696376907
 10
131.8992815701
 20
113.0959865386
 10
131.7088859696
 20
113.1152156598
 10
131.515945031
 20
113.1274046936
 10
131.322797485
 20
113.1323964936
 10
131.1292448753
 20
113.1300657188
 10
130.9354856583
 20
113.1205377101
 10
130.744453934
 20
113.1040313431
 10
130.5571277358
 20
113.0806195765
 10
130.3725290304
 20
113.0502294515
 10
130.1906578177
 20
113.0128609683
  0
LINE
  5
453
100
AcDbEntity
  8
RACCORDO
100
AcDbLine
 62
250
  6
CONTINUOUS
 10
141.4668848404
 20
106.7470735657
 11
135.0131094725
 21
110.4734025783
  0
LINE
  5
454
100
AcDbEntity
  8
RACCORDO
100
AcDbLine
 62
250
  6
CONTINUOUS
 10
133.8658294277
 20
112.3606514774
 11
133.4076722334
 21
112.6251856993
  0
LINE
  5
455
100
AcDbEntity
  8
0
100
AcDbLine
 62
7
  6
CONTINUOUS
 10
147.9104248513
 20
78.2668076995
 11
147.9104248513
 21
77.7376926765
  0
LINE
  5
456
100
AcDbEntity
  8
IMPORT_IGES
100
AcDbLine
 62
7
  6
CONTINUOUS
 10
147.9104248513
 20
78.2668076995
 11
147.9104248513
 21
77.7376926765
  0
LINE
  5
457
100
AcDbEntity
  8
0
100
AcDbLine
 62
7
  6
CONTINUOUS
 10
148.4053995982
 20
78.9624257101
 11
148.4053995982
 21
78.227602461
  0
LINE
  5
458
100
AcDbEntity
  8
IMPORT_IGES
100
AcDbLine
 62
7
  6
CONTINUOUS
 10
148.4053995982
 20
78.227602461
 11
148.4053995982
 21
78.9624257101
  0
LWPOLYLINE
  5
459
100
AcDbEntity
  8
IMPORT_IGES
100
AcDbPolyline
 62
7
  6
CONTINUOUS
 90
18
 70
0
 10
143.1147178221
 20
79.5179025251
 10
143.1066262649
 20
79.4896989891
 10
143.0973239088
 20
79.4603681293
 10
143.0869637125
 20
79.4304348814
 10
143.0755433325
 20
79.3998992868
 10
143.063035051
 20
79.3687397187
 10
143.0494431075
 20
79.3369603749
 10
143.0347632624
 20
79.3045570577
 10
143.0189550789
 20
79.2714955476
 10
143.0020240065
 20
79.23778032
 10
142.9839645957
 20
79.2034068995
 10
142.9647200615
 20
79.1683276407
 10
142.9442941146
 20
79.1325430918
 10
142.9226830442
 20
79.0960527045
 10
142.8998189329
 20
79.0588071881
 10
142.8756791417
 20
79.0207901122
 10
142.8502863096
 20
78.9820179072
 10
142.8236404366
 20
78.9424905731
  0
LWPOLYLINE
  5
45A
100
AcDbEntity
  8
RACCORDO
100
AcDbPolyline
 62
250
  6
CONTINUOUS
 90
19
 70
0
 10
151.9991575182
 20
109.2056621406
 10
151.9771625854
 20
109.1438603499
 10
151.9548684065
 20
109.0750022746
 10
151.9324873106
 20
108.9995050825
 10
151.910261306
 20
108.917737621
 10
151.8883911968
 20
108.8303352486
 10
151.8670457895
 20
108.7382542143
 10
151.8464343644
 20
108.6422240538
 10
151.8268144753
 20
108.5429238336
 10
151.8084212972
 20
108.4413561051
 10
151.7914920068
 20
108.3384245609
 10
151.7761667333
 20
108.2347937145
 10
151.7625190469
 20
108.1311335731
 10
151.7506864134
 20
108.0281971344
 10
151.7408302852
 20
107.9267873771
 10
151.7330454292
 20
107.8276392124
 10
151.7274185511
 20
107.7314927869
 10
151.7240235685
 20
107.6390860536
 10
151.7229011444
 20
107.5511201475
  0
LWPOLYLINE
  5
45B
100
AcDbEntity
  8
0
100
AcDbPolyline
 62
7
  6
CONTINUOUS
 90
26
 70
0
 10
138.4954416496
 20
83.4689351877
 10
138.4346354083
 20
83.3941636908
 10
138.3822850854
 20
83.3083882158
 10
138.3383260817
 20
83.2119519769
 10
138.3038521908
 20
83.1071372672
 10
138.2791261903
 20
82.9937997694
 10
138.2638853024
 20
82.8720838007
 10
138.2584349877
 20
82.7447046059
 10
138.2629690891
 20
82.6115911783
 10
138.2772937636
 20
82.4728145245
 10
138.3011329419
 20
82.3313029093
 10
138.3346964415
 20
82.1869291212
 10
138.3777744449
 20
82.0398203716
 10
138.4294614303
 20
81.8932865602
 10
138.4898739003
 20
81.7474399029
 10
138.5588953522
 20
81.6021681837
 10
138.6352707558
 20
81.4604446538
 10
138.7193050528
 20
81.3221036988
 10
138.8106933015
 20
81.1873109332
 10
138.9072656464
 20
81.0595364519
 10
139.00921218
 20
80.9389821148
 10
139.1163428099
 20
80.8254460619
 10
139.2259174034
 20
80.7217928085
 10
139.337022583
 20
80.6289771928
 10
139.4505717263
 20
80.5460443765
 10
139.5665648333
 20
80.4729943595
  0
LWPOLYLINE
  5
45C
100
AcDbEntity
  8
0
100
AcDbPolyline
 62
7
  6
CONTINUOUS
 90
3
 70
0
 10
135.105989842
 20
85.6269522682
 10
135.0291053042
 20
85.5744188874
 10
134.9599077436
 20
85.5103081543
  0
LWPOLYLINE
  5
45D
100
AcDbEntity
  8
0
100
AcDbPolyline
 62
7
  6
CONTINUOUS
 90
15
 70
0
 10
133.4205381069
 20
84.464095375
 10
133.4974226446
 20
84.5166287558
 10
133.5666202052
 20
84.5807394888
 10
133.6274264465
 20
84.6555109857
 10
133.6797767694
 20
84.7412864607
 10
133.723735773
 20
84.8377226996
 10
133.758209664
 20
84.9425374093
 10
133.7829356645
 20
85.0558749071
 10
133.7981765523
 20
85.1775908758
 10
133.8036268671
 20
85.3049700706
 10
133.7990927657
 20
85.4380834982
 10
133.7847680912
 20
85.576860152
 10
133.7609289129
 20
85.7183717672
 10
133.7273654133
 20
85.8627455553
 10
133.6842874098
 20
86.0098543049
  0
LWPOLYLINE
  5
45E
100
AcDbEntity
  8
0
100
AcDbPolyline
 62
7
  6
CONTINUOUS
 90
4
 70
0
 10
135.5603492878
 20
84.9090425264
 10
135.5428469839
 20
84.8973052681
 10
135.5284954985
 20
84.8848187553
 10
135.5173953561
 20
84.8717017775
  0
LWPOLYLINE
  5
45F
100
AcDbEntity
  8
IMPORT_IGES
100
AcDbPolyline
 62
7
  6
CONTINUOUS
 90
4
 70
0
 10
135.5603492878
 20
84.9090425264
 10
135.5429378001
 20
84.8974541602
 10
135.5286409302
 20
84.8850442001
 10
135.5174586781
 20
84.871812646
  0
LWPOLYLINE
  5
460
100
AcDbEntity
  8
IMPORT_IGES
100
AcDbPolyline
 62
7
  6
CONTINUOUS
 90
31
 70
0
 10
135.1059890131
 20
85.6269537132
 10
135.0879516826
 20
85.6161089109
 10
135.0183582619
 20
85.5656876727
 10
134.9555375484
 20
85.5056727068
 10
134.8994811937
 20
85.4357953441
 10
134.8501975462
 20
85.3563242537
 10
134.8087778739
 20
85.2688454589
 10
134.7754251607
 20
85.1731952163
 10
134.7499364227
 20
85.0695372694
 10
134.7327939757
 20
84.9599488716
 10
134.7241647749
 20
84.844371296
 10
134.723881865
 20
84.7228632696
 10
134.7319266961
 20
84.5976782266
 10
134.7484408917
 20
84.4687443098
 10
134.7732828283
 20
84.3361333764
 10
134.8060090842
 20
84.2023144327
 10
134.8467873413
 20
84.0672135254
 10
134.8954499179
 20
83.9309046078
 10
134.9510503466
 20
83.7960785456
 10
135.0136236987
 20
83.6629052345
 10
135.0831349031
 20
83.5312147789
 10
135.1585322789
 20
83.403188357
 10
135.2400630043
 20
83.2786591347
 10
135.3274799011
 20
83.1577939462
 10
135.4189897543
 20
83.0432744724
 10
135.5147127365
 20
82.9352691873
 10
135.614528675
 20
82.8336096169
 10
135.7162838367
 20
82.7404720198
 10
135.8192603105
 20
82.6565818153
 10
135.9241760074
 20
82.5812135841
 10
136.0310309274
 20
82.5143673262
  0
LINE
  5
461
100
AcDbEntity
  8
IMPORT_IGES
100
AcDbLine
 62
7
  6
CONTINUOUS
 10
133.4205389357
 20
84.46409393
 11
133.4385762662
 21
84.4749387322
  0
LINE
  5
462
100
AcDbEntity
  8
0
100
AcDbLine
 62
7
  6
CONTINUOUS
 10
133.7092749229
 20
84.8043025716
 11
133.1734852505
 21
84.4950041215
  0
LINE
  5
463
100
AcDbEntity
  8
IMPORT_IGES
100
AcDbLine
 62
7
  6
CONTINUOUS
 10
133.7092749229
 20
84.8043025716
 11
133.1734852505
 21
84.4950041215
  0
LINE
  5
464
100
AcDbEntity
  8
0
100
AcDbLine
 62
250
  6
CONTINUOUS
 10
134.9839368459
 20
85.469600261
 11
135.4029872933
 21
85.7115079733
  0
LINE
  5
465
100
AcDbEntity
  8
IMPORT_IGES
100
AcDbLine
 62
250
  6
CONTINUOUS
 10
134.9839368459
 20
85.469600261
 11
135.4029872933
 21
85.7115079733
  0
LINE
  5
466
100
AcDbEntity
  8
0
100
AcDbLine
 62
250
  6
CONTINUOUS
 10
133.6415089172
 20
84.6785728901
 11
133.2231312806
 21
84.4370535753
  0
LINE
  5
467
100
AcDbEntity
  8
IMPORT_IGES
100
AcDbLine
 62
250
  6
CONTINUOUS
 10
133.6415089172
 20
84.6785728901
 11
133.2231312806
 21
84.4370535753
  0
LINE
  5
468
100
AcDbEntity
  8
0
100
AcDbLine
 62
7
  6
CONTINUOUS
 10
135.0092763184
 20
85.3976386269
 11
135.5445986964
 21
85.7066673193
  0
LINE
  5
469
100
AcDbEntity
  8
IMPORT_IGES
100
AcDbLine
 62
7
  6
CONTINUOUS
 10
135.0092763184
 20
85.3976386269
 11
135.5445986964
 21
85.7066673193
  0
LWPOLYLINE
  5
46A
100
AcDbEntity
  8
0
100
AcDbPolyline
 62
7
  6
CONTINUOUS
 90
28
 70
0
 10
135.0092758337
 20
85.3976383472
 10
135.005048365
 20
85.3953391101
 10
135.0009475548
 20
85.3934059869
 10
134.9969824655
 20
85.3918585313
 10
134.9931223356
 20
85.3907018862
 10
134.9894027452
 20
85.3899657789
 10
134.9859329676
 20
85.3896856101
 10
134.9827582664
 20
85.389868693
 10
134.9798564342
 20
85.3905010786
 10
134.97724338
 20
85.3915628559
 10
134.9749402151
 20
85.3930442777
 10
134.9729486433
 20
85.3949358335
 10
134.9712561329
 20
85.3972109476
 10
134.9698722674
 20
85.3998563664
 10
134.9688061628
 20
85.4028636328
 10
134.9680436203
 20
85.4062129786
 10
134.9675892929
 20
85.4098915838
 10
134.9674530974
 20
85.4138915185
 10
134.9676278155
 20
85.4182019426
 10
134.9681159265
 20
85.4228125281
 10
134.9689261967
 20
85.42771489
 10
134.9700602032
 20
85.4329026614
 10
134.9715191397
 20
85.438366172
 10
134.9733103244
 20
85.4440976664
 10
134.9754439907
 20
85.4500944932
 10
134.9779255872
 20
85.4563503256
 10
134.9807557276
 20
85.4628549523
 10
134.9839368459
 20
85.469600261
  0
LWPOLYLINE
  5
46B
100
AcDbEntity
  8
IMPORT_IGES
100
AcDbPolyline
 62
7
  6
CONTINUOUS
 90
30
 70
0
 10
135.0085580942
 20
85.3972279903
 10
135.0045847594
 20
85.3951072621
 10
135.0007747939
 20
85.3933348385
 10
134.9971352556
 20
85.3919114228
 10
134.9936733673
 20
85.3908383631
 10
134.9903844426
 20
85.3901140247
 10
134.9872674633
 20
85.3897392435
 10
134.9843360613
 20
85.3897185349
 10
134.9816071708
 20
85.3900563994
 10
134.9790860456
 20
85.3907576907
 10
134.9767813294
 20
85.3918193788
 10
134.9747166259
 20
85.3932272553
 10
134.9729092934
 20
85.3949727887
 10
134.971357751
 20
85.3970517173
 10
134.9700578748
 20
85.3994502847
 10
134.9690156248
 20
85.4021595526
 10
134.9682384064
 20
85.4051750903
 10
134.9677237071
 20
85.4084902331
 10
134.9674749659
 20
85.4120987774
 10
134.9674999541
 20
85.415994637
 10
134.9678021689
 20
85.4201721087
 10
134.9683842169
 20
85.4246236309
 10
134.9692528295
 20
85.4293442783
 10
134.9704172806
 20
85.4343326198
 10
134.9718791966
 20
85.4395823024
 10
134.9736446003
 20
85.445087485
 10
134.9757289332
 20
85.4508475598
 10
134.9781392788
 20
85.4568581099
 10
134.9808744095
 20
85.4631110653
 10
134.9839368459
 20
85.469600261
  0
LWPOLYLINE
  5
46C
100
AcDbEntity
  8
0
100
AcDbPolyline
 62
7
  6
CONTINUOUS
 90
28
 70
0
 10
132.2041085964
 20
85.0547012021
 10
132.1996414454
 20
85.0523890688
 10
132.1946516763
 20
85.0505337075
 10
132.1891410634
 20
85.0491361432
 10
132.1830729126
 20
85.0481822592
 10
132.1764887998
 20
85.0476889924
 10
132.1695158821
 20
85.0477085548
 10
132.1621822079
 20
85.0482766919
 10
132.1544827513
 20
85.0493709499
 10
132.146502895
 20
85.0509607652
 10
132.1382679999
 20
85.0530561442
 10
132.1297755544
 20
85.0556602717
 10
132.1210698116
 20
85.0587327435
 10
132.1121680836
 20
85.0622744857
 10
132.1030717443
 20
85.0662953597
 10
132.0938001611
 20
85.0707677996
 10
132.0843655284
 20
85.0756900722
 10
132.0747702167
 20
85.0810723189
 10
132.0650179463
 20
85.0869042587
 10
132.0551157588
 20
85.0931847379
 10
132.0450678668
 20
85.0999214071
 10
132.03487311
 20
85.1071168242
 10
132.024537175
 20
85.114769184
 10
132.0140628959
 20
85.1228852104
 10
132.0034442906
 20
85.1314799412
 10
131.9926813925
 20
85.1405595596
 10
131.9817802116
 20
85.1501213708
 10
131.9707431711
 20
85.1601667736
  0
LWPOLYLINE
  5
46D
100
AcDbEntity
  8
RACCORDO
100
AcDbPolyline
 62
250
  6
CONTINUOUS
 90
13
 70
0
 10
151.722901146
 20
107.5511201434
 10
151.8179367871
 20
107.5378581433
 10
151.9146372124
 20
107.5295209364
 10
152.0122384762
 20
107.5261744887
 10
152.1099694209
 20
107.5278453393
 10
152.207057979
 20
107.5345203793
 10
152.3027372664
 20
107.5461469892
 10
152.396251502
 20
107.5626334794
 10
152.4868615402
 20
107.583849698
 10
152.5738509681
 20
107.6096279973
 10
152.6565322884
 20
107.6397646992
 10
152.7342523001
 20
107.6740217762
 10
152.8063968489
 20
107.7121286009
  0
LWPOLYLINE
  5
46E
100
AcDbEntity
  8
RACCORDO
100
AcDbPolyline
 62
250
  6
CONTINUOUS
 90
34
 70
0
 10
151.722901146
 20
107.5511201494
 10
151.6634678506
 20
107.5604141848
 10
151.6042823083
 20
107.5684335385
 10
151.545430126
 20
107.5752135401
 10
151.4870588169
 20
107.5807851553
 10
151.4291780272
 20
107.5851944962
 10
151.3716567209
 20
107.5884901092
 10
151.3145504117
 20
107.5907008907
 10
151.2579298053
 20
107.5918557772
 10
151.2016783546
 20
107.5919839717
 10
151.1458570166
 20
107.5911073604
 10
151.0905126275
 20
107.5892485529
 10
151.0355043566
 20
107.5864192912
 10
150.9808824548
 20
107.5826334666
 10
150.926695432
 20
107.5779057407
 10
150.8728014952
 20
107.5722299065
 10
150.8192517951
 20
107.565612415
 10
150.7660939727
 20
107.5580602236
 10
150.7131873045
 20
107.5495490116
 10
150.6605849991
 20
107.540077537
 10
150.6083416665
 20
107.5296457099
 10
150.5563296983
 20
107.5182124686
 10
150.5046043859
 20
107.5057682897
 10
150.4532362816
 20
107.492308051
 10
150.4021355569
 20
107.4777806746
 10
150.3514904179
 20
107.4622101593
 10
150.3012591768
 20
107.4455534324
 10
150.251044655
 20
107.4276252106
 10
150.2010649031
 20
107.4084333548
 10
150.151326181
 20
107.3879074814
 10
150.101206593
 20
107.3656754301
 10
150.0506595558
 20
107.3415456797
 10
150.0001512979
 20
107.3155589684
 10
149.9499081775
 20
107.2876516798
  0
LWPOLYLINE
  5
46F
100
AcDbEntity
  8
RACCORDO
100
AcDbPolyline
 62
250
  6
CONTINUOUS
 90
19
 70
0
 10
149.9499081775
 20
107.2876516798
 10
149.9466792718
 20
107.3749080975
 10
149.9370171285
 20
107.4652291006
 10
149.9209952824
 20
107.5579272917
 10
149.8987356695
 20
107.6522971816
 10
149.8704076987
 20
107.7476205585
 10
149.8362269632
 20
107.8431719539
 10
149.7964535988
 20
107.938224164
 10
149.7513903049
 20
108.0320537841
 10
149.7013800405
 20
108.1239467142
 10
149.6468034137
 20
108.2132035935
 10
149.5880757857
 20
108.2991451233
 10
149.5256441093
 20
108.3811172367
 10
149.459983527
 20
108.4584960763
 10
149.3915937557
 20
108.5306927426
 10
149.3209952827
 20
108.5971577752
 10
149.2487254051
 20
108.6573853351
 10
149.1753341403
 20
108.7109170543
 10
149.1013800401
 20
108.757345524
  0
LINE
  5
470
100
AcDbEntity
  8
RACCORDO
100
AcDbLine
 62
250
  6
CONTINUOUS
 10
149.9499081775
 20
107.2876516798
 11
149.9499081775
 21
85.2176955639
  0
LWPOLYLINE
  5
471
100
AcDbEntity
  8
RACCORDO
100
AcDbPolyline
 62
250
  6
CONTINUOUS
 90
13
 70
0
 10
146.1595931058
 20
84.6221446538
 10
146.1310704082
 20
84.5291623501
 10
146.0963069741
 20
84.4406163572
 10
146.0555673742
 20
84.3571805637
 10
146.0091616614
 20
84.2794899663
 10
145.9574430112
 20
84.2081358374
 10
145.9008050338
 20
84.1436612249
 10
145.8396787784
 20
84.0865568197
 10
145.7745294527
 20
84.0372572208
 10
145.7058528825
 20
83.9961376277
 10
145.6341717378
 20
83.9635109856
 10
145.5600315556
 20
83.9396256028
 10
145.4987443092
 20
83.9268422186
  0
LWPOLYLINE
  5
472
100
AcDbEntity
  8
0
100
AcDbPolyline
 62
7
  6
CONTINUOUS
 90
5
 70
0
 10
142.6721205503
 20
81.6160949049
 10
142.6599062313
 20
81.5931634542
 10
142.6248280625
 20
81.5096334049
 10
142.5959762305
 20
81.4196530665
 10
142.5749350997
 20
81.3299398958
  0
LWPOLYLINE
  5
473
100
AcDbEntity
  8
IMPORT_IGES
100
AcDbPolyline
 62
7
  6
CONTINUOUS
 90
5
 70
0
 10
142.6721205503
 20
81.6160949049
 10
142.6599062313
 20
81.5931634542
 10
142.6248280625
 20
81.5096334049
 10
142.5959762305
 20
81.4196530665
 10
142.5749350997
 20
81.3299398958
  0
LWPOLYLINE
  5
474
100
AcDbEntity
  8
IMPORT_IGES
100
AcDbPolyline
 62
7
  6
CONTINUOUS
 90
4
 70
0
 10
142.58852649
 20
80.7890667127
 10
142.5803496723
 20
80.7747501884
 10
142.5752874724
 20
80.75961207
 10
142.5736759005
 20
80.744521705
  0
LWPOLYLINE
  5
475
100
AcDbEntity
  8
IMPORT_IGES
100
AcDbPolyline
 62
7
  6
CONTINUOUS
 90
5
 70
0
 10
142.0550046578
 20
81.3868543277
 10
142.0859359612
 20
81.4391695741
 10
142.1236438897
 20
81.4867819648
 10
142.1681284431
 20
81.5296914998
 10
142.2065959061
 20
81.5583625929
  0
LWPOLYLINE
  5
476
100
AcDbEntity
  8
0
100
AcDbPolyline
 62
7
  6
CONTINUOUS
 90
10
 70
0
 10
139.2881065306
 20
80.9838635397
 10
139.2869237384
 20
80.9822308013
 10
139.2856746864
 20
80.9806753845
 10
139.2843602298
 20
80.979197783
 10
139.2829801218
 20
80.9777998968
 10
139.281536283
 20
80.9764807924
 10
139.28003283
 20
80.9752367191
 10
139.2784717
 20
80.9740667529
 10
139.2768526223
 20
80.97297278
 10
139.2751764082
 20
80.9719552689
  0
LWPOLYLINE
  5
477
100
AcDbEntity
  8
IMPORT_IGES
100
AcDbPolyline
 62
7
  6
CONTINUOUS
 90
34
 70
0
 10
139.2881065306
 20
80.9838635397
 10
139.2852524208
 20
80.9801976163
 10
139.2820194931
 20
80.9769180544
 10
139.2784149517
 20
80.9740290139
 10
139.2744451226
 20
80.9715393598
 10
139.2701183014
 20
80.9694486689
 10
139.2654443942
 20
80.9677470226
 10
139.2604375204
 20
80.9664344386
 10
139.2550978396
 20
80.9655191434
 10
139.249413178
 20
80.965002873
 10
139.2433816729
 20
80.9648855817
 10
139.2370178153
 20
80.9651746064
 10
139.2303336146
 20
80.9658825566
 10
139.2233155732
 20
80.967023318
 10
139.215991099
 20
80.9685910362
 10
139.2084351442
 20
80.9705696254
 10
139.2006735888
 20
80.9729641851
 10
139.192696335
 20
80.975778727
 10
139.1845250471
 20
80.9789959249
 10
139.1761727529
 20
80.9826151316
 10
139.1676397895
 20
80.98664471
 10
139.1589282273
 20
80.9910805263
 10
139.1500430868
 20
80.9959236509
 10
139.1409905546
 20
81.0011794833
 10
139.1317739607
 20
81.0068501016
 10
139.1224004834
 20
81.012934368
 10
139.1128722771
 20
81.0194388081
 10
139.1031847256
 20
81.0263767571
 10
139.093342026
 20
81.0337476663
 10
139.0833476241
 20
81.0415564967
 10
139.073195349
 20
81.0498246007
 10
139.0628850782
 20
81.0585602125
 10
139.0524227837
 20
81.0677584747
 10
139.0418109829
 20
81.0774208403
  0
LINE
  5
478
100
AcDbEntity
  8
0
100
AcDbLine
 62
7
  6
CONTINUOUS
 10
135.9138548449
 20
85.1131522046
 11
135.5603492878
 21
84.9090425264
  0
LINE
  5
479
100
AcDbEntity
  8
IMPORT_IGES
100
AcDbLine
 62
7
  6
CONTINUOUS
 10
135.5603492878
 20
84.9090425264
 11
135.9138548449
 21
85.1131522046
  0
LWPOLYLINE
  5
47A
100
AcDbEntity
  8
0
100
AcDbPolyline
 62
7
  6
CONTINUOUS
 90
10
 70
0
 10
135.0092831539
 20
84.2783477334
 10
135.0110201531
 20
84.2792985841
 10
135.0127900514
 20
84.2801590547
 10
135.0145921831
 20
84.2809287609
 10
135.0164252669
 20
84.2816083047
 10
135.0182892407
 20
84.2821963085
 10
135.0201852577
 20
84.2826894123
 10
135.0221132422
 20
84.2830862305
 10
135.0240718938
 20
84.2833873543
 10
135.0260605195
 20
84.2835923835
  0
LINE
  5
47B
100
AcDbEntity
  8
0
100
AcDbLine
 62
7
  6
CONTINUOUS
 10
135.189057205
 20
85.6667624444
 11
135.105989842
 21
85.6269522682
  0
LWPOLYLINE
  5
47C
100
AcDbEntity
  8
IMPORT_IGES
100
AcDbPolyline
 62
7
  6
CONTINUOUS
 90
3
 70
0
 10
133.447695686
 20
84.4826515046
 10
133.4034058943
 20
84.4635821011
 10
133.3439989345
 20
84.4465189319
  0
LWPOLYLINE
  5
47D
100
AcDbEntity
  8
IMPORT_IGES
100
AcDbPolyline
 62
7
  6
CONTINUOUS
 90
3
 70
0
 10
135.2444674131
 20
85.6857451045
 10
135.1632515877
 20
85.6561564043
 10
135.1059890131
 20
85.6269537132
  0
LWPOLYLINE
  5
47E
100
AcDbEntity
  8
RACCORDO
100
AcDbPolyline
 62
250
  6
CONTINUOUS
 90
15
 70
0
 10
130.4684128777
 20
111.3558070533
 10
130.304051651
 20
111.3307694366
 10
130.1368330103
 20
111.3131336419
 10
129.9677552583
 20
111.303004956
 10
129.797827797
 20
111.3004438473
 10
129.6280651009
 20
111.305465606
 10
129.4594806609
 20
111.3180402519
 10
129.2930809337
 20
111.3380927138
 10
129.1298593333
 20
111.3655032776
 10
128.9707902999
 20
111.400108301
 10
128.8168234828
 20
111.4417011904
 10
128.668878071
 20
111.4900336344
 10
128.527837305
 20
111.5448170862
 10
128.3945432047
 20
111.6057244859
 10
128.2697915417
 20
111.6723922138
  0
LWPOLYLINE
  5
47F
100
AcDbEntity
  8
RACCORDO
100
AcDbPolyline
 62
250
  6
CONTINUOUS
 90
34
 70
0
 10
151.999204397
 20
109.2056892094
 10
151.9019828835
 20
109.219594781
 10
151.8054347424
 20
109.2316057236
 10
151.7095599736
 20
109.2417220372
 10
151.6143545061
 20
109.2498873357
 10
151.5198224109
 20
109.2561580052
 10
151.4259759009
 20
109.2607032035
 10
151.3328233075
 20
109.2635392776
 10
151.2403562993
 20
109.2646498805
 10
151.1485620948
 20
109.2641551287
 10
151.0574567263
 20
109.262072013
 10
150.9670241616
 20
109.2583835425
 10
150.8772035215
 20
109.2531588612
 10
150.7879966999
 20
109.2464151928
 10
150.6994018031
 20
109.2381353135
 10
150.6113522708
 20
109.228336696
 10
150.5238453775
 20
109.2170365896
 10
150.4368838487
 20
109.2042177449
 10
150.3504093017
 20
109.1898458875
 10
150.2644030276
 20
109.1739357146
 10
150.1788837352
 20
109.1564725288
 10
150.0938491687
 20
109.1373779636
 10
150.0092788542
 20
109.116665809
 10
149.9251932656
 20
109.0943222749
 10
149.841651568
 20
109.0702276243
 10
149.7587851637
 20
109.0444674976
 10
149.6764626505
 20
109.0169562545
 10
149.5943489873
 20
108.9873172372
 10
149.5124807432
 20
108.9556730798
 10
149.4308213492
 20
108.9219011481
 10
149.3489260567
 20
108.8852568827
 10
149.2666466163
 20
108.8454920969
 10
149.1841312774
 20
108.8028549774
 10
149.1013800401
 20
108.757345524
  0
LWPOLYLINE
  5
480
100
AcDbEntity
  8
RACCORDO
100
AcDbPolyline
 62
250
  6
CONTINUOUS
 90
22
 70
0
 10
152.0285793896
 20
109.222649962
 10
152.1290009227
 20
109.2005452461
 10
152.2284788043
 20
109.1722505575
 10
152.3265997846
 20
109.1380459502
 10
152.4234085786
 20
109.0982311034
 10
152.5180353175
 20
109.0531455788
 10
152.6087507483
 20
109.0033004173
 10
152.6949725191
 20
108.94929363
 10
152.776682484
 20
108.8915732113
 10
152.8531079388
 20
108.830570537
 10
152.923929025
 20
108.7668429686
 10
152.9890958889
 20
108.7008714718
 10
153.0483009975
 20
108.6329687011
 10
153.1013696549
 20
108.5636203183
 10
153.1482852334
 20
108.4932658893
 10
153.1889881692
 20
108.4221132003
 10
153.2234037312
 20
108.350565884
 10
153.2515278167
 20
108.2790211899
 10
153.2733869452
 20
108.2076520104
 10
153.2889762003
 20
108.1367536712
 10
153.2982936004
 20
108.0667354862
 10
153.3013715958
 20
107.9979208738
  0
LWPOLYLINE
  5
481
100
AcDbEntity
  8
RACCORDO
100
AcDbPolyline
 62
250
  6
CONTINUOUS
 90
19
 70
0
 10
152.8063968461
 20
107.7121286569
 10
152.8033188824
 20
107.7994894616
 10
152.7941136773
 20
107.8900941425
 10
152.7788547777
 20
107.9832549266
 10
152.7576753428
 20
108.0782606948
 10
152.7307349685
 20
108.1743979294
 10
152.6982120343
 20
108.2709568147
 10
152.6603945717
 20
108.3671920802
 10
152.6175508071
 20
108.4623959106
 10
152.569869252
 20
108.5559130111
 10
152.5176186062
 20
108.6471234591
 10
152.461281717
 20
108.7352223678
 10
152.4014366387
 20
108.8193191421
 10
152.338590517
 20
108.89884247
 10
152.2732433721
 20
108.9731542369
 10
152.2060516026
 20
109.0414083784
 10
152.1376208792
 20
109.1030876763
 10
152.0684720204
 20
109.1579393993
 10
151.999157519
 20
109.2056621426
  0
LINE
  5
482
100
AcDbEntity
  8
IMPORT_IGES
100
AcDbLine
 62
7
  6
CONTINUOUS
 10
151.3733059988
 20
80.5028203195
 11
151.3733059988
 21
80.6253321766
  0
LINE
  5
483
100
AcDbEntity
  8
RACCORDO
100
AcDbLine
 62
250
  6
CONTINUOUS
 10
151.722901146
 20
107.5511201434
 11
151.722901146
 21
85.0165405099
  0
LINE
  5
484
100
AcDbEntity
  8
IMPORT_IGES
100
AcDbLine
 62
7
  6
CONTINUOUS
 10
151.7995121479
 20
85.0059569763
 11
151.7995121479
 21
80.9221437581
  0
LINE
  5
485
100
AcDbEntity
  8
IMPORT_IGES
100
AcDbLine
 62
7
  6
CONTINUOUS
 10
151.7995121479
 20
80.187320509
 11
151.7995121479
 21
79.8199088845
  0
LINE
  5
486
100
AcDbEntity
  8
IMPORT_IGES
100
AcDbLine
 62
7
  6
CONTINUOUS
 10
152.5065835737
 20
85.0551600376
 11
152.5065835737
 21
78.8401255111
  0
LINE
  5
487
100
AcDbEntity
  8
RACCORDO
100
AcDbLine
 62
250
  6
CONTINUOUS
 10
152.8063968489
 20
85.177549019
 11
152.8063968489
 21
107.7121286585
  0
LWPOLYLINE
  5
488
100
AcDbEntity
  8
IMPORT_IGES
100
AcDbPolyline
 62
7
  6
CONTINUOUS
 90
7
 70
0
 10
151.7995121479
 20
80.9221437581
 10
151.7983170983
 20
80.9052723275
 10
151.7952604686
 20
80.8904327682
 10
151.7903422589
 20
80.8776250802
 10
151.78339645
 20
80.8666812737
 10
151.774589061
 20
80.8577693386
 10
151.7684392271
 20
80.8535013526
  0
LWPOLYLINE
  5
489
100
AcDbEntity
  8
0
100
AcDbPolyline
 62
7
  6
CONTINUOUS
 90
4
 70
0
 10
142.5883626432
 20
80.7888370547
 10
142.5802309829
 20
80.7746225925
 10
142.5752501409
 20
80.7596588758
 10
142.573665552
 20
80.7446342251
  0
LWPOLYLINE
  5
48A
100
AcDbEntity
  8
0
100
AcDbPolyline
 62
7
  6
CONTINUOUS
 90
26
 70
0
 10
142.0309755555
 20
81.427562221
 10
141.9701693142
 20
81.3527907242
 10
141.9178189913
 20
81.2670152491
 10
141.8738599877
 20
81.1705790103
 10
141.8393860968
 20
81.0657643006
 10
141.8146600962
 20
80.9524268028
 10
141.7994192084
 20
80.8307108341
 10
141.7939688936
 20
80.7033316393
 10
141.798502995
 20
80.5702182116
 10
141.8128276695
 20
80.4314415578
 10
141.8366668478
 20
80.2899299427
 10
141.8702303474
 20
80.1455561545
 10
141.9133083509
 20
79.998447405
 10
141.9649953362
 20
79.8519135935
 10
142.0254078062
 20
79.7060669362
 10
142.0944292581
 20
79.560795217
 10
142.1708046617
 20
79.4190716872
 10
142.2548389587
 20
79.2807307322
 10
142.3462272074
 20
79.1459379666
 10
142.4427995524
 20
79.0181634852
 10
142.544746086
 20
78.8976091481
 10
142.6518767158
 20
78.7840730953
 10
142.7614513093
 20
78.6804198418
 10
142.872556489
 20
78.5876042261
 10
142.9861056323
 20
78.5046714098
 10
143.1020987393
 20
78.4316213929
  0
LWPOLYLINE
  5
48B
100
AcDbEntity
  8
IMPORT_IGES
100
AcDbPolyline
 62
7
  6
CONTINUOUS
 90
16
 70
0
 10
136.9741101721
 20
82.4335657656
 10
137.0437035929
 20
82.4839870038
 10
137.1065243064
 20
82.5440019697
 10
137.1625806611
 20
82.6138793324
 10
137.2118643086
 20
82.6933504228
 10
137.2532839809
 20
82.7808292176
 10
137.286636694
 20
82.8764794602
 10
137.312125432
 20
82.9801374071
 10
137.3292678791
 20
83.0897258049
 10
137.3378970799
 20
83.2053033805
 10
137.3381799897
 20
83.3268114069
 10
137.3301351587
 20
83.4519964499
 10
137.313620963
 20
83.5809303667
 10
137.2887790265
 20
83.7135413001
 10
137.2560527706
 20
83.8473602438
 10
137.2152745134
 20
83.9824611511
  0
LWPOLYLINE
  5
48C
100
AcDbEntity
  8
0
100
AcDbPolyline
 62
7
  6
CONTINUOUS
 90
3
 70
0
 10
138.6415237479
 20
83.5855793015
 10
138.5646392101
 20
83.5330459207
 10
138.4954416496
 20
83.4689351877
  0
LWPOLYLINE
  5
48D
100
AcDbEntity
  8
0
100
AcDbPolyline
 62
7
  6
CONTINUOUS
 90
15
 70
0
 10
136.9560720128
 20
82.4227224083
 10
137.0329565506
 20
82.4752557891
 10
137.1021541112
 20
82.5393665222
 10
137.1629603524
 20
82.614138019
 10
137.2153106753
 20
82.6999134941
 10
137.259269679
 20
82.7963497329
 10
137.2937435699
 20
82.9011644426
 10
137.3184695704
 20
83.0145019404
 10
137.3337104583
 20
83.1362179091
 10
137.3391607731
 20
83.2635971039
 10
137.3346266716
 20
83.3967105316
 10
137.3203019971
 20
83.5354871854
 10
137.2964628188
 20
83.6769988006
 10
137.2628993192
 20
83.8213725887
 10
137.2198213158
 20
83.9684813382
  0
LWPOLYLINE
  5
48E
100
AcDbEntity
  8
0
100
AcDbPolyline
 62
7
  6
CONTINUOUS
 90
4
 70
0
 10
139.0958831937
 20
82.8676695597
 10
139.0783808899
 20
82.8559323015
 10
139.0640294044
 20
82.8434457887
 10
139.052929262
 20
82.8303288109
  0
LWPOLYLINE
  5
48F
100
AcDbEntity
  8
IMPORT_IGES
100
AcDbPolyline
 62
7
  6
CONTINUOUS
 90
4
 70
0
 10
139.0958831937
 20
82.8676695597
 10
139.0784717061
 20
82.8560811936
 10
139.0641748362
 20
82.8436712335
 10
139.0529925841
 20
82.8304396794
  0
LWPOLYLINE
  5
490
100
AcDbEntity
  8
IMPORT_IGES
100
AcDbPolyline
 62
7
  6
CONTINUOUS
 90
31
 70
0
 10
138.6415229191
 20
83.5855807465
 10
138.6234855886
 20
83.5747359443
 10
138.5538921678
 20
83.5243147061
 10
138.4910714543
 20
83.4642997401
 10
138.4350150996
 20
83.3944223775
 10
138.3857314522
 20
83.3149512871
 10
138.3443117798
 20
83.2274724922
 10
138.3109590667
 20
83.1318222497
 10
138.2854703287
 20
83.0281643027
 10
138.2683278816
 20
82.918575905
 10
138.2596986808
 20
82.8029983294
 10
138.259415771
 20
82.681490303
 10
138.267460602
 20
82.55630526
 10
138.2839747977
 20
82.4273713432
 10
138.3088167342
 20
82.2947604098
 10
138.3415429901
 20
82.1609414661
 10
138.3823212473
 20
82.0258405588
 10
138.4309838238
 20
81.8895316412
 10
138.4865842525
 20
81.7547055789
 10
138.5491576046
 20
81.6215322679
 10
138.618668809
 20
81.4898418122
 10
138.6940661848
 20
81.3618153903
 10
138.7755969102
 20
81.2372861681
 10
138.8630138071
 20
81.1164209796
 10
138.9545236603
 20
81.0019015057
 10
139.0502466425
 20
80.8938962207
 10
139.150062581
 20
80.7922366503
 10
139.2518177426
 20
80.6990990531
 10
139.3547942164
 20
80.6152088487
 10
139.4597099133
 20
80.5398406175
 10
139.5665648333
 20
80.4729943595
  0
LINE
  5
491
100
AcDbEntity
  8
IMPORT_IGES
100
AcDbLine
 62
7
  6
CONTINUOUS
 10
136.9560728416
 20
82.4227209633
 11
136.9741101721
 21
82.4335657656
  0
LINE
  5
492
100
AcDbEntity
  8
0
100
AcDbLine
 62
7
  6
CONTINUOUS
 10
137.2448088288
 20
82.762929605
 11
136.7090191565
 21
82.4536311548
  0
LINE
  5
493
100
AcDbEntity
  8
IMPORT_IGES
100
AcDbLine
 62
7
  6
CONTINUOUS
 10
137.2448088288
 20
82.762929605
 11
136.7090191565
 21
82.4536311548
  0
LINE
  5
494
100
AcDbEntity
  8
0
100
AcDbLine
 62
250
  6
CONTINUOUS
 10
138.5194707519
 20
83.4282272944
 11
138.9385211993
 21
83.6701350067
  0
LINE
  5
495
100
AcDbEntity
  8
IMPORT_IGES
100
AcDbLine
 62
250
  6
CONTINUOUS
 10
138.5194707519
 20
83.4282272944
 11
138.9385211993
 21
83.6701350067
  0
LINE
  5
496
100
AcDbEntity
  8
0
100
AcDbLine
 62
250
  6
CONTINUOUS
 10
137.1770428232
 20
82.6371999235
 11
136.7586651865
 21
82.3956806086
  0
LINE
  5
497
100
AcDbEntity
  8
IMPORT_IGES
100
AcDbLine
 62
250
  6
CONTINUOUS
 10
137.1770428232
 20
82.6371999235
 11
136.7586651865
 21
82.3956806086
  0
LINE
  5
498
100
AcDbEntity
  8
0
100
AcDbLine
 62
7
  6
CONTINUOUS
 10
138.5448102243
 20
83.3562656603
 11
139.0801326023
 21
83.6652943527
  0
LINE
  5
499
100
AcDbEntity
  8
IMPORT_IGES
100
AcDbLine
 62
7
  6
CONTINUOUS
 10
138.5448102243
 20
83.3562656603
 11
139.0801326023
 21
83.6652943527
  0
LWPOLYLINE
  5
49A
100
AcDbEntity
  8
0
100
AcDbPolyline
 62
7
  6
CONTINUOUS
 90
28
 70
0
 10
138.5448097397
 20
83.3562653805
 10
138.540582271
 20
83.3539661435
 10
138.5364814607
 20
83.3520330202
 10
138.5325163714
 20
83.3504855646
 10
138.5286562416
 20
83.3493289196
 10
138.5249366511
 20
83.3485928123
 10
138.5214668735
 20
83.3483126435
 10
138.5182921723
 20
83.3484957264
 10
138.5153903401
 20
83.349128112
 10
138.5127772859
 20
83.3501898893
 10
138.510474121
 20
83.351671311
 10
138.5084825492
 20
83.3535628669
 10
138.5067900388
 20
83.355837981
 10
138.5054061734
 20
83.3584833997
 10
138.5043400688
 20
83.3614906662
 10
138.5035775262
 20
83.364840012
 10
138.5031231989
 20
83.3685186171
 10
138.5029870033
 20
83.3725185518
 10
138.5031617214
 20
83.376828976
 10
138.5036498324
 20
83.3814395614
 10
138.5044601027
 20
83.3863419234
 10
138.5055941091
 20
83.3915296947
 10
138.5070530456
 20
83.3969932054
 10
138.5088442304
 20
83.4027246998
 10
138.5109778966
 20
83.4087215265
 10
138.5134594931
 20
83.414977359
 10
138.5162896335
 20
83.4214819856
 10
138.5194707519
 20
83.4282272944
  0
LWPOLYLINE
  5
49B
100
AcDbEntity
  8
IMPORT_IGES
100
AcDbPolyline
 62
7
  6
CONTINUOUS
 90
30
 70
0
 10
138.5440920001
 20
83.3558550237
 10
138.5401186653
 20
83.3537342955
 10
138.5363086998
 20
83.3519618719
 10
138.5326691615
 20
83.3505384561
 10
138.5292072732
 20
83.3494653965
 10
138.5259183486
 20
83.3487410581
 10
138.5228013692
 20
83.3483662769
 10
138.5198699672
 20
83.3483455683
 10
138.5171410767
 20
83.3486834328
 10
138.5146199516
 20
83.3493847241
 10
138.5123152353
 20
83.3504464122
 10
138.5102505318
 20
83.3518542887
 10
138.5084431994
 20
83.3535998221
 10
138.5068916569
 20
83.3556787506
 10
138.5055917807
 20
83.3580773181
 10
138.5045495308
 20
83.360786586
 10
138.5037723124
 20
83.3638021237
 10
138.5032576131
 20
83.3671172665
 10
138.5030088718
 20
83.3707258108
 10
138.50303386
 20
83.3746216704
 10
138.5033360748
 20
83.3787991421
 10
138.5039181229
 20
83.3832506643
 10
138.5047867354
 20
83.3879713117
 10
138.5059511866
 20
83.3929596532
 10
138.5074131025
 20
83.3982093357
 10
138.5091785063
 20
83.4037145183
 10
138.5112628391
 20
83.4094745931
 10
138.5136731847
 20
83.4154851432
 10
138.5164083154
 20
83.4217380986
 10
138.5194707519
 20
83.4282272944
  0
LWPOLYLINE
  5
49C
100
AcDbEntity
  8
0
100
AcDbPolyline
 62
7
  6
CONTINUOUS
 90
28
 70
0
 10
135.7396425023
 20
83.0133282355
 10
135.7351753513
 20
83.0110161022
 10
135.7301855822
 20
83.0091607408
 10
135.7246749693
 20
83.0077631766
 10
135.7186068185
 20
83.0068092925
 10
135.7120227057
 20
83.0063160258
 10
135.7050497881
 20
83.0063355882
 10
135.6977161139
 20
83.0069037253
 10
135.6900166572
 20
83.0079979833
 10
135.6820368009
 20
83.0095877986
 10
135.6738019059
 20
83.0116831775
 10
135.6653094603
 20
83.014287305
 10
135.6566037176
 20
83.0173597769
 10
135.6477019895
 20
83.0209015191
 10
135.6386056502
 20
83.0249223931
 10
135.629334067
 20
83.029394833
 10
135.6198994343
 20
83.0343171056
 10
135.6103041227
 20
83.0396993523
 10
135.6005518523
 20
83.045531292
 10
135.5906496647
 20
83.0518117712
 10
135.5806017727
 20
83.0585484405
 10
135.5704070159
 20
83.0657438575
 10
135.5600710809
 20
83.0733962174
 10
135.5495968019
 20
83.0815122437
 10
135.5389781965
 20
83.0901069746
 10
135.5282152985
 20
83.0991865929
 10
135.5173141176
 20
83.1087484042
 10
135.506277077
 20
83.118793807
  0
LINE
  5
49D
100
AcDbEntity
  8
0
100
AcDbLine
 62
7
  6
CONTINUOUS
 10
138.724591111
 20
83.6253894778
 11
138.6415237479
 21
83.5855793015
  0
LWPOLYLINE
  5
49E
100
AcDbEntity
  8
RACCORDO
100
AcDbPolyline
 62
7
  6
CONTINUOUS
 90
13
 70
0
 10
153.4770502061
 20
108.2434946556
 10
153.4747075437
 20
108.3067146293
 10
153.4645845751
 20
108.3907749768
 10
153.4463535918
 20
108.474315716
 10
153.4199223751
 20
108.5565719608
 10
153.3850512065
 20
108.637703501
 10
153.3418476707
 20
108.7168670049
 10
153.2906582895
 20
108.7929831343
 10
153.2312679183
 20
108.8659475913
 10
153.1639256191
 20
108.9351593224
 10
153.0892084678
 20
108.9998902911
 10
153.0070974596
 20
109.059981789
 10
152.9292777852
 20
109.1085018046
  0
LINE
  5
49F
100
AcDbEntity
  8
RACCORDO
100
AcDbLine
 62
7
  6
CONTINUOUS
 10
153.477107527
 20
108.2428850971
 11
153.4771065978
 21
108.2434947955
  0
LINE
  5
4A0
100
AcDbEntity
  8
IMPORT_IGES
100
AcDbLine
 62
7
  6
CONTINUOUS
 10
153.2660162567
 20
85.4429275047
 11
153.2660162567
 21
79.2786124243
  0
LINE
  5
4A1
100
AcDbEntity
  8
RACCORDO
100
AcDbLine
 62
250
  6
CONTINUOUS
 10
153.3013715958
 20
85.4633412343
 11
153.3013715958
 21
107.9979208738
  0
LINE
  5
4A2
100
AcDbEntity
  8
SUPERFICI
100
AcDbLine
 62
7
  6
CONTINUOUS
 10
153.477107527
 20
85.7083059903
 11
153.477107527
 21
108.2428850971
  0
LWPOLYLINE
  5
4A3
100
AcDbEntity
  8
0
100
AcDbPolyline
 62
7
  6
CONTINUOUS
 90
10
 70
0
 10
142.8236404366
 20
78.9424905731
 10
142.8224576443
 20
78.9408578347
 10
142.8212085923
 20
78.9393024178
 10
142.8198941357
 20
78.9378248164
 10
142.8185140277
 20
78.9364269302
 10
142.817070189
 20
78.9351078258
 10
142.815566736
 20
78.9338637525
 10
142.8140056059
 20
78.9326937863
 10
142.8123865282
 20
78.9315998134
 10
142.8107103142
 20
78.9305823022
  0
LWPOLYLINE
  5
4A4
100
AcDbEntity
  8
IMPORT_IGES
100
AcDbPolyline
 62
7
  6
CONTINUOUS
 90
34
 70
0
 10
142.8236404366
 20
78.9424905731
 10
142.8207863268
 20
78.9388246496
 10
142.817553399
 20
78.9355450878
 10
142.8139488577
 20
78.9326560473
 10
142.8099790286
 20
78.9301663931
 10
142.8056522074
 20
78.9280757022
 10
142.8009783002
 20
78.9263740559
 10
142.7959714263
 20
78.925061472
 10
142.7906317455
 20
78.9241461768
 10
142.7849470839
 20
78.9236299064
 10
142.7789155789
 20
78.9235126151
 10
142.7725517212
 20
78.9238016397
 10
142.7658675205
 20
78.9245095899
 10
142.7588494791
 20
78.9256503513
 10
142.7515250049
 20
78.9272180696
 10
142.7439690502
 20
78.9291966588
 10
142.7362074948
 20
78.9315912184
 10
142.7282302409
 20
78.9344057604
 10
142.720058953
 20
78.9376229582
 10
142.7117066588
 20
78.941242165
 10
142.7031736955
 20
78.9452717434
 10
142.6944621332
 20
78.9497075597
 10
142.6855769927
 20
78.9545506842
 10
142.6765244605
 20
78.9598065167
 10
142.6673078666
 20
78.9654771349
 10
142.6579343893
 20
78.9715614014
 10
142.648406183
 20
78.9780658414
 10
142.6387186316
 20
78.9850037904
 10
142.628875932
 20
78.9923746997
 10
142.6188815301
 20
79.0001835301
 10
142.6087292549
 20
79.0084516341
 10
142.5984189841
 20
79.0171872459
 10
142.5879566897
 20
79.0263855081
 10
142.5773448889
 20
79.0360478737
  0
LINE
  5
4A5
100
AcDbEntity
  8
0
100
AcDbLine
 62
7
  6
CONTINUOUS
 10
139.4493887508
 20
83.071779238
 11
139.0958831937
 21
82.8676695597
  0
LINE
  5
4A6
100
AcDbEntity
  8
IMPORT_IGES
100
AcDbLine
 62
7
  6
CONTINUOUS
 10
139.0958831937
 20
82.8676695597
 11
139.4493887508
 21
83.071779238
  0
LWPOLYLINE
  5
4A7
100
AcDbEntity
  8
0
100
AcDbPolyline
 62
7
  6
CONTINUOUS
 90
10
 70
0
 10
138.5448170598
 20
82.2369747668
 10
138.546554059
 20
82.2379256175
 10
138.5483239573
 20
82.2387860881
 10
138.5501260891
 20
82.2395557943
 10
138.5519591729
 20
82.2402353381
 10
138.5538231466
 20
82.2408233418
 10
138.5557191636
 20
82.2413164456
 10
138.5576471481
 20
82.2417132639
 10
138.5596057997
 20
82.2420143876
 10
138.5615944255
 20
82.2422194169
  0
LWPOLYLINE
  5
4A8
100
AcDbEntity
  8
IMPORT_IGES
100
AcDbPolyline
 62
7
  6
CONTINUOUS
 90
3
 70
0
 10
136.9832295919
 20
82.4412785379
 10
136.9389398002
 20
82.4222091344
 10
136.8795328405
 20
82.4051459653
  0
LWPOLYLINE
  5
4A9
100
AcDbEntity
  8
IMPORT_IGES
100
AcDbPolyline
 62
7
  6
CONTINUOUS
 90
3
 70
0
 10
138.7800013191
 20
83.6443721378
 10
138.6987854936
 20
83.6147834377
 10
138.6415229191
 20
83.5855807465
  0
LWPOLYLINE
  5
4AA
100
AcDbEntity
  8
RACCORDO
100
AcDbPolyline
 62
250
  6
CONTINUOUS
 90
16
 70
0
 10
130.1906578177
 20
113.0128609683
 10
130.1174096615
 20
112.9981460821
 10
130.0431444289
 20
112.9868124895
 10
129.9678621198
 20
112.9788601905
 10
129.8910344802
 20
112.9742716468
 10
129.8131897642
 20
112.9730643968
 10
129.7359127337
 20
112.975291055
 10
129.6593013747
 20
112.9810209988
 10
129.5832577013
 20
112.9901848509
 10
129.5090725174
 20
113.0026270945
 10
129.4367039287
 20
113.0184340271
 10
129.3661938296
 20
113.0375193512
 10
129.2989587064
 20
113.0594686573
 10
129.2354707214
 20
113.0841438089
 10
129.1752577123
 20
113.1116829424
 10
129.1183196792
 20
113.1420860579
  0
LWPOLYLINE
  5
4AB
100
AcDbEntity
  8
RACCORDO
100
AcDbPolyline
 62
250
  6
CONTINUOUS
 90
11
 70
0
 10
152.9285810514
 20
109.1088989137
 10
152.8530920026
 20
109.1479732922
 10
152.7766720363
 20
109.1795337912
 10
152.6949671888
 20
109.2059082494
 10
152.6087490017
 20
109.2266006351
 10
152.518034984
 20
109.241495532
 10
152.4234083566
 20
109.2503563143
 10
152.3265995378
 20
109.2527779631
 10
152.2284787683
 20
109.2487950636
 10
152.1290009676
 20
109.2386866691
 10
152.0285793896
 20
109.222649962
  0
LWPOLYLINE
  5
4AC
100
AcDbEntity
  8
RACCORDO
100
AcDbPolyline
 62
7
  6
CONTINUOUS
 90
12
 70
0
 10
131.115359484
 20
121.7035724351
 10
131.0789593125
 20
121.7229504992
 10
131.0229632477
 20
121.7468937954
 10
130.9648285835
 20
121.7650376947
 10
130.9051542726
 20
121.7771952578
 10
130.844555247
 20
121.783241233
 10
130.7836559076
 20
121.7831133955
 10
130.723083518
 20
121.7768131331
 10
130.6634619156
 20
121.7644053623
 10
130.6054048743
 20
121.7460177484
 10
130.5495109445
 20
121.7218397938
 10
130.5152798865
 20
121.7035199632
  0
LINE
  5
4AD
100
AcDbEntity
  8
RACCORDO
100
AcDbLine
 62
250
  6
CONTINUOUS
 10
130.815375954
 20
121.4708877618
 11
152.0285793896
 21
109.222649962
  0
LINE
  5
4AE
100
AcDbEntity
  8
RACCORDO
100
AcDbLine
 62
7
  6
CONTINUOUS
 10
131.1154169292
 20
121.7035464963
 11
152.9286661656
 21
109.1088497714
  0
LINE
  5
4AF
100
AcDbEntity
  8
0
100
AcDbLine
 62
7
  6
CONTINUOUS
 10
144.9746845081
 20
81.0555316939
 11
149.8838867164
 21
85.4089070384
  0
LINE
  5
4B0
100
AcDbEntity
  8
IMPORT_IGES
100
AcDbLine
 62
7
  6
CONTINUOUS
 10
144.9746845081
 20
81.0555316939
 11
149.8838867164
 21
85.4089070384
  0
LWPOLYLINE
  5
4B1
100
AcDbEntity
  8
IMPORT_IGES
100
AcDbPolyline
 62
7
  6
CONTINUOUS
 90
16
 70
0
 10
140.5096440781
 20
80.3921927989
 10
140.5792374988
 20
80.4426140371
 10
140.6420582123
 20
80.5026290031
 10
140.698114567
 20
80.5725063657
 10
140.7473982145
 20
80.6519774562
 10
140.7888178868
 20
80.739456251
 10
140.8221706
 20
80.8351064935
 10
140.847659338
 20
80.9387644405
 10
140.864801785
 20
81.0483528383
 10
140.8734309858
 20
81.1639304138
 10
140.8737138957
 20
81.2854384403
 10
140.8656690646
 20
81.4106234832
 10
140.849154869
 20
81.5395574001
 10
140.8243129324
 20
81.6721683334
 10
140.7915866765
 20
81.8059872772
 10
140.7508084194
 20
81.9410881844
  0
LWPOLYLINE
  5
4B2
100
AcDbEntity
  8
0
100
AcDbPolyline
 62
7
  6
CONTINUOUS
 90
3
 70
0
 10
142.1770576539
 20
81.5442063349
 10
142.1001731161
 20
81.4916729541
 10
142.0309755555
 20
81.427562221
  0
LWPOLYLINE
  5
4B3
100
AcDbEntity
  8
0
100
AcDbPolyline
 62
7
  6
CONTINUOUS
 90
15
 70
0
 10
140.4916059187
 20
80.3813494417
 10
140.5684904565
 20
80.4338828225
 10
140.6376880171
 20
80.4979935556
 10
140.6984942584
 20
80.5727650524
 10
140.7508445813
 20
80.6585405275
 10
140.7948035849
 20
80.7549767663
 10
140.8292774758
 20
80.859791476
 10
140.8540034764
 20
80.9731289738
 10
140.8692443642
 20
81.0948449425
 10
140.874694679
 20
81.2222241373
 10
140.8701605775
 20
81.3553375649
 10
140.8558359031
 20
81.4941142187
 10
140.8319967248
 20
81.6356258339
 10
140.7984332251
 20
81.7799996221
 10
140.7553552217
 20
81.9271083716
  0
LWPOLYLINE
  5
4B4
100
AcDbEntity
  8
0
100
AcDbPolyline
 62
7
  6
CONTINUOUS
 90
4
 70
0
 10
142.6314170996
 20
80.8262965931
 10
142.6139147958
 20
80.8145593349
 10
142.5995633103
 20
80.802072822
 10
142.588463168
 20
80.7889558442
  0
LWPOLYLINE
  5
4B5
100
AcDbEntity
  8
IMPORT_IGES
100
AcDbPolyline
 62
7
  6
CONTINUOUS
 90
4
 70
0
 10
142.6314170996
 20
80.8262965931
 10
142.614005612
 20
80.814708227
 10
142.5997087421
 20
80.8022982668
 10
142.58852649
 20
80.7890667127
  0
LWPOLYLINE
  5
4B6
100
AcDbEntity
  8
IMPORT_IGES
100
AcDbPolyline
 62
7
  6
CONTINUOUS
 90
31
 70
0
 10
142.177056825
 20
81.5442077799
 10
142.1590194945
 20
81.5333629776
 10
142.0894260738
 20
81.4829417395
 10
142.0266053603
 20
81.4229267735
 10
141.9705490056
 20
81.3530494109
 10
141.9212653581
 20
81.2735783204
 10
141.8798456857
 20
81.1860995256
 10
141.8464929726
 20
81.090449283
 10
141.8210042346
 20
80.9867913361
 10
141.8038617876
 20
80.8772029383
 10
141.7952325868
 20
80.7616253627
 10
141.7949496769
 20
80.6401173363
 10
141.8029945079
 20
80.5149322933
 10
141.8195087036
 20
80.3859983765
 10
141.8443506401
 20
80.2533874431
 10
141.8770768961
 20
80.1195684994
 10
141.9178551532
 20
79.9844675921
 10
141.9665177297
 20
79.8481586745
 10
142.0221181584
 20
79.7133326123
 10
142.0846915106
 20
79.5801593012
 10
142.1542027149
 20
79.4484688456
 10
142.2296000907
 20
79.3204424237
 10
142.3111308161
 20
79.1959132014
 10
142.398547713
 20
79.0750480129
 10
142.4900575662
 20
78.9605285391
 10
142.5857805484
 20
78.852523254
 10
142.6855964869
 20
78.7508636837
 10
142.7873516486
 20
78.6577260865
 10
142.8903281223
 20
78.5738358821
 10
142.9952438192
 20
78.4984676509
 10
143.1020987393
 20
78.4316213929
  0
LINE
  5
4B7
100
AcDbEntity
  8
IMPORT_IGES
100
AcDbLine
 62
7
  6
CONTINUOUS
 10
140.4916067476
 20
80.3813479967
 11
140.5096440781
 21
80.3921927989
  0
LINE
  5
4B8
100
AcDbEntity
  8
0
100
AcDbLine
 62
7
  6
CONTINUOUS
 10
142.9849226568
 20
81.0304062713
 11
142.6314170996
 21
80.8262965931
  0
LINE
  5
4B9
100
AcDbEntity
  8
IMPORT_IGES
100
AcDbLine
 62
7
  6
CONTINUOUS
 10
142.6314170996
 20
80.8262965931
 11
142.9849226568
 21
81.0304062713
  0
LINE
  5
4BA
100
AcDbEntity
  8
0
100
AcDbLine
 62
7
  6
CONTINUOUS
 10
140.7803427347
 20
80.7215566383
 11
140.2445530624
 21
80.4122581882
  0
LINE
  5
4BB
100
AcDbEntity
  8
IMPORT_IGES
100
AcDbLine
 62
7
  6
CONTINUOUS
 10
140.7803427347
 20
80.7215566383
 11
140.2445530624
 21
80.4122581882
  0
LINE
  5
4BC
100
AcDbEntity
  8
0
100
AcDbLine
 62
250
  6
CONTINUOUS
 10
142.0550046578
 20
81.3868543277
 11
142.4740551052
 21
81.62876204
  0
LINE
  5
4BD
100
AcDbEntity
  8
IMPORT_IGES
100
AcDbLine
 62
250
  6
CONTINUOUS
 10
142.0550046578
 20
81.3868543277
 11
142.4740551052
 21
81.62876204
  0
LINE
  5
4BE
100
AcDbEntity
  8
0
100
AcDbLine
 62
250
  6
CONTINUOUS
 10
140.7125767291
 20
80.5958269569
 11
140.2941990925
 21
80.354307642
  0
LINE
  5
4BF
100
AcDbEntity
  8
IMPORT_IGES
100
AcDbLine
 62
250
  6
CONTINUOUS
 10
140.7125767291
 20
80.5958269569
 11
140.2941990925
 21
80.354307642
  0
LINE
  5
4C0
100
AcDbEntity
  8
0
100
AcDbLine
 62
7
  6
CONTINUOUS
 10
142.0803441302
 20
81.3148926936
 11
142.6156665083
 21
81.6239213861
  0
LINE
  5
4C1
100
AcDbEntity
  8
IMPORT_IGES
100
AcDbLine
 62
7
  6
CONTINUOUS
 10
142.0803441302
 20
81.3148926937
 11
142.6156665083
 21
81.6239213861
  0
LWPOLYLINE
  5
4C2
100
AcDbEntity
  8
0
100
AcDbPolyline
 62
7
  6
CONTINUOUS
 90
28
 70
0
 10
142.0803436456
 20
81.3148924139
 10
142.0761161769
 20
81.3125931768
 10
142.0720153667
 20
81.3106600536
 10
142.0680502773
 20
81.309112598
 10
142.0641901475
 20
81.307955953
 10
142.060470557
 20
81.3072198456
 10
142.0570007794
 20
81.3069396769
 10
142.0538260782
 20
81.3071227597
 10
142.0509242461
 20
81.3077551453
 10
142.0483111918
 20
81.3088169226
 10
142.0460080269
 20
81.3102983444
 10
142.0440164551
 20
81.3121899003
 10
142.0423239447
 20
81.3144650143
 10
142.0409400793
 20
81.3171104331
 10
142.0398739747
 20
81.3201176995
 10
142.0391114321
 20
81.3234670453
 10
142.0386571048
 20
81.3271456505
 10
142.0385209092
 20
81.3311455852
 10
142.0386956273
 20
81.3354560093
 10
142.0391837384
 20
81.3400665948
 10
142.0399940086
 20
81.3449689567
 10
142.041128015
 20
81.3501567281
 10
142.0425869516
 20
81.3556202387
 10
142.0443781363
 20
81.3613517332
 10
142.0465118025
 20
81.3673485599
 10
142.048993399
 20
81.3736043923
 10
142.0518235394
 20
81.380109019
 10
142.0550046578
 20
81.3868543277
  0
LWPOLYLINE
  5
4C3
100
AcDbEntity
  8
IMPORT_IGES
100
AcDbPolyline
 62
7
  6
CONTINUOUS
 90
30
 70
0
 10
142.0796259061
 20
81.314482057
 10
142.0756525712
 20
81.3123613288
 10
142.0718426057
 20
81.3105889052
 10
142.0682030674
 20
81.3091654895
 10
142.0647411792
 20
81.3080924299
 10
142.0614522545
 20
81.3073680914
 10
142.0583352751
 20
81.3069933102
 10
142.0554038731
 20
81.3069726016
 10
142.0526749827
 20
81.3073104662
 10
142.0501538575
 20
81.3080117575
 10
142.0478491412
 20
81.3090734455
 10
142.0457844377
 20
81.3104813221
 10
142.0439771053
 20
81.3122268554
 10
142.0424255628
 20
81.314305784
 10
142.0411256867
 20
81.3167043514
 10
142.0400834367
 20
81.3194136193
 10
142.0393062183
 20
81.322429157
 10
142.038791519
 20
81.3257442999
 10
142.0385427778
 20
81.3293528441
 10
142.038567766
 20
81.3332487038
 10
142.0388699808
 20
81.3374261754
 10
142.0394520288
 20
81.3418776977
 10
142.0403206414
 20
81.3465983451
 10
142.0414850925
 20
81.3515866865
 10
142.0429470084
 20
81.3568363691
 10
142.0447124122
 20
81.3623415517
 10
142.0467967451
 20
81.3681016265
 10
142.0492070906
 20
81.3741121766
 10
142.0519422213
 20
81.380365132
 10
142.0550046578
 20
81.3868543277
  0
LWPOLYLINE
  5
4C4
100
AcDbEntity
  8
0
100
AcDbPolyline
 62
7
  6
CONTINUOUS
 90
28
 70
0
 10
139.2751764082
 20
80.9719552689
 10
139.2707092573
 20
80.9696431355
 10
139.2657194882
 20
80.9677877742
 10
139.2602088752
 20
80.96639021
 10
139.2541407244
 20
80.9654363259
 10
139.2475566116
 20
80.9649430592
 10
139.240583694
 20
80.9649626216
 10
139.2332500198
 20
80.9655307586
 10
139.2255505631
 20
80.9666250166
 10
139.2175707069
 20
80.9682148319
 10
139.2093358118
 20
80.9703102109
 10
139.2008433663
 20
80.9729143384
 10
139.1921376235
 20
80.9759868102
 10
139.1832358955
 20
80.9795285524
 10
139.1741395561
 20
80.9835494265
 10
139.164867973
 20
80.9880218663
 10
139.1554333402
 20
80.992944139
 10
139.1458380286
 20
80.9983263856
 10
139.1360857582
 20
81.0041583254
 10
139.1261835706
 20
81.0104388046
 10
139.1161356787
 20
81.0171754738
 10
139.1059409218
 20
81.0243708909
 10
139.0956049869
 20
81.0320232507
 10
139.0851307078
 20
81.0401392771
 10
139.0745121024
 20
81.0487340079
 10
139.0637492044
 20
81.0578136263
 10
139.0528480235
 20
81.0673754375
 10
139.0418109829
 20
81.0774208403
  0
LINE
  5
4C5
100
AcDbEntity
  8
0
100
AcDbLine
 62
7
  6
CONTINUOUS
 10
142.2601250169
 20
81.5840165111
 11
142.1770576539
 21
81.5442063349
  0
LWPOLYLINE
  5
4C6
100
AcDbEntity
  8
IMPORT_IGES
100
AcDbPolyline
 62
7
  6
CONTINUOUS
 90
3
 70
0
 10
142.315535225
 20
81.6029991712
 10
142.2343193996
 20
81.5734104711
 10
142.177056825
 20
81.5442077799
  0
LWPOLYLINE
  5
4C7
100
AcDbEntity
  8
RACCORDO
100
AcDbPolyline
 62
250
  6
CONTINUOUS
 90
10
 70
0
 10
130.7953064069
 20
121.4592998569
 10
130.7179384365
 20
121.4953239134
 10
130.6408871592
 20
121.5239286694
 10
130.5647062813
 20
121.5447918939
 10
130.4898265192
 20
121.5576248484
 10
130.416938572
 20
121.5622203919
 10
130.3469631517
 20
121.5585423316
 10
130.2804833256
 20
121.5466157005
 10
130.2179181639
 20
121.52646966
 10
130.1599199698
 20
121.4983342331
  0
LWPOLYLINE
  5
4C8
100
AcDbEntity
  8
0
100
AcDbPolyline
 62
7
  6
CONTINUOUS
 90
9
 70
0
 10
153.3013715958
 20
85.4633412343
 10
153.3439660728
 20
85.490859871
 10
153.3807460214
 20
85.5200891047
 10
153.4117114416
 20
85.5510289355
 10
153.4370726419
 20
85.5840530853
 10
153.4566193139
 20
85.6187878322
 10
153.4697205314
 20
85.6541120106
 10
153.4761659858
 20
85.6900448532
 10
153.4769716676
 20
85.7083059903
  0
LINE
  5
4C9
100
AcDbEntity
  8
0
100
AcDbLine
 62
7
  6
CONTINUOUS
 10
153.3013715958
 20
85.4633412343
 11
152.8063968489
 21
85.177549019
  0
LWPOLYLINE
  5
4CA
100
AcDbEntity
  8
0
100
AcDbPolyline
 62
7
  6
CONTINUOUS
 90
10
 70
0
 10
142.0803509657
 20
80.1956018002
 10
142.082087965
 20
80.1965526509
 10
142.0838578632
 20
80.1974131214
 10
142.085659995
 20
80.1981828276
 10
142.0874930788
 20
80.1988623715
 10
142.0893570525
 20
80.1994503752
 10
142.0912530695
 20
80.199943479
 10
142.093181054
 20
80.2003402972
 10
142.0951397056
 20
80.200641421
 10
142.0971283314
 20
80.2008464502
  0
LWPOLYLINE
  5
4CB
100
AcDbEntity
  8
IMPORT_IGES
100
AcDbPolyline
 62
7
  6
CONTINUOUS
 90
3
 70
0
 10
140.5187634979
 20
80.3999055713
 10
140.4744737061
 20
80.3808361678
 10
140.4150667464
 20
80.3637729986
  0
LWPOLYLINE
  5
4CC
100
AcDbEntity
  8
IMPORT_IGES
100
AcDbPolyline
 62
7
  6
CONTINUOUS
 90
16
 70
0
 10
144.045177984
 20
78.3508198323
 10
144.1147714047
 20
78.4012410705
 10
144.1775921183
 20
78.4612560365
 10
144.2336484729
 20
78.5311333991
 10
144.2829321204
 20
78.6106044895
 10
144.3243517928
 20
78.6980832843
 10
144.3577045059
 20
78.7937335269
 10
144.3831932439
 20
78.8973914738
 10
144.400335691
 20
79.0069798716
 10
144.4089648918
 20
79.1225574472
 10
144.4092478016
 20
79.2440654736
 10
144.4012029706
 20
79.3692505166
 10
144.3846887749
 20
79.4981844334
 10
144.3598468384
 20
79.6307953668
 10
144.3271205825
 20
79.7646143105
 10
144.2863423253
 20
79.8997152178
  0
LWPOLYLINE
  5
4CD
100
AcDbEntity
  8
0
100
AcDbPolyline
 62
7
  6
CONTINUOUS
 90
15
 70
0
 10
144.0271398247
 20
78.3399764751
 10
144.1040243624
 20
78.3925098558
 10
144.173221923
 20
78.4566205889
 10
144.2340281643
 20
78.5313920857
 10
144.2863784872
 20
78.6171675608
 10
144.3303374908
 20
78.7136037997
 10
144.3648113818
 20
78.8184185093
 10
144.3895373823
 20
78.9317560072
 10
144.4047782701
 20
79.0534719758
 10
144.4102285849
 20
79.1808511707
 10
144.4056944835
 20
79.3139645983
 10
144.391369809
 20
79.4527412521
 10
144.3675306307
 20
79.5942528673
 10
144.3339671311
 20
79.7386266554
 10
144.2908891276
 20
79.885735405
  0
LINE
  5
4CE
100
AcDbEntity
  8
IMPORT_IGES
100
AcDbLine
 62
7
  6
CONTINUOUS
 10
144.0271406535
 20
78.3399750301
 11
144.045177984
 21
78.3508198323
  0
LINE
  5
4CF
100
AcDbEntity
  8
0
100
AcDbLine
 62
7
  6
CONTINUOUS
 10
144.3158766407
 20
78.6801836717
 11
143.7800869683
 21
78.3708852216
  0
LINE
  5
4D0
100
AcDbEntity
  8
IMPORT_IGES
100
AcDbLine
 62
7
  6
CONTINUOUS
 10
144.3158766407
 20
78.6801836717
 11
143.7800869683
 21
78.3708852216
  0
LINE
  5
4D1
100
AcDbEntity
  8
0
100
AcDbLine
 62
250
  6
CONTINUOUS
 10
144.248110635
 20
78.5544539902
 11
143.8297329984
 21
78.3129346753
  0
LINE
  5
4D2
100
AcDbEntity
  8
IMPORT_IGES
100
AcDbLine
 62
250
  6
CONTINUOUS
 10
144.248110635
 20
78.5544539902
 11
143.8297329984
 21
78.3129346753
  0
LWPOLYLINE
  5
4D3
100
AcDbEntity
  8
0
100
AcDbPolyline
 62
7
  6
CONTINUOUS
 90
28
 70
0
 10
142.8107103142
 20
78.9305823022
 10
142.8062431632
 20
78.9282701689
 10
142.8012533941
 20
78.9264148076
 10
142.7957427812
 20
78.9250172433
 10
142.7896746303
 20
78.9240633592
 10
142.7830905175
 20
78.9235700925
 10
142.7761175999
 20
78.9235896549
 10
142.7687839257
 20
78.924157792
 10
142.7610844691
 20
78.92525205
 10
142.7531046128
 20
78.9268418653
 10
142.7448697177
 20
78.9289372443
 10
142.7363772722
 20
78.9315413717
 10
142.7276715294
 20
78.9346138436
 10
142.7187698014
 20
78.9381555858
 10
142.7096734621
 20
78.9421764598
 10
142.7004018789
 20
78.9466488997
 10
142.6909672462
 20
78.9515711723
 10
142.6813719345
 20
78.956953419
 10
142.6716196641
 20
78.9627853588
 10
142.6617174766
 20
78.969065838
 10
142.6516695846
 20
78.9758025072
 10
142.6414748278
 20
78.9829979243
 10
142.6311388928
 20
78.9906502841
 10
142.6206646137
 20
78.9987663105
 10
142.6100460084
 20
79.0073610413
 10
142.5992831103
 20
79.0164406596
 10
142.5883819294
 20
79.0260024709
 10
142.5773448889
 20
79.0360478737
  0
LWPOLYLINE
  5
4D4
100
AcDbEntity
  8
IMPORT_IGES
100
AcDbPolyline
 62
7
  6
CONTINUOUS
 90
3
 70
0
 10
144.0542974038
 20
78.3585326046
 10
144.0100076121
 20
78.3394632012
 10
143.9506006523
 20
78.322400032
  0
LINE
  5
4D5
100
AcDbEntity
  8
0
100
AcDbLine
 62
250
  6
CONTINUOUS
 10
148.4053995982
 20
78.9624257101
 11
151.7464842645
 21
80.8915261229
  0
LINE
  5
4D6
100
AcDbEntity
  8
IMPORT_IGES
100
AcDbLine
 62
250
  6
CONTINUOUS
 10
148.4053995982
 20
78.9624257101
 11
151.7995121479
 21
80.9221437581
  0
LINE
  5
4D7
100
AcDbEntity
  8
0
100
AcDbLine
 62
7
  6
CONTINUOUS
 10
148.4053995982
 20
78.9117002175
 11
151.7684497547
 21
80.8534832289
  0
LINE
  5
4D8
100
AcDbEntity
  8
IMPORT_IGES
100
AcDbLine
 62
7
  6
CONTINUOUS
 10
148.4053995982
 20
78.9117002175
 11
151.7684497547
 21
80.8534832289
  0
LINE
  5
4D9
100
AcDbEntity
  8
IMPORT_IGES
100
AcDbLine
 62
250
  6
CONTINUOUS
 10
151.3733059988
 20
80.5028203195
 11
148.4053995982
 21
78.7891883603
  0
LINE
  5
4DA
100
AcDbEntity
  8
0
100
AcDbLine
 62
250
  6
CONTINUOUS
 10
148.4053995982
 20
78.7891883603
 11
151.5147273551
 21
80.5844752381
  0
LINE
  5
4DB
100
AcDbEntity
  8
0
100
AcDbLine
 62
250
  6
CONTINUOUS
 10
151.6207933722
 20
80.452525649
 11
148.4053995982
 21
78.5959975822
  0
LINE
  5
4DC
100
AcDbEntity
  8
IMPORT_IGES
100
AcDbLine
 62
250
  6
CONTINUOUS
 10
151.479372016
 20
80.3708707303
 11
148.4053995982
 21
78.5959975822
  0
LINE
  5
4DD
100
AcDbEntity
  8
IMPORT_IGES
100
AcDbLine
 62
250
  6
CONTINUOUS
 10
151.6404131221
 20
80.3852448927
 11
148.4053995982
 21
78.5173886282
  0
LINE
  5
4DE
100
AcDbEntity
  8
0
100
AcDbLine
 62
250
  6
CONTINUOUS
 10
148.4053995982
 20
78.5173886282
 11
151.7818344783
 21
80.4668998113
  0
LINE
  5
4DF
100
AcDbEntity
  8
0
100
AcDbLine
 62
250
  6
CONTINUOUS
 10
151.9409335041
 20
80.2689754277
 11
148.4053995982
 21
78.227602461
  0
LINE
  5
4E0
100
AcDbEntity
  8
IMPORT_IGES
100
AcDbLine
 62
250
  6
CONTINUOUS
 10
151.7995121479
 20
80.187320509
 11
148.4053995982
 21
78.227602461
  0
LINE
  5
4E1
100
AcDbEntity
  8
0
100
AcDbLine
 62
7
  6
CONTINUOUS
 10
151.7995121479
 20
79.8199088845
 11
148.0518462076
 21
77.6560535398
  0
LINE
  5
4E2
100
AcDbEntity
  8
IMPORT_IGES
100
AcDbLine
 62
7
  6
CONTINUOUS
 10
148.0518462076
 20
77.6560535398
 11
151.7995121479
 21
79.8199088845
  0
LINE
  5
4E3
100
AcDbEntity
  8
0
100
AcDbLine
 62
7
  6
CONTINUOUS
 10
147.9104248513
 20
78.2668076995
 11
144.9965044914
 21
76.9379799996
  0
LINE
  5
4E4
100
AcDbEntity
  8
IMPORT_IGES
100
AcDbLine
 62
7
  6
CONTINUOUS
 10
147.9104248513
 20
78.2668076995
 11
144.9965044914
 21
76.9379799996
  0
LWPOLYLINE
  5
4E5
100
AcDbEntity
  8
0
100
AcDbPolyline
 62
7
  6
CONTINUOUS
 90
7
 70
0
 10
144.9965044914
 20
76.9379799996
 10
144.978900199
 20
76.931411111
 10
144.9623168062
 20
76.9275358508
 10
144.9467543128
 20
76.926354219
 10
144.9320432759
 20
76.9279398115
 10
144.9183531386
 20
76.9322190324
 10
144.9112908724
 20
76.9357275201
  0
LWPOLYLINE
  5
4E6
100
AcDbEntity
  8
IMPORT_IGES
100
AcDbPolyline
 62
7
  6
CONTINUOUS
 90
7
 70
0
 10
144.9965044914
 20
76.9379799996
 10
144.978900199
 20
76.931411111
 10
144.9623168062
 20
76.9275358508
 10
144.9467543128
 20
76.926354219
 10
144.9320432759
 20
76.9279398115
 10
144.9183531386
 20
76.9322190324
 10
144.9112908724
 20
76.9357275201
  0
LINE
  5
4E7
100
AcDbEntity
  8
IMPORT_IGES
100
AcDbLine
 62
7
  6
CONTINUOUS
 10
152.5065835737
 20
78.8401255111
 11
153.2660162567
 21
79.2786124243
  0
LWPOLYLINE
  5
4E8
100
AcDbEntity
  8
0
100
AcDbPolyline
 62
7
  6
CONTINUOUS
 90
7
 70
0
 10
148.0518462076
 20
77.6560535398
 10
148.0326582868
 20
77.6466787168
 10
148.0144790124
 20
77.6403933384
 10
147.9973083841
 20
77.6371974048
 10
147.9809278912
 20
77.6371599165
 10
147.9655560445
 20
77.6402118729
 10
147.951843545
 20
77.6461490616
  0
LWPOLYLINE
  5
4E9
100
AcDbEntity
  8
IMPORT_IGES
100
AcDbPolyline
 62
7
  6
CONTINUOUS
 90
7
 70
0
 10
148.0518462076
 20
77.6560535398
 10
148.0326582868
 20
77.6466787168
 10
148.0144790124
 20
77.6403933384
 10
147.9973083841
 20
77.6371974048
 10
147.9809278912
 20
77.6371599165
 10
147.9655560445
 20
77.6402118729
 10
147.951843545
 20
77.6461490616
  0
ELLIPSE
  5
4EA
100
AcDbEntity
  8
0
100
AcDbEllipse
 62
7
  6
CONTINUOUS
 10
121.1191112556
 20
83.5803736766
 30
0.0
 11
7.828012141
 21
4.5199165711
 31
0.0
 40
0.2046637745
 41
0.2032900785
 42
0.4035675874
  0
ELLIPSE
  5
4EB
100
AcDbEntity
  8
0
100
AcDbEllipse
 62
7
  6
CONTINUOUS
 10
121.1191112556
 20
83.5803736766
 30
0.0
 11
7.828012141
 21
4.5199165711
 31
0.0
 40
0.2046637745
 41
-0.4035837309
 42
-0.2034403325
  0
ELLIPSE
  5
4EC
100
AcDbEntity
  8
0
100
AcDbEllipse
 62
7
  6
CONTINUOUS
 10
133.3214670369
 20
86.54311504
 30
0.0
 11
1.8681988131
 21
-0.9774569839
 31
0.0
 40
0.4444494742
 41
2.9139015476
 42
3.1530756521
  0
ELLIPSE
  5
4ED
100
AcDbEntity
  8
0
100
AcDbEllipse
 62
7
  6
CONTINUOUS
 10
126.2503992251
 20
90.6258609733
 30
0.0
 11
1.8681988131
 21
-0.9774569839
 31
0.0
 40
0.4444494742
 41
2.9139015476
 42
3.1530756521
  0
ELLIPSE
  5
4EE
100
AcDbEntity
  8
0
100
AcDbEllipse
 62
7
  6
CONTINUOUS
 10
126.2503992251
 20
90.6258609733
 30
0.0
 11
1.6804358908
 21
0.9697515868
 31
0.0
 40
0.9535217383
 41
2.8555447482
 42
3.4280223623
  0
ELLIPSE
  5
4EF
100
AcDbEntity
  8
0
100
AcDbEllipse
 62
7
  6
CONTINUOUS
 10
117.5835773497
 20
85.6217466432
 30
0.0
 11
7.828012141
 21
4.5199165711
 31
0.0
 40
0.2046637745
 41
0.2032900785
 42
0.4035675874
  0
ELLIPSE
  5
4F0
100
AcDbEntity
  8
0
100
AcDbEllipse
 62
7
  6
CONTINUOUS
 10
117.5835773497
 20
85.6217466432
 30
0.0
 11
7.828012141
 21
4.5199165711
 31
0.0
 40
0.2046637745
 41
-0.4035837309
 42
-0.2034403325
  0
ELLIPSE
  5
4F1
100
AcDbEntity
  8
0
100
AcDbEllipse
 62
7
  6
CONTINUOUS
 10
133.3214670369
 20
86.54311504
 30
0.0
 11
1.6804358908
 21
0.9697515868
 31
0.0
 40
0.9535217383
 41
2.8555447482
 42
3.4280223623
  0
ELLIPSE
  5
4F2
100
AcDbEntity
  8
0
100
AcDbEllipse
 62
7
  6
CONTINUOUS
 10
124.6546451615
 20
81.5390007099
 30
0.0
 11
7.828012141
 21
4.5199165711
 31
0.0
 40
0.2046637745
 41
0.2032900785
 42
0.4035675874
  0
ELLIPSE
  5
4F3
100
AcDbEntity
  8
0
100
AcDbEllipse
 62
7
  6
CONTINUOUS
 10
124.6546451615
 20
81.5390007099
 30
0.0
 11
7.828012141
 21
4.5199165711
 31
0.0
 40
0.2046637745
 41
-0.4035837309
 42
-0.2034403325
  0
ELLIPSE
  5
4F4
100
AcDbEntity
  8
0
100
AcDbEllipse
 62
7
  6
CONTINUOUS
 10
126.2503992251
 20
90.6258609733
 30
0.0
 11
0.0875278782
 21
2.1066512445
 31
0.0
 40
0.4444793856
 41
-3.1531415454
 42
-2.9137282632
  0
ELLIPSE
  5
4F5
100
AcDbEntity
  8
0
100
AcDbEllipse
 62
7
  6
CONTINUOUS
 10
136.8570009429
 20
84.5017420734
 30
0.0
 11
1.6804358908
 21
0.9697515868
 31
0.0
 40
0.9535217383
 41
2.8555447482
 42
3.4280223623
  0
ELLIPSE
  5
4F6
100
AcDbEntity
  8
0
100
AcDbEllipse
 62
7
  6
CONTINUOUS
 10
143.9280687547
 20
80.4189961401
 30
0.0
 11
1.8681988131
 21
-0.9774569839
 31
0.0
 40
0.4444494742
 41
2.9139015477
 42
3.1530756521
  0
ELLIPSE
  5
4F7
100
AcDbEntity
  8
0
100
AcDbEllipse
 62
7
  6
CONTINUOUS
 10
129.785933131
 20
88.5844880066
 30
0.0
 11
0.0875278782
 21
2.1066512445
 31
0.0
 40
0.4444793856
 41
-3.1531415454
 42
-2.9137282632
  0
ELLIPSE
  5
4F8
100
AcDbEntity
  8
0
100
AcDbEllipse
 62
7
  6
CONTINUOUS
 10
143.9280687547
 20
80.4189961401
 30
0.0
 11
1.6804358908
 21
0.9697515868
 31
0.0
 40
0.9535217383
 41
2.8555447482
 42
3.4280223623
  0
ELLIPSE
  5
4F9
100
AcDbEntity
  8
0
100
AcDbEllipse
 62
7
  6
CONTINUOUS
 10
135.2612468793
 20
75.41488181
 30
0.0
 11
7.828012141
 21
4.5199165711
 31
0.0
 40
0.2046637745
 41
0.2032900785
 42
0.4035675874
  0
ELLIPSE
  5
4FA
100
AcDbEntity
  8
0
100
AcDbEllipse
 62
7
  6
CONTINUOUS
 10
135.2612468793
 20
75.41488181
 30
0.0
 11
7.828012141
 21
4.5199165711
 31
0.0
 40
0.2046637745
 41
-0.4035837309
 42
-0.2034403325
  0
ELLIPSE
  5
4FB
100
AcDbEntity
  8
0
100
AcDbEllipse
 62
7
  6
CONTINUOUS
 10
133.3214670369
 20
86.54311504
 30
0.0
 11
0.0875278782
 21
2.1066512445
 31
0.0
 40
0.4444793856
 41
-3.1531415454
 42
-2.9137282632
  0
ELLIPSE
  5
4FC
100
AcDbEntity
  8
0
100
AcDbEllipse
 62
7
  6
CONTINUOUS
 10
136.8570009429
 20
84.5017420733
 30
0.0
 11
0.0875278782
 21
2.1066512445
 31
0.0
 40
0.4444793856
 41
-3.1531415454
 42
-2.9137282632
  0
ELLIPSE
  5
4FD
100
AcDbEntity
  8
0
100
AcDbEllipse
 62
7
  6
CONTINUOUS
 10
140.3925348488
 20
82.4603691067
 30
0.0
 11
0.0875278782
 21
2.1066512445
 31
0.0
 40
0.4444793856
 41
-3.1531415454
 42
-2.9137282632
  0
ELLIPSE
  5
4FE
100
AcDbEntity
  8
0
100
AcDbEllipse
 62
7
  6
CONTINUOUS
 10
143.9280687547
 20
80.4189961401
 30
0.0
 11
0.0875278782
 21
2.1066512445
 31
0.0
 40
0.4444793856
 41
-3.1531415454
 42
-2.9137282632
  0
ELLIPSE
  5
4FF
100
AcDbEntity
  8
0
100
AcDbEllipse
 62
7
  6
CONTINUOUS
 10
140.3925348488
 20
82.4603691067
 30
0.0
 11
1.8681988131
 21
-0.9774569839
 31
0.0
 40
0.4444494742
 41
2.9139015477
 42
3.1530756521
  0
ELLIPSE
  5
500
100
AcDbEntity
  8
0
100
AcDbEllipse
 62
7
  6
CONTINUOUS
 10
128.1901790675
 20
79.4976277433
 30
0.0
 11
7.828012141
 21
4.5199165711
 31
0.0
 40
0.2046637745
 41
0.2032900785
 42
0.4035675874
  0
ELLIPSE
  5
501
100
AcDbEntity
  8
0
100
AcDbEllipse
 62
7
  6
CONTINUOUS
 10
128.1901790675
 20
79.4976277433
 30
0.0
 11
7.828012141
 21
4.5199165711
 31
0.0
 40
0.2046637745
 41
-0.4035837309
 42
-0.2034403325
  0
ELLIPSE
  5
502
100
AcDbEntity
  8
0
100
AcDbEllipse
 62
7
  6
CONTINUOUS
 10
140.3925348488
 20
82.4603691067
 30
0.0
 11
1.6804358908
 21
0.9697515868
 31
0.0
 40
0.9535217383
 41
2.8555447482
 42
3.4280223623
  0
ELLIPSE
  5
503
100
AcDbEntity
  8
0
100
AcDbEllipse
 62
7
  6
CONTINUOUS
 10
131.7257129734
 20
77.4562547766
 30
0.0
 11
7.828012141
 21
4.5199165711
 31
0.0
 40
0.2046637745
 41
0.2032900785
 42
0.4035675874
  0
ELLIPSE
  5
504
100
AcDbEntity
  8
0
100
AcDbEllipse
 62
7
  6
CONTINUOUS
 10
131.7257129734
 20
77.4562547766
 30
0.0
 11
7.828012141
 21
4.5199165711
 31
0.0
 40
0.2046637745
 41
-0.4035837309
 42
-0.2034403325
  0
ELLIPSE
  5
505
100
AcDbEntity
  8
0
100
AcDbEllipse
 62
7
  6
CONTINUOUS
 10
136.8570009429
 20
84.5017420734
 30
0.0
 11
1.8681988131
 21
-0.9774569839
 31
0.0
 40
0.4444494742
 41
2.9139015476
 42
3.1530756521
  0
ELLIPSE
  5
506
100
AcDbEntity
  8
0
100
AcDbEllipse
 62
7
  6
CONTINUOUS
 10
129.785933131
 20
88.5844880066
 30
0.0
 11
1.8681988131
 21
-0.9774569839
 31
0.0
 40
0.4444494742
 41
2.9139015476
 42
3.1530756521
  0
ELLIPSE
  5
507
100
AcDbEntity
  8
0
100
AcDbEllipse
 62
7
  6
CONTINUOUS
 10
129.785933131
 20
88.5844880066
 30
0.0
 11
1.6804358908
 21
0.9697515868
 31
0.0
 40
0.9535217383
 41
2.8555447482
 42
3.4280223623
  0
ENDSEC
  0
SECTION
  2
OBJECTS
  0
DICTIONARY
  5
C
100
AcDbDictionary
280
0
281
1
  3
ACAD_GROUP
350
D
  3
ACAD_MLINESTYLE
350
17
  3
ACAD_LAYOUT
350
1A
  3
ACAD_PLOTSETTINGS
350
19
  3
ACAD_PLOTSTYLENAME
350
E
  0
DICTIONARY
  5
D
102
{ACAD_REACTORS
330
C
102
}
100
AcDbDictionary
280
0
281
1
  0
ACDBDICTIONARYWDFLT
  5
E
102
{ACAD_REACTORS
330
C
102
}
100
AcDbDictionary
281
1
  3
Normal
350
F
100
AcDbDictionaryWithDefault
340
F
  0
DICTIONARY
  5
17
102
{ACAD_REACTORS
330
C
102
}
100
AcDbDictionary
280
0
281
1
  3
Standard
350
18
  0
DICTIONARY
  5
19
102
{ACAD_REACTORS
330
C
102
}
100
AcDbDictionary
281
1
  0
DICTIONARY
  5
1A
102
{ACAD_REACTORS
330
C
102
}
100
AcDbDictionary
281
1
  3
Model
350
508
  3
Layout1
350
509
  0
ACDBPLACEHOLDER
  5
F
102
{ACAD_REACTORS
330
E
102
}
  0
MLINESTYLE
  5
18
102
{ACAD_REACTORS
330
17
102
}
100
AcDbMlineStyle
  2
STANDARD
 70
0
  3

 62
256
 51
90.0
 52
90.0
 71
2
 49
0.5
 62
256
  6
BYLAYER
 49
-0.5
 62
256
  6
BYLAYER
  0
LAYOUT
  5
508
102
{ACAD_REACTORS
330
1A
102
}
100
AcDbPlotSettings
  1

  2
none_device
  4
ISO_A4_(297.00_x_210.00_MM)
  6

 40
0.0
 41
0.0
 42
0.0
 43
0.0
 44
297.0
 45
210.0
 46
0.0
 47
0.0
 48
0.0
 49
0.0
140
0.0
141
0.0
142
1.0
143
1.0
 70
1024
 72
1
 73
0
 74
0
  7

 75
0
147
1.0
148
0.0
149
0.0
100
AcDbLayout
  1
Model
 70
0
 71
0
 10
0.0
 20
0.0
 11
297.0
 21
210.0
 12
0.0
 22
0.0
 32
0.0
 14
0.0
 24
0.0
 34
0.0
 15
0.0
 25
0.0
 35
0.0
146
0.0
 13
0.0
 23
0.0
 33
0.0
 16
1.0
 26
0.0
 36
0.0
 17
0.0
 27
1.0
 37
0.0
 76
0
330
230
345
0
346
0
  0
LAYOUT
  5
509
102
{ACAD_REACTORS
330
1A
102
}
100
AcDbPlotSettings
  1

  2
none_device
  4
ISO_A4_(297.00_x_210.00_MM)
  6

 40
0.0
 41
0.0
 42
0.0
 43
0.0
 44
297.0
 45
210.0
 46
0.0
 47
0.0
 48
0.0
 49
0.0
140
0.0
141
0.0
142
1.0
143
1.0
 70
0
 72
1
 73
0
 74
0
  7

 75
0
147
1.0
148
0.0
149
0.0
100
AcDbLayout
  1
Layout1
 70
0
 71
1
 10
0.0
 20
0.0
 11
297.0
 21
210.0
 12
0.0
 22
0.0
 32
0.0
 14
0.0
 24
0.0
 34
0.0
 15
0.0
 25
0.0
 35
0.0
146
0.0
 13
0.0
 23
0.0
 33
0.0
 16
1.0
 26
0.0
 36
0.0
 17
0.0
 27
1.0
 37
0.0
 76
0
330
231
345
0
346
0
  0
ENDSEC
  0
EOF
