  0
SECTION
  2
HEADER
  9
$ACADVER
  1
AC1021
  9
$DWGCODEPAGE
  3
ANSI_1252
  9
$EXTMAX
 10
297.0
 20
210.0
 30
0.0
  9
$EXTMIN
 10
0.0
 20
0.0
 30
0.0
  9
$LIMMIN
 10
0.0
 20
0.0
  9
$LIMMAX
 10
297.0
 20
210.0
  9
$VIEWCTR
 10
148.5
 20
105.0
  9
$VIEWSIZE
 40
210.0
  9
$CLAYER
  8
0
  9
$LTSCALE
 40
16.335
  9
$CELTYPE
  6
BYLAYER
  9
$DIMSCALE
 40
1.0
  9
$DIMASZ
 40
3.0
  9
$DIMEXO
 40
0.5
  9
$DIMDLI
 40
11.286
  9
$DIMEXE
 40
1.5
  9
$DIMCEN
 40
2.673
  9
$DIMLFAC
 40
1.0
  9
$DIMBLK
  1
_FILLED
  9
$DIMALT
 70
0
  9
$DIMALTF
 40
25.4
  9
$DIMTXT
 40
3.0
  9
$DIMTOL
 70
1
  9
$DIMLIM
 70
0
  9
$DIMTFAC
 40
1.0
  9
$DIMTP
 40
0.01
  9
$DIMTM
 40
0.01
  9
$DIMGAP
 40
0.625
  9
$DIMDSEP
 70
44
  9
$AUNITS
 70
0
  9
$PDMODE
 70
3
  9
$PDSIZE
 40
3.0
  9
$HANDSEED
  5
296
  9
$TILEMODE
 70
1
  9
$MEASUREMENT
 70
1
  9
$INSUNITS
 70
4
  0
ENDSEC
  0
SECTION
  2
CLASSES
  0
CLASS
  1
ACDBDICTIONARYWDFLT
  2
AcDbDictionaryWithDefault
  3
AutoCAD 2000
 90
0
 91
1
280
0
281
0
  0
CLASS
  1
ACDBPLACEHOLDER
  2
AcDbPlaceHolder
  3
AutoCAD 2000
 90
0
 91
1
280
0
281
0
  0
CLASS
  1
LAYOUT
  2
AcDbLayout
  3
AutoCAD 2000
 90
0
 91
0
280
0
281
0
  0
ENDSEC
  0
SECTION
  2
TABLES
  0
TABLE
  2
VPORT
  5
8
100
AcDbSymbolTable
 70
2
  0
VPORT
  5
1F4
100
AcDbSymbolTableRecord
100
AcDbViewportTableRecord
  2
*ACTIVE
 70
0
 10
0.0
 20
0.0
 11
1.0
 21
1.0
 12
148.5
 22
105.0
 13
0.0
 23
0.0
 14
1.0
 24
1.0
 15
0.0
 25
0.0
 16
0.0
 26
0.0
 36
1.0
 17
0.0
 27
0.0
 37
0.0
 40
210.0
 41
1.4142857143
 42
50.0
 43
0.0
 44
0.0
 50
0.0
 51
0.0
 71
0
 72
100
 73
1
 74
1
 75
0
 76
0
 77
0
 78
0
  0
ENDTAB
  0
TABLE
  2
LTYPE
  5
5
100
AcDbSymbolTable
 70
6
  0
LTYPE
  5
14
100
AcDbSymbolTableRecord
100
AcDbLinetypeTableRecord
  2
BYBLOCK
 70
0
  3

 72
65
 73
0
 40
0.0
  0
LTYPE
  5
15
100
AcDbSymbolTableRecord
100
AcDbLinetypeTableRecord
  2
BYLAYER
 70
0
  3

 72
65
 73
0
 40
0.0
  0
LTYPE
  5
16
100
AcDbSymbolTableRecord
100
AcDbLinetypeTableRecord
  2
CONTINUOUS
 70
64
  3
Solid line
 72
65
 73
0
 40
0.0
  0
LTYPE
  5
1F5
100
AcDbSymbolTableRecord
100
AcDbLinetypeTableRecord
  2
CENTER
 70
64
  3
____ _ ____ _ ____ _ ____ _ ____ _ ____ _ ____
 72
65
 73
4
 40
0.6
 49
0.375
 74
0
 49
-0.075
 74
0
 49
0.075
 74
0
 49
-0.075
 74
0
  0
LTYPE
  5
1F6
100
AcDbSymbolTableRecord
100
AcDbLinetypeTableRecord
  2
HIDDEN
 70
64
  3
- - - - - - - - - - - - - - - - - - - -
 72
65
 73
2
 40
0.2
 49
0.1
 74
0
 49
-0.1
 74
0
  0
LTYPE
  5
1F7
100
AcDbSymbolTableRecord
100
AcDbLinetypeTableRecord
  2
PHANTOM
 70
64
  3
_____ _ _ _____ _ _ _____ _ _ _____
 72
65
 73
6
 40
0.8
 49
0.45
 74
0
 49
-0.05
 74
0
 49
0.1
 74
0
 49
-0.05
 74
0
 49
0.1
 74
0
 49
-0.05
 74
0
  0
LTYPE
  5
1F8
100
AcDbSymbolTableRecord
100
AcDbLinetypeTableRecord
  2
DOT
 70
64
  3
. . . . . . . . . . . . . . . . . . . .
 72
65
 73
2
 40
0.2
 49
0.1
 74
0
 49
-0.1
 74
0
  0
LTYPE
  5
1F9
100
AcDbSymbolTableRecord
100
AcDbLinetypeTableRecord
  2
DASHED
 70
64
  3
- - - - - - - - - - - - - - - - - - - -
 72
65
 73
2
 40
0.2
 49
0.1
 74
0
 49
-0.1
 74
0
  0
ENDTAB
  0
TABLE
  2
LAYER
  5
2
100
AcDbSymbolTable
 70
36
  0
LAYER
  5
10
100
AcDbSymbolTableRecord
100
AcDbLayerTableRecord
  2
0
 70
0
 62
7
  6
CONTINUOUS
370
-3
390
F
  0
LAYER
  5
1FA
100
AcDbSymbolTableRecord
100
AcDbLayerTableRecord
  2
DEFAULT_1
 70
0
 62
7
  6
CENTER
370
-3
390
F
  0
LAYER
  5
1FB
100
AcDbSymbolTableRecord
100
AcDbLayerTableRecord
  2
DEFAULT_2
 70
0
 62
7
  6
HIDDEN
370
-3
390
F
  0
LAYER
  5
1FC
100
AcDbSymbolTableRecord
100
AcDbLayerTableRecord
  2
DEFAULT_3
 70
0
 62
7
  6
PHANTOM
370
-3
390
F
  0
LAYER
  5
1FD
100
AcDbSymbolTableRecord
100
AcDbLayerTableRecord
  2
ASSI
 70
0
 62
7
  6
CONTINUOUS
370
-3
390
F
  0
LAYER
  5
1FE
100
AcDbSymbolTableRecord
100
AcDbLayerTableRecord
  2
COORDINATE
 70
0
 62
7
  6
CONTINUOUS
370
-3
390
F
  0
LAYER
  5
1FF
100
AcDbSymbolTableRecord
100
AcDbLayerTableRecord
  2
COORD_ORIGINE
 70
0
 62
7
  6
CONTINUOUS
370
-3
390
F
  0
LAYER
  5
200
100
AcDbSymbolTableRecord
100
AcDbLayerTableRecord
  2
COPY_PUBLISH
 70
0
 62
7
  6
CONTINUOUS
370
-3
390
F
  0
LAYER
  5
201
100
AcDbSymbolTableRecord
100
AcDbLayerTableRecord
  2
COSMETICHE
 70
0
 62
7
  6
CONTINUOUS
370
-3
390
F
  0
LAYER
  5
202
100
AcDbSymbolTableRecord
100
AcDbLayerTableRecord
  2
COSMETICI
 70
0
 62
7
  6
CONTINUOUS
370
-3
390
F
  0
LAYER
  5
203
100
AcDbSymbolTableRecord
100
AcDbLayerTableRecord
  2
CURVE
 70
0
 62
7
  6
CONTINUOUS
370
-3
390
F
  0
LAYER
  5
204
100
AcDbSymbolTableRecord
100
AcDbLayerTableRecord
  2
DRAFT
 70
0
 62
7
  6
CONTINUOUS
370
-3
390
F
  0
LAYER
  5
205
100
AcDbSymbolTableRecord
100
AcDbLayerTableRecord
  2
IMPORT_IGES
 70
0
 62
7
  6
CONTINUOUS
370
-3
390
F
  0
LAYER
  5
206
100
AcDbSymbolTableRecord
100
AcDbLayerTableRecord
  2
NOTE
 70
0
 62
7
  6
CONTINUOUS
370
-3
390
F
  0
LAYER
  5
207
100
AcDbSymbolTableRecord
100
AcDbLayerTableRecord
  2
PIANI
 70
0
 62
7
  6
CONTINUOUS
370
-3
390
F
  0
LAYER
  5
208
100
AcDbSymbolTableRecord
100
AcDbLayerTableRecord
  2
PIANI_ORIGINE
 70
0
 62
7
  6
CONTINUOUS
370
-3
390
F
  0
LAYER
  5
209
100
AcDbSymbolTableRecord
100
AcDbLayerTableRecord
  2
PUNTI
 70
0
 62
7
  6
CONTINUOUS
370
-3
390
F
  0
LAYER
  5
20A
100
AcDbSymbolTableRecord
100
AcDbLayerTableRecord
  2
RACCORDO
 70
0
 62
7
  6
CONTINUOUS
370
-3
390
F
  0
LAYER
  5
20B
100
AcDbSymbolTableRecord
100
AcDbLayerTableRecord
  2
SIMBOLI
 70
0
 62
7
  6
CONTINUOUS
370
-3
390
F
  0
LAYER
  5
20C
100
AcDbSymbolTableRecord
100
AcDbLayerTableRecord
  2
SMUSSO
 70
0
 62
7
  6
CONTINUOUS
370
-3
390
F
  0
LAYER
  5
20D
100
AcDbSymbolTableRecord
100
AcDbLayerTableRecord
  2
SNAPLINE
 70
0
 62
7
  6
CONTINUOUS
370
-3
390
F
  0
LAYER
  5
20E
100
AcDbSymbolTableRecord
100
AcDbLayerTableRecord
  2
SUPERFICI
 70
0
 62
7
  6
CONTINUOUS
370
-3
390
F
  0
LAYER
  5
20F
100
AcDbSymbolTableRecord
100
AcDbLayerTableRecord
  2
TRASH
 70
0
 62
7
  6
CONTINUOUS
370
-3
390
F
  0
ENDTAB
  0
TABLE
  2
STYLE
  5
3
100
AcDbSymbolTable
 70
1
  0
STYLE
  5
11
100
AcDbSymbolTableRecord
100
AcDbTextStyleTableRecord
  2
STANDARD
 70
0
 40
0.0
 41
0.8
 50
0.0
 71
0
 42
0.2
  3
txt
  4

  0
STYLE
  5
210
100
AcDbSymbolTableRecord
100
AcDbTextStyleTableRecord
  2
TEXTSTYLE_1
 70
0
 40
0.0
 41
0.8
 50
0.0
 71
0
 42
0.2
  3
gdt
  4

  0
ENDTAB
  0
TABLE
  2
VIEW
  5
6
100
AcDbSymbolTable
 70
0
  0
ENDTAB
  0
TABLE
  2
UCS
  5
7
100
AcDbSymbolTable
 70
0
  0
ENDTAB
  0
TABLE
  2
APPID
  5
9
100
AcDbSymbolTable
 70
1
  0
APPID
  5
211
100
AcDbSymbolTableRecord
100
AcDbRegAppTableRecord
  2
ACAD
 70
0
  0
ENDTAB
  0
TABLE
  2
BLOCK_RECORD
  5
1
100
AcDbSymbolTable
 70
0
  0
BLOCK_RECORD
  5
212
100
AcDbSymbolTableRecord
100
AcDbBlockTableRecord
  2
*Model_Space
  0
BLOCK_RECORD
  5
213
100
AcDbSymbolTableRecord
100
AcDbBlockTableRecord
  2
*Paper_Space
  0
BLOCK_RECORD
  5
214
100
AcDbSymbolTableRecord
100
AcDbBlockTableRecord
  2
_FILLED
  0
ENDTAB
  0
TABLE
  2
DIMSTYLE
  5
A
100
AcDbSymbolTable
 70
1
100
AcDbDimStyleTable
 71
0
  0
DIMSTYLE
105
215
100
AcDbSymbolTableRecord
100
AcDbDimStyleTableRecord
  2
STANDARD
 70
0
  3

  4

 40
1.0
 41
3.0
 42
0.5
 43
0.38
 44
1.5
 45
0.0
 46
0.0
 47
0.01
 48
0.01
140
3.0
141
0.09
142
0.0
143
25.4
144
1.0
145
0.0
146
1.0
147
0.625
 71
1.0
 72
0.0
 73
0
 74
0
 75
0
 76
0
 77
1
 78
8
 79
2
170
0
171
1
172
0
173
0
174
0
175
0
176
0
177
0
178
0
270
2
179
2
271
2
272
2
273
2
274
2
275
0
280
0
281
0
282
0
283
1
284
8
285
0
286
0
287
3
288
0
340
11
278
44
341
214
342
214
343
214
344
214
  0
ENDTAB
  0
ENDSEC
  0
SECTION
  2
BLOCKS
  0
BLOCK
  5
20
100
AcDbEntity
  8
0
100
AcDbBlockBegin
  2
*Model_Space
 70
0
 10
0.0
 20
0.0
 30
0.0
  3
*Model_Space
  1

  0
ENDBLK
  5
21
100
AcDbEntity
  8
0
100
AcDbBlockEnd
  0
BLOCK
  5
1C
100
AcDbEntity
  8
0
100
AcDbBlockBegin
  2
*Paper_Space
 70
0
 10
0.0
 20
0.0
 30
0.0
  3
*Paper_Space
  1

  0
ENDBLK
  5
1D
100
AcDbEntity
  8
0
100
AcDbBlockEnd
  0
BLOCK
  5
216
100
AcDbEntity
  8
0
100
AcDbBlockBegin
  2
_FILLED
 70
64
 10
0.0
 20
0.0
  3
_FILLED
  1

  0
SOLID
  5
217
100
AcDbEntity
  8
0
  6
BYBLOCK
 62
0
100
AcDbTrace
 10
0.0
 20
0.0
 11
-1.0
 21
0.3166666667
 12
-1.0
 22
-0.3166666667
 13
-1.0
 23
-0.3166666667
  0
ENDBLK
  5
218
100
AcDbEntity
  8
0
  6
BYBLOCK
 62
0
100
AcDbBlockEnd
  0
ENDSEC
  0
SECTION
  2
ENTITIES
  0
LINE
  5
219
100
AcDbEntity
  8
RACCORDO
100
AcDbLine
 62
7
  6
CONTINUOUS
 10
-51.4925124644
 20
92.0446765415
 11
-50.4318522926
 21
92.6570884315
  0
LINE
  5
21A
100
AcDbEntity
  8
RACCORDO
100
AcDbLine
 62
250
  6
CONTINUOUS
 10
-46.492270863
 20
91.5492647647
 11
-45.4316106912
 21
92.1616766547
  0
LINE
  5
21B
100
AcDbEntity
  8
RACCORDO
100
AcDbLine
 62
7
  6
CONTINUOUS
 10
-46.492270863
 20
-39.0859795221
 11
45.4316106912
 21
-92.1616766547
  0
LINE
  5
21C
100
AcDbEntity
  8
RACCORDO
100
AcDbLine
 62
7
  6
CONTINUOUS
 10
-53.5633386749
 20
87.4673079301
 11
-53.5633386749
 21
-26.8385308209
  0
LINE
  5
21D
100
AcDbEntity
  8
0
100
AcDbLine
 62
7
  6
CONTINUOUS
 10
-26.198306243
 20
6.7615048762
 11
-26.198306243
 21
10.4274473269
  0
LINE
  5
21E
100
AcDbEntity
  8
0
100
AcDbLine
 62
7
  6
CONTINUOUS
 10
-25.4911994618
 20
6.3532302829
 11
-25.4911994618
 21
10.0191727336
  0
LINE
  5
21F
100
AcDbEntity
  8
0
100
AcDbLine
 62
7
  6
CONTINUOUS
 10
-25.3497781055
 20
11.0843411818
 11
-25.3497781055
 21
10.2677919952
  0
LINE
  5
220
100
AcDbEntity
  8
RACCORDO
100
AcDbLine
 62
250
  6
CONTINUOUS
 10
-19.6222131779
 20
15.4119121664
 11
-18.5615530061
 21
16.0243240564
  0
LINE
  5
221
100
AcDbEntity
  8
0
100
AcDbLine
 62
7
  6
CONTINUOUS
 10
-26.9533918965
 20
10.6370223597
 11
-25.6805996903
 21
11.3719166277
  0
LINE
  5
222
100
AcDbEntity
  8
0
100
AcDbLine
 62
7
  6
CONTINUOUS
 10
-26.0568848867
 20
10.6760665885
 11
-25.3497781055
 21
11.0843411818
  0
LINE
  5
223
100
AcDbEntity
  8
0
100
AcDbLine
 62
7
  6
CONTINUOUS
 10
-24.180813149
 20
11.0831554422
 11
-24.1199153584
 21
11.1183170632
  0
LINE
  5
224
100
AcDbEntity
  8
0
100
AcDbLine
 62
7
  6
CONTINUOUS
 10
-24.6426713244
 20
10.6760665885
 11
-25.3497781055
 21
10.2677919952
  0
LINE
  5
225
100
AcDbEntity
  8
0
100
AcDbLine
 62
7
  6
CONTINUOUS
 10
-23.9288633297
 20
10.874455543
 11
-23.7813683074
 21
10.9596173204
  0
LINE
  5
226
100
AcDbEntity
  8
RACCORDO
100
AcDbLine
 62
7
  6
CONTINUOUS
 10
-13.9653589284
 20
-22.1460362055
 11
12.9046987567
 21
-37.660470752
  0
LINE
  5
227
100
AcDbEntity
  8
RACCORDO
100
AcDbLine
 62
7
  6
CONTINUOUS
 10
-12.9046987567
 20
-21.5336243155
 11
13.9653589284
 21
-37.048058862
  0
LINE
  5
228
100
AcDbEntity
  8
RACCORDO
100
AcDbLine
 62
7
  6
CONTINUOUS
 10
-19.6222131779
 20
15.4119121664
 11
-19.6222131779
 21
-12.3480772445
  0
LINE
  5
229
100
AcDbEntity
  8
RACCORDO
100
AcDbLine
 62
7
  6
CONTINUOUS
 10
-18.5615530061
 20
16.0243240564
 11
-18.5615530061
 21
-11.7356653546
  0
LINE
  5
22A
100
AcDbEntity
  8
0
100
AcDbLine
 62
7
  6
CONTINUOUS
 10
-22.735709394
 20
8.8075553927
 11
-22.5876365111
 21
8.8930508196
  0
LINE
  5
22B
100
AcDbEntity
  8
0
100
AcDbLine
 62
7
  6
CONTINUOUS
 10
-25.4911994618
 20
7.0028151266
 11
-26.0568848867
 21
6.6761954519
  0
LINE
  5
22C
100
AcDbEntity
  8
0
100
AcDbLine
 62
7
  6
CONTINUOUS
 10
-22.6806973522
 20
8.4851460891
 11
-22.619842878
 21
8.5202826998
  0
LINE
  5
22D
100
AcDbEntity
  8
0
100
AcDbLine
 62
7
  6
CONTINUOUS
 10
-24.4532710958
 20
6.3069650874
 11
-23.1804788896
 21
7.0418593553
  0
LINE
  5
22E
100
AcDbEntity
  8
RACCORDO
100
AcDbLine
 62
250
  6
CONTINUOUS
 10
45.4316106912
 20
38.4735676321
 11
46.492270863
 21
39.0859795221
  0
LINE
  5
22F
100
AcDbEntity
  8
RACCORDO
100
AcDbLine
 62
250
  6
CONTINUOUS
 10
-19.6222131779
 20
-12.3480772445
 11
-18.5615530061
 21
-11.7356653546
  0
LINE
  5
230
100
AcDbEntity
  8
RACCORDO
100
AcDbLine
 62
250
  6
CONTINUOUS
 10
52.5026785031
 20
26.2261189309
 11
53.5633386749
 21
26.8385308209
  0
LINE
  5
231
100
AcDbEntity
  8
RACCORDO
100
AcDbLine
 62
250
  6
CONTINUOUS
 10
-13.9653589284
 20
-22.1460362055
 11
-12.9046987567
 21
-21.5336243155
  0
LINE
  5
232
100
AcDbEntity
  8
RACCORDO
100
AcDbLine
 62
7
  6
CONTINUOUS
 10
12.9046987567
 20
3.1630430877
 11
-13.9653589284
 21
18.6774776341
  0
LINE
  5
233
100
AcDbEntity
  8
RACCORDO
100
AcDbLine
 62
7
  6
CONTINUOUS
 10
18.5615530061
 20
-34.3949052842
 11
18.5615530061
 21
-18.4999166578
  0
LINE
  5
234
100
AcDbEntity
  8
RACCORDO
100
AcDbLine
 62
7
  6
CONTINUOUS
 10
18.5615530061
 20
-15.85755618
 11
18.5615530061
 21
-6.6349158733
  0
LINE
  5
235
100
AcDbEntity
  8
0
100
AcDbLine
 62
7
  6
CONTINUOUS
 10
19.4807918217
 20
-19.6130338528
 11
19.4807918217
 21
-15.9470914021
  0
LINE
  5
236
100
AcDbEntity
  8
0
100
AcDbLine
 62
7
  6
CONTINUOUS
 10
20.1878986029
 20
-20.0213084461
 11
20.1878986029
 21
-16.3553659954
  0
LINE
  5
237
100
AcDbEntity
  8
0
100
AcDbLine
 62
7
  6
CONTINUOUS
 10
20.3293199591
 20
-15.2901975472
 11
20.3293199591
 21
-16.1067467338
  0
LINE
  5
238
100
AcDbEntity
  8
0
100
AcDbLine
 62
7
  6
CONTINUOUS
 10
18.7257061682
 20
-15.7375163693
 11
19.9984983743
 21
-15.0026221013
  0
LINE
  5
239
100
AcDbEntity
  8
0
100
AcDbLine
 62
7
  6
CONTINUOUS
 10
19.6222131779
 20
-15.6984721405
 11
20.3293199591
 21
-15.2901975472
  0
LINE
  5
23A
100
AcDbEntity
  8
0
100
AcDbLine
 62
7
  6
CONTINUOUS
 10
21.4982849157
 20
-15.2913832868
 11
21.5591827062
 21
-15.2562216657
  0
LINE
  5
23B
100
AcDbEntity
  8
0
100
AcDbLine
 62
7
  6
CONTINUOUS
 10
21.0364267403
 20
-15.6984721405
 11
20.3293199591
 21
-16.1067467338
  0
LINE
  5
23C
100
AcDbEntity
  8
0
100
AcDbLine
 62
7
  6
CONTINUOUS
 10
21.7502347349
 20
-15.500083186
 11
21.8977297573
 21
-15.4149214086
  0
LINE
  5
23D
100
AcDbEntity
  8
0
100
AcDbLine
 62
7
  6
CONTINUOUS
 10
22.9433886706
 20
-17.5669833362
 11
23.0914615536
 21
-17.4814879094
  0
LINE
  5
23E
100
AcDbEntity
  8
0
100
AcDbLine
 62
7
  6
CONTINUOUS
 10
20.1878986029
 20
-19.3717236024
 11
19.6222131779
 21
-19.6983432771
  0
LINE
  5
23F
100
AcDbEntity
  8
0
100
AcDbLine
 62
7
  6
CONTINUOUS
 10
22.9984007124
 20
-17.8893926399
 11
23.0592551866
 21
-17.8542560292
  0
LINE
  5
240
100
AcDbEntity
  8
0
100
AcDbLine
 62
7
  6
CONTINUOUS
 10
21.2258269689
 20
-20.0675736416
 11
22.498619175
 21
-19.3326793736
  0
LINE
  5
241
100
AcDbEntity
  8
RACCORDO
100
AcDbLine
 62
250
  6
CONTINUOUS
 10
12.9046987567
 20
-37.660470752
 11
13.9653589284
 21
-37.048058862
  0
LINE
  5
242
100
AcDbEntity
  8
RACCORDO
100
AcDbLine
 62
7
  6
CONTINUOUS
 10
52.5026785031
 20
-88.0797198201
 11
52.5026785031
 21
26.2261189309
  0
LINE
  5
243
100
AcDbEntity
  8
RACCORDO
100
AcDbLine
 62
7
  6
CONTINUOUS
 10
53.5633386749
 20
-87.4673079301
 11
53.5633386749
 21
26.8385308209
  0
LINE
  5
244
100
AcDbEntity
  8
RACCORDO
100
AcDbLine
 62
7
  6
CONTINUOUS
 10
45.4316106912
 20
38.4735676321
 11
-46.492270863
 21
91.5492647647
  0
LINE
  5
245
100
AcDbEntity
  8
RACCORDO
100
AcDbLine
 62
7
  6
CONTINUOUS
 10
46.492270863
 20
39.0859795221
 11
-45.4316106912
 21
92.1616766547
  0
LINE
  5
246
100
AcDbEntity
  8
RACCORDO
100
AcDbLine
 62
250
  6
CONTINUOUS
 10
52.5026785031
 20
-88.0797198201
 11
53.5633386749
 21
-87.4673079301
  0
LINE
  5
247
100
AcDbEntity
  8
RACCORDO
100
AcDbLine
 62
7
  6
CONTINUOUS
 10
50.4318522926
 20
-92.6570884315
 11
51.4925124644
 21
-92.0446765415
  0
ARC
  5
248
100
AcDbEntity
  8
0
100
AcDbCircle
 62
7
  6
CONTINUOUS
 10
19.5355483756
 20
-17.9077885178
 40
3.2713826643
100
AcDbArc
 50
48.572817093
 51
48.7701893019
  0
ARC
  5
249
100
AcDbEntity
  8
0
100
AcDbCircle
 62
7
  6
CONTINUOUS
 10
-26.1435496859
 20
8.4667502147
 40
3.2713826594
100
AcDbArc
 50
48.5728170928
 51
48.770189302
  0
SPLINE
  5
24A
100
AcDbEntity
  8
0
100
AcDbSpline
 62
7
  6
CONTINUOUS
 70
0
 71
3
 72
147
 73
143
 74
0
 42
0.0000001
 43
0.0000001
 44
0.0000000001
 40
0.0
 40
0.0
 40
0.0
 40
0.0
 40
0.03125
 40
0.046875
 40
0.0625
 40
0.0703125
 40
0.078125
 40
0.08203125
 40
0.083984375
 40
0.0859375
 40
0.08984375
 40
0.09375
 40
0.1015625
 40
0.109375
 40
0.125
 40
0.140625
 40
0.1484375
 40
0.15625
 40
0.16015625
 40
0.1640625
 40
0.166015625
 40
0.16796875
 40
0.171875
 40
0.1796875
 40
0.1875
 40
0.203125
 40
0.21875
 40
0.2265625
 40
0.234375
 40
0.2421875
 40
0.24609375
 40
0.248046875
 40
0.25
 40
0.251953125
 40
0.25390625
 40
0.2578125
 40
0.265625
 40
0.2734375
 40
0.28125
 40
0.296875
 40
0.3125
 40
0.3203125
 40
0.328125
 40
0.33203125
 40
0.333984375
 40
0.3359375
 40
0.33984375
 40
0.34375
 40
0.359375
 40
0.375
 40
0.390625
 40
0.40625
 40
0.41015625
 40
0.4140625
 40
0.416015625
 40
0.41796875
 40
0.421875
 40
0.4296875
 40
0.4375
 40
0.453125
 40
0.46875
 40
0.4765625
 40
0.484375
 40
0.4921875
 40
0.49609375
 40
0.498046875
 40
0.5
 40
0.501953125
 40
0.50390625
 40
0.5078125
 40
0.515625
 40
0.5234375
 40
0.53125
 40
0.546875
 40
0.5625
 40
0.5703125
 40
0.578125
 40
0.58203125
 40
0.583984375
 40
0.5859375
 40
0.58984375
 40
0.59375
 40
0.6015625
 40
0.609375
 40
0.625
 40
0.640625
 40
0.6484375
 40
0.65625
 40
0.66015625
 40
0.6640625
 40
0.666015625
 40
0.66796875
 40
0.669921875
 40
0.671875
 40
0.6796875
 40
0.6875
 40
0.6953125
 40
0.703125
 40
0.71875
 40
0.7265625
 40
0.734375
 40
0.7421875
 40
0.74609375
 40
0.748046875
 40
0.75
 40
0.751953125
 40
0.75390625
 40
0.7578125
 40
0.765625
 40
0.7734375
 40
0.78125
 40
0.796875
 40
0.8046875
 40
0.8125
 40
0.8203125
 40
0.828125
 40
0.830078125
 40
0.83203125
 40
0.8330078125
 40
0.833984375
 40
0.8359375
 40
0.83984375
 40
0.84375
 40
0.8515625
 40
0.859375
 40
0.875
 40
0.890625
 40
0.8984375
 40
0.90625
 40
0.91015625
 40
0.9140625
 40
0.916015625
 40
0.9169921875
 40
0.91796875
 40
0.919921875
 40
0.921875
 40
0.9296875
 40
0.9375
 40
0.9453125
 40
0.953125
 40
0.96875
 40
1.0
 40
1.0
 40
1.0
 40
1.0
 10
-22.3092189464
 20
9.2068879915
 30
0.0
 10
-22.31174396
 20
9.2380808854
 30
0.0
 10
-22.3155339032
 20
9.2848710713
 30
0.0
 10
-22.3205774691
 20
9.3472546056
 30
0.0
 10
-22.3237498889
 20
9.3862513565
 30
0.0
 10
-22.3262417889
 20
9.4174327017
 30
0.0
 10
-22.3279042207
 20
9.4369576601
 30
0.0
 10
-22.3288575051
 20
9.4505517461
 30
0.0
 10
-22.329731457
 20
9.4584346126
 30
0.0
 10
-22.3318456214
 20
9.4667500131
 30
0.0
 10
-22.3340636797
 20
9.4769961648
 30
0.0
 10
-22.3378498902
 20
9.4934727726
 30
0.0
 10
-22.3425013627
 20
9.5140401899
 30
0.0
 10
-22.3499893442
 20
9.546963919
 30
0.0
 10
-22.3593322927
 20
9.5881129899
 30
0.0
 10
-22.3686863227
 20
9.6292645959
 30
0.0
 10
-22.3761565738
 20
9.6621842687
 30
0.0
 10
-22.3808523721
 20
9.6827618266
 30
0.0
 10
-22.3845477147
 20
9.6992176462
 30
0.0
 10
-22.3869970983
 20
9.7095167191
 30
0.0
 10
-22.3886364225
 20
9.7177234885
 30
0.0
 10
-22.3914446418
 20
9.7260488651
 30
0.0
 10
-22.3969020258
 20
9.7406733726
 30
0.0
 10
-22.4044149867
 20
9.7615367773
 30
0.0
 10
-22.4165939983
 20
9.7949342985
 30
0.0
 10
-22.4317639151
 20
9.8366756426
 30
0.0
 10
-22.4469513798
 20
9.8784191242
 30
0.0
 10
-22.4591023146
 20
9.9118132255
 30
0.0
 10
-22.4682020978
 20
9.9368595708
 30
0.0
 10
-22.4758295758
 20
9.957729246
 30
0.0
 10
-22.4810815974
 20
9.9723424683
 30
0.0
 10
-22.4842189631
 20
9.9806859369
 30
0.0
 10
-22.4861882737
 20
9.9869630993
 30
0.0
 10
-22.4896243339
 20
9.9931654901
 30
0.0
 10
-22.4936941292
 20
10.0014614254
 30
0.0
 10
-22.5010546406
 20
10.0159671629
 30
0.0
 10
-22.5114450569
 20
10.0366959788
 30
0.0
 10
-22.5239667915
 20
10.0615679257
 30
0.0
 10
-22.5406443307
 20
10.0947310479
 30
0.0
 10
-22.5614939687
 20
10.1361875832
 30
0.0
 10
-22.5823553845
 20
10.1776329304
 30
0.0
 10
-22.5990140792
 20
10.2108139534
 30
0.0
 10
-22.6094959693
 20
10.2314958239
 30
0.0
 10
-22.6166925183
 20
10.246085885
 30
0.0
 10
-22.6210250971
 20
10.2542466546
 30
0.0
 10
-22.6261873069
 20
10.2617429836
 30
0.0
 10
-22.6323564926
 20
10.2713405095
 30
0.0
 10
-22.6473959805
 20
10.2941875933
 30
0.0
 10
-22.6698564954
 20
10.3285375178
 30
0.0
 10
-22.6998634548
 20
10.3742884465
 30
0.0
 10
-22.7298425856
 20
10.4200660871
 30
0.0
 10
-22.7523657147
 20
10.4543559099
 30
0.0
 10
-22.7673251955
 20
10.4772797903
 30
0.0
 10
-22.773640771
 20
10.4867368006
 30
0.0
 10
-22.7785009249
 20
10.4945230648
 30
0.0
 10
-22.7840643379
 20
10.5015023901
 30
0.0
 10
-22.7941270601
 20
10.5133412886
 30
0.0
 10
-22.8083318987
 20
10.5304496062
 30
0.0
 10
-22.831154897
 20
10.5577136547
 30
0.0
 10
-22.8596511358
 20
10.5918307417
 30
0.0
 10
-22.8881583403
 20
10.6259362976
 30
0.0
 10
-22.9109637934
 20
10.6532187959
 30
0.0
 10
-22.9280622355
 20
10.6736934275
 30
0.0
 10
-22.9423298922
 20
10.6907139051
 30
0.0
 10
-22.9522799173
 20
10.7027102603
 30
0.0
 10
-22.9580239617
 20
10.7094372278
 30
0.0
 10
-22.9621677149
 20
10.7148432969
 30
0.0
 10
-22.9669394305
 20
10.7188700383
 30
0.0
 10
-22.9730826777
 20
10.7247201513
 30
0.0
 10
-22.9839354141
 20
10.7347336885
 30
0.0
 10
-22.9993859783
 20
10.7491559023
 30
0.0
 10
-23.0179494456
 20
10.7664125545
 30
0.0
 10
-23.0426929899
 20
10.7894381716
 30
0.0
 10
-23.0736235353
 20
10.818219597
 30
0.0
 10
-23.104559302
 20
10.846982472
 30
0.0
 10
-23.1292944923
 20
10.8700377697
 30
0.0
 10
-23.1447849333
 20
10.8843441118
 30
0.0
 10
-23.1555661895
 20
10.8945654679
 30
0.0
 10
-23.1618239989
 20
10.9000824942
 30
0.0
 10
-23.1684475681
 20
10.9043799096
 30
0.0
 10
-23.1766017941
 20
10.9101692723
 30
0.0
 10
-23.1897185427
 20
10.919198876
 30
0.0
 10
-23.2060905177
 20
10.9305658314
 30
0.0
 10
-23.2322990531
 20
10.9487080285
 30
0.0
 10
-23.2650552493
 20
10.9714029579
 30
0.0
 10
-23.2978126185
 20
10.9940853198
 30
0.0
 10
-23.3240192772
 20
11.0122476248
 30
0.0
 10
-23.340395944
 20
11.0235643105
 30
0.0
 10
-23.3535030742
 20
11.0326969671
 30
0.0
 10
-23.3616817862
 20
11.0382239847
 30
0.0
 10
-23.3682550932
 20
11.0430599144
 30
0.0
 10
-23.3731020077
 20
11.0455524507
 30
0.0
 10
-23.3779256454
 20
11.0477271037
 30
0.0
 10
-23.3875848945
 20
11.0522399297
 30
0.0
 10
-23.4020687399
 20
11.0589404931
 30
0.0
 10
-23.4213834041
 20
11.0679138073
 30
0.0
 10
-23.4406973136
 20
11.0768767107
 30
0.0
 10
-23.4664493908
 20
11.0888304663
 30
0.0
 10
-23.4922017905
 20
11.1007857374
 30
0.0
 10
-23.5179530742
 20
11.1127340489
 30
0.0
 10
-23.5372695624
 20
11.1217146457
 30
0.0
 10
-23.5533570164
 20
11.1291368324
 30
0.0
 10
-23.5646371115
 20
11.1344533439
 30
0.0
 10
-23.5710534048
 20
11.137302448
 30
0.0
 10
-23.5759486571
 20
11.1399714178
 30
0.0
 10
-23.5805265182
 20
11.1406062717
 30
0.0
 10
-23.5867410427
 20
11.1421622662
 30
0.0
 10
-23.5975648787
 20
11.144554676
 30
0.0
 10
-23.6130544705
 20
11.1481452413
 30
0.0
 10
-23.6316304308
 20
11.1523799149
 30
0.0
 10
-23.6564024434
 20
11.1580521195
 30
0.0
 10
-23.6811731631
 20
11.1637164942
 30
0.0
 10
-23.7059447122
 20
11.169384879
 30
0.0
 10
-23.7245221787
 20
11.173631967
 30
0.0
 10
-23.7431040118
 20
11.1778938525
 30
0.0
 10
-23.7570281832
 20
11.1810490246
 30
0.0
 10
-23.7663299386
 20
11.1832165852
 30
0.0
 10
-23.7701774358
 20
11.1840243374
 30
0.0
 10
-23.7733212982
 20
11.1848930831
 30
0.0
 10
-23.7762242896
 20
11.1849479716
 30
0.0
 10
-23.7811926104
 20
11.1846658894
 30
0.0
 10
-23.7883486029
 20
11.1844602081
 30
0.0
 10
-23.7997655582
 20
11.184020859
 30
0.0
 10
-23.8140479318
 20
11.1835094421
 30
0.0
 10
-23.8368934459
 20
11.1826699688
 30
0.0
 10
-23.8654527491
 20
11.1816285956
 30
0.0
 10
-23.8940102642
 20
11.1805818567
 30
0.0
 10
-23.9168586392
 20
11.1797509684
 30
0.0
 10
-23.9311338604
 20
11.179218089
 30
0.0
 10
-23.9425654783
 20
11.178822738
 30
0.0
 10
-23.9496841438
 20
11.1785050495
 30
0.0
 10
-23.9547195078
 20
11.1784241442
 30
0.0
 10
-23.9575150334
 20
11.1781565595
 30
0.0
 10
-23.9600023655
 20
11.17705525
 30
0.0
 10
-23.9632168724
 20
11.1759635839
 30
0.0
 10
-23.9708449878
 20
11.1731090412
 30
0.0
 10
-23.9823235764
 20
11.1689257383
 30
0.0
 10
-23.9976075477
 20
11.1632916965
 30
0.0
 10
-24.0128970867
 20
11.1576727162
 30
0.0
 10
-24.033281196
 20
11.1501754873
 30
0.0
 10
-24.0689542979
 20
11.1370578001
 30
0.0
 10
-24.0995309301
 20
11.1258132237
 30
0.0
 10
-24.119915421
 20
11.1183170271
 30
0.0
  0
SPLINE
  5
24B
100
AcDbEntity
  8
0
100
AcDbSpline
 62
7
  6
CONTINUOUS
 70
0
 71
3
 72
55
 73
51
 74
0
 42
0.0000001
 43
0.0000001
 44
0.0000000001
 40
0.0
 40
0.0
 40
0.0
 40
0.0
 40
0.0625
 40
0.09375
 40
0.125
 40
0.140625
 40
0.15625
 40
0.1640625
 40
0.171875
 40
0.1796875
 40
0.1875
 40
0.21875
 40
0.25
 40
0.28125
 40
0.3125
 40
0.3203125
 40
0.328125
 40
0.33203125
 40
0.3359375
 40
0.34375
 40
0.359375
 40
0.375
 40
0.4375
 40
0.46875
 40
0.484375
 40
0.4921875
 40
0.5
 40
0.5078125
 40
0.515625
 40
0.53125
 40
0.5625
 40
0.625
 40
0.640625
 40
0.65625
 40
0.6640625
 40
0.671875
 40
0.6796875
 40
0.6875
 40
0.71875
 40
0.75
 40
0.78125
 40
0.8125
 40
0.828125
 40
0.8359375
 40
0.84375
 40
0.859375
 40
0.875
 40
0.90625
 40
0.9375
 40
1.0
 40
1.0
 40
1.0
 40
1.0
 10
-22.619842878
 20
8.5202826998
 30
0.0
 10
-22.6085497406
 20
8.5286064911
 30
0.0
 10
-22.5916123916
 20
8.5410956349
 30
0.0
 10
-22.5690198309
 20
8.5577339993
 30
0.0
 10
-22.5549191236
 20
8.568161784
 30
0.0
 10
-22.5435937713
 20
8.576438332
 30
0.0
 10
-22.5366175707
 20
8.5817609704
 30
0.0
 10
-22.5308026599
 20
8.5856759909
 30
0.0
 10
-22.5270820409
 20
8.5895516493
 30
0.0
 10
-22.5235409158
 20
8.5936905367
 30
0.0
 10
-22.5163663611
 20
8.6018329504
 30
0.0
 10
-22.5056428901
 20
8.6141027697
 30
0.0
 10
-22.4913249458
 20
8.6304335239
 30
0.0
 10
-22.4770050968
 20
8.6467604068
 30
0.0
 10
-22.4662859112
 20
8.6590389366
 30
0.0
 10
-22.4591058808
 20
8.6671702201
 30
0.0
 10
-22.4561649623
 20
8.6706396579
 30
0.0
 10
-22.4536937921
 20
8.6732252814
 30
0.0
 10
-22.451655755
 20
8.6765054892
 30
0.0
 10
-22.4482904406
 20
8.6825685603
 30
0.0
 10
-22.443377798
 20
8.6910618153
 30
0.0
 10
-22.4316759397
 20
8.7115858342
 30
0.0
 10
-22.4179719301
 20
8.7354653448
 30
0.0
 10
-22.4043460219
 20
8.7594177087
 30
0.0
 10
-22.3974470207
 20
8.7713237176
 30
0.0
 10
-22.3936410862
 20
8.7782370403
 30
0.0
 10
-22.3904021647
 20
8.7831124146
 30
0.0
 10
-22.3886329496
 20
8.7891713152
 30
0.0
 10
-22.3857613269
 20
8.7968369854
 30
0.0
 10
-22.380975043
 20
8.8104446372
 30
0.0
 10
-22.3712253187
 20
8.837514728
 30
0.0
 10
-22.3615823102
 20
8.8646851807
 30
0.0
 10
-22.3532147379
 20
8.8878628025
 30
0.0
 10
-22.3498476598
 20
8.8976579162
 30
0.0
 10
-22.3468776261
 20
8.9051744899
 30
0.0
 10
-22.3454075683
 20
8.9116878093
 30
0.0
 10
-22.3441497706
 20
8.9184465859
 30
0.0
 10
-22.3415251034
 20
8.9318379592
 30
0.0
 10
-22.3376322301
 20
8.9519767904
 30
0.0
 10
-22.3324245292
 20
8.9788048111
 30
0.0
 10
-22.3271915024
 20
9.0056174031
 30
0.0
 10
-22.3229294024
 20
9.0280324542
 30
0.0
 10
-22.3197496256
 20
9.0435801688
 30
0.0
 10
-22.3182395096
 20
9.052688046
 30
0.0
 10
-22.3178854642
 20
9.0626377669
 30
0.0
 10
-22.3170470703
 20
9.0747866718
 30
0.0
 10
-22.3159268569
 20
9.0943860083
 30
0.0
 10
-22.3144508127
 20
9.1188299984
 30
0.0
 10
-22.3121316837
 20
9.1579713611
 30
0.0
 10
-22.3103827651
 20
9.1873204129
 30
0.0
 10
-22.3092189464
 20
9.2068879963
 30
0.0
  0
SPLINE
  5
24C
100
AcDbEntity
  8
0
100
AcDbSpline
 62
7
  6
CONTINUOUS
 70
0
 71
3
 72
152
 73
148
 74
0
 42
0.0000001
 43
0.0000001
 44
0.0000000001
 40
0.0
 40
0.0
 40
0.0
 40
0.0
 40
0.03125
 40
0.046875
 40
0.0625
 40
0.0703125
 40
0.078125
 40
0.08203125
 40
0.083984375
 40
0.0859375
 40
0.08984375
 40
0.09375
 40
0.1015625
 40
0.109375
 40
0.125
 40
0.140625
 40
0.1484375
 40
0.15625
 40
0.16015625
 40
0.1640625
 40
0.166015625
 40
0.16796875
 40
0.171875
 40
0.1796875
 40
0.1875
 40
0.203125
 40
0.21875
 40
0.2265625
 40
0.234375
 40
0.2421875
 40
0.24609375
 40
0.248046875
 40
0.25
 40
0.251953125
 40
0.25390625
 40
0.2578125
 40
0.265625
 40
0.2734375
 40
0.28125
 40
0.296875
 40
0.3125
 40
0.3203125
 40
0.328125
 40
0.33203125
 40
0.333984375
 40
0.3359375
 40
0.33984375
 40
0.34375
 40
0.359375
 40
0.375
 40
0.390625
 40
0.3984375
 40
0.40625
 40
0.41015625
 40
0.4140625
 40
0.416015625
 40
0.41796875
 40
0.421875
 40
0.4296875
 40
0.4375
 40
0.453125
 40
0.46875
 40
0.4765625
 40
0.484375
 40
0.4921875
 40
0.49609375
 40
0.498046875
 40
0.5
 40
0.501953125
 40
0.50390625
 40
0.5078125
 40
0.515625
 40
0.5234375
 40
0.53125
 40
0.546875
 40
0.5546875
 40
0.5625
 40
0.5703125
 40
0.578125
 40
0.58203125
 40
0.583984375
 40
0.5859375
 40
0.58984375
 40
0.59375
 40
0.6015625
 40
0.609375
 40
0.625
 40
0.640625
 40
0.6484375
 40
0.65625
 40
0.66015625
 40
0.6640625
 40
0.666015625
 40
0.6669921875
 40
0.66796875
 40
0.669921875
 40
0.671875
 40
0.6796875
 40
0.6875
 40
0.6953125
 40
0.703125
 40
0.71875
 40
0.7265625
 40
0.734375
 40
0.73828125
 40
0.7421875
 40
0.74609375
 40
0.748046875
 40
0.75
 40
0.751953125
 40
0.75390625
 40
0.7578125
 40
0.76171875
 40
0.765625
 40
0.7734375
 40
0.78125
 40
0.796875
 40
0.8046875
 40
0.8125
 40
0.8203125
 40
0.828125
 40
0.830078125
 40
0.83203125
 40
0.8330078125
 40
0.833984375
 40
0.8359375
 40
0.83984375
 40
0.84375
 40
0.8515625
 40
0.859375
 40
0.875
 40
0.890625
 40
0.8984375
 40
0.90625
 40
0.91015625
 40
0.9140625
 40
0.916015625
 40
0.9169921875
 40
0.91796875
 40
0.919921875
 40
0.921875
 40
0.9296875
 40
0.9375
 40
0.9453125
 40
0.953125
 40
0.96875
 40
1.0
 40
1.0
 40
1.0
 40
1.0
 10
23.3698791182
 20
-17.1676507374
 30
0.0
 10
23.3671711533
 20
-17.1353045401
 30
0.0
 10
23.3631066111
 20
-17.0867843608
 30
0.0
 10
23.3576976009
 20
-17.0220943213
 30
0.0
 10
23.3542953458
 20
-16.9816556866
 30
0.0
 10
23.3516228438
 20
-16.9493215597
 30
0.0
 10
23.3498400866
 20
-16.9290744581
 30
0.0
 10
23.3488175029
 20
-16.914978188
 30
0.0
 10
23.3478805944
 20
-16.9068031708
 30
0.0
 10
23.3456154841
 20
-16.8981760748
 30
0.0
 10
23.3432388709
 20
-16.8875469958
 30
0.0
 10
23.3391821355
 20
-16.8704539646
 30
0.0
 10
23.3341982741
 20
-16.849117298
 30
0.0
 10
23.3261752344
 20
-16.8149620571
 30
0.0
 10
23.3161646645
 20
-16.7722738236
 30
0.0
 10
23.3061422526
 20
-16.7295830378
 30
0.0
 10
23.2981381601
 20
-16.6954318807
 30
0.0
 10
23.2931069306
 20
-16.6740850046
 30
0.0
 10
23.2891472998
 20
-16.657012903
 30
0.0
 10
23.2865234845
 20
-16.6463305426
 30
0.0
 10
23.2847658045
 20
-16.637812817
 30
0.0
 10
23.2817618726
 20
-16.6291922781
 30
0.0
 10
23.2759260563
 20
-16.6140585732
 30
0.0
 10
23.2678912275
 20
-16.592463918
 30
0.0
 10
23.2548667454
 20
-16.5578985205
 30
0.0
 10
23.2386436062
 20
-16.5146966994
 30
0.0
 10
23.2224015586
 20
-16.4714926119
 30
0.0
 10
23.20940733
 20
-16.4369308406
 30
0.0
 10
23.1996747753
 20
-16.4110063759
 30
0.0
 10
23.1915208362
 20
-16.389412485
 30
0.0
 10
23.1858986418
 20
-16.3742774912
 30
0.0
 10
23.182552323
 20
-16.3656590089
 30
0.0
 10
23.1804190461
 20
-16.3591103962
 30
0.0
 10
23.1768467387
 20
-16.3528857445
 30
0.0
 10
23.1725856118
 20
-16.3444732079
 30
0.0
 10
23.1648947753
 20
-16.329803916
 30
0.0
 10
23.1540301078
 20
-16.3088202763
 30
0.0
 10
23.1409402937
 20
-16.2836516129
 30
0.0
 10
23.1235048957
 20
-16.2500896574
 30
0.0
 10
23.1017085245
 20
-16.2081359839
 30
0.0
 10
23.0798985386
 20
-16.1661918991
 30
0.0
 10
23.0624849242
 20
-16.1326146018
 30
0.0
 10
23.0515222868
 20
-16.1116790702
 30
0.0
 10
23.0440070908
 20
-16.0969234306
 30
0.0
 10
23.0394644599
 20
-16.0886492971
 30
0.0
 10
23.0339868583
 20
-16.0809689897
 30
0.0
 10
23.0274594318
 20
-16.0711656352
 30
0.0
 10
23.0115305953
 20
-16.0478046216
 30
0.0
 10
22.9877476296
 20
-16.0126931859
 30
0.0
 10
22.9559748262
 20
-15.9659167448
 30
0.0
 10
22.9295086953
 20
-15.9269313163
 30
0.0
 10
22.9083399891
 20
-15.8957357166
 30
0.0
 10
22.8950934487
 20
-15.8762591394
 30
0.0
 10
22.8845338045
 20
-15.8606300775
 30
0.0
 10
22.8778481061
 20
-15.850971078
 30
0.0
 10
22.8726963602
 20
-15.8429938343
 30
0.0
 10
22.8668260995
 20
-15.8359294355
 30
0.0
 10
22.8562193625
 20
-15.8239907916
 30
0.0
 10
22.8412410287
 20
-15.8067143462
 30
0.0
 10
22.8171783864
 20
-15.7791956129
 30
0.0
 10
22.7871333049
 20
-15.7447553107
 30
0.0
 10
22.7570769728
 20
-15.7103280766
 30
0.0
 10
22.7330323315
 20
-15.6827884342
 30
0.0
 10
22.7150043279
 20
-15.6621194269
 30
0.0
 10
22.6999625567
 20
-15.6449419455
 30
0.0
 10
22.6894696338
 20
-15.6328259023
 30
0.0
 10
22.6834169506
 20
-15.6260458238
 30
0.0
 10
22.6790372437
 20
-15.6205568709
 30
0.0
 10
22.6740466786
 20
-15.6166118066
 30
0.0
 10
22.6676056659
 20
-15.6108131951
 30
0.0
 10
22.6562346181
 20
-15.6009165356
 30
0.0
 10
22.6400421695
 20
-15.5866472603
 30
0.0
 10
22.6205890012
 20
-15.5695803335
 30
0.0
 10
22.5946592717
 20
-15.5468045511
 30
0.0
 10
22.5687270325
 20
-15.5240356419
 30
0.0
 10
22.5427964515
 20
-15.501261023
 30
0.0
 10
22.5233460506
 20
-15.4841903146
 30
0.0
 10
22.5039046812
 20
-15.4670814378
 30
0.0
 10
22.4876754895
 20
-15.4529427223
 30
0.0
 10
22.4763700102
 20
-15.4428130882
 30
0.0
 10
22.469823943
 20
-15.4373877497
 30
0.0
 10
22.4629547301
 20
-15.4333297619
 30
0.0
 10
22.4544788584
 20
-15.4277890983
 30
0.0
 10
22.4408556306
 20
-15.4191856793
 30
0.0
 10
22.423847766
 20
-15.4083418013
 30
0.0
 10
22.3966233598
 20
-15.3910417777
 30
0.0
 10
22.3625968428
 20
-15.369398806
 30
0.0
 10
22.3285691415
 20
-15.3477648768
 30
0.0
 10
22.3013466303
 20
-15.3304503852
 30
0.0
 10
22.2843340282
 20
-15.3196426772
 30
0.0
 10
22.2707205124
 20
-15.3109651097
 30
0.0
 10
22.2622199165
 20
-15.3056132082
 30
0.0
 10
22.2562537626
 20
-15.3017234319
 30
0.0
 10
22.2528691536
 20
-15.2997251353
 30
0.0
 10
22.2495772829
 20
-15.2985721624
 30
0.0
 10
22.2454307461
 20
-15.2968420111
 30
0.0
 10
22.235505147
 20
-15.2929274547
 30
0.0
 10
22.2206057909
 20
-15.2869557398
 30
0.0
 10
22.2007462444
 20
-15.2790505346
 30
0.0
 10
22.1808850275
 20
-15.2711300823
 30
0.0
 10
22.1544039645
 20
-15.2605746886
 30
0.0
 10
22.1279228854
 20
-15.2500185334
 30
0.0
 10
22.1014414349
 20
-15.2394607555
 30
0.0
 10
22.0848914701
 20
-15.2328668357
 30
0.0
 10
22.0716493309
 20
-15.2275808461
 30
0.0
 10
22.0617236638
 20
-15.2236461004
 30
0.0
 10
22.0534333865
 20
-15.2202725132
 30
0.0
 10
22.0468435272
 20
-15.217785888
 30
0.0
 10
22.0417853781
 20
-15.2153409648
 30
0.0
 10
22.037169066
 20
-15.2151097367
 30
0.0
 10
22.0308596438
 20
-15.21402816
 30
0.0
 10
22.0230258191
 20
-15.212941495
 30
0.0
 10
22.013602564
 20
-15.2115239381
 30
0.0
 10
22.0010461398
 20
-15.2096735241
 30
0.0
 10
21.985347904
 20
-15.2073469398
 30
0.0
 10
21.96023221
 20
-15.203631908
 30
0.0
 10
21.9351162737
 20
-15.199915272
 30
0.0
 10
21.9099999519
 20
-15.1961978214
 30
0.0
 10
21.8911641094
 20
-15.1934137816
 30
0.0
 10
21.8723228644
 20
-15.1906139563
 30
0.0
 10
21.858207089
 20
-15.1885584076
 30
0.0
 10
21.8487729964
 20
-15.1871191077
 30
0.0
 10
21.8448772065
 20
-15.1866219784
 30
0.0
 10
21.8416787353
 20
-15.1859849788
 30
0.0
 10
21.8387795559
 20
-15.1862231006
 30
0.0
 10
21.83384505
 20
-15.1870464157
 30
0.0
 10
21.8267232022
 20
-15.1880104353
 30
0.0
 10
21.8153687932
 20
-15.1896714256
 30
0.0
 10
21.8011618907
 20
-15.1917070514
 30
0.0
 10
21.7784386558
 20
-15.1949868524
 30
0.0
 10
21.7500316084
 20
-15.1990780532
 30
0.0
 10
21.7216268149
 20
-15.2031749565
 30
0.0
 10
21.6988999739
 20
-15.2064456335
 30
0.0
 10
21.6847020867
 20
-15.2085040694
 30
0.0
 10
21.6733291963
 20
-15.2101182988
 30
0.0
 10
21.6662543972
 20
-15.2112013591
 30
0.0
 10
21.6612353867
 20
-15.2118108645
 30
0.0
 10
21.6584716625
 20
-15.2123917091
 30
0.0
 10
21.6561007147
 20
-15.2138484733
 30
0.0
 10
21.6530027773
 20
-15.2153700354
 30
0.0
 10
21.6456782237
 20
-15.2192681989
 30
0.0
 10
21.6346449836
 20
-15.2250119473
 30
0.0
 10
21.6199605225
 20
-15.2327294327
 30
0.0
 10
21.6052689657
 20
-15.2404310943
 30
0.0
 10
21.5856826992
 20
-15.2507054976
 30
0.0
 10
21.5514055722
 20
-15.2686831153
 30
0.0
 10
21.5220255755
 20
-15.2840933892
 30
0.0
 10
21.5024388226
 20
-15.294366708
 30
0.0
  0
SPLINE
  5
24D
100
AcDbEntity
  8
0
100
AcDbSpline
 62
7
  6
CONTINUOUS
 70
0
 71
3
 72
65
 73
61
 74
0
 42
0.0000001
 43
0.0000001
 44
0.0000000001
 40
0.0
 40
0.0
 40
0.0
 40
0.0
 40
0.0625
 40
0.09375
 40
0.125
 40
0.140625
 40
0.15625
 40
0.1640625
 40
0.16796875
 40
0.171875
 40
0.1796875
 40
0.1875
 40
0.21875
 40
0.25
 40
0.28125
 40
0.3125
 40
0.3203125
 40
0.328125
 40
0.33203125
 40
0.3359375
 40
0.34375
 40
0.359375
 40
0.375
 40
0.40625
 40
0.4375
 40
0.453125
 40
0.46875
 40
0.484375
 40
0.4921875
 40
0.49609375
 40
0.5
 40
0.50390625
 40
0.5078125
 40
0.515625
 40
0.53125
 40
0.546875
 40
0.5625
 40
0.59375
 40
0.625
 40
0.640625
 40
0.65625
 40
0.6640625
 40
0.66796875
 40
0.671875
 40
0.6796875
 40
0.6875
 40
0.71875
 40
0.75
 40
0.78125
 40
0.8125
 40
0.8203125
 40
0.828125
 40
0.83203125
 40
0.8359375
 40
0.84375
 40
0.859375
 40
0.875
 40
0.90625
 40
0.9375
 40
1.0
 40
1.0
 40
1.0
 40
1.0
 10
22.9978829312
 20
-17.8843152747
 30
0.0
 10
23.0113849297
 20
-17.8767439214
 30
0.0
 10
23.0316369315
 20
-17.8653853054
 30
0.0
 10
23.0586435846
 20
-17.8502468277
 30
0.0
 10
23.0755144426
 20
-17.8407720632
 30
0.0
 10
23.0890300536
 20
-17.8332223841
 30
0.0
 10
23.097434149
 20
-17.8284351114
 30
0.0
 10
23.103403515
 20
-17.8252217479
 30
0.0
 10
23.1066792454
 20
-17.823170053
 30
0.0
 10
23.1094452333
 20
-17.8203067258
 30
0.0
 10
23.1130769545
 20
-17.8170049918
 30
0.0
 10
23.1216496438
 20
-17.8088524475
 30
0.0
 10
23.1345694646
 20
-17.796720273
 30
0.0
 10
23.1517585793
 20
-17.7804853818
 30
0.0
 10
23.1689672675
 20
-17.764278955
 30
0.0
 10
23.1818430478
 20
-17.7520827356
 30
0.0
 10
23.190472011
 20
-17.7440120264
 30
0.0
 10
23.1940007674
 20
-17.7405605579
 30
0.0
 10
23.1969792094
 20
-17.738006188
 30
0.0
 10
23.1993892197
 20
-17.7346955367
 30
0.0
 10
23.2033426321
 20
-17.7285505127
 30
0.0
 10
23.2091281566
 20
-17.7199552356
 30
0.0
 10
23.2183080167
 20
-17.7061003751
 30
0.0
 10
23.2298090159
 20
-17.6888166127
 30
0.0
 10
23.2413015428
 20
-17.671521619
 30
0.0
 10
23.2504949584
 20
-17.6576847286
 30
0.0
 10
23.2573969215
 20
-17.6473164857
 30
0.0
 10
23.2631258051
 20
-17.6386452403
 30
0.0
 10
23.2671807841
 20
-17.6326364352
 30
0.0
 10
23.2694280084
 20
-17.6291074595
 30
0.0
 10
23.2713103574
 20
-17.6267293985
 30
0.0
 10
23.272439937
 20
-17.623324341
 30
0.0
 10
23.2742086173
 20
-17.619142492
 30
0.0
 10
23.2771814721
 20
-17.6116573531
 30
0.0
 10
23.2814923472
 20
-17.6010515428
 30
0.0
 10
23.2866381116
 20
-17.5882872861
 30
0.0
 10
23.2935082494
 20
-17.5712810037
 30
0.0
 10
23.3020957468
 20
-17.5500209126
 30
0.0
 10
23.3106725454
 20
-17.5287538656
 30
0.0
 10
23.3175598013
 20
-17.5117587127
 30
0.0
 10
23.321805143
 20
-17.5010940082
 30
0.0
 10
23.3248955405
 20
-17.4937144129
 30
0.0
 10
23.3264758258
 20
-17.4893634108
 30
0.0
 10
23.3273568365
 20
-17.4845073549
 30
0.0
 10
23.32869712
 20
-17.4786099188
 30
0.0
 10
23.3317170321
 20
-17.4643139491
 30
0.0
 10
23.3363301831
 20
-17.4429302351
 30
0.0
 10
23.3424304124
 20
-17.4143815799
 30
0.0
 10
23.3485555262
 20
-17.3858525578
 30
0.0
 10
23.3531126869
 20
-17.3644246693
 30
0.0
 10
23.3562041422
 20
-17.3501851448
 30
0.0
 10
23.3574135223
 20
-17.3441844304
 30
0.0
 10
23.3585646346
 20
-17.3395414755
 30
0.0
 10
23.3590442953
 20
-17.3343221175
 30
0.0
 10
23.3595717302
 20
-17.3249204313
 30
0.0
 10
23.3604879799
 20
-17.3116291809
 30
0.0
 10
23.3618630134
 20
-17.2902850911
 30
0.0
 10
23.3636129655
 20
-17.2636317281
 30
0.0
 10
23.3663953955
 20
-17.2209713302
 30
0.0
 10
23.3684861539
 20
-17.1889794107
 30
0.0
 10
23.3698791182
 20
-17.1676507134
 30
0.0
  0
SPLINE
  5
24E
100
AcDbEntity
  8
0
100
AcDbSpline
 62
7
  6
CONTINUOUS
 70
0
 71
3
 72
14
 73
10
 74
0
 42
0.0000001
 43
0.0000001
 44
0.0000000001
 40
0.0
 40
0.0
 40
0.0
 40
0.0
 40
0.2892717195
 40
0.4225368563
 40
0.5484972655
 40
0.6678936092
 40
0.7818680294
 40
0.8919524862
 40
1.0
 40
1.0
 40
1.0
 40
1.0
 10
-22.662772337
 20
8.1862015082
 30
0.0
 10
-22.662772337
 20
8.0595013611
 30
0.0
 10
-22.6775638327
 20
7.8735216402
 30
0.0
 10
-22.7347376256
 20
7.6397617261
 30
0.0
 10
-22.792902991
 20
7.4839901839
 30
0.0
 10
-22.867042079
 20
7.3445962455
 30
0.0
 10
-22.9565849577
 20
7.2229793419
 30
0.0
 10
-23.0606989273
 20
7.1205093325
 30
0.0
 10
-23.1394958687
 20
7.0655236556
 30
0.0
 10
-23.1804790835
 20
7.0418596909
 30
0.0
  0
SPLINE
  5
24F
100
AcDbEntity
  8
0
100
AcDbSpline
 62
7
  6
CONTINUOUS
 70
0
 71
3
 72
15
 73
11
 74
0
 42
0.0000001
 43
0.0000001
 44
0.0000000001
 40
0.0
 40
0.0
 40
0.0
 40
0.0
 40
0.1117127519
 40
0.2311418895
 40
0.3566676365
 40
0.4862815274
 40
0.6177399283
 40
0.74869803
 40
0.8768381358
 40
1.0
 40
1.0
 40
1.0
 40
1.0
 10
-22.662772337
 20
8.1862015082
 30
0.0
 10
-22.662772337
 20
8.3021676247
 30
0.0
 10
-22.6803652086
 20
8.5422939377
 30
0.0
 10
-22.7519862065
 20
8.9062947868
 30
0.0
 10
-22.8678773366
 20
9.2781940768
 30
0.0
 10
-23.0249862193
 20
9.6481582108
 30
0.0
 10
-23.2191687126
 20
10.006482244
 30
0.0
 10
-23.4453210532
 20
10.3437208819
 30
0.0
 10
-23.6974295028
 20
10.6509398138
 30
0.0
 10
-23.8831189873
 20
10.8350290796
 30
0.0
 10
-23.9789815537
 20
10.9196238979
 30
0.0
  0
SPLINE
  5
250
100
AcDbEntity
  8
0
100
AcDbSpline
 62
7
  6
CONTINUOUS
 70
0
 71
3
 72
15
 73
11
 74
0
 42
0.0000001
 43
0.0000001
 44
0.0000000001
 40
0.0
 40
0.0
 40
0.0
 40
0.0
 40
0.1548119132
 40
0.3011856873
 40
0.4383150259
 40
0.5659078262
 40
0.6843183867
 40
0.7946787894
 40
0.898978493
 40
1.0
 40
1.0
 40
1.0
 40
1.0
 10
-23.9874440268
 20
10.9270658228
 30
0.0
 10
-24.0596964356
 20
10.9903842588
 30
0.0
 10
-24.2057890196
 20
11.1074841977
 30
0.0
 10
-24.4342905016
 20
11.2559332118
 30
0.0
 10
-24.663004123
 20
11.3703318793
 30
0.0
 10
-24.8882889683
 20
11.448686101
 30
0.0
 10
-25.1066115287
 20
11.4894958478
 30
0.0
 10
-25.3145166528
 20
11.4916392142
 30
0.0
 10
-25.5082763841
 20
11.4545227096
 30
0.0
 10
-25.6263092481
 20
11.4032638214
 30
0.0
 10
-25.6805994965
 20
11.3719162922
 30
0.0
  0
SPLINE
  5
251
100
AcDbEntity
  8
0
100
AcDbSpline
 62
7
  6
CONTINUOUS
 70
0
 71
3
 72
11
 73
7
 74
0
 42
0.0000001
 43
0.0000001
 44
0.0000000001
 40
0.0
 40
0.0
 40
0.0
 40
0.0
 40
0.292485392
 40
0.5501748666
 40
0.7806869101
 40
1.0
 40
1.0
 40
1.0
 40
1.0
 10
-26.0568848867
 20
6.6761954519
 30
0.0
 10
-26.0665762759
 20
6.6705997652
 30
0.0
 10
-26.0858339539
 20
6.6616569048
 30
0.0
 10
-26.1155147664
 20
6.6558598194
 30
0.0
 10
-26.1429228249
 20
6.6591714354
 30
0.0
 10
-26.1584544276
 20
6.6676646696
 30
0.0
 10
-26.1649423778
 20
6.6729861655
 30
0.0
  0
SPLINE
  5
252
100
AcDbEntity
  8
0
100
AcDbSpline
 62
7
  6
CONTINUOUS
 70
0
 71
3
 72
11
 73
7
 74
0
 42
0.0000001
 43
0.0000001
 44
0.0000000001
 40
0.0
 40
0.0
 40
0.0
 40
0.0
 40
0.2377305775
 40
0.5009980168
 40
0.7632916127
 40
1.0
 40
1.0
 40
1.0
 40
1.0
 10
-25.3497781055
 20
10.2677919952
 30
0.0
 10
-25.3701245341
 20
10.2560442223
 30
0.0
 10
-25.4084730526
 20
10.2233941855
 30
0.0
 10
-25.4527809362
 20
10.1616526855
 30
0.0
 10
-25.4827442463
 20
10.0919238389
 30
0.0
 10
-25.4911994618
 20
10.0425661231
 30
0.0
 10
-25.4911994618
 20
10.0191727336
 30
0.0
  0
SPLINE
  5
253
100
AcDbEntity
  8
0
100
AcDbSpline
 62
7
  6
CONTINUOUS
 70
0
 71
3
 72
11
 73
7
 74
0
 42
0.0000001
 43
0.0000001
 44
0.0000000001
 40
0.0
 40
0.0
 40
0.0
 40
0.0
 40
0.2926624559
 40
0.550493306
 40
0.7807058457
 40
1.0
 40
1.0
 40
1.0
 40
1.0
 10
-25.4911994618
 20
6.3532302829
 30
0.0
 10
-25.4911994618
 20
6.3413513141
 30
0.0
 10
-25.4892193776
 20
6.3189043597
 30
0.0
 10
-25.4788649059
 20
6.2885382224
 30
0.0
 10
-25.4611997058
 20
6.2651381848
 30
0.0
 10
-25.4448978453
 20
6.2557101246
 30
0.0
 10
-25.4364645298
 20
6.252862848
 30
0.0
  0
SPLINE
  5
254
100
AcDbEntity
  8
0
100
AcDbSpline
 62
7
  6
CONTINUOUS
 70
0
 71
3
 72
12
 73
8
 74
0
 42
0.0000001
 43
0.0000001
 44
0.0000000001
 40
0.0
 40
0.0
 40
0.0
 40
0.0
 40
0.1188938645
 40
0.2382070645
 40
0.4809255316
 40
0.7334394873
 40
1.0
 40
1.0
 40
1.0
 40
1.0
 10
-24.4532710958
 20
6.3069650874
 30
0.0
 10
-24.4880763835
 20
6.2868689505
 30
0.0
 10
-24.5604183043
 20
6.2509310621
 30
0.0
 10
-24.7141349414
 20
6.1969924108
 30
0.0
 10
-24.921393807
 20
6.1644796188
 30
0.0
 10
-25.1800418559
 20
6.180594786
 30
0.0
 10
-25.3510871766
 20
6.2240480835
 30
0.0
 10
-25.4364629922
 20
6.2528616281
 30
0.0
  0
SPLINE
  5
255
100
AcDbEntity
  8
0
100
AcDbSpline
 62
7
  6
CONTINUOUS
 70
0
 71
3
 72
23
 73
19
 74
0
 42
0.0000001
 43
0.0000001
 44
0.0000000001
 40
0.0
 40
0.0
 40
0.0
 40
0.0
 40
0.0665277261
 40
0.1354285408
 40
0.2060606244
 40
0.277688258
 40
0.349524466
 40
0.4207714505
 40
0.4906615704
 40
0.5584982605
 40
0.6237004653
 40
0.6858466838
 40
0.7447223793
 40
0.8003611367
 40
0.8530666741
 40
0.9034036034
 40
0.9521078593
 40
1.0
 40
1.0
 40
1.0
 40
1.0
 10
-26.1649459084
 20
6.6729892368
 30
0.0
 10
-26.243230224
 20
6.7372018959
 30
0.0
 10
-26.3961893912
 20
6.8758816553
 30
0.0
 10
-26.6092109827
 20
7.1065268716
 30
0.0
 10
-26.8071575818
 20
7.36015643
 30
0.0
 10
-26.9867564542
 20
7.6324313142
 30
0.0
 10
-27.1449995961
 20
7.9187166943
 30
0.0
 10
-27.2791813297
 20
8.2141451394
 30
0.0
 10
-27.386975887
 20
8.5137520381
 30
0.0
 10
-27.4664690319
 20
8.8126073265
 30
0.0
 10
-27.5161530815
 20
9.1059494702
 30
0.0
 10
-27.534873026
 20
9.3892999669
 30
0.0
 10
-27.5217198759
 20
9.6585166017
 30
0.0
 10
-27.4758629932
 20
9.909711798
 30
0.0
 10
-27.3965033099
 20
10.1389470871
 30
0.0
 10
-27.2829707609
 20
10.3416721836
 30
0.0
 10
-27.1358308053
 20
10.5121862497
 30
0.0
 10
-27.0165142443
 20
10.6005763072
 30
0.0
 10
-26.9533918965
 20
10.6370223597
 30
0.0
  0
SPLINE
  5
256
100
AcDbEntity
  8
0
100
AcDbSpline
 62
250
  6
CONTINUOUS
 70
0
 71
3
 72
26
 73
22
 74
0
 42
0.0000001
 43
0.0000001
 44
0.0000000001
 40
0.0
 40
0.0
 40
0.0
 40
0.0
 40
0.0538493853
 40
0.1029676921
 40
0.1262664183
 40
0.1490367291
 40
0.1715823972
 40
0.1942231273
 40
0.2172715273
 40
0.2410134282
 40
0.291410196
 40
0.3468364221
 40
0.4077930305
 40
0.4741101434
 40
0.5451146585
 40
0.6197735499
 40
0.6968105483
 40
0.7748043577
 40
0.8522796049
 40
0.9277858126
 40
1.0
 40
1.0
 40
1.0
 40
1.0
 10
-26.198306243
 20
10.4274473269
 30
0.0
 10
-26.2833604631
 20
10.4546836871
 30
0.0
 10
-26.451176359
 20
10.4927149604
 30
0.0
 10
-26.6629089701
 20
10.4920877208
 30
0.0
 10
-26.8178806203
 20
10.4596379899
 30
0.0
 10
-26.9252518889
 20
10.4207515317
 30
0.0
 10
-27.024861917
 20
10.3671597382
 30
0.0
 10
-27.1159057079
 20
10.299274065
 30
0.0
 10
-27.1976941569
 20
10.2176707914
 30
0.0
 10
-27.2954850792
 20
10.0889929562
 30
0.0
 10
-27.3908879972
 20
9.8939921657
 30
0.0
 10
-27.4576850151
 20
9.6239315248
 30
0.0
 10
-27.4787396035
 20
9.3203813273
 30
0.0
 10
-27.4538893024
 20
8.9915101844
 30
0.0
 10
-27.3840556686
 20
8.6461360658
 30
0.0
 10
-27.2712168962
 20
8.2937287188
 30
0.0
 10
-27.1185235117
 20
7.9440481584
 30
0.0
 10
-26.9302409158
 20
7.6068428386
 30
0.0
 10
-26.7116101879
 20
7.2915250914
 30
0.0
 10
-26.4687934352
 20
7.0069345205
 30
0.0
 10
-26.2902583234
 20
6.8382436166
 30
0.0
 10
-26.198306243
 20
6.7615048762
 30
0.0
  0
SPLINE
  5
257
100
AcDbEntity
  8
0
100
AcDbSpline
 62
250
  6
CONTINUOUS
 70
0
 71
3
 72
26
 73
22
 74
0
 42
0.0000001
 43
0.0000001
 44
0.0000000001
 40
0.0
 40
0.0
 40
0.0
 40
0.0
 40
0.0538493853
 40
0.1029676921
 40
0.1262664183
 40
0.1490367291
 40
0.1715823972
 40
0.1942231273
 40
0.2172715273
 40
0.2410134282
 40
0.291410196
 40
0.3468364221
 40
0.4077930305
 40
0.4741101434
 40
0.5451146585
 40
0.6197735499
 40
0.6968105483
 40
0.7748043577
 40
0.8522796049
 40
0.9277858126
 40
1.0
 40
1.0
 40
1.0
 40
1.0
 10
-25.4911994618
 20
6.3532302829
 30
0.0
 10
-25.4061452416
 20
6.3259939226
 30
0.0
 10
-25.2383293457
 20
6.2879626493
 30
0.0
 10
-25.0265967347
 20
6.288589889
 30
0.0
 10
-24.8716250845
 20
6.3210396198
 30
0.0
 10
-24.7642538159
 20
6.359926078
 30
0.0
 10
-24.6646437878
 20
6.4135178716
 30
0.0
 10
-24.5735999968
 20
6.4814035447
 30
0.0
 10
-24.4918115479
 20
6.5630068184
 30
0.0
 10
-24.3940206255
 20
6.6916846535
 30
0.0
 10
-24.2986177075
 20
6.886685444
 30
0.0
 10
-24.2318206896
 20
7.156746085
 30
0.0
 10
-24.2107661012
 20
7.4602962824
 30
0.0
 10
-24.2356164023
 20
7.7891674254
 30
0.0
 10
-24.3054500361
 20
8.134541544
 30
0.0
 10
-24.4182888085
 20
8.4869488909
 30
0.0
 10
-24.5709821931
 20
8.8366294513
 30
0.0
 10
-24.759264789
 20
9.1738347712
 30
0.0
 10
-24.9778955169
 20
9.4891525183
 30
0.0
 10
-25.2207122695
 20
9.7737430893
 30
0.0
 10
-25.3992473813
 20
9.9424339931
 30
0.0
 10
-25.4911994618
 20
10.0191727336
 30
0.0
  0
SPLINE
  5
258
100
AcDbEntity
  8
0
100
AcDbSpline
 62
250
  6
CONTINUOUS
 70
0
 71
3
 72
15
 73
11
 74
0
 42
0.0000001
 43
0.0000001
 44
0.0000000001
 40
0.0
 40
0.0
 40
0.0
 40
0.0
 40
0.1121186429
 40
0.2322379903
 40
0.3585637491
 40
0.4888681752
 40
0.620678961
 40
0.7514344879
 40
0.8786320617
 40
1.0
 40
1.0
 40
1.0
 40
1.0
 10
-23.9355645432
 20
7.4513072402
 30
0.0
 10
-23.9355645432
 20
7.5724885229
 30
0.0
 10
-23.9547851482
 20
7.8237009382
 30
0.0
 10
-24.0326773367
 20
8.2041757089
 30
0.0
 10
-24.1584484197
 20
8.5923015908
 30
0.0
 10
-24.3285058919
 20
8.97692324
 30
0.0
 10
-24.5379695419
 20
9.347072383
 30
0.0
 10
-24.7808600425
 20
9.6921413352
 30
0.0
 10
-25.0501569684
 20
10.0022062822
 30
0.0
 10
-25.2479978671
 20
10.1850363017
 30
0.0
 10
-25.3497781055
 20
10.2677919952
 30
0.0
  0
SPLINE
  5
259
100
AcDbEntity
  8
0
100
AcDbSpline
 62
7
  6
CONTINUOUS
 70
0
 71
3
 72
9
 73
5
 74
0
 42
0.0000001
 43
0.0000001
 44
0.0000000001
 40
0.0
 40
0.0
 40
0.0
 40
0.0
 40
0.4749361528
 40
1.0
 40
1.0
 40
1.0
 40
1.0
 10
-25.3497781055
 20
11.0843411818
 30
0.0
 10
-25.226989976
 20
11.042385362
 30
0.0
 10
-24.9782244937
 20
10.9246399545
 30
0.0
 10
-24.7539761001
 20
10.7665665131
 30
0.0
 10
-24.6426713244
 20
10.6760665885
 30
0.0
  0
SPLINE
  5
25A
100
AcDbEntity
  8
0
100
AcDbSpline
 62
250
  6
CONTINUOUS
 70
0
 71
3
 72
14
 73
10
 74
0
 42
0.0000001
 43
0.0000001
 44
0.0000000001
 40
0.0
 40
0.0
 40
0.0
 40
0.0
 40
0.1080479983
 40
0.2181329535
 40
0.3321078497
 40
0.4515049547
 40
0.5774676567
 40
0.7107275036
 40
1.0
 40
1.0
 40
1.0
 40
1.0
 10
-24.4532717246
 20
6.3069661765
 30
0.0
 10
-24.4122874598
 20
6.3306287042
 30
0.0
 10
-24.3334918429
 20
6.3856173509
 30
0.0
 10
-24.2293766676
 20
6.4880864596
 30
0.0
 10
-24.1398327662
 20
6.6097036491
 30
0.0
 10
-24.0656934077
 20
6.7490992435
 30
0.0
 10
-24.0075315916
 20
6.9048709009
 30
0.0
 10
-23.9503544005
 20
7.1386287166
 30
0.0
 10
-23.9355645432
 20
7.3246068102
 30
0.0
 10
-23.9355645432
 20
7.4513072402
 30
0.0
  0
SPLINE
  5
25B
100
AcDbEntity
  8
0
100
AcDbSpline
 62
250
  6
CONTINUOUS
 70
0
 71
3
 72
13
 73
9
 74
0
 42
0.0000001
 43
0.0000001
 44
0.0000000001
 40
0.0
 40
0.0
 40
0.0
 40
0.0
 40
0.276900141
 40
0.531992998
 40
0.6529924128
 40
0.770623241
 40
0.8859122337
 40
1.0
 40
1.0
 40
1.0
 40
1.0
 10
-26.0568848867
 20
10.6760665885
 30
0.0
 10
-26.137649165
 20
10.7036631609
 30
0.0
 10
-26.2971792187
 20
10.74519964
 30
0.0
 10
-26.499463792
 20
10.7591329581
 30
0.0
 10
-26.6512246638
 20
10.744380384
 30
0.0
 10
-26.7581130047
 20
10.7212917598
 30
0.0
 10
-26.8593916237
 20
10.6861023472
 30
0.0
 10
-26.9229373304
 20
10.6546040461
 30
0.0
 10
-26.9533912676
 20
10.6370212705
 30
0.0
  0
SPLINE
  5
25C
100
AcDbEntity
  8
0
100
AcDbSpline
 62
7
  6
CONTINUOUS
 70
0
 71
3
 72
11
 73
7
 74
0
 42
0.0000001
 43
0.0000001
 44
0.0000000001
 40
0.0
 40
0.0
 40
0.0
 40
0.0
 40
0.2367100216
 40
0.4990051156
 40
0.7622711458
 40
1.0
 40
1.0
 40
1.0
 40
1.0
 10
-26.198306243
 20
10.4274473269
 30
0.0
 10
-26.198306243
 20
10.4508408779
 30
0.0
 10
-26.1898509259
 20
10.5001989039
 30
0.0
 10
-26.1598873961
 20
10.5699278496
 30
0.0
 10
-26.1155794736
 20
10.631669115
 30
0.0
 10
-26.0772311678
 20
10.6643189008
 30
0.0
 10
-26.0568848867
 20
10.6760665885
 30
0.0
  0
SPLINE
  5
25D
100
AcDbEntity
  8
0
100
AcDbSpline
 62
7
  6
CONTINUOUS
 70
0
 71
3
 72
11
 73
7
 74
0
 42
0.0000001
 43
0.0000001
 44
0.0000000001
 40
0.0
 40
0.0
 40
0.0
 40
0.0
 40
0.2183124289
 40
0.45412416
 40
0.7139413124
 40
1.0
 40
1.0
 40
1.0
 40
1.0
 10
-26.1649423778
 20
6.6729861655
 30
0.0
 10
-26.1704279142
 20
6.6774854693
 30
0.0
 10
-26.1804178138
 20
6.6886717787
 30
0.0
 10
-26.190853616
 20
6.7096300637
 30
0.0
 10
-26.1970672108
 20
6.7344252523
 30
0.0
 10
-26.198306243
 20
6.7522085566
 30
0.0
 10
-26.198306243
 20
6.7615048762
 30
0.0
  0
SPLINE
  5
25E
100
AcDbEntity
  8
0
100
AcDbSpline
 62
7
  6
CONTINUOUS
 70
0
 71
3
 72
14
 73
10
 74
0
 42
0.0000001
 43
0.0000001
 44
0.0000000001
 40
0.0
 40
0.0
 40
0.0
 40
0.0
 40
0.2892717195
 40
0.4225368563
 40
0.5484972655
 40
0.6678936092
 40
0.7818680294
 40
0.8919524862
 40
1.0
 40
1.0
 40
1.0
 40
1.0
 10
23.0163257276
 20
-18.1883372208
 30
0.0
 10
23.0163257276
 20
-18.3150373678
 30
0.0
 10
23.0015342319
 20
-18.5010170888
 30
0.0
 10
22.944360439
 20
-18.7347770028
 30
0.0
 10
22.8861950736
 20
-18.8905485451
 30
0.0
 10
22.8120559856
 20
-19.0299424835
 30
0.0
 10
22.7225131069
 20
-19.1515593871
 30
0.0
 10
22.6183991374
 20
-19.2540293964
 30
0.0
 10
22.5396021959
 20
-19.3090150733
 30
0.0
 10
22.4986189811
 20
-19.3326790381
 30
0.0
  0
SPLINE
  5
25F
100
AcDbEntity
  8
0
100
AcDbSpline
 62
7
  6
CONTINUOUS
 70
0
 71
3
 72
15
 73
11
 74
0
 42
0.0000001
 43
0.0000001
 44
0.0000000001
 40
0.0
 40
0.0
 40
0.0
 40
0.0
 40
0.1117127519
 40
0.2311418895
 40
0.3566676365
 40
0.4862815274
 40
0.6177399283
 40
0.74869803
 40
0.8768381358
 40
1.0
 40
1.0
 40
1.0
 40
1.0
 10
23.0163257276
 20
-18.1883372208
 30
0.0
 10
23.0163257276
 20
-18.0723711043
 30
0.0
 10
22.9987328561
 20
-17.8322447912
 30
0.0
 10
22.9271118582
 20
-17.4682439422
 30
0.0
 10
22.811220728
 20
-17.0963446522
 30
0.0
 10
22.6541118454
 20
-16.7263805181
 30
0.0
 10
22.459929352
 20
-16.368056485
 30
0.0
 10
22.2337770114
 20
-16.0308178471
 30
0.0
 10
21.9816685619
 20
-15.7235989152
 30
0.0
 10
21.7959790774
 20
-15.5395096494
 30
0.0
 10
21.7001165109
 20
-15.454914831
 30
0.0
  0
SPLINE
  5
260
100
AcDbEntity
  8
0
100
AcDbSpline
 62
7
  6
CONTINUOUS
 70
0
 71
3
 72
15
 73
11
 74
0
 42
0.0000001
 43
0.0000001
 44
0.0000000001
 40
0.0
 40
0.0
 40
0.0
 40
0.0
 40
0.1548119132
 40
0.3011856873
 40
0.4383150259
 40
0.5659078262
 40
0.6843183867
 40
0.7946787894
 40
0.898978493
 40
1.0
 40
1.0
 40
1.0
 40
1.0
 10
21.6916540379
 20
-15.4474729061
 30
0.0
 10
21.619401629
 20
-15.3841544702
 30
0.0
 10
21.473309045
 20
-15.2670545313
 30
0.0
 10
21.244807563
 20
-15.1186055171
 30
0.0
 10
21.0160939416
 20
-15.0042068497
 30
0.0
 10
20.7908090963
 20
-14.925852628
 30
0.0
 10
20.572486536
 20
-14.8850428812
 30
0.0
 10
20.3645814118
 20
-14.8828995148
 30
0.0
 10
20.1708216805
 20
-14.9200160194
 30
0.0
 10
20.0527888165
 20
-14.9712749075
 30
0.0
 10
19.9984985682
 20
-15.0026224368
 30
0.0
  0
SPLINE
  5
261
100
AcDbEntity
  8
0
100
AcDbSpline
 62
7
  6
CONTINUOUS
 70
0
 71
3
 72
11
 73
7
 74
0
 42
0.0000001
 43
0.0000001
 44
0.0000000001
 40
0.0
 40
0.0
 40
0.0
 40
0.0
 40
0.292485392
 40
0.5501748666
 40
0.7806869101
 40
1.0
 40
1.0
 40
1.0
 40
1.0
 10
19.6222131779
 20
-19.6983432771
 30
0.0
 10
19.6125217887
 20
-19.7039389637
 30
0.0
 10
19.5932641108
 20
-19.7128818241
 30
0.0
 10
19.5635832983
 20
-19.7186789096
 30
0.0
 10
19.5361752397
 20
-19.7153672936
 30
0.0
 10
19.520643637
 20
-19.7068740594
 30
0.0
 10
19.5141556868
 20
-19.7015525635
 30
0.0
  0
SPLINE
  5
262
100
AcDbEntity
  8
0
100
AcDbSpline
 62
7
  6
CONTINUOUS
 70
0
 71
3
 72
11
 73
7
 74
0
 42
0.0000001
 43
0.0000001
 44
0.0000000001
 40
0.0
 40
0.0
 40
0.0
 40
0.0
 40
0.2377305775
 40
0.5009980168
 40
0.7632916127
 40
1.0
 40
1.0
 40
1.0
 40
1.0
 10
20.3293199591
 20
-16.1067467338
 30
0.0
 10
20.3089735306
 20
-16.1184945066
 30
0.0
 10
20.270625012
 20
-16.1511445435
 30
0.0
 10
20.2263171284
 20
-16.2128860434
 30
0.0
 10
20.1963538184
 20
-16.2826148901
 30
0.0
 10
20.1878986029
 20
-16.3319726059
 30
0.0
 10
20.1878986029
 20
-16.3553659954
 30
0.0
  0
SPLINE
  5
263
100
AcDbEntity
  8
0
100
AcDbSpline
 62
7
  6
CONTINUOUS
 70
0
 71
3
 72
11
 73
7
 74
0
 42
0.0000001
 43
0.0000001
 44
0.0000000001
 40
0.0
 40
0.0
 40
0.0
 40
0.0
 40
0.2926624559
 40
0.550493306
 40
0.7807058457
 40
1.0
 40
1.0
 40
1.0
 40
1.0
 10
20.1878986029
 20
-20.0213084461
 30
0.0
 10
20.1878986029
 20
-20.0331874148
 30
0.0
 10
20.1898786871
 20
-20.0556343692
 30
0.0
 10
20.2002331588
 20
-20.0860005066
 30
0.0
 10
20.2178983588
 20
-20.1094005441
 30
0.0
 10
20.2342002194
 20
-20.1188286044
 30
0.0
 10
20.2426335348
 20
-20.121675881
 30
0.0
  0
SPLINE
  5
264
100
AcDbEntity
  8
0
100
AcDbSpline
 62
7
  6
CONTINUOUS
 70
0
 71
3
 72
12
 73
8
 74
0
 42
0.0000001
 43
0.0000001
 44
0.0000000001
 40
0.0
 40
0.0
 40
0.0
 40
0.0
 40
0.1188938645
 40
0.2382070645
 40
0.4809255316
 40
0.7334394873
 40
1.0
 40
1.0
 40
1.0
 40
1.0
 10
21.2258269689
 20
-20.0675736416
 30
0.0
 10
21.1910216812
 20
-20.0876697785
 30
0.0
 10
21.1186797603
 20
-20.1236076669
 30
0.0
 10
20.9649631232
 20
-20.1775463182
 30
0.0
 10
20.7577042577
 20
-20.2100591102
 30
0.0
 10
20.4990562088
 20
-20.1939439429
 30
0.0
 10
20.328010888
 20
-20.1504906455
 30
0.0
 10
20.2426350725
 20
-20.1216771009
 30
0.0
  0
SPLINE
  5
265
100
AcDbEntity
  8
0
100
AcDbSpline
 62
7
  6
CONTINUOUS
 70
0
 71
3
 72
23
 73
19
 74
0
 42
0.0000001
 43
0.0000001
 44
0.0000000001
 40
0.0
 40
0.0
 40
0.0
 40
0.0
 40
0.0665277261
 40
0.1354285408
 40
0.2060606244
 40
0.277688258
 40
0.349524466
 40
0.4207714505
 40
0.4906615704
 40
0.5584982605
 40
0.6237004653
 40
0.6858466838
 40
0.7447223793
 40
0.8003611367
 40
0.8530666741
 40
0.9034036034
 40
0.9521078593
 40
1.0
 40
1.0
 40
1.0
 40
1.0
 10
19.5141521563
 20
-19.7015494922
 30
0.0
 10
19.4358678406
 20
-19.6373368331
 30
0.0
 10
19.2829086734
 20
-19.4986570736
 30
0.0
 10
19.069887082
 20
-19.2680118574
 30
0.0
 10
18.8719404828
 20
-19.0143822989
 30
0.0
 10
18.6923416105
 20
-18.7421074147
 30
0.0
 10
18.5340984686
 20
-18.4558220347
 30
0.0
 10
18.3999167349
 20
-18.1603935895
 30
0.0
 10
18.2921221776
 20
-17.8607866908
 30
0.0
 10
18.2126290327
 20
-17.5619314025
 30
0.0
 10
18.1629449831
 20
-17.2685892588
 30
0.0
 10
18.1442250387
 20
-16.9852387621
 30
0.0
 10
18.1573781888
 20
-16.7160221273
 30
0.0
 10
18.2032350715
 20
-16.4648269309
 30
0.0
 10
18.2825947548
 20
-16.2355916418
 30
0.0
 10
18.3961273038
 20
-16.0328665454
 30
0.0
 10
18.5432672593
 20
-15.8623524792
 30
0.0
 10
18.6625838204
 20
-15.7739624218
 30
0.0
 10
18.7257061682
 20
-15.7375163693
 30
0.0
  0
SPLINE
  5
266
100
AcDbEntity
  8
0
100
AcDbSpline
 62
250
  6
CONTINUOUS
 70
0
 71
3
 72
26
 73
22
 74
0
 42
0.0000001
 43
0.0000001
 44
0.0000000001
 40
0.0
 40
0.0
 40
0.0
 40
0.0
 40
0.0538493853
 40
0.1029676921
 40
0.1262664183
 40
0.1490367291
 40
0.1715823972
 40
0.1942231273
 40
0.2172715273
 40
0.2410134282
 40
0.291410196
 40
0.3468364221
 40
0.4077930305
 40
0.4741101434
 40
0.5451146585
 40
0.6197735499
 40
0.6968105483
 40
0.7748043577
 40
0.8522796049
 40
0.9277858126
 40
1.0
 40
1.0
 40
1.0
 40
1.0
 10
19.4807918217
 20
-15.9470914021
 30
0.0
 10
19.3957376016
 20
-15.9198550419
 30
0.0
 10
19.2279217057
 20
-15.8818237685
 30
0.0
 10
19.0161890946
 20
-15.8824510082
 30
0.0
 10
18.8612174444
 20
-15.9149007391
 30
0.0
 10
18.7538461758
 20
-15.9537871973
 30
0.0
 10
18.6542361477
 20
-16.0073789908
 30
0.0
 10
18.5631923568
 20
-16.0752646639
 30
0.0
 10
18.4814039078
 20
-16.1568679376
 30
0.0
 10
18.3836129854
 20
-16.2855457728
 30
0.0
 10
18.2882100674
 20
-16.4805465633
 30
0.0
 10
18.2214130495
 20
-16.7506072042
 30
0.0
 10
18.2003584611
 20
-17.0541574016
 30
0.0
 10
18.2252087623
 20
-17.3830285446
 30
0.0
 10
18.2950423961
 20
-17.7284026632
 30
0.0
 10
18.4078811684
 20
-18.0808100102
 30
0.0
 10
18.560574553
 20
-18.4304905706
 30
0.0
 10
18.7488571489
 20
-18.7676958904
 30
0.0
 10
18.9674878768
 20
-19.0830136376
 30
0.0
 10
19.2103046294
 20
-19.3676042085
 30
0.0
 10
19.3888397412
 20
-19.5362951124
 30
0.0
 10
19.4807918217
 20
-19.6130338528
 30
0.0
  0
SPLINE
  5
267
100
AcDbEntity
  8
0
100
AcDbSpline
 62
250
  6
CONTINUOUS
 70
0
 71
3
 72
26
 73
22
 74
0
 42
0.0000001
 43
0.0000001
 44
0.0000000001
 40
0.0
 40
0.0
 40
0.0
 40
0.0
 40
0.0538493853
 40
0.1029676921
 40
0.1262664183
 40
0.1490367291
 40
0.1715823972
 40
0.1942231273
 40
0.2172715273
 40
0.2410134282
 40
0.291410196
 40
0.3468364221
 40
0.4077930305
 40
0.4741101434
 40
0.5451146585
 40
0.6197735499
 40
0.6968105483
 40
0.7748043577
 40
0.8522796049
 40
0.9277858126
 40
1.0
 40
1.0
 40
1.0
 40
1.0
 10
20.1878986029
 20
-20.0213084461
 30
0.0
 10
20.272952823
 20
-20.0485448064
 30
0.0
 10
20.4407687189
 20
-20.0865760797
 30
0.0
 10
20.65250133
 20
-20.08594884
 30
0.0
 10
20.8074729802
 20
-20.0534991091
 30
0.0
 10
20.9148442488
 20
-20.0146126509
 30
0.0
 10
21.0144542769
 20
-19.9610208574
 30
0.0
 10
21.1054980678
 20
-19.8931351843
 30
0.0
 10
21.1872865168
 20
-19.8115319106
 30
0.0
 10
21.2850774391
 20
-19.6828540754
 30
0.0
 10
21.3804803572
 20
-19.4878532849
 30
0.0
 10
21.447277375
 20
-19.217792644
 30
0.0
 10
21.4683319635
 20
-18.9142424466
 30
0.0
 10
21.4434816623
 20
-18.5853713036
 30
0.0
 10
21.3736480285
 20
-18.239997185
 30
0.0
 10
21.2608092561
 20
-17.887589838
 30
0.0
 10
21.1081158716
 20
-17.5379092776
 30
0.0
 10
20.9198332757
 20
-17.2007039578
 30
0.0
 10
20.7012025478
 20
-16.8853862106
 30
0.0
 10
20.4583857951
 20
-16.6007956397
 30
0.0
 10
20.2798506833
 20
-16.4321047358
 30
0.0
 10
20.1878986029
 20
-16.3553659954
 30
0.0
  0
SPLINE
  5
268
100
AcDbEntity
  8
0
100
AcDbSpline
 62
250
  6
CONTINUOUS
 70
0
 71
3
 72
15
 73
11
 74
0
 42
0.0000001
 43
0.0000001
 44
0.0000000001
 40
0.0
 40
0.0
 40
0.0
 40
0.0
 40
0.1121186429
 40
0.2322379903
 40
0.3585637491
 40
0.4888681752
 40
0.620678961
 40
0.7514344879
 40
0.8786320617
 40
1.0
 40
1.0
 40
1.0
 40
1.0
 10
21.7435335215
 20
-18.9232314888
 30
0.0
 10
21.7435335215
 20
-18.8020502061
 30
0.0
 10
21.7243129164
 20
-18.5508377908
 30
0.0
 10
21.646420728
 20
-18.17036302
 30
0.0
 10
21.5206496449
 20
-17.7822371382
 30
0.0
 10
21.3505921727
 20
-17.3976154889
 30
0.0
 10
21.1411285228
 20
-17.0274663459
 30
0.0
 10
20.8982380222
 20
-16.6823973938
 30
0.0
 10
20.6289410963
 20
-16.3723324468
 30
0.0
 10
20.4311001976
 20
-16.1895024273
 30
0.0
 10
20.3293199591
 20
-16.1067467338
 30
0.0
  0
SPLINE
  5
269
100
AcDbEntity
  8
0
100
AcDbSpline
 62
7
  6
CONTINUOUS
 70
0
 71
3
 72
9
 73
5
 74
0
 42
0.0000001
 43
0.0000001
 44
0.0000000001
 40
0.0
 40
0.0
 40
0.0
 40
0.0
 40
0.4749361528
 40
1.0
 40
1.0
 40
1.0
 40
1.0
 10
20.3293199591
 20
-15.2901975472
 30
0.0
 10
20.4521080886
 20
-15.3321533669
 30
0.0
 10
20.7008735709
 20
-15.4498987745
 30
0.0
 10
20.9251219645
 20
-15.6079722159
 30
0.0
 10
21.0364267403
 20
-15.6984721405
 30
0.0
  0
SPLINE
  5
26A
100
AcDbEntity
  8
0
100
AcDbSpline
 62
250
  6
CONTINUOUS
 70
0
 71
3
 72
14
 73
10
 74
0
 42
0.0000001
 43
0.0000001
 44
0.0000000001
 40
0.0
 40
0.0
 40
0.0
 40
0.0
 40
0.1080479983
 40
0.2181329535
 40
0.3321078497
 40
0.4515049547
 40
0.5774676567
 40
0.7107275036
 40
1.0
 40
1.0
 40
1.0
 40
1.0
 10
21.22582634
 20
-20.0675725524
 30
0.0
 10
21.2668106048
 20
-20.0439100248
 30
0.0
 10
21.3456062218
 20
-19.9889213781
 30
0.0
 10
21.449721397
 20
-19.8864522693
 30
0.0
 10
21.5392652984
 20
-19.7648350799
 30
0.0
 10
21.613404657
 20
-19.6254394855
 30
0.0
 10
21.6715664731
 20
-19.4696678281
 30
0.0
 10
21.7287436642
 20
-19.2359100124
 30
0.0
 10
21.7435335215
 20
-19.0499319188
 30
0.0
 10
21.7435335215
 20
-18.9232314888
 30
0.0
  0
SPLINE
  5
26B
100
AcDbEntity
  8
0
100
AcDbSpline
 62
250
  6
CONTINUOUS
 70
0
 71
3
 72
13
 73
9
 74
0
 42
0.0000001
 43
0.0000001
 44
0.0000000001
 40
0.0
 40
0.0
 40
0.0
 40
0.0
 40
0.276900141
 40
0.531992998
 40
0.6529924128
 40
0.770623241
 40
0.8859122337
 40
1.0
 40
1.0
 40
1.0
 40
1.0
 10
19.6222131779
 20
-15.6984721405
 30
0.0
 10
19.5414488997
 20
-15.6708755681
 30
0.0
 10
19.381918846
 20
-15.629339089
 30
0.0
 10
19.1796342726
 20
-15.6154057709
 30
0.0
 10
19.0278734008
 20
-15.6301583449
 30
0.0
 10
18.92098506
 20
-15.6532469692
 30
0.0
 10
18.8197064409
 20
-15.6884363818
 30
0.0
 10
18.7561607342
 20
-15.7199346828
 30
0.0
 10
18.725706797
 20
-15.7375174584
 30
0.0
  0
SPLINE
  5
26C
100
AcDbEntity
  8
0
100
AcDbSpline
 62
7
  6
CONTINUOUS
 70
0
 71
3
 72
11
 73
7
 74
0
 42
0.0000001
 43
0.0000001
 44
0.0000000001
 40
0.0
 40
0.0
 40
0.0
 40
0.0
 40
0.2367100216
 40
0.4990051156
 40
0.7622711458
 40
1.0
 40
1.0
 40
1.0
 40
1.0
 10
19.4807918217
 20
-15.9470914021
 30
0.0
 10
19.4807918217
 20
-15.9236978511
 30
0.0
 10
19.4892471388
 20
-15.8743398251
 30
0.0
 10
19.5192106686
 20
-15.8046108794
 30
0.0
 10
19.5635185911
 20
-15.742869614
 30
0.0
 10
19.6018668969
 20
-15.7102198282
 30
0.0
 10
19.6222131779
 20
-15.6984721405
 30
0.0
  0
SPLINE
  5
26D
100
AcDbEntity
  8
0
100
AcDbSpline
 62
7
  6
CONTINUOUS
 70
0
 71
3
 72
11
 73
7
 74
0
 42
0.0000001
 43
0.0000001
 44
0.0000000001
 40
0.0
 40
0.0
 40
0.0
 40
0.0
 40
0.2183124289
 40
0.45412416
 40
0.7139413124
 40
1.0
 40
1.0
 40
1.0
 40
1.0
 10
19.5141556868
 20
-19.7015525635
 30
0.0
 10
19.5086701505
 20
-19.6970532597
 30
0.0
 10
19.4986802509
 20
-19.6858669503
 30
0.0
 10
19.4882444487
 20
-19.6649086653
 30
0.0
 10
19.4820308538
 20
-19.6401134767
 30
0.0
 10
19.4807918217
 20
-19.6223301723
 30
0.0
 10
19.4807918217
 20
-19.6130338528
 30
0.0
  0
SPLINE
  5
26E
100
AcDbEntity
  8
RACCORDO
100
AcDbSpline
 62
7
  6
CONTINUOUS
 70
0
 71
3
 72
14
 73
10
 74
0
 42
0.0000001
 43
0.0000001
 44
0.0000000001
 40
0.0
 40
0.0
 40
0.0
 40
0.0
 40
0.2892721973
 40
0.4225367022
 40
0.5484973409
 40
0.6678935904
 40
0.7818680296
 40
0.8919524811
 40
1.0
 40
1.0
 40
1.0
 40
1.0
 10
53.5633386749
 20
-87.4673079301
 30
0.0
 10
53.5633386749
 20
-87.9741092456
 30
0.0
 10
53.504173739
 20
-88.7180279883
 30
0.0
 10
53.2754760181
 20
-89.6530668741
 30
0.0
 10
53.0428157712
 20
-90.2761524305
 30
0.0
 10
52.746258382
 20
-90.8337277338
 30
0.0
 10
52.3880874044
 20
-91.3201955963
 30
0.0
 10
51.9716306207
 20
-91.7300739957
 30
0.0
 10
51.6564450686
 20
-91.9500203049
 30
0.0
 10
51.4925108995
 20
-92.0446738312
 30
0.0
  0
SPLINE
  5
26F
100
AcDbEntity
  8
RACCORDO
100
AcDbSpline
 62
7
  6
CONTINUOUS
 70
0
 71
3
 72
15
 73
11
 74
0
 42
0.0000001
 43
0.0000001
 44
0.0000000001
 40
0.0
 40
0.0
 40
0.0
 40
0.0
 40
0.1141566514
 40
0.237329741
 40
0.3669809462
 40
0.5000060513
 40
0.6330303149
 40
0.7626790615
 40
0.8858482781
 40
1.0
 40
1.0
 40
1.0
 40
1.0
 10
46.492270863
 20
39.0859795221
 30
0.0
 10
46.9763405764
 20
38.8064837364
 30
0.0
 10
47.9324647787
 20
38.1362185135
 30
0.0
 10
49.2480439232
 20
36.9053589765
 30
0.0
 10
50.4604263348
 20
35.4504099235
 30
0.0
 10
51.5239430019
 20
33.8259468161
 30
0.0
 10
52.3990062249
 20
32.092693818
 30
0.0
 10
53.0528213969
 20
30.3152964068
 30
0.0
 10
53.4609599409
 20
28.5605914875
 30
0.0
 10
53.5633386749
 20
27.3974712459
 30
0.0
 10
53.5633386749
 20
26.8385308209
 30
0.0
  0
SPLINE
  5
270
100
AcDbEntity
  8
0
100
AcDbSpline
 62
7
  6
CONTINUOUS
 70
0
 71
3
 72
20
 73
16
 74
0
 42
0.0000001
 43
0.0000001
 44
0.0000000001
 40
0.0
 40
0.0
 40
0.0
 40
0.0
 40
0.0501035936
 40
0.0963455717
 40
0.1409778904
 40
0.1866873342
 40
0.2358641354
 40
0.2900746057
 40
0.3499652827
 40
0.4154126868
 40
0.4857184589
 40
0.559777548
 40
0.7132955595
 40
0.863890598
 40
1.0
 40
1.0
 40
1.0
 40
1.0
 10
-38.276766844
 20
-1.2455693519
 30
0.0
 10
-38.3021606211
 20
-1.3171056336
 30
0.0
 10
-38.3656141435
 20
-1.4503840348
 30
0.0
 10
-38.5067851574
 20
-1.6144791057
 30
0.0
 10
-38.6854591159
 20
-1.7254155507
 30
0.0
 10
-38.8934464467
 20
-1.777700428
 30
0.0
 10
-39.121612022
 20
-1.7710708009
 30
0.0
 10
-39.3625648657
 20
-1.7079399887
 30
0.0
 10
-39.6097465119
 20
-1.5913869153
 30
0.0
 10
-39.8563854446
 20
-1.4252674419
 30
0.0
 10
-40.0954886582
 20
-1.2145825348
 30
0.0
 10
-40.3982098619
 20
-0.8788338005
 30
0.0
 10
-40.7124474248
 20
-0.394427542
 30
0.0
 10
-40.9606117536
 20
0.2288055285
 30
0.0
 10
-41.0298709783
 20
0.6636349765
 30
0.0
 10
-41.0298709783
 20
0.8698482239
 30
0.0
  0
SPLINE
  5
271
100
AcDbEntity
  8
0
100
AcDbSpline
 62
7
  6
CONTINUOUS
 70
0
 71
3
 72
15
 73
11
 74
0
 42
0.0000001
 43
0.0000001
 44
0.0000000001
 40
0.0
 40
0.0
 40
0.0
 40
0.0
 40
0.1511223272
 40
0.2896549892
 40
0.4164493554
 40
0.5338963177
 40
0.6459692069
 40
0.7577491715
 40
0.8743823505
 40
1.0
 40
1.0
 40
1.0
 40
1.0
 10
-41.0298709783
 20
0.8698482239
 30
0.0
 10
-41.0298709783
 20
0.9509923147
 30
0.0
 10
-41.0198957936
 20
1.1068311614
 30
0.0
 10
-40.9705685539
 20
1.3260243648
 30
0.0
 10
-40.8880441648
 20
1.5158552726
 30
0.0
 10
-40.7733406993
 20
1.6713321262
 30
0.0
 10
-40.6286432562
 20
1.7873821271
 30
0.0
 10
-40.4582593383
 20
1.8596708495
 30
0.0
 10
-40.2681438163
 20
1.8863178474
 30
0.0
 10
-40.1374877725
 20
1.8744594075
 30
0.0
 10
-40.0711580106
 20
1.8622200529
 30
0.0
  0
SPLINE
  5
272
100
AcDbEntity
  8
0
100
AcDbSpline
 62
7
  6
CONTINUOUS
 70
0
 71
3
 72
20
 73
16
 74
0
 42
0.0000001
 43
0.0000001
 44
0.0000000001
 40
0.0
 40
0.0
 40
0.0
 40
0.0
 40
0.0501035936
 40
0.0963455717
 40
0.1409778904
 40
0.1866873342
 40
0.2358641354
 40
0.2900746057
 40
0.3499652827
 40
0.4154126868
 40
0.4857184589
 40
0.559777548
 40
0.7132955595
 40
0.863890598
 40
1.0
 40
1.0
 40
1.0
 40
1.0
 10
-38.276766844
 20
45.5381775083
 30
0.0
 10
-38.3021606211
 20
45.4666412266
 30
0.0
 10
-38.3656141435
 20
45.3333628255
 30
0.0
 10
-38.5067851574
 20
45.1692677545
 30
0.0
 10
-38.6854591159
 20
45.0583313095
 30
0.0
 10
-38.8934464467
 20
45.0060464323
 30
0.0
 10
-39.121612022
 20
45.0126760593
 30
0.0
 10
-39.3625648657
 20
45.0758068716
 30
0.0
 10
-39.6097465119
 20
45.1923599449
 30
0.0
 10
-39.8563854446
 20
45.3584794183
 30
0.0
 10
-40.0954886582
 20
45.5691643254
 30
0.0
 10
-40.3982098619
 20
45.9049130597
 30
0.0
 10
-40.7124474248
 20
46.3893193182
 30
0.0
 10
-40.9606117536
 20
47.0125523888
 30
0.0
 10
-41.0298709783
 20
47.4473818367
 30
0.0
 10
-41.0298709783
 20
47.6535950841
 30
0.0
  0
SPLINE
  5
273
100
AcDbEntity
  8
0
100
AcDbSpline
 62
7
  6
CONTINUOUS
 70
0
 71
3
 72
15
 73
11
 74
0
 42
0.0000001
 43
0.0000001
 44
0.0000000001
 40
0.0
 40
0.0
 40
0.0
 40
0.0
 40
0.1511223272
 40
0.2896549892
 40
0.4164493554
 40
0.5338963177
 40
0.6459692069
 40
0.7577491715
 40
0.8743823505
 40
1.0
 40
1.0
 40
1.0
 40
1.0
 10
-41.0298709783
 20
47.6535950841
 30
0.0
 10
-41.0298709783
 20
47.734739175
 30
0.0
 10
-41.0198957936
 20
47.8905780217
 30
0.0
 10
-40.9705685539
 20
48.1097712251
 30
0.0
 10
-40.8880441648
 20
48.2996021328
 30
0.0
 10
-40.7733406993
 20
48.4550789864
 30
0.0
 10
-40.6286432562
 20
48.5711289873
 30
0.0
 10
-40.4582593383
 20
48.6434177097
 30
0.0
 10
-40.2681438163
 20
48.6700647076
 30
0.0
 10
-40.1374877725
 20
48.6582062677
 30
0.0
 10
-40.0711580106
 20
48.6459669131
 30
0.0
  0
SPLINE
  5
274
100
AcDbEntity
  8
0
100
AcDbSpline
 62
7
  6
CONTINUOUS
 70
0
 71
3
 72
20
 73
16
 74
0
 42
0.0000001
 43
0.0000001
 44
0.0000000001
 40
0.0
 40
0.0
 40
0.0
 40
0.0
 40
0.0501035936
 40
0.0963455717
 40
0.1409778904
 40
0.1866873342
 40
0.2358641354
 40
0.2900746057
 40
0.3499652827
 40
0.4154126868
 40
0.4857184589
 40
0.559777548
 40
0.7132955595
 40
0.863890598
 40
1.0
 40
1.0
 40
1.0
 40
1.0
 10
42.0152081598
 20
-47.6051494243
 30
0.0
 10
41.9898143826
 20
-47.676685706
 30
0.0
 10
41.9263608602
 20
-47.8099641071
 30
0.0
 10
41.7851898463
 20
-47.9740591781
 30
0.0
 10
41.6065158878
 20
-48.0849956231
 30
0.0
 10
41.398528557
 20
-48.1372805003
 30
0.0
 10
41.1703629818
 20
-48.1306508733
 30
0.0
 10
40.9294101381
 20
-48.067520061
 30
0.0
 10
40.6822284919
 20
-47.9509669876
 30
0.0
 10
40.4355895591
 20
-47.7848475143
 30
0.0
 10
40.1964863455
 20
-47.5741626072
 30
0.0
 10
39.8937651418
 20
-47.2384138729
 30
0.0
 10
39.579527579
 20
-46.7540076144
 30
0.0
 10
39.3313632501
 20
-46.1307745438
 30
0.0
 10
39.2621040254
 20
-45.6959450959
 30
0.0
 10
39.2621040254
 20
-45.4897318485
 30
0.0
  0
SPLINE
  5
275
100
AcDbEntity
  8
0
100
AcDbSpline
 62
7
  6
CONTINUOUS
 70
0
 71
3
 72
15
 73
11
 74
0
 42
0.0000001
 43
0.0000001
 44
0.0000000001
 40
0.0
 40
0.0
 40
0.0
 40
0.0
 40
0.1511223272
 40
0.2896549892
 40
0.4164493554
 40
0.5338963177
 40
0.6459692069
 40
0.7577491715
 40
0.8743823505
 40
1.0
 40
1.0
 40
1.0
 40
1.0
 10
39.2621040254
 20
-45.4897318485
 30
0.0
 10
39.2621040254
 20
-45.4085877576
 30
0.0
 10
39.2720792101
 20
-45.2527489109
 30
0.0
 10
39.3214064498
 20
-45.0335557075
 30
0.0
 10
39.4039308389
 20
-44.8437247998
 30
0.0
 10
39.5186343045
 20
-44.6882479462
 30
0.0
 10
39.6633317475
 20
-44.5721979453
 30
0.0
 10
39.8337156654
 20
-44.4999092229
 30
0.0
 10
40.0238311874
 20
-44.473262225
 30
0.0
 10
40.1544872312
 20
-44.4851206649
 30
0.0
 10
40.2208169931
 20
-44.4973600195
 30
0.0
  0
SPLINE
  5
276
100
AcDbEntity
  8
0
100
AcDbSpline
 62
7
  6
CONTINUOUS
 70
0
 71
3
 72
20
 73
16
 74
0
 42
0.0000001
 43
0.0000001
 44
0.0000000001
 40
0.0
 40
0.0
 40
0.0
 40
0.0
 40
0.0501035936
 40
0.0963455717
 40
0.1409778904
 40
0.1866873342
 40
0.2358641354
 40
0.2900746057
 40
0.3499652827
 40
0.4154126868
 40
0.4857184589
 40
0.559777548
 40
0.7132955595
 40
0.863890598
 40
1.0
 40
1.0
 40
1.0
 40
1.0
 10
42.0152081598
 20
-0.8214025641
 30
0.0
 10
41.9898143826
 20
-0.8929388457
 30
0.0
 10
41.9263608602
 20
-1.0262172469
 30
0.0
 10
41.7851898463
 20
-1.1903123178
 30
0.0
 10
41.6065158878
 20
-1.3012487628
 30
0.0
 10
41.398528557
 20
-1.3535336401
 30
0.0
 10
41.1703629818
 20
-1.346904013
 30
0.0
 10
40.9294101381
 20
-1.2837732008
 30
0.0
 10
40.6822284919
 20
-1.1672201274
 30
0.0
 10
40.4355895591
 20
-1.0011006541
 30
0.0
 10
40.1964863455
 20
-0.7904157469
 30
0.0
 10
39.8937651418
 20
-0.4546670127
 30
0.0
 10
39.579527579
 20
0.0297392459
 30
0.0
 10
39.3313632501
 20
0.6529723164
 30
0.0
 10
39.2621040254
 20
1.0878017644
 30
0.0
 10
39.2621040254
 20
1.2940150117
 30
0.0
  0
SPLINE
  5
277
100
AcDbEntity
  8
0
100
AcDbSpline
 62
7
  6
CONTINUOUS
 70
0
 71
3
 72
15
 73
11
 74
0
 42
0.0000001
 43
0.0000001
 44
0.0000000001
 40
0.0
 40
0.0
 40
0.0
 40
0.0
 40
0.1511223272
 40
0.2896549892
 40
0.4164493554
 40
0.5338963177
 40
0.6459692069
 40
0.7577491715
 40
0.8743823505
 40
1.0
 40
1.0
 40
1.0
 40
1.0
 10
39.2621040254
 20
1.2940150117
 30
0.0
 10
39.2621040254
 20
1.3751591026
 30
0.0
 10
39.2720792101
 20
1.5309979493
 30
0.0
 10
39.3214064498
 20
1.7501911527
 30
0.0
 10
39.4039308389
 20
1.9400220605
 30
0.0
 10
39.5186343045
 20
2.095498914
 30
0.0
 10
39.6633317475
 20
2.2115489149
 30
0.0
 10
39.8337156654
 20
2.2838376374
 30
0.0
 10
40.0238311874
 20
2.3104846352
 30
0.0
 10
40.1544872312
 20
2.2986261954
 30
0.0
 10
40.2208169931
 20
2.2863868408
 30
0.0
  0
SPLINE
  5
278
100
AcDbEntity
  8
RACCORDO
100
AcDbSpline
 62
7
  6
CONTINUOUS
 70
0
 71
3
 72
15
 73
11
 74
0
 42
0.0000001
 43
0.0000001
 44
0.0000000001
 40
0.0
 40
0.0
 40
0.0
 40
0.0
 40
0.1141517219
 40
0.2373209385
 40
0.3669696851
 40
0.4999939487
 40
0.6330190538
 40
0.762670259
 40
0.8858433486
 40
1.0
 40
1.0
 40
1.0
 40
1.0
 10
-53.5633386749
 20
-26.8385308209
 30
0.0
 10
-53.5633386749
 20
-27.3974712459
 30
0.0
 10
-53.4609599409
 20
-28.5605914875
 30
0.0
 10
-53.0528213969
 20
-30.3152964068
 30
0.0
 10
-52.3990062249
 20
-32.092693818
 30
0.0
 10
-51.5239430019
 20
-33.8259468161
 30
0.0
 10
-50.4604263348
 20
-35.4504099235
 30
0.0
 10
-49.2480439232
 20
-36.9053589765
 30
0.0
 10
-47.9324647787
 20
-38.1362185135
 30
0.0
 10
-46.9763405764
 20
-38.8064837364
 30
0.0
 10
-46.492270863
 20
-39.0859795221
 30
0.0
  0
SPLINE
  5
279
100
AcDbEntity
  8
RACCORDO
100
AcDbSpline
 62
7
  6
CONTINUOUS
 70
0
 71
3
 72
14
 73
10
 74
0
 42
0.0000001
 43
0.0000001
 44
0.0000000001
 40
0.0
 40
0.0
 40
0.0
 40
0.0
 40
0.2892776293
 40
0.4225436642
 40
0.5485047934
 40
0.667900445
 40
0.7818732727
 40
0.891955321
 40
1.0
 40
1.0
 40
1.0
 40
1.0
 10
45.4316106912
 20
-92.1616766547
 30
0.0
 10
45.8705804407
 20
-92.4151322865
 30
0.0
 10
46.5445194091
 20
-92.7359245916
 30
0.0
 10
47.4687814742
 20
-93.0054486052
 30
0.0
 10
48.1248189428
 20
-93.1155277411
 30
0.0
 10
48.7560637697
 20
-93.1374954078
 30
0.0
 10
49.3565245999
 20
-93.0705301681
 30
0.0
 10
49.9197875315
 20
-92.9147729332
 30
0.0
 10
50.267896305
 20
-92.7517509416
 30
0.0
 10
50.4318507277
 20
-92.6570857212
 30
0.0
  0
SPLINE
  5
27A
100
AcDbEntity
  8
0
100
AcDbSpline
 62
7
  6
CONTINUOUS
 70
0
 71
3
 72
15
 73
11
 74
0
 42
0.0000001
 43
0.0000001
 44
0.0000000001
 40
0.0
 40
0.0
 40
0.0
 40
0.0
 40
0.1141528103
 40
0.2373238325
 40
0.3669742674
 40
0.4999999619
 40
0.6330257134
 40
0.7626764989
 40
0.885844136
 40
1.0
 40
1.0
 40
1.0
 40
1.0
 10
39.615418237
 20
2.7228379894
 30
0.0
 10
39.7848541861
 20
2.6250267355
 30
0.0
 10
40.1195218217
 20
2.3904470824
 30
0.0
 10
40.5800150543
 20
1.959657081
 30
0.0
 10
41.0043911976
 20
1.45041829
 30
0.0
 10
41.3766574011
 20
0.8818332715
 30
0.0
 10
41.6829680367
 20
0.275165331
 30
0.0
 10
41.9118237982
 20
-0.3469577294
 30
0.0
 10
42.0546942124
 20
-0.9611419347
 30
0.0
 10
42.0905311501
 20
-1.3682604445
 30
0.0
 10
42.0905311501
 20
-1.5639071416
 30
0.0
  0
SPLINE
  5
27B
100
AcDbEntity
  8
0
100
AcDbSpline
 62
7
  6
CONTINUOUS
 70
0
 71
3
 72
15
 73
11
 74
0
 42
0.0000001
 43
0.0000001
 44
0.0000000001
 40
0.0
 40
0.0
 40
0.0
 40
0.0
 40
0.1141528103
 40
0.2373238325
 40
0.3669742674
 40
0.4999999619
 40
0.6330257134
 40
0.7626764989
 40
0.885844136
 40
1.0
 40
1.0
 40
1.0
 40
1.0
 10
39.615418237
 20
-44.0609088708
 30
0.0
 10
39.7848541861
 20
-44.1587201247
 30
0.0
 10
40.1195218217
 20
-44.3932997778
 30
0.0
 10
40.5800150543
 20
-44.8240897792
 30
0.0
 10
41.0043911976
 20
-45.3333285702
 30
0.0
 10
41.3766574011
 20
-45.9019135887
 30
0.0
 10
41.6829680367
 20
-46.5085815292
 30
0.0
 10
41.9118237982
 20
-47.1307045896
 30
0.0
 10
42.0546942124
 20
-47.7448887949
 30
0.0
 10
42.0905311501
 20
-48.1520073047
 30
0.0
 10
42.0905311501
 20
-48.3476540018
 30
0.0
  0
SPLINE
  5
27C
100
AcDbEntity
  8
0
100
AcDbSpline
 62
7
  6
CONTINUOUS
 70
0
 71
3
 72
15
 73
11
 74
0
 42
0.0000001
 43
0.0000001
 44
0.0000000001
 40
0.0
 40
0.0
 40
0.0
 40
0.0
 40
0.1141528103
 40
0.2373238325
 40
0.3669742674
 40
0.4999999619
 40
0.6330257134
 40
0.7626764989
 40
0.885844136
 40
1.0
 40
1.0
 40
1.0
 40
1.0
 10
-40.6765567667
 20
49.0824180618
 30
0.0
 10
-40.5071208177
 20
48.9846068079
 30
0.0
 10
-40.172453182
 20
48.7500271548
 30
0.0
 10
-39.7119599494
 20
48.3192371534
 30
0.0
 10
-39.2875838061
 20
47.8099983624
 30
0.0
 10
-38.9153176026
 20
47.2414133438
 30
0.0
 10
-38.609006967
 20
46.6347454034
 30
0.0
 10
-38.3801512056
 20
46.012622343
 30
0.0
 10
-38.2372807913
 20
45.3984381377
 30
0.0
 10
-38.2014438536
 20
44.9913196279
 30
0.0
 10
-38.2014438536
 20
44.7956729308
 30
0.0
  0
SPLINE
  5
27D
100
AcDbEntity
  8
0
100
AcDbSpline
 62
7
  6
CONTINUOUS
 70
0
 71
3
 72
15
 73
11
 74
0
 42
0.0000001
 43
0.0000001
 44
0.0000000001
 40
0.0
 40
0.0
 40
0.0
 40
0.0
 40
0.1141528103
 40
0.2373238325
 40
0.3669742674
 40
0.4999999619
 40
0.6330257134
 40
0.7626764989
 40
0.885844136
 40
1.0
 40
1.0
 40
1.0
 40
1.0
 10
-40.6765567667
 20
2.2986712016
 30
0.0
 10
-40.5071208177
 20
2.2008599477
 30
0.0
 10
-40.172453182
 20
1.9662802946
 30
0.0
 10
-39.7119599494
 20
1.5354902932
 30
0.0
 10
-39.2875838061
 20
1.0262515021
 30
0.0
 10
-38.9153176026
 20
0.4576664836
 30
0.0
 10
-38.609006967
 20
-0.1490014568
 30
0.0
 10
-38.3801512056
 20
-0.7711245172
 30
0.0
 10
-38.2372807913
 20
-1.3853087225
 30
0.0
 10
-38.2014438536
 20
-1.7924272324
 30
0.0
 10
-38.2014438536
 20
-1.9880739294
 30
0.0
  0
SPLINE
  5
27E
100
AcDbEntity
  8
RACCORDO
100
AcDbSpline
 62
7
  6
CONTINUOUS
 70
0
 71
3
 72
15
 73
11
 74
0
 42
0.0000001
 43
0.0000001
 44
0.0000000001
 40
0.0
 40
0.0
 40
0.0
 40
0.0
 40
0.11415222
 40
0.2373210206
 40
0.3669696604
 40
0.4999939487
 40
0.6330190785
 40
0.7626701768
 40
0.8858428505
 40
1.0
 40
1.0
 40
1.0
 40
1.0
 10
-18.5615530061
 20
-11.7356653546
 30
0.0
 10
-18.5615530061
 20
-12.1828196435
 30
0.0
 10
-18.4796499415
 20
-13.1133162499
 30
0.0
 10
-18.1531368846
 20
-14.5170794943
 30
0.0
 10
-17.630087146
 20
-15.9389960667
 30
0.0
 10
-16.9300382593
 20
-17.325599185
 30
0.0
 10
-16.0792234562
 20
-18.6251685658
 30
0.0
 10
-15.1093175024
 20
-19.7891250524
 30
0.0
 10
-14.0568558961
 20
-20.7738142604
 30
0.0
 10
-13.2919562153
 20
-21.3100267124
 30
0.0
 10
-12.9046987567
 20
-21.5336243155
 30
0.0
  0
SPLINE
  5
27F
100
AcDbEntity
  8
RACCORDO
100
AcDbSpline
 62
7
  6
CONTINUOUS
 70
0
 71
3
 72
14
 73
10
 74
0
 42
0.0000001
 43
0.0000001
 44
0.0000000001
 40
0.0
 40
0.0
 40
0.0
 40
0.0
 40
0.2892733293
 40
0.4225360033
 40
0.5484972267
 40
0.6678933394
 40
0.781867896
 40
0.8919524249
 40
1.0
 40
1.0
 40
1.0
 40
1.0
 10
18.5615530061
 20
-34.3949052842
 30
0.0
 10
18.5615530061
 20
-34.8003479167
 30
0.0
 10
18.5142229558
 20
-35.3954825015
 30
0.0
 10
18.3312594562
 20
-36.1435119866
 30
0.0
 10
18.1451343515
 20
-36.6419794379
 30
0.0
 10
17.9078876262
 20
-37.0880401822
 30
0.0
 10
17.6213523788
 20
-37.4772155831
 30
0.0
 10
17.2881877178
 20
-37.8051196343
 30
0.0
 10
17.0360394296
 20
-37.9810772976
 30
0.0
 10
16.9048920378
 20
-38.0568001734
 30
0.0
  0
SPLINE
  5
280
100
AcDbEntity
  8
RACCORDO
100
AcDbSpline
 62
7
  6
CONTINUOUS
 70
0
 71
3
 72
12
 73
8
 74
0
 42
0.0000001
 43
0.0000001
 44
0.0000000001
 40
0.0
 40
0.0
 40
0.0
 40
0.0
 40
0.2843871754
 40
0.5438696713
 40
0.7804598588
 40
0.8919315932
 40
1.0
 40
1.0
 40
1.0
 40
1.0
 10
13.9653589284
 20
-37.048058862
 30
0.0
 10
14.2598507835
 20
-37.2180947682
 30
0.0
 10
14.8462164458
 20
-37.5061729953
 30
0.0
 10
15.7449422259
 20
-37.7746932017
 30
0.0
 10
16.4753723364
 20
-37.8391812241
 30
0.0
 10
17.0194787785
 20
-37.7863520503
 30
0.0
 10
17.276195861
 20
-37.7271362165
 30
0.0
 10
17.3998030223
 20
-37.68945673
 30
0.0
  0
SPLINE
  5
281
100
AcDbEntity
  8
RACCORDO
100
AcDbSpline
 62
7
  6
CONTINUOUS
 70
0
 71
3
 72
15
 73
11
 74
0
 42
0.0000001
 43
0.0000001
 44
0.0000000001
 40
0.0
 40
0.0
 40
0.0
 40
0.0
 40
0.1141571495
 40
0.2373298232
 40
0.3669809215
 40
0.5000060513
 40
0.6330303396
 40
0.7626789794
 40
0.88584778
 40
1.0
 40
1.0
 40
1.0
 40
1.0
 10
12.9046987567
 20
3.1630430877
 30
0.0
 10
13.2919562153
 20
2.9394454845
 30
0.0
 10
14.0568558961
 20
2.4032330326
 30
0.0
 10
15.1093175024
 20
1.4185438245
 30
0.0
 10
16.0792234562
 20
0.2545873379
 30
0.0
 10
16.9300382593
 20
-1.0449820428
 30
0.0
 10
17.630087146
 20
-2.4315851612
 30
0.0
 10
18.1531368846
 20
-3.8535017336
 30
0.0
 10
18.4796499415
 20
-5.2572649779
 30
0.0
 10
18.5615530061
 20
-6.1877615843
 30
0.0
 10
18.5615530061
 20
-6.6349158733
 30
0.0
  0
SPLINE
  5
282
100
AcDbEntity
  8
RACCORDO
100
AcDbSpline
 62
7
  6
CONTINUOUS
 70
0
 71
3
 72
12
 73
8
 74
0
 42
0.0000001
 43
0.0000001
 44
0.0000000001
 40
0.0
 40
0.0
 40
0.0
 40
0.0
 40
0.1080711768
 40
0.2195451185
 40
0.456137283
 40
0.7156179219
 40
1.0
 40
1.0
 40
1.0
 40
1.0
 10
-17.39998675
 20
19.3187675821
 30
0.0
 10
-17.4944022428
 20
19.2305682704
 30
0.0
 10
-17.67400604
 20
19.0378741594
 30
0.0
 10
-17.9917459739
 20
18.593141949
 30
0.0
 10
-18.3010551752
 20
17.9284422446
 30
0.0
 10
-18.5178454913
 20
17.0160342438
 30
0.0
 10
-18.5615530061
 20
16.3643129992
 30
0.0
 10
-18.5615530061
 20
16.0243240564
 30
0.0
  0
SPLINE
  5
283
100
AcDbEntity
  8
RACCORDO
100
AcDbSpline
 62
7
  6
CONTINUOUS
 70
0
 71
3
 72
14
 73
10
 74
0
 42
0.0000001
 43
0.0000001
 44
0.0000000001
 40
0.0
 40
0.0
 40
0.0
 40
0.0
 40
0.1080447353
 40
0.2181268611
 40
0.332099806
 40
0.4514953203
 40
0.5774570342
 40
0.7107212387
 40
1.0
 40
1.0
 40
1.0
 40
1.0
 10
-17.9655522095
 20
19.0738070556
 30
0.0
 10
-17.8343886148
 20
19.1495392867
 30
0.0
 10
-17.555901106
 20
19.2799563793
 30
0.0
 10
-17.105290004
 20
19.4045608604
 30
0.0
 10
-16.6249211432
 20
19.4581311636
 30
0.0
 10
-16.1199244424
 20
19.4405574906
 30
0.0
 10
-15.5950968746
 20
19.3524920018
 30
0.0
 10
-14.8556859669
 20
19.1368782139
 30
0.0
 10
-14.3165360962
 20
18.8802429295
 30
0.0
 10
-13.9653589284
 20
18.6774776341
 30
0.0
  0
SPLINE
  5
284
100
AcDbEntity
  8
RACCORDO
100
AcDbSpline
 62
7
  6
CONTINUOUS
 70
0
 71
3
 72
14
 73
10
 74
0
 42
0.0000001
 43
0.0000001
 44
0.0000000001
 40
0.0
 40
0.0
 40
0.0
 40
0.0
 40
0.1080475189
 40
0.2181319704
 40
0.3321064096
 40
0.4515026591
 40
0.5774632978
 40
0.7107278027
 40
1.0
 40
1.0
 40
1.0
 40
1.0
 10
-51.4925108995
 20
92.0446738312
 30
0.0
 10
-51.6564450686
 20
91.9500203049
 30
0.0
 10
-51.9716306207
 20
91.7300739957
 30
0.0
 10
-52.3880874044
 20
91.3201955963
 30
0.0
 10
-52.746258382
 20
90.8337277338
 30
0.0
 10
-53.0428157712
 20
90.2761524305
 30
0.0
 10
-53.2754760181
 20
89.6530668741
 30
0.0
 10
-53.504173739
 20
88.7180279883
 30
0.0
 10
-53.5633386749
 20
87.9741092456
 30
0.0
 10
-53.5633386749
 20
87.4673079301
 30
0.0
  0
SPLINE
  5
285
100
AcDbEntity
  8
RACCORDO
100
AcDbSpline
 62
7
  6
CONTINUOUS
 70
0
 71
3
 72
14
 73
10
 74
0
 42
0.0000001
 43
0.0000001
 44
0.0000000001
 40
0.0
 40
0.0
 40
0.0
 40
0.0
 40
0.108044679
 40
0.2181267273
 40
0.332099555
 40
0.4514952066
 40
0.5774563358
 40
0.7107223707
 40
1.0
 40
1.0
 40
1.0
 40
1.0
 10
-50.4318507277
 20
92.6570857212
 30
0.0
 10
-50.267896305
 20
92.7517509416
 30
0.0
 10
-49.9197875315
 20
92.9147729332
 30
0.0
 10
-49.3565245999
 20
93.0705301681
 30
0.0
 10
-48.7560637697
 20
93.1374954078
 30
0.0
 10
-48.1248189428
 20
93.1155277411
 30
0.0
 10
-47.4687814742
 20
93.0054486052
 30
0.0
 10
-46.5445194091
 20
92.7359245916
 30
0.0
 10
-45.8705804407
 20
92.4151322865
 30
0.0
 10
-45.4316106912
 20
92.1616766547
 30
0.0
  0
SPLINE
  5
286
100
AcDbEntity
  8
RACCORDO
100
AcDbSpline
 62
7
  6
CONTINUOUS
 70
0
 71
3
 72
14
 73
10
 74
0
 42
0.0000001
 43
0.0000001
 44
0.0000000001
 40
0.0
 40
0.0
 40
0.0
 40
0.0
 40
0.2892776293
 40
0.4225436642
 40
0.5485047934
 40
0.667900445
 40
0.7818732727
 40
0.891955321
 40
1.0
 40
1.0
 40
1.0
 40
1.0
 10
-46.492270863
 20
91.5492647647
 30
0.0
 10
-46.9312406124
 20
91.8027203965
 30
0.0
 10
-47.6051795809
 20
92.1235127016
 30
0.0
 10
-48.529441646
 20
92.3930367152
 30
0.0
 10
-49.1854791146
 20
92.5031158511
 30
0.0
 10
-49.8167239415
 20
92.5250835178
 30
0.0
 10
-50.4171847717
 20
92.4581182781
 30
0.0
 10
-50.9804477032
 20
92.3023610432
 30
0.0
 10
-51.3285564768
 20
92.1393390516
 30
0.0
 10
-51.4925108995
 20
92.0446738312
 30
0.0
  0
SPLINE
  5
287
100
AcDbEntity
  8
RACCORDO
100
AcDbSpline
 62
7
  6
CONTINUOUS
 70
0
 71
3
 72
14
 73
10
 74
0
 42
0.0000001
 43
0.0000001
 44
0.0000000001
 40
0.0
 40
0.0
 40
0.0
 40
0.0
 40
0.2892733293
 40
0.4225360033
 40
0.5484972267
 40
0.6678933394
 40
0.781867896
 40
0.8919524249
 40
1.0
 40
1.0
 40
1.0
 40
1.0
 10
-19.6222131779
 20
15.4119121664
 30
0.0
 10
-19.6222131779
 20
15.8173547989
 30
0.0
 10
-19.5748831275
 20
16.4124893837
 30
0.0
 10
-19.391919628
 20
17.1605188687
 30
0.0
 10
-19.2057945232
 20
17.6589863201
 30
0.0
 10
-18.968547798
 20
18.1050470644
 30
0.0
 10
-18.6820125505
 20
18.4942224652
 30
0.0
 10
-18.3488478896
 20
18.8221265165
 30
0.0
 10
-18.0966996013
 20
18.9980841798
 30
0.0
 10
-17.9655522095
 20
19.0738070556
 30
0.0
  0
SPLINE
  5
288
100
AcDbEntity
  8
RACCORDO
100
AcDbSpline
 62
7
  6
CONTINUOUS
 70
0
 71
3
 72
14
 73
10
 74
0
 42
0.0000001
 43
0.0000001
 44
0.0000000001
 40
0.0
 40
0.0
 40
0.0
 40
0.0
 40
0.1080447353
 40
0.2181268611
 40
0.332099806
 40
0.4514953203
 40
0.5774570342
 40
0.7107212387
 40
1.0
 40
1.0
 40
1.0
 40
1.0
 10
16.9048920378
 20
-38.0568001734
 30
0.0
 10
16.773728443
 20
-38.1325324045
 30
0.0
 10
16.4952409342
 20
-38.2629494971
 30
0.0
 10
16.0446298323
 20
-38.3875539783
 30
0.0
 10
15.5642609714
 20
-38.4411242814
 30
0.0
 10
15.0592642706
 20
-38.4235506085
 30
0.0
 10
14.5344367028
 20
-38.3354851197
 30
0.0
 10
13.7950257951
 20
-38.1198713317
 30
0.0
 10
13.2558759244
 20
-37.8632360474
 30
0.0
 10
12.9046987567
 20
-37.660470752
 30
0.0
  0
SPLINE
  5
289
100
AcDbEntity
  8
RACCORDO
100
AcDbSpline
 62
7
  6
CONTINUOUS
 70
0
 71
3
 72
15
 73
11
 74
0
 42
0.0000001
 43
0.0000001
 44
0.0000000001
 40
0.0
 40
0.0
 40
0.0
 40
0.0
 40
0.1141571495
 40
0.2373298232
 40
0.3669809215
 40
0.5000060513
 40
0.6330303396
 40
0.7626789794
 40
0.88584778
 40
1.0
 40
1.0
 40
1.0
 40
1.0
 10
-13.9653589284
 20
-22.1460362055
 30
0.0
 10
-14.3526163871
 20
-21.9224386024
 30
0.0
 10
-15.1175160679
 20
-21.3862261504
 30
0.0
 10
-16.1699776742
 20
-20.4015369424
 30
0.0
 10
-17.139883628
 20
-19.2375804557
 30
0.0
 10
-17.9906984311
 20
-17.938011075
 30
0.0
 10
-18.6907473177
 20
-16.5514079566
 30
0.0
 10
-19.2137970564
 20
-15.1294913843
 30
0.0
 10
-19.5403101133
 20
-13.7257281399
 30
0.0
 10
-19.6222131779
 20
-12.7952315335
 30
0.0
 10
-19.6222131779
 20
-12.3480772445
 30
0.0
  0
SPLINE
  5
28A
100
AcDbEntity
  8
0
100
AcDbSpline
 62
7
  6
CONTINUOUS
 70
0
 71
3
 72
25
 73
21
 74
0
 42
0.0000001
 43
0.0000001
 44
0.0000000001
 40
0.0
 40
0.0
 40
0.0
 40
0.0
 40
0.0603601886
 40
0.1143536076
 40
0.1629191538
 40
0.1858889241
 40
0.2084337841
 40
0.23097884
 40
0.2539492233
 40
0.3025168169
 40
0.3565151738
 40
0.4168767532
 40
0.4834440891
 40
0.5552692527
 40
0.6308718343
 40
0.7084418831
 40
0.7860114745
 40
0.8616128268
 40
0.9334337582
 40
1.0
 40
1.0
 40
1.0
 40
1.0
 10
-38.2014438536
 20
-1.9880739294
 30
0.0
 10
-38.2014438536
 20
-2.1654688845
 30
0.0
 10
-38.2283173797
 20
-2.5027503186
 30
0.0
 10
-38.3647150988
 20
-2.9658922745
 30
0.0
 10
-38.5606672747
 20
-3.2854197281
 30
0.0
 10
-38.7586407096
 20
-3.4800986903
 30
0.0
 10
-38.9234669826
 20
-3.5951411458
 30
0.0
 10
-39.1055204694
 20
-3.680344206
 30
0.0
 10
-39.3731225515
 20
-3.7544269125
 30
0.0
 10
-39.7478180734
 20
-3.7643454269
 30
0.0
 10
-40.217230249
 20
-3.6507960564
 30
0.0
 10
-40.7001624915
 20
-3.4210476972
 30
0.0
 10
-41.1802684555
 20
-3.0844030772
 30
0.0
 10
-41.6408709994
 20
-2.6535227197
 30
0.0
 10
-42.0651635095
 20
-2.1443152637
 30
0.0
 10
-42.4374028085
 20
-1.5757444765
 30
0.0
 10
-42.7436760808
 20
-0.9691092302
 30
0.0
 10
-42.972505979
 20
-0.3470227757
 30
0.0
 10
-43.1153589497
 20
0.2671222814
 30
0.0
 10
-43.1511913219
 20
0.6742140523
 30
0.0
 10
-43.1511913219
 20
0.8698482239
 30
0.0
  0
SPLINE
  5
28B
100
AcDbEntity
  8
0
100
AcDbSpline
 62
7
  6
CONTINUOUS
 70
0
 71
3
 72
17
 73
13
 74
0
 42
0.0000001
 43
0.0000001
 44
0.0000000001
 40
0.0
 40
0.0
 40
0.0
 40
0.0
 40
0.144793879
 40
0.2743158801
 40
0.3908176987
 40
0.4459187037
 40
0.5000000611
 40
0.554081379
 40
0.6091823729
 40
0.7256837479
 40
0.8552103895
 40
1.0
 40
1.0
 40
1.0
 40
1.0
 10
-43.1511913219
 20
0.8698482239
 30
0.0
 10
-43.1511913219
 20
1.0472328825
 30
0.0
 10
-43.1243208028
 20
1.38449571
 30
0.0
 10
-42.9879394984
 20
1.8476154231
 30
0.0
 10
-42.7920115162
 20
2.1671347808
 30
0.0
 10
-42.594060874
 20
2.3618167517
 30
0.0
 10
-42.4292534665
 20
2.4768655059
 30
0.0
 10
-42.2472193977
 20
2.5620788218
 30
0.0
 10
-41.9796493235
 20
2.6361825946
 30
0.0
 10
-41.6049684674
 20
2.6461257418
 30
0.0
 10
-41.1357003477
 20
2.5326913754
 30
0.0
 10
-40.8301768195
 20
2.3873523231
 30
0.0
 10
-40.6765567667
 20
2.2986712016
 30
0.0
  0
SPLINE
  5
28C
100
AcDbEntity
  8
0
100
AcDbSpline
 62
7
  6
CONTINUOUS
 70
0
 71
3
 72
25
 73
21
 74
0
 42
0.0000001
 43
0.0000001
 44
0.0000000001
 40
0.0
 40
0.0
 40
0.0
 40
0.0
 40
0.0603601886
 40
0.1143536076
 40
0.1629191538
 40
0.1858889241
 40
0.2084337841
 40
0.23097884
 40
0.2539492233
 40
0.3025168169
 40
0.3565151738
 40
0.4168767532
 40
0.4834440891
 40
0.5552692527
 40
0.6308718343
 40
0.7084418831
 40
0.7860114745
 40
0.8616128268
 40
0.9334337582
 40
1.0
 40
1.0
 40
1.0
 40
1.0
 10
-38.2014438536
 20
44.7956729308
 30
0.0
 10
-38.2014438536
 20
44.6182779757
 30
0.0
 10
-38.2283173797
 20
44.2809965416
 30
0.0
 10
-38.3647150988
 20
43.8178545857
 30
0.0
 10
-38.5606672747
 20
43.4983271322
 30
0.0
 10
-38.7586407096
 20
43.30364817
 30
0.0
 10
-38.9234669826
 20
43.1886057145
 30
0.0
 10
-39.1055204694
 20
43.1034026542
 30
0.0
 10
-39.3731225515
 20
43.0293199477
 30
0.0
 10
-39.7478180734
 20
43.0194014333
 30
0.0
 10
-40.217230249
 20
43.1329508038
 30
0.0
 10
-40.7001624915
 20
43.3626991631
 30
0.0
 10
-41.1802684555
 20
43.699343783
 30
0.0
 10
-41.6408709994
 20
44.1302241406
 30
0.0
 10
-42.0651635095
 20
44.6394315965
 30
0.0
 10
-42.4374028085
 20
45.2080023837
 30
0.0
 10
-42.7436760808
 20
45.8146376301
 30
0.0
 10
-42.972505979
 20
46.4367240845
 30
0.0
 10
-43.1153589497
 20
47.0508691416
 30
0.0
 10
-43.1511913219
 20
47.4579609125
 30
0.0
 10
-43.1511913219
 20
47.6535950841
 30
0.0
  0
SPLINE
  5
28D
100
AcDbEntity
  8
0
100
AcDbSpline
 62
7
  6
CONTINUOUS
 70
0
 71
3
 72
17
 73
13
 74
0
 42
0.0000001
 43
0.0000001
 44
0.0000000001
 40
0.0
 40
0.0
 40
0.0
 40
0.0
 40
0.144793879
 40
0.2743158801
 40
0.3908176987
 40
0.4459187037
 40
0.5000000611
 40
0.554081379
 40
0.6091823729
 40
0.7256837479
 40
0.8552103895
 40
1.0
 40
1.0
 40
1.0
 40
1.0
 10
-43.1511913219
 20
47.6535950841
 30
0.0
 10
-43.1511913219
 20
47.8309797427
 30
0.0
 10
-43.1243208028
 20
48.1682425703
 30
0.0
 10
-42.9879394984
 20
48.6313622834
 30
0.0
 10
-42.7920115162
 20
48.950881641
 30
0.0
 10
-42.594060874
 20
49.1455636119
 30
0.0
 10
-42.4292534665
 20
49.2606123661
 30
0.0
 10
-42.2472193977
 20
49.345825682
 30
0.0
 10
-41.9796493235
 20
49.4199294549
 30
0.0
 10
-41.6049684674
 20
49.429872602
 30
0.0
 10
-41.1357003477
 20
49.3164382356
 30
0.0
 10
-40.8301768195
 20
49.1710991833
 30
0.0
 10
-40.6765567667
 20
49.0824180618
 30
0.0
  0
SPLINE
  5
28E
100
AcDbEntity
  8
0
100
AcDbSpline
 62
7
  6
CONTINUOUS
 70
0
 71
3
 72
25
 73
21
 74
0
 42
0.0000001
 43
0.0000001
 44
0.0000000001
 40
0.0
 40
0.0
 40
0.0
 40
0.0
 40
0.0603601886
 40
0.1143536076
 40
0.1629191538
 40
0.1858889241
 40
0.2084337841
 40
0.23097884
 40
0.2539492233
 40
0.3025168169
 40
0.3565151738
 40
0.4168767532
 40
0.4834440891
 40
0.5552692527
 40
0.6308718343
 40
0.7084418831
 40
0.7860114745
 40
0.8616128268
 40
0.9334337582
 40
1.0
 40
1.0
 40
1.0
 40
1.0
 10
42.0905311501
 20
-48.3476540018
 30
0.0
 10
42.0905311501
 20
-48.5250489569
 30
0.0
 10
42.063657624
 20
-48.862330391
 30
0.0
 10
41.927259905
 20
-49.3254723469
 30
0.0
 10
41.731307729
 20
-49.6449998004
 30
0.0
 10
41.5333342942
 20
-49.8396787626
 30
0.0
 10
41.3685080211
 20
-49.9547212181
 30
0.0
 10
41.1864545343
 20
-50.0399242784
 30
0.0
 10
40.9188524522
 20
-50.1140069849
 30
0.0
 10
40.5441569304
 20
-50.1239254993
 30
0.0
 10
40.0747447548
 20
-50.0103761288
 30
0.0
 10
39.5918125123
 20
-49.7806277695
 30
0.0
 10
39.1117065482
 20
-49.4439831496
 30
0.0
 10
38.6511040043
 20
-49.013102792
 30
0.0
 10
38.2268114943
 20
-48.5038953361
 30
0.0
 10
37.8545721952
 20
-47.9353245489
 30
0.0
 10
37.548298923
 20
-47.3286893025
 30
0.0
 10
37.3194690247
 20
-46.7066028481
 30
0.0
 10
37.176616054
 20
-46.0924577909
 30
0.0
 10
37.1407836818
 20
-45.68536602
 30
0.0
 10
37.1407836818
 20
-45.4897318485
 30
0.0
  0
SPLINE
  5
28F
100
AcDbEntity
  8
0
100
AcDbSpline
 62
7
  6
CONTINUOUS
 70
0
 71
3
 72
17
 73
13
 74
0
 42
0.0000001
 43
0.0000001
 44
0.0000000001
 40
0.0
 40
0.0
 40
0.0
 40
0.0
 40
0.144793879
 40
0.2743158801
 40
0.3908176987
 40
0.4459187037
 40
0.5000000611
 40
0.554081379
 40
0.6091823729
 40
0.7256837479
 40
0.8552103895
 40
1.0
 40
1.0
 40
1.0
 40
1.0
 10
37.1407836818
 20
-45.4897318485
 30
0.0
 10
37.1407836818
 20
-45.3123471899
 30
0.0
 10
37.167654201
 20
-44.9750843623
 30
0.0
 10
37.3040355053
 20
-44.5119646492
 30
0.0
 10
37.4999634876
 20
-44.1924452916
 30
0.0
 10
37.6979141298
 20
-43.9977633207
 30
0.0
 10
37.8627215372
 20
-43.8827145664
 30
0.0
 10
38.0447556061
 20
-43.7975012506
 30
0.0
 10
38.3123256802
 20
-43.7233974777
 30
0.0
 10
38.6870065363
 20
-43.7134543306
 30
0.0
 10
39.156274656
 20
-43.826888697
 30
0.0
 10
39.4617981842
 20
-43.9722277493
 30
0.0
 10
39.615418237
 20
-44.0609088708
 30
0.0
  0
SPLINE
  5
290
100
AcDbEntity
  8
0
100
AcDbSpline
 62
7
  6
CONTINUOUS
 70
0
 71
3
 72
25
 73
21
 74
0
 42
0.0000001
 43
0.0000001
 44
0.0000000001
 40
0.0
 40
0.0
 40
0.0
 40
0.0
 40
0.0603601886
 40
0.1143536076
 40
0.1629191538
 40
0.1858889241
 40
0.2084337841
 40
0.23097884
 40
0.2539492233
 40
0.3025168169
 40
0.3565151738
 40
0.4168767532
 40
0.4834440891
 40
0.5552692527
 40
0.6308718343
 40
0.7084418831
 40
0.7860114745
 40
0.8616128268
 40
0.9334337582
 40
1.0
 40
1.0
 40
1.0
 40
1.0
 10
42.0905311501
 20
-1.5639071416
 30
0.0
 10
42.0905311501
 20
-1.7413020967
 30
0.0
 10
42.063657624
 20
-2.0785835308
 30
0.0
 10
41.927259905
 20
-2.5417254866
 30
0.0
 10
41.731307729
 20
-2.8612529402
 30
0.0
 10
41.5333342942
 20
-3.0559319024
 30
0.0
 10
41.3685080211
 20
-3.1709743579
 30
0.0
 10
41.1864545343
 20
-3.2561774182
 30
0.0
 10
40.9188524522
 20
-3.3302601247
 30
0.0
 10
40.5441569304
 20
-3.3401786391
 30
0.0
 10
40.0747447548
 20
-3.2266292686
 30
0.0
 10
39.5918125123
 20
-2.9968809093
 30
0.0
 10
39.1117065482
 20
-2.6602362893
 30
0.0
 10
38.6511040043
 20
-2.2293559318
 30
0.0
 10
38.2268114943
 20
-1.7201484758
 30
0.0
 10
37.8545721952
 20
-1.1515776887
 30
0.0
 10
37.548298923
 20
-0.5449424423
 30
0.0
 10
37.3194690247
 20
0.0771440122
 30
0.0
 10
37.176616054
 20
0.6912890693
 30
0.0
 10
37.1407836818
 20
1.0983808402
 30
0.0
 10
37.1407836818
 20
1.2940150117
 30
0.0
  0
SPLINE
  5
291
100
AcDbEntity
  8
0
100
AcDbSpline
 62
7
  6
CONTINUOUS
 70
0
 71
3
 72
17
 73
13
 74
0
 42
0.0000001
 43
0.0000001
 44
0.0000000001
 40
0.0
 40
0.0
 40
0.0
 40
0.0
 40
0.144793879
 40
0.2743158801
 40
0.3908176987
 40
0.4459187037
 40
0.5000000611
 40
0.554081379
 40
0.6091823729
 40
0.7256837479
 40
0.8552103895
 40
1.0
 40
1.0
 40
1.0
 40
1.0
 10
37.1407836818
 20
1.2940150117
 30
0.0
 10
37.1407836818
 20
1.4713996703
 30
0.0
 10
37.167654201
 20
1.8086624979
 30
0.0
 10
37.3040355053
 20
2.271782211
 30
0.0
 10
37.4999634876
 20
2.5913015687
 30
0.0
 10
37.6979141298
 20
2.7859835395
 30
0.0
 10
37.8627215372
 20
2.9010322938
 30
0.0
 10
38.0447556061
 20
2.9862456097
 30
0.0
 10
38.3123256802
 20
3.0603493825
 30
0.0
 10
38.6870065363
 20
3.0702925297
 30
0.0
 10
39.156274656
 20
2.9568581632
 30
0.0
 10
39.4617981842
 20
2.811519111
 30
0.0
 10
39.615418237
 20
2.7228379894
 30
0.0
  0
SPLINE
  5
292
100
AcDbEntity
  8
RACCORDO
100
AcDbSpline
 62
7
  6
CONTINUOUS
 70
0
 71
3
 72
14
 73
10
 74
0
 42
0.0000001
 43
0.0000001
 44
0.0000000001
 40
0.0
 40
0.0
 40
0.0
 40
0.0
 40
0.1080475189
 40
0.2181319704
 40
0.3321064096
 40
0.4515026591
 40
0.5774632978
 40
0.7107278027
 40
1.0
 40
1.0
 40
1.0
 40
1.0
 10
50.4318507277
 20
-92.6570857212
 30
0.0
 10
50.5957848968
 20
-92.5624321949
 30
0.0
 10
50.9109704489
 20
-92.3424858857
 30
0.0
 10
51.3274272326
 20
-91.9326074863
 30
0.0
 10
51.6855982103
 20
-91.4461396238
 30
0.0
 10
51.9821555994
 20
-90.8885643205
 30
0.0
 10
52.2148158463
 20
-90.2654787641
 30
0.0
 10
52.4435135672
 20
-89.3304398783
 30
0.0
 10
52.5026785031
 20
-88.5865211356
 30
0.0
 10
52.5026785031
 20
-88.0797198201
 30
0.0
  0
SPLINE
  5
293
100
AcDbEntity
  8
RACCORDO
100
AcDbSpline
 62
7
  6
CONTINUOUS
 70
0
 71
3
 72
15
 73
11
 74
0
 42
0.0000001
 43
0.0000001
 44
0.0000000001
 40
0.0
 40
0.0
 40
0.0
 40
0.0
 40
0.1141517219
 40
0.2373209385
 40
0.3669696851
 40
0.4999939487
 40
0.6330190538
 40
0.762670259
 40
0.8858433486
 40
1.0
 40
1.0
 40
1.0
 40
1.0
 10
52.5026785031
 20
26.2261189309
 30
0.0
 10
52.5026785031
 20
26.7850593559
 30
0.0
 10
52.4002997691
 20
27.9481795975
 30
0.0
 10
51.9921612251
 20
29.7028845168
 30
0.0
 10
51.3383460532
 20
31.480281928
 30
0.0
 10
50.4632828301
 20
33.2135349261
 30
0.0
 10
49.399766163
 20
34.8379980335
 30
0.0
 10
48.1873837515
 20
36.2929470865
 30
0.0
 10
46.8718046069
 20
37.5238066235
 30
0.0
 10
45.9156804046
 20
38.1940718464
 30
0.0
 10
45.4316106912
 20
38.4735676321
 30
0.0
  0
ENDSEC
  0
SECTION
  2
OBJECTS
  0
DICTIONARY
  5
C
100
AcDbDictionary
280
0
281
1
  3
ACAD_GROUP
350
D
  3
ACAD_MLINESTYLE
350
17
  3
ACAD_LAYOUT
350
1A
  3
ACAD_PLOTSETTINGS
350
19
  3
ACAD_PLOTSTYLENAME
350
E
  0
DICTIONARY
  5
D
102
{ACAD_REACTORS
330
C
102
}
100
AcDbDictionary
280
0
281
1
  0
ACDBDICTIONARYWDFLT
  5
E
102
{ACAD_REACTORS
330
C
102
}
100
AcDbDictionary
281
1
  3
Normal
350
F
100
AcDbDictionaryWithDefault
340
F
  0
DICTIONARY
  5
17
102
{ACAD_REACTORS
330
C
102
}
100
AcDbDictionary
280
0
281
1
  3
Standard
350
18
  0
DICTIONARY
  5
19
102
{ACAD_REACTORS
330
C
102
}
100
AcDbDictionary
281
1
  0
DICTIONARY
  5
1A
102
{ACAD_REACTORS
330
C
102
}
100
AcDbDictionary
281
1
  3
Model
350
294
  3
Layout1
350
295
  0
ACDBPLACEHOLDER
  5
F
102
{ACAD_REACTORS
330
E
102
}
  0
MLINESTYLE
  5
18
102
{ACAD_REACTORS
330
17
102
}
100
AcDbMlineStyle
  2
STANDARD
 70
0
  3

 62
256
 51
90.0
 52
90.0
 71
2
 49
0.5
 62
256
  6
BYLAYER
 49
-0.5
 62
256
  6
BYLAYER
  0
LAYOUT
  5
294
102
{ACAD_REACTORS
330
1A
102
}
100
AcDbPlotSettings
  1

  2
none_device
  4
ISO_A4_(297.00_x_210.00_MM)
  6

 40
0.0
 41
0.0
 42
0.0
 43
0.0
 44
297.0
 45
210.0
 46
0.0
 47
0.0
 48
0.0
 49
0.0
140
0.0
141
0.0
142
1.0
143
1.0
 70
1024
 72
1
 73
0
 74
0
  7

 75
0
147
1.0
148
0.0
149
0.0
100
AcDbLayout
  1
Model
 70
0
 71
0
 10
0.0
 20
0.0
 11
297.0
 21
210.0
 12
0.0
 22
0.0
 32
0.0
 14
0.0
 24
0.0
 34
0.0
 15
0.0
 25
0.0
 35
0.0
146
0.0
 13
0.0
 23
0.0
 33
0.0
 16
1.0
 26
0.0
 36
0.0
 17
0.0
 27
1.0
 37
0.0
 76
0
330
212
345
0
346
0
  0
LAYOUT
  5
295
102
{ACAD_REACTORS
330
1A
102
}
100
AcDbPlotSettings
  1

  2
none_device
  4
ISO_A4_(297.00_x_210.00_MM)
  6

 40
0.0
 41
0.0
 42
0.0
 43
0.0
 44
297.0
 45
210.0
 46
0.0
 47
0.0
 48
0.0
 49
0.0
140
0.0
141
0.0
142
1.0
143
1.0
 70
0
 72
1
 73
0
 74
0
  7

 75
0
147
1.0
148
0.0
149
0.0
100
AcDbLayout
  1
Layout1
 70
0
 71
1
 10
0.0
 20
0.0
 11
297.0
 21
210.0
 12
0.0
 22
0.0
 32
0.0
 14
0.0
 24
0.0
 34
0.0
 15
0.0
 25
0.0
 35
0.0
146
0.0
 13
0.0
 23
0.0
 33
0.0
 16
1.0
 26
0.0
 36
0.0
 17
0.0
 27
1.0
 37
0.0
 76
0
330
213
345
0
346
0
  0
ENDSEC
  0
EOF
