  0
SECTION
  2
HEADER
  9
$ACADVER
  1
AC1024
  9
$DWGCODEPAGE
  3
ANSI_1252
  9
$EXTMAX
 10
297.0
 20
210.0
 30
0.0
  9
$EXTMIN
 10
0.0
 20
0.0
 30
0.0
  9
$LIMMIN
 10
0.0
 20
0.0
  9
$LIMMAX
 10
297.0
 20
210.0
  9
$VIEWCTR
 10
148.5
 20
105.0
  9
$VIEWSIZE
 40
210.0
  9
$CLAYER
  8
0
  9
$LTSCALE
 40
16.335
  9
$CELTYPE
  6
BYLAYER
  9
$DIMSCALE
 40
1.0
  9
$DIMASZ
 40
3.0
  9
$DIMEXO
 40
0.5
  9
$DIMDLI
 40
11.286
  9
$DIMEXE
 40
1.5
  9
$DIMCEN
 40
2.673
  9
$DIMLFAC
 40
1.0
  9
$DIMBLK
  1
_FILLED
  9
$DIMALT
 70
0
  9
$DIMALTF
 40
0.0393700787
  9
$DIMTXT
 40
3.0
  9
$DIMTOL
 70
1
  9
$DIMLIM
 70
0
  9
$DIMTFAC
 40
1.0
  9
$DIMTP
 40
0.01
  9
$DIMTM
 40
0.01
  9
$DIMGAP
 40
0.625
  9
$DIMDSEP
 70
44
  9
$AUNITS
 70
0
  9
$PDMODE
 70
3
  9
$PDSIZE
 40
3.0
  9
$HANDSEED
  5
2A4
  9
$TILEMODE
 70
1
  9
$MEASUREMENT
 70
1
  9
$INSUNITS
 70
4
  0
ENDSEC
  0
SECTION
  2
CLASSES
  0
CLASS
  1
ACDBDICTIONARYWDFLT
  2
AcDbDictionaryWithDefault
  3
AutoCAD 2000
 90
0
 91
1
280
0
281
0
  0
CLASS
  1
ACDBPLACEHOLDER
  2
AcDbPlaceHolder
  3
AutoCAD 2000
 90
0
 91
1
280
0
281
0
  0
CLASS
  1
LAYOUT
  2
AcDbLayout
  3
AutoCAD 2000
 90
0
 91
0
280
0
281
0
  0
ENDSEC
  0
SECTION
  2
TABLES
  0
TABLE
  2
VPORT
  5
8
100
AcDbSymbolTable
 70
2
  0
VPORT
  5
1F4
100
AcDbSymbolTableRecord
100
AcDbViewportTableRecord
  2
*ACTIVE
 70
0
 10
0.0
 20
0.0
 11
1.0
 21
1.0
 12
148.5
 22
105.0
 13
0.0
 23
0.0
 14
1.0
 24
1.0
 15
0.0
 25
0.0
 16
0.0
 26
0.0
 36
1.0
 17
0.0
 27
0.0
 37
0.0
 40
210.0
 41
1.4142857143
 42
50.0
 43
0.0
 44
0.0
 50
0.0
 51
0.0
 71
0
 72
100
 73
1
 74
1
 75
0
 76
0
 77
0
 78
0
  0
ENDTAB
  0
TABLE
  2
LTYPE
  5
5
100
AcDbSymbolTable
 70
6
  0
LTYPE
  5
14
100
AcDbSymbolTableRecord
100
AcDbLinetypeTableRecord
  2
BYBLOCK
 70
0
  3

 72
65
 73
0
 40
0.0
  0
LTYPE
  5
15
100
AcDbSymbolTableRecord
100
AcDbLinetypeTableRecord
  2
BYLAYER
 70
0
  3

 72
65
 73
0
 40
0.0
  0
LTYPE
  5
16
100
AcDbSymbolTableRecord
100
AcDbLinetypeTableRecord
  2
CONTINUOUS
 70
64
  3
Solid line
 72
65
 73
0
 40
0.0
  0
LTYPE
  5
1F5
100
AcDbSymbolTableRecord
100
AcDbLinetypeTableRecord
  2
CENTER
 70
64
  3
____ _ ____ _ ____ _ ____ _ ____ _ ____ _ ____
 72
65
 73
4
 40
0.6
 49
0.375
 74
0
 49
-0.075
 74
0
 49
0.075
 74
0
 49
-0.075
 74
0
  0
LTYPE
  5
1F6
100
AcDbSymbolTableRecord
100
AcDbLinetypeTableRecord
  2
HIDDEN
 70
64
  3
- - - - - - - - - - - - - - - - - - - -
 72
65
 73
2
 40
0.2
 49
0.1
 74
0
 49
-0.1
 74
0
  0
LTYPE
  5
1F7
100
AcDbSymbolTableRecord
100
AcDbLinetypeTableRecord
  2
PHANTOM
 70
64
  3
_____ _ _ _____ _ _ _____ _ _ _____
 72
65
 73
6
 40
0.8
 49
0.45
 74
0
 49
-0.05
 74
0
 49
0.1
 74
0
 49
-0.05
 74
0
 49
0.1
 74
0
 49
-0.05
 74
0
  0
LTYPE
  5
1F8
100
AcDbSymbolTableRecord
100
AcDbLinetypeTableRecord
  2
DOT
 70
64
  3
. . . . . . . . . . . . . . . . . . . .
 72
65
 73
2
 40
0.2
 49
0.1
 74
0
 49
-0.1
 74
0
  0
LTYPE
  5
1F9
100
AcDbSymbolTableRecord
100
AcDbLinetypeTableRecord
  2
DASHED
 70
64
  3
- - - - - - - - - - - - - - - - - - - -
 72
65
 73
2
 40
0.2
 49
0.1
 74
0
 49
-0.1
 74
0
  0
ENDTAB
  0
TABLE
  2
LAYER
  5
2
100
AcDbSymbolTable
 70
36
  0
LAYER
  5
10
100
AcDbSymbolTableRecord
100
AcDbLayerTableRecord
  2
0
 70
0
 62
7
  6
CONTINUOUS
370
-3
390
F
  0
LAYER
  5
1FA
100
AcDbSymbolTableRecord
100
AcDbLayerTableRecord
  2
DEFAULT_1
 70
0
 62
7
  6
CENTER
370
-3
390
F
  0
LAYER
  5
1FB
100
AcDbSymbolTableRecord
100
AcDbLayerTableRecord
  2
DEFAULT_2
 70
0
 62
7
  6
HIDDEN
370
-3
390
F
  0
LAYER
  5
1FC
100
AcDbSymbolTableRecord
100
AcDbLayerTableRecord
  2
DEFAULT_3
 70
0
 62
7
  6
PHANTOM
370
-3
390
F
  0
LAYER
  5
1FD
100
AcDbSymbolTableRecord
100
AcDbLayerTableRecord
  2
ASSI
 70
0
 62
7
  6
CONTINUOUS
370
-3
390
F
  0
LAYER
  5
1FE
100
AcDbSymbolTableRecord
100
AcDbLayerTableRecord
  2
COORDINATE
 70
0
 62
7
  6
CONTINUOUS
370
-3
390
F
  0
LAYER
  5
1FF
100
AcDbSymbolTableRecord
100
AcDbLayerTableRecord
  2
COORD_ORIGINE
 70
0
 62
7
  6
CONTINUOUS
370
-3
390
F
  0
LAYER
  5
200
100
AcDbSymbolTableRecord
100
AcDbLayerTableRecord
  2
COPY_PUBLISH
 70
0
 62
7
  6
CONTINUOUS
370
-3
390
F
  0
LAYER
  5
201
100
AcDbSymbolTableRecord
100
AcDbLayerTableRecord
  2
COSMETICHE
 70
0
 62
7
  6
CONTINUOUS
370
-3
390
F
  0
LAYER
  5
202
100
AcDbSymbolTableRecord
100
AcDbLayerTableRecord
  2
COSMETICI
 70
0
 62
7
  6
CONTINUOUS
370
-3
390
F
  0
LAYER
  5
203
100
AcDbSymbolTableRecord
100
AcDbLayerTableRecord
  2
CURVE
 70
0
 62
7
  6
CONTINUOUS
370
-3
390
F
  0
LAYER
  5
204
100
AcDbSymbolTableRecord
100
AcDbLayerTableRecord
  2
DRAFT
 70
0
 62
7
  6
CONTINUOUS
370
-3
390
F
  0
LAYER
  5
205
100
AcDbSymbolTableRecord
100
AcDbLayerTableRecord
  2
IMPORT_IGES
 70
0
 62
7
  6
CONTINUOUS
370
-3
390
F
  0
LAYER
  5
206
100
AcDbSymbolTableRecord
100
AcDbLayerTableRecord
  2
NOTE
 70
0
 62
7
  6
CONTINUOUS
370
-3
390
F
  0
LAYER
  5
207
100
AcDbSymbolTableRecord
100
AcDbLayerTableRecord
  2
PIANI
 70
0
 62
7
  6
CONTINUOUS
370
-3
390
F
  0
LAYER
  5
208
100
AcDbSymbolTableRecord
100
AcDbLayerTableRecord
  2
PIANI_ORIGINE
 70
0
 62
7
  6
CONTINUOUS
370
-3
390
F
  0
LAYER
  5
209
100
AcDbSymbolTableRecord
100
AcDbLayerTableRecord
  2
PUNTI
 70
0
 62
7
  6
CONTINUOUS
370
-3
390
F
  0
LAYER
  5
20A
100
AcDbSymbolTableRecord
100
AcDbLayerTableRecord
  2
RACCORDO
 70
0
 62
7
  6
CONTINUOUS
370
-3
390
F
  0
LAYER
  5
20B
100
AcDbSymbolTableRecord
100
AcDbLayerTableRecord
  2
SIMBOLI
 70
0
 62
7
  6
CONTINUOUS
370
-3
390
F
  0
LAYER
  5
20C
100
AcDbSymbolTableRecord
100
AcDbLayerTableRecord
  2
SMUSSO
 70
0
 62
7
  6
CONTINUOUS
370
-3
390
F
  0
LAYER
  5
20D
100
AcDbSymbolTableRecord
100
AcDbLayerTableRecord
  2
SNAPLINE
 70
0
 62
7
  6
CONTINUOUS
370
-3
390
F
  0
LAYER
  5
20E
100
AcDbSymbolTableRecord
100
AcDbLayerTableRecord
  2
SUPERFICI
 70
0
 62
7
  6
CONTINUOUS
370
-3
390
F
  0
LAYER
  5
20F
100
AcDbSymbolTableRecord
100
AcDbLayerTableRecord
  2
TRASH
 70
0
 62
7
  6
CONTINUOUS
370
-3
390
F
  0
ENDTAB
  0
TABLE
  2
STYLE
  5
3
100
AcDbSymbolTable
 70
1
  0
STYLE
  5
11
100
AcDbSymbolTableRecord
100
AcDbTextStyleTableRecord
  2
STANDARD
 70
0
 40
0.0
 41
0.8
 50
0.0
 71
0
 42
0.2
  3
txt
  4

  0
STYLE
  5
210
100
AcDbSymbolTableRecord
100
AcDbTextStyleTableRecord
  2
TEXTSTYLE_1
 70
0
 40
0.0
 41
0.8
 50
0.0
 71
0
 42
0.2
  3
gdt
  4

  0
ENDTAB
  0
TABLE
  2
VIEW
  5
6
100
AcDbSymbolTable
 70
0
  0
ENDTAB
  0
TABLE
  2
UCS
  5
7
100
AcDbSymbolTable
 70
0
  0
ENDTAB
  0
TABLE
  2
APPID
  5
9
100
AcDbSymbolTable
 70
1
  0
APPID
  5
211
100
AcDbSymbolTableRecord
100
AcDbRegAppTableRecord
  2
ACAD
 70
0
  0
ENDTAB
  0
TABLE
  2
BLOCK_RECORD
  5
1
100
AcDbSymbolTable
 70
0
  0
BLOCK_RECORD
  5
212
100
AcDbSymbolTableRecord
100
AcDbBlockTableRecord
  2
*Model_Space
  0
BLOCK_RECORD
  5
213
100
AcDbSymbolTableRecord
100
AcDbBlockTableRecord
  2
*Paper_Space
  0
BLOCK_RECORD
  5
214
100
AcDbSymbolTableRecord
100
AcDbBlockTableRecord
  2
_FILLED
  0
ENDTAB
  0
TABLE
  2
DIMSTYLE
  5
A
100
AcDbSymbolTable
 70
1
100
AcDbDimStyleTable
 71
0
  0
DIMSTYLE
105
215
100
AcDbSymbolTableRecord
100
AcDbDimStyleTableRecord
  2
STANDARD
 70
0
  3

  4

 40
1.0
 41
3.0
 42
0.5
 43
0.38
 44
1.5
 45
0.0
 46
0.0
 47
0.01
 48
0.01
140
3.0
141
0.09
142
0.0
143
25.4
144
1.0
145
0.0
146
1.0
147
0.625
 71
1
 72
0
 73
0
 74
0
 75
0
 76
0
 77
1
 78
8
 79
2
170
0
171
1
172
0
173
0
174
0
175
0
176
0
177
0
178
0
270
2
179
2
271
2
272
2
273
2
274
2
275
0
280
0
281
0
282
0
283
1
284
8
285
0
286
0
287
3
288
0
340
11
278
44
341
214
342
214
343
214
344
214
  0
ENDTAB
  0
ENDSEC
  0
SECTION
  2
BLOCKS
  0
BLOCK
  5
20
100
AcDbEntity
  8
0
100
AcDbBlockBegin
  2
*Model_Space
 70
0
 10
0.0
 20
0.0
 30
0.0
  3
*Model_Space
  1

  0
ENDBLK
  5
21
100
AcDbEntity
  8
0
100
AcDbBlockEnd
  0
BLOCK
  5
1C
100
AcDbEntity
  8
0
100
AcDbBlockBegin
  2
*Paper_Space
 70
0
 10
0.0
 20
0.0
 30
0.0
  3
*Paper_Space
  1

  0
ENDBLK
  5
1D
100
AcDbEntity
  8
0
100
AcDbBlockEnd
  0
BLOCK
  5
216
100
AcDbEntity
  8
0
100
AcDbBlockBegin
  2
_FILLED
 70
64
 10
0.0
 20
0.0
  3
_FILLED
  1

  0
SOLID
  5
217
100
AcDbEntity
  8
0
  6
BYBLOCK
 62
0
100
AcDbTrace
 10
0.0
 20
0.0
 11
-1.0
 21
0.3166666667
 12
-1.0
 22
-0.3166666667
 13
-1.0
 23
-0.3166666667
  0
ENDBLK
  5
218
100
AcDbEntity
  8
0
  6
BYBLOCK
 62
0
100
AcDbBlockEnd
  0
ENDSEC
  0
SECTION
  2
ENTITIES
  0
LWPOLYLINE
  5
219
100
AcDbEntity
  8
RACCORDO
100
AcDbPolyline
 62
7
  6
CONTINUOUS
 90
24
 70
0
 10
-51.4924983839
 20
92.0446521549
 10
-51.5788297576
 20
91.993060511
 10
-51.747098318
 20
91.8818860247
 10
-51.9089465173
 20
91.760329487
 10
-52.0643977178
 20
91.628428676
 10
-52.2128848912
 20
91.4866647169
 10
-52.3543826043
 20
91.3350015888
 10
-52.4889162902
 20
91.1734753125
 10
-52.61599522
 20
91.0026750762
 10
-52.7355921683
 20
90.8225670106
 10
-52.8477343604
 20
90.6331849848
 10
-52.9520127432
 20
90.4352197944
 10
-53.0483985976
 20
90.2286400929
 10
-53.1369206426
 20
90.0134772268
 10
-53.2172559827
 20
89.7905160303
 10
-53.2893747194
 20
89.5597280235
 10
-53.3533067512
 20
89.3211416863
 10
-53.4088188778
 20
89.0756272933
 10
-53.455880349
 20
88.8231595428
 10
-53.494521915
 20
88.5637637365
 10
-53.5246026255
 20
88.298386054
 10
-53.5460754974
 20
88.0273418888
 10
-53.5589875138
 20
87.7503158475
 10
-53.5633386749
 20
87.4673079301
  0
LINE
  5
21A
100
AcDbEntity
  8
RACCORDO
100
AcDbLine
 62
7
  6
CONTINUOUS
 10
-51.4925124644
 20
92.0446765415
 11
-50.4318522926
 21
92.6570884315
  0
LINE
  5
21B
100
AcDbEntity
  8
RACCORDO
100
AcDbLine
 62
250
  6
CONTINUOUS
 10
-46.492270863
 20
91.5492647647
 11
-45.4316106912
 21
92.1616766547
  0
LWPOLYLINE
  5
21C
100
AcDbEntity
  8
RACCORDO
100
AcDbPolyline
 62
7
  6
CONTINUOUS
 90
24
 70
0
 10
-50.4318382121
 20
92.6570640449
 10
-50.3435040266
 20
92.7063026139
 10
-50.1630785838
 20
92.7964207623
 10
-49.9768722219
 20
92.8757877248
 10
-49.7849059764
 20
92.9444426228
 10
-49.587880069
 20
93.0021350285
 10
-49.3857760215
 20
93.0488249062
 10
-49.1786123121
 20
93.0845522918
 10
-48.9671445972
 20
93.1091868648
 10
-48.7513571583
 20
93.1226881137
 10
-48.5312657139
 20
93.12509655
 10
-48.307673076
 20
93.1164033889
 10
-48.080566458
 20
93.0965680863
 10
-47.8499586466
 20
93.0656311862
 10
-47.6166908135
 20
93.0237055349
 10
-47.3807532441
 20
92.9707510007
 10
-47.1421556531
 20
92.9068077153
 10
-46.9017683559
 20
92.8321089201
 10
-46.6595848165
 20
92.7466153352
 10
-46.415611571
 20
92.6503662405
 10
-46.1707385433
 20
92.543712717
 10
-45.9252623748
 20
92.4267717917
 10
-45.6788864241
 20
92.2994264376
 10
-45.4316106912
 20
92.1616766547
  0
LWPOLYLINE
  5
21D
100
AcDbEntity
  8
RACCORDO
100
AcDbPolyline
 62
7
  6
CONTINUOUS
 90
24
 70
0
 10
45.4316106912
 20
-92.1616766547
 10
45.6788864241
 20
-92.2994264376
 10
45.9252623748
 20
-92.4267717917
 10
46.1707385433
 20
-92.543712717
 10
46.415611571
 20
-92.6503662405
 10
46.6595848165
 20
-92.7466153352
 10
46.9017683559
 20
-92.8321089201
 10
47.1421556531
 20
-92.9068077153
 10
47.3807532441
 20
-92.9707510007
 10
47.6166908135
 20
-93.0237055349
 10
47.8499586466
 20
-93.0656311862
 10
48.080566458
 20
-93.0965680863
 10
48.307673076
 20
-93.1164033889
 10
48.5312657139
 20
-93.12509655
 10
48.7513571583
 20
-93.1226881137
 10
48.9671445972
 20
-93.1091868648
 10
49.1786123121
 20
-93.0845522918
 10
49.3857760215
 20
-93.0488249062
 10
49.587880069
 20
-93.0021350285
 10
49.7849059764
 20
-92.9444426228
 10
49.9768722219
 20
-92.8757877248
 10
50.1630785838
 20
-92.7964207623
 10
50.3435040266
 20
-92.7063026139
 10
50.4318382121
 20
-92.6570640449
  0
LINE
  5
21E
100
AcDbEntity
  8
RACCORDO
100
AcDbLine
 62
7
  6
CONTINUOUS
 10
-46.492270863
 20
-39.0859795221
 11
45.4316106912
 21
-92.1616766547
  0
LWPOLYLINE
  5
21F
100
AcDbEntity
  8
RACCORDO
100
AcDbPolyline
 62
7
  6
CONTINUOUS
 90
46
 70
0
 10
-53.5633386749
 20
-26.8385308209
 10
-53.5589875138
 20
-27.12656335
 10
-53.5460754974
 20
-27.4184998643
 10
-53.5246026255
 20
-27.7143403637
 10
-53.494521915
 20
-28.0144544967
 10
-53.455880349
 20
-28.3184726148
 10
-53.4088188778
 20
-28.6252857727
 10
-53.3533067512
 20
-28.9349041779
 10
-53.2893747194
 20
-29.247317623
 10
-53.2172559827
 20
-29.5613865393
 10
-53.1369206426
 20
-29.8771169728
 10
-53.0483985976
 20
-30.1945028777
 10
-52.9520127432
 20
-30.5123865477
 10
-52.8477343604
 20
-30.8307698008
 10
-52.7355921683
 20
-31.149650819
 10
-52.61599522
 20
-31.4678664427
 10
-52.4889162902
 20
-31.7854142418
 10
-52.3543826043
 20
-32.1022966464
 10
-52.2128848912
 20
-32.4173577868
 10
-52.0643977178
 20
-32.7305910117
 10
-51.9089465173
 20
-33.0420029726
 10
-51.747098318
 20
-33.350457754
 10
-51.5788297576
 20
-33.655944556
 10
-51.4041641984
 20
-33.9584741786
 10
-51.2237387556
 20
-34.2569431058
 10
-51.0375323937
 20
-34.5513365076
 10
-50.8455661482
 20
-34.8416692141
 10
-50.6485402408
 20
-35.126882199
 10
-50.4464361933
 20
-35.4069567649
 10
-50.2392724838
 20
-35.6819116093
 10
-50.0278047689
 20
-35.9507437989
 10
-49.81201733
 20
-36.2134309733
 10
-49.5919258856
 20
-36.4699954929
 10
-49.3683332478
 20
-36.7195015054
 10
-49.1412266298
 20
-36.9619232327
 10
-48.9106188184
 20
-37.1972864528
 10
-48.6773509853
 20
-37.4247326481
 10
-48.4414134159
 20
-37.6442329051
 10
-48.2028158248
 20
-37.8558161372
 10
-47.9624285277
 20
-38.0587105672
 10
-47.7202449883
 20
-38.252884463
 10
-47.4762717427
 20
-38.4383695569
 10
-47.2313987151
 20
-38.6144892678
 10
-46.9859225465
 20
-38.7810180688
 10
-46.7395465959
 20
-38.9381814869
 10
-46.492270863
 20
-39.0859795221
  0
LINE
  5
220
100
AcDbEntity
  8
RACCORDO
100
AcDbLine
 62
7
  6
CONTINUOUS
 10
-53.5633386749
 20
87.4673079301
 11
-53.5633386749
 21
-26.8385308209
  0
LWPOLYLINE
  5
221
100
AcDbEntity
  8
0
100
AcDbPolyline
 62
7
  6
CONTINUOUS
 90
55
 70
0
 10
-38.2771240529
 20
45.5385240575
 10
-38.2953658678
 20
45.4896122246
 10
-38.3237511537
 20
45.4268745996
 10
-38.3555839053
 20
45.3681557469
 10
-38.3908924187
 20
45.3134886515
 10
-38.4296483978
 20
45.2628403285
 10
-38.4715346103
 20
45.2166253534
 10
-38.5165767485
 20
45.1748801142
 10
-38.5647491201
 20
45.137568223
 10
-38.615657416
 20
45.1049950917
 10
-38.669324092
 20
45.0771996149
 10
-38.7257266924
 20
45.0541428981
 10
-38.7844035404
 20
45.0360136691
 10
-38.8453733027
 20
45.0228523717
 10
-38.9086173126
 20
45.0146185621
 10
-38.9736178941
 20
45.0113796373
 10
-39.0403894646
 20
45.013176594
 10
-39.1089176067
 20
45.0199684355
 10
-39.1786413915
 20
45.0316995678
 10
-39.2495706327
 20
45.0484105317
 10
-39.3216955166
 20
45.0700607864
 10
-39.3944256739
 20
45.0964731166
 10
-39.4677660724
 20
45.1276866082
 10
-39.5417117442
 20
45.1636621751
 10
-39.615657416
 20
45.2041053439
 10
-39.6896030878
 20
45.2490527834
 10
-39.7635487596
 20
45.2984678247
 10
-39.8368891581
 20
45.351945987
 10
-39.9096193153
 20
45.4095206194
 10
-39.9817441992
 20
45.4711583727
 10
-40.0526734404
 20
45.5363547187
 10
-40.1223972253
 20
45.6051388654
 10
-40.1909253674
 20
45.6774816047
 10
-40.2576969379
 20
45.7527907839
 10
-40.3226975194
 20
45.8310907509
 10
-40.3859415293
 20
45.9123571579
 10
-40.4469112915
 20
45.9959248085
 10
-40.5055881396
 20
46.0818125908
 10
-40.5619907399
 20
46.1700016168
 10
-40.615657416
 20
46.2597700258
 10
-40.6665657119
 20
46.3511307811
 10
-40.7147380834
 20
46.4440709196
 10
-40.7597802216
 20
46.5378296909
 10
-40.8016664341
 20
46.6324138143
 10
-40.8404224133
 20
46.7278165706
 10
-40.8757309266
 20
46.8232570521
 10
-40.9075636783
 20
46.9187355685
 10
-40.9359489641
 20
47.0142518101
 10
-40.9606544399
 20
47.1090239404
 10
-40.9816499026
 20
47.2030458519
 10
-40.9989655552
 20
47.296323652
 10
-41.0124596626
 20
47.3880938267
 10
-41.0220849798
 20
47.4781018713
 10
-41.0278887517
 20
47.5666022904
 10
-41.0298709783
 20
47.6535950841
  0
LWPOLYLINE
  5
222
100
AcDbEntity
  8
0
100
AcDbPolyline
 62
7
  6
CONTINUOUS
 90
34
 70
0
 10
-43.1511913219
 20
47.6535950841
 10
-43.1483353825
 20
47.7884277909
 10
-43.1399385004
 20
47.9191413444
 10
-43.1260006758
 20
48.0457357446
 10
-43.1064653164
 20
48.1684787014
 10
-43.0813890144
 20
48.2871025048
 10
-43.0509415463
 20
48.4008040254
 10
-43.0150864647
 20
48.5095498619
 10
-42.9738602169
 20
48.6133734155
 10
-42.9275419208
 20
48.7115717602
 10
-42.8760970231
 20
48.8041067248
 10
-42.8195600771
 20
48.8910164804
 10
-42.7583138599
 20
48.971712614
 10
-42.6923264159
 20
49.0461529617
 10
-42.6216297008
 20
49.1143796874
 10
-42.5467023589
 20
49.1759308694
 10
-42.4675156826
 20
49.2307612094
 10
-42.3840983796
 20
49.2789160057
 10
-42.2970152177
 20
49.3200692315
 10
-42.2062413215
 20
49.3541733761
 10
-42.1118015664
 20
49.3812759503
 10
-42.0143353465
 20
49.4011934589
 10
-41.9138221251
 20
49.4138771462
 10
-41.8102824389
 20
49.4193757679
 10
-41.7044172922
 20
49.4176520963
 10
-41.596210905
 20
49.4086571229
 10
-41.4856790572
 20
49.3924398562
 10
-41.3735700927
 20
49.3691100933
 10
-41.2598733097
 20
49.338619571
 10
-41.14459941
 20
49.3010165526
 10
-41.028528843
 20
49.2565556252
 10
-40.9116562028
 20
49.205190253
 10
-40.7939868953
 20
49.1469669719
 10
-40.6765567667
 20
49.0824180616
  0
LWPOLYLINE
  5
223
100
AcDbEntity
  8
0
100
AcDbPolyline
 62
7
  6
CONTINUOUS
 90
34
 70
0
 10
-43.1511913219
 20
0.8698482239
 10
-43.1483353825
 20
1.0046809307
 10
-43.1399385004
 20
1.1353944842
 10
-43.1260006758
 20
1.2619888844
 10
-43.1064653164
 20
1.3847318412
 10
-43.0813890144
 20
1.5033556446
 10
-43.0509415463
 20
1.6170571652
 10
-43.0150864647
 20
1.7258030017
 10
-42.9738602169
 20
1.8296265553
 10
-42.9275419208
 20
1.9278248999
 10
-42.8760970231
 20
2.0203598646
 10
-42.8195600771
 20
2.1072696202
 10
-42.7583138599
 20
2.1879657538
 10
-42.6923264159
 20
2.2624061015
 10
-42.6216297008
 20
2.3306328272
 10
-42.5467023589
 20
2.3921840091
 10
-42.4675156826
 20
2.4470143491
 10
-42.3840983796
 20
2.4951691454
 10
-42.2970152177
 20
2.5363223712
 10
-42.2062413215
 20
2.5704265159
 10
-42.1118015664
 20
2.59752909
 10
-42.0143353465
 20
2.6174465986
 10
-41.9138221251
 20
2.6301302859
 10
-41.8102824389
 20
2.6356289077
 10
-41.7044172922
 20
2.6339052361
 10
-41.596210905
 20
2.6249102627
 10
-41.4856790572
 20
2.608692996
 10
-41.3735700927
 20
2.5853632331
 10
-41.2598733097
 20
2.5548727108
 10
-41.14459941
 20
2.5172696924
 10
-41.028528843
 20
2.472808765
 10
-40.9116562028
 20
2.4214433928
 10
-40.7939868953
 20
2.3632201117
 10
-40.6765567667
 20
2.2986712014
  0
LWPOLYLINE
  5
224
100
AcDbEntity
  8
0
100
AcDbPolyline
 62
7
  6
CONTINUOUS
 90
25
 70
0
 10
-41.0298709783
 20
47.6535950841
 10
-41.0278887517
 20
47.7382988521
 10
-41.0220849798
 20
47.820097221
 10
-41.0124596626
 20
47.8989901906
 10
-40.9989655552
 20
47.9751777083
 10
-40.9816499026
 20
48.0484598268
 10
-40.9606544399
 20
48.1182367042
 10
-40.9359489641
 20
48.1844795703
 10
-40.9075636783
 20
48.2472171953
 10
-40.8757309266
 20
48.3059360481
 10
-40.8404224133
 20
48.3606031434
 10
-40.8016664341
 20
48.4112514664
 10
-40.7597802216
 20
48.4574664415
 10
-40.7147380834
 20
48.4992116807
 10
-40.6665657119
 20
48.5365235719
 10
-40.615657416
 20
48.5690967032
 10
-40.5619907399
 20
48.59689218
 10
-40.5055881396
 20
48.6199488968
 10
-40.4469112915
 20
48.6380781258
 10
-40.3859415293
 20
48.6512394232
 10
-40.3226975194
 20
48.6594732328
 10
-40.2576969379
 20
48.6627121576
 10
-40.1909253674
 20
48.6609152009
 10
-40.1223972253
 20
48.6541233594
 10
-40.0710358296
 20
48.6454817269
  0
LWPOLYLINE
  5
225
100
AcDbEntity
  8
0
100
AcDbPolyline
 62
7
  6
CONTINUOUS
 90
67
 70
0
 10
-38.2014438536
 20
44.7956729308
 10
-38.2042997931
 20
44.660840224
 10
-38.2126966751
 20
44.5301266705
 10
-38.2266344997
 20
44.4035322703
 10
-38.2461698591
 20
44.2807893135
 10
-38.2712461611
 20
44.1621655101
 10
-38.3016936293
 20
44.0484639895
 10
-38.3375487108
 20
43.939718153
 10
-38.3787749586
 20
43.8358945994
 10
-38.4250932547
 20
43.7376962548
 10
-38.4765381524
 20
43.6451612901
 10
-38.5330750984
 20
43.5582515345
 10
-38.5943213156
 20
43.4775554009
 10
-38.6603087596
 20
43.4031150532
 10
-38.7310054748
 20
43.3348883275
 10
-38.8059328166
 20
43.2733371455
 10
-38.8851194929
 20
43.2185068056
 10
-38.9685367959
 20
43.1703520093
 10
-39.0556199578
 20
43.1291987835
 10
-39.146393854
 20
43.0950946388
 10
-39.2408336091
 20
43.0679920647
 10
-39.338299829
 20
43.0480745561
 10
-39.4388130504
 20
43.0353908688
 10
-39.5423527366
 20
43.029892247
 10
-39.6482178833
 20
43.0316159186
 10
-39.7564242705
 20
43.040610892
 10
-39.8669561183
 20
43.0568281587
 10
-39.9790650828
 20
43.0801579216
 10
-40.0927618658
 20
43.1106484439
 10
-40.2080357655
 20
43.1482514623
 10
-40.3241063325
 20
43.1927123897
 10
-40.4409789728
 20
43.2440777619
 10
-40.5586482803
 20
43.302301043
 10
-40.6763175878
 20
43.3669880387
 10
-40.7939868953
 20
43.4381826098
 10
-40.9116562028
 20
43.5158408955
 10
-41.028528843
 20
43.5994371188
 10
-41.14459941
 20
43.6890115727
 10
-41.2598733097
 20
43.7845239643
 10
-41.3735700927
 20
43.8853276371
 10
-41.4856790572
 20
43.9914584963
 10
-41.596210905
 20
44.1028806368
 10
-41.7044172922
 20
44.2188396871
 10
-41.8102824389
 20
44.3393664333
 10
-41.9138221251
 20
44.4644300893
 10
-42.0143353465
 20
44.5931839252
 10
-42.1118015664
 20
44.7256529815
 10
-42.2062413215
 20
44.8618122176
 10
-42.2970152177
 20
45.0007397823
 10
-42.3840983796
 20
45.1424544607
 10
-42.4675156826
 20
45.2869374675
 10
-42.5467023589
 20
45.4332105964
 10
-42.6216297008
 20
45.5812859946
 10
-42.6923264159
 20
45.7311515149
 10
-42.7583138599
 20
45.8817925089
 10
-42.8195600771
 20
46.0332142389
 10
-42.8760970231
 20
46.1854114427
 10
-42.9275419208
 20
46.3373536856
 10
-42.9738602169
 20
46.4890392376
 10
-43.0150864647
 20
46.6404698288
 10
-43.0509415463
 20
46.7906202147
 10
-43.0813890144
 20
46.9394817084
 10
-43.1064653164
 20
47.0870629968
 10
-43.1260006758
 20
47.2323648969
 10
-43.1399385004
 20
47.3750543476
 10
-43.1483353825
 20
47.51546441
 10
-43.1511913219
 20
47.6535950841
  0
LWPOLYLINE
  5
226
100
AcDbEntity
  8
0
100
AcDbPolyline
 62
7
  6
CONTINUOUS
 90
67
 70
0
 10
-38.2014438536
 20
-1.9880739294
 10
-38.2042997931
 20
-2.1229066362
 10
-38.2126966751
 20
-2.2536201897
 10
-38.2266344997
 20
-2.3802145899
 10
-38.2461698591
 20
-2.5029575467
 10
-38.2712461611
 20
-2.6215813501
 10
-38.3016936293
 20
-2.7352828707
 10
-38.3375487108
 20
-2.8440287072
 10
-38.3787749586
 20
-2.9478522608
 10
-38.4250932547
 20
-3.0460506055
 10
-38.4765381524
 20
-3.1385855701
 10
-38.5330750984
 20
-3.2254953257
 10
-38.5943213156
 20
-3.3061914593
 10
-38.6603087596
 20
-3.3806318071
 10
-38.7310054748
 20
-3.4488585327
 10
-38.8059328166
 20
-3.5104097147
 10
-38.8851194929
 20
-3.5652400547
 10
-38.9685367959
 20
-3.613394851
 10
-39.0556199578
 20
-3.6545480768
 10
-39.146393854
 20
-3.6886522214
 10
-39.2408336091
 20
-3.7157547956
 10
-39.338299829
 20
-3.7356723042
 10
-39.4388130504
 20
-3.7483559915
 10
-39.5423527366
 20
-3.7538546132
 10
-39.6482178833
 20
-3.7521309416
 10
-39.7564242705
 20
-3.7431359682
 10
-39.8669561183
 20
-3.7269187015
 10
-39.9790650828
 20
-3.7035889386
 10
-40.0927618658
 20
-3.6730984163
 10
-40.2080357655
 20
-3.6354953979
 10
-40.3241063325
 20
-3.5910344705
 10
-40.4409789728
 20
-3.5396690983
 10
-40.5586482803
 20
-3.4814458172
 10
-40.6763175878
 20
-3.4167588215
 10
-40.7939868953
 20
-3.3455642504
 10
-40.9116562028
 20
-3.2679059647
 10
-41.028528843
 20
-3.1843097414
 10
-41.14459941
 20
-3.0947352875
 10
-41.2598733097
 20
-2.999222896
 10
-41.3735700927
 20
-2.8984192231
 10
-41.4856790572
 20
-2.7922883639
 10
-41.596210905
 20
-2.6808662234
 10
-41.7044172922
 20
-2.5649071731
 10
-41.8102824389
 20
-2.4443804269
 10
-41.9138221251
 20
-2.3193167709
 10
-42.0143353465
 20
-2.190562935
 10
-42.1118015664
 20
-2.0580938787
 10
-42.2062413215
 20
-1.9219346426
 10
-42.2970152177
 20
-1.7830070779
 10
-42.3840983796
 20
-1.6412923996
 10
-42.4675156826
 20
-1.4968093927
 10
-42.5467023589
 20
-1.3505362638
 10
-42.6216297008
 20
-1.2024608656
 10
-42.6923264159
 20
-1.0525953454
 10
-42.7583138599
 20
-0.9019543513
 10
-42.8195600771
 20
-0.7505326213
 10
-42.8760970231
 20
-0.5983354175
 10
-42.9275419208
 20
-0.4463931746
 10
-42.9738602169
 20
-0.2947076226
 10
-43.0150864647
 20
-0.1432770314
 10
-43.0509415463
 20
0.0068733545
 10
-43.0813890144
 20
0.1557348481
 10
-43.1064653164
 20
0.3033161365
 10
-43.1260006758
 20
0.4486180366
 10
-43.1399385004
 20
0.5913074874
 10
-43.1483353825
 20
0.7317175498
 10
-43.1511913219
 20
0.8698482239
  0
LWPOLYLINE
  5
227
100
AcDbEntity
  8
0
100
AcDbPolyline
 62
7
  6
CONTINUOUS
 90
25
 70
0
 10
-41.0298709783
 20
0.8698482239
 10
-41.0278887517
 20
0.9545519919
 10
-41.0220849798
 20
1.0363503607
 10
-41.0124596626
 20
1.1152433303
 10
-40.9989655552
 20
1.191430848
 10
-40.9816499026
 20
1.2647129665
 10
-40.9606544399
 20
1.3344898439
 10
-40.9359489641
 20
1.40073271
 10
-40.9075636783
 20
1.4634703351
 10
-40.8757309266
 20
1.5221891878
 10
-40.8404224133
 20
1.5768562831
 10
-40.8016664341
 20
1.6275046062
 10
-40.7597802216
 20
1.6737195812
 10
-40.7147380834
 20
1.7154648204
 10
-40.6665657119
 20
1.7527767117
 10
-40.615657416
 20
1.785349843
 10
-40.5619907399
 20
1.8131453197
 10
-40.5055881396
 20
1.8362020366
 10
-40.4469112915
 20
1.8543312656
 10
-40.3859415293
 20
1.867492563
 10
-40.3226975194
 20
1.8757263725
 10
-40.2576969379
 20
1.8789652974
 10
-40.1909253674
 20
1.8771683407
 10
-40.1223972253
 20
1.8703764992
 10
-40.0710358296
 20
1.8617348666
  0
LWPOLYLINE
  5
228
100
AcDbEntity
  8
0
100
AcDbPolyline
 62
7
  6
CONTINUOUS
 90
55
 70
0
 10
-38.2771240529
 20
-1.2452228027
 10
-38.2953658678
 20
-1.2941346356
 10
-38.3237511537
 20
-1.3568722606
 10
-38.3555839053
 20
-1.4155911134
 10
-38.3908924187
 20
-1.4702582087
 10
-38.4296483978
 20
-1.5209065317
 10
-38.4715346103
 20
-1.5671215068
 10
-38.5165767485
 20
-1.608866746
 10
-38.5647491201
 20
-1.6461786372
 10
-38.615657416
 20
-1.6787517685
 10
-38.669324092
 20
-1.7065472453
 10
-38.7257266924
 20
-1.7296039621
 10
-38.7844035404
 20
-1.7477331911
 10
-38.8453733027
 20
-1.7608944885
 10
-38.9086173126
 20
-1.7691282981
 10
-38.9736178941
 20
-1.7723672229
 10
-39.0403894646
 20
-1.7705702662
 10
-39.1089176067
 20
-1.7637784248
 10
-39.1786413915
 20
-1.7520472924
 10
-39.2495706327
 20
-1.7353363286
 10
-39.3216955166
 20
-1.7136860738
 10
-39.3944256739
 20
-1.6872737436
 10
-39.4677660724
 20
-1.6560602521
 10
-39.5417117442
 20
-1.6200846851
 10
-39.615657416
 20
-1.5796415164
 10
-39.6896030878
 20
-1.5346940768
 10
-39.7635487596
 20
-1.4852790355
 10
-39.8368891581
 20
-1.4318008732
 10
-39.9096193153
 20
-1.3742262409
 10
-39.9817441992
 20
-1.3125884875
 10
-40.0526734404
 20
-1.2473921416
 10
-40.1223972253
 20
-1.1786079949
 10
-40.1909253674
 20
-1.1062652556
 10
-40.2576969379
 20
-1.0309560763
 10
-40.3226975194
 20
-0.9526561093
 10
-40.3859415293
 20
-0.8713897023
 10
-40.4469112915
 20
-0.7878220517
 10
-40.5055881396
 20
-0.7019342694
 10
-40.5619907399
 20
-0.6137452435
 10
-40.615657416
 20
-0.5239768344
 10
-40.6665657119
 20
-0.4326160791
 10
-40.7147380834
 20
-0.3396759406
 10
-40.7597802216
 20
-0.2459171693
 10
-40.8016664341
 20
-0.1513330459
 10
-40.8404224133
 20
-0.0559302896
 10
-40.8757309266
 20
0.0395101919
 10
-40.9075636783
 20
0.1349887083
 10
-40.9359489641
 20
0.2305049499
 10
-40.9606544399
 20
0.3252770802
 10
-40.9816499026
 20
0.4192989917
 10
-40.9989655552
 20
0.5125767918
 10
-41.0124596626
 20
0.6043469665
 10
-41.0220849798
 20
0.694355011
 10
-41.0278887517
 20
0.7828554302
 10
-41.0298709783
 20
0.8698482239
  0
LWPOLYLINE
  5
229
100
AcDbEntity
  8
0
100
AcDbPolyline
 62
7
  6
CONTINUOUS
 90
17
 70
0
 10
-31.1480537113
 20
15.7391433925
 10
-31.1278536031
 20
15.4896002414
 10
-31.0680226943
 20
15.2262355329
 10
-30.9708399257
 20
14.9590807467
 10
-30.8373935395
 20
14.6937745988
 10
-30.6774341426
 20
14.4497023723
 10
-30.4950002824
 20
14.2314179751
 10
-30.2970408081
 20
14.047235792
 10
-30.0873935395
 20
13.9020260873
 10
-29.8813768992
 20
13.8063989856
 10
-29.6832073686
 20
13.7610629392
 10
-29.5004331638
 20
13.767744784
 10
-29.3373935395
 20
13.8276933982
 10
-29.2060014096
 20
13.9365284804
 10
-29.108181232
 20
14.0906980259
 10
-29.047658947
 20
14.2843297646
 10
-29.0267333677
 20
14.5143197196
  0
LWPOLYLINE
  5
22A
100
AcDbEntity
  8
0
100
AcDbPolyline
 62
7
  6
CONTINUOUS
 90
17
 70
0
 10
-29.0267333677
 20
14.5143196125
 10
-29.0469334759
 20
14.7638627636
 10
-29.1067643847
 20
15.0272274722
 10
-29.2039471532
 20
15.2943822584
 10
-29.3373935395
 20
15.5596884063
 10
-29.4973529364
 20
15.8037606327
 10
-29.6797867965
 20
16.0220450299
 10
-29.8777462709
 20
16.206227213
 10
-30.0873935395
 20
16.3514369177
 10
-30.2934101798
 20
16.4470640195
 10
-30.4915797103
 20
16.4924000659
 10
-30.6743539152
 20
16.485718221
 10
-30.8373935395
 20
16.4257696068
 10
-30.9687856694
 20
16.3169345246
 10
-31.066605847
 20
16.1627649791
 10
-31.127128132
 20
15.9691332404
 10
-31.1480537113
 20
15.7391432854
  0
LWPOLYLINE
  5
22B
100
AcDbEntity
  8
ASSI
100
AcDbPolyline
 62
7
  6
CONTINUOUS
 90
40
 70
0
 10
-30.971277016
 20
15.6370747442
 10
-30.9695478717
 20
15.5728559392
 10
-30.9645312731
 20
15.5074485765
 10
-30.9562272201
 20
15.4408526561
 10
-30.9445794145
 20
15.3728072009
 10
-30.9296441546
 20
15.3035731881
 10
-30.9115903353
 20
15.2339335489
 10
-30.8903825573
 20
15.1638836789
 10
-30.8660562199
 20
15.0934281827
 10
-30.8388864172
 20
15.0233638045
 10
-30.8088408721
 20
14.9536949841
 10
-30.7759518616
 20
14.8844172819
 10
-30.7405913104
 20
14.8163141231
 10
-30.7027311633
 20
14.7493988405
 10
-30.6623994755
 20
14.6836581013
 10
-30.6200523369
 20
14.6198353333
 10
-30.5756668698
 20
14.557952308
 10
-30.5292659518
 20
14.4979872539
 10
-30.481374307
 20
14.4406182846
 10
-30.4319750136
 20
14.3858748689
 10
-30.3810849932
 20
14.3337275379
 10
-30.3292797345
 20
14.2847659986
 10
-30.2765488485
 20
14.2390264138
 10
-30.2229027243
 20
14.1964726207
 10
-30.1689480178
 20
14.157585838
 10
-30.1146812263
 20
14.1224076909
 10
-30.0601058526
 20
14.0908965541
 10
-30.0058390612
 20
14.0634087707
 10
-29.9518843547
 20
14.0399900108
 10
-29.8982382304
 20
14.0205946043
 10
-29.8455073444
 20
14.0054418837
 10
-29.7937020858
 20
13.9945800088
 10
-29.7428120654
 20
13.9879608199
 10
-29.693412772
 20
13.9856591698
 10
-29.6455211271
 20
13.9877240681
 10
-29.5991202092
 20
13.9941065052
 10
-29.554734742
 20
14.0047343056
 10
-29.5123876035
 20
14.0196556594
 10
-29.4720559157
 20
14.0388223765
 10
-29.4623729252
 20
14.0442337964
  0
LWPOLYLINE
  5
22C
100
AcDbEntity
  8
ASSI
100
AcDbPolyline
 62
7
  6
CONTINUOUS
 90
40
 70
0
 10
-29.203510063
 20
14.6163882609
 10
-29.2052392073
 20
14.6806070659
 10
-29.2102558059
 20
14.7460144286
 10
-29.2185598588
 20
14.812610349
 10
-29.2302076645
 20
14.8806558041
 10
-29.2451429244
 20
14.949889817
 10
-29.2631967436
 20
15.0195294562
 10
-29.2844045217
 20
15.0895793261
 10
-29.3087308591
 20
15.1600348224
 10
-29.3359006618
 20
15.2300992005
 10
-29.3659462069
 20
15.2997680209
 10
-29.3988352174
 20
15.3690457231
 10
-29.4341957686
 20
15.4371488819
 10
-29.4720559157
 20
15.5040641646
 10
-29.5123876035
 20
15.5698049038
 10
-29.554734742
 20
15.6336276717
 10
-29.5991202092
 20
15.695510697
 10
-29.6455211271
 20
15.7554757511
 10
-29.693412772
 20
15.8128447204
 10
-29.7428120654
 20
15.8675881362
 10
-29.7937020858
 20
15.9197354672
 10
-29.8455073444
 20
15.9686970064
 10
-29.8982382304
 20
16.0144365912
 10
-29.9518843547
 20
16.0569903843
 10
-30.0058390612
 20
16.095877167
 10
-30.0601058526
 20
16.1310553142
 10
-30.1146812263
 20
16.1625664509
 10
-30.1689480178
 20
16.1900542344
 10
-30.2229027243
 20
16.2134729942
 10
-30.2765488485
 20
16.2328684008
 10
-30.3292797345
 20
16.2480211214
 10
-30.3810849932
 20
16.2588829962
 10
-30.4319750136
 20
16.2655021852
 10
-30.481374307
 20
16.2678038353
 10
-30.5292659518
 20
16.265738937
 10
-30.5756668698
 20
16.2593564998
 10
-30.6200523369
 20
16.2487286994
 10
-30.6623994755
 20
16.2338073456
 10
-30.7027311633
 20
16.2146406286
 10
-30.7124141538
 20
16.2092292086
  0
LWPOLYLINE
  5
22D
100
AcDbEntity
  8
ASSI
100
AcDbPolyline
 62
7
  6
CONTINUOUS
 90
14
 70
0
 10
-30.7124141538
 20
16.2092292086
 10
-30.7405913104
 20
16.1914452948
 10
-30.7759518616
 20
16.1641756142
 10
-30.8088408721
 20
16.1328773169
 10
-30.8388864172
 20
16.0979043389
 10
-30.8660562199
 20
16.0592149679
 10
-30.8903825573
 20
16.0168509162
 10
-30.9115903353
 20
15.9712912568
 10
-30.9296441546
 20
15.9224997155
 10
-30.9445794145
 20
15.8705125665
 10
-30.9562272201
 20
15.8159177053
 10
-30.9645312731
 20
15.7589110971
 10
-30.9695478717
 20
15.6992967767
 10
-30.971277016
 20
15.6370747442
  0
LWPOLYLINE
  5
22E
100
AcDbEntity
  8
0
100
AcDbPolyline
 62
7
  6
CONTINUOUS
 90
13
 70
0
 10
-22.3092189464
 20
9.2068879915
 10
-22.3294190546
 20
9.4564311426
 10
-22.3892499634
 20
9.7197958512
 10
-22.486432732
 20
9.9869506374
 10
-22.6198791182
 20
10.2522567853
 10
-22.7798385151
 20
10.4963290117
 10
-22.9622723753
 20
10.7146134089
 10
-23.1602318496
 20
10.898795592
 10
-23.3698791182
 20
11.0440052967
 10
-23.5758957585
 20
11.1396323985
 10
-23.7740652891
 20
11.1849684449
 10
-23.9568394939
 20
11.1782866
 10
-24.119915421
 20
11.1183170271
  0
LWPOLYLINE
  5
22F
100
AcDbEntity
  8
0
100
AcDbPolyline
 62
7
  6
CONTINUOUS
 90
15
 70
0
 10
-25.4911994618
 20
6.3532302829
 10
-25.4908894996
 20
6.3424464005
 10
-25.4899921706
 20
6.3321401951
 10
-25.4885074747
 20
6.3223116664
 10
-25.4864241825
 20
6.3129229212
 10
-25.4837535235
 20
6.3040118527
 10
-25.4805291858
 20
6.2956921417
 10
-25.4767455067
 20
6.2879726712
 10
-25.4724081489
 20
6.2808445582
 10
-25.4675677894
 20
6.274394834
 10
-25.4622183009
 20
6.2686300445
 10
-25.4563658106
 20
6.2635436439
 10
-25.4500793769
 20
6.2592030259
 10
-25.4433527745
 20
6.2556165469
 10
-25.4364626126
 20
6.2528667486
  0
LWPOLYLINE
  5
230
100
AcDbEntity
  8
0
100
AcDbPolyline
 62
250
  6
CONTINUOUS
 90
34
 70
0
 10
-23.9355645432
 20
7.4513072402
 10
-23.9370441475
 20
7.5356573759
 10
-23.9414940852
 20
7.6217741477
 10
-23.9489272814
 20
7.7095230676
 10
-23.9593540523
 20
7.7987840075
 10
-23.9727757832
 20
7.8893955314
 10
-23.9891786665
 20
7.9811528616
 10
-24.0085506455
 20
8.0739099102
 10
-24.0308718868
 20
8.1675048958
 10
-24.0560962011
 20
8.2617015027
 10
-24.0841864562
 20
8.3563362938
 10
-24.1151015022
 20
8.4512483557
 10
-24.1487678845
 20
8.546201255
 10
-24.1851213144
 20
8.6410144435
 10
-24.2241047854
 20
8.7355399578
 10
-24.2656404486
 20
8.8295905107
 10
-24.3096493748
 20
8.9229922733
 10
-24.3560589242
 20
9.0155956955
 10
-24.4047932361
 20
9.1072517849
 10
-24.4557672982
 20
9.197802026
 10
-24.5088926612
 20
9.2870906069
 10
-24.5640841964
 20
9.3749747413
 10
-24.6212493092
 20
9.4613060624
 10
-24.680287125
 20
9.5459313364
 10
-24.7410957619
 20
9.6287039535
 10
-24.8035715493
 20
9.7094821283
 10
-24.8676055364
 20
9.7881243415
 10
-24.9330832988
 20
9.864489905
 10
-24.9998899128
 20
9.938445126
 10
-25.0679114204
 20
10.0098641865
 10
-25.1370311994
 20
10.0786247428
 10
-25.2071301065
 20
10.144608264
 10
-25.2780866288
 20
10.2077003634
 10
-25.3497781055
 20
10.2677919952
  0
LWPOLYLINE
  5
231
100
AcDbEntity
  8
0
100
AcDbPolyline
 62
7
  6
CONTINUOUS
 90
39
 70
0
 10
-22.662772337
 20
8.1862015082
 10
-22.6637904381
 20
8.2558588972
 10
-22.6668137183
 20
8.3264386079
 10
-22.6718421776
 20
8.3979406401
 10
-22.6788861217
 20
8.4704486202
 10
-22.6879352449
 20
8.5438789219
 10
-22.6989586304
 20
8.6179806665
 10
-22.7119630311
 20
8.6927561507
 10
-22.7269416941
 20
8.7682030777
 10
-22.743843444
 20
8.844063679
 10
-22.7626748586
 20
8.9203393695
 10
-22.78342936
 20
8.9970287343
 10
-22.8060360394
 20
9.0738697599
 10
-22.8305012321
 20
9.150862965
 10
-22.8568186027
 20
9.2280078309
 10
-22.8848982365
 20
9.3050407879
 10
-22.9147461613
 20
9.3819614531
 10
-22.9463563492
 20
9.4587702094
 10
-22.9796208024
 20
9.5352046353
 10
-23.0145451792
 20
9.6112634506
 10
-23.0511238212
 20
9.6869479355
 10
-23.0892317554
 20
9.7619995097
 10
-23.1288742128
 20
9.8364160086
 10
-23.1700459624
 20
9.9101995969
 10
-23.2126063388
 20
9.9830981888
 10
-23.2565600915
 20
10.0551087573
 10
-23.301902471
 20
10.1262343295
 10
-23.3484785623
 20
10.1962319008
 10
-23.3962925855
 20
10.2650976131
 10
-23.4453403206
 20
10.3328353246
 10
-23.4954541932
 20
10.3992136056
 10
-23.5466378502
 20
10.4642278062
 10
-23.5988876448
 20
10.5278825764
 10
-23.6520250626
 20
10.589960436
 10
-23.7060531398
 20
10.6504559914
 10
-23.7609688402
 20
10.7093746362
 10
-23.8165845414
 20
10.7665150716
 10
-23.8729026377
 20
10.8218712154
 10
-23.9299207346
 20
10.8754491498
  0
LINE
  5
232
100
AcDbEntity
  8
0
100
AcDbLine
 62
7
  6
CONTINUOUS
 10
-26.198306243
 20
6.7615048762
 11
-26.198306243
 21
10.4274473269
  0
LINE
  5
233
100
AcDbEntity
  8
0
100
AcDbLine
 62
7
  6
CONTINUOUS
 10
-25.4911994618
 20
6.3532302829
 11
-25.4911994618
 21
10.0191727336
  0
LINE
  5
234
100
AcDbEntity
  8
0
100
AcDbLine
 62
7
  6
CONTINUOUS
 10
-25.3497781055
 20
11.0843411818
 11
-25.3497781055
 21
10.2677919952
  0
LWPOLYLINE
  5
235
100
AcDbEntity
  8
0
100
AcDbPolyline
 62
7
  6
CONTINUOUS
 90
25
 70
0
 10
-22.662772337
 20
8.1862015082
 10
-22.6637904381
 20
8.1177197967
 10
-22.6668137183
 20
8.0506312943
 10
-22.6718421776
 20
7.9849360008
 10
-22.6788861217
 20
7.9205621908
 10
-22.6879352449
 20
7.8575815898
 10
-22.6989586304
 20
7.7962093744
 10
-22.7119630311
 20
7.7364510463
 10
-22.7269416941
 20
7.6783011038
 10
-22.743843444
 20
7.6219582196
 10
-22.7626748586
 20
7.5674285746
 10
-22.78342936
 20
7.5147059879
 10
-22.8060360394
 20
7.463970589
 10
-22.8305012321
 20
7.4152291751
 10
-22.8568186027
 20
7.3684749492
 10
-22.8848982365
 20
7.3238676495
 10
-22.9147461613
 20
7.2814146196
 10
-22.9463563492
 20
7.241108516
 10
-22.9796208024
 20
7.2030870468
 10
-23.0145451792
 20
7.1673580265
 10
-23.0511238212
 20
7.1339136405
 10
-23.0892317554
 20
7.1028681534
 10
-23.1288742128
 20
7.0742297707
 10
-23.1700459624
 20
7.0479902869
 10
-23.1804806321
 20
7.0418623729
  0
LWPOLYLINE
  5
236
100
AcDbEntity
  8
0
100
AcDbPolyline
 62
7
  6
CONTINUOUS
 90
25
 70
0
 10
-26.198306243
 20
10.4274473269
 10
-26.1979962808
 20
10.4385891457
 10
-26.1970989518
 20
10.4499315643
 10
-26.1956142559
 20
10.4614745825
 10
-26.1935309637
 20
10.4732690614
 10
-26.1908603047
 20
10.4852641399
 10
-26.187635967
 20
10.4973072352
 10
-26.1838522879
 20
10.5093960035
 10
-26.1795149301
 20
10.5215327886
 10
-26.1746745705
 20
10.5335720387
 10
-26.1693250821
 20
10.5455142834
 10
-26.1634725918
 20
10.5573589931
 10
-26.1571861581
 20
10.5689590271
 10
-26.1504595557
 20
10.580313218
 10
-26.1432990097
 20
10.5914227332
 10
-26.1357922548
 20
10.6021439344
 10
-26.1279338187
 20
10.6124730965
 10
-26.1197291737
 20
10.6224139447
 10
-26.1112824701
 20
10.6318340165
 10
-26.1025855521
 20
10.6407294033
 10
-26.0936465756
 20
10.6491040136
 10
-26.0845941589
 20
10.656837111
 10
-26.075471175
 20
10.6638884498
 10
-26.0662347509
 20
10.6702982756
 10
-26.0568848867
 20
10.6760665885
  0
LWPOLYLINE
  5
237
100
AcDbEntity
  8
RACCORDO
100
AcDbPolyline
 62
7
  6
CONTINUOUS
 90
19
 70
0
 10
-17.3992053474
 20
19.3176271812
 10
-17.4561191461
 20
19.2648330189
 10
-17.5786530023
 20
19.1361775898
 10
-17.6944941412
 20
18.9988021488
 10
-17.8036145078
 20
18.8526701428
 10
-17.9060421571
 20
18.697818125
 10
-18.0013483257
 20
18.5348943075
 10
-18.0895031615
 20
18.3638648545
 10
-18.1705365167
 20
18.1847636019
 10
-18.2441091847
 20
17.9983402695
 10
-18.3101898915
 20
17.8045641641
 10
-18.3688099112
 20
17.6034659789
 10
-18.4197238596
 20
17.3958875131
 10
-18.4628994342
 20
17.1818016022
 10
-18.4983689375
 20
16.9612354107
 10
-18.525983894
 20
16.7351122312
 10
-18.5456948116
 20
16.5037398277
 10
-18.5575511823
 20
16.2668104361
 10
-18.5615530061
 20
16.0243240564
  0
LWPOLYLINE
  5
238
100
AcDbEntity
  8
ASSI
100
AcDbPolyline
 62
7
  6
CONTINUOUS
 90
14
 70
0
 10
-29.4623729252
 20
14.0442337964
 10
-29.4341957686
 20
14.0620177103
 10
-29.3988352174
 20
14.0892873908
 10
-29.3659462069
 20
14.1205856882
 10
-29.3359006618
 20
14.1555586662
 10
-29.3087308591
 20
14.1942480372
 10
-29.2844045217
 20
14.2366120888
 10
-29.2631967436
 20
14.2821717482
 10
-29.2451429244
 20
14.3309632895
 10
-29.2302076645
 20
14.3829504386
 10
-29.2185598588
 20
14.4375452998
 10
-29.2102558059
 20
14.494551908
 10
-29.2052392073
 20
14.5541662283
 10
-29.203510063
 20
14.6163882609
  0
LWPOLYLINE
  5
239
100
AcDbEntity
  8
0
100
AcDbPolyline
 62
7
  6
CONTINUOUS
 90
25
 70
0
 10
-25.3497781055
 20
10.2677919952
 10
-25.3591399056
 20
10.2620169305
 10
-25.3683904091
 20
10.2555956572
 10
-25.3775296161
 20
10.2485281755
 10
-25.3866018021
 20
10.2407731797
 10
-25.3955626916
 20
10.2323719754
 10
-25.4042794579
 20
10.223448479
 10
-25.4127436193
 20
10.2139978303
 10
-25.4209636574
 20
10.2040248895
 10
-25.4288321902
 20
10.1936681543
 10
-25.4363424146
 20
10.1829247131
 10
-25.4435011337
 20
10.1717974775
 10
-25.4502213754
 20
10.1604336788
 10
-25.4564959933
 20
10.1488338459
 10
-25.4623321338
 20
10.1369974499
 10
-25.4676642643
 20
10.1250701355
 10
-25.4724863226
 20
10.113053852
 10
-25.4768043709
 20
10.10094665
 10
-25.4805710624
 20
10.0888883263
 10
-25.4837816726
 20
10.0768762832
 10
-25.486440926
 20
10.0649131184
 10
-25.488515649
 20
10.053146422
 10
-25.4899947837
 20
10.0416253908
 10
-25.490889388
 20
10.030300828
 10
-25.4911994618
 20
10.0191727336
  0
LINE
  5
23A
100
AcDbEntity
  8
RACCORDO
100
AcDbLine
 62
250
  6
CONTINUOUS
 10
-19.6222131779
 20
15.4119121664
 11
-18.5615530061
 21
16.0243240564
  0
LINE
  5
23B
100
AcDbEntity
  8
0
100
AcDbLine
 62
7
  6
CONTINUOUS
 10
-26.9533918965
 20
10.6370223597
 11
-25.6805996903
 21
11.3719166277
  0
LINE
  5
23C
100
AcDbEntity
  8
0
100
AcDbLine
 62
7
  6
CONTINUOUS
 10
-26.0568848867
 20
10.6760665885
 11
-25.3497781055
 21
11.0843411818
  0
LINE
  5
23D
100
AcDbEntity
  8
0
100
AcDbLine
 62
7
  6
CONTINUOUS
 10
-24.180813149
 20
11.0831554422
 11
-24.1199153584
 21
11.1183170632
  0
LINE
  5
23E
100
AcDbEntity
  8
0
100
AcDbLine
 62
7
  6
CONTINUOUS
 10
-24.6426713244
 20
10.6760665885
 11
-25.3497781055
 21
10.2677919952
  0
LINE
  5
23F
100
AcDbEntity
  8
0
100
AcDbLine
 62
7
  6
CONTINUOUS
 10
-23.9288633297
 20
10.874455543
 11
-23.7813683074
 21
10.9596173204
  0
LWPOLYLINE
  5
240
100
AcDbEntity
  8
RACCORDO
100
AcDbPolyline
 62
7
  6
CONTINUOUS
 90
22
 70
0
 10
-17.9655522095
 20
19.0738070555
 10
-17.8130580772
 20
19.1553576142
 10
-17.6551680791
 20
19.2271158993
 10
-17.4923498636
 20
19.2888931173
 10
-17.3245827722
 20
19.340647429
 10
-17.1518874633
 20
19.3824206735
 10
-16.9749868413
 20
19.4140379877
 10
-16.7938632783
 20
19.4354567992
 10
-16.6085344022
 20
19.4467196804
 10
-16.4197760018
 20
19.4477794846
 10
-16.2275737011
 20
19.438593442
 10
-16.031941876
 20
19.4192043225
 10
-15.8336994436
 20
19.3896932891
 10
-15.6328354605
 20
19.3500179122
 10
-15.4293608701
 20
19.3002206214
 10
-15.2241274193
 20
19.2405098688
 10
-15.0171277351
 20
19.1708440985
 10
-14.8083691904
 20
19.0912648664
 10
-14.5987256509
 20
19.0021052919
 10
-14.388488405
 20
18.9034764149
 10
-14.1773661641
 20
18.7952671957
 10
-13.9653589284
 20
18.6774776341
  0
LWPOLYLINE
  5
241
100
AcDbEntity
  8
RACCORDO
100
AcDbPolyline
 62
7
  6
CONTINUOUS
 90
19
 70
0
 10
13.9653589284
 20
-37.048058862
 10
14.1773661641
 20
-37.1658484235
 10
14.388488405
 20
-37.2740576428
 10
14.5987256509
 20
-37.3726865197
 10
14.8083691904
 20
-37.4618460942
 10
15.0171277351
 20
-37.5414253264
 10
15.2241274193
 20
-37.6110910967
 10
15.4293608701
 20
-37.6708018493
 10
15.6328354605
 20
-37.72059914
 10
15.8336994436
 20
-37.7602745169
 10
16.031941876
 20
-37.7897855503
 10
16.2275737011
 20
-37.8091746698
 10
16.4197760018
 20
-37.8183607124
 10
16.6085344022
 20
-37.8173009082
 10
16.7938632783
 20
-37.8060380271
 10
16.9749868413
 20
-37.7846192155
 10
17.1518874633
 20
-37.7530019014
 10
17.3245827722
 20
-37.7112286568
 10
17.3992053474
 20
-37.6882084091
  0
LINE
  5
242
100
AcDbEntity
  8
RACCORDO
100
AcDbLine
 62
7
  6
CONTINUOUS
 10
-13.9653589284
 20
-22.1460362055
 11
12.9046987567
 21
-37.660470752
  0
LINE
  5
243
100
AcDbEntity
  8
RACCORDO
100
AcDbLine
 62
7
  6
CONTINUOUS
 10
-12.9046987567
 20
-21.5336243155
 11
13.9653589284
 21
-37.048058862
  0
LWPOLYLINE
  5
244
100
AcDbEntity
  8
RACCORDO
100
AcDbPolyline
 62
7
  6
CONTINUOUS
 90
43
 70
0
 10
-13.9653589284
 20
-22.1460362055
 10
-14.1773661641
 20
-22.0190051254
 10
-14.388488405
 20
-21.883415673
 10
-14.5987256509
 20
-21.7392678481
 10
-14.8083691904
 20
-21.586336318
 10
-15.0171277351
 20
-21.4248464155
 10
-15.2241274193
 20
-21.2554741391
 10
-15.4293608701
 20
-21.078186447
 10
-15.6328354605
 20
-20.8930163811
 10
-15.8336994436
 20
-20.7007390652
 10
-16.031941876
 20
-20.5013247067
 10
-16.2275737011
 20
-20.2948030983
 10
-16.4197760018
 20
-20.0820387417
 10
-16.6085344022
 20
-19.8630054681
 10
-16.7938632783
 20
-19.6377294463
 10
-16.9749868413
 20
-19.4071536842
 10
-17.1518874633
 20
-19.1712559661
 10
-17.3245827722
 20
-18.9300585075
 10
-17.4923498636
 20
-18.684570964
 10
-17.6551680791
 20
-18.4347753518
 10
-17.8130580772
 20
-18.1806896546
 10
-17.9653589284
 20
-17.9233774778
 10
-18.112047204
 20
-17.6628252965
 10
-18.2531463329
 20
-17.3990466356
 10
-18.3880656724
 20
-17.1331456755
 10
-18.5167793179
 20
-16.8651135199
 10
-18.6393131741
 20
-16.5949590651
 10
-18.755154313
 20
-16.3238131806
 10
-18.8642746796
 20
-16.0516717105
 10
-18.9667023288
 20
-15.7785388107
 10
-19.0620084975
 20
-15.5055578186
 10
-19.1501633333
 20
-15.2327293709
 10
-19.2311966885
 20
-14.9600528309
 10
-19.3047693565
 20
-14.6886696256
 10
-19.3708500633
 20
-14.4185851764
 10
-19.4294700829
 20
-14.1497940618
 10
-19.4803840314
 20
-13.8834214445
 10
-19.5235596059
 20
-13.6194774624
 10
-19.5590291093
 20
-13.3579519776
 10
-19.5866440657
 20
-13.0999397385
 10
-19.6063549834
 20
-12.8458056614
 10
-19.6182113541
 20
-12.5951848301
 10
-19.6222131779
 20
-12.3480772445
  0
LWPOLYLINE
  5
245
100
AcDbEntity
  8
ASSI
100
AcDbPolyline
 62
7
  6
CONTINUOUS
 90
20
 70
0
 10
-29.8872958637
 20
16.0049450133
 10
-29.8839192427
 20
15.9852190909
 10
-29.8689839828
 20
15.915985078
 10
-29.8509301636
 20
15.8463454388
 10
-29.8297223855
 20
15.7762955689
 10
-29.8053960481
 20
15.7058400727
 10
-29.7782262454
 20
15.6357756945
 10
-29.7481807003
 20
15.5661068741
 10
-29.7152916898
 20
15.4968291719
 10
-29.6799311386
 20
15.4287260131
 10
-29.6420709915
 20
15.3618107305
 10
-29.6017393037
 20
15.2960699913
 10
-29.5593921652
 20
15.2322472233
 10
-29.515006698
 20
15.170364198
 10
-29.4686057801
 20
15.1103991439
 10
-29.4207141352
 20
15.0530301746
 10
-29.3713148418
 20
14.9982867589
 10
-29.3204248214
 20
14.9461394279
 10
-29.2686195628
 20
14.8971778886
 10
-29.2268310435
 20
14.8609298817
  0
LWPOLYLINE
  5
246
100
AcDbEntity
  8
RACCORDO
100
AcDbPolyline
 62
7
  6
CONTINUOUS
 90
43
 70
0
 10
-18.5615530061
 20
-11.7356653546
 10
-18.5575511823
 20
-11.9827729401
 10
-18.5456948116
 20
-12.2333937714
 10
-18.525983894
 20
-12.4875278485
 10
-18.4983689375
 20
-12.7455400876
 10
-18.4628994342
 20
-13.0070655724
 10
-18.4197238596
 20
-13.2710095545
 10
-18.3688099112
 20
-13.5373821718
 10
-18.3101898915
 20
-13.8061732864
 10
-18.2441091847
 20
-14.0762577356
 10
-18.1705365167
 20
-14.3476409409
 10
-18.0895031615
 20
-14.6203174809
 10
-18.0013483257
 20
-14.8931459286
 10
-17.9060421571
 20
-15.1661269207
 10
-17.8036145078
 20
-15.4392598205
 10
-17.6944941412
 20
-15.7114012906
 10
-17.5786530023
 20
-15.9825471751
 10
-17.4561191461
 20
-16.2527016299
 10
-17.3274055006
 20
-16.5207337855
 10
-17.1924861611
 20
-16.7866347456
 10
-17.0513870322
 20
-17.0504134065
 10
-16.9046987567
 20
-17.3109655878
 10
-16.7523979054
 20
-17.5682777646
 10
-16.5945079073
 20
-17.8223634618
 10
-16.4316896918
 20
-18.072159074
 10
-16.2639226004
 20
-18.3176466176
 10
-16.0912272915
 20
-18.5588440761
 10
-15.9143266696
 20
-18.7947417943
 10
-15.7332031065
 20
-19.0253175564
 10
-15.5478742304
 20
-19.2505935781
 10
-15.3591158301
 20
-19.4696268517
 10
-15.1669135293
 20
-19.6823912083
 10
-14.9712817042
 20
-19.8889128167
 10
-14.7730392718
 20
-20.0883271752
 10
-14.5721752887
 20
-20.2806044911
 10
-14.3687006984
 20
-20.4657745571
 10
-14.1634672475
 20
-20.6430622491
 10
-13.9564675633
 20
-20.8124345255
 10
-13.7477090186
 20
-20.973924428
 10
-13.5380654791
 20
-21.1268559581
 10
-13.3278282332
 20
-21.271003783
 10
-13.1167059924
 20
-21.4065932354
 10
-12.9046987567
 20
-21.5336243155
  0
LINE
  5
247
100
AcDbEntity
  8
RACCORDO
100
AcDbLine
 62
7
  6
CONTINUOUS
 10
-19.6222131779
 20
15.4119121664
 11
-19.6222131779
 21
-12.3480772445
  0
LINE
  5
248
100
AcDbEntity
  8
RACCORDO
100
AcDbLine
 62
7
  6
CONTINUOUS
 10
-18.5615530061
 20
16.0243240564
 11
-18.5615530061
 21
-11.7356653546
  0
LWPOLYLINE
  5
249
100
AcDbEntity
  8
RACCORDO
100
AcDbPolyline
 62
7
  6
CONTINUOUS
 90
22
 70
0
 10
-19.6222131779
 20
15.4119121664
 10
-19.6182113541
 20
15.6543985461
 10
-19.6063549834
 20
15.8913279377
 10
-19.5866440657
 20
16.1227003412
 10
-19.5590291093
 20
16.3488235207
 10
-19.5235596059
 20
16.5693897122
 10
-19.4803840314
 20
16.7834756231
 10
-19.4294700829
 20
16.9910540889
 10
-19.3708500633
 20
17.1921522741
 10
-19.3047693565
 20
17.3859283795
 10
-19.2311966885
 20
17.5723517119
 10
-19.1501633333
 20
17.7514529646
 10
-19.0620084975
 20
17.9224824175
 10
-18.9667023288
 20
18.085406235
 10
-18.8642746796
 20
18.2402582528
 10
-18.755154313
 20
18.3863902588
 10
-18.6393131741
 20
18.5237656998
 10
-18.5167793179
 20
18.6524211289
 10
-18.3880656724
 20
18.771817993
 10
-18.2531463329
 20
18.8819174817
 10
-18.112047204
 20
18.9827584053
 10
-17.9655522095
 20
19.0738070555
  0
LWPOLYLINE
  5
24A
100
AcDbEntity
  8
0
100
AcDbPolyline
 62
7
  6
CONTINUOUS
 90
7
 70
0
 10
-22.619842878
 20
8.5202826998
 10
-22.5294977784
 20
8.5868730303
 10
-22.4531514783
 20
8.673992727
 10
-22.3906471157
 20
8.783309669
 10
-22.3463111207
 20
8.9072571508
 10
-22.3185294958
 20
9.0503473285
 10
-22.3092189464
 20
9.2068879963
  0
LWPOLYLINE
  5
24B
100
AcDbEntity
  8
0
100
AcDbPolyline
 62
250
  6
CONTINUOUS
 90
20
 70
0
 10
-24.4532710958
 20
6.3069650874
 10
-24.4047753833
 20
6.3372282368
 10
-24.3560404874
 20
6.3726095716
 10
-24.3096304432
 20
6.4116230778
 10
-24.2656212542
 20
6.454207247
 10
-24.2240855104
 20
6.5002964461
 10
-24.1851021892
 20
6.5498079227
 10
-24.1487493574
 20
6.6026439178
 10
-24.1150839792
 20
6.6587221874
 10
-24.0841702634
 20
6.7179363681
 10
-24.0560817303
 20
6.7801344612
 10
-24.0308594711
 20
6.8452028212
 10
-24.0085404437
 20
6.9130209154
 10
-23.9891706974
 20
6.983405771
 10
-23.9727699842
 20
7.0562183258
 10
-23.9593502252
 20
7.1313264566
 10
-23.94892507
 20
7.2085417414
 10
-23.9414930709
 20
7.2877012979
 10
-23.9370438862
 20
7.368672934
 10
-23.9355645432
 20
7.4513072402
  0
LINE
  5
24C
100
AcDbEntity
  8
0
100
AcDbLine
 62
7
  6
CONTINUOUS
 10
-22.735709394
 20
8.8075553927
 11
-22.5876365111
 21
8.8930508196
  0
LINE
  5
24D
100
AcDbEntity
  8
0
100
AcDbLine
 62
7
  6
CONTINUOUS
 10
-25.4911994618
 20
7.0028151266
 11
-26.0568848867
 21
6.6761954519
  0
LINE
  5
24E
100
AcDbEntity
  8
0
100
AcDbLine
 62
7
  6
CONTINUOUS
 10
-22.6806973522
 20
8.4851460891
 11
-22.619842878
 21
8.5202826998
  0
LINE
  5
24F
100
AcDbEntity
  8
0
100
AcDbLine
 62
7
  6
CONTINUOUS
 10
-24.4532710958
 20
6.3069650874
 11
-23.1804788896
 21
7.0418593553
  0
LWPOLYLINE
  5
250
100
AcDbEntity
  8
0
100
AcDbPolyline
 62
7
  6
CONTINUOUS
 90
15
 70
0
 10
-26.0568848867
 20
6.6761954519
 10
-26.0662466868
 20
6.6711597446
 10
-26.0754971903
 20
6.6668987682
 10
-26.0846363973
 20
6.6634125228
 10
-26.0937085833
 20
6.6606911856
 10
-26.1026694728
 20
6.6587445793
 10
-26.1113862391
 20
6.6576021725
 10
-26.1198504004
 20
6.6572786198
 10
-26.1280704385
 20
6.6577592666
 10
-26.1359389714
 20
6.6590296174
 10
-26.1434491958
 20
6.6611004397
 10
-26.1506079149
 20
6.6639609659
 10
-26.1573281566
 20
6.6675643979
 10
-26.1636027745
 20
6.6719184594
 10
-26.1649401445
 20
6.6729895854
  0
LWPOLYLINE
  5
251
100
AcDbEntity
  8
0
100
AcDbPolyline
 62
7
  6
CONTINUOUS
 90
14
 70
0
 10
-24.4532710958
 20
6.3069650874
 10
-24.5193709622
 20
6.2721317759
 10
-24.5887193409
 20
6.2421813006
 10
-24.6611670535
 20
6.2173242155
 10
-24.7365788756
 20
6.1977481871
 10
-24.8147581099
 20
6.1836379745
 10
-24.8954574645
 20
6.1751544902
 10
-24.9786413304
 20
6.1724206416
 10
-25.0640065047
 20
6.1755636035
 10
-25.1508969964
 20
6.1846127494
 10
-25.2389110184
 20
6.1995122067
 10
-25.3280866699
 20
6.2202584639
 10
-25.4184240205
 20
6.2468828674
 10
-25.4364647775
 20
6.252862347
  0
LWPOLYLINE
  5
252
100
AcDbEntity
  8
0
100
AcDbPolyline
 62
250
  6
CONTINUOUS
 90
55
 70
0
 10
20.1878986029
 20
-20.0213084461
 10
20.2668898872
 20
-20.0441922603
 10
20.3445086201
 20
-20.0618717389
 10
20.4207548015
 20
-20.0743468819
 10
20.4958484432
 20
-20.0816318562
 10
20.5695695334
 20
-20.083712495
 10
20.6412580375
 20
-20.0805462973
 10
20.7108560287
 20
-20.0720855989
 10
20.7784214337
 20
-20.058378064
 10
20.843467998
 20
-20.0395241844
 10
20.9059865748
 20
-20.0154837289
 10
20.9659863108
 20
-19.9862969287
 10
21.0230083914
 20
-19.9521849701
 10
21.0770263976
 20
-19.9131122248
 10
21.1280667485
 20
-19.8691143211
 10
21.1757498861
 20
-19.8205193292
 10
21.2200517478
 20
-19.7672920289
 10
21.2609963963
 20
-19.7094676404
 10
21.2982764617
 20
-19.6474798961
 10
21.331864148
 20
-19.5812978994
 10
21.3617872512
 20
-19.5109525469
 10
21.3878217904
 20
-19.4369702593
 10
21.4099386762
 20
-19.3593236306
 10
21.428166998
 20
-19.2780400669
 10
21.4423700435
 20
-19.193728208
 10
21.4525175765
 20
-19.1063650706
 10
21.4586398331
 20
-19.015973638
 10
21.460690809
 20
-18.9232315007
 10
21.4586398345
 20
-18.828120951
 10
21.4525175793
 20
-18.7306596966
 10
21.4423700486
 20
-18.6315784508
 10
21.4281670067
 20
-18.5308652818
 10
21.4099386892
 20
-18.4285321214
 10
21.3878218083
 20
-18.325345479
 10
21.361787275
 20
-18.2212991695
 10
21.3318641782
 20
-18.1163993779
 10
21.2982764971
 20
-18.011431169
 10
21.2609964342
 20
-17.9063933378
 10
21.2200517869
 20
-17.8012870894
 10
21.175749926
 20
-17.6969011031
 10
21.128066789
 20
-17.5932428139
 10
21.0770264384
 20
-17.4903047868
 10
21.0230084324
 20
-17.3888533969
 10
20.9659863524
 20
-17.2888937649
 10
20.905986617
 20
-17.1904207701
 10
20.8434680403
 20
-17.0941854252
 10
20.778421475
 20
-17.0002173987
 10
20.7108560684
 20
-16.908487022
 10
20.6412580759
 20
-16.819656303
 10
20.5695695724
 20
-16.733706015
 10
20.4958484829
 20
-16.6506553845
 10
20.4207548382
 20
-16.5712240987
 10
20.3445086484
 20
-16.495652053
 10
20.2668899033
 20
-16.4236993519
 10
20.1878986029
 20
-16.3553659954
  0
LWPOLYLINE
  5
253
100
AcDbEntity
  8
0
100
AcDbPolyline
 62
7
  6
CONTINUOUS
 90
34
 70
0
 10
-40.6765567667
 20
2.2986712014
 10
-40.5586482803
 20
2.2273385449
 10
-40.4409789728
 20
2.1496802592
 10
-40.3241063325
 20
2.0660840359
 10
-40.2080357655
 20
1.976509582
 10
-40.0927618658
 20
1.8809971904
 10
-39.9790650828
 20
1.7801935176
 10
-39.8669561183
 20
1.6740626584
 10
-39.7564242705
 20
1.5626405179
 10
-39.6482178833
 20
1.4466814676
 10
-39.5423527366
 20
1.3261547214
 10
-39.4388130504
 20
1.2010910654
 10
-39.338299829
 20
1.0723372295
 10
-39.2408336091
 20
0.9398681732
 10
-39.146393854
 20
0.8037089371
 10
-39.0556199578
 20
0.6647813724
 10
-38.9685367959
 20
0.523066694
 10
-38.8851194929
 20
0.3785836872
 10
-38.8059328166
 20
0.2323105583
 10
-38.7310054748
 20
0.0842351601
 10
-38.6603087596
 20
-0.0656303602
 10
-38.5943213156
 20
-0.2162713542
 10
-38.5330750984
 20
-0.3676930842
 10
-38.4765381524
 20
-0.519890288
 10
-38.4250932547
 20
-0.6718325309
 10
-38.3787749586
 20
-0.8235180829
 10
-38.3375487108
 20
-0.9749486741
 10
-38.3016936293
 20
-1.12509906
 10
-38.2712461611
 20
-1.2739605537
 10
-38.2461698591
 20
-1.4215418421
 10
-38.2266344997
 20
-1.5668437422
 10
-38.2126966751
 20
-1.7095331929
 10
-38.2042997931
 20
-1.8499432553
 10
-38.2014438536
 20
-1.9880739294
  0
LWPOLYLINE
  5
254
100
AcDbEntity
  8
0
100
AcDbPolyline
 62
7
  6
CONTINUOUS
 90
34
 70
0
 10
39.615418237
 20
-44.060908871
 10
39.7333267235
 20
-44.1322415275
 10
39.850996031
 20
-44.2098998132
 10
39.9678686712
 20
-44.2934960365
 10
40.0839392382
 20
-44.3830704904
 10
40.1992131379
 20
-44.4785828819
 10
40.312909921
 20
-44.5793865548
 10
40.4250188854
 20
-44.685517414
 10
40.5355507332
 20
-44.7969395545
 10
40.6437571204
 20
-44.9128986048
 10
40.7496222672
 20
-45.033425351
 10
40.8531619533
 20
-45.158489007
 10
40.9536751747
 20
-45.2872428429
 10
41.0511413946
 20
-45.4197118992
 10
41.1455811497
 20
-45.5558711353
 10
41.2363550459
 20
-45.6947987
 10
41.3234382078
 20
-45.8365133783
 10
41.4068555108
 20
-45.9809963852
 10
41.4860421871
 20
-46.1272695141
 10
41.560969529
 20
-46.2753449123
 10
41.6316662441
 20
-46.4252104325
 10
41.6976536881
 20
-46.5758514266
 10
41.7588999053
 20
-46.7272731566
 10
41.8154368514
 20
-46.8794703604
 10
41.866881749
 20
-47.0314126033
 10
41.9132000452
 20
-47.1830981553
 10
41.9544262929
 20
-47.3345287465
 10
41.9902813745
 20
-47.4846791324
 10
42.0207288427
 20
-47.633540626
 10
42.0458051446
 20
-47.7811219144
 10
42.065340504
 20
-47.9264238145
 10
42.0792783286
 20
-48.0691132653
 10
42.0876752107
 20
-48.2095233277
 10
42.0905311501
 20
-48.3476540018
  0
LINE
  5
255
100
AcDbEntity
  8
RACCORDO
100
AcDbLine
 62
250
  6
CONTINUOUS
 10
45.4316106912
 20
38.4735676321
 11
46.492270863
 21
39.0859795221
  0
LWPOLYLINE
  5
256
100
AcDbEntity
  8
0
100
AcDbPolyline
 62
250
  6
CONTINUOUS
 90
55
 70
0
 10
19.4807918217
 20
-15.9470914021
 10
19.4018005374
 20
-15.9242075879
 10
19.3241818045
 20
-15.9065281093
 10
19.247935623
 20
-15.8940529664
 10
19.1728419814
 20
-15.886767992
 10
19.0991208911
 20
-15.8846873532
 10
19.0274323871
 20
-15.8878535509
 10
18.9578343959
 20
-15.8963142493
 10
18.8902689908
 20
-15.9100217843
 10
18.8252224266
 20
-15.9288756638
 10
18.7627038498
 20
-15.9529161193
 10
18.7027041138
 20
-15.9821029195
 10
18.6456820332
 20
-16.0162148781
 10
18.591664027
 20
-16.0552876234
 10
18.5406236761
 20
-16.0992855272
 10
18.4929405385
 20
-16.147880519
 10
18.4486386768
 20
-16.2011078193
 10
18.4076940283
 20
-16.2589322078
 10
18.3704139628
 20
-16.3209199521
 10
18.3368262766
 20
-16.3871019488
 10
18.3069031734
 20
-16.4574473013
 10
18.2808686341
 20
-16.5314295889
 10
18.2587517484
 20
-16.6090762176
 10
18.2405234265
 20
-16.6903597813
 10
18.2263203811
 20
-16.7746716402
 10
18.2161728481
 20
-16.8620347776
 10
18.2100505915
 20
-16.9524262102
 10
18.2079996156
 20
-17.0451683475
 10
18.2100505901
 20
-17.1402788972
 10
18.2161728453
 20
-17.2377401516
 10
18.226320376
 20
-17.3368213974
 10
18.2405234179
 20
-17.4375345664
 10
18.2587517353
 20
-17.5398677268
 10
18.2808686162
 20
-17.6430543692
 10
18.3069031496
 20
-17.7471006787
 10
18.3368262463
 20
-17.8520004703
 10
18.3704139275
 20
-17.9569686792
 10
18.4076939904
 20
-18.0620065104
 10
18.4486386376
 20
-18.1671127588
 10
18.4929404985
 20
-18.2714987451
 10
18.5406236355
 20
-18.3751570343
 10
18.5916639861
 20
-18.4780950614
 10
18.6456819921
 20
-18.5795464513
 10
18.7027040721
 20
-18.6795060833
 10
18.7627038075
 20
-18.7779790781
 10
18.8252223843
 20
-18.874214423
 10
18.8902689495
 20
-18.9681824496
 10
18.9578343561
 20
-19.0599128262
 10
19.0274323487
 20
-19.1487435452
 10
19.0991208522
 20
-19.2346938332
 10
19.1728419416
 20
-19.3177444637
 10
19.2479355864
 20
-19.3971757495
 10
19.3241817762
 20
-19.4727477952
 10
19.4018005213
 20
-19.5447004963
 10
19.4807918217
 20
-19.6130338528
  0
LWPOLYLINE
  5
257
100
AcDbEntity
  8
0
100
AcDbPolyline
 62
250
  6
CONTINUOUS
 90
15
 70
0
 10
19.6222131779
 20
-15.6984721405
 10
19.5505199698
 20
-15.6757757477
 10
19.4795617521
 20
-15.6569287166
 10
19.4094611946
 20
-15.6419636493
 10
19.3403398106
 20
-15.6309064803
 10
19.2723167606
 20
-15.6237762653
 10
19.2055087006
 20
-15.6205853344
 10
19.1400296019
 20
-15.6213394607
 10
19.0759943876
 20
-15.6260376565
 10
19.0135174916
 20
-15.6346713618
 10
18.9527078972
 20
-15.647224857
 10
18.8936692502
 20
-15.6636760684
 10
18.836503362
 20
-15.6839960581
 10
18.7813111096
 20
-15.7081480902
 10
18.7257061682
 20
-15.7375163693
  0
LWPOLYLINE
  5
258
100
AcDbEntity
  8
0
100
AcDbPolyline
 62
7
  6
CONTINUOUS
 90
10
 70
0
 10
20.3293199591
 20
-15.2901975472
 10
20.4074095438
 20
-15.3189994233
 10
20.4857380463
 20
-15.3520107653
 10
20.5643054664
 20
-15.3892315733
 10
20.6432710827
 20
-15.4307538126
 10
20.7224756167
 20
-15.4764855179
 10
20.801441233
 20
-15.5261507929
 10
20.8800086532
 20
-15.5796576724
 10
20.9583371556
 20
-15.6370981215
 10
21.0364267403
 20
-15.6984721405
  0
LWPOLYLINE
  5
259
100
AcDbEntity
  8
0
100
AcDbPolyline
 62
7
  6
CONTINUOUS
 90
44
 70
0
 10
-26.1649427318
 20
6.6729856252
 10
-26.2367148607
 20
6.7337006451
 10
-26.3228605547
 20
6.8115659594
 10
-26.4072644611
 20
6.8933790196
 10
-26.4898344949
 20
6.9790044463
 10
-26.5704231432
 20
7.0682587342
 10
-26.6488167337
 20
7.1608776377
 10
-26.7248184242
 20
7.2565973901
 10
-26.7982378469
 20
7.3551440649
 10
-26.8689360798
 20
7.4562993788
 10
-26.9367947444
 20
7.5598731545
 10
-27.0016679105
 20
7.665632139
 10
-27.0633928014
 20
7.7733035495
 10
-27.1218280249
 20
7.8826354735
 10
-27.1768249843
 20
7.9933468714
 10
-27.2282621853
 20
8.1051941729
 10
-27.276042477
 20
8.2179823455
 10
-27.3200565155
 20
8.3314901214
 10
-27.3601668706
 20
8.4454088902
 10
-27.3962457234
 20
8.5594177033
 10
-27.428179286
 20
8.6731922183
 10
-27.4558964386
 20
8.7865278488
 10
-27.4793381791
 20
8.8992929172
 10
-27.4984321219
 20
9.0113529528
 10
-27.5130632075
 20
9.1223155994
 10
-27.5231353795
 20
9.2316864598
 10
-27.5286039912
 20
9.3391733057
 10
-27.5294374695
 20
9.4445874761
 10
-27.5256081281
 20
9.547631014
 10
-27.5170769017
 20
9.6482769353
 10
-27.5038335139
 20
9.7461016119
 10
-27.4859982541
 20
9.8402977078
 10
-27.4637273357
 20
9.9304602285
 10
-27.4370638419
 20
10.0167286003
 10
-27.4060203167
 20
10.099163872
 10
-27.3705744595
 20
10.1777898899
 10
-27.3308710317
 20
10.2522455204
 10
-27.2872194131
 20
10.3220396137
 10
-27.2398626348
 20
10.3869664783
 10
-27.1889098474
 20
10.4470430337
 10
-27.134564627
 20
10.5021647369
 10
-27.0770461422
 20
10.5522422757
 10
-27.0165761869
 20
10.5972118574
 10
-26.9533918965
 20
10.6370223597
  0
LWPOLYLINE
  5
25A
100
AcDbEntity
  8
0
100
AcDbPolyline
 62
7
  6
CONTINUOUS
 90
32
 70
0
 10
-23.9874440268
 20
10.9270658228
 10
-24.0454742422
 20
10.9767145261
 10
-24.1040096528
 20
11.024401968
 10
-24.1628502692
 20
11.0699652217
 10
-24.2219971352
 20
11.1133970216
 10
-24.2814492069
 20
11.1547046333
 10
-24.3410033631
 20
11.1937469271
 10
-24.4006599529
 20
11.2305161546
 10
-24.4604186271
 20
11.2650200641
 10
-24.5200752169
 20
11.2971407712
 10
-24.579629373
 20
11.3268701242
 10
-24.6390814448
 20
11.3542162747
 10
-24.6982283108
 20
11.3790857931
 10
-24.7570689272
 20
11.4014702083
 10
-24.8156043378
 20
11.4213779913
 10
-24.8736345532
 20
11.4387411262
 10
-24.9311578454
 20
11.4535509091
 10
-24.9881759423
 20
11.4658160438
 10
-25.0444940386
 20
11.4754946259
 10
-25.1001097398
 20
11.4825778082
 10
-25.1550254402
 20
11.4870744378
 10
-25.2090535174
 20
11.4889691517
 10
-25.2621909352
 20
11.4882530502
 10
-25.3144407298
 20
11.4849350331
 10
-25.3656243868
 20
11.4790264366
 10
-25.4157382594
 20
11.4705183996
 10
-25.4647859945
 20
11.4594197832
 10
-25.5126000177
 20
11.4457685063
 10
-25.559176109
 20
11.4295558378
 10
-25.6045184885
 20
11.4107905089
 10
-25.6484722412
 20
11.3895366323
 10
-25.6805979479
 20
11.3719136102
  0
LWPOLYLINE
  5
25B
100
AcDbEntity
  8
0
100
AcDbPolyline
 62
7
  6
CONTINUOUS
 90
12
 70
0
 10
-26.1649401445
 20
6.6729895854
 10
-26.169438915
 20
6.6770154265
 10
-26.1747710455
 20
6.6827853304
 10
-26.1795931038
 20
6.6892332218
 10
-26.1839111521
 20
6.6963540499
 10
-26.1876778435
 20
6.7040626927
 10
-26.1908884538
 20
6.7123672036
 10
-26.1935477072
 20
6.7212595291
 10
-26.1956224302
 20
6.7306303874
 10
-26.1971015649
 20
6.740443351
 10
-26.1979961691
 20
6.7507348473
 10
-26.198306243
 20
6.7615048762
  0
LINE
  5
25C
100
AcDbEntity
  8
0
100
AcDbLine
 62
7
  6
CONTINUOUS
 10
-23.9299207346
 20
10.8754491498
 11
-23.9874440268
 21
10.9270658228
  0
LINE
  5
25D
100
AcDbEntity
  8
RACCORDO
100
AcDbLine
 62
250
  6
CONTINUOUS
 10
-19.6222131779
 20
-12.3480772445
 11
-18.5615530061
 21
-11.7356653546
  0
LWPOLYLINE
  5
25E
100
AcDbEntity
  8
0
100
AcDbPolyline
 62
250
  6
CONTINUOUS
 90
55
 70
0
 10
-25.4911994618
 20
6.3532302829
 10
-25.4122081775
 20
6.3303464687
 10
-25.3345894446
 20
6.3126669901
 10
-25.2583432631
 20
6.3001918471
 10
-25.1832496215
 20
6.2929068727
 10
-25.1095285312
 20
6.290826234
 10
-25.0378400271
 20
6.2939924316
 10
-24.9682420359
 20
6.3024531301
 10
-24.9006766309
 20
6.316160665
 10
-24.8356300667
 20
6.3350145446
 10
-24.7731114899
 20
6.3590550001
 10
-24.7131117539
 20
6.3882418002
 10
-24.6560896733
 20
6.4223537589
 10
-24.602071667
 20
6.4614265042
 10
-24.5510313162
 20
6.5054244079
 10
-24.5033481786
 20
6.5540193997
 10
-24.4590463169
 20
6.6072467001
 10
-24.4181016684
 20
6.6650710885
 10
-24.3808216029
 20
6.7270588329
 10
-24.3472339167
 20
6.7932408295
 10
-24.3173108135
 20
6.8635861821
 10
-24.2912762742
 20
6.9375684696
 10
-24.2691593884
 20
7.0152150984
 10
-24.2509310666
 20
7.0964986621
 10
-24.2367280212
 20
7.180810521
 10
-24.2265804882
 20
7.2681736584
 10
-24.2204582316
 20
7.358565091
 10
-24.2184072556
 20
7.4513072283
 10
-24.2204582302
 20
7.546417778
 10
-24.2265804853
 20
7.6438790324
 10
-24.2367280161
 20
7.7429602781
 10
-24.250931058
 20
7.8436734472
 10
-24.2691593754
 20
7.9460066076
 10
-24.2912762563
 20
8.04919325
 10
-24.3173107896
 20
8.1532395595
 10
-24.3472338864
 20
8.2581393511
 10
-24.3808215676
 20
8.36310756
 10
-24.4181016304
 20
8.4681453911
 10
-24.4590462777
 20
8.5732516396
 10
-24.5033481386
 20
8.6776376258
 10
-24.5510312756
 20
8.7812959151
 10
-24.6020716262
 20
8.8842339421
 10
-24.6560896322
 20
8.985685332
 10
-24.7131117122
 20
9.085644964
 10
-24.7731114476
 20
9.1841179589
 10
-24.8356300244
 20
9.2803533038
 10
-24.9006765896
 20
9.3743213303
 10
-24.9682419962
 20
9.4660517069
 10
-25.0378399887
 20
9.554882426
 10
-25.1095284923
 20
9.640832714
 10
-25.1832495817
 20
9.7238833444
 10
-25.2583432265
 20
9.8033146303
 10
-25.3345894163
 20
9.878886676
 10
-25.4122081614
 20
9.950839377
 10
-25.4911994618
 20
10.0191727336
  0
LWPOLYLINE
  5
25F
100
AcDbEntity
  8
0
100
AcDbPolyline
 62
7
  6
CONTINUOUS
 90
44
 70
0
 10
19.5141553328
 20
-19.7015531038
 10
19.442383204
 20
-19.6408380839
 10
19.3562375099
 20
-19.5629727696
 10
19.2718336035
 20
-19.4811597094
 10
19.1892635697
 20
-19.3955342827
 10
19.1086749215
 20
-19.3062799947
 10
19.030281331
 20
-19.2136610913
 10
18.9542796405
 20
-19.1179413389
 10
18.8808602178
 20
-19.0193946641
 10
18.8101619849
 20
-18.9182393501
 10
18.7423033203
 20
-18.8146655744
 10
18.6774301542
 20
-18.70890659
 10
18.6157052632
 20
-18.6012351795
 10
18.5572700398
 20
-18.4919032555
 10
18.5022730803
 20
-18.3811918576
 10
18.4508358794
 20
-18.2693445561
 10
18.4030555877
 20
-18.1565563835
 10
18.3590415491
 20
-18.0430486076
 10
18.318931194
 20
-17.9291298388
 10
18.2828523412
 20
-17.8151210257
 10
18.2509187786
 20
-17.7013465107
 10
18.2232016261
 20
-17.5880108801
 10
18.1997598856
 20
-17.4752458117
 10
18.1806659428
 20
-17.3631857761
 10
18.1660348572
 20
-17.2522231295
 10
18.1559626852
 20
-17.1428522692
 10
18.1504940734
 20
-17.0353654233
 10
18.1496605952
 20
-16.9299512529
 10
18.1534899366
 20
-16.826907715
 10
18.1620211629
 20
-16.7262617937
 10
18.1752645508
 20
-16.6284371171
 10
18.1930998106
 20
-16.5342410212
 10
18.2153707289
 20
-16.4440785004
 10
18.2420342228
 20
-16.3578101287
 10
18.273077748
 20
-16.275374857
 10
18.3085236051
 20
-16.196748839
 10
18.3482270329
 20
-16.1222932085
 10
18.3918786516
 20
-16.0524991152
 10
18.4392354299
 20
-15.9875722506
 10
18.4901882173
 20
-15.9274956953
 10
18.5445334377
 20
-15.8723739921
 10
18.6020519225
 20
-15.8222964533
 10
18.6625218778
 20
-15.7773268716
 10
18.7257061682
 20
-15.7375163693
  0
LWPOLYLINE
  5
260
100
AcDbEntity
  8
0
100
AcDbPolyline
 62
7
  6
CONTINUOUS
 90
12
 70
0
 10
19.5141579201
 20
-19.7015491436
 10
19.5096591496
 20
-19.6975233024
 10
19.5043270192
 20
-19.6917533986
 10
19.4995049608
 20
-19.6853055072
 10
19.4951869126
 20
-19.6781846791
 10
19.4914202211
 20
-19.6704760363
 10
19.4882096109
 20
-19.6621715254
 10
19.4855503574
 20
-19.6532791998
 10
19.4834756344
 20
-19.6439083416
 10
19.4819964998
 20
-19.634095378
 10
19.4811018955
 20
-19.6238038817
 10
19.4807918217
 20
-19.6130338528
  0
LINE
  5
261
100
AcDbEntity
  8
RACCORDO
100
AcDbLine
 62
250
  6
CONTINUOUS
 10
52.5026785031
 20
26.2261189309
 11
53.5633386749
 21
26.8385308209
  0
LWPOLYLINE
  5
262
100
AcDbEntity
  8
0
100
AcDbPolyline
 62
250
  6
CONTINUOUS
 90
55
 70
0
 10
-26.198306243
 20
10.4274473269
 10
-26.2772975273
 20
10.450331141
 10
-26.3549162601
 20
10.4680106196
 10
-26.4311624416
 20
10.4804857626
 10
-26.5062560833
 20
10.487770737
 10
-26.5799771735
 20
10.4898513758
 10
-26.6516656776
 20
10.4866851781
 10
-26.7212636688
 20
10.4782244796
 10
-26.7888290738
 20
10.4645169447
 10
-26.8538756381
 20
10.4456630652
 10
-26.9163942149
 20
10.4216226096
 10
-26.9763939508
 20
10.3924358095
 10
-27.0334160314
 20
10.3583238509
 10
-27.0874340377
 20
10.3192511056
 10
-27.1384743885
 20
10.2752532018
 10
-27.1861575262
 20
10.22665821
 10
-27.2304593879
 20
10.1734309096
 10
-27.2714040363
 20
10.1156065212
 10
-27.3086841018
 20
10.0536187768
 10
-27.342271788
 20
9.9874367802
 10
-27.3721948913
 20
9.9170914276
 10
-27.3982294305
 20
9.8431091401
 10
-27.4203463163
 20
9.7654625113
 10
-27.4385746381
 20
9.6841789476
 10
-27.4527776835
 20
9.5998670888
 10
-27.4629252165
 20
9.5125039513
 10
-27.4690474731
 20
9.4221125187
 10
-27.4710984491
 20
9.3293703814
 10
-27.4690474746
 20
9.2342598318
 10
-27.4629252194
 20
9.1367985773
 10
-27.4527776887
 20
9.0377173316
 10
-27.4385746468
 20
8.9370041626
 10
-27.4203463293
 20
8.8346710022
 10
-27.3982294484
 20
8.7314843598
 10
-27.3721949151
 20
8.6274380502
 10
-27.3422718183
 20
8.5225382586
 10
-27.3086841372
 20
8.4175700497
 10
-27.2714040743
 20
8.3125322186
 10
-27.230459427
 20
8.2074259702
 10
-27.1861575661
 20
8.1030399839
 10
-27.1384744291
 20
7.9993816947
 10
-27.0874340785
 20
7.8964436676
 10
-27.0334160725
 20
7.7949922777
 10
-26.9763939925
 20
7.6950326457
 10
-26.9163942571
 20
7.5965596509
 10
-26.8538756804
 20
7.500324306
 10
-26.7888291151
 20
7.4063562794
 10
-26.7212637085
 20
7.3146259028
 10
-26.651665716
 20
7.2257951837
 10
-26.5799772125
 20
7.1398448958
 10
-26.506256123
 20
7.0567942653
 10
-26.4311624783
 20
6.9773629794
 10
-26.3549162884
 20
6.9017909338
 10
-26.2772975433
 20
6.8298382327
 10
-26.198306243
 20
6.7615048762
  0
LWPOLYLINE
  5
263
100
AcDbEntity
  8
0
100
AcDbPolyline
 62
250
  6
CONTINUOUS
 90
15
 70
0
 10
-26.0568848867
 20
10.6760665885
 10
-26.1285780949
 20
10.6987629813
 10
-26.1995363125
 20
10.7176100124
 10
-26.2696368701
 20
10.7325750797
 10
-26.3387582541
 20
10.7436322487
 10
-26.406781304
 20
10.7507624637
 10
-26.473589364
 20
10.7539533946
 10
-26.5390684627
 20
10.7531992683
 10
-26.6031036771
 20
10.7485010725
 10
-26.6655805731
 20
10.7398673671
 10
-26.7263901675
 20
10.7273138719
 10
-26.7854288145
 20
10.7108626606
 10
-26.8425947026
 20
10.6905426709
 10
-26.8977869551
 20
10.6663906388
 10
-26.9533918965
 20
10.6370223597
  0
LWPOLYLINE
  5
264
100
AcDbEntity
  8
0
100
AcDbPolyline
 62
7
  6
CONTINUOUS
 90
10
 70
0
 10
-25.3497781055
 20
11.0843411818
 10
-25.2716885208
 20
11.0555393057
 10
-25.1933600184
 20
11.0225279637
 10
-25.1147925983
 20
10.9853071557
 10
-25.035826982
 20
10.9437849164
 10
-24.9566224479
 20
10.8980532111
 10
-24.8776568316
 20
10.848387936
 10
-24.7990894115
 20
10.7948810566
 10
-24.7207609091
 20
10.7374406074
 10
-24.6426713244
 20
10.6760665885
  0
LWPOLYLINE
  5
265
100
AcDbEntity
  8
0
100
AcDbPolyline
 62
7
  6
CONTINUOUS
 90
32
 70
0
 10
21.6916540379
 20
-15.4474729061
 10
21.6336238225
 20
-15.3978242029
 10
21.5750884118
 20
-15.350136761
 10
21.5162477955
 20
-15.3045735072
 10
21.4571009295
 20
-15.2611417074
 10
21.3976488577
 20
-15.2198340956
 10
21.3380947015
 20
-15.1807918019
 10
21.2784381118
 20
-15.1440225744
 10
21.2186794376
 20
-15.1095186649
 10
21.1590228478
 20
-15.0773979578
 10
21.0994686916
 20
-15.0476686048
 10
21.0400166198
 20
-15.0203224543
 10
20.9808697538
 20
-14.9954529358
 10
20.9220291375
 20
-14.9730685207
 10
20.8634937268
 20
-14.9531607377
 10
20.8054635115
 20
-14.9357976028
 10
20.7479402193
 20
-14.9209878199
 10
20.6909221223
 20
-14.9087226851
 10
20.6346040261
 20
-14.899044103
 10
20.5789883249
 20
-14.8919609208
 10
20.5240726244
 20
-14.8874642912
 10
20.4700445473
 20
-14.8855695773
 10
20.4169071294
 20
-14.8862856787
 10
20.3646573348
 20
-14.8896036958
 10
20.3134736779
 20
-14.8955122924
 10
20.2633598052
 20
-14.9040203294
 10
20.2143120701
 20
-14.9151189458
 10
20.166498047
 20
-14.9287702227
 10
20.1199219556
 20
-14.9449828912
 10
20.0745795762
 20
-14.9637482201
 10
20.0306258234
 20
-14.9850020967
 10
19.9985001167
 20
-15.0026251188
  0
LWPOLYLINE
  5
266
100
AcDbEntity
  8
ASSI
100
AcDbPolyline
 62
7
  6
CONTINUOUS
 90
20
 70
0
 10
29.8872958637
 20
-19.2708261205
 10
29.8455073444
 20
-19.2345781136
 10
29.7937020858
 20
-19.1856165743
 10
29.7428120654
 20
-19.1334692433
 10
29.693412772
 20
-19.0787258276
 10
29.6455211271
 20
-19.0213568583
 10
29.5991202092
 20
-18.9613918042
 10
29.554734742
 20
-18.8995087789
 10
29.5123876035
 20
-18.8356860109
 10
29.4720559157
 20
-18.7699452717
 10
29.4341957686
 20
-18.7030299891
 10
29.3988352174
 20
-18.6349268303
 10
29.3659462069
 20
-18.5656491281
 10
29.3359006618
 20
-18.4959803077
 10
29.3087308591
 20
-18.4259159295
 10
29.2844045217
 20
-18.3554604333
 10
29.2631967436
 20
-18.2854105634
 10
29.2451429244
 20
-18.2157709242
 10
29.2302076645
 20
-18.1465369113
 10
29.2268310435
 20
-18.1268109889
  0
LINE
  5
267
100
AcDbEntity
  8
0
100
AcDbLine
 62
7
  6
CONTINUOUS
 10
21.74917733
 20
-15.4990895792
 11
21.6916540379
 21
-15.4474729061
  0
LINE
  5
268
100
AcDbEntity
  8
RACCORDO
100
AcDbLine
 62
250
  6
CONTINUOUS
 10
-13.9653589284
 20
-22.1460362055
 11
-12.9046987567
 21
-21.5336243155
  0
LINE
  5
269
100
AcDbEntity
  8
RACCORDO
100
AcDbLine
 62
7
  6
CONTINUOUS
 10
12.9046987567
 20
3.1630430877
 11
-13.9653589284
 21
18.6774776341
  0
LWPOLYLINE
  5
26A
100
AcDbEntity
  8
RACCORDO
100
AcDbPolyline
 62
7
  6
CONTINUOUS
 90
43
 70
0
 10
12.9046987567
 20
3.1630430877
 10
13.1167059924
 20
3.0360120076
 10
13.3278282332
 20
2.9004225551
 10
13.5380654791
 20
2.7562747303
 10
13.7477090186
 20
2.6033432002
 10
13.9564675633
 20
2.4418532977
 10
14.1634672475
 20
2.2724810213
 10
14.3687006984
 20
2.0951933292
 10
14.5721752887
 20
1.9100232633
 10
14.7730392718
 20
1.7177459474
 10
14.9712817042
 20
1.5183315889
 10
15.1669135293
 20
1.3118099805
 10
15.3591158301
 20
1.0990456239
 10
15.5478742304
 20
0.8800123503
 10
15.7332031065
 20
0.6547363285
 10
15.9143266696
 20
0.4241605664
 10
16.0912272915
 20
0.1882628482
 10
16.2639226004
 20
-0.0529346103
 10
16.4316896918
 20
-0.2984221539
 10
16.5945079073
 20
-0.548217766
 10
16.7523979054
 20
-0.8023034632
 10
16.9046987567
 20
-1.05961564
 10
17.0513870322
 20
-1.3201678213
 10
17.1924861611
 20
-1.5839464822
 10
17.3274055006
 20
-1.8498474423
 10
17.4561191461
 20
-2.1178795979
 10
17.5786530023
 20
-2.3880340528
 10
17.6944941412
 20
-2.6591799373
 10
17.8036145078
 20
-2.9313214074
 10
17.9060421571
 20
-3.2044543071
 10
18.0013483257
 20
-3.4774352992
 10
18.0895031615
 20
-3.7502637469
 10
18.1705365167
 20
-4.0229402869
 10
18.2441091847
 20
-4.2943234922
 10
18.3101898915
 20
-4.5644079414
 10
18.3688099112
 20
-4.833199056
 10
18.4197238596
 20
-5.0995716733
 10
18.4628994342
 20
-5.3635156554
 10
18.4983689375
 20
-5.6250411403
 10
18.525983894
 20
-5.8830533793
 10
18.5456948116
 20
-6.1371874564
 10
18.5575511823
 20
-6.3878082878
 10
18.5615530061
 20
-6.6349158733
  0
LWPOLYLINE
  5
26B
100
AcDbEntity
  8
0
100
AcDbPolyline
 62
7
  6
CONTINUOUS
 90
13
 70
0
 10
23.3698791182
 20
-17.1676507374
 10
23.3482153989
 20
-16.9088811585
 10
23.2841091933
 20
-16.6356654678
 10
23.1801792077
 20
-16.3591643897
 10
23.0406709302
 20
-16.0906728554
 10
22.8712832043
 20
-15.8411586099
 10
22.678935434
 20
-15.6208141857
 10
22.4714849298
 20
-15.4386405424
 10
22.2537082821
 20
-15.3001606866
 10
22.0418590176
 20
-15.2157099139
 10
21.8409312728
 20
-15.1859782295
 10
21.6591328456
 20
-15.2121801578
 10
21.5024388226
 20
-15.294366708
  0
LWPOLYLINE
  5
26C
100
AcDbEntity
  8
0
100
AcDbPolyline
 62
7
  6
CONTINUOUS
 90
15
 70
0
 10
20.1878986029
 20
-20.0213084461
 10
20.188208565
 20
-20.0320923284
 10
20.1891058941
 20
-20.0423985339
 10
20.19059059
 20
-20.0522270625
 10
20.1926738821
 20
-20.0616158078
 10
20.1953445412
 20
-20.0705268763
 10
20.1985688788
 20
-20.0788465872
 10
20.202352558
 20
-20.0865660577
 10
20.2066899157
 20
-20.0936941708
 10
20.2115302753
 20
-20.100143895
 10
20.2168797638
 20
-20.1059086845
 10
20.222732254
 20
-20.1109950851
 10
20.2290186877
 20
-20.1153357031
 10
20.2357452902
 20
-20.118922182
 10
20.2426354521
 20
-20.1216719803
  0
LWPOLYLINE
  5
26D
100
AcDbEntity
  8
0
100
AcDbPolyline
 62
250
  6
CONTINUOUS
 90
34
 70
0
 10
21.7435335215
 20
-18.9232314888
 10
21.7420539171
 20
-18.8388813531
 10
21.7376039794
 20
-18.7527645812
 10
21.7301707832
 20
-18.6650156613
 10
21.7197440123
 20
-18.5757547215
 10
21.7063222815
 20
-18.4851431975
 10
21.6899193981
 20
-18.3933858673
 10
21.6705474191
 20
-18.3006288188
 10
21.6482261778
 20
-18.2070338331
 10
21.6230018636
 20
-18.1128372263
 10
21.5949116084
 20
-18.0182024352
 10
21.5639965624
 20
-17.9232903733
 10
21.5303301801
 20
-17.828337474
 10
21.4939767502
 20
-17.7335242855
 10
21.4549932792
 20
-17.6389987711
 10
21.413457616
 20
-17.5449482183
 10
21.3694486898
 20
-17.4515464557
 10
21.3230391404
 20
-17.3589430335
 10
21.2743048286
 20
-17.2672869441
 10
21.2233307665
 20
-17.1767367029
 10
21.1702054034
 20
-17.0874481221
 10
21.1150138682
 20
-16.9995639877
 10
21.0578487555
 20
-16.9132326666
 10
20.9988109397
 20
-16.8286073926
 10
20.9380023027
 20
-16.7458347755
 10
20.8755265153
 20
-16.6650566006
 10
20.8114925283
 20
-16.5864143875
 10
20.7460147659
 20
-16.5100488239
 10
20.6792081519
 20
-16.436093603
 10
20.6111866442
 20
-16.3646745425
 10
20.5420668653
 20
-16.2959139862
 10
20.4719679581
 20
-16.229930465
 10
20.4010114359
 20
-16.1668383656
 10
20.3293199591
 20
-16.1067467338
  0
LINE
  5
26E
100
AcDbEntity
  8
RACCORDO
100
AcDbLine
 62
7
  6
CONTINUOUS
 10
18.5615530061
 20
-34.3949052842
 11
18.5615530061
 21
-18.4999166578
  0
LINE
  5
26F
100
AcDbEntity
  8
RACCORDO
100
AcDbLine
 62
7
  6
CONTINUOUS
 10
18.5615530061
 20
-15.85755618
 11
18.5615530061
 21
-6.6349158733
  0
LINE
  5
270
100
AcDbEntity
  8
0
100
AcDbLine
 62
7
  6
CONTINUOUS
 10
19.4807918217
 20
-19.6130338528
 11
19.4807918217
 21
-15.9470914021
  0
LINE
  5
271
100
AcDbEntity
  8
0
100
AcDbLine
 62
7
  6
CONTINUOUS
 10
20.1878986029
 20
-20.0213084461
 11
20.1878986029
 21
-16.3553659954
  0
LINE
  5
272
100
AcDbEntity
  8
0
100
AcDbLine
 62
7
  6
CONTINUOUS
 10
20.3293199591
 20
-15.2901975472
 11
20.3293199591
 21
-16.1067467338
  0
LWPOLYLINE
  5
273
100
AcDbEntity
  8
RACCORDO
100
AcDbPolyline
 62
7
  6
CONTINUOUS
 90
22
 70
0
 10
18.5615530061
 20
-34.3949052842
 10
18.5575511823
 20
-34.6373916639
 10
18.5456948116
 20
-34.8743210555
 10
18.525983894
 20
-35.105693459
 10
18.4983689375
 20
-35.3318166386
 10
18.4628994342
 20
-35.55238283
 10
18.4197238596
 20
-35.7664687409
 10
18.3688099112
 20
-35.9740472067
 10
18.3101898915
 20
-36.1751453919
 10
18.2441091847
 20
-36.3689214973
 10
18.1705365167
 20
-36.5553448298
 10
18.0895031615
 20
-36.7344460824
 10
18.0013483257
 20
-36.9054755354
 10
17.9060421571
 20
-37.0683993528
 10
17.8036145078
 20
-37.2232513707
 10
17.6944941412
 20
-37.3693833766
 10
17.5786530023
 20
-37.5067588176
 10
17.4561191461
 20
-37.6354142467
 10
17.3274055006
 20
-37.7548111109
 10
17.1924861611
 20
-37.8649105995
 10
17.0513870322
 20
-37.9657515232
 10
16.9048920377
 20
-38.0568001733
  0
LWPOLYLINE
  5
274
100
AcDbEntity
  8
0
100
AcDbPolyline
 62
7
  6
CONTINUOUS
 90
25
 70
0
 10
19.4807918217
 20
-15.9470914021
 10
19.4811017839
 20
-15.9359495832
 10
19.4819991129
 20
-15.9246071647
 10
19.4834838088
 20
-15.9130641465
 10
19.4855671009
 20
-15.9012696676
 10
19.48823776
 20
-15.8892745891
 10
19.4914620976
 20
-15.8772314938
 10
19.4952457768
 20
-15.8651427254
 10
19.4995831346
 20
-15.8530059404
 10
19.5044234941
 20
-15.8409666903
 10
19.5097729826
 20
-15.8290244456
 10
19.5156254728
 20
-15.8171797359
 10
19.5219119065
 20
-15.8055797019
 10
19.528638509
 20
-15.794225511
 10
19.5357990549
 20
-15.7831159958
 10
19.5433058099
 20
-15.7723947945
 10
19.5511642459
 20
-15.7620656324
 10
19.559368891
 20
-15.7521247842
 10
19.5678155946
 20
-15.7427047124
 10
19.5765125126
 20
-15.7338093257
 10
19.5854514891
 20
-15.7254347154
 10
19.5945039057
 20
-15.717701618
 10
19.6036268897
 20
-15.7106502792
 10
19.6128633137
 20
-15.7042404533
 10
19.6222131779
 20
-15.6984721405
  0
LWPOLYLINE
  5
275
100
AcDbEntity
  8
0
100
AcDbPolyline
 62
7
  6
CONTINUOUS
 90
34
 70
0
 10
-40.6765567667
 20
49.0824180616
 10
-40.5586482803
 20
49.0110854051
 10
-40.4409789728
 20
48.9334271194
 10
-40.3241063325
 20
48.8498308961
 10
-40.2080357655
 20
48.7602564422
 10
-40.0927618658
 20
48.6647440507
 10
-39.9790650828
 20
48.5639403778
 10
-39.8669561183
 20
48.4578095186
 10
-39.7564242705
 20
48.3463873781
 10
-39.6482178833
 20
48.2304283278
 10
-39.5423527366
 20
48.1099015816
 10
-39.4388130504
 20
47.9848379256
 10
-39.338299829
 20
47.8560840897
 10
-39.2408336091
 20
47.7236150334
 10
-39.146393854
 20
47.5874557973
 10
-39.0556199578
 20
47.4485282326
 10
-38.9685367959
 20
47.3068135543
 10
-38.8851194929
 20
47.1623305474
 10
-38.8059328166
 20
47.0160574185
 10
-38.7310054748
 20
46.8679820203
 10
-38.6603087596
 20
46.7181165001
 10
-38.5943213156
 20
46.567475506
 10
-38.5330750984
 20
46.416053776
 10
-38.4765381524
 20
46.2638565722
 10
-38.4250932547
 20
46.1119143293
 10
-38.3787749586
 20
45.9602287773
 10
-38.3375487108
 20
45.8087981861
 10
-38.3016936293
 20
45.6586478002
 10
-38.2712461611
 20
45.5097863066
 10
-38.2461698591
 20
45.3622050182
 10
-38.2266344997
 20
45.2169031181
 10
-38.2126966751
 20
45.0742136673
 10
-38.2042997931
 20
44.9338036049
 10
-38.2014438536
 20
44.7956729308
  0
LWPOLYLINE
  5
276
100
AcDbEntity
  8
0
100
AcDbPolyline
 62
7
  6
CONTINUOUS
 90
39
 70
0
 10
23.0163257276
 20
-18.1883372208
 10
23.0153076266
 20
-18.1186798317
 10
23.0122843464
 20
-18.0481001211
 10
23.0072558871
 20
-17.9765980889
 10
23.000211943
 20
-17.9040901088
 10
22.9911628198
 20
-17.8306598071
 10
22.9801394342
 20
-17.7565580625
 10
22.9671350335
 20
-17.6817825783
 10
22.9521563705
 20
-17.6063356513
 10
22.9352546206
 20
-17.53047505
 10
22.9164232061
 20
-17.4541993594
 10
22.8956687046
 20
-17.3775099946
 10
22.8730620252
 20
-17.3006689691
 10
22.8485968326
 20
-17.2236757639
 10
22.8222794619
 20
-17.146530898
 10
22.7941998281
 20
-17.0694979411
 10
22.7643519034
 20
-16.9925772759
 10
22.7327417154
 20
-16.9157685196
 10
22.6994772622
 20
-16.8393340936
 10
22.6645528855
 20
-16.7632752784
 10
22.6279742435
 20
-16.6875907935
 10
22.5898663092
 20
-16.6125392192
 10
22.5502238519
 20
-16.5381227204
 10
22.5090521022
 20
-16.4643391321
 10
22.4664917259
 20
-16.3914405402
 10
22.4225379731
 20
-16.3194299717
 10
22.3771955937
 20
-16.2483043995
 10
22.3306195023
 20
-16.1783068281
 10
22.2828054792
 20
-16.1094411159
 10
22.2337577441
 20
-16.0417034044
 10
22.1836438714
 20
-15.9753251234
 10
22.1324602145
 20
-15.9103109228
 10
22.0802104199
 20
-15.8466561526
 10
22.0270730021
 20
-15.784578293
 10
21.9730449249
 20
-15.7240827376
 10
21.9181292244
 20
-15.6651640928
 10
21.8625135232
 20
-15.6080236574
 10
21.806195427
 20
-15.5526675136
 10
21.74917733
 20
-15.4990895792
  0
LWPOLYLINE
  5
277
100
AcDbEntity
  8
0
100
AcDbPolyline
 62
7
  6
CONTINUOUS
 90
25
 70
0
 10
23.0163257276
 20
-18.1883372208
 10
23.0153076266
 20
-18.2568189322
 10
23.0122843464
 20
-18.3239074347
 10
23.0072558871
 20
-18.3896027281
 10
23.000211943
 20
-18.4539765382
 10
22.9911628198
 20
-18.5169571392
 10
22.9801394342
 20
-18.5783293545
 10
22.9671350335
 20
-18.6380876827
 10
22.9521563705
 20
-18.6962376251
 10
22.9352546206
 20
-18.7525805093
 10
22.9164232061
 20
-18.8071101543
 10
22.8956687046
 20
-18.8598327411
 10
22.8730620252
 20
-18.91056814
 10
22.8485968326
 20
-18.9593095538
 10
22.8222794619
 20
-19.0060637798
 10
22.7941998281
 20
-19.0506710795
 10
22.7643519034
 20
-19.0931241094
 10
22.7327417154
 20
-19.1334302129
 10
22.6994772622
 20
-19.1714516821
 10
22.6645528855
 20
-19.2071807025
 10
22.6279742435
 20
-19.2406250885
 10
22.5898663092
 20
-19.2716705755
 10
22.5502238519
 20
-19.3003089583
 10
22.5090521022
 20
-19.3265484421
 10
22.4986174326
 20
-19.3326763561
  0
LWPOLYLINE
  5
278
100
AcDbEntity
  8
ASSI
100
AcDbPolyline
 62
7
  6
CONTINUOUS
 90
14
 70
0
 10
28.1428498912
 20
-18.494681258
 10
28.1445790355
 20
-18.4324592255
 10
28.1495956341
 20
-18.3728449051
 10
28.1578996871
 20
-18.3158382969
 10
28.1695474927
 20
-18.2612434357
 10
28.1844827526
 20
-18.2092562867
 10
28.2025365719
 20
-18.1604647454
 10
28.2237443499
 20
-18.114905086
 10
28.2480706873
 20
-18.0725410343
 10
28.27524049
 20
-18.0338516633
 10
28.3052860351
 20
-17.9988786853
 10
28.3381750456
 20
-17.967580388
 10
28.3735355968
 20
-17.9403107074
 10
28.4017127534
 20
-17.9225267936
  0
LWPOLYLINE
  5
279
100
AcDbEntity
  8
0
100
AcDbPolyline
 62
7
  6
CONTINUOUS
 90
17
 70
0
 10
27.9660731959
 20
-18.3926126097
 10
27.9862733041
 20
-18.1663960372
 10
28.0461042129
 20
-17.9721225624
 10
28.1432869815
 20
-17.8171920014
 10
28.2767333677
 20
-17.7059863954
 10
28.4366927646
 20
-17.6466312709
 10
28.6191266248
 20
-17.6390169226
 10
28.8170860991
 20
-17.6834333784
 10
29.0267333677
 20
-17.7803190845
 10
29.232750008
 20
-17.922594835
 10
29.4309195385
 20
-18.1060999951
 10
29.6136937434
 20
-18.3238449103
 10
29.7767333677
 20
-18.5720675959
 10
29.9081254976
 20
-18.8326310163
 10
30.0059456752
 20
-19.0997608509
 10
30.0664679602
 20
-19.3632822073
 10
30.0873935395
 20
-19.6174364967
  0
LWPOLYLINE
  5
27A
100
AcDbEntity
  8
0
100
AcDbPolyline
 62
250
  6
CONTINUOUS
 90
20
 70
0
 10
21.2258269689
 20
-20.0675736416
 10
21.2743226814
 20
-20.0373104921
 10
21.3230575773
 20
-20.0019291574
 10
21.3694676214
 20
-19.9629156512
 10
21.4134768104
 20
-19.9203314819
 10
21.4550125543
 20
-19.8742422828
 10
21.4939958754
 20
-19.8247308063
 10
21.5303487072
 20
-19.7718948111
 10
21.5640140854
 20
-19.7158165416
 10
21.5949278013
 20
-19.6566023609
 10
21.6230163343
 20
-19.5944042677
 10
21.6482385936
 20
-19.5293359077
 10
21.6705576209
 20
-19.4615178135
 10
21.6899273673
 20
-19.391132958
 10
21.7063280805
 20
-19.3183204032
 10
21.7197478395
 20
-19.2432122723
 10
21.7301729947
 20
-19.1659969875
 10
21.7376049938
 20
-19.0868374311
 10
21.7420541784
 20
-19.005865795
 10
21.7435335215
 20
-18.9232314888
  0
LWPOLYLINE
  5
27B
100
AcDbEntity
  8
0
100
AcDbPolyline
 62
7
  6
CONTINUOUS
 90
25
 70
0
 10
20.3293199591
 20
-16.1067467338
 10
20.3199581591
 20
-16.1125217985
 10
20.3107076556
 20
-16.1189430717
 10
20.3015684486
 20
-16.1260105535
 10
20.2924962625
 20
-16.1337655493
 10
20.283535373
 20
-16.1421667536
 10
20.2748186068
 20
-16.15109025
 10
20.2663544454
 20
-16.1605408987
 10
20.2581344073
 20
-16.1705138394
 10
20.2502658744
 20
-16.1808705747
 10
20.2427556501
 20
-16.1916140158
 10
20.235596931
 20
-16.2027412515
 10
20.2288766892
 20
-16.2141050502
 10
20.2226020713
 20
-16.2257048831
 10
20.2167659308
 20
-16.2375412791
 10
20.2114338004
 20
-16.2494685934
 10
20.206611742
 20
-16.261484877
 10
20.2022936937
 20
-16.273592079
 10
20.1985270023
 20
-16.2856504027
 10
20.195316392
 20
-16.2976624458
 10
20.1926571386
 20
-16.3096256106
 10
20.1905824156
 20
-16.3213923069
 10
20.1891032809
 20
-16.3329133382
 10
20.1882086767
 20
-16.344237901
 10
20.1878986029
 20
-16.3553659954
  0
LINE
  5
27C
100
AcDbEntity
  8
0
100
AcDbLine
 62
7
  6
CONTINUOUS
 10
18.7257061682
 20
-15.7375163693
 11
19.9984983743
 21
-15.0026221013
  0
LINE
  5
27D
100
AcDbEntity
  8
0
100
AcDbLine
 62
7
  6
CONTINUOUS
 10
19.6222131779
 20
-15.6984721405
 11
20.3293199591
 21
-15.2901975472
  0
LINE
  5
27E
100
AcDbEntity
  8
0
100
AcDbLine
 62
7
  6
CONTINUOUS
 10
21.4982849157
 20
-15.2913832868
 11
21.5591827062
 21
-15.2562216657
  0
LINE
  5
27F
100
AcDbEntity
  8
0
100
AcDbLine
 62
7
  6
CONTINUOUS
 10
21.0364267403
 20
-15.6984721405
 11
20.3293199591
 21
-16.1067467338
  0
LINE
  5
280
100
AcDbEntity
  8
0
100
AcDbLine
 62
7
  6
CONTINUOUS
 10
21.7502347349
 20
-15.500083186
 11
21.8977297573
 21
-15.4149214086
  0
LINE
  5
281
100
AcDbEntity
  8
0
100
AcDbLine
 62
7
  6
CONTINUOUS
 10
22.9433886706
 20
-17.5669833362
 11
23.0914615536
 21
-17.4814879094
  0
LINE
  5
282
100
AcDbEntity
  8
0
100
AcDbLine
 62
7
  6
CONTINUOUS
 10
20.1878986029
 20
-19.3717236024
 11
19.6222131779
 21
-19.6983432771
  0
LINE
  5
283
100
AcDbEntity
  8
0
100
AcDbLine
 62
7
  6
CONTINUOUS
 10
22.9984007124
 20
-17.8893926399
 11
23.0592551866
 21
-17.8542560292
  0
LINE
  5
284
100
AcDbEntity
  8
0
100
AcDbLine
 62
7
  6
CONTINUOUS
 10
21.2258269689
 20
-20.0675736416
 11
22.498619175
 21
-19.3326793736
  0
LWPOLYLINE
  5
285
100
AcDbEntity
  8
0
100
AcDbPolyline
 62
7
  6
CONTINUOUS
 90
7
 70
0
 10
22.9978829312
 20
-17.8843152747
 10
23.1058989194
 20
-17.8237444477
 10
23.1976247636
 20
-17.737235804
 10
23.2711848958
 20
-17.6265582324
 10
23.3261337158
 20
-17.4904894129
 10
23.3587354038
 20
-17.3382802913
 10
23.3698791182
 20
-17.1676507134
  0
LWPOLYLINE
  5
286
100
AcDbEntity
  8
ASSI
100
AcDbPolyline
 62
7
  6
CONTINUOUS
 90
40
 70
0
 10
28.4017127534
 20
-17.9225267936
 10
28.4113957439
 20
-17.9171153736
 10
28.4517274317
 20
-17.8979486566
 10
28.4940745703
 20
-17.8830273028
 10
28.5384600374
 20
-17.8723995024
 10
28.5848609553
 20
-17.8660170652
 10
28.6327526002
 20
-17.8639521669
 10
28.6821518936
 20
-17.866253817
 10
28.733041914
 20
-17.872873006
 10
28.7848471727
 20
-17.8837348808
 10
28.8375780587
 20
-17.8988876014
 10
28.8912241829
 20
-17.918283008
 10
28.9451788894
 20
-17.9417017678
 10
28.9994456809
 20
-17.9691895513
 10
29.0540210546
 20
-18.000700688
 10
29.108287846
 20
-18.0358788352
 10
29.1622425525
 20
-18.0747656179
 10
29.2158886768
 20
-18.117319411
 10
29.2686195628
 20
-18.1630589958
 10
29.3204248214
 20
-18.212020535
 10
29.3713148418
 20
-18.264167866
 10
29.4207141352
 20
-18.3189112818
 10
29.4686057801
 20
-18.3762802511
 10
29.515006698
 20
-18.4362453052
 10
29.5593921652
 20
-18.4981283305
 10
29.6017393037
 20
-18.5619510984
 10
29.6420709915
 20
-18.6276918376
 10
29.6799311386
 20
-18.6946071203
 10
29.7152916898
 20
-18.7627102791
 10
29.7481807003
 20
-18.8319879813
 10
29.7782262454
 20
-18.9016568017
 10
29.8053960481
 20
-18.9717211798
 10
29.8297223855
 20
-19.0421766761
 10
29.8509301636
 20
-19.112226546
 10
29.8689839828
 20
-19.1818661852
 10
29.8839192427
 20
-19.2511001981
 10
29.8955670483
 20
-19.3191456532
 10
29.9038711013
 20
-19.3857415736
 10
29.9088876999
 20
-19.4511489363
 10
29.9106168442
 20
-19.5153677413
  0
LWPOLYLINE
  5
287
100
AcDbEntity
  8
0
100
AcDbPolyline
 62
7
  6
CONTINUOUS
 90
15
 70
0
 10
19.6222131779
 20
-19.6983432771
 10
19.6128513779
 20
-19.7033789844
 10
19.6036008744
 20
-19.7076399608
 10
19.5944616674
 20
-19.7111262062
 10
19.5853894813
 20
-19.7138475434
 10
19.5764285918
 20
-19.7157941497
 10
19.5677118256
 20
-19.7169365565
 10
19.5592476642
 20
-19.7172601091
 10
19.5510276261
 20
-19.7167794623
 10
19.5431590932
 20
-19.7155091116
 10
19.5356488689
 20
-19.7134382893
 10
19.5284901498
 20
-19.710577763
 10
19.521769908
 20
-19.706974331
 10
19.5154952901
 20
-19.7026202696
 10
19.5141579201
 20
-19.7015491436
  0
LWPOLYLINE
  5
288
100
AcDbEntity
  8
0
100
AcDbPolyline
 62
7
  6
CONTINUOUS
 90
14
 70
0
 10
21.2258269689
 20
-20.0675736416
 10
21.1597271024
 20
-20.1024069531
 10
21.0903787237
 20
-20.1323574284
 10
21.0179310111
 20
-20.1572145135
 10
20.942519189
 20
-20.1767905418
 10
20.8643399547
 20
-20.1909007545
 10
20.7836406001
 20
-20.1993842387
 10
20.7004567342
 20
-20.2021180874
 10
20.6150915599
 20
-20.1989751255
 10
20.5282010682
 20
-20.1899259796
 10
20.4401870463
 20
-20.1750265223
 10
20.3510113948
 20
-20.1542802651
 10
20.2606740442
 20
-20.1276558615
 10
20.2426332872
 20
-20.121676382
  0
LWPOLYLINE
  5
289
100
AcDbEntity
  8
0
100
AcDbPolyline
 62
7
  6
CONTINUOUS
 90
34
 70
0
 10
39.615418237
 20
2.7228379893
 10
39.7333267235
 20
2.6515053327
 10
39.850996031
 20
2.573847047
 10
39.9678686712
 20
2.4902508238
 10
40.0839392382
 20
2.4006763698
 10
40.1992131379
 20
2.3051639783
 10
40.312909921
 20
2.2043603055
 10
40.4250188854
 20
2.0982294463
 10
40.5355507332
 20
1.9868073058
 10
40.6437571204
 20
1.8708482555
 10
40.7496222672
 20
1.7503215092
 10
40.8531619533
 20
1.6252578532
 10
40.9536751747
 20
1.4965040173
 10
41.0511413946
 20
1.3640349611
 10
41.1455811497
 20
1.2278757249
 10
41.2363550459
 20
1.0889481602
 10
41.3234382078
 20
0.9472334819
 10
41.4068555108
 20
0.802750475
 10
41.4860421871
 20
0.6564773461
 10
41.560969529
 20
0.5084019479
 10
41.6316662441
 20
0.3585364277
 10
41.6976536881
 20
0.2078954336
 10
41.7588999053
 20
0.0564737037
 10
41.8154368514
 20
-0.0957235001
 10
41.866881749
 20
-0.2476657431
 10
41.9132000452
 20
-0.3993512951
 10
41.9544262929
 20
-0.5507818862
 10
41.9902813745
 20
-0.7009322722
 10
42.0207288427
 20
-0.8497937658
 10
42.0458051446
 20
-0.9973750542
 10
42.065340504
 20
-1.1426769543
 10
42.0792783286
 20
-1.285366405
 10
42.0876752107
 20
-1.4257764674
 10
42.0905311501
 20
-1.5639071416
  0
LWPOLYLINE
  5
28A
100
AcDbEntity
  8
ASSI
100
AcDbPolyline
 62
7
  6
CONTINUOUS
 90
14
 70
0
 10
29.9106168442
 20
-19.5153677413
 10
29.9088876999
 20
-19.5775897739
 10
29.9038711013
 20
-19.6372040942
 10
29.8955670483
 20
-19.6942107024
 10
29.8839192427
 20
-19.7488055636
 10
29.8689839828
 20
-19.8007927127
 10
29.8509301636
 20
-19.849584254
 10
29.8297223855
 20
-19.8951439134
 10
29.8053960481
 20
-19.937507965
 10
29.7782262454
 20
-19.976197336
 10
29.7481807003
 20
-20.011170314
 10
29.7152916898
 20
-20.0424686114
 10
29.6799311386
 20
-20.0697382919
 10
29.651753982
 20
-20.0875222058
  0
LWPOLYLINE
  5
28B
100
AcDbEntity
  8
0
100
AcDbPolyline
 62
7
  6
CONTINUOUS
 90
17
 70
0
 10
30.0873935395
 20
-19.6174363897
 10
30.0671934313
 20
-19.8436529621
 10
30.0073625225
 20
-20.037926437
 10
29.910179754
 20
-20.192856998
 10
29.7767333677
 20
-20.304062604
 10
29.6167739708
 20
-20.3634177284
 10
29.4343401107
 20
-20.3710320768
 10
29.2363806363
 20
-20.326615621
 10
29.0267333677
 20
-20.2297299149
 10
28.8207167274
 20
-20.0874541644
 10
28.6225471969
 20
-19.9039490042
 10
28.439772992
 20
-19.686204089
 10
28.2767333677
 20
-19.4379814034
 10
28.1453412378
 20
-19.177417983
 10
28.0475210602
 20
-18.9102881485
 10
27.9869987752
 20
-18.646766792
 10
27.9660731959
 20
-18.3926125026
  0
LWPOLYLINE
  5
28C
100
AcDbEntity
  8
ASSI
100
AcDbPolyline
 62
7
  6
CONTINUOUS
 90
40
 70
0
 10
29.651753982
 20
-20.0875222058
 10
29.6420709915
 20
-20.0929336257
 10
29.6017393037
 20
-20.1121003428
 10
29.5593921652
 20
-20.1270216966
 10
29.515006698
 20
-20.137649497
 10
29.4686057801
 20
-20.1440319341
 10
29.4207141352
 20
-20.1460968324
 10
29.3713148418
 20
-20.1437951823
 10
29.3204248214
 20
-20.1371759934
 10
29.2686195628
 20
-20.1263141185
 10
29.2158886768
 20
-20.1111613979
 10
29.1622425525
 20
-20.0917659914
 10
29.108287846
 20
-20.0683472315
 10
29.0540210546
 20
-20.0408594481
 10
28.9994456809
 20
-20.0093483113
 10
28.9451788894
 20
-19.9741701642
 10
28.8912241829
 20
-19.9352833815
 10
28.8375780587
 20
-19.8927295884
 10
28.7848471727
 20
-19.8469900036
 10
28.733041914
 20
-19.7980284643
 10
28.6821518936
 20
-19.7458811333
 10
28.6327526002
 20
-19.6911377176
 10
28.5848609553
 20
-19.6337687483
 10
28.5384600374
 20
-19.5738036942
 10
28.4940745703
 20
-19.5119206689
 10
28.4517274317
 20
-19.4480979009
 10
28.4113957439
 20
-19.3823571617
 10
28.3735355968
 20
-19.3154418791
 10
28.3381750456
 20
-19.2473387203
 10
28.3052860351
 20
-19.1780610181
 10
28.27524049
 20
-19.1083921977
 10
28.2480706873
 20
-19.0383278195
 10
28.2237443499
 20
-18.9678723233
 10
28.2025365719
 20
-18.8978224533
 10
28.1844827526
 20
-18.8281828141
 10
28.1695474927
 20
-18.7589488013
 10
28.1578996871
 20
-18.6909033461
 10
28.1495956341
 20
-18.6243074257
 10
28.1445790355
 20
-18.558900063
 10
28.1428498912
 20
-18.494681258
  0
LWPOLYLINE
  5
28D
100
AcDbEntity
  8
0
100
AcDbPolyline
 62
7
  6
CONTINUOUS
 90
34
 70
0
 10
37.1407836818
 20
1.2940150117
 10
37.1436396213
 20
1.4288477186
 10
37.1520365033
 20
1.5595612721
 10
37.165974328
 20
1.6861556723
 10
37.1855096873
 20
1.808898629
 10
37.2105859893
 20
1.9275224325
 10
37.2410334575
 20
2.041223953
 10
37.276888539
 20
2.1499697896
 10
37.3181147868
 20
2.2537933432
 10
37.3644330829
 20
2.3519916878
 10
37.4158779806
 20
2.4445266524
 10
37.4724149266
 20
2.5314364081
 10
37.5336611438
 20
2.6121325417
 10
37.5996485878
 20
2.6865728894
 10
37.670345303
 20
2.754799615
 10
37.7452726448
 20
2.816350797
 10
37.8244593211
 20
2.871181137
 10
37.9078766241
 20
2.9193359333
 10
37.994959786
 20
2.9604891591
 10
38.0857336822
 20
2.9945933038
 10
38.1801734373
 20
3.0216958779
 10
38.2776396572
 20
3.0416133865
 10
38.3781528786
 20
3.0542970738
 10
38.4816925648
 20
3.0597956956
 10
38.5875577115
 20
3.0580720239
 10
38.6957640987
 20
3.0490770506
 10
38.8062959465
 20
3.0328597838
 10
38.918404911
 20
3.009530021
 10
39.032101694
 20
2.9790394987
 10
39.1473755938
 20
2.9414364802
 10
39.2634461608
 20
2.8969755528
 10
39.380318801
 20
2.8456101807
 10
39.4979881085
 20
2.7873868996
 10
39.615418237
 20
2.7228379893
  0
LWPOLYLINE
  5
28E
100
AcDbEntity
  8
0
100
AcDbPolyline
 62
7
  6
CONTINUOUS
 90
34
 70
0
 10
37.1407836818
 20
-45.4897318485
 10
37.1436396213
 20
-45.3548991417
 10
37.1520365033
 20
-45.2241855882
 10
37.165974328
 20
-45.097591188
 10
37.1855096873
 20
-44.9748482312
 10
37.2105859893
 20
-44.8562244278
 10
37.2410334575
 20
-44.7425229072
 10
37.276888539
 20
-44.6337770707
 10
37.3181147868
 20
-44.5299535171
 10
37.3644330829
 20
-44.4317551724
 10
37.4158779806
 20
-44.3392202078
 10
37.4724149266
 20
-44.2523104522
 10
37.5336611438
 20
-44.1716143186
 10
37.5996485878
 20
-44.0971739708
 10
37.670345303
 20
-44.0289472452
 10
37.7452726448
 20
-43.9673960632
 10
37.8244593211
 20
-43.9125657232
 10
37.9078766241
 20
-43.8644109269
 10
37.994959786
 20
-43.8232577011
 10
38.0857336822
 20
-43.7891535565
 10
38.1801734373
 20
-43.7620509823
 10
38.2776396572
 20
-43.7421334737
 10
38.3781528786
 20
-43.7294497864
 10
38.4816925648
 20
-43.7239511647
 10
38.5875577115
 20
-43.7256748363
 10
38.6957640987
 20
-43.7346698097
 10
38.8062959465
 20
-43.7508870764
 10
38.918404911
 20
-43.7742168393
 10
39.032101694
 20
-43.8047073616
 10
39.1473755938
 20
-43.84231038
 10
39.2634461608
 20
-43.8867713074
 10
39.380318801
 20
-43.9381366796
 10
39.4979881085
 20
-43.9963599607
 10
39.615418237
 20
-44.060908871
  0
LWPOLYLINE
  5
28F
100
AcDbEntity
  8
0
100
AcDbPolyline
 62
7
  6
CONTINUOUS
 90
67
 70
0
 10
42.0905311501
 20
-1.5639071416
 10
42.0876752107
 20
-1.6987398484
 10
42.0792783286
 20
-1.8294534019
 10
42.065340504
 20
-1.9560478021
 10
42.0458051446
 20
-2.0787907588
 10
42.0207288427
 20
-2.1974145623
 10
41.9902813745
 20
-2.3111160828
 10
41.9544262929
 20
-2.4198619194
 10
41.9132000452
 20
-2.523685473
 10
41.866881749
 20
-2.6218838176
 10
41.8154368514
 20
-2.7144187822
 10
41.7588999053
 20
-2.8013285379
 10
41.6976536881
 20
-2.8820246715
 10
41.6316662441
 20
-2.9564650192
 10
41.560969529
 20
-3.0246917448
 10
41.4860421871
 20
-3.0862429268
 10
41.4068555108
 20
-3.1410732668
 10
41.3234382078
 20
-3.1892280631
 10
41.2363550459
 20
-3.2303812889
 10
41.1455811497
 20
-3.2644854336
 10
41.0511413946
 20
-3.2915880077
 10
40.9536751747
 20
-3.3115055163
 10
40.8531619533
 20
-3.3241892036
 10
40.7496222672
 20
-3.3296878254
 10
40.6437571204
 20
-3.3279641537
 10
40.5355507332
 20
-3.3189691804
 10
40.4250188854
 20
-3.3027519136
 10
40.312909921
 20
-3.2794221508
 10
40.1992131379
 20
-3.2489316285
 10
40.0839392382
 20
-3.21132861
 10
39.9678686712
 20
-3.1668676826
 10
39.850996031
 20
-3.1155023105
 10
39.7333267235
 20
-3.0572790294
 10
39.615657416
 20
-2.9925920337
 10
39.4979881085
 20
-2.9213974626
 10
39.380318801
 20
-2.8437391769
 10
39.2634461608
 20
-2.7601429536
 10
39.1473755938
 20
-2.6705684996
 10
39.032101694
 20
-2.5750561081
 10
38.918404911
 20
-2.4742524353
 10
38.8062959465
 20
-2.3681215761
 10
38.6957640987
 20
-2.2566994356
 10
38.5875577115
 20
-2.1407403853
 10
38.4816925648
 20
-2.020213639
 10
38.3781528786
 20
-1.895149983
 10
38.2776396572
 20
-1.7663961471
 10
38.1801734373
 20
-1.6339270909
 10
38.0857336822
 20
-1.4977678547
 10
37.994959786
 20
-1.35884029
 10
37.9078766241
 20
-1.2171256117
 10
37.8244593211
 20
-1.0726426048
 10
37.7452726448
 20
-0.9263694759
 10
37.670345303
 20
-0.7782940777
 10
37.5996485878
 20
-0.6284285575
 10
37.5336611438
 20
-0.4777875635
 10
37.4724149266
 20
-0.3263658335
 10
37.4158779806
 20
-0.1741686297
 10
37.3644330829
 20
-0.0222263867
 10
37.3181147868
 20
0.1294591653
 10
37.276888539
 20
0.2808897564
 10
37.2410334575
 20
0.4310401424
 10
37.2105859893
 20
0.579901636
 10
37.1855096873
 20
0.7274829244
 10
37.165974328
 20
0.8727848245
 10
37.1520365033
 20
1.0154742752
 10
37.1436396213
 20
1.1558843376
 10
37.1407836818
 20
1.2940150117
  0
LWPOLYLINE
  5
290
100
AcDbEntity
  8
0
100
AcDbPolyline
 62
7
  6
CONTINUOUS
 90
67
 70
0
 10
42.0905311501
 20
-48.3476540018
 10
42.0876752107
 20
-48.4824867086
 10
42.0792783286
 20
-48.6132002621
 10
42.065340504
 20
-48.7397946623
 10
42.0458051446
 20
-48.8625376191
 10
42.0207288427
 20
-48.9811614225
 10
41.9902813745
 20
-49.0948629431
 10
41.9544262929
 20
-49.2036087796
 10
41.9132000452
 20
-49.3074323332
 10
41.866881749
 20
-49.4056306778
 10
41.8154368514
 20
-49.4981656425
 10
41.7588999053
 20
-49.5850753981
 10
41.6976536881
 20
-49.6657715317
 10
41.6316662441
 20
-49.7402118794
 10
41.560969529
 20
-49.8084386051
 10
41.4860421871
 20
-49.869989787
 10
41.4068555108
 20
-49.924820127
 10
41.3234382078
 20
-49.9729749233
 10
41.2363550459
 20
-50.0141281491
 10
41.1455811497
 20
-50.0482322938
 10
41.0511413946
 20
-50.0753348679
 10
40.9536751747
 20
-50.0952523765
 10
40.8531619533
 20
-50.1079360638
 10
40.7496222672
 20
-50.1134346856
 10
40.6437571204
 20
-50.111711014
 10
40.5355507332
 20
-50.1027160406
 10
40.4250188854
 20
-50.0864987739
 10
40.312909921
 20
-50.063169011
 10
40.1992131379
 20
-50.0326784887
 10
40.0839392382
 20
-49.9950754703
 10
39.9678686712
 20
-49.9506145429
 10
39.850996031
 20
-49.8992491707
 10
39.7333267235
 20
-49.8410258896
 10
39.615657416
 20
-49.7763388939
 10
39.4979881085
 20
-49.7051443228
 10
39.380318801
 20
-49.6274860371
 10
39.2634461608
 20
-49.5438898138
 10
39.1473755938
 20
-49.4543153599
 10
39.032101694
 20
-49.3588029683
 10
38.918404911
 20
-49.2579992955
 10
38.8062959465
 20
-49.1518684363
 10
38.6957640987
 20
-49.0404462958
 10
38.5875577115
 20
-48.9244872455
 10
38.4816925648
 20
-48.8039604993
 10
38.3781528786
 20
-48.6788968433
 10
38.2776396572
 20
-48.5501430074
 10
38.1801734373
 20
-48.4176739511
 10
38.0857336822
 20
-48.281514715
 10
37.994959786
 20
-48.1425871503
 10
37.9078766241
 20
-48.0008724719
 10
37.8244593211
 20
-47.8563894651
 10
37.7452726448
 20
-47.7101163362
 10
37.670345303
 20
-47.562040938
 10
37.5996485878
 20
-47.4121754177
 10
37.5336611438
 20
-47.2615344237
 10
37.4724149266
 20
-47.1101126937
 10
37.4158779806
 20
-46.9579154899
 10
37.3644330829
 20
-46.805973247
 10
37.3181147868
 20
-46.654287695
 10
37.276888539
 20
-46.5028571038
 10
37.2410334575
 20
-46.3527067179
 10
37.2105859893
 20
-46.2038452242
 10
37.1855096873
 20
-46.0562639358
 10
37.165974328
 20
-45.9109620357
 10
37.1520365033
 20
-45.768272585
 10
37.1436396213
 20
-45.6278625226
 10
37.1407836818
 20
-45.4897318485
  0
LWPOLYLINE
  5
291
100
AcDbEntity
  8
0
100
AcDbPolyline
 62
7
  6
CONTINUOUS
 90
25
 70
0
 10
39.2621040254
 20
1.2940150117
 10
39.2640862521
 20
1.3787187798
 10
39.269890024
 20
1.4605171486
 10
39.2795153411
 20
1.5394101182
 10
39.2930094485
 20
1.6155976359
 10
39.3103251011
 20
1.6888797544
 10
39.3313205638
 20
1.7586566318
 10
39.3560260396
 20
1.8248994979
 10
39.3844113255
 20
1.8876371229
 10
39.4162440771
 20
1.9463559757
 10
39.4515525905
 20
2.001023071
 10
39.4903085696
 20
2.051671394
 10
39.5321947821
 20
2.0978863691
 10
39.5772369203
 20
2.1396316083
 10
39.6254092919
 20
2.1769434995
 10
39.6763175878
 20
2.2095166309
 10
39.7299842638
 20
2.2373121076
 10
39.7863868642
 20
2.2603688245
 10
39.8450637122
 20
2.2784980534
 10
39.9060334744
 20
2.2916593508
 10
39.9692774844
 20
2.2998931604
 10
40.0342780658
 20
2.3031320853
 10
40.1010496364
 20
2.3013351285
 10
40.1695777785
 20
2.2945432871
 10
40.2209391742
 20
2.2859016545
  0
LWPOLYLINE
  5
292
100
AcDbEntity
  8
0
100
AcDbPolyline
 62
7
  6
CONTINUOUS
 90
25
 70
0
 10
39.2621040254
 20
-45.4897318485
 10
39.2640862521
 20
-45.4050280805
 10
39.269890024
 20
-45.3232297116
 10
39.2795153411
 20
-45.244336742
 10
39.2930094485
 20
-45.1681492243
 10
39.3103251011
 20
-45.0948671058
 10
39.3313205638
 20
-45.0250902284
 10
39.3560260396
 20
-44.9588473623
 10
39.3844113255
 20
-44.8961097373
 10
39.4162440771
 20
-44.8373908845
 10
39.4515525905
 20
-44.7827237892
 10
39.4903085696
 20
-44.7320754662
 10
39.5321947821
 20
-44.6858604911
 10
39.5772369203
 20
-44.6441152519
 10
39.6254092919
 20
-44.6068033607
 10
39.6763175878
 20
-44.5742302294
 10
39.7299842638
 20
-44.5464347526
 10
39.7863868642
 20
-44.5233780358
 10
39.8450637122
 20
-44.5052488068
 10
39.9060334744
 20
-44.4920875094
 10
39.9692774844
 20
-44.4838536998
 10
40.0342780658
 20
-44.480614775
 10
40.1010496364
 20
-44.4824117317
 10
40.1695777785
 20
-44.4892035732
 10
40.2209391742
 20
-44.4978452057
  0
LWPOLYLINE
  5
293
100
AcDbEntity
  8
0
100
AcDbPolyline
 62
7
  6
CONTINUOUS
 90
55
 70
0
 10
42.0148509508
 20
-0.8210560148
 10
41.9966091359
 20
-0.8699678477
 10
41.96822385
 20
-0.9327054728
 10
41.9363910984
 20
-0.9914243255
 10
41.9010825851
 20
-1.0460914208
 10
41.8623266059
 20
-1.0967397439
 10
41.8204403934
 20
-1.1429547189
 10
41.7753982552
 20
-1.1846999581
 10
41.7272258836
 20
-1.2220118494
 10
41.6763175878
 20
-1.2545849807
 10
41.6226509117
 20
-1.2823804574
 10
41.5662483114
 20
-1.3054371743
 10
41.5075714633
 20
-1.3235664033
 10
41.4466017011
 20
-1.3367277007
 10
41.3833576911
 20
-1.3449615102
 10
41.3183571097
 20
-1.3482004351
 10
41.2515855391
 20
-1.3464034783
 10
41.1830573971
 20
-1.3396116369
 10
41.1133336122
 20
-1.3278805045
 10
41.042404371
 20
-1.3111695407
 10
40.9702794871
 20
-1.2895192859
 10
40.8975493298
 20
-1.2631069558
 10
40.8242089313
 20
-1.2318934642
 10
40.7502632596
 20
-1.1959178972
 10
40.6763175878
 20
-1.1554747285
 10
40.602371916
 20
-1.1105272889
 10
40.5284262442
 20
-1.0611122476
 10
40.4550858457
 20
-1.0076340854
 10
40.3823556884
 20
-0.950059453
 10
40.3102308045
 20
-0.8884216997
 10
40.2393015633
 20
-0.8232253537
 10
40.1695777785
 20
-0.754441207
 10
40.1010496364
 20
-0.6820984677
 10
40.0342780658
 20
-0.6067892885
 10
39.9692774844
 20
-0.5284893214
 10
39.9060334744
 20
-0.4472229145
 10
39.8450637122
 20
-0.3636552639
 10
39.7863868642
 20
-0.2777674816
 10
39.7299842638
 20
-0.1895784556
 10
39.6763175878
 20
-0.0998100466
 10
39.6254092919
 20
-0.0084492912
 10
39.5772369203
 20
0.0844908472
 10
39.5321947821
 20
0.1782496186
 10
39.4903085696
 20
0.272833742
 10
39.4515525905
 20
0.3682364982
 10
39.4162440771
 20
0.4636769798
 10
39.3844113255
 20
0.5591554961
 10
39.3560260396
 20
0.6546717378
 10
39.3313205638
 20
0.7494438681
 10
39.3103251011
 20
0.8434657795
 10
39.2930094485
 20
0.9367435796
 10
39.2795153411
 20
1.0285137543
 10
39.269890024
 20
1.1185217989
 10
39.2640862521
 20
1.207022218
 10
39.2621040254
 20
1.2940150117
  0
LINE
  5
294
100
AcDbEntity
  8
RACCORDO
100
AcDbLine
 62
250
  6
CONTINUOUS
 10
12.9046987567
 20
-37.660470752
 11
13.9653589284
 21
-37.048058862
  0
LWPOLYLINE
  5
295
100
AcDbEntity
  8
RACCORDO
100
AcDbPolyline
 62
7
  6
CONTINUOUS
 90
22
 70
0
 10
16.9048920377
 20
-38.0568001733
 10
16.7523979054
 20
-38.138350732
 10
16.5945079073
 20
-38.2101090171
 10
16.4316896918
 20
-38.2718862352
 10
16.2639226004
 20
-38.3236405468
 10
16.0912272915
 20
-38.3654137914
 10
15.9143266696
 20
-38.3970311055
 10
15.7332031065
 20
-38.418449917
 10
15.5478742304
 20
-38.4297127982
 10
15.3591158301
 20
-38.4307726024
 10
15.1669135293
 20
-38.4215865598
 10
14.9712817042
 20
-38.4021974403
 10
14.7730392718
 20
-38.3726864069
 10
14.5721752887
 20
-38.33301103
 10
14.3687006984
 20
-38.2832137393
 10
14.1634672475
 20
-38.2235029867
 10
13.9564675633
 20
-38.1538372164
 10
13.7477090186
 20
-38.0742579842
 10
13.5380654791
 20
-37.9850984097
 10
13.3278282332
 20
-37.8864695328
 10
13.1167059924
 20
-37.7782603135
 10
12.9046987567
 20
-37.660470752
  0
LWPOLYLINE
  5
296
100
AcDbEntity
  8
RACCORDO
100
AcDbPolyline
 62
7
  6
CONTINUOUS
 90
46
 70
0
 10
52.5026785031
 20
26.2261189309
 10
52.498327342
 20
26.51415146
 10
52.4854153256
 20
26.8060879743
 10
52.4639424538
 20
27.1019284737
 10
52.4338617432
 20
27.4020426067
 10
52.3952201773
 20
27.7060607248
 10
52.348158706
 20
28.0128738827
 10
52.2926465795
 20
28.3224922879
 10
52.2287145476
 20
28.634905733
 10
52.1565958109
 20
28.9489746493
 10
52.0762604708
 20
29.2647050828
 10
51.9877384258
 20
29.5820909877
 10
51.8913525714
 20
29.8999746577
 10
51.7870741886
 20
30.2183579108
 10
51.6749319965
 20
30.537238929
 10
51.5553350482
 20
30.8554545527
 10
51.4282561184
 20
31.1730023518
 10
51.2937224325
 20
31.4898847564
 10
51.1522247194
 20
31.8049458968
 10
51.0037375461
 20
32.1181791218
 10
50.8482863455
 20
32.4295910826
 10
50.6864381462
 20
32.738045864
 10
50.5181695858
 20
33.0435326661
 10
50.3435040266
 20
33.3460622886
 10
50.1630785838
 20
33.6445312158
 10
49.9768722219
 20
33.9389246176
 10
49.7849059764
 20
34.2292573241
 10
49.587880069
 20
34.514470309
 10
49.3857760215
 20
34.7945448749
 10
49.1786123121
 20
35.0694997193
 10
48.9671445972
 20
35.3383319089
 10
48.7513571583
 20
35.6010190833
 10
48.5312657139
 20
35.8575836029
 10
48.307673076
 20
36.1070896154
 10
48.080566458
 20
36.3495113427
 10
47.8499586466
 20
36.5848745628
 10
47.6166908135
 20
36.8123207582
 10
47.3807532441
 20
37.0318210151
 10
47.1421556531
 20
37.2434042472
 10
46.9017683559
 20
37.4462986772
 10
46.6595848165
 20
37.640472573
 10
46.415611571
 20
37.8259576669
 10
46.1707385433
 20
38.0020773778
 10
45.9252623748
 20
38.1686061788
 10
45.6788864241
 20
38.3257695969
 10
45.4316106912
 20
38.4735676321
  0
LINE
  5
297
100
AcDbEntity
  8
RACCORDO
100
AcDbLine
 62
7
  6
CONTINUOUS
 10
52.5026785031
 20
-88.0797198201
 11
52.5026785031
 21
26.2261189309
  0
LINE
  5
298
100
AcDbEntity
  8
RACCORDO
100
AcDbLine
 62
7
  6
CONTINUOUS
 10
53.5633386749
 20
-87.4673079301
 11
53.5633386749
 21
26.8385308209
  0
LWPOLYLINE
  5
299
100
AcDbEntity
  8
RACCORDO
100
AcDbPolyline
 62
7
  6
CONTINUOUS
 90
24
 70
0
 10
53.5633386749
 20
-87.4673079301
 10
53.5589875138
 20
-87.7503158475
 10
53.5460754974
 20
-88.0273418888
 10
53.5246026255
 20
-88.298386054
 10
53.494521915
 20
-88.5637637365
 10
53.455880349
 20
-88.8231595428
 10
53.4088188778
 20
-89.0756272933
 10
53.3533067512
 20
-89.3211416863
 10
53.2893747194
 20
-89.5597280235
 10
53.2172559827
 20
-89.7905160303
 10
53.1369206426
 20
-90.0134772268
 10
53.0483985976
 20
-90.2286400929
 10
52.9520127432
 20
-90.4352197944
 10
52.8477343604
 20
-90.6331849848
 10
52.7355921683
 20
-90.8225670106
 10
52.61599522
 20
-91.0026750762
 10
52.4889162902
 20
-91.1734753125
 10
52.3543826043
 20
-91.3350015888
 10
52.2128848912
 20
-91.4866647169
 10
52.0643977178
 20
-91.628428676
 10
51.9089465173
 20
-91.760329487
 10
51.747098318
 20
-91.8818860247
 10
51.5788297576
 20
-91.993060511
 10
51.4924983839
 20
-92.0446521549
  0
LWPOLYLINE
  5
29A
100
AcDbEntity
  8
0
100
AcDbPolyline
 62
7
  6
CONTINUOUS
 90
55
 70
0
 10
42.0148509508
 20
-47.604802875
 10
41.9966091359
 20
-47.653714708
 10
41.96822385
 20
-47.716452333
 10
41.9363910984
 20
-47.7751711857
 10
41.9010825851
 20
-47.829838281
 10
41.8623266059
 20
-47.8804866041
 10
41.8204403934
 20
-47.9267015792
 10
41.7753982552
 20
-47.9684468184
 10
41.7272258836
 20
-48.0057587096
 10
41.6763175878
 20
-48.0383318409
 10
41.6226509117
 20
-48.0661273177
 10
41.5662483114
 20
-48.0891840345
 10
41.5075714633
 20
-48.1073132635
 10
41.4466017011
 20
-48.1204745609
 10
41.3833576911
 20
-48.1287083705
 10
41.3183571097
 20
-48.1319472953
 10
41.2515855391
 20
-48.1301503386
 10
41.1830573971
 20
-48.1233584971
 10
41.1133336122
 20
-48.1116273648
 10
41.042404371
 20
-48.0949164009
 10
40.9702794871
 20
-48.0732661462
 10
40.8975493298
 20
-48.046853816
 10
40.8242089313
 20
-48.0156403244
 10
40.7502632596
 20
-47.9796647575
 10
40.6763175878
 20
-47.9392215887
 10
40.602371916
 20
-47.8942741492
 10
40.5284262442
 20
-47.8448591079
 10
40.4550858457
 20
-47.7913809456
 10
40.3823556884
 20
-47.7338063132
 10
40.3102308045
 20
-47.6721685599
 10
40.2393015633
 20
-47.6069722139
 10
40.1695777785
 20
-47.5381880672
 10
40.1010496364
 20
-47.4658453279
 10
40.0342780658
 20
-47.3905361487
 10
39.9692774844
 20
-47.3122361817
 10
39.9060334744
 20
-47.2309697747
 10
39.8450637122
 20
-47.1474021241
 10
39.7863868642
 20
-47.0615143418
 10
39.7299842638
 20
-46.9733253158
 10
39.6763175878
 20
-46.8835569068
 10
39.6254092919
 20
-46.7921961514
 10
39.5772369203
 20
-46.699256013
 10
39.5321947821
 20
-46.6054972417
 10
39.4903085696
 20
-46.5109131183
 10
39.4515525905
 20
-46.415510362
 10
39.4162440771
 20
-46.3200698805
 10
39.3844113255
 20
-46.2245913641
 10
39.3560260396
 20
-46.1290751224
 10
39.3313205638
 20
-46.0343029922
 10
39.3103251011
 20
-45.9402810807
 10
39.2930094485
 20
-45.8470032806
 10
39.2795153411
 20
-45.7552331059
 10
39.269890024
 20
-45.6652250613
 10
39.2640862521
 20
-45.5767246422
 10
39.2621040254
 20
-45.4897318485
  0
LWPOLYLINE
  5
29B
100
AcDbEntity
  8
RACCORDO
100
AcDbPolyline
 62
7
  6
CONTINUOUS
 90
24
 70
0
 10
-46.492270863
 20
91.5492647647
 10
-46.7395465959
 20
91.6870145476
 10
-46.9859225465
 20
91.8143599017
 10
-47.2313987151
 20
91.931300827
 10
-47.4762717427
 20
92.0379543505
 10
-47.7202449883
 20
92.1342034452
 10
-47.9624285277
 20
92.2196970301
 10
-48.2028158248
 20
92.2943958253
 10
-48.4414134159
 20
92.3583391108
 10
-48.6773509853
 20
92.411293645
 10
-48.9106188184
 20
92.4532192963
 10
-49.1412266298
 20
92.4841561963
 10
-49.3683332478
 20
92.5039914989
 10
-49.5919258856
 20
92.5126846601
 10
-49.81201733
 20
92.5102762237
 10
-50.0278047689
 20
92.4967749748
 10
-50.2392724838
 20
92.4721404018
 10
-50.4464361933
 20
92.4364130162
 10
-50.6485402408
 20
92.3897231385
 10
-50.8455661482
 20
92.3320307328
 10
-51.0375323937
 20
92.2633758348
 10
-51.2237387556
 20
92.1840088723
 10
-51.4041641984
 20
92.0938907239
 10
-51.4924983839
 20
92.0446521549
  0
LINE
  5
29C
100
AcDbEntity
  8
RACCORDO
100
AcDbLine
 62
7
  6
CONTINUOUS
 10
45.4316106912
 20
38.4735676321
 11
-46.492270863
 21
91.5492647647
  0
LINE
  5
29D
100
AcDbEntity
  8
RACCORDO
100
AcDbLine
 62
7
  6
CONTINUOUS
 10
46.492270863
 20
39.0859795221
 11
-45.4316106912
 21
92.1616766547
  0
LWPOLYLINE
  5
29E
100
AcDbEntity
  8
RACCORDO
100
AcDbPolyline
 62
7
  6
CONTINUOUS
 90
46
 70
0
 10
46.492270863
 20
39.0859795221
 10
46.7395465959
 20
38.9381814869
 10
46.9859225465
 20
38.7810180688
 10
47.2313987151
 20
38.6144892678
 10
47.4762717427
 20
38.4383695569
 10
47.7202449883
 20
38.252884463
 10
47.9624285277
 20
38.0587105672
 10
48.2028158248
 20
37.8558161372
 10
48.4414134159
 20
37.6442329051
 10
48.6773509853
 20
37.4247326481
 10
48.9106188184
 20
37.1972864528
 10
49.1412266298
 20
36.9619232327
 10
49.3683332478
 20
36.7195015054
 10
49.5919258856
 20
36.4699954929
 10
49.81201733
 20
36.2134309733
 10
50.0278047689
 20
35.9507437989
 10
50.2392724838
 20
35.6819116093
 10
50.4464361933
 20
35.4069567649
 10
50.6485402408
 20
35.126882199
 10
50.8455661482
 20
34.8416692141
 10
51.0375323937
 20
34.5513365076
 10
51.2237387556
 20
34.2569431058
 10
51.4041641984
 20
33.9584741786
 10
51.5788297576
 20
33.655944556
 10
51.747098318
 20
33.350457754
 10
51.9089465173
 20
33.0420029726
 10
52.0643977178
 20
32.7305910117
 10
52.2128848912
 20
32.4173577868
 10
52.3543826043
 20
32.1022966464
 10
52.4889162902
 20
31.7854142418
 10
52.61599522
 20
31.4678664427
 10
52.7355921683
 20
31.149650819
 10
52.8477343604
 20
30.8307698008
 10
52.9520127432
 20
30.5123865477
 10
53.0483985976
 20
30.1945028777
 10
53.1369206426
 20
29.8771169728
 10
53.2172559827
 20
29.5613865393
 10
53.2893747194
 20
29.247317623
 10
53.3533067512
 20
28.9349041779
 10
53.4088188778
 20
28.6252857727
 10
53.455880349
 20
28.3184726148
 10
53.494521915
 20
28.0144544967
 10
53.5246026255
 20
27.7143403637
 10
53.5460754974
 20
27.4184998643
 10
53.5589875138
 20
27.12656335
 10
53.5633386749
 20
26.8385308209
  0
LWPOLYLINE
  5
29F
100
AcDbEntity
  8
RACCORDO
100
AcDbPolyline
 62
7
  6
CONTINUOUS
 90
24
 70
0
 10
50.4318382121
 20
-92.6570640449
 10
50.5181695858
 20
-92.605472401
 10
50.6864381462
 20
-92.4942979147
 10
50.8482863455
 20
-92.372741377
 10
51.0037375461
 20
-92.240840566
 10
51.1522247194
 20
-92.0990766069
 10
51.2937224325
 20
-91.9474134787
 10
51.4282561184
 20
-91.7858872025
 10
51.5553350482
 20
-91.6150869662
 10
51.6749319965
 20
-91.4349789006
 10
51.7870741886
 20
-91.2455968748
 10
51.8913525714
 20
-91.0476316844
 10
51.9877384258
 20
-90.8410519829
 10
52.0762604708
 20
-90.6258891168
 10
52.1565958109
 20
-90.4029279203
 10
52.2287145476
 20
-90.1721399135
 10
52.2926465795
 20
-89.9335535763
 10
52.348158706
 20
-89.6880391833
 10
52.3952201773
 20
-89.4355714328
 10
52.4338617432
 20
-89.1761756265
 10
52.4639424538
 20
-88.910797944
 10
52.4854153256
 20
-88.6397537788
 10
52.498327342
 20
-88.3627277375
 10
52.5026785031
 20
-88.0797198201
  0
LINE
  5
2A0
100
AcDbEntity
  8
RACCORDO
100
AcDbLine
 62
250
  6
CONTINUOUS
 10
52.5026785031
 20
-88.0797198201
 11
53.5633386749
 21
-87.4673079301
  0
LINE
  5
2A1
100
AcDbEntity
  8
RACCORDO
100
AcDbLine
 62
7
  6
CONTINUOUS
 10
50.4318522926
 20
-92.6570884315
 11
51.4925124644
 21
-92.0446765415
  0
ENDSEC
  0
SECTION
  2
OBJECTS
  0
DICTIONARY
  5
C
100
AcDbDictionary
280
0
281
1
  3
ACAD_GROUP
350
D
  3
ACAD_MLINESTYLE
350
17
  3
ACAD_LAYOUT
350
1A
  3
ACAD_PLOTSETTINGS
350
19
  3
ACAD_PLOTSTYLENAME
350
E
  0
DICTIONARY
  5
D
102
{ACAD_REACTORS
330
C
102
}
100
AcDbDictionary
280
0
281
1
  0
ACDBDICTIONARYWDFLT
  5
E
102
{ACAD_REACTORS
330
C
102
}
100
AcDbDictionary
281
1
  3
Normal
350
F
100
AcDbDictionaryWithDefault
340
F
  0
DICTIONARY
  5
17
102
{ACAD_REACTORS
330
C
102
}
100
AcDbDictionary
280
0
281
1
  3
Standard
350
18
  0
DICTIONARY
  5
19
102
{ACAD_REACTORS
330
C
102
}
100
AcDbDictionary
281
1
  0
DICTIONARY
  5
1A
102
{ACAD_REACTORS
330
C
102
}
100
AcDbDictionary
281
1
  3
Model
350
2A2
  3
Layout1
350
2A3
  0
ACDBPLACEHOLDER
  5
F
102
{ACAD_REACTORS
330
E
102
}
  0
MLINESTYLE
  5
18
102
{ACAD_REACTORS
330
17
102
}
100
AcDbMlineStyle
  2
STANDARD
 70
0
  3

 62
256
 51
90.0
 52
90.0
 71
2
 49
0.5
 62
256
  6
BYLAYER
 49
-0.5
 62
256
  6
BYLAYER
  0
LAYOUT
  5
2A2
102
{ACAD_REACTORS
330
1A
102
}
100
AcDbPlotSettings
  1

  2
none_device
  4
ISO_A4_(297.00_x_210.00_MM)
  6

 40
0.0
 41
0.0
 42
0.0
 43
0.0
 44
297.0
 45
210.0
 46
0.0
 47
0.0
 48
0.0
 49
0.0
140
0.0
141
0.0
142
1.0
143
1.0
 70
1024
 72
1
 73
0
 74
0
  7

 75
0
147
1.0
148
0.0
149
0.0
100
AcDbLayout
  1
Model
 70
0
 71
0
 10
0.0
 20
0.0
 11
297.0
 21
210.0
 12
0.0
 22
0.0
 32
0.0
 14
0.0
 24
0.0
 34
0.0
 15
0.0
 25
0.0
 35
0.0
146
0.0
 13
0.0
 23
0.0
 33
0.0
 16
1.0
 26
0.0
 36
0.0
 17
0.0
 27
1.0
 37
0.0
 76
0
330
212
345
0
346
0
  0
LAYOUT
  5
2A3
102
{ACAD_REACTORS
330
1A
102
}
100
AcDbPlotSettings
  1

  2
none_device
  4
ISO_A4_(297.00_x_210.00_MM)
  6

 40
0.0
 41
0.0
 42
0.0
 43
0.0
 44
297.0
 45
210.0
 46
0.0
 47
0.0
 48
0.0
 49
0.0
140
0.0
141
0.0
142
1.0
143
1.0
 70
0
 72
1
 73
0
 74
0
  7

 75
0
147
1.0
148
0.0
149
0.0
100
AcDbLayout
  1
Layout1
 70
0
 71
1
 10
0.0
 20
0.0
 11
297.0
 21
210.0
 12
0.0
 22
0.0
 32
0.0
 14
0.0
 24
0.0
 34
0.0
 15
0.0
 25
0.0
 35
0.0
146
0.0
 13
0.0
 23
0.0
 33
0.0
 16
1.0
 26
0.0
 36
0.0
 17
0.0
 27
1.0
 37
0.0
 76
0
330
213
345
0
346
0
  0
ENDSEC
  0
EOF
