  0
SECTION
  2
HEADER
  9
$ACADVER
  1
AC1024
  9
$DWGCODEPAGE
  3
ANSI_1252
  9
$EXTMAX
 10
297.0
 20
210.0
 30
0.0
  9
$EXTMIN
 10
0.0
 20
0.0
 30
0.0
  9
$LIMMIN
 10
0.0
 20
0.0
  9
$LIMMAX
 10
297.0
 20
210.0
  9
$VIEWCTR
 10
148.5
 20
105.0
  9
$VIEWSIZE
 40
210.0
  9
$CLAYER
  8
0
  9
$LTSCALE
 40
16.335
  9
$CELTYPE
  6
BYLAYER
  9
$DIMSCALE
 40
1.0
  9
$DIMASZ
 40
3.0
  9
$DIMEXO
 40
0.5
  9
$DIMDLI
 40
11.286
  9
$DIMEXE
 40
1.5
  9
$DIMCEN
 40
2.673
  9
$DIMLFAC
 40
1.0
  9
$DIMBLK
  1
_FILLED
  9
$DIMALT
 70
0
  9
$DIMALTF
 40
0.0393700787
  9
$DIMTXT
 40
3.0
  9
$DIMTOL
 70
1
  9
$DIMLIM
 70
0
  9
$DIMTFAC
 40
1.0
  9
$DIMTP
 40
0.01
  9
$DIMTM
 40
0.01
  9
$DIMGAP
 40
0.625
  9
$DIMDSEP
 70
44
  9
$AUNITS
 70
0
  9
$PDMODE
 70
3
  9
$PDSIZE
 40
3.0
  9
$HANDSEED
  5
315
  9
$TILEMODE
 70
1
  9
$MEASUREMENT
 70
1
  9
$INSUNITS
 70
4
  0
ENDSEC
  0
SECTION
  2
CLASSES
  0
CLASS
  1
ACDBDICTIONARYWDFLT
  2
AcDbDictionaryWithDefault
  3
AutoCAD 2000
 90
0
 91
1
280
0
281
0
  0
CLASS
  1
ACDBPLACEHOLDER
  2
AcDbPlaceHolder
  3
AutoCAD 2000
 90
0
 91
1
280
0
281
0
  0
CLASS
  1
LAYOUT
  2
AcDbLayout
  3
AutoCAD 2000
 90
0
 91
0
280
0
281
0
  0
ENDSEC
  0
SECTION
  2
TABLES
  0
TABLE
  2
VPORT
  5
8
100
AcDbSymbolTable
 70
2
  0
VPORT
  5
1F4
100
AcDbSymbolTableRecord
100
AcDbViewportTableRecord
  2
*ACTIVE
 70
0
 10
0.0
 20
0.0
 11
1.0
 21
1.0
 12
148.5
 22
105.0
 13
0.0
 23
0.0
 14
1.0
 24
1.0
 15
0.0
 25
0.0
 16
0.0
 26
0.0
 36
1.0
 17
0.0
 27
0.0
 37
0.0
 40
210.0
 41
1.4142857143
 42
50.0
 43
0.0
 44
0.0
 50
0.0
 51
0.0
 71
0
 72
100
 73
1
 74
1
 75
0
 76
0
 77
0
 78
0
  0
ENDTAB
  0
TABLE
  2
LTYPE
  5
5
100
AcDbSymbolTable
 70
6
  0
LTYPE
  5
14
100
AcDbSymbolTableRecord
100
AcDbLinetypeTableRecord
  2
BYBLOCK
 70
0
  3

 72
65
 73
0
 40
0.0
  0
LTYPE
  5
15
100
AcDbSymbolTableRecord
100
AcDbLinetypeTableRecord
  2
BYLAYER
 70
0
  3

 72
65
 73
0
 40
0.0
  0
LTYPE
  5
16
100
AcDbSymbolTableRecord
100
AcDbLinetypeTableRecord
  2
CONTINUOUS
 70
64
  3
Solid line
 72
65
 73
0
 40
0.0
  0
LTYPE
  5
1F5
100
AcDbSymbolTableRecord
100
AcDbLinetypeTableRecord
  2
CENTER
 70
64
  3
____ _ ____ _ ____ _ ____ _ ____ _ ____ _ ____
 72
65
 73
4
 40
0.6
 49
0.375
 74
0
 49
-0.075
 74
0
 49
0.075
 74
0
 49
-0.075
 74
0
  0
LTYPE
  5
1F6
100
AcDbSymbolTableRecord
100
AcDbLinetypeTableRecord
  2
HIDDEN
 70
64
  3
- - - - - - - - - - - - - - - - - - - -
 72
65
 73
2
 40
0.2
 49
0.1
 74
0
 49
-0.1
 74
0
  0
LTYPE
  5
1F7
100
AcDbSymbolTableRecord
100
AcDbLinetypeTableRecord
  2
PHANTOM
 70
64
  3
_____ _ _ _____ _ _ _____ _ _ _____
 72
65
 73
6
 40
0.8
 49
0.45
 74
0
 49
-0.05
 74
0
 49
0.1
 74
0
 49
-0.05
 74
0
 49
0.1
 74
0
 49
-0.05
 74
0
  0
LTYPE
  5
1F8
100
AcDbSymbolTableRecord
100
AcDbLinetypeTableRecord
  2
DOT
 70
64
  3
. . . . . . . . . . . . . . . . . . . .
 72
65
 73
2
 40
0.2
 49
0.1
 74
0
 49
-0.1
 74
0
  0
LTYPE
  5
1F9
100
AcDbSymbolTableRecord
100
AcDbLinetypeTableRecord
  2
DASHED
 70
64
  3
- - - - - - - - - - - - - - - - - - - -
 72
65
 73
2
 40
0.2
 49
0.1
 74
0
 49
-0.1
 74
0
  0
ENDTAB
  0
TABLE
  2
LAYER
  5
2
100
AcDbSymbolTable
 70
36
  0
LAYER
  5
10
100
AcDbSymbolTableRecord
100
AcDbLayerTableRecord
  2
0
 70
0
 62
7
  6
CONTINUOUS
370
-3
390
F
  0
LAYER
  5
1FA
100
AcDbSymbolTableRecord
100
AcDbLayerTableRecord
  2
DEFAULT_1
 70
0
 62
7
  6
CENTER
370
-3
390
F
  0
LAYER
  5
1FB
100
AcDbSymbolTableRecord
100
AcDbLayerTableRecord
  2
DEFAULT_2
 70
0
 62
7
  6
HIDDEN
370
-3
390
F
  0
LAYER
  5
1FC
100
AcDbSymbolTableRecord
100
AcDbLayerTableRecord
  2
DEFAULT_3
 70
0
 62
7
  6
PHANTOM
370
-3
390
F
  0
LAYER
  5
1FD
100
AcDbSymbolTableRecord
100
AcDbLayerTableRecord
  2
ARROTONDAMENTI
 70
0
 62
7
  6
CONTINUOUS
370
-3
390
F
  0
LAYER
  5
1FE
100
AcDbSymbolTableRecord
100
AcDbLayerTableRecord
  2
ASSI
 70
0
 62
7
  6
CONTINUOUS
370
-3
390
F
  0
LAYER
  5
1FF
100
AcDbSymbolTableRecord
100
AcDbLayerTableRecord
  2
COORDINATE
 70
0
 62
7
  6
CONTINUOUS
370
-3
390
F
  0
LAYER
  5
200
100
AcDbSymbolTableRecord
100
AcDbLayerTableRecord
  2
COPY_PUBLISH
 70
0
 62
7
  6
CONTINUOUS
370
-3
390
F
  0
LAYER
  5
201
100
AcDbSymbolTableRecord
100
AcDbLayerTableRecord
  2
COSMETICHE_FILETTO
 70
0
 62
7
  6
CONTINUOUS
370
-3
390
F
  0
LAYER
  5
202
100
AcDbSymbolTableRecord
100
AcDbLayerTableRecord
  2
COSMETICI
 70
0
 62
7
  6
CONTINUOUS
370
-3
390
F
  0
LAYER
  5
203
100
AcDbSymbolTableRecord
100
AcDbLayerTableRecord
  2
CURVE
 70
0
 62
7
  6
CONTINUOUS
370
-3
390
F
  0
LAYER
  5
204
100
AcDbSymbolTableRecord
100
AcDbLayerTableRecord
  2
DRAFT
 70
0
 62
7
  6
CONTINUOUS
370
-3
390
F
  0
LAYER
  5
205
100
AcDbSymbolTableRecord
100
AcDbLayerTableRecord
  2
ELEMENTI_DI_ANNOTAZIONE
 70
0
 62
7
  6
CONTINUOUS
370
-3
390
F
  0
LAYER
  5
206
100
AcDbSymbolTableRecord
100
AcDbLayerTableRecord
  2
FEATURE_CON_ASSI
 70
0
 62
7
  6
CONTINUOUS
370
-3
390
F
  0
LAYER
  5
207
100
AcDbSymbolTableRecord
100
AcDbLayerTableRecord
  2
FEATURE_DI_GUSCIO
 70
0
 62
7
  6
CONTINUOUS
370
-3
390
F
  0
LAYER
  5
208
100
AcDbSymbolTableRecord
100
AcDbLayerTableRecord
  2
FEATURE_DI_TAGLIO
 70
0
 62
7
  6
CONTINUOUS
370
-3
390
F
  0
LAYER
  5
209
100
AcDbSymbolTableRecord
100
AcDbLayerTableRecord
  2
FORI
 70
0
 62
7
  6
CONTINUOUS
370
-3
390
F
  0
LAYER
  5
20A
100
AcDbSymbolTableRecord
100
AcDbLayerTableRecord
  2
FORI_FILETTATI
 70
0
 62
7
  6
CONTINUOUS
370
-3
390
F
  0
LAYER
  5
20B
100
AcDbSymbolTableRecord
100
AcDbLayerTableRecord
  2
GEOMETRIA_SOLIDA
 70
0
 62
7
  6
CONTINUOUS
370
-3
390
F
  0
LAYER
  5
20C
100
AcDbSymbolTableRecord
100
AcDbLayerTableRecord
  2
IMPORT_IGES
 70
0
 62
7
  6
CONTINUOUS
370
-3
390
F
  0
LAYER
  5
20D
100
AcDbSymbolTableRecord
100
AcDbLayerTableRecord
  2
INTFCLR_2816
 70
0
 62
7
  6
CONTINUOUS
370
-3
390
F
  0
LAYER
  5
20E
100
AcDbSymbolTableRecord
100
AcDbLayerTableRecord
  2
NOTE
 70
0
 62
7
  6
CONTINUOUS
370
-3
390
F
  0
LAYER
  5
20F
100
AcDbSymbolTableRecord
100
AcDbLayerTableRecord
  2
PIANI
 70
0
 62
7
  6
CONTINUOUS
370
-3
390
F
  0
LAYER
  5
210
100
AcDbSymbolTableRecord
100
AcDbLayerTableRecord
  2
PIANI_DI_DEFAULT
 70
0
 62
7
  6
CONTINUOUS
370
-3
390
F
  0
LAYER
  5
211
100
AcDbSymbolTableRecord
100
AcDbLayerTableRecord
  2
PIANI_DI_RIFERIMENTO_CREATI
 70
0
 62
7
  6
CONTINUOUS
370
-3
390
F
  0
LAYER
  5
212
100
AcDbSymbolTableRecord
100
AcDbLayerTableRecord
  2
PROTUSIONI
 70
0
 62
7
  6
CONTINUOUS
370
-3
390
F
  0
LAYER
  5
213
100
AcDbSymbolTableRecord
100
AcDbLayerTableRecord
  2
PUNTI
 70
0
 62
7
  6
CONTINUOUS
370
-3
390
F
  0
LAYER
  5
214
100
AcDbSymbolTableRecord
100
AcDbLayerTableRecord
  2
QUOTE_AE
 70
0
 62
7
  6
CONTINUOUS
370
-3
390
F
  0
LAYER
  5
215
100
AcDbSymbolTableRecord
100
AcDbLayerTableRecord
  2
QUOTE_DEL_MODELLO
 70
0
 62
7
  6
CONTINUOUS
370
-3
390
F
  0
LAYER
  5
216
100
AcDbSymbolTableRecord
100
AcDbLayerTableRecord
  2
RACCORDO
 70
0
 62
7
  6
CONTINUOUS
370
-3
390
F
  0
LAYER
  5
217
100
AcDbSymbolTableRecord
100
AcDbLayerTableRecord
  2
SALDATURE
 70
0
 62
7
  6
CONTINUOUS
370
-3
390
F
  0
LAYER
  5
218
100
AcDbSymbolTableRecord
100
AcDbLayerTableRecord
  2
SIMBOLI
 70
0
 62
7
  6
CONTINUOUS
370
-3
390
F
  0
LAYER
  5
219
100
AcDbSymbolTableRecord
100
AcDbLayerTableRecord
  2
SMUSSI
 70
0
 62
7
  6
CONTINUOUS
370
-3
390
F
  0
LAYER
  5
21A
100
AcDbSymbolTableRecord
100
AcDbLayerTableRecord
  2
SMUSSO
 70
0
 62
7
  6
CONTINUOUS
370
-3
390
F
  0
LAYER
  5
21B
100
AcDbSymbolTableRecord
100
AcDbLayerTableRecord
  2
SNAPLINE
 70
0
 62
7
  6
CONTINUOUS
370
-3
390
F
  0
LAYER
  5
21C
100
AcDbSymbolTableRecord
100
AcDbLayerTableRecord
  2
SUPERFICI
 70
0
 62
7
  6
CONTINUOUS
370
-3
390
F
  0
LAYER
  5
21D
100
AcDbSymbolTableRecord
100
AcDbLayerTableRecord
  2
TERNA_DI_RIFERIMENTO_DI_DEFAULT
 70
0
 62
7
  6
CONTINUOUS
370
-3
390
F
  0
LAYER
  5
21E
100
AcDbSymbolTableRecord
100
AcDbLayerTableRecord
  2
TERNE_DI_RIFERIMENTO_CREATE
 70
0
 62
7
  6
CONTINUOUS
370
-3
390
F
  0
LAYER
  5
21F
100
AcDbSymbolTableRecord
100
AcDbLayerTableRecord
  2
TRASH
 70
0
 62
7
  6
CONTINUOUS
370
-3
390
F
  0
ENDTAB
  0
TABLE
  2
STYLE
  5
3
100
AcDbSymbolTable
 70
1
  0
STYLE
  5
11
100
AcDbSymbolTableRecord
100
AcDbTextStyleTableRecord
  2
STANDARD
 70
0
 40
0.0
 41
0.8
 50
0.0
 71
0
 42
0.2
  3
txt
  4

  0
STYLE
  5
220
100
AcDbSymbolTableRecord
100
AcDbTextStyleTableRecord
  2
TEXTSTYLE_1
 70
0
 40
0.0
 41
0.8
 50
0.0
 71
0
 42
0.2
  3
gdt
  4

  0
ENDTAB
  0
TABLE
  2
VIEW
  5
6
100
AcDbSymbolTable
 70
0
  0
ENDTAB
  0
TABLE
  2
UCS
  5
7
100
AcDbSymbolTable
 70
0
  0
ENDTAB
  0
TABLE
  2
APPID
  5
9
100
AcDbSymbolTable
 70
1
  0
APPID
  5
221
100
AcDbSymbolTableRecord
100
AcDbRegAppTableRecord
  2
ACAD
 70
0
  0
ENDTAB
  0
TABLE
  2
BLOCK_RECORD
  5
1
100
AcDbSymbolTable
 70
0
  0
BLOCK_RECORD
  5
222
100
AcDbSymbolTableRecord
100
AcDbBlockTableRecord
  2
*Model_Space
  0
BLOCK_RECORD
  5
223
100
AcDbSymbolTableRecord
100
AcDbBlockTableRecord
  2
*Paper_Space
  0
BLOCK_RECORD
  5
224
100
AcDbSymbolTableRecord
100
AcDbBlockTableRecord
  2
_FILLED
  0
ENDTAB
  0
TABLE
  2
DIMSTYLE
  5
A
100
AcDbSymbolTable
 70
1
100
AcDbDimStyleTable
 71
0
  0
DIMSTYLE
105
225
100
AcDbSymbolTableRecord
100
AcDbDimStyleTableRecord
  2
STANDARD
 70
0
  3

  4

 40
1.0
 41
3.0
 42
0.5
 43
0.38
 44
1.5
 45
0.0
 46
0.0
 47
0.01
 48
0.01
140
3.0
141
0.09
142
0.0
143
25.4
144
1.0
145
0.0
146
1.0
147
0.625
 71
1.0
 72
0.0
 73
0
 74
0
 75
0
 76
0
 77
1
 78
8
 79
2
170
0
171
1
172
0
173
0
174
0
175
0
176
0
177
0
178
0
270
2
179
2
271
2
272
2
273
2
274
2
275
0
280
0
281
0
282
0
283
1
284
8
285
0
286
0
287
3
288
0
340
11
278
44
341
224
342
224
343
224
344
224
  0
ENDTAB
  0
ENDSEC
  0
SECTION
  2
BLOCKS
  0
BLOCK
  5
20
100
AcDbEntity
  8
0
100
AcDbBlockBegin
  2
*Model_Space
 70
0
 10
0.0
 20
0.0
 30
0.0
  3
*Model_Space
  1

  0
ENDBLK
  5
21
100
AcDbEntity
  8
0
100
AcDbBlockEnd
  0
BLOCK
  5
1C
100
AcDbEntity
  8
0
100
AcDbBlockBegin
  2
*Paper_Space
 70
0
 10
0.0
 20
0.0
 30
0.0
  3
*Paper_Space
  1

  0
ENDBLK
  5
1D
100
AcDbEntity
  8
0
100
AcDbBlockEnd
  0
BLOCK
  5
226
100
AcDbEntity
  8
0
100
AcDbBlockBegin
  2
_FILLED
 70
64
 10
0.0
 20
0.0
  3
_FILLED
  1

  0
SOLID
  5
227
100
AcDbEntity
  8
0
  6
BYBLOCK
 62
0
100
AcDbTrace
 10
0.0
 20
0.0
 11
-1.0
 21
0.3166666667
 12
-1.0
 22
-0.3166666667
 13
-1.0
 23
-0.3166666667
  0
ENDBLK
  5
228
100
AcDbEntity
  8
0
  6
BYBLOCK
 62
0
100
AcDbBlockEnd
  0
ENDSEC
  0
SECTION
  2
ENTITIES
  0
LINE
  5
229
100
AcDbEntity
  8
0
100
AcDbLine
 62
7
  6
CONTINUOUS
 10
-15.5281006282
 20
35.6824700023
 11
-18.3742054225
 21
34.0391647641
  0
LINE
  5
22A
100
AcDbEntity
  8
0
100
AcDbLine
 62
7
  6
CONTINUOUS
 10
-15.4397122806
 20
35.2027473551
 11
-17.9499413538
 21
33.7533725488
  0
LINE
  5
22B
100
AcDbEntity
  8
0
100
AcDbLine
 62
7
  6
CONTINUOUS
 10
-18.5156267787
 20
33.0593057402
 11
-18.09136271
 21
33.3042704962
  0
LINE
  5
22C
100
AcDbEntity
  8
0
100
AcDbLine
 62
7
  6
CONTINUOUS
 10
-17.6317433023
 20
33.0388920105
 11
-18.3742054225
 21
32.6102036875
  0
LINE
  5
22D
100
AcDbEntity
  8
0
100
AcDbLine
 62
7
  6
CONTINUOUS
 10
-14.2906637612
 20
34.6413697893
 11
-14.0078210487
 21
34.8046796266
  0
LINE
  5
22E
100
AcDbEntity
  8
0
100
AcDbLine
 62
7
  6
CONTINUOUS
 10
-16.7125044867
 20
32.8347547138
 11
-17.454966607
 21
32.4060663908
  0
LINE
  5
22F
100
AcDbEntity
  8
ASSI
100
AcDbLine
 62
7
  6
CONTINUOUS
 10
8.3442370979
 20
-24.4033301811
 11
8.3460283471
 21
-24.4029865428
  0
LINE
  5
230
100
AcDbEntity
  8
ASSI
100
AcDbLine
 62
7
  6
CONTINUOUS
 10
8.3445110192
 20
-24.4039384929
 11
8.3463088992
 21
-24.4036087699
  0
LINE
  5
231
100
AcDbEntity
  8
ASSI
100
AcDbLine
 62
7
  6
CONTINUOUS
 10
-18.7842559288
 20
-11.8465200285
 11
-18.7842559288
 21
33.4675803335
  0
LINE
  5
232
100
AcDbEntity
  8
0
100
AcDbLine
 62
7
  6
CONTINUOUS
 10
-18.6010522955
 20
-12.2462984584
 11
-18.6010522955
 21
33.0678019036
  0
LINE
  5
233
100
AcDbEntity
  8
0
100
AcDbLine
 62
250
  6
CONTINUOUS
 10
-18.5863374569
 20
33.0593057402
 11
-18.5863374569
 21
-12.2547946218
  0
LINE
  5
234
100
AcDbEntity
  8
ASSI
100
AcDbLine
 62
7
  6
CONTINUOUS
 10
-18.5206520319
 20
32.4060663908
 11
-18.5206520319
 21
-12.9080339712
  0
LINE
  5
235
100
AcDbEntity
  8
0
100
AcDbLine
 62
250
  6
CONTINUOUS
 10
-18.5156267787
 20
33.0593057402
 11
-18.5156267787
 21
32.446326036
  0
LWPOLYLINE
  5
236
100
AcDbEntity
  8
RACCORDO
100
AcDbPolyline
 62
7
  6
CONTINUOUS
 90
18
 70
0
 10
-0.9496918688
 20
-21.2282416635
 10
-0.8374251427
 20
-21.2830480122
 10
-0.6946462481
 20
-21.3457833806
 10
-0.5525437024
 20
-21.4004663218
 10
-0.4114576412
 20
-21.4471170613
 10
-0.2715909209
 20
-21.4857953321
 10
-0.133065683
 20
-21.5165049143
 10
0.0038238064
 20
-21.5391942887
 10
0.1387904382
 20
-21.5538953267
 10
0.2716336213
 20
-21.5606389696
 10
0.4020843252
 20
-21.5594531979
 10
0.5298561795
 20
-21.5504021051
 10
0.6547323589
 20
-21.5335497644
 10
0.7764663518
 20
-21.5089538317
 10
0.8947275704
 20
-21.4766857443
 10
1.0091994885
 20
-21.4368976322
 10
1.1196290137
 20
-21.3897552772
 10
1.2323708687
 20
-21.3317078746
  0
LINE
  5
237
100
AcDbEntity
  8
RACCORDO
100
AcDbLine
 62
250
  6
CONTINUOUS
 10
-4.0738097824
 20
-19.478769875
 11
-4.0683100189
 21
-19.4817825688
  0
LINE
  5
238
100
AcDbEntity
  8
RACCORDO
100
AcDbLine
 62
250
  6
CONTINUOUS
 10
-4.0738097824
 20
-19.478769875
 11
-4.0683473666
 21
-19.4818049835
  0
LINE
  5
239
100
AcDbEntity
  8
0
100
AcDbLine
 62
7
  6
CONTINUOUS
 10
-18.3742054225
 20
-13.1121712678
 11
-18.0755492586
 21
-13.2846115938
  0
LINE
  5
23A
100
AcDbEntity
  8
0
100
AcDbLine
 62
7
  6
CONTINUOUS
 10
12.3691261077
 20
-30.8629855889
 11
12.6677822716
 21
-31.0354259149
  0
LINE
  5
23B
100
AcDbEntity
  8
0
100
AcDbLine
 62
7
  6
CONTINUOUS
 10
-18.6010522955
 20
-12.2462984584
 11
-18.5863374569
 21
-12.2547946218
  0
LINE
  5
23C
100
AcDbEntity
  8
0
100
AcDbLine
 62
7
  6
CONTINUOUS
 10
14.1527065121
 20
-31.1579082929
 11
14.1674213507
 21
-31.1664044563
  0
LINE
  5
23D
100
AcDbEntity
  8
0
100
AcDbLine
 62
7
  6
CONTINUOUS
 10
14.117351173
 20
-30.6067375919
 11
14.1380618511
 21
-30.6186956779
  0
LINE
  5
23E
100
AcDbEntity
  8
RACCORDO
100
AcDbLine
 62
250
  6
CONTINUOUS
 10
-14.4703821149
 20
-12.6812405408
 11
-14.386640686
 21
-12.7449586223
  0
LWPOLYLINE
  5
23F
100
AcDbEntity
  8
RACCORDO
100
AcDbPolyline
 62
7
  6
CONTINUOUS
 90
16
 70
0
 10
-14.4229511237
 20
-12.792679581
 10
-13.6418214346
 20
-13.387312047
 10
-12.8220297038
 20
-13.9941325753
 10
-11.9879225836
 20
-14.594348068
 10
-11.1396780904
 20
-15.1878306295
 10
-10.2774509918
 20
-15.7744758944
 10
-9.4013846348
 20
-16.3541885819
 10
-8.5116337036
 20
-16.9268674044
 10
-7.608374801
 20
-17.4924015687
 10
-6.691784812
 20
-18.0506809707
 10
-5.7620428469
 20
-18.6015969222
 10
-4.8193134329
 20
-19.1450544815
 10
-3.8637508956
 20
-19.6809645154
 10
-2.8955302559
 20
-20.2092282304
 10
-1.914863565
 20
-20.7297328386
 10
-0.9496963242
 20
-21.2282393933
  0
LINE
  5
240
100
AcDbEntity
  8
RACCORDO
100
AcDbLine
 62
250
  6
CONTINUOUS
 10
-14.4703821149
 20
-12.6812405408
 11
-14.3873250933
 21
-12.7452552146
  0
LINE
  5
241
100
AcDbEntity
  8
0
100
AcDbLine
 62
250
  6
CONTINUOUS
 10
-18.3742054225
 20
32.2019290942
 11
-18.3742054225
 21
-13.1121712678
  0
LINE
  5
242
100
AcDbEntity
  8
0
100
AcDbLine
 62
7
  6
CONTINUOUS
 10
-18.09136271
 20
32.7735135248
 11
-18.09136271
 21
33.3042704962
  0
LINE
  5
243
100
AcDbEntity
  8
0
100
AcDbLine
 62
250
  6
CONTINUOUS
 10
-18.0755492586
 20
-13.2846115938
 11
-18.0755492586
 21
32.0294887682
  0
LINE
  5
244
100
AcDbEntity
  8
ASSI
100
AcDbLine
 62
7
  6
CONTINUOUS
 10
-17.3836931223
 20
30.7439906586
 11
-17.3836931223
 21
-14.5701097034
  0
LINE
  5
245
100
AcDbEntity
  8
0
100
AcDbLine
 62
250
  6
CONTINUOUS
 10
-17.3624130059
 20
30.7037090957
 11
-17.3624130059
 21
-14.6103912663
  0
LINE
  5
246
100
AcDbEntity
  8
0
100
AcDbLine
 62
250
  6
CONTINUOUS
 10
-16.7125044867
 20
31.7736647527
 11
-16.7125044867
 21
32.8347547138
  0
LINE
  5
247
100
AcDbEntity
  8
ASSI
100
AcDbLine
 62
7
  6
CONTINUOUS
 10
-16.639281182
 20
31.6647693409
 11
-16.639281182
 21
32.9368233622
  0
LINE
  5
248
100
AcDbEntity
  8
ASSI
100
AcDbLine
 62
7
  6
CONTINUOUS
 10
-16.4433162116
 20
30.8464444758
 11
-16.4433162116
 21
31.0088022848
  0
LINE
  5
249
100
AcDbEntity
  8
RACCORDO
100
AcDbLine
 62
7
  6
CONTINUOUS
 10
5.4436846411
 20
-18.5105394803
 11
5.5639207764
 21
-18.528607156
  0
LWPOLYLINE
  5
24A
100
AcDbEntity
  8
RACCORDO
100
AcDbPolyline
 62
7
  6
CONTINUOUS
 90
13
 70
0
 10
5.5639207764
 20
-18.528607156
 10
5.685998654
 20
-18.5529781021
 10
5.8096242134
 20
-18.5836037253
 10
5.9346402814
 20
-18.6204575657
 10
6.0607724838
 20
-18.6634770731
 10
6.1877015157
 20
-18.7125799749
 10
6.3152081008
 20
-18.7677068839
 10
6.4430322168
 20
-18.8287748841
 10
6.5708273469
 20
-18.895656729
 10
6.6982473042
 20
-18.9682001759
 10
6.8249989262
 20
-19.0462617848
 10
6.950765422
 20
-19.1296792191
 10
7.0751727313
 20
-19.2182278104
  0
LINE
  5
24B
100
AcDbEntity
  8
0
100
AcDbLine
 62
7
  6
CONTINUOUS
 10
-15.4397122806
 20
30.0085205217
 11
-15.4397122806
 21
35.2027473551
  0
LINE
  5
24C
100
AcDbEntity
  8
0
100
AcDbLine
 62
250
  6
CONTINUOUS
 10
-14.4674404565
 20
34.6413697893
 11
-14.4674404565
 21
29.2246306283
  0
LINE
  5
24D
100
AcDbEntity
  8
0
100
AcDbLine
 62
250
  6
CONTINUOUS
 10
-14.2906637612
 20
34.6413697893
 11
-14.2906637612
 21
29.0847195034
  0
LINE
  5
24E
100
AcDbEntity
  8
0
100
AcDbLine
 62
250
  6
CONTINUOUS
 10
-14.0078210487
 20
34.8046796266
 11
-14.0078210487
 21
28.8608617037
  0
LINE
  5
24F
100
AcDbEntity
  8
ASSI
100
AcDbLine
 62
7
  6
CONTINUOUS
 10
-13.9712093963
 20
34.8557139508
 11
-13.9712093963
 21
28.8326959642
  0
LWPOLYLINE
  5
250
100
AcDbEntity
  8
RACCORDO
100
AcDbPolyline
 62
7
  6
CONTINUOUS
 90
28
 70
0
 10
7.0751727313
 20
-19.2182278104
 10
7.1979384635
 20
-19.311724232
 10
7.3187516812
 20
-19.4099584239
 10
7.4372130237
 20
-19.5126173455
 10
7.5530203525
 20
-19.6194426057
 10
7.6659258848
 20
-19.73021385
 10
7.7756323444
 20
-19.8446411438
 10
7.8818801022
 20
-19.9624588532
 10
7.9844292913
 20
-20.083401463
 10
8.0830244577
 20
-20.2071703909
 10
8.1774415191
 20
-20.3334815484
 10
8.2674665972
 20
-20.4620479066
 10
8.3528816179
 20
-20.5925507798
 10
8.4334894369
 20
-20.7246778159
 10
8.5091233966
 20
-20.8581402209
 10
8.5796277353
 20
-20.9926461332
 10
8.6448444682
 20
-21.1278735896
 10
8.7046443304
 20
-21.2635241856
 10
8.7589246604
 20
-21.3993363172
 10
8.8075733181
 20
-21.5349979389
 10
8.8504944412
 20
-21.6701938875
 10
8.8876190014
 20
-21.8046538829
 10
8.9188794989
 20
-21.9380636658
 10
8.944227978
 20
-22.0701168535
 10
8.9636385064
 20
-22.2005544824
 10
8.9770936937
 20
-22.3291003776
 10
8.9845890187
 20
-22.4554397624
 10
8.9863114586
 20
-22.5500501972
  0
LINE
  5
251
100
AcDbEntity
  8
RACCORDO
100
AcDbLine
 62
250
  6
CONTINUOUS
 10
7.6683963969
 20
-19.6115054054
 11
7.661496612
 21
-19.6047189289
  0
LINE
  5
252
100
AcDbEntity
  8
RACCORDO
100
AcDbLine
 62
250
  6
CONTINUOUS
 10
7.6683079618
 20
-19.6116218658
 11
7.661496612
 21
-19.6047189289
  0
LINE
  5
253
100
AcDbEntity
  8
0
100
AcDbLine
 62
7
  6
CONTINUOUS
 10
13.0213356622
 20
14.8094314184
 11
13.7637977824
 21
15.2381197414
  0
LINE
  5
254
100
AcDbEntity
  8
0
100
AcDbLine
 62
7
  6
CONTINUOUS
 10
16.8927452892
 20
16.6364602236
 11
17.1755880016
 21
16.7997700609
  0
LINE
  5
255
100
AcDbEntity
  8
0
100
AcDbLine
 62
7
  6
CONTINUOUS
 10
13.3748890528
 20
14.2786744471
 11
14.117351173
 21
14.7073627701
  0
LINE
  5
256
100
AcDbEntity
  8
0
100
AcDbLine
 62
7
  6
CONTINUOUS
 10
14.5769705808
 20
14.4419842844
 11
14.1527065121
 21
14.1970195284
  0
LWPOLYLINE
  5
257
100
AcDbEntity
  8
RACCORDO
100
AcDbPolyline
 62
7
  6
CONTINUOUS
 90
52
 70
0
 10
-15.9394977558
 20
-6.0900701632
 10
-15.9762250805
 20
-6.1128411367
 10
-16.0537671745
 20
-6.1679360771
 10
-16.1274934255
 20
-6.230334748
 10
-16.1971399106
 20
-6.2998826652
 10
-16.2625642653
 20
-6.3765023679
 10
-16.3235356448
 20
-6.4599827343
 10
-16.3799282365
 20
-6.5501763604
 10
-16.4316693617
 20
-6.6470405438
 10
-16.4786702319
 20
-6.7505539397
 10
-16.5209493882
 20
-6.8609086512
 10
-16.5583054613
 20
-6.9777636868
 10
-16.5904271066
 20
-7.100176066
 10
-16.6172877503
 20
-7.2277371819
 10
-16.6389577994
 20
-7.3603799457
 10
-16.6554100235
 20
-7.4974848947
 10
-16.6666826753
 20
-7.6386103794
 10
-16.6728398155
 20
-7.7836158611
 10
-16.6739412012
 20
-7.9322645464
 10
-16.670054612
 20
-8.0842380263
 10
-16.6612225004
 20
-8.2392278186
 10
-16.6474947629
 20
-8.3969730347
 10
-16.6289647318
 20
-8.5571178568
 10
-16.6056941987
 20
-8.7193351267
 10
-16.577721186
 20
-8.8833618573
 10
-16.5451450228
 20
-9.0488105296
 10
-16.5080524847
 20
-9.2153494368
 10
-16.4664805621
 20
-9.3827679898
 10
-16.4205124889
 20
-9.5507031252
 10
-16.3702444361
 20
-9.7187975904
 10
-16.3157390755
 20
-9.8868419874
 10
-16.2570846124
 20
-10.0545075839
 10
-16.1943792253
 20
-10.2214154148
 10
-16.1277071205
 20
-10.3872807651
 10
-16.0571772483
 20
-10.5517677765
 10
-15.9829040797
 20
-10.7145061333
 10
-15.9049986854
 20
-10.8751602026
 10
-15.8235921359
 20
-11.0333852921
 10
-15.7388223538
 20
-11.1888358322
 10
-15.6508245794
 20
-11.3411781162
 10
-15.5597383929
 20
-11.490077276
 10
-15.4657184754
 20
-11.6351977787
 10
-15.3689259245
 20
-11.7762131939
 10
-15.2695163425
 20
-11.912799656
 10
-15.1676518821
 20
-12.0446368754
 10
-15.0634999398
 20
-12.171416077
 10
-14.957239906
 20
-12.2928200429
 10
-14.8490581741
 20
-12.4085834043
 10
-14.7390975956
 20
-12.5184887751
 10
-14.6274980611
 20
-12.6222649887
 10
-14.5144519122
 20
-12.7195663827
 10
-14.4229431873
 20
-12.7926857063
  0
LINE
  5
258
100
AcDbEntity
  8
RACCORDO
100
AcDbLine
 62
7
  6
CONTINUOUS
 10
-15.9386653613
 20
-6.0895730905
 11
-15.9394451634
 21
-6.0900350425
  0
LINE
  5
259
100
AcDbEntity
  8
DRAFT
100
AcDbLine
 62
7
  6
CONTINUOUS
 10
-15.6246081554
 20
-5.903736848
 11
-15.9386647009
 21
-6.0895726997
  0
LINE
  5
25A
100
AcDbEntity
  8
0
100
AcDbLine
 62
7
  6
CONTINUOUS
 10
15.3547880401
 20
14.5236392031
 11
17.8650171133
 21
15.9730140094
  0
LINE
  5
25B
100
AcDbEntity
  8
0
100
AcDbLine
 62
7
  6
CONTINUOUS
 10
15.8497627869
 20
14.2786744471
 11
18.6958675812
 21
15.9219796852
  0
LWPOLYLINE
  5
25C
100
AcDbEntity
  8
RACCORDO
100
AcDbPolyline
 62
7
  6
CONTINUOUS
 90
51
 70
0
 10
3.3136358456
 20
-20.1853107222
 10
3.3155418213
 20
-20.2935846872
 10
3.3237743305
 20
-20.4376956704
 10
3.3384671496
 20
-20.5840831086
 10
3.3595856509
 20
-20.7324322612
 10
3.3871019276
 20
-20.8824275512
 10
3.4209650885
 20
-21.0337119089
 10
3.461107711
 20
-21.1859418338
 10
3.5074588293
 20
-21.338775674
 10
3.5599088359
 20
-21.4918322642
 10
3.6183475961
 20
-21.644761318
 10
3.6826587532
 20
-21.7972145414
 10
3.7526870495
 20
-21.9488093615
 10
3.8282750741
 20
-22.0991743278
 10
3.9092749436
 20
-22.2479844836
 10
3.9955184717
 20
-22.39493237
 10
4.0868085872
 20
-22.5396645436
 10
4.1829647001
 20
-22.6818653599
 10
4.2838391435
 20
-22.8212869422
 10
4.3892435321
 20
-22.9576141399
 10
4.4989631087
 20
-23.0905092935
 10
4.612801581
 20
-23.2196947399
 10
4.7305477612
 20
-23.3448738961
 10
4.8519506051
 20
-23.4657189356
 10
4.9767360115
 20
-23.5819260061
 10
5.1046478189
 20
-23.6932175093
 10
5.2354177704
 20
-23.7993155808
 10
5.3687361333
 20
-23.8999507232
 10
5.5043261761
 20
-23.9948890176
 10
5.6418962913
 20
-24.0838923157
 10
5.781103782
 20
-24.1667217755
 10
5.9216636443
 20
-24.2431833419
 10
6.0632662868
 20
-24.3130758987
 10
6.2055231728
 20
-24.3761986857
 10
6.3481371602
 20
-24.4324071608
 10
6.4907853972
 20
-24.4815530687
 10
6.6330416259
 20
-24.5234988788
 10
6.7745993239
 20
-24.5581652595
 10
6.9151491659
 20
-24.5854757529
 10
7.0542687529
 20
-24.6053647779
 10
7.1916594529
 20
-24.6178053308
 10
7.3270172063
 20
-24.6227740043
 10
7.4599254421
 20
-24.6202831146
 10
7.5900951936
 20
-24.6103688617
 10
7.717236868
 20
-24.5930718785
 10
7.8409538608
 20
-24.5684907095
 10
7.960935136
 20
-24.5367431804
 10
8.0769588555
 20
-24.4979318021
 10
8.1887856424
 20
-24.4521959304
 10
8.2961441294
 20
-24.3997119703
 10
8.3389701016
 20
-24.3761939944
  0
LINE
  5
25D
100
AcDbEntity
  8
ASSI
100
AcDbLine
 62
250
  6
CONTINUOUS
 10
-14.3970016399
 20
-12.9392060845
 11
-14.3022987426
 21
-12.8845258184
  0
LINE
  5
25E
100
AcDbEntity
  8
0
100
AcDbLine
 62
250
  6
CONTINUOUS
 10
10.0729562944
 20
14.8628707077
 11
10.0729562944
 21
-30.4512296543
  0
LINE
  5
25F
100
AcDbEntity
  8
0
100
AcDbLine
 62
250
  6
CONTINUOUS
 10
10.1645614007
 20
14.8516939839
 11
10.1645614007
 21
-30.4624063781
  0
LWPOLYLINE
  5
260
100
AcDbEntity
  8
RACCORDO
100
AcDbPolyline
 62
7
  6
CONTINUOUS
 90
11
 70
0
 10
8.9863114586
 20
-22.5500593771
 10
8.9847562393
 20
-22.6386661698
 10
8.9776289437
 20
-22.7572684138
 10
8.9646723947
 20
-22.873523614
 10
8.9458403542
 20
-22.9871614157
 10
8.9211162848
 20
-23.0978310454
 10
8.8905328908
 20
-23.2051107756
 10
8.8541275072
 20
-23.3087078033
 10
8.8119492898
 20
-23.4083518335
 10
8.7641068489
 20
-23.5037000458
 10
8.710701707
 20
-23.5945030844
  0
LINE
  5
261
100
AcDbEntity
  8
0
100
AcDbLine
 62
250
  6
CONTINUOUS
 10
12.3691261077
 20
-30.8629855889
 11
12.3691261077
 21
14.4511147731
  0
LINE
  5
262
100
AcDbEntity
  8
0
100
AcDbLine
 62
250
  6
CONTINUOUS
 10
12.6677822716
 20
14.2786744471
 11
12.6677822716
 21
-31.0354259149
  0
LINE
  5
263
100
AcDbEntity
  8
0
100
AcDbLine
 62
250
  6
CONTINUOUS
 10
13.3748890528
 20
14.2786744471
 11
13.3748890528
 21
-31.0354259149
  0
LINE
  5
264
100
AcDbEntity
  8
0
100
AcDbLine
 62
7
  6
CONTINUOUS
 10
14.117351173
 20
-30.6067375919
 11
14.117351173
 21
14.7073627701
  0
LINE
  5
265
100
AcDbEntity
  8
ASSI
100
AcDbLine
 62
7
  6
CONTINUOUS
 10
14.1380618511
 20
14.1766057988
 11
14.1380618511
 21
-31.1374945632
  0
LINE
  5
266
100
AcDbEntity
  8
0
100
AcDbLine
 62
250
  6
CONTINUOUS
 10
14.1527065121
 20
14.1561920691
 11
14.1527065121
 21
-31.1579082929
  0
LINE
  5
267
100
AcDbEntity
  8
0
100
AcDbLine
 62
7
  6
CONTINUOUS
 10
14.1674213507
 20
-31.1664044563
 11
14.1674213507
 21
14.1476959057
  0
LINE
  5
268
100
AcDbEntity
  8
0
100
AcDbLine
 62
250
  6
CONTINUOUS
 10
15.8497627869
 20
-31.0354259149
 11
15.8497627869
 21
14.2786744471
  0
LINE
  5
269
100
AcDbEntity
  8
RACCORDO
100
AcDbLine
 62
250
  6
CONTINUOUS
 10
8.9475790599
 20
-23.328613276
 11
8.9465851147
 21
-23.3318615546
  0
LINE
  5
26A
100
AcDbEntity
  8
RACCORDO
100
AcDbLine
 62
250
  6
CONTINUOUS
 10
8.9476252455
 20
-23.3286441939
 11
8.9465864578
 21
-23.33186247
  0
LINE
  5
26B
100
AcDbEntity
  8
ASSI
100
AcDbLine
 62
7
  6
CONTINUOUS
 10
4.1636180823
 20
-18.4349635642
 11
4.1626076045
 21
-18.4364068488
  0
LINE
  5
26C
100
AcDbEntity
  8
ASSI
100
AcDbLine
 62
7
  6
CONTINUOUS
 10
4.1636209427
 20
-18.4349666716
 11
4.1625743162
 21
-18.4363720728
  0
LINE
  5
26D
100
AcDbEntity
  8
ASSI
100
AcDbLine
 62
7
  6
CONTINUOUS
 10
16.8561336368
 20
15.3904973344
 11
16.8561336368
 21
16.5854258994
  0
LINE
  5
26E
100
AcDbEntity
  8
0
100
AcDbLine
 62
250
  6
CONTINUOUS
 10
16.8927452892
 20
15.4116364436
 11
16.8927452892
 21
16.5343915752
  0
LINE
  5
26F
100
AcDbEntity
  8
0
100
AcDbLine
 62
250
  6
CONTINUOUS
 10
18.6958675812
 20
15.9219796852
 11
18.6958675812
 21
-29.3921206768
  0
LINE
  5
270
100
AcDbEntity
  8
ASSI
100
AcDbLine
 62
7
  6
CONTINUOUS
 10
18.7324792335
 20
15.9730140094
 11
18.7324792335
 21
-29.3410863526
  0
LINE
  5
271
100
AcDbEntity
  8
ASSI
100
AcDbLine
 62
7
  6
CONTINUOUS
 10
5.1819445661
 20
-18.4937047339
 11
4.5249409284
 21
-19.0043226986
  0
LINE
  5
272
100
AcDbEntity
  8
0
100
AcDbLine
 62
7
  6
CONTINUOUS
 10
5.1819445661
 20
-18.4937047339
 11
4.5249409284
 21
-19.0043226986
  0
LWPOLYLINE
  5
273
100
AcDbEntity
  8
RACCORDO
100
AcDbPolyline
 62
7
  6
CONTINUOUS
 90
20
 70
0
 10
4.1746568143
 20
-18.4437119921
 10
4.1642861895
 20
-18.4498328083
 10
4.0749307068
 20
-18.5071485148
 10
3.9898949753
 20
-18.5701199867
 10
3.9093386996
 20
-18.6386248435
 10
3.8334245268
 20
-18.7125178442
 10
3.7622888567
 20
-18.791631212
 10
3.6960485793
 20
-18.8758122686
 10
3.6348300224
 20
-18.9648836045
 10
3.5787337161
 20
-19.0586599277
 10
3.5278366394
 20
-19.1569919801
 10
3.482225669
 20
-19.2596775624
 10
3.4419629437
 20
-19.3665124632
 10
3.4070891835
 20
-19.4773574187
 10
3.3776666041
 20
-19.5920079995
 10
3.3537480713
 20
-19.710262463
 10
3.3353557194
 20
-19.831983587
 10
3.3225295551
 20
-19.956985661
 10
3.3153209329
 20
-20.0850360544
 10
3.3136358453
 20
-20.1853216228
  0
LINE
  5
274
100
AcDbEntity
  8
DRAFT
100
AcDbLine
 62
7
  6
CONTINUOUS
 10
4.6395442248
 20
-18.1712999454
 11
4.173774322
 21
-18.4442270658
  0
LINE
  5
275
100
AcDbEntity
  8
ASSI
100
AcDbLine
 62
250
  6
CONTINUOUS
 10
-0.979475013
 20
-21.4005957263
 11
-0.8024814489
 21
-21.2984018606
  0
LINE
  5
276
100
AcDbEntity
  8
RACCORDO
100
AcDbLine
 62
7
  6
CONTINUOUS
 10
4.3894133119
 20
-18.6826195511
 11
4.3900381442
 21
-18.682267837
  0
LWPOLYLINE
  5
277
100
AcDbEntity
  8
RACCORDO
100
AcDbPolyline
 62
7
  6
CONTINUOUS
 90
11
 70
0
 10
4.390013181
 20
-18.6822822852
 10
4.4829491312
 20
-18.6346757241
 10
4.5763286945
 20
-18.5953870908
 10
4.6735172572
 20
-18.5624493856
 10
4.7743247243
 20
-18.5358768639
 10
4.8785968902
 20
-18.5156809511
 10
4.9860645457
 20
-18.5018782221
 10
5.096489847
 20
-18.4944722226
 10
5.2097496774
 20
-18.4934550097
 10
5.3255768031
 20
-18.4988163839
 10
5.4436846411
 20
-18.5105394803
  0
LINE
  5
278
100
AcDbEntity
  8
0
100
AcDbLine
 62
7
  6
CONTINUOUS
 10
-18.3742054225
 20
32.2019290942
 11
-18.0755492586
 21
32.0294887682
  0
LINE
  5
279
100
AcDbEntity
  8
0
100
AcDbLine
 62
7
  6
CONTINUOUS
 10
12.3691261077
 20
14.4511147731
 11
12.6677822716
 21
14.2786744471
  0
LWPOLYLINE
  5
27A
100
AcDbEntity
  8
RACCORDO
100
AcDbPolyline
 62
7
  6
CONTINUOUS
 90
8
 70
0
 10
8.710701707
 20
-23.5945030844
 10
8.6518323569
 20
-23.680549571
 10
8.587638631
 20
-23.7616013386
 10
8.518254529
 20
-23.8374642836
 10
8.4438101838
 20
-23.9079679142
 10
8.3644557296
 20
-23.9729413756
 10
8.2803424189
 20
-24.0322300433
 10
8.2263186
 20
-24.0658045578
  0
LINE
  5
27B
100
AcDbEntity
  8
DRAFT
100
AcDbLine
 62
7
  6
CONTINUOUS
 10
1.2325663024
 20
-21.3315981441
 11
1.6198882215
 21
-21.113449401
  0
LINE
  5
27C
100
AcDbEntity
  8
RACCORDO
100
AcDbLine
 62
7
  6
CONTINUOUS
 10
1.232363994
 20
-21.3317120686
 11
1.2325663909
 21
-21.3315980942
  0
LINE
  5
27D
100
AcDbEntity
  8
0
100
AcDbLine
 62
7
  6
CONTINUOUS
 10
-18.6010522955
 20
33.0678019036
 11
-18.5863374569
 21
33.0593057402
  0
LINE
  5
27E
100
AcDbEntity
  8
0
100
AcDbLine
 62
7
  6
CONTINUOUS
 10
-17.454966607
 20
32.4060663908
 11
-17.4391531555
 21
32.3969359022
  0
LINE
  5
27F
100
AcDbEntity
  8
0
100
AcDbLine
 62
7
  6
CONTINUOUS
 10
13.0055222107
 20
14.8185619071
 11
13.0213356622
 21
14.8094314184
  0
LINE
  5
280
100
AcDbEntity
  8
0
100
AcDbLine
 62
7
  6
CONTINUOUS
 10
14.1527065121
 20
14.1561920691
 11
14.1674213507
 21
14.1476959057
  0
LINE
  5
281
100
AcDbEntity
  8
0
100
AcDbLine
 62
7
  6
CONTINUOUS
 10
-18.09136271
 20
33.3042704962
 11
-17.6317433023
 21
33.0388920105
  0
LINE
  5
282
100
AcDbEntity
  8
0
100
AcDbLine
 62
7
  6
CONTINUOUS
 10
14.117351173
 20
14.7073627701
 11
14.5769705808
 21
14.4419842844
  0
LINE
  5
283
100
AcDbEntity
  8
0
100
AcDbLine
 62
7
  6
CONTINUOUS
 10
-17.9499413538
 20
33.7533725488
 11
-16.7125044867
 21
33.0388920105
  0
LINE
  5
284
100
AcDbEntity
  8
0
100
AcDbLine
 62
7
  6
CONTINUOUS
 10
14.117351173
 20
15.2381197414
 11
15.3547880401
 21
14.5236392031
  0
LINE
  5
285
100
AcDbEntity
  8
0
100
AcDbLine
 62
7
  6
CONTINUOUS
 10
17.8650171133
 20
15.9730140094
 11
16.8927452892
 21
16.5343915752
  0
LINE
  5
286
100
AcDbEntity
  8
0
100
AcDbLine
 62
7
  6
CONTINUOUS
 10
-14.4674404565
 20
34.6413697893
 11
-15.4397122806
 21
35.2027473551
  0
LINE
  5
287
100
AcDbEntity
  8
0
100
AcDbLine
 62
7
  6
CONTINUOUS
 10
18.6958675812
 20
16.0240483336
 11
17.3523646969
 21
16.7997700609
  0
LINE
  5
288
100
AcDbEntity
  8
0
100
AcDbLine
 62
7
  6
CONTINUOUS
 10
-14.0078210487
 20
34.906748275
 11
-15.3513239329
 21
35.6824700023
  0
LINE
  5
289
100
AcDbEntity
  8
RACCORDO
100
AcDbLine
 62
7
  6
CONTINUOUS
 10
8.2265436377
 20
-24.0656717609
 11
8.226299604
 21
-24.0658161326
  0
LINE
  5
28A
100
AcDbEntity
  8
DRAFT
100
AcDbLine
 62
7
  6
CONTINUOUS
 10
8.3407022899
 20
-24.3752101514
 11
8.8008602527
 21
-24.1134408267
  0
LINE
  5
28B
100
AcDbEntity
  8
RACCORDO
100
AcDbLine
 62
7
  6
CONTINUOUS
 10
8.3390252485
 20
-24.3761628963
 11
8.3406999052
 21
-24.3752115079
  0
LINE
  5
28C
100
AcDbEntity
  8
ASSI
100
AcDbLine
 62
7
  6
CONTINUOUS
 10
8.6253186079
 20
-23.6135514036
 11
7.7159097953
 21
-24.0684856998
  0
LINE
  5
28D
100
AcDbEntity
  8
0
100
AcDbLine
 62
7
  6
CONTINUOUS
 10
8.6253186079
 20
-23.6135514036
 11
7.7159097953
 21
-24.0684856998
  0
LINE
  5
28E
100
AcDbEntity
  8
0
100
AcDbLine
 62
7
  6
CONTINUOUS
 10
13.3748890528
 20
-31.0354259149
 11
14.117351173
 21
-30.6067375919
  0
LINE
  5
28F
100
AcDbEntity
  8
0
100
AcDbLine
 62
7
  6
CONTINUOUS
 10
15.8497627869
 20
-31.0354259149
 11
18.6958675812
 21
-29.3921206768
  0
ARC
  5
290
100
AcDbEntity
  8
RACCORDO
100
AcDbCircle
 62
250
  6
CONTINUOUS
 10
42.7714773386
 20
64.8432350394
 40
96.4607772791
100
AcDbArc
 50
240.9492484736
 51
243.0127864795
  0
ARC
  5
291
100
AcDbEntity
  8
RACCORDO
100
AcDbCircle
 62
250
  6
CONTINUOUS
 10
3.8793921826
 20
-23.4568014707
 40
5.3984121576
100
AcDbArc
 50
45.5251820821
 51
46.6586737464
  0
ARC
  5
292
100
AcDbEntity
  8
RACCORDO
100
AcDbCircle
 62
250
  6
CONTINUOUS
 10
3.9319496711
 20
-23.4004652562
 40
5.3213676224
100
AcDbArc
 50
46.653913903
 51
50.7719881531
  0
ARC
  5
293
100
AcDbEntity
  8
RACCORDO
100
AcDbCircle
 62
250
  6
CONTINUOUS
 10
3.9041030671
 20
-23.4384085188
 40
5.3212673626
100
AcDbArc
 50
45.3250527724
 51
45.4677462598
  0
ARC
  5
294
100
AcDbEntity
  8
RACCORDO
100
AcDbCircle
 62
250
  6
CONTINUOUS
 10
3.982770994
 20
-23.3549427863
 40
5.2065982568
100
AcDbArc
 50
45.4407135627
 51
50.8937282864
  0
ARC
  5
295
100
AcDbEntity
  8
RACCORDO
100
AcDbCircle
 62
250
  6
CONTINUOUS
 10
4.0190222916
 20
-23.2966363896
 40
5.1858729849
100
AcDbArc
 50
50.7917352215
 51
51.0204687501
  0
ARC
  5
296
100
AcDbEntity
  8
RACCORDO
100
AcDbCircle
 62
250
  6
CONTINUOUS
 10
4.0287997468
 20
-23.2845497236
 40
5.1703267275
100
AcDbArc
 50
51.0204430219
 51
51.3350963548
  0
ARC
  5
297
100
AcDbEntity
  8
RACCORDO
100
AcDbCircle
 62
250
  6
CONTINUOUS
 10
4.0658536185
 20
-23.254350132
 40
5.0761354776
100
AcDbArc
 50
50.9052451309
 51
51.3436751684
  0
ARC
  5
298
100
AcDbEntity
  8
RACCORDO
100
AcDbCircle
 62
250
  6
CONTINUOUS
 10
4.084272566
 20
-23.2313137036
 40
5.0466408235
100
AcDbArc
 50
51.3436051428
 51
51.8922935007
  0
ARC
  5
299
100
AcDbEntity
  8
RACCORDO
100
AcDbCircle
 62
250
  6
CONTINUOUS
 10
5.2093769946
 20
-22.7993561167
 40
3.8610321781
100
AcDbArc
 50
16.5653143974
 51
16.8919775248
  0
ARC
  5
29A
100
AcDbEntity
  8
RACCORDO
100
AcDbCircle
 62
250
  6
CONTINUOUS
 10
5.0000778404
 20
-21.1614592648
 40
2.8140976218
100
AcDbArc
 50
79.3525516816
 51
79.8682135369
  0
ARC
  5
29B
100
AcDbEntity
  8
RACCORDO
100
AcDbCircle
 62
250
  6
CONTINUOUS
 10
5.0204247936
 20
-21.1848818
 40
2.7762333106
100
AcDbArc
 50
78.8069002481
 51
79.8631752937
  0
ARC
  5
29C
100
AcDbEntity
  8
RACCORDO
100
AcDbCircle
 62
250
  6
CONTINUOUS
 10
5.0164879473
 20
-21.0676082165
 40
2.7188233854
100
AcDbArc
 50
79.8607238263
 51
82.7021157646
  0
ARC
  5
29D
100
AcDbEntity
  8
RACCORDO
100
AcDbCircle
 62
250
  6
CONTINUOUS
 10
5.0340653413
 20
-20.9387353262
 40
2.5887618751
100
AcDbArc
 50
82.7256766748
 51
83.4585743206
  0
ARC
  5
29E
100
AcDbEntity
  8
ASSI
100
AcDbCircle
 62
250
  6
CONTINUOUS
 10
6.4592179853
 20
-20.4706383715
 40
2.5068970907
100
AcDbArc
 50
178.7541990668
 51
180.0030263933
  0
ARC
  5
29F
100
AcDbEntity
  8
0
100
AcDbCircle
 62
250
  6
CONTINUOUS
 10
6.4592179853
 20
-20.4706383715
 40
2.5068970907
100
AcDbArc
 50
178.7541990668
 51
180.0030263933
  0
ARC
  5
2A0
100
AcDbEntity
  8
ASSI
100
AcDbCircle
 62
250
  6
CONTINUOUS
 10
5.1410231574
 20
-20.9196797636
 40
2.1656710775
100
AcDbArc
 50
72.3931295005
 51
73.1473749383
  0
ARC
  5
2A1
100
AcDbEntity
  8
0
100
AcDbCircle
 62
250
  6
CONTINUOUS
 10
5.1410231574
 20
-20.9196797636
 40
2.1656710775
100
AcDbArc
 50
72.3931295005
 51
73.1473749383
  0
ARC
  5
2A2
100
AcDbEntity
  8
ASSI
100
AcDbCircle
 62
7
  6
CONTINUOUS
 10
7.9671399083
 20
-22.3375275102
 40
2.1005919065
100
AcDbArc
 50
278.0602355434
 51
279.3372668107
  0
ARC
  5
2A3
100
AcDbEntity
  8
ASSI
100
AcDbCircle
 62
7
  6
CONTINUOUS
 10
7.9722757384
 20
-22.3689168622
 40
2.0687851849
100
AcDbArc
 50
279.337959305
 51
280.3656476892
  0
ARC
  5
2A4
100
AcDbEntity
  8
RACCORDO
100
AcDbCircle
 62
250
  6
CONTINUOUS
 10
8.1644968161
 20
-22.2925247658
 40
1.9870871386
100
AcDbArc
 50
282.4541616941
 51
286.7054362269
  0
ARC
  5
2A5
100
AcDbEntity
  8
ASSI
100
AcDbCircle
 62
7
  6
CONTINUOUS
 10
0.9406811664
 20
-19.5442704973
 40
1.8278969116
100
AcDbArc
 50
277.755923093
 51
279.2686569025
  0
ARC
  5
2A6
100
AcDbEntity
  8
ASSI
100
AcDbCircle
 62
7
  6
CONTINUOUS
 10
0.9454779272
 20
-19.5738766409
 40
1.7979047217
100
AcDbArc
 50
279.269751515
 51
280.4276786419
  0
ARC
  5
2A7
100
AcDbEntity
  8
RACCORDO
100
AcDbCircle
 62
250
  6
CONTINUOUS
 10
1.0582366225
 20
-19.5067166926
 40
1.7715834083
100
AcDbArc
 50
280.497290813
 51
285.6860584714
  0
ARC
  5
2A8
100
AcDbEntity
  8
ASSI
100
AcDbCircle
 62
7
  6
CONTINUOUS
 10
0.9574393001
 20
-19.6361341132
 40
1.7345106152
100
AcDbArc
 50
280.4113084061
 51
286.6400503381
  0
ARC
  5
2A9
100
AcDbEntity
  8
ASSI
100
AcDbCircle
 62
7
  6
CONTINUOUS
 10
5.4964333943
 20
-19.4285890027
 40
1.6624302922
100
AcDbArc
 50
143.3555700921
 51
144.4592923129
  0
ARC
  5
2AA
100
AcDbEntity
  8
RACCORDO
100
AcDbCircle
 62
250
  6
CONTINUOUS
 10
5.6234090603
 20
-19.3137956399
 40
1.5930153472
100
AcDbArc
 50
135.490778362
 51
141.7497834847
  0
ARC
  5
2AB
100
AcDbEntity
  8
ASSI
100
AcDbCircle
 62
7
  6
CONTINUOUS
 10
5.4383881099
 20
-19.3826878639
 40
1.588460509
100
AcDbArc
 50
133.7096207255
 51
143.3711714101
  0
ARC
  5
2AC
100
AcDbEntity
  8
ASSI
100
AcDbCircle
 62
7
  6
CONTINUOUS
 10
-14.7332927596
 20
-6.6858227222
 40
1.2589954844
100
AcDbArc
 50
141.9709564693
 51
147.0094098176
  0
ARC
  5
2AD
100
AcDbEntity
  8
RACCORDO
100
AcDbCircle
 62
250
  6
CONTINUOUS
 10
-14.6468489529
 20
-6.6447039121
 40
1.234358632
100
AcDbArc
 50
143.0943028584
 51
143.5759386322
  0
ARC
  5
2AE
100
AcDbEntity
  8
0
100
AcDbCircle
 62
7
  6
CONTINUOUS
 10
-17.5852923773
 20
31.0091277694
 40
1.1419741478
100
AcDbArc
 50
352.2535881262
 51
359.9836696087
  0
ARC
  5
2AF
100
AcDbEntity
  8
0
100
AcDbCircle
 62
7
  6
CONTINUOUS
 10
8.1222799924
 20
-22.6075543604
 40
1.124750035
100
AcDbArc
 50
296.5668573881
 51
303.2677348343
  0
SPLINE
  5
2B0
100
AcDbEntity
  8
ASSI
100
AcDbSpline
 62
7
  6
CONTINUOUS
 70
0
 71
3
 72
17
 73
13
 74
0
 42
0.0000001
 43
0.0000001
 44
0.0000000001
 40
0.0
 40
0.0
 40
0.0
 40
0.0
 40
0.1253437346
 40
0.2608824372
 40
0.4014393539
 40
0.5404051076
 40
0.6716179834
 40
0.791130619
 40
0.8464772768
 40
0.8992936688
 40
0.9501618945
 40
1.0
 40
1.0
 40
1.0
 40
1.0
 10
3.9370806617
 20
-20.4163069477
 30
0.0
 10
3.9370806617
 20
-20.6666738587
 30
0.0
 10
4.0076580771
 20
-21.1886056444
 30
0.0
 10
4.2753465154
 20
-21.9489568824
 30
0.0
 10
4.6869633814
 20
-22.6735671736
 30
0.0
 10
5.2124419396
 20
-23.3094046952
 30
0.0
 10
5.8150330631
 20
-23.8097458046
 30
0.0
 10
6.367487034
 20
-24.0892892929
 30
0.0
 10
6.8107635163
 20
-24.1987727403
 30
0.0
 10
7.1294809708
 20
-24.2211274726
 30
0.0
 10
7.435766793
 20
-24.1821210717
 30
0.0
 10
7.6268796875
 20
-24.1130232596
 30
0.0
 10
7.7159097953
 20
-24.0684856998
 30
0.0
  0
SPLINE
  5
2B1
100
AcDbEntity
  8
ASSI
100
AcDbSpline
 62
7
  6
CONTINUOUS
 70
0
 71
3
 72
11
 73
7
 74
0
 42
0.0000001
 43
0.0000001
 44
0.0000000001
 40
0.0
 40
0.0
 40
0.0
 40
0.0
 40
0.2337242032
 40
0.4750151687
 40
0.7291749818
 40
1.0
 40
1.0
 40
1.0
 40
1.0
 10
4.5249409284
 20
-19.0043226986
 30
0.0
 10
4.4277077786
 20
-19.0798915238
 30
0.0
 10
4.2516997452
 20
-19.2632333489
 30
0.0
 10
4.0665684544
 20
-19.6041707047
 30
0.0
 10
3.9586044699
 20
-19.9962209031
 30
0.0
 10
3.9370806617
 20
-20.2736130707
 30
0.0
 10
3.9370806617
 20
-20.4163069477
 30
0.0
  0
SPLINE
  5
2B2
100
AcDbEntity
  8
ASSI
100
AcDbSpline
 62
250
  6
CONTINUOUS
 70
0
 71
3
 72
23
 73
19
 74
0
 42
0.0000001
 43
0.0000001
 44
0.0000000001
 40
0.0
 40
0.0
 40
0.0
 40
0.0
 40
0.0655655519
 40
0.1362182788
 40
0.210561824
 40
0.2870116387
 40
0.3637332672
 40
0.438887317
 40
0.510767095
 40
0.5779487236
 40
0.6394781842
 40
0.6951020191
 40
0.7455146862
 40
0.7925325322
 40
0.8389185564
 40
0.8876196187
 40
0.9409434215
 40
1.0
 40
1.0
 40
1.0
 40
1.0
 10
8.1479773065
 20
-22.6906008571
 30
0.0
 10
8.1479773065
 20
-22.5331385189
 30
0.0
 10
8.1180985436
 20
-22.2056632869
 30
0.0
 10
7.998805221
 20
-21.7127642715
 30
0.0
 10
7.8073525508
 20
-21.215091488
 30
0.0
 10
7.5511290589
 20
-20.7310839796
 30
0.0
 10
7.2393593706
 20
-20.2784742244
 30
0.0
 10
6.8836215506
 20
-19.8739541457
 30
0.0
 10
6.4969337622
 20
-19.5323554741
 30
0.0
 10
6.093186901
 20
-19.2662117404
 30
0.0
 10
5.6864676659
 20
-19.0854272756
 30
0.0
 10
5.2904420501
 20
-18.9973721813
 30
0.0
 10
4.9184345212
 20
-19.0077971581
 30
0.0
 10
4.5858162914
 20
-19.1208897116
 30
0.0
 10
4.3113180573
 20
-19.333956864
 30
0.0
 10
4.1090589799
 20
-19.633737935
 30
0.0
 10
3.9847777484
 20
-20.0039720375
 30
0.0
 10
3.95600467
 20
-20.2743376939
 30
0.0
 10
3.952913467
 20
-20.4161343804
 30
0.0
  0
SPLINE
  5
2B3
100
AcDbEntity
  8
ASSI
100
AcDbSpline
 62
250
  6
CONTINUOUS
 70
0
 71
3
 72
12
 73
8
 74
0
 42
0.0000001
 43
0.0000001
 44
0.0000000001
 40
0.0
 40
0.0
 40
0.0
 40
0.0
 40
0.1113321615
 40
0.2300762953
 40
0.483245643
 40
0.7454264223
 40
1.0
 40
1.0
 40
1.0
 40
1.0
 10
8.4214524235
 20
-22.648816004
 30
0.0
 10
8.4214524235
 20
-22.5144883294
 30
0.0
 10
8.4008615528
 20
-22.2366466893
 30
0.0
 10
8.2862918139
 20
-21.6638494231
 30
0.0
 10
8.0110175014
 20
-20.943497404
 30
0.0
 10
7.5196440949
 20
-20.1496288135
 30
0.0
 10
7.0943205981
 20
-19.6867127943
 30
0.0
 10
6.8626580978
 20
-19.4850275515
 30
0.0
  0
SPLINE
  5
2B4
100
AcDbEntity
  8
ASSI
100
AcDbSpline
 62
250
  6
CONTINUOUS
 70
0
 71
3
 72
9
 73
5
 74
0
 42
0.0000001
 43
0.0000001
 44
0.0000000001
 40
0.0
 40
0.0
 40
0.0
 40
0.0
 40
0.5261579437
 40
1.0
 40
1.0
 40
1.0
 40
1.0
 10
6.8626580978
 20
-19.4850275515
 30
0.0
 10
6.6979934393
 20
-19.3416705922
 30
0.0
 10
6.3626769222
 20
-19.0934043717
 30
0.0
 10
5.9835116912
 20
-18.9149303596
 30
0.0
 10
5.7961044156
 20
-18.8554608407
 30
0.0
  0
SPLINE
  5
2B5
100
AcDbEntity
  8
ASSI
100
AcDbSpline
 62
250
  6
CONTINUOUS
 70
0
 71
3
 72
11
 73
7
 74
0
 42
0.0000001
 43
0.0000001
 44
0.0000000001
 40
0.0
 40
0.0
 40
0.0
 40
0.0
 40
0.2768918453
 40
0.531226455
 40
0.7691343388
 40
1.0
 40
1.0
 40
1.0
 40
1.0
 10
5.7688749261
 20
-18.8470164111
 30
0.0
 10
5.6539376018
 20
-18.8122022014
 30
0.0
 10
5.427067348
 20
-18.7635813784
 30
0.0
 10
5.0906249289
 20
-18.7630820438
 30
0.0
 10
4.7829918895
 20
-18.8400267124
 30
0.0
 10
4.603993536
 20
-18.9428657107
 30
0.0
 10
4.5249438093
 20
-19.0043269268
 30
0.0
  0
SPLINE
  5
2B6
100
AcDbEntity
  8
ASSI
100
AcDbSpline
 62
250
  6
CONTINUOUS
 70
0
 71
3
 72
23
 73
19
 74
0
 42
0.0000001
 43
0.0000001
 44
0.0000000001
 40
0.0
 40
0.0
 40
0.0
 40
0.0
 40
0.0597345028
 40
0.1136660306
 40
0.1627530657
 40
0.2092394535
 40
0.2560837866
 40
0.3061445903
 40
0.3613572193
 40
0.4225061351
 40
0.4893878075
 40
0.5610675924
 40
0.6361198743
 40
0.7128204119
 40
0.7893039244
 40
0.8637058263
 40
0.934410758
 40
1.0
 40
1.0
 40
1.0
 40
1.0
 10
8.1479773065
 20
-22.6906008571
 30
0.0
 10
8.1479773065
 20
-22.8351423716
 30
0.0
 10
8.1249033179
 20
-23.1111927718
 30
0.0
 10
8.0085390227
 20
-23.4912163692
 30
0.0
 10
7.8126348245
 20
-23.8014925827
 30
0.0
 10
7.5423644929
 20
-24.0253203456
 30
0.0
 10
7.2113754025
 20
-24.1483698689
 30
0.0
 10
6.8389499299
 20
-24.1669624945
 30
0.0
 10
6.4411519611
 20
-24.0851461799
 30
0.0
 10
6.0316352233
 20
-23.9087553317
 30
0.0
 10
5.6243093515
 20
-23.6452166608
 30
0.0
 10
5.2335449036
 20
-23.3045122545
 30
0.0
 10
4.8735733307
 20
-22.8993153078
 30
0.0
 10
4.5577543081
 20
-22.4446996404
 30
0.0
 10
4.2979859293
 20
-21.9576801201
 30
0.0
 10
4.1037588578
 20
-21.4563699935
 30
0.0
 10
3.9826742509
 20
-20.9596133649
 30
0.0
 10
3.9523208981
 20
-20.6294792041
 30
0.0
 10
3.9523208981
 20
-20.4707707871
 30
0.0
  0
SPLINE
  5
2B7
100
AcDbEntity
  8
ASSI
100
AcDbSpline
 62
250
  6
CONTINUOUS
 70
0
 71
3
 72
13
 73
9
 74
0
 42
0.0000001
 43
0.0000001
 44
0.0000000001
 40
0.0
 40
0.0
 40
0.0
 40
0.0
 40
0.2859670454
 40
0.542797863
 40
0.6621168142
 40
0.7769140469
 40
0.8888925622
 40
1.0
 40
1.0
 40
1.0
 40
1.0
 10
8.4214524235
 20
-22.648816004
 30
0.0
 10
8.4214524235
 20
-22.807834599
 30
0.0
 10
8.3952188158
 20
-23.1107720786
 30
0.0
 10
8.2803124053
 20
-23.4652118869
 30
0.0
 10
8.1417603431
 20
-23.7015502726
 30
0.0
 10
8.019427839
 20
-23.8512099422
 30
0.0
 10
7.8776269072
 20
-23.9757724737
 30
0.0
 10
7.7711575413
 20
-24.0408311871
 30
0.0
 10
7.7158993742
 20
-24.0684677689
 30
0.0
  0
SPLINE
  5
2B8
100
AcDbEntity
  8
0
100
AcDbSpline
 62
7
  6
CONTINUOUS
 70
0
 71
3
 72
17
 73
13
 74
0
 42
0.0000001
 43
0.0000001
 44
0.0000000001
 40
0.0
 40
0.0
 40
0.0
 40
0.0
 40
0.1253437346
 40
0.2608824372
 40
0.4014393539
 40
0.5404051076
 40
0.6716179834
 40
0.791130619
 40
0.8464772768
 40
0.8992936688
 40
0.9501618945
 40
1.0
 40
1.0
 40
1.0
 40
1.0
 10
3.9370806617
 20
-20.4163069477
 30
0.0
 10
3.9370806617
 20
-20.6666738587
 30
0.0
 10
4.0076580771
 20
-21.1886056444
 30
0.0
 10
4.2753465154
 20
-21.9489568824
 30
0.0
 10
4.6869633814
 20
-22.6735671736
 30
0.0
 10
5.2124419396
 20
-23.3094046952
 30
0.0
 10
5.8150330631
 20
-23.8097458046
 30
0.0
 10
6.367487034
 20
-24.0892892929
 30
0.0
 10
6.8107635163
 20
-24.1987727403
 30
0.0
 10
7.1294809708
 20
-24.2211274726
 30
0.0
 10
7.435766793
 20
-24.1821210717
 30
0.0
 10
7.6268796875
 20
-24.1130232596
 30
0.0
 10
7.7159097953
 20
-24.0684856998
 30
0.0
  0
SPLINE
  5
2B9
100
AcDbEntity
  8
0
100
AcDbSpline
 62
7
  6
CONTINUOUS
 70
0
 71
3
 72
11
 73
7
 74
0
 42
0.0000001
 43
0.0000001
 44
0.0000000001
 40
0.0
 40
0.0
 40
0.0
 40
0.0
 40
0.2337242032
 40
0.4750151687
 40
0.7291749818
 40
1.0
 40
1.0
 40
1.0
 40
1.0
 10
4.5249409284
 20
-19.0043226986
 30
0.0
 10
4.4277077786
 20
-19.0798915238
 30
0.0
 10
4.2516997452
 20
-19.2632333489
 30
0.0
 10
4.0665684544
 20
-19.6041707047
 30
0.0
 10
3.9586044699
 20
-19.9962209031
 30
0.0
 10
3.9370806617
 20
-20.2736130707
 30
0.0
 10
3.9370806617
 20
-20.4163069477
 30
0.0
  0
SPLINE
  5
2BA
100
AcDbEntity
  8
0
100
AcDbSpline
 62
250
  6
CONTINUOUS
 70
0
 71
3
 72
23
 73
19
 74
0
 42
0.0000001
 43
0.0000001
 44
0.0000000001
 40
0.0
 40
0.0
 40
0.0
 40
0.0
 40
0.0655655519
 40
0.1362182788
 40
0.210561824
 40
0.2870116387
 40
0.3637332672
 40
0.438887317
 40
0.510767095
 40
0.5779487236
 40
0.6394781842
 40
0.6951020191
 40
0.7455146862
 40
0.7925325322
 40
0.8389185564
 40
0.8876196187
 40
0.9409434215
 40
1.0
 40
1.0
 40
1.0
 40
1.0
 10
8.1479773065
 20
-22.6906008571
 30
0.0
 10
8.1479773065
 20
-22.5331385189
 30
0.0
 10
8.1180985436
 20
-22.2056632869
 30
0.0
 10
7.998805221
 20
-21.7127642715
 30
0.0
 10
7.8073525508
 20
-21.215091488
 30
0.0
 10
7.5511290589
 20
-20.7310839796
 30
0.0
 10
7.2393593706
 20
-20.2784742244
 30
0.0
 10
6.8836215506
 20
-19.8739541457
 30
0.0
 10
6.4969337622
 20
-19.5323554741
 30
0.0
 10
6.093186901
 20
-19.2662117404
 30
0.0
 10
5.6864676659
 20
-19.0854272756
 30
0.0
 10
5.2904420501
 20
-18.9973721813
 30
0.0
 10
4.9184345212
 20
-19.0077971581
 30
0.0
 10
4.5858162914
 20
-19.1208897116
 30
0.0
 10
4.3113180573
 20
-19.333956864
 30
0.0
 10
4.1090589799
 20
-19.633737935
 30
0.0
 10
3.9847777484
 20
-20.0039720375
 30
0.0
 10
3.95600467
 20
-20.2743376939
 30
0.0
 10
3.952913467
 20
-20.4161343804
 30
0.0
  0
SPLINE
  5
2BB
100
AcDbEntity
  8
0
100
AcDbSpline
 62
250
  6
CONTINUOUS
 70
0
 71
3
 72
12
 73
8
 74
0
 42
0.0000001
 43
0.0000001
 44
0.0000000001
 40
0.0
 40
0.0
 40
0.0
 40
0.0
 40
0.1113321615
 40
0.2300762953
 40
0.483245643
 40
0.7454264223
 40
1.0
 40
1.0
 40
1.0
 40
1.0
 10
8.4214524235
 20
-22.648816004
 30
0.0
 10
8.4214524235
 20
-22.5144883294
 30
0.0
 10
8.4008615528
 20
-22.2366466893
 30
0.0
 10
8.2862918139
 20
-21.6638494231
 30
0.0
 10
8.0110175014
 20
-20.943497404
 30
0.0
 10
7.5196440949
 20
-20.1496288135
 30
0.0
 10
7.0943205981
 20
-19.6867127943
 30
0.0
 10
6.8626580978
 20
-19.4850275515
 30
0.0
  0
SPLINE
  5
2BC
100
AcDbEntity
  8
0
100
AcDbSpline
 62
250
  6
CONTINUOUS
 70
0
 71
3
 72
9
 73
5
 74
0
 42
0.0000001
 43
0.0000001
 44
0.0000000001
 40
0.0
 40
0.0
 40
0.0
 40
0.0
 40
0.5261579437
 40
1.0
 40
1.0
 40
1.0
 40
1.0
 10
6.8626580978
 20
-19.4850275515
 30
0.0
 10
6.6979934393
 20
-19.3416705922
 30
0.0
 10
6.3626769222
 20
-19.0934043717
 30
0.0
 10
5.9835116912
 20
-18.9149303596
 30
0.0
 10
5.7961044156
 20
-18.8554608407
 30
0.0
  0
SPLINE
  5
2BD
100
AcDbEntity
  8
0
100
AcDbSpline
 62
250
  6
CONTINUOUS
 70
0
 71
3
 72
11
 73
7
 74
0
 42
0.0000001
 43
0.0000001
 44
0.0000000001
 40
0.0
 40
0.0
 40
0.0
 40
0.0
 40
0.2768918453
 40
0.531226455
 40
0.7691343388
 40
1.0
 40
1.0
 40
1.0
 40
1.0
 10
5.7688749261
 20
-18.8470164111
 30
0.0
 10
5.6539376018
 20
-18.8122022014
 30
0.0
 10
5.427067348
 20
-18.7635813784
 30
0.0
 10
5.0906249289
 20
-18.7630820438
 30
0.0
 10
4.7829918895
 20
-18.8400267124
 30
0.0
 10
4.603993536
 20
-18.9428657107
 30
0.0
 10
4.5249438093
 20
-19.0043269268
 30
0.0
  0
SPLINE
  5
2BE
100
AcDbEntity
  8
0
100
AcDbSpline
 62
250
  6
CONTINUOUS
 70
0
 71
3
 72
23
 73
19
 74
0
 42
0.0000001
 43
0.0000001
 44
0.0000000001
 40
0.0
 40
0.0
 40
0.0
 40
0.0
 40
0.0597345028
 40
0.1136660306
 40
0.1627530657
 40
0.2092394535
 40
0.2560837866
 40
0.3061445903
 40
0.3613572193
 40
0.4225061351
 40
0.4893878075
 40
0.5610675924
 40
0.6361198743
 40
0.7128204119
 40
0.7893039244
 40
0.8637058263
 40
0.934410758
 40
1.0
 40
1.0
 40
1.0
 40
1.0
 10
8.1479773065
 20
-22.6906008571
 30
0.0
 10
8.1479773065
 20
-22.8351423716
 30
0.0
 10
8.1249033179
 20
-23.1111927718
 30
0.0
 10
8.0085390227
 20
-23.4912163692
 30
0.0
 10
7.8126348245
 20
-23.8014925827
 30
0.0
 10
7.5423644929
 20
-24.0253203456
 30
0.0
 10
7.2113754025
 20
-24.1483698689
 30
0.0
 10
6.8389499299
 20
-24.1669624945
 30
0.0
 10
6.4411519611
 20
-24.0851461799
 30
0.0
 10
6.0316352233
 20
-23.9087553317
 30
0.0
 10
5.6243093515
 20
-23.6452166608
 30
0.0
 10
5.2335449036
 20
-23.3045122545
 30
0.0
 10
4.8735733307
 20
-22.8993153078
 30
0.0
 10
4.5577543081
 20
-22.4446996404
 30
0.0
 10
4.2979859293
 20
-21.9576801201
 30
0.0
 10
4.1037588578
 20
-21.4563699935
 30
0.0
 10
3.9826742509
 20
-20.9596133649
 30
0.0
 10
3.9523208981
 20
-20.6294792041
 30
0.0
 10
3.9523208981
 20
-20.4707707871
 30
0.0
  0
SPLINE
  5
2BF
100
AcDbEntity
  8
0
100
AcDbSpline
 62
250
  6
CONTINUOUS
 70
0
 71
3
 72
13
 73
9
 74
0
 42
0.0000001
 43
0.0000001
 44
0.0000000001
 40
0.0
 40
0.0
 40
0.0
 40
0.0
 40
0.2859670454
 40
0.542797863
 40
0.6621168142
 40
0.7769140469
 40
0.8888925622
 40
1.0
 40
1.0
 40
1.0
 40
1.0
 10
8.4214524235
 20
-22.648816004
 30
0.0
 10
8.4214524235
 20
-22.807834599
 30
0.0
 10
8.3952188158
 20
-23.1107720786
 30
0.0
 10
8.2803124053
 20
-23.4652118869
 30
0.0
 10
8.1417603431
 20
-23.7015502726
 30
0.0
 10
8.019427839
 20
-23.8512099422
 30
0.0
 10
7.8776269072
 20
-23.9757724737
 30
0.0
 10
7.7711575413
 20
-24.0408311871
 30
0.0
 10
7.7158993742
 20
-24.0684677689
 30
0.0
  0
SPLINE
  5
2C0
100
AcDbEntity
  8
RACCORDO
100
AcDbSpline
 62
250
  6
CONTINUOUS
 70
0
 71
3
 72
17
 73
13
 74
0
 42
0.0000001
 43
0.0000001
 44
0.0000000001
 40
0.0
 40
0.0
 40
0.0
 40
0.0
 40
0.0487449591
 40
0.099318257
 40
0.152471805
 40
0.20866476
 40
0.330346504
 40
0.4632734038
 40
0.6030344334
 40
0.7434141948
 40
0.8776592384
 40
1.0
 40
1.0
 40
1.0
 40
1.0
 10
8.2263071412
 20
-24.0658113387
 30
0.0
 10
8.1294502077
 20
-24.1230991611
 30
0.0
 10
7.9187573367
 20
-24.2184990763
 30
0.0
 10
7.5733596774
 20
-24.2964032382
 30
0.0
 10
7.2024968172
 20
-24.3102695613
 30
0.0
 10
6.6715212876
 20
-24.2418602443
 30
0.0
 10
5.9894622958
 20
-23.9899126791
 30
0.0
 10
5.2285379878
 20
-23.4775686198
 30
0.0
 10
4.5592429992
 20
-22.7893703935
 30
0.0
 10
4.0342192457
 20
-21.9822263975
 30
0.0
 10
3.6940873414
 20
-21.1247664741
 30
0.0
 10
3.6039667611
 20
-20.5313707761
 30
0.0
 10
3.603966045
 20
-20.248939675
 30
0.0
  0
SPLINE
  5
2C1
100
AcDbEntity
  8
RACCORDO
100
AcDbSpline
 62
250
  6
CONTINUOUS
 70
0
 71
3
 72
11
 73
7
 74
0
 42
0.0000001
 43
0.0000001
 44
0.0000000001
 40
0.0
 40
0.0
 40
0.0
 40
0.0
 40
0.275786398
 40
0.5291828739
 40
0.7673906063
 40
1.0
 40
1.0
 40
1.0
 40
1.0
 10
-15.024259593
 20
-6.0320139083
 30
0.0
 10
-15.10681329
 20
-6.0054634024
 30
0.0
 10
-15.2694273477
 20
-5.9660771633
 30
0.0
 10
-15.5120460768
 20
-5.9536740967
 30
0.0
 10
-15.7384976105
 20
-5.9922476139
 30
0.0
 10
-15.8757144791
 20
-6.0523317845
 30
0.0
 10
-15.9386635905
 20
-6.0895756464
 30
0.0
  0
SPLINE
  5
2C2
100
AcDbEntity
  8
RACCORDO
100
AcDbSpline
 62
250
  6
CONTINUOUS
 70
0
 71
3
 72
11
 73
7
 74
0
 42
0.0000001
 43
0.0000001
 44
0.0000000001
 40
0.0
 40
0.0
 40
0.0
 40
0.0
 40
0.2429567307
 40
0.4882348041
 40
0.7395096873
 40
1.0
 40
1.0
 40
1.0
 40
1.0
 10
1.2325662111
 20
-21.3315979588
 30
0.0
 10
1.3054824772
 20
-21.2905301997
 30
0.0
 10
1.4454709469
 20
-21.1956949627
 30
0.0
 10
1.6305553988
 20
-21.019104732
 30
0.0
 10
1.788917156
 20
-20.8106510559
 30
0.0
 10
1.8735461722
 20
-20.6551926457
 30
0.0
 10
1.9109915285
 20
-20.5736543722
 30
0.0
  0
SPLINE
  5
2C3
100
AcDbEntity
  8
RACCORDO
100
AcDbSpline
 62
250
  6
CONTINUOUS
 70
0
 71
3
 72
11
 73
7
 74
0
 42
0.0000001
 43
0.0000001
 44
0.0000000001
 40
0.0
 40
0.0
 40
0.0
 40
0.0
 40
0.2419573208
 40
0.4855193318
 40
0.7365600983
 40
1.0
 40
1.0
 40
1.0
 40
1.0
 10
8.3407024219
 20
-24.3752097353
 30
0.0
 10
8.4450803853
 20
-24.3158263811
 30
0.0
 10
8.6423710949
 20
-24.1735100431
 30
0.0
 10
8.8862095667
 20
-23.8973155379
 30
0.0
 10
9.0704489356
 20
-23.566227914
 30
0.0
 10
9.1484142063
 20
-23.3212102547
 30
0.0
 10
9.1771032075
 20
-23.1936462473
 30
0.0
  0
SPLINE
  5
2C4
100
AcDbEntity
  8
RACCORDO
100
AcDbSpline
 62
250
  6
CONTINUOUS
 70
0
 71
3
 72
9
 73
5
 74
0
 42
0.0000001
 43
0.0000001
 44
0.0000000001
 40
0.0
 40
0.0
 40
0.0
 40
0.0
 40
0.5133171539
 40
1.0
 40
1.0
 40
1.0
 40
1.0
 10
-1.0016175501
 20
-15.1656368774
 30
0.0
 10
-3.4267807801
 20
-13.9297742672
 30
0.0
 10
-8.0559214132
 20
-11.3285330594
 30
0.0
 10
-12.4274661117
 20
-8.310088684
 30
0.0
 10
-14.4703821149
 20
-6.7332625909
 30
0.0
  0
SPLINE
  5
2C5
100
AcDbEntity
  8
RACCORDO
100
AcDbSpline
 62
250
  6
CONTINUOUS
 70
0
 71
3
 72
26
 73
22
 74
0
 42
0.0000001
 43
0.0000001
 44
0.0000000001
 40
0.0
 40
0.0
 40
0.0
 40
0.0
 40
0.0612727094
 40
0.1171941938
 40
0.1684798669
 40
0.1929365998
 40
0.2169332354
 40
0.2407926933
 40
0.2648521732
 40
0.2894343385
 40
0.3148276312
 40
0.3688260905
 40
0.4281120736
 40
0.4928823452
 40
0.562534428
 40
0.6359038737
 40
0.7114413012
 40
0.7873902074
 40
0.8619213386
 40
0.9332837557
 40
1.0
 40
1.0
 40
1.0
 40
1.0
 10
-1.0016175501
 20
-21.1137176587
 30
0.0
 10
-0.8301831292
 20
-21.2010787335
 30
0.0
 10
-0.4871746911
 20
-21.3413339682
 30
0.0
 10
0.0371598253
 20
-21.4383988145
 30
0.0
 10
0.455372799
 20
-21.4104495127
 30
0.0
 10
0.7566403786
 20
-21.3209978826
 30
0.0
 10
0.9628504704
 20
-21.223720119
 30
0.0
 10
1.1503165899
 20
-21.0961274495
 30
0.0
 10
1.3167782761
 20
-20.939476577
 30
0.0
 10
1.4606026757
 20
-20.7557170014
 30
0.0
 10
1.6231906803
 20
-20.4714347274
 30
0.0
 10
1.7590806673
 20
-20.0524530158
 30
0.0
 10
1.8090023119
 20
-19.4918664358
 30
0.0
 10
1.7495984198
 20
-18.8834768167
 30
0.0
 10
1.584708514
 20
-18.2497481761
 30
0.0
 10
1.3215290226
 20
-17.613768684
 30
0.0
 10
0.9714660249
 20
-16.9985600694
 30
0.0
 10
0.5488089242
 20
-16.4263499039
 30
0.0
 10
0.0704930123
 20
-15.9174916904
 30
0.0
 10
-0.4448544037
 20
-15.4903571419
 30
0.0
 10
-0.8149535428
 20
-15.2607608475
 30
0.0
 10
-1.0016175501
 20
-15.1656368774
 30
0.0
  0
SPLINE
  5
2C6
100
AcDbEntity
  8
RACCORDO
100
AcDbSpline
 62
250
  6
CONTINUOUS
 70
0
 71
3
 72
9
 73
5
 74
0
 42
0.0000001
 43
0.0000001
 44
0.0000000001
 40
0.0
 40
0.0
 40
0.0
 40
0.0
 40
0.4893804334
 40
1.0
 40
1.0
 40
1.0
 40
1.0
 10
-14.3873250933
 20
-12.7452552146
 30
0.0
 10
-12.7939316952
 20
-13.9715051836
 30
0.0
 10
-9.4334658215
 20
-16.343418326
 30
0.0
 10
-5.907591814
 20
-18.4597768623
 30
0.0
 10
-4.0738097824
 20
-19.478769875
 30
0.0
  0
SPLINE
  5
2C7
100
AcDbEntity
  8
RACCORDO
100
AcDbSpline
 62
250
  6
CONTINUOUS
 70
0
 71
3
 72
11
 73
7
 74
0
 42
0.0000001
 43
0.0000001
 44
0.0000000001
 40
0.0
 40
0.0
 40
0.0
 40
0.0
 40
0.2775842178
 40
0.5317593842
 40
0.7689372839
 40
1.0
 40
1.0
 40
1.0
 40
1.0
 10
3.603966045
 20
-20.248939675
 30
0.0
 10
3.6039663305
 20
-20.0791997352
 30
0.0
 10
3.6339194305
 20
-19.7526408217
 30
0.0
 10
3.7845085327
 20
-19.3019968516
 30
0.0
 10
4.0365862687
 20
-18.9317227819
 30
0.0
 10
4.2662922551
 20
-18.7519626312
 30
0.0
 10
4.3894021176
 20
-18.6826262354
 30
0.0
  0
SPLINE
  5
2C8
100
AcDbEntity
  8
RACCORDO
100
AcDbSpline
 62
250
  6
CONTINUOUS
 70
0
 71
3
 72
27
 73
23
 74
0
 42
0.0000001
 43
0.0000001
 44
0.0000000001
 40
0.0
 40
0.0
 40
0.0
 40
0.0
 40
0.0579075105
 40
0.0837604818
 40
0.1076227981
 40
0.1502257782
 40
0.1699549127
 40
0.1893501047
 40
0.2090675992
 40
0.229729376
 40
0.2756855839
 40
0.3017216548
 40
0.3299420138
 40
0.3928212245
 40
0.4635282853
 40
0.5403087152
 40
0.6209299834
 40
0.7029517723
 40
0.7839524035
 40
0.8616864778
 40
0.9341988363
 40
1.0
 40
1.0
 40
1.0
 40
1.0
 10
-14.4703821149
 20
-6.7332625909
 30
0.0
 10
-14.6044329581
 20
-6.6297953485
 30
0.0
 10
-14.8099730205
 20
-6.4933230602
 30
0.0
 10
-15.0972044164
 20
-6.3629228166
 30
0.0
 10
-15.3550889841
 20
-6.2820878065
 30
0.0
 10
-15.6118019628
 20
-6.2581589474
 30
0.0
 10
-15.8473717068
 20
-6.3067086987
 30
0.0
 10
-16.0063445931
 20
-6.3758078715
 30
0.0
 10
-16.1497345106
 20
-6.4778815189
 30
0.0
 10
-16.3240629352
 20
-6.6623856912
 30
0.0
 10
-16.4538937452
 20
-6.9057261013
 30
0.0
 10
-16.5433707521
 20
-7.1849524779
 30
0.0
 10
-16.6128076834
 20
-7.5210575519
 30
0.0
 10
-16.6432236514
 20
-7.9954462892
 30
0.0
 10
-16.5985208904
 20
-8.6104049717
 30
0.0
 10
-16.4754783715
 20
-9.267298576
 30
0.0
 10
-16.2783172584
 20
-9.9402199952
 30
0.0
 10
-16.0141457436
 20
-10.6030543836
 30
0.0
 10
-15.6921437658
 20
-11.2303716291
 30
0.0
 10
-15.3235117546
 20
-11.7988823268
 30
0.0
 10
-14.9208394092
 20
-12.2875351576
 30
0.0
 10
-14.6227037473
 20
-12.5636661581
 30
0.0
 10
-14.4703821149
 20
-12.6812405408
 30
0.0
  0
SPLINE
  5
2C9
100
AcDbEntity
  8
RACCORDO
100
AcDbSpline
 62
250
  6
CONTINUOUS
 70
0
 71
3
 72
11
 73
7
 74
0
 42
0.0000001
 43
0.0000001
 44
0.0000000001
 40
0.0
 40
0.0
 40
0.0
 40
0.0
 40
0.2272879338
 40
0.474621746
 40
0.7352497277
 40
1.0
 40
1.0
 40
1.0
 40
1.0
 10
9.1104269267
 20
-22.6443510692
 30
0.0
 10
9.110423332
 20
-22.3839953874
 30
0.0
 10
9.0337448668
 20
-21.8392632379
 30
0.0
 10
8.7375348683
 20
-21.0454194188
 30
0.0
 10
8.2786644625
 20
-20.283319609
 30
0.0
 10
7.884417222
 20
-19.824359106
 30
0.0
 10
7.6683963969
 20
-19.6115054054
 30
0.0
  0
SPLINE
  5
2CA
100
AcDbEntity
  8
RACCORDO
100
AcDbSpline
 62
250
  6
CONTINUOUS
 70
0
 71
3
 72
9
 73
5
 74
0
 42
0.0000001
 43
0.0000001
 44
0.0000000001
 40
0.0
 40
0.0
 40
0.0
 40
0.0
 40
0.525594712
 40
1.0
 40
1.0
 40
1.0
 40
1.0
 10
7.2590362816
 20
-19.2474901009
 30
0.0
 10
6.9922304316
 20
-19.0340071305
 30
0.0
 10
6.4434978041
 20
-18.6759694896
 30
0.0
 10
5.8231383161
 20
-18.4527958618
 30
0.0
 10
5.5200253898
 20
-18.3958128718
 30
0.0
  0
SPLINE
  5
2CB
100
AcDbEntity
  8
RACCORDO
100
AcDbSpline
 62
250
  6
CONTINUOUS
 70
0
 71
3
 72
15
 73
11
 74
0
 42
0.0000001
 43
0.0000001
 44
0.0000000001
 40
0.0
 40
0.0
 40
0.0
 40
0.0
 40
0.1327319474
 40
0.2568301748
 40
0.3747529109
 40
0.4900842752
 40
0.6069494044
 40
0.7292061714
 40
0.8597101009
 40
1.0
 40
1.0
 40
1.0
 40
1.0
 10
5.3289811092
 20
-18.3668269422
 30
0.0
 10
5.1913567654
 20
-18.3510484379
 30
0.0
 10
4.9217703227
 20
-18.341985466
 30
0.0
 10
4.5330157147
 20
-18.4054570993
 30
0.0
 10
4.184293086
 20
-18.5472098255
 30
0.0
 10
3.8860977398
 20
-18.7648570407
 30
0.0
 10
3.6478365205
 20
-19.0525898944
 30
0.0
 10
3.4758589802
 20
-19.4014101249
 30
0.0
 10
3.3730726253
 20
-19.8010285152
 30
0.0
 10
3.3519576888
 20
-20.0843514948
 30
0.0
 10
3.3519578532
 20
-20.2307652482
 30
0.0
  0
SPLINE
  5
2CC
100
AcDbEntity
  8
RACCORDO
100
AcDbSpline
 62
250
  6
CONTINUOUS
 70
0
 71
3
 72
23
 73
19
 74
0
 42
0.0000001
 43
0.0000001
 44
0.0000000001
 40
0.0
 40
0.0
 40
0.0
 40
0.0
 40
0.0630884923
 40
0.1308794836
 40
0.2022802318
 40
0.2758356886
 40
0.3499435798
 40
0.4230291363
 40
0.4936778503
 40
0.5607648683
 40
0.6235541246
 40
0.6818267396
 40
0.7359861716
 40
0.7871572695
 40
0.837133623
 40
0.8880546091
 40
0.9418998705
 40
1.0
 40
1.0
 40
1.0
 40
1.0
 10
3.3519578532
 20
-20.2307652482
 30
0.0
 10
3.3519603055
 20
-20.4273425652
 30
0.0
 10
3.3926375887
 20
-20.8356730038
 30
0.0
 10
3.5558463152
 20
-21.446745252
 30
0.0
 10
3.8177761742
 20
-22.05805929
 30
0.0
 10
4.1688240693
 20
-22.6457030014
 30
0.0
 10
4.5959506437
 20
-23.1873136485
 30
0.0
 10
5.0839760828
 20
-23.6620257096
 30
0.0
 10
5.6153595023
 20
-24.0520526542
 30
0.0
 10
6.1710975187
 20
-24.343342558
 30
0.0
 10
6.7318532361
 20
-24.5250368054
 30
0.0
 10
7.2779754088
 20
-24.5900916514
 30
0.0
 10
7.7898221318
 20
-24.5341032343
 30
0.0
 10
8.2464070393
 20
-24.3557309784
 30
0.0
 10
8.6254808131
 20
-24.0600315297
 30
0.0
 10
8.9064336508
 20
-23.6599020969
 30
0.0
 10
9.0759741011
 20
-23.1758035427
 30
0.0
 10
9.1104271273
 20
-22.8253851557
 30
0.0
 10
9.1104269267
 20
-22.6443510692
 30
0.0
  0
SPLINE
  5
2CD
100
AcDbEntity
  8
RACCORDO
100
AcDbSpline
 62
250
  6
CONTINUOUS
 70
0
 71
3
 72
9
 73
5
 74
0
 42
0.0000001
 43
0.0000001
 44
0.0000000001
 40
0.0
 40
0.0
 40
0.0
 40
0.0
 40
0.2606713971
 40
1.0
 40
1.0
 40
1.0
 40
1.0
 10
9.0526213043
 20
-22.6219295305
 30
0.0
 10
9.0526211419
 20
-22.6841478359
 30
0.0
 10
9.0444536967
 20
-22.9226796391
 30
0.0
 10
9.00168738
 20
-23.1606628966
 30
0.0
 10
8.9476252455
 20
-23.3286441939
 30
0.0
  0
SPLINE
  5
2CE
100
AcDbEntity
  8
RACCORDO
100
AcDbSpline
 62
250
  6
CONTINUOUS
 70
0
 71
3
 72
22
 73
18
 74
0
 42
0.0000001
 43
0.0000001
 44
0.0000000001
 40
0.0
 40
0.0
 40
0.0
 40
0.0
 40
0.0523016018
 40
0.1023994993
 40
0.1520242978
 40
0.2029548645
 40
0.2566526272
 40
0.3140579765
 40
0.3755603479
 40
0.4410601999
 40
0.5100487256
 40
0.5816874533
 40
0.7281423062
 40
0.8006490638
 40
0.8708489082
 40
0.9375862551
 40
1.0
 40
1.0
 40
1.0
 40
1.0
 10
8.9465864578
 20
-23.33186247
 30
0.0
 10
8.9012454759
 20
-23.4719239221
 30
0.0
 10
8.7810031479
 20
-23.737596737
 30
0.0
 10
8.5076598074
 20
-24.0731957486
 30
0.0
 10
8.1574382486
 20
-24.3213730597
 30
0.0
 10
7.7457290312
 20
-24.4731726868
 30
0.0
 10
7.2887797736
 20
-24.52542778
 30
0.0
 10
6.8020966466
 20
-24.4785534152
 30
0.0
 10
6.3005881569
 20
-24.3352647799
 30
0.0
 10
5.7991221867
 20
-24.100430169
 30
0.0
 10
5.3123940887
 20
-23.7811921212
 30
0.0
 10
4.6987976181
 20
-23.2528287509
 30
0.0
 10
4.1806593126
 20
-22.6076825783
 30
0.0
 10
3.7903789499
 20
-21.8917880066
 30
0.0
 10
3.5738034227
 20
-21.3415749377
 30
0.0
 10
3.4394476048
 20
-20.7950257712
 30
0.0
 10
3.4063977404
 20
-20.4310578911
 30
0.0
 10
3.4063969603
 20
-20.2553768416
 30
0.0
  0
SPLINE
  5
2CF
100
AcDbEntity
  8
RACCORDO
100
AcDbSpline
 62
250
  6
CONTINUOUS
 70
0
 71
3
 72
15
 73
11
 74
0
 42
0.0000001
 43
0.0000001
 44
0.0000000001
 40
0.0
 40
0.0
 40
0.0
 40
0.0
 40
0.1393313608
 40
0.268482728
 40
0.3892672457
 40
0.5049647686
 40
0.619902335
 40
0.7385401904
 40
0.8644964467
 40
1.0
 40
1.0
 40
1.0
 40
1.0
 10
3.4063969603
 20
-20.2553768416
 30
0.0
 10
3.406397406
 20
-20.1051463066
 30
0.0
 10
3.4289304702
 20
-19.814836593
 30
0.0
 10
3.5398308883
 20
-19.4071354658
 30
0.0
 10
3.7252668745
 20
-19.0551191717
 30
0.0
 10
3.9815459085
 20
-18.7703673628
 30
0.0
 10
4.3009071968
 20
-18.5628785469
 30
0.0
 10
4.6720810099
 20
-18.4385785205
 30
0.0
 10
5.08289971
 20
-18.3986721364
 30
0.0
 10
5.3652166365
 20
-18.4262762853
 30
0.0
 10
5.5090403077
 20
-18.4519847522
 30
0.0
  0
SPLINE
  5
2D0
100
AcDbEntity
  8
RACCORDO
100
AcDbSpline
 62
250
  6
CONTINUOUS
 70
0
 71
3
 72
9
 73
5
 74
0
 42
0.0000001
 43
0.0000001
 44
0.0000000001
 40
0.0
 40
0.0
 40
0.0
 40
0.0
 40
0.4753555424
 40
1.0
 40
1.0
 40
1.0
 40
1.0
 10
5.5593366858
 20
-18.4614564995
 30
0.0
 10
5.8447115306
 20
-18.517915029
 30
0.0
 10
6.4276239413
 20
-18.7287672356
 30
0.0
 10
6.9461298003
 20
-19.0622098719
 30
0.0
 10
7.1987651403
 20
-19.2603541715
 30
0.0
  0
SPLINE
  5
2D1
100
AcDbEntity
  8
RACCORDO
100
AcDbSpline
 62
250
  6
CONTINUOUS
 70
0
 71
3
 72
9
 73
5
 74
0
 42
0.0000001
 43
0.0000001
 44
0.0000000001
 40
0.0
 40
0.0
 40
0.0
 40
0.0
 40
0.5059904575
 40
1.0
 40
1.0
 40
1.0
 40
1.0
 10
7.6454001374
 20
-19.6544182207
 30
0.0
 10
7.8850769288
 20
-19.891390769
 30
0.0
 10
8.3156419402
 20
-20.4052728479
 30
0.0
 10
8.6408320201
 20
-20.9927728052
 30
0.0
 10
8.7669730449
 20
-21.2967026758
 30
0.0
  0
SPLINE
  5
2D2
100
AcDbEntity
  8
RACCORDO
100
AcDbSpline
 62
250
  6
CONTINUOUS
 70
0
 71
3
 72
9
 73
5
 74
0
 42
0.0000001
 43
0.0000001
 44
0.0000000001
 40
0.0
 40
0.0
 40
0.0
 40
0.0
 40
0.2531736929
 40
1.0
 40
1.0
 40
1.0
 40
1.0
 10
8.7669730449
 20
-21.2967026758
 30
0.0
 10
8.7800648579
 20
-21.3282466802
 30
0.0
 10
8.8303021977
 20
-21.4534455071
 30
0.0
 10
8.8745488219
 20
-21.5810633953
 30
0.0
 10
8.9038221532
 20
-21.677462873
 30
0.0
  0
SPLINE
  5
2D3
100
AcDbEntity
  8
RACCORDO
100
AcDbSpline
 62
250
  6
CONTINUOUS
 70
0
 71
3
 72
9
 73
5
 74
0
 42
0.0000001
 43
0.0000001
 44
0.0000000001
 40
0.0
 40
0.0
 40
0.0
 40
0.0
 40
0.2608700867
 40
1.0
 40
1.0
 40
1.0
 40
1.0
 10
8.9101583769
 20
-21.6985443069
 30
0.0
 10
8.933365402
 20
-21.7765640947
 30
0.0
 10
9.0128207999
 20
-22.0782684524
 30
0.0
 10
9.0526203501
 20
-22.3913021587
 30
0.0
 10
9.0526213043
 20
-22.6219295305
 30
0.0
  0
SPLINE
  5
2D4
100
AcDbEntity
  8
RACCORDO
100
AcDbSpline
 62
250
  6
CONTINUOUS
 70
0
 71
3
 72
11
 73
7
 74
0
 42
0.0000001
 43
0.0000001
 44
0.0000000001
 40
0.0
 40
0.0
 40
0.0
 40
0.0
 40
0.2795837924
 40
0.5374016016
 40
0.7756068682
 40
1.0
 40
1.0
 40
1.0
 40
1.0
 10
6.0427127617
 20
-18.3927018256
 30
0.0
 10
5.8737211964
 20
-18.3323970347
 30
0.0
 10
5.5394151522
 20
-18.2403794427
 30
0.0
 10
5.04032929
 20
-18.1968782671
 30
0.0
 10
4.5778099907
 20
-18.2573353631
 30
0.0
 10
4.2989211875
 20
-18.3710002116
 30
0.0
 10
4.1746267552
 20
-18.4437296654
 30
0.0
  0
SPLINE
  5
2D5
100
AcDbEntity
  8
RACCORDO
100
AcDbSpline
 62
250
  6
CONTINUOUS
 70
0
 71
3
 72
9
 73
5
 74
0
 42
0.0000001
 43
0.0000001
 44
0.0000000001
 40
0.0
 40
0.0
 40
0.0
 40
0.0
 40
0.5605304371
 40
1.0
 40
1.0
 40
1.0
 40
1.0
 10
3.3519578532
 20
-20.2307652482
 30
0.0
 10
3.3414192213
 20
-20.2259973028
 30
0.0
 10
3.3232132176
 20
-20.2148822551
 30
0.0
 10
3.3136480626
 20
-20.1943904487
 30
0.0
 10
3.3136406742
 20
-20.1853216215
 30
0.0
  0
SPLINE
  5
2D6
100
AcDbEntity
  8
RACCORDO
100
AcDbSpline
 62
250
  6
CONTINUOUS
 70
0
 71
3
 72
9
 73
5
 74
0
 42
0.0000001
 43
0.0000001
 44
0.0000000001
 40
0.0
 40
0.0
 40
0.0
 40
0.0
 40
0.493316161
 40
1.0
 40
1.0
 40
1.0
 40
1.0
 10
9.1104269267
 20
-22.6443510692
 30
0.0
 10
9.1255874714
 20
-22.6502269376
 30
0.0
 10
9.1586145997
 20
-22.6562941304
 30
0.0
 10
9.191948137
 20
-22.6531367657
 30
0.0
 10
9.2080835969
 20
-22.648831366
 30
0.0
  0
SPLINE
  5
2D7
100
AcDbEntity
  8
RACCORDO
100
AcDbSpline
 62
250
  6
CONTINUOUS
 70
0
 71
3
 72
9
 73
5
 74
0
 42
0.0000001
 43
0.0000001
 44
0.0000000001
 40
0.0
 40
0.0
 40
0.0
 40
0.0
 40
0.5314849144
 40
1.0
 40
1.0
 40
1.0
 40
1.0
 10
-14.4703821149
 20
-12.6812405408
 30
0.0
 10
-14.4703822978
 20
-12.7032805979
 30
0.0
 10
-14.4639986152
 20
-12.7455246189
 30
0.0
 10
-14.4383335856
 20
-12.7808112614
 30
0.0
 10
-14.4229467174
 20
-12.7926738695
 30
0.0
  0
SPLINE
  5
2D8
100
AcDbEntity
  8
RACCORDO
100
AcDbSpline
 62
250
  6
CONTINUOUS
 70
0
 71
3
 72
9
 73
5
 74
0
 42
0.0000001
 43
0.0000001
 44
0.0000000001
 40
0.0
 40
0.0
 40
0.0
 40
0.0
 40
0.4811867036
 40
1.0
 40
1.0
 40
1.0
 40
1.0
 10
-14.4703821149
 20
-6.7332625909
 30
0.0
 10
-14.4703825339
 20
-6.6828383187
 30
0.0
 10
-14.4345530033
 20
-6.5787165089
 30
0.0
 10
-14.361791559
 20
-6.4988031987
 30
0.0
 10
-14.3167325988
 20
-6.4683814202
 30
0.0
  0
SPLINE
  5
2D9
100
AcDbEntity
  8
RACCORDO
100
AcDbSpline
 62
250
  6
CONTINUOUS
 70
0
 71
3
 72
9
 73
5
 74
0
 42
0.0000001
 43
0.0000001
 44
0.0000000001
 40
0.0
 40
0.0
 40
0.0
 40
0.0
 40
0.4823217976
 40
1.0
 40
1.0
 40
1.0
 40
1.0
 10
-1.0016175501
 20
-15.1656368774
 30
0.0
 10
-1.0016173513
 20
-15.1210266282
 30
0.0
 10
-0.9790188597
 20
-15.028832907
 30
0.0
 10
-0.93146365
 20
-14.9477796032
 30
0.0
 10
-0.900418227
 20
-14.911328087
 30
0.0
  0
SPLINE
  5
2DA
100
AcDbEntity
  8
RACCORDO
100
AcDbSpline
 62
250
  6
CONTINUOUS
 70
0
 71
3
 72
11
 73
7
 74
0
 42
0.0000001
 43
0.0000001
 44
0.0000000001
 40
0.0
 40
0.0
 40
0.0
 40
0.0
 40
0.2971509878
 40
0.5590387273
 40
0.7890651795
 40
1.0
 40
1.0
 40
1.0
 40
1.0
 10
-1.0016175501
 20
-21.1137176587
 30
0.0
 10
-1.0016174815
 20
-21.1267718654
 30
0.0
 10
-0.9997212183
 20
-21.1514119471
 30
0.0
 10
-0.9900177496
 20
-21.1850128163
 30
0.0
 10
-0.9735882244
 20
-21.2117211564
 30
0.0
 10
-0.9579464398
 20
-21.2240196672
 30
0.0
 10
-0.9496915409
 20
-21.2282300093
 30
0.0
  0
SPLINE
  5
2DB
100
AcDbEntity
  8
ASSI
100
AcDbSpline
 62
7
  6
CONTINUOUS
 70
0
 71
3
 72
14
 73
10
 74
0
 42
0.0000001
 43
0.0000001
 44
0.0000000001
 40
0.0
 40
0.0
 40
0.0
 40
0.0
 40
0.1011482787
 40
0.2070556428
 40
0.3198659357
 40
0.4407521871
 40
0.569984071
 40
0.7070912379
 40
1.0
 40
1.0
 40
1.0
 40
1.0
 10
3.9954198278
 20
-18.3830896637
 30
0.0
 10
4.1014048419
 20
-18.3218950488
 30
0.0
 10
4.3339520321
 20
-18.2220737943
 30
0.0
 10
4.716684563
 20
-18.1493799056
 30
0.0
 10
5.1297947038
 20
-18.1509519543
 30
0.0
 10
5.5643048457
 20
-18.2252474362
 30
0.0
 10
6.0115536587
 20
-18.3695945693
 30
0.0
 10
6.6256329052
 20
-18.6567366362
 30
0.0
 10
7.0569481634
 20
-18.9567171425
 30
0.0
 10
7.3277750859
 20
-19.1853060874
 30
0.0
  0
SPLINE
  5
2DC
100
AcDbEntity
  8
ASSI
100
AcDbSpline
 62
7
  6
CONTINUOUS
 70
0
 71
3
 72
11
 73
7
 74
0
 42
0.0000001
 43
0.0000001
 44
0.0000000001
 40
0.0
 40
0.0
 40
0.0
 40
0.0
 40
0.2552335013
 40
0.5122130931
 40
0.7628647343
 40
1.0
 40
1.0
 40
1.0
 40
1.0
 10
7.3277750859
 20
-19.1853060874
 30
0.0
 10
7.5528126547
 20
-19.3752469542
 30
0.0
 10
7.9751405144
 20
-19.7924624185
 30
0.0
 10
8.5037888846
 20
-20.500315703
 30
0.0
 10
8.9062265893
 20
-21.2635882747
 30
0.0
 10
9.0798473945
 20
-21.8031639698
 30
0.0
 10
9.1357585628
 20
-22.0709906123
 30
0.0
  0
SPLINE
  5
2DD
100
AcDbEntity
  8
ASSI
100
AcDbSpline
 62
7
  6
CONTINUOUS
 70
0
 71
3
 72
9
 73
5
 74
0
 42
0.0000001
 43
0.0000001
 44
0.0000000001
 40
0.0
 40
0.0
 40
0.0
 40
0.0
 40
0.2579248153
 40
1.0
 40
1.0
 40
1.0
 40
1.0
 10
9.1357585628
 20
-22.0709906123
 30
0.0
 10
9.1480212267
 20
-22.1297314363
 30
0.0
 10
9.1902354618
 20
-22.3585246628
 30
0.0
 10
9.2104211698
 20
-22.5916205668
 30
0.0
 10
9.2104211698
 20
-22.7642670507
 30
0.0
  0
SPLINE
  5
2DE
100
AcDbEntity
  8
0
100
AcDbSpline
 62
7
  6
CONTINUOUS
 70
0
 71
3
 72
11
 73
7
 74
0
 42
0.0000001
 43
0.0000001
 44
0.0000000001
 40
0.0
 40
0.0
 40
0.0
 40
0.0
 40
0.2517594073
 40
0.5142117408
 40
0.7691387172
 40
1.0
 40
1.0
 40
1.0
 40
1.0
 10
14.1674213507
 20
-31.1664044563
 30
0.0
 10
14.3052814111
 20
-31.2116983773
 30
0.0
 10
14.597968462
 20
-31.2719432366
 30
0.0
 10
15.0436004855
 20
-31.2790177439
 30
0.0
 10
15.4711406131
 20
-31.2063527146
 30
0.0
 10
15.7345272003
 20
-31.1019614984
 30
0.0
 10
15.8497627869
 20
-31.0354259149
 30
0.0
  0
SPLINE
  5
2DF
100
AcDbEntity
  8
ASSI
100
AcDbSpline
 62
7
  6
CONTINUOUS
 70
0
 71
3
 72
14
 73
10
 74
0
 42
0.0000001
 43
0.0000001
 44
0.0000000001
 40
0.0
 40
0.0
 40
0.0
 40
0.0
 40
0.1023913846
 40
0.2064172655
 40
0.3153251582
 40
0.4317544875
 40
0.5575961507
 40
0.6940098847
 40
1.0
 40
1.0
 40
1.0
 40
1.0
 10
-16.0810122612
 20
-6.0267774119
 30
0.0
 10
-16.0269967585
 20
-5.9955892145
 30
0.0
 10
-15.9112010146
 20
-5.9438610551
 30
0.0
 10
-15.7221630747
 20
-5.9033059952
 30
0.0
 10
-15.5204238057
 20
-5.8997801806
 30
0.0
 10
-15.3081438522
 20
-5.9326358278
 30
0.0
 10
-15.0870704863
 20
-6.0009613826
 30
0.0
 10
-14.7709382846
 20
-6.1435509361
 30
0.0
 10
-14.5446243405
 20
-6.2936390558
 30
0.0
 10
-14.3970016399
 20
-6.4074438701
 30
0.0
  0
SPLINE
  5
2E0
100
AcDbEntity
  8
0
100
AcDbSpline
 62
7
  6
CONTINUOUS
 70
0
 71
3
 72
11
 73
7
 74
0
 42
0.0000001
 43
0.0000001
 44
0.0000000001
 40
0.0
 40
0.0
 40
0.0
 40
0.0
 40
0.2277123015
 40
0.4759660347
 40
0.7366269121
 40
1.0
 40
1.0
 40
1.0
 40
1.0
 10
12.3691261077
 20
-30.8629855889
 30
0.0
 10
12.2197302655
 20
-30.776726302
 30
0.0
 10
11.8876041729
 20
-30.6300391849
 30
0.0
 10
11.3450112325
 20
-30.4913275894
 30
0.0
 10
10.7613352653
 20
-30.429517713
 30
0.0
 10
10.3630484557
 20
-30.4420700745
 30
0.0
 10
10.1645614007
 20
-30.4624063781
 30
0.0
  0
SPLINE
  5
2E1
100
AcDbEntity
  8
0
100
AcDbSpline
 62
7
  6
CONTINUOUS
 70
0
 71
3
 72
11
 73
7
 74
0
 42
0.0000001
 43
0.0000001
 44
0.0000000001
 40
0.0
 40
0.0
 40
0.0
 40
0.0
 40
0.2676516195
 40
0.5239773089
 40
0.7682223034
 40
1.0
 40
1.0
 40
1.0
 40
1.0
 10
10.0729562944
 20
-30.4512296543
 30
0.0
 10
7.4266094355
 20
-29.4234711986
 30
0.0
 10
2.3129084268
 20
-27.2321397736
 30
0.0
 10
-4.918581142
 20
-23.4586962174
 30
0.0
 10
-11.4900555003
 20
-19.2994073838
 30
0.0
 10
-15.4970100887
 20
-16.2116557292
 30
0.0
 10
-17.3624130059
 20
-14.6103912663
 30
0.0
  0
SPLINE
  5
2E2
100
AcDbEntity
  8
ASSI
100
AcDbSpline
 62
7
  6
CONTINUOUS
 70
0
 71
3
 72
19
 73
15
 74
0
 42
0.0000001
 43
0.0000001
 44
0.0000000001
 40
0.0
 40
0.0
 40
0.0
 40
0.0
 40
0.1298470891
 40
0.2711819215
 40
0.4166779368
 40
0.5584790418
 40
0.6258540943
 40
0.689884388
 40
0.7501118377
 40
0.8063472243
 40
0.8587322122
 40
0.9077934032
 40
0.9544593258
 40
1.0
 40
1.0
 40
1.0
 40
1.0
 10
-0.979475013
 20
-14.8688335119
 30
0.0
 10
-0.6690324394
 20
-15.0295394392
 30
0.0
 10
-0.0625439404
 20
-15.4480607268
 30
0.0
 10
0.7268798385
 20
-16.2527296653
 30
0.0
 10
1.3835837699
 20
-17.2085612331
 30
0.0
 10
1.7788856501
 20
-18.0848121491
 30
0.0
 10
1.974358822
 20
-18.7952115712
 30
0.0
 10
2.0542518953
 20
-19.3061746291
 30
0.0
 10
2.0678253085
 20
-19.7933882204
 30
0.0
 10
2.0143633106
 20
-20.2466537216
 30
0.0
 10
1.8945180557
 20
-20.6562537035
 30
0.0
 10
1.7101488237
 20
-21.0130015229
 30
0.0
 10
1.4650124453
 20
-21.3078391767
 30
0.0
 10
1.2640555844
 20
-21.4582021807
 30
0.0
 10
1.1578791689
 20
-21.5195072089
 30
0.0
  0
SPLINE
  5
2E3
100
AcDbEntity
  8
ASSI
100
AcDbSpline
 62
7
  6
CONTINUOUS
 70
0
 71
3
 72
9
 73
5
 74
0
 42
0.0000001
 43
0.0000001
 44
0.0000000001
 40
0.0
 40
0.0
 40
0.0
 40
0.0
 40
0.5128153729
 40
1.0
 40
1.0
 40
1.0
 40
1.0
 10
-0.979475013
 20
-14.8688335119
 30
0.0
 10
-3.3899003929
 20
-13.6210354361
 30
0.0
 10
-7.9969072869
 20
-11.0014672977
 30
0.0
 10
-12.3548143636
 20
-7.981800273
 30
0.0
 10
-14.3970016399
 20
-6.4074438701
 30
0.0
  0
SPLINE
  5
2E4
100
AcDbEntity
  8
ASSI
100
AcDbSpline
 62
7
  6
CONTINUOUS
 70
0
 71
3
 72
11
 73
7
 74
0
 42
0.0000001
 43
0.0000001
 44
0.0000000001
 40
0.0
 40
0.0
 40
0.0
 40
0.0
 40
0.2739753143
 40
0.5273675231
 40
0.766290525
 40
1.0
 40
1.0
 40
1.0
 40
1.0
 10
9.2104211698
 20
-22.7642670507
 30
0.0
 10
9.2104211698
 20
-22.9569149278
 30
0.0
 10
9.1745147526
 20
-23.3294166972
 30
0.0
 10
8.9965460012
 20
-23.8440929523
 30
0.0
 10
8.7021811439
 20
-24.2694537812
 30
0.0
 10
8.436929451
 20
-24.4790059036
 30
0.0
 10
8.2946140649
 20
-24.5611777009
 30
0.0
  0
SPLINE
  5
2E5
100
AcDbEntity
  8
0
100
AcDbSpline
 62
7
  6
CONTINUOUS
 70
0
 71
3
 72
9
 73
5
 74
0
 42
0.0000001
 43
0.0000001
 44
0.0000000001
 40
0.0
 40
0.0
 40
0.0
 40
0.0
 40
0.253545511
 40
1.0
 40
1.0
 40
1.0
 40
1.0
 10
-17.3817704122
 20
30.7566007361
 30
0.0
 10
-17.3754231877
 20
30.7772535265
 30
0.0
 10
-17.353280813
 20
30.8595650395
 30
0.0
 10
-17.3433158071
 20
30.9451924207
 30
0.0
 10
-17.3433161757
 20
31.0088022847
 30
0.0
  0
SPLINE
  5
2E6
100
AcDbEntity
  8
0
100
AcDbSpline
 62
7
  6
CONTINUOUS
 70
0
 71
3
 72
9
 73
5
 74
0
 42
0.0000001
 43
0.0000001
 44
0.0000000001
 40
0.0
 40
0.0
 40
0.0
 40
0.0
 40
0.4491821089
 40
1.0
 40
1.0
 40
1.0
 40
1.0
 10
14.138064174
 20
14.1766057988
 30
0.0
 10
14.138064174
 20
14.1805000804
 30
0.0
 10
14.1414645263
 20
14.189192209
 30
0.0
 10
14.1485709306
 20
14.1946316955
 30
0.0
 10
14.1527065121
 20
14.1970195284
 30
0.0
  0
SPLINE
  5
2E7
100
AcDbEntity
  8
0
100
AcDbSpline
 62
7
  6
CONTINUOUS
 70
0
 71
3
 72
8
 73
4
 74
0
 42
0.0000001
 43
0.0000001
 44
0.0000000001
 40
0.0
 40
0.0
 40
0.0
 40
0.0
 40
1.0
 40
1.0
 40
1.0
 40
1.0
 10
-17.3836899815
 20
30.7439906553
 30
0.0
 10
-17.3836884139
 20
30.7482424374
 30
0.0
 10
-17.3830194565
 20
30.7525365582
 30
0.0
 10
-17.3817704122
 20
30.7566007361
 30
0.0
  0
SPLINE
  5
2E8
100
AcDbEntity
  8
0
100
AcDbSpline
 62
7
  6
CONTINUOUS
 70
0
 71
3
 72
11
 73
7
 74
0
 42
0.0000001
 43
0.0000001
 44
0.0000000001
 40
0.0
 40
0.0
 40
0.0
 40
0.0
 40
0.2898019501
 40
0.5490403542
 40
0.7822233176
 40
1.0
 40
1.0
 40
1.0
 40
1.0
 10
-18.3742054225
 20
34.0391647641
 30
0.0
 10
-18.4356595153
 20
34.0036819412
 30
0.0
 10
-18.5471308705
 20
33.9269459076
 30
0.0
 10
-18.6802837465
 20
33.7869034762
 30
0.0
 10
-18.7645755748
 20
33.6320768578
 30
0.0
 10
-18.784255336
 20
33.5209061181
 30
0.0
 10
-18.7842546567
 20
33.4675803341
 30
0.0
  0
SPLINE
  5
2E9
100
AcDbEntity
  8
0
100
AcDbSpline
 62
7
  6
CONTINUOUS
 70
0
 71
3
 72
9
 73
5
 74
0
 42
0.0000001
 43
0.0000001
 44
0.0000000001
 40
0.0
 40
0.0
 40
0.0
 40
0.0
 40
0.4492219968
 40
1.0
 40
1.0
 40
1.0
 40
1.0
 10
18.7324792335
 20
-29.3410863526
 30
0.0
 10
18.7324792335
 20
-29.3508231305
 30
0.0
 10
18.7239678051
 20
-29.3725503419
 30
0.0
 10
18.7062060084
 20
-29.3861513985
 30
0.0
 10
18.6958675812
 20
-29.3921206768
 30
0.0
  0
SPLINE
  5
2EA
100
AcDbEntity
  8
0
100
AcDbSpline
 62
7
  6
CONTINUOUS
 70
0
 71
3
 72
11
 73
7
 74
0
 42
0.0000001
 43
0.0000001
 44
0.0000000001
 40
0.0
 40
0.0
 40
0.0
 40
0.0
 40
0.2177814642
 40
0.4509426406
 40
0.7102332255
 40
1.0
 40
1.0
 40
1.0
 40
1.0
 10
-16.6392823499
 20
32.9368233622
 30
0.0
 10
-16.6392823499
 20
32.9463459656
 30
0.0
 10
-16.642798833
 20
32.9661962437
 30
0.0
 10
-16.6578465858
 20
32.9938475543
 30
0.0
 10
-16.6816273848
 20
33.0188519561
 30
0.0
 10
-16.7015319509
 20
33.0325566058
 30
0.0
 10
-16.7125044867
 20
33.0388920105
 30
0.0
  0
SPLINE
  5
2EB
100
AcDbEntity
  8
0
100
AcDbSpline
 62
7
  6
CONTINUOUS
 70
0
 71
3
 72
11
 73
7
 74
0
 42
0.0000001
 43
0.0000001
 44
0.0000000001
 40
0.0
 40
0.0
 40
0.0
 40
0.0
 40
0.217776992
 40
0.4509583864
 40
0.7102062846
 40
1.0
 40
1.0
 40
1.0
 40
1.0
 10
-18.5206520319
 20
32.4060663908
 30
0.0
 10
-18.5206520319
 20
32.4251113558
 30
0.0
 10
-18.5136231594
 20
32.4648149086
 30
0.0
 10
-18.4835195765
 20
32.5201113922
 30
0.0
 10
-18.4359637683
 20
32.5701256273
 30
0.0
 10
-18.3961527065
 20
32.5975316008
 30
0.0
 10
-18.3742054225
 20
32.6102036875
 30
0.0
  0
SPLINE
  5
2EC
100
AcDbEntity
  8
0
100
AcDbSpline
 62
7
  6
CONTINUOUS
 70
0
 71
3
 72
12
 73
8
 74
0
 42
0.0000001
 43
0.0000001
 44
0.0000000001
 40
0.0
 40
0.0
 40
0.0
 40
0.0
 40
0.1081717205
 40
0.2183727946
 40
0.4513768555
 40
0.710426052
 40
1.0
 40
1.0
 40
1.0
 40
1.0
 10
-16.4433182759
 20
31.008802285
 30
0.0
 10
-16.4433162556
 20
31.0731776284
 30
0.0
 10
-16.4545114349
 20
31.2034056374
 30
0.0
 10
-16.5221528789
 20
31.4644808306
 30
0.0
 10
-16.6957997214
 20
31.7845930052
 30
0.0
 10
-17.0192048214
 20
32.1243118691
 30
0.0
 10
-17.2899118824
 20
32.3107658615
 30
0.0
 10
-17.4391531555
 20
32.3969359022
 30
0.0
  0
SPLINE
  5
2ED
100
AcDbEntity
  8
0
100
AcDbSpline
 62
7
  6
CONTINUOUS
 70
0
 71
3
 72
11
 73
7
 74
0
 42
0.0000001
 43
0.0000001
 44
0.0000000001
 40
0.0
 40
0.0
 40
0.0
 40
0.0
 40
0.2278550815
 40
0.4749219948
 40
0.7348612182
 40
1.0
 40
1.0
 40
1.0
 40
1.0
 10
13.0055222107
 20
14.8185619071
 30
0.0
 10
12.8237995668
 20
14.9234862842
 30
0.0
 10
12.423418326
 20
15.1056290595
 30
0.0
 10
11.7700832623
 20
15.2898666666
 30
0.0
 10
11.0642041513
 20
15.3904257096
 30
0.0
 10
10.5792573937
 20
15.3985809093
 30
0.0
 10
10.3353334136
 20
15.3875274035
 30
0.0
  0
SPLINE
  5
2EE
100
AcDbEntity
  8
0
100
AcDbSpline
 62
7
  6
CONTINUOUS
 70
0
 71
3
 72
10
 73
6
 74
0
 42
0.0000001
 43
0.0000001
 44
0.0000000001
 40
0.0
 40
0.0
 40
0.0
 40
0.0
 40
0.2333036369
 40
0.4741088844
 40
1.0
 40
1.0
 40
1.0
 40
1.0
 10
-18.7842546567
 20
-11.8465200279
 30
0.0
 10
-18.7842542112
 20
-11.8814897667
 30
0.0
 10
-18.7761149284
 20
-11.9528093425
 30
0.0
 10
-18.7268719502
 20
-12.0953520084
 30
0.0
 10
-18.656382465
 20
-12.1901555053
 30
0.0
 10
-18.6010522955
 20
-12.2462984584
 30
0.0
  0
SPLINE
  5
2EF
100
AcDbEntity
  8
0
100
AcDbSpline
 62
7
  6
CONTINUOUS
 70
0
 71
3
 72
11
 73
7
 74
0
 42
0.0000001
 43
0.0000001
 44
0.0000000001
 40
0.0
 40
0.0
 40
0.0
 40
0.0
 40
0.2320489942
 40
0.4763760943
 40
0.7326031079
 40
1.0
 40
1.0
 40
1.0
 40
1.0
 10
-16.4537394968
 20
30.855202356
 30
0.0
 10
-14.6255755439
 20
29.2956602565
 30
0.0
 10
-10.7045486177
 20
26.2872410613
 30
0.0
 10
-4.2843413726
 20
22.2289779275
 30
0.0
 10
2.7707726289
 20
18.5417460068
 30
0.0
 10
7.75624722
 20
16.3954300847
 30
0.0
 10
10.3353334136
 20
15.3875274035
 30
0.0
  0
SPLINE
  5
2F0
100
AcDbEntity
  8
0
100
AcDbSpline
 62
7
  6
CONTINUOUS
 70
0
 71
3
 72
11
 73
7
 74
0
 42
0.0000001
 43
0.0000001
 44
0.0000000001
 40
0.0
 40
0.0
 40
0.0
 40
0.0
 40
0.2204404728
 40
0.4583239333
 40
0.7176969263
 40
1.0
 40
1.0
 40
1.0
 40
1.0
 10
-17.383465539
 20
-14.0476420534
 30
0.0
 10
-17.4066403269
 20
-13.9738783311
 30
0.0
 10
-17.4746672694
 20
-13.826302821
 30
0.0
 10
-17.627888341
 20
-13.6246163224
 30
0.0
 10
-17.830906819
 20
-13.4395952971
 30
0.0
 10
-17.9897997605
 20
-13.3341222793
 30
0.0
 10
-18.0755492586
 20
-13.2846115938
 30
0.0
  0
SPLINE
  5
2F1
100
AcDbEntity
  8
ASSI
100
AcDbSpline
 62
7
  6
CONTINUOUS
 70
0
 71
3
 72
9
 73
5
 74
0
 42
0.0000001
 43
0.0000001
 44
0.0000000001
 40
0.0
 40
0.0
 40
0.0
 40
0.0
 40
0.252770165
 40
1.0
 40
1.0
 40
1.0
 40
1.0
 10
8.3463088992
 20
-24.4036087699
 30
0.0
 10
8.3675699089
 20
-24.3996998193
 30
0.0
 10
8.4514314526
 20
-24.3829102991
 30
0.0
 10
8.5342275725
 20
-24.3607416679
 30
0.0
 10
8.5950352024
 20
-24.3410894071
 30
0.0
  0
SPLINE
  5
2F2
100
AcDbEntity
  8
0
100
AcDbSpline
 62
7
  6
CONTINUOUS
 70
0
 71
3
 72
9
 73
5
 74
0
 42
0.0000001
 43
0.0000001
 44
0.0000000001
 40
0.0
 40
0.0
 40
0.0
 40
0.0
 40
0.5080050777
 40
1.0
 40
1.0
 40
1.0
 40
1.0
 10
-18.5206150753
 20
-12.257313962
 30
0.0
 10
-18.5310433576
 20
-12.2619147899
 30
0.0
 10
-18.5539602588
 20
-12.2652833209
 30
0.0
 10
-18.5767776598
 20
-12.2603143289
 30
0.0
 10
-18.5863374569
 20
-12.2547946218
 30
0.0
  0
SPLINE
  5
2F3
100
AcDbEntity
  8
0
100
AcDbSpline
 62
7
  6
CONTINUOUS
 70
0
 71
3
 72
9
 73
5
 74
0
 42
0.0000001
 43
0.0000001
 44
0.0000000001
 40
0.0
 40
0.0
 40
0.0
 40
0.0
 40
0.5508178911
 40
1.0
 40
1.0
 40
1.0
 40
1.0
 10
14.1527065121
 20
-31.1579082929
 30
0.0
 10
14.1485709306
 20
-31.15552046
 30
0.0
 10
14.1414645263
 20
-31.1500809735
 30
0.0
 10
14.138064174
 20
-31.1413888449
 30
0.0
 10
14.138064174
 20
-31.1374945632
 30
0.0
  0
SPLINE
  5
2F4
100
AcDbEntity
  8
0
100
AcDbSpline
 62
7
  6
CONTINUOUS
 70
0
 71
3
 72
9
 73
5
 74
0
 42
0.0000001
 43
0.0000001
 44
0.0000000001
 40
0.0
 40
0.0
 40
0.0
 40
0.0
 40
0.5338743508
 40
1.0
 40
1.0
 40
1.0
 40
1.0
 10
-17.3624130059
 20
-14.6103912663
 30
0.0
 10
-17.3687133549
 20
-14.604983038
 30
0.0
 10
-17.3793061522
 20
-14.5930453916
 30
0.0
 10
-17.3836926544
 20
-14.5773592399
 30
0.0
 10
-17.3836899815
 20
-14.5701097067
 30
0.0
  0
SPLINE
  5
2F5
100
AcDbEntity
  8
0
100
AcDbSpline
 62
7
  6
CONTINUOUS
 70
0
 71
3
 72
9
 73
5
 74
0
 42
0.0000001
 43
0.0000001
 44
0.0000000001
 40
0.0
 40
0.0
 40
0.0
 40
0.0
 40
0.257705489
 40
1.0
 40
1.0
 40
1.0
 40
1.0
 10
10.1645614007
 20
-30.4624063781
 30
0.0
 10
10.156636879
 20
-30.4632182975
 30
0.0
 10
10.1257647043
 20
-30.4646080145
 30
0.0
 10
10.0943451519
 20
-30.4595364185
 30
0.0
 10
10.0729562944
 20
-30.4512296543
 30
0.0
  0
SPLINE
  5
2F6
100
AcDbEntity
  8
0
100
AcDbSpline
 62
7
  6
CONTINUOUS
 70
0
 71
3
 72
9
 73
5
 74
0
 42
0.0000001
 43
0.0000001
 44
0.0000000001
 40
0.0
 40
0.0
 40
0.0
 40
0.0
 40
0.5507780032
 40
1.0
 40
1.0
 40
1.0
 40
1.0
 10
-14.0078210487
 20
34.906748275
 30
0.0
 10
-13.9974826215
 20
34.9007789967
 30
0.0
 10
-13.9797208248
 20
34.8871779401
 30
0.0
 10
-13.9712093963
 20
34.8654507287
 30
0.0
 10
-13.9712093963
 20
34.8557139508
 30
0.0
  0
SPLINE
  5
2F7
100
AcDbEntity
  8
0
100
AcDbSpline
 62
7
  6
CONTINUOUS
 70
0
 71
3
 72
11
 73
7
 74
0
 42
0.0000001
 43
0.0000001
 44
0.0000000001
 40
0.0
 40
0.0
 40
0.0
 40
0.0
 40
0.2372193404
 40
0.5
 40
0.7627806596
 40
1.0
 40
1.0
 40
1.0
 40
1.0
 10
13.3748890528
 20
-31.0354259149
 30
0.0
 10
13.3246993901
 20
-31.0644047971
 30
0.0
 10
13.2079740774
 20
-31.1066993075
 30
0.0
 10
13.0213356622
 20
-31.1269634061
 30
0.0
 10
12.8346972469
 20
-31.1066993075
 30
0.0
 10
12.7179719343
 20
-31.0644047971
 30
0.0
 10
12.6677822716
 20
-31.0354259149
 30
0.0
  0
SPLINE
  5
2F8
100
AcDbEntity
  8
0
100
AcDbSpline
 62
7
  6
CONTINUOUS
 70
0
 71
3
 72
11
 73
7
 74
0
 42
0.0000001
 43
0.0000001
 44
0.0000000001
 40
0.0
 40
0.0
 40
0.0
 40
0.0
 40
0.2897937154
 40
0.5490416136
 40
0.782223008
 40
1.0
 40
1.0
 40
1.0
 40
1.0
 10
-18.3742054225
 20
-13.1121712678
 30
0.0
 10
-18.3961527065
 20
-13.0994991811
 30
0.0
 10
-18.4359637683
 20
-13.0720932077
 30
0.0
 10
-18.4835195765
 20
-13.0220789725
 30
0.0
 10
-18.5136231594
 20
-12.9667824889
 30
0.0
 10
-18.5206520319
 20
-12.9270789361
 30
0.0
 10
-18.5206520319
 20
-12.9080339712
 30
0.0
  0
SPLINE
  5
2F9
100
AcDbEntity
  8
0
100
AcDbSpline
 62
7
  6
CONTINUOUS
 70
0
 71
3
 72
11
 73
7
 74
0
 42
0.0000001
 43
0.0000001
 44
0.0000000001
 40
0.0
 40
0.0
 40
0.0
 40
0.0
 40
0.2372259409
 40
0.5
 40
0.7627740591
 40
1.0
 40
1.0
 40
1.0
 40
1.0
 10
13.7637977824
 20
15.2381197414
 30
0.0
 10
13.788893303
 20
15.2526095805
 30
0.0
 10
13.8472560268
 20
15.2737570005
 30
0.0
 10
13.9405744777
 20
15.2838870748
 30
0.0
 10
14.0338929287
 20
15.2737570005
 30
0.0
 10
14.0922556525
 20
15.2526095805
 30
0.0
 10
14.117351173
 20
15.2381197414
 30
0.0
  0
SPLINE
  5
2FA
100
AcDbEntity
  8
0
100
AcDbSpline
 62
7
  6
CONTINUOUS
 70
0
 71
3
 72
9
 73
5
 74
0
 42
0.0000001
 43
0.0000001
 44
0.0000000001
 40
0.0
 40
0.0
 40
0.0
 40
0.0
 40
0.5507780032
 40
1.0
 40
1.0
 40
1.0
 40
1.0
 10
16.8927452892
 20
16.6364602236
 30
0.0
 10
16.882406862
 20
16.6304909452
 30
0.0
 10
16.8646450653
 20
16.6168898887
 30
0.0
 10
16.8561336368
 20
16.5951626773
 30
0.0
 10
16.8561336368
 20
16.5854258994
 30
0.0
  0
SPLINE
  5
2FB
100
AcDbEntity
  8
0
100
AcDbSpline
 62
7
  6
CONTINUOUS
 70
0
 71
3
 72
11
 73
7
 74
0
 42
0.0000001
 43
0.0000001
 44
0.0000000001
 40
0.0
 40
0.0
 40
0.0
 40
0.0
 40
0.2372383085
 40
0.5
 40
0.7627616915
 40
1.0
 40
1.0
 40
1.0
 40
1.0
 10
-15.5281006282
 20
35.6824700023
 30
0.0
 10
-15.5155522126
 20
35.6897153002
 30
0.0
 10
-15.4863706456
 20
35.7002884375
 30
0.0
 10
-15.4397122806
 20
35.7053542033
 30
0.0
 10
-15.3930539155
 20
35.7002884375
 30
0.0
 10
-15.3638723486
 20
35.6897153002
 30
0.0
 10
-15.3513239329
 20
35.6824700023
 30
0.0
  0
SPLINE
  5
2FC
100
AcDbEntity
  8
0
100
AcDbSpline
 62
7
  6
CONTINUOUS
 70
0
 71
3
 72
11
 73
7
 74
0
 42
0.0000001
 43
0.0000001
 44
0.0000000001
 40
0.0
 40
0.0
 40
0.0
 40
0.0
 40
0.2372383085
 40
0.5
 40
0.7627616915
 40
1.0
 40
1.0
 40
1.0
 40
1.0
 10
17.1755880016
 20
16.7997700609
 30
0.0
 10
17.1881364173
 20
16.8070153588
 30
0.0
 10
17.2173179843
 20
16.8175884961
 30
0.0
 10
17.2639763493
 20
16.8226542619
 30
0.0
 10
17.3106347143
 20
16.8175884961
 30
0.0
 10
17.3398162813
 20
16.8070153588
 30
0.0
 10
17.3523646969
 20
16.7997700609
 30
0.0
  0
SPLINE
  5
2FD
100
AcDbEntity
  8
0
100
AcDbSpline
 62
7
  6
CONTINUOUS
 70
0
 71
3
 72
9
 73
5
 74
0
 42
0.0000001
 43
0.0000001
 44
0.0000000001
 40
0.0
 40
0.0
 40
0.0
 40
0.0
 40
0.5507780032
 40
1.0
 40
1.0
 40
1.0
 40
1.0
 10
18.6958675812
 20
16.0240483336
 30
0.0
 10
18.7062060084
 20
16.0180790553
 30
0.0
 10
18.7239678051
 20
16.0044779987
 30
0.0
 10
18.7324792335
 20
15.9827507873
 30
0.0
 10
18.7324792335
 20
15.9730140094
 30
0.0
  0
SPLINE
  5
2FE
100
AcDbEntity
  8
ASSI
100
AcDbSpline
 62
7
  6
CONTINUOUS
 70
0
 71
3
 72
13
 73
9
 74
0
 42
0.0000001
 43
0.0000001
 44
0.0000000001
 40
0.0
 40
0.0
 40
0.0
 40
0.0
 40
0.2788046317
 40
0.5333867235
 40
0.653578661
 40
0.7704037045
 40
0.885336663
 40
1.0
 40
1.0
 40
1.0
 40
1.0
 10
3.1304534458
 20
-20.1506453148
 30
0.0
 10
3.1304534458
 20
-19.9591546894
 30
0.0
 10
3.1631501316
 20
-19.5914424041
 30
0.0
 10
3.303793679
 20
-19.1598222814
 30
0.0
 10
3.4724226937
 20
-18.8661129185
 30
0.0
 10
3.6222680731
 20
-18.6752717188
 30
0.0
 10
3.7964066467
 20
-18.5118364509
 30
0.0
 10
3.9272180967
 20
-18.4224686147
 30
0.0
 10
3.9954198278
 20
-18.3830896637
 30
0.0
  0
SPLINE
  5
2FF
100
AcDbEntity
  8
0
100
AcDbSpline
 62
7
  6
CONTINUOUS
 70
0
 71
3
 72
11
 73
7
 74
0
 42
0.0000001
 43
0.0000001
 44
0.0000000001
 40
0.0
 40
0.0
 40
0.0
 40
0.0
 40
0.2517594073
 40
0.5142117408
 40
0.7691387172
 40
1.0
 40
1.0
 40
1.0
 40
1.0
 10
14.1674213507
 20
14.1476959057
 30
0.0
 10
14.3052814111
 20
14.1024019847
 30
0.0
 10
14.597968462
 20
14.0421571254
 30
0.0
 10
15.0436004855
 20
14.0350826181
 30
0.0
 10
15.4711406131
 20
14.1077476474
 30
0.0
 10
15.7345272003
 20
14.2121388636
 30
0.0
 10
15.8497627869
 20
14.2786744471
 30
0.0
  0
SPLINE
  5
300
100
AcDbEntity
  8
0
100
AcDbSpline
 62
7
  6
CONTINUOUS
 70
0
 71
3
 72
10
 73
6
 74
0
 42
0.0000001
 43
0.0000001
 44
0.0000000001
 40
0.0
 40
0.0
 40
0.0
 40
0.0
 40
0.2333036369
 40
0.4741088844
 40
1.0
 40
1.0
 40
1.0
 40
1.0
 10
-18.7842546567
 20
33.4675803341
 30
0.0
 10
-18.7842542112
 20
33.4326105953
 30
0.0
 10
-18.7761149284
 20
33.3612910195
 30
0.0
 10
-18.7268719502
 20
33.2187483536
 30
0.0
 10
-18.656382465
 20
33.1239448567
 30
0.0
 10
-18.6010522955
 20
33.0678019036
 30
0.0
  0
SPLINE
  5
301
100
AcDbEntity
  8
0
100
AcDbSpline
 62
7
  6
CONTINUOUS
 70
0
 71
3
 72
11
 73
7
 74
0
 42
0.0000001
 43
0.0000001
 44
0.0000000001
 40
0.0
 40
0.0
 40
0.0
 40
0.0
 40
0.217774499
 40
0.4509563541
 40
0.7102018643
 40
1.0
 40
1.0
 40
1.0
 40
1.0
 10
-17.3433161757
 20
31.0088022847
 30
0.0
 10
-17.3433167275
 20
31.104026008
 30
0.0
 10
-17.3784596211
 20
31.3025429197
 30
0.0
 10
-17.5289771024
 20
31.5790234959
 30
0.0
 10
-17.766754976
 20
31.8290969442
 30
0.0
 10
-17.9658111782
 20
31.9661273759
 30
0.0
 10
-18.0755492586
 20
32.0294887682
 30
0.0
  0
SPLINE
  5
302
100
AcDbEntity
  8
0
100
AcDbSpline
 62
7
  6
CONTINUOUS
 70
0
 71
3
 72
9
 73
5
 74
0
 42
0.0000001
 43
0.0000001
 44
0.0000000001
 40
0.0
 40
0.0
 40
0.0
 40
0.0
 40
0.5
 40
1.0
 40
1.0
 40
1.0
 40
1.0
 10
-18.5156267787
 20
33.0593057402
 30
0.0
 10
-18.5261205573
 20
33.0532467639
 30
0.0
 10
-18.5509821178
 20
33.0484561114
 30
0.0
 10
-18.5758436783
 20
33.0532467639
 30
0.0
 10
-18.5863374569
 20
33.0593057402
 30
0.0
  0
SPLINE
  5
303
100
AcDbEntity
  8
0
100
AcDbSpline
 62
7
  6
CONTINUOUS
 70
0
 71
3
 72
9
 73
5
 74
0
 42
0.0000001
 43
0.0000001
 44
0.0000000001
 40
0.0
 40
0.0
 40
0.0
 40
0.0
 40
0.5508178911
 40
1.0
 40
1.0
 40
1.0
 40
1.0
 10
14.1527065121
 20
14.1561920691
 30
0.0
 10
14.1485709306
 20
14.158579902
 30
0.0
 10
14.1414645263
 20
14.1640193885
 30
0.0
 10
14.138064174
 20
14.1727115171
 30
0.0
 10
14.138064174
 20
14.1766057988
 30
0.0
  0
SPLINE
  5
304
100
AcDbEntity
  8
0
100
AcDbSpline
 62
7
  6
CONTINUOUS
 70
0
 71
3
 72
11
 73
7
 74
0
 42
0.0000001
 43
0.0000001
 44
0.0000000001
 40
0.0
 40
0.0
 40
0.0
 40
0.0
 40
0.2277123015
 40
0.4759660347
 40
0.7366269121
 40
1.0
 40
1.0
 40
1.0
 40
1.0
 10
12.3691261077
 20
14.4511147731
 30
0.0
 10
12.2197302655
 20
14.53737406
 30
0.0
 10
11.8876041729
 20
14.6840611771
 30
0.0
 10
11.3450112325
 20
14.8227727727
 30
0.0
 10
10.7613352653
 20
14.884582649
 30
0.0
 10
10.3630484557
 20
14.8720302875
 30
0.0
 10
10.1645614007
 20
14.8516939839
 30
0.0
  0
SPLINE
  5
305
100
AcDbEntity
  8
0
100
AcDbSpline
 62
7
  6
CONTINUOUS
 70
0
 71
3
 72
9
 73
5
 74
0
 42
0.0000001
 43
0.0000001
 44
0.0000000001
 40
0.0
 40
0.0
 40
0.0
 40
0.0
 40
0.5338743508
 40
1.0
 40
1.0
 40
1.0
 40
1.0
 10
-17.3624130059
 20
30.7037090957
 30
0.0
 10
-17.3687133549
 20
30.709117324
 30
0.0
 10
-17.3793061522
 20
30.7210549704
 30
0.0
 10
-17.3836926544
 20
30.7367411221
 30
0.0
 10
-17.3836899815
 20
30.7439906553
 30
0.0
  0
SPLINE
  5
306
100
AcDbEntity
  8
0
100
AcDbSpline
 62
7
  6
CONTINUOUS
 70
0
 71
3
 72
9
 73
5
 74
0
 42
0.0000001
 43
0.0000001
 44
0.0000000001
 40
0.0
 40
0.0
 40
0.0
 40
0.0
 40
0.4492219968
 40
1.0
 40
1.0
 40
1.0
 40
1.0
 10
-13.9712093963
 20
34.8557139508
 30
0.0
 10
-13.9712093963
 20
34.8459771729
 30
0.0
 10
-13.9797208248
 20
34.8242499615
 30
0.0
 10
-13.9974826215
 20
34.8106489049
 30
0.0
 10
-14.0078210487
 20
34.8046796266
 30
0.0
  0
SPLINE
  5
307
100
AcDbEntity
  8
0
100
AcDbSpline
 62
7
  6
CONTINUOUS
 70
0
 71
3
 72
9
 73
5
 74
0
 42
0.0000001
 43
0.0000001
 44
0.0000000001
 40
0.0
 40
0.0
 40
0.0
 40
0.0
 40
0.257705489
 40
1.0
 40
1.0
 40
1.0
 40
1.0
 10
10.1645614007
 20
14.8516939839
 30
0.0
 10
10.156636879
 20
14.8508820645
 30
0.0
 10
10.1257647043
 20
14.8494923475
 30
0.0
 10
10.0943451519
 20
14.8545639435
 30
0.0
 10
10.0729562944
 20
14.8628707077
 30
0.0
  0
SPLINE
  5
308
100
AcDbEntity
  8
0
100
AcDbSpline
 62
7
  6
CONTINUOUS
 70
0
 71
3
 72
11
 73
7
 74
0
 42
0.0000001
 43
0.0000001
 44
0.0000000001
 40
0.0
 40
0.0
 40
0.0
 40
0.0
 40
0.2317776966
 40
0.4760226911
 40
0.7323483805
 40
1.0
 40
1.0
 40
1.0
 40
1.0
 10
-17.3624130059
 20
30.7037090957
 30
0.0
 10
-15.4970100887
 20
29.1024446328
 30
0.0
 10
-11.4900555003
 20
26.0146929782
 30
0.0
 10
-4.918581142
 20
21.8554041446
 30
0.0
 10
2.3129084268
 20
18.0819605884
 30
0.0
 10
7.4266094355
 20
15.8906291634
 30
0.0
 10
10.0729562944
 20
14.8628707077
 30
0.0
  0
SPLINE
  5
309
100
AcDbEntity
  8
0
100
AcDbSpline
 62
7
  6
CONTINUOUS
 70
0
 71
3
 72
9
 73
5
 74
0
 42
0.0000001
 43
0.0000001
 44
0.0000000001
 40
0.0
 40
0.0
 40
0.0
 40
0.0
 40
0.4492219968
 40
1.0
 40
1.0
 40
1.0
 40
1.0
 10
18.7324792335
 20
15.9730140094
 30
0.0
 10
18.7324792335
 20
15.9632772315
 30
0.0
 10
18.7239678051
 20
15.9415500201
 30
0.0
 10
18.7062060084
 20
15.9279489635
 30
0.0
 10
18.6958675812
 20
15.9219796852
 30
0.0
  0
SPLINE
  5
30A
100
AcDbEntity
  8
0
100
AcDbSpline
 62
7
  6
CONTINUOUS
 70
0
 71
3
 72
11
 73
7
 74
0
 42
0.0000001
 43
0.0000001
 44
0.0000000001
 40
0.0
 40
0.0
 40
0.0
 40
0.0
 40
0.2372193404
 40
0.5
 40
0.7627806596
 40
1.0
 40
1.0
 40
1.0
 40
1.0
 10
13.3748890528
 20
14.2786744471
 30
0.0
 10
13.3246993901
 20
14.2496955649
 30
0.0
 10
13.2079740774
 20
14.2074010545
 30
0.0
 10
13.0213356622
 20
14.1871369559
 30
0.0
 10
12.8346972469
 20
14.2074010545
 30
0.0
 10
12.7179719343
 20
14.2496955649
 30
0.0
 10
12.6677822716
 20
14.2786744471
 30
0.0
  0
SPLINE
  5
30B
100
AcDbEntity
  8
0
100
AcDbSpline
 62
7
  6
CONTINUOUS
 70
0
 71
3
 72
11
 73
7
 74
0
 42
0.0000001
 43
0.0000001
 44
0.0000000001
 40
0.0
 40
0.0
 40
0.0
 40
0.0
 40
0.2897937154
 40
0.5490416136
 40
0.782223008
 40
1.0
 40
1.0
 40
1.0
 40
1.0
 10
-18.3742054225
 20
32.2019290942
 30
0.0
 10
-18.3961527065
 20
32.2146011809
 30
0.0
 10
-18.4359637683
 20
32.2420071543
 30
0.0
 10
-18.4835195765
 20
32.2920213895
 30
0.0
 10
-18.5136231594
 20
32.3473178731
 30
0.0
 10
-18.5206520319
 20
32.3870214259
 30
0.0
 10
-18.5206520319
 20
32.4060663908
 30
0.0
  0
SPLINE
  5
30C
100
AcDbEntity
  8
0
100
AcDbSpline
 62
7
  6
CONTINUOUS
 70
0
 71
3
 72
9
 73
5
 74
0
 42
0.0000001
 43
0.0000001
 44
0.0000000001
 40
0.0
 40
0.0
 40
0.0
 40
0.0
 40
0.4492219968
 40
1.0
 40
1.0
 40
1.0
 40
1.0
 10
16.8561336368
 20
16.5854258994
 30
0.0
 10
16.8561336368
 20
16.5756891215
 30
0.0
 10
16.8646450653
 20
16.5539619101
 30
0.0
 10
16.882406862
 20
16.5403608535
 30
0.0
 10
16.8927452892
 20
16.5343915752
 30
0.0
  0
SPLINE
  5
30D
100
AcDbEntity
  8
0
100
AcDbSpline
 62
7
  6
CONTINUOUS
 70
0
 71
3
 72
11
 73
7
 74
0
 42
0.0000001
 43
0.0000001
 44
0.0000000001
 40
0.0
 40
0.0
 40
0.0
 40
0.0
 40
0.2372383085
 40
0.5
 40
0.7627616915
 40
1.0
 40
1.0
 40
1.0
 40
1.0
 10
-14.2906637612
 20
34.6413697893
 30
0.0
 10
-14.3032121768
 20
34.6341244914
 30
0.0
 10
-14.3323937438
 20
34.6235513541
 30
0.0
 10
-14.3790521088
 20
34.6184855883
 30
0.0
 10
-14.4257104738
 20
34.6235513541
 30
0.0
 10
-14.4548920408
 20
34.6341244914
 30
0.0
 10
-14.4674404565
 20
34.6413697893
 30
0.0
  0
SPLINE
  5
30E
100
AcDbEntity
  8
0
100
AcDbSpline
 62
7
  6
CONTINUOUS
 70
0
 71
3
 72
11
 73
7
 74
0
 42
0.0000001
 43
0.0000001
 44
0.0000000001
 40
0.0
 40
0.0
 40
0.0
 40
0.0
 40
0.2897667745
 40
0.5490573594
 40
0.7822185358
 40
1.0
 40
1.0
 40
1.0
 40
1.0
 10
-16.7125044867
 20
32.8347547138
 30
0.0
 10
-16.7015319509
 20
32.8410901185
 30
0.0
 10
-16.6816273848
 20
32.8547947682
 30
0.0
 10
-16.6578465858
 20
32.87979917
 30
0.0
 10
-16.642798833
 20
32.9074504806
 30
0.0
 10
-16.6392823499
 20
32.9273007587
 30
0.0
 10
-16.6392823499
 20
32.9368233622
 30
0.0
  0
SPLINE
  5
30F
100
AcDbEntity
  8
ASSI
100
AcDbSpline
 62
7
  6
CONTINUOUS
 70
0
 71
3
 72
21
 73
17
 74
0
 42
0.0000001
 43
0.0000001
 44
0.0000000001
 40
0.0
 40
0.0
 40
0.0
 40
0.0
 40
0.0600579224
 40
0.124984073
 40
0.1940994119
 40
0.2665166991
 40
0.4168892669
 40
0.5667329359
 40
0.6383534246
 40
0.7061397059
 40
0.7690661461
 40
0.8263594532
 40
0.8776159008
 40
0.9229516219
 40
0.9631864357
 40
1.0
 40
1.0
 40
1.0
 40
1.0
 10
-14.3970016399
 20
-12.9392060845
 30
0.0
 10
-14.5205945135
 20
-12.8439262665
 30
0.0
 10
-14.7646156002
 20
-12.6282414386
 30
0.0
 10
-15.1048497747
 20
-12.2549099844
 30
0.0
 10
-15.4281428478
 20
-11.8258897173
 30
0.0
 10
-15.832987588
 20
-11.183638021
 30
0.0
 10
-16.2536628457
 20
-10.3075431967
 30
0.0
 10
-16.5490516717
 20
-9.3839491734
 30
0.0
 10
-16.6961872391
 20
-8.6462063432
 30
0.0
 10
-16.7566555814
 20
-8.1232745492
 30
0.0
 10
-16.7677686471
 20
-7.6340778798
 30
0.0
 10
-16.7292250197
 20
-7.189107519
 30
0.0
 10
-16.641553313
 20
-6.7974667823
 30
0.0
 10
-16.5054497207
 20
-6.4666130218
 30
0.0
 10
-16.32177325
 20
-6.2032764395
 30
0.0
 10
-16.1638522919
 20
-6.0746087029
 30
0.0
 10
-16.0810122612
 20
-6.0267774119
 30
0.0
  0
SPLINE
  5
310
100
AcDbEntity
  8
ASSI
100
AcDbSpline
 62
7
  6
CONTINUOUS
 70
0
 71
3
 72
9
 73
5
 74
0
 42
0.0000001
 43
0.0000001
 44
0.0000000001
 40
0.0
 40
0.0
 40
0.0
 40
0.0
 40
0.4871846271
 40
1.0
 40
1.0
 40
1.0
 40
1.0
 10
-14.3970016399
 20
-12.9392060845
 30
0.0
 10
-12.3548143636
 20
-14.5135624874
 30
0.0
 10
-7.9969072869
 20
-17.5332295121
 30
0.0
 10
-3.3899003929
 20
-20.1527976505
 30
0.0
 10
-0.979475013
 20
-21.4005957263
 30
0.0
  0
SPLINE
  5
311
100
AcDbEntity
  8
ASSI
100
AcDbSpline
 62
7
  6
CONTINUOUS
 70
0
 71
3
 72
18
 73
14
 74
0
 42
0.0000001
 43
0.0000001
 44
0.0000000001
 40
0.0
 40
0.0
 40
0.0
 40
0.0
 40
0.048227623
 40
0.0982870145
 40
0.1509747554
 40
0.2067844042
 40
0.3280180417
 40
0.4609302426
 40
0.6010417524
 40
0.7420098498
 40
0.8107242269
 40
0.8771022345
 40
1.0
 40
1.0
 40
1.0
 40
1.0
 10
8.2946140649
 20
-24.5611777009
 30
0.0
 10
8.185627763
 20
-24.6241055441
 30
0.0
 10
7.9486458172
 20
-24.7280506238
 30
0.0
 10
7.5607681267
 20
-24.8096108255
 30
0.0
 10
7.1448900579
 20
-24.8181640071
 30
0.0
 10
6.5495408047
 20
-24.7303577318
 30
0.0
 10
5.7863467303
 20
-24.4313764756
 30
0.0
 10
4.9374427706
 20
-23.8366675573
 30
0.0
 10
4.192149876
 20
-23.0451127808
 30
0.0
 10
3.7008688634
 20
-22.2685555316
 30
0.0
 10
3.4098967516
 20
-21.6081669674
 30
0.0
 10
3.2040003488
 20
-20.9666572975
 30
0.0
 10
3.1304534458
 20
-20.4713440917
 30
0.0
 10
3.1304534458
 20
-20.1506453148
 30
0.0
  0
SPLINE
  5
312
100
AcDbEntity
  8
ASSI
100
AcDbSpline
 62
7
  6
CONTINUOUS
 70
0
 71
3
 72
12
 73
8
 74
0
 42
0.0000001
 43
0.0000001
 44
0.0000000001
 40
0.0
 40
0.0
 40
0.0
 40
0.0
 40
0.1105793538
 40
0.2232081235
 40
0.4593410749
 40
0.7170767584
 40
1.0
 40
1.0
 40
1.0
 40
1.0
 10
1.1578791689
 20
-21.5195072089
 30
0.0
 10
1.0867360668
 20
-21.5605844092
 30
0.0
 10
0.9362841473
 20
-21.6322227276
 30
0.0
 10
0.6082515665
 20
-21.7302711532
 30
0.0
 10
0.1523167768
 20
-21.760496265
 30
0.0
 10
-0.4193565494
 20
-21.6526479777
 30
0.0
 10
-0.7928164879
 20
-21.497222716
 30
0.0
 10
-0.979475013
 20
-21.4005957263
 30
0.0
  0
ENDSEC
  0
SECTION
  2
OBJECTS
  0
DICTIONARY
  5
C
100
AcDbDictionary
280
0
281
1
  3
ACAD_GROUP
350
D
  3
ACAD_MLINESTYLE
350
17
  3
ACAD_LAYOUT
350
1A
  3
ACAD_PLOTSETTINGS
350
19
  3
ACAD_PLOTSTYLENAME
350
E
  0
DICTIONARY
  5
D
102
{ACAD_REACTORS
330
C
102
}
100
AcDbDictionary
280
0
281
1
  0
ACDBDICTIONARYWDFLT
  5
E
102
{ACAD_REACTORS
330
C
102
}
100
AcDbDictionary
281
1
  3
Normal
350
F
100
AcDbDictionaryWithDefault
340
F
  0
DICTIONARY
  5
17
102
{ACAD_REACTORS
330
C
102
}
100
AcDbDictionary
280
0
281
1
  3
Standard
350
18
  0
DICTIONARY
  5
19
102
{ACAD_REACTORS
330
C
102
}
100
AcDbDictionary
281
1
  0
DICTIONARY
  5
1A
102
{ACAD_REACTORS
330
C
102
}
100
AcDbDictionary
281
1
  3
Model
350
313
  3
Layout1
350
314
  0
ACDBPLACEHOLDER
  5
F
102
{ACAD_REACTORS
330
E
102
}
  0
MLINESTYLE
  5
18
102
{ACAD_REACTORS
330
17
102
}
100
AcDbMlineStyle
  2
STANDARD
 70
0
  3

 62
256
 51
90.0
 52
90.0
 71
2
 49
0.5
 62
256
  6
BYLAYER
 49
-0.5
 62
256
  6
BYLAYER
  0
LAYOUT
  5
313
102
{ACAD_REACTORS
330
1A
102
}
100
AcDbPlotSettings
  1

  2
none_device
  4
ISO_A4_(297.00_x_210.00_MM)
  6

 40
0.0
 41
0.0
 42
0.0
 43
0.0
 44
297.0
 45
210.0
 46
0.0
 47
0.0
 48
0.0
 49
0.0
140
0.0
141
0.0
142
1.0
143
1.0
 70
1024
 72
1
 73
0
 74
0
  7

 75
0
147
1.0
148
0.0
149
0.0
100
AcDbLayout
  1
Model
 70
0
 71
0
 10
0.0
 20
0.0
 11
297.0
 21
210.0
 12
0.0
 22
0.0
 32
0.0
 14
0.0
 24
0.0
 34
0.0
 15
0.0
 25
0.0
 35
0.0
146
0.0
 13
0.0
 23
0.0
 33
0.0
 16
1.0
 26
0.0
 36
0.0
 17
0.0
 27
1.0
 37
0.0
 76
0
330
222
345
0
346
0
  0
LAYOUT
  5
314
102
{ACAD_REACTORS
330
1A
102
}
100
AcDbPlotSettings
  1

  2
none_device
  4
ISO_A4_(297.00_x_210.00_MM)
  6

 40
0.0
 41
0.0
 42
0.0
 43
0.0
 44
297.0
 45
210.0
 46
0.0
 47
0.0
 48
0.0
 49
0.0
140
0.0
141
0.0
142
1.0
143
1.0
 70
0
 72
1
 73
0
 74
0
  7

 75
0
147
1.0
148
0.0
149
0.0
100
AcDbLayout
  1
Layout1
 70
0
 71
1
 10
0.0
 20
0.0
 11
297.0
 21
210.0
 12
0.0
 22
0.0
 32
0.0
 14
0.0
 24
0.0
 34
0.0
 15
0.0
 25
0.0
 35
0.0
146
0.0
 13
0.0
 23
0.0
 33
0.0
 16
1.0
 26
0.0
 36
0.0
 17
0.0
 27
1.0
 37
0.0
 76
0
330
223
345
0
346
0
  0
ENDSEC
  0
EOF
