  0
SECTION
  2
HEADER
  9
$ACADVER
  1
AC1024
  9
$DWGCODEPAGE
  3
ANSI_1252
  9
$EXTMAX
 10
297.0
 20
210.0
 30
0.0
  9
$EXTMIN
 10
0.0
 20
0.0
 30
0.0
  9
$LIMMIN
 10
0.0
 20
0.0
  9
$LIMMAX
 10
297.0
 20
210.0
  9
$VIEWCTR
 10
148.5
 20
105.0
  9
$VIEWSIZE
 40
210.0
  9
$CLAYER
  8
0
  9
$LTSCALE
 40
16.335
  9
$CELTYPE
  6
BYLAYER
  9
$DIMSCALE
 40
1.0
  9
$DIMASZ
 40
3.0
  9
$DIMEXO
 40
0.5
  9
$DIMDLI
 40
11.286
  9
$DIMEXE
 40
1.5
  9
$DIMCEN
 40
2.673
  9
$DIMLFAC
 40
1.0
  9
$DIMBLK
  1
_FILLED
  9
$DIMALT
 70
0
  9
$DIMALTF
 40
0.0393700787
  9
$DIMTXT
 40
3.0
  9
$DIMTOL
 70
1
  9
$DIMLIM
 70
0
  9
$DIMTFAC
 40
1.0
  9
$DIMTP
 40
0.01
  9
$DIMTM
 40
0.01
  9
$DIMGAP
 40
0.625
  9
$DIMDSEP
 70
44
  9
$AUNITS
 70
0
  9
$PDMODE
 70
3
  9
$PDSIZE
 40
3.0
  9
$HANDSEED
  5
496
  9
$TILEMODE
 70
1
  9
$MEASUREMENT
 70
1
  9
$INSUNITS
 70
4
  0
ENDSEC
  0
SECTION
  2
CLASSES
  0
CLASS
  1
ACDBDICTIONARYWDFLT
  2
AcDbDictionaryWithDefault
  3
AutoCAD 2000
 90
0
 91
1
280
0
281
0
  0
CLASS
  1
ACDBPLACEHOLDER
  2
AcDbPlaceHolder
  3
AutoCAD 2000
 90
0
 91
1
280
0
281
0
  0
CLASS
  1
LAYOUT
  2
AcDbLayout
  3
AutoCAD 2000
 90
0
 91
0
280
0
281
0
  0
ENDSEC
  0
SECTION
  2
TABLES
  0
TABLE
  2
VPORT
  5
8
100
AcDbSymbolTable
 70
2
  0
VPORT
  5
1F4
100
AcDbSymbolTableRecord
100
AcDbViewportTableRecord
  2
*ACTIVE
 70
0
 10
0.0
 20
0.0
 11
1.0
 21
1.0
 12
148.5
 22
105.0
 13
0.0
 23
0.0
 14
1.0
 24
1.0
 15
0.0
 25
0.0
 16
0.0
 26
0.0
 36
1.0
 17
0.0
 27
0.0
 37
0.0
 40
210.0
 41
1.4142857143
 42
50.0
 43
0.0
 44
0.0
 50
0.0
 51
0.0
 71
0
 72
100
 73
1
 74
1
 75
0
 76
0
 77
0
 78
0
  0
ENDTAB
  0
TABLE
  2
LTYPE
  5
5
100
AcDbSymbolTable
 70
6
  0
LTYPE
  5
14
100
AcDbSymbolTableRecord
100
AcDbLinetypeTableRecord
  2
BYBLOCK
 70
0
  3

 72
65
 73
0
 40
0.0
  0
LTYPE
  5
15
100
AcDbSymbolTableRecord
100
AcDbLinetypeTableRecord
  2
BYLAYER
 70
0
  3

 72
65
 73
0
 40
0.0
  0
LTYPE
  5
16
100
AcDbSymbolTableRecord
100
AcDbLinetypeTableRecord
  2
CONTINUOUS
 70
64
  3
Solid line
 72
65
 73
0
 40
0.0
  0
LTYPE
  5
1F5
100
AcDbSymbolTableRecord
100
AcDbLinetypeTableRecord
  2
CENTER
 70
64
  3
____ _ ____ _ ____ _ ____ _ ____ _ ____ _ ____
 72
65
 73
4
 40
0.6
 49
0.375
 74
0
 49
-0.075
 74
0
 49
0.075
 74
0
 49
-0.075
 74
0
  0
LTYPE
  5
1F6
100
AcDbSymbolTableRecord
100
AcDbLinetypeTableRecord
  2
HIDDEN
 70
64
  3
- - - - - - - - - - - - - - - - - - - -
 72
65
 73
2
 40
0.2
 49
0.1
 74
0
 49
-0.1
 74
0
  0
LTYPE
  5
1F7
100
AcDbSymbolTableRecord
100
AcDbLinetypeTableRecord
  2
PHANTOM
 70
64
  3
_____ _ _ _____ _ _ _____ _ _ _____
 72
65
 73
6
 40
0.8
 49
0.45
 74
0
 49
-0.05
 74
0
 49
0.1
 74
0
 49
-0.05
 74
0
 49
0.1
 74
0
 49
-0.05
 74
0
  0
LTYPE
  5
1F8
100
AcDbSymbolTableRecord
100
AcDbLinetypeTableRecord
  2
DOT
 70
64
  3
. . . . . . . . . . . . . . . . . . . .
 72
65
 73
2
 40
0.2
 49
0.1
 74
0
 49
-0.1
 74
0
  0
LTYPE
  5
1F9
100
AcDbSymbolTableRecord
100
AcDbLinetypeTableRecord
  2
DASHED
 70
64
  3
- - - - - - - - - - - - - - - - - - - -
 72
65
 73
2
 40
0.2
 49
0.1
 74
0
 49
-0.1
 74
0
  0
ENDTAB
  0
TABLE
  2
LAYER
  5
2
100
AcDbSymbolTable
 70
36
  0
LAYER
  5
10
100
AcDbSymbolTableRecord
100
AcDbLayerTableRecord
  2
0
 70
0
 62
7
  6
CONTINUOUS
370
-3
390
F
  0
LAYER
  5
1FA
100
AcDbSymbolTableRecord
100
AcDbLayerTableRecord
  2
DEFAULT_1
 70
0
 62
7
  6
CENTER
370
-3
390
F
  0
LAYER
  5
1FB
100
AcDbSymbolTableRecord
100
AcDbLayerTableRecord
  2
DEFAULT_2
 70
0
 62
7
  6
HIDDEN
370
-3
390
F
  0
LAYER
  5
1FC
100
AcDbSymbolTableRecord
100
AcDbLayerTableRecord
  2
DEFAULT_3
 70
0
 62
7
  6
PHANTOM
370
-3
390
F
  0
LAYER
  5
1FD
100
AcDbSymbolTableRecord
100
AcDbLayerTableRecord
  2
ARROTONDAMENTI
 70
0
 62
7
  6
CONTINUOUS
370
-3
390
F
  0
LAYER
  5
1FE
100
AcDbSymbolTableRecord
100
AcDbLayerTableRecord
  2
ASSI
 70
0
 62
7
  6
CONTINUOUS
370
-3
390
F
  0
LAYER
  5
1FF
100
AcDbSymbolTableRecord
100
AcDbLayerTableRecord
  2
COORDINATE
 70
0
 62
7
  6
CONTINUOUS
370
-3
390
F
  0
LAYER
  5
200
100
AcDbSymbolTableRecord
100
AcDbLayerTableRecord
  2
COPY_PUBLISH
 70
0
 62
7
  6
CONTINUOUS
370
-3
390
F
  0
LAYER
  5
201
100
AcDbSymbolTableRecord
100
AcDbLayerTableRecord
  2
COSMETICHE_FILETTO
 70
0
 62
7
  6
CONTINUOUS
370
-3
390
F
  0
LAYER
  5
202
100
AcDbSymbolTableRecord
100
AcDbLayerTableRecord
  2
COSMETICI
 70
0
 62
7
  6
CONTINUOUS
370
-3
390
F
  0
LAYER
  5
203
100
AcDbSymbolTableRecord
100
AcDbLayerTableRecord
  2
CURVE
 70
0
 62
7
  6
CONTINUOUS
370
-3
390
F
  0
LAYER
  5
204
100
AcDbSymbolTableRecord
100
AcDbLayerTableRecord
  2
DRAFT
 70
0
 62
7
  6
CONTINUOUS
370
-3
390
F
  0
LAYER
  5
205
100
AcDbSymbolTableRecord
100
AcDbLayerTableRecord
  2
ELEMENTI_DI_ANNOTAZIONE
 70
0
 62
7
  6
CONTINUOUS
370
-3
390
F
  0
LAYER
  5
206
100
AcDbSymbolTableRecord
100
AcDbLayerTableRecord
  2
FEATURE_CON_ASSI
 70
0
 62
7
  6
CONTINUOUS
370
-3
390
F
  0
LAYER
  5
207
100
AcDbSymbolTableRecord
100
AcDbLayerTableRecord
  2
FEATURE_DI_GUSCIO
 70
0
 62
7
  6
CONTINUOUS
370
-3
390
F
  0
LAYER
  5
208
100
AcDbSymbolTableRecord
100
AcDbLayerTableRecord
  2
FEATURE_DI_TAGLIO
 70
0
 62
7
  6
CONTINUOUS
370
-3
390
F
  0
LAYER
  5
209
100
AcDbSymbolTableRecord
100
AcDbLayerTableRecord
  2
FORI
 70
0
 62
7
  6
CONTINUOUS
370
-3
390
F
  0
LAYER
  5
20A
100
AcDbSymbolTableRecord
100
AcDbLayerTableRecord
  2
FORI_FILETTATI
 70
0
 62
7
  6
CONTINUOUS
370
-3
390
F
  0
LAYER
  5
20B
100
AcDbSymbolTableRecord
100
AcDbLayerTableRecord
  2
GEOMETRIA_SOLIDA
 70
0
 62
7
  6
CONTINUOUS
370
-3
390
F
  0
LAYER
  5
20C
100
AcDbSymbolTableRecord
100
AcDbLayerTableRecord
  2
IMPORT_IGES
 70
0
 62
7
  6
CONTINUOUS
370
-3
390
F
  0
LAYER
  5
20D
100
AcDbSymbolTableRecord
100
AcDbLayerTableRecord
  2
INTFCLR_2816
 70
0
 62
7
  6
CONTINUOUS
370
-3
390
F
  0
LAYER
  5
20E
100
AcDbSymbolTableRecord
100
AcDbLayerTableRecord
  2
NOTE
 70
0
 62
7
  6
CONTINUOUS
370
-3
390
F
  0
LAYER
  5
20F
100
AcDbSymbolTableRecord
100
AcDbLayerTableRecord
  2
PIANI
 70
0
 62
7
  6
CONTINUOUS
370
-3
390
F
  0
LAYER
  5
210
100
AcDbSymbolTableRecord
100
AcDbLayerTableRecord
  2
PIANI_DI_DEFAULT
 70
0
 62
7
  6
CONTINUOUS
370
-3
390
F
  0
LAYER
  5
211
100
AcDbSymbolTableRecord
100
AcDbLayerTableRecord
  2
PIANI_DI_RIFERIMENTO_CREATI
 70
0
 62
7
  6
CONTINUOUS
370
-3
390
F
  0
LAYER
  5
212
100
AcDbSymbolTableRecord
100
AcDbLayerTableRecord
  2
PROTUSIONI
 70
0
 62
7
  6
CONTINUOUS
370
-3
390
F
  0
LAYER
  5
213
100
AcDbSymbolTableRecord
100
AcDbLayerTableRecord
  2
PUNTI
 70
0
 62
7
  6
CONTINUOUS
370
-3
390
F
  0
LAYER
  5
214
100
AcDbSymbolTableRecord
100
AcDbLayerTableRecord
  2
QUOTE_AE
 70
0
 62
7
  6
CONTINUOUS
370
-3
390
F
  0
LAYER
  5
215
100
AcDbSymbolTableRecord
100
AcDbLayerTableRecord
  2
QUOTE_DEL_MODELLO
 70
0
 62
7
  6
CONTINUOUS
370
-3
390
F
  0
LAYER
  5
216
100
AcDbSymbolTableRecord
100
AcDbLayerTableRecord
  2
RACCORDO
 70
0
 62
7
  6
CONTINUOUS
370
-3
390
F
  0
LAYER
  5
217
100
AcDbSymbolTableRecord
100
AcDbLayerTableRecord
  2
SALDATURE
 70
0
 62
7
  6
CONTINUOUS
370
-3
390
F
  0
LAYER
  5
218
100
AcDbSymbolTableRecord
100
AcDbLayerTableRecord
  2
SIMBOLI
 70
0
 62
7
  6
CONTINUOUS
370
-3
390
F
  0
LAYER
  5
219
100
AcDbSymbolTableRecord
100
AcDbLayerTableRecord
  2
SMUSSI
 70
0
 62
7
  6
CONTINUOUS
370
-3
390
F
  0
LAYER
  5
21A
100
AcDbSymbolTableRecord
100
AcDbLayerTableRecord
  2
SMUSSO
 70
0
 62
7
  6
CONTINUOUS
370
-3
390
F
  0
LAYER
  5
21B
100
AcDbSymbolTableRecord
100
AcDbLayerTableRecord
  2
SNAPLINE
 70
0
 62
7
  6
CONTINUOUS
370
-3
390
F
  0
LAYER
  5
21C
100
AcDbSymbolTableRecord
100
AcDbLayerTableRecord
  2
SUPERFICI
 70
0
 62
7
  6
CONTINUOUS
370
-3
390
F
  0
LAYER
  5
21D
100
AcDbSymbolTableRecord
100
AcDbLayerTableRecord
  2
TERNA_DI_RIFERIMENTO_DI_DEFAULT
 70
0
 62
7
  6
CONTINUOUS
370
-3
390
F
  0
LAYER
  5
21E
100
AcDbSymbolTableRecord
100
AcDbLayerTableRecord
  2
TERNE_DI_RIFERIMENTO_CREATE
 70
0
 62
7
  6
CONTINUOUS
370
-3
390
F
  0
LAYER
  5
21F
100
AcDbSymbolTableRecord
100
AcDbLayerTableRecord
  2
TRASH
 70
0
 62
7
  6
CONTINUOUS
370
-3
390
F
  0
ENDTAB
  0
TABLE
  2
STYLE
  5
3
100
AcDbSymbolTable
 70
1
  0
STYLE
  5
11
100
AcDbSymbolTableRecord
100
AcDbTextStyleTableRecord
  2
STANDARD
 70
0
 40
0.0
 41
0.8
 50
0.0
 71
0
 42
0.2
  3
txt
  4

  0
STYLE
  5
220
100
AcDbSymbolTableRecord
100
AcDbTextStyleTableRecord
  2
TEXTSTYLE_1
 70
0
 40
0.0
 41
0.8
 50
0.0
 71
0
 42
0.2
  3
gdt
  4

  0
ENDTAB
  0
TABLE
  2
VIEW
  5
6
100
AcDbSymbolTable
 70
0
  0
ENDTAB
  0
TABLE
  2
UCS
  5
7
100
AcDbSymbolTable
 70
0
  0
ENDTAB
  0
TABLE
  2
APPID
  5
9
100
AcDbSymbolTable
 70
1
  0
APPID
  5
221
100
AcDbSymbolTableRecord
100
AcDbRegAppTableRecord
  2
ACAD
 70
0
  0
ENDTAB
  0
TABLE
  2
BLOCK_RECORD
  5
1
100
AcDbSymbolTable
 70
0
  0
BLOCK_RECORD
  5
222
100
AcDbSymbolTableRecord
100
AcDbBlockTableRecord
  2
*Model_Space
  0
BLOCK_RECORD
  5
223
100
AcDbSymbolTableRecord
100
AcDbBlockTableRecord
  2
*Paper_Space
  0
BLOCK_RECORD
  5
224
100
AcDbSymbolTableRecord
100
AcDbBlockTableRecord
  2
_FILLED
  0
ENDTAB
  0
TABLE
  2
DIMSTYLE
  5
A
100
AcDbSymbolTable
 70
1
100
AcDbDimStyleTable
 71
0
  0
DIMSTYLE
105
225
100
AcDbSymbolTableRecord
100
AcDbDimStyleTableRecord
  2
STANDARD
 70
0
  3

  4

 40
1.0
 41
3.0
 42
0.5
 43
0.38
 44
1.5
 45
0.0
 46
0.0
 47
0.01
 48
0.01
140
3.0
141
0.09
142
0.0
143
25.4
144
1.0
145
0.0
146
1.0
147
0.625
 71
1.0
 72
0.0
 73
0
 74
0
 75
0
 76
0
 77
1
 78
8
 79
2
170
0
171
1
172
0
173
0
174
0
175
0
176
0
177
0
178
0
270
2
179
2
271
2
272
2
273
2
274
2
275
0
280
0
281
0
282
0
283
1
284
8
285
0
286
0
287
3
288
0
340
11
278
44
341
224
342
224
343
224
344
224
  0
ENDTAB
  0
ENDSEC
  0
SECTION
  2
BLOCKS
  0
BLOCK
  5
20
100
AcDbEntity
  8
0
100
AcDbBlockBegin
  2
*Model_Space
 70
0
 10
0.0
 20
0.0
 30
0.0
  3
*Model_Space
  1

  0
ENDBLK
  5
21
100
AcDbEntity
  8
0
100
AcDbBlockEnd
  0
BLOCK
  5
1C
100
AcDbEntity
  8
0
100
AcDbBlockBegin
  2
*Paper_Space
 70
0
 10
0.0
 20
0.0
 30
0.0
  3
*Paper_Space
  1

  0
ENDBLK
  5
1D
100
AcDbEntity
  8
0
100
AcDbBlockEnd
  0
BLOCK
  5
226
100
AcDbEntity
  8
0
100
AcDbBlockBegin
  2
_FILLED
 70
64
 10
0.0
 20
0.0
  3
_FILLED
  1

  0
SOLID
  5
227
100
AcDbEntity
  8
0
  6
BYBLOCK
 62
0
100
AcDbTrace
 10
0.0
 20
0.0
 11
-1.0
 21
0.1333333333
 12
-1.0
 22
-0.1333333333
 13
-1.0
 23
-0.1333333333
  0
ENDBLK
  5
228
100
AcDbEntity
  8
0
  6
BYBLOCK
 62
0
100
AcDbBlockEnd
  0
ENDSEC
  0
SECTION
  2
ENTITIES
  0
LINE
  5
229
100
AcDbEntity
  8
0
100
AcDbLine
 62
7
  6
CONTINUOUS
 10
-15.5281006282
 20
35.6824700023
 11
-18.3742054225
 21
34.0391647641
  0
LINE
  5
22A
100
AcDbEntity
  8
0
100
AcDbLine
 62
7
  6
CONTINUOUS
 10
-15.4397122806
 20
35.2027473551
 11
-17.9499413538
 21
33.7533725488
  0
LINE
  5
22B
100
AcDbEntity
  8
0
100
AcDbLine
 62
7
  6
CONTINUOUS
 10
-18.5156267787
 20
33.0593057402
 11
-18.09136271
 21
33.3042704962
  0
LINE
  5
22C
100
AcDbEntity
  8
0
100
AcDbLine
 62
7
  6
CONTINUOUS
 10
-17.6317433023
 20
33.0388920105
 11
-18.3742054225
 21
32.6102036875
  0
LINE
  5
22D
100
AcDbEntity
  8
0
100
AcDbLine
 62
7
  6
CONTINUOUS
 10
-14.2906637612
 20
34.6413697893
 11
-14.0078210487
 21
34.8046796266
  0
LINE
  5
22E
100
AcDbEntity
  8
0
100
AcDbLine
 62
7
  6
CONTINUOUS
 10
-16.7125044867
 20
32.8347547138
 11
-17.454966607
 21
32.4060663908
  0
LINE
  5
22F
100
AcDbEntity
  8
RACCORDO
100
AcDbLine
 62
7
  6
CONTINUOUS
 10
-14.1932020966
 20
31.2708059143
 11
-15.673685604
 21
30.1997834153
  0
LINE
  5
230
100
AcDbEntity
  8
RACCORDO
100
AcDbLine
 62
250
  6
CONTINUOUS
 10
-14.0603267735
 20
31.2629087219
 11
-15.6064035962
 21
30.1444342142
  0
LWPOLYLINE
  5
231
100
AcDbEntity
  8
RACCORDO
100
AcDbPolyline
 62
7
  6
CONTINUOUS
 90
52
 70
0
 10
-15.9394977558
 20
24.5275652166
 10
-15.9762250805
 20
24.504794243
 10
-16.0537671745
 20
24.4496993026
 10
-16.1274934255
 20
24.3873006318
 10
-16.1971399106
 20
24.3177527145
 10
-16.2625642653
 20
24.2411330119
 10
-16.3235356448
 20
24.1576526454
 10
-16.3799282365
 20
24.0674590194
 10
-16.4316693617
 20
23.970594836
 10
-16.4786702319
 20
23.8670814401
 10
-16.5209493882
 20
23.7567267285
 10
-16.5583054613
 20
23.6398716929
 10
-16.5904271066
 20
23.5174593138
 10
-16.6172877503
 20
23.3898981978
 10
-16.6389577994
 20
23.257255434
 10
-16.6554100235
 20
23.120150485
 10
-16.6666826753
 20
22.9790250004
 10
-16.6728398155
 20
22.8340195186
 10
-16.6739412012
 20
22.6853708333
 10
-16.670054612
 20
22.5333973534
 10
-16.6612225004
 20
22.3784075611
 10
-16.6474947629
 20
22.2206623451
 10
-16.6289647318
 20
22.060517523
 10
-16.6056941987
 20
21.8983002531
 10
-16.577721186
 20
21.7342735224
 10
-16.5451450228
 20
21.5688248501
 10
-16.5080524847
 20
21.4022859429
 10
-16.4664805621
 20
21.23486739
 10
-16.4205124889
 20
21.0669322545
 10
-16.3702444361
 20
20.8988377893
 10
-16.3157390755
 20
20.7307933923
 10
-16.2570846124
 20
20.5631277958
 10
-16.1943792253
 20
20.396219965
 10
-16.1277071205
 20
20.2303546146
 10
-16.0571772483
 20
20.0658676033
 10
-15.9829040797
 20
19.9031292464
 10
-15.9049986854
 20
19.7424751771
 10
-15.8235921359
 20
19.5842500877
 10
-15.7388223538
 20
19.4287995475
 10
-15.6508245794
 20
19.2764572635
 10
-15.5597383929
 20
19.1275581037
 10
-15.4657184754
 20
18.9824376011
 10
-15.3689259245
 20
18.8414221858
 10
-15.2695163425
 20
18.7048357237
 10
-15.1676518821
 20
18.5729985043
 10
-15.0634999398
 20
18.4462193027
 10
-14.957239906
 20
18.3248153369
 10
-14.8490581741
 20
18.2090519754
 10
-14.7390975956
 20
18.0991466046
 10
-14.6274980611
 20
17.995370391
 10
-14.5144519122
 20
17.898068997
 10
-14.4229431873
 20
17.8249496734
  0
LINE
  5
232
100
AcDbEntity
  8
RACCORDO
100
AcDbLine
 62
7
  6
CONTINUOUS
 10
-15.9386653613
 20
24.5280622893
 11
-15.9394451634
 21
24.5276003373
  0
LINE
  5
233
100
AcDbEntity
  8
DRAFT
100
AcDbLine
 62
7
  6
CONTINUOUS
 10
-15.6246081554
 20
24.7138985317
 11
-15.9386647009
 21
24.52806268
  0
LINE
  5
234
100
AcDbEntity
  8
DRAFT
100
AcDbLine
 62
7
  6
CONTINUOUS
 10
-12.6112851558
 20
28.7854188142
 11
-11.815790027
 21
29.9669413352
  0
LINE
  5
235
100
AcDbEntity
  8
DRAFT
100
AcDbLine
 62
7
  6
CONTINUOUS
 10
-12.38859347
 20
28.6568394257
 11
-11.815790027
 21
29.497470926
  0
LINE
  5
236
100
AcDbEntity
  8
ASSI
100
AcDbLine
 62
7
  6
CONTINUOUS
 10
8.3442370979
 20
-24.4033301811
 11
8.3460283471
 21
-24.4029865428
  0
LINE
  5
237
100
AcDbEntity
  8
ASSI
100
AcDbLine
 62
7
  6
CONTINUOUS
 10
8.3445110192
 20
-24.4039384929
 11
8.3463088992
 21
-24.4036087699
  0
LINE
  5
238
100
AcDbEntity
  8
ASSI
100
AcDbLine
 62
250
  6
CONTINUOUS
 10
-14.3970016399
 20
17.6784292953
 11
-14.3022987426
 21
17.7331095613
  0
LINE
  5
239
100
AcDbEntity
  8
ASSI
100
AcDbLine
 62
7
  6
CONTINUOUS
 10
-18.7842559288
 20
-11.8465200285
 11
-18.7842559288
 21
33.4675803335
  0
LINE
  5
23A
100
AcDbEntity
  8
0
100
AcDbLine
 62
7
  6
CONTINUOUS
 10
-18.6010522955
 20
-12.2462984584
 11
-18.6010522955
 21
33.0678019036
  0
LINE
  5
23B
100
AcDbEntity
  8
0
100
AcDbLine
 62
250
  6
CONTINUOUS
 10
-18.5863374569
 20
33.0593057402
 11
-18.5863374569
 21
-12.2547946218
  0
LINE
  5
23C
100
AcDbEntity
  8
ASSI
100
AcDbLine
 62
7
  6
CONTINUOUS
 10
-18.5206520319
 20
32.4060663908
 11
-18.5206520319
 21
-12.9080339712
  0
LINE
  5
23D
100
AcDbEntity
  8
0
100
AcDbLine
 62
250
  6
CONTINUOUS
 10
-18.5156267787
 20
33.0593057402
 11
-18.5156267787
 21
32.446326036
  0
LWPOLYLINE
  5
23E
100
AcDbEntity
  8
RACCORDO
100
AcDbPolyline
 62
7
  6
CONTINUOUS
 90
52
 70
0
 10
-15.9394977558
 20
14.3216867567
 10
-15.9762250805
 20
14.2989157831
 10
-16.0537671745
 20
14.2438208427
 10
-16.1274934255
 20
14.1814221718
 10
-16.1971399106
 20
14.1118742546
 10
-16.2625642653
 20
14.0352545519
 10
-16.3235356448
 20
13.9517741855
 10
-16.3799282365
 20
13.8615805595
 10
-16.4316693617
 20
13.764716376
 10
-16.4786702319
 20
13.6612029801
 10
-16.5209493882
 20
13.5508482686
 10
-16.5583054613
 20
13.433993233
 10
-16.5904271066
 20
13.3115808539
 10
-16.6172877503
 20
13.1840197379
 10
-16.6389577994
 20
13.0513769741
 10
-16.6554100235
 20
12.9142720251
 10
-16.6666826753
 20
12.7731465404
 10
-16.6728398155
 20
12.6281410587
 10
-16.6739412012
 20
12.4794923734
 10
-16.670054612
 20
12.3275188935
 10
-16.6612225004
 20
12.1725291012
 10
-16.6474947629
 20
12.0147838851
 10
-16.6289647318
 20
11.8546390631
 10
-16.6056941987
 20
11.6924217932
 10
-16.577721186
 20
11.5283950625
 10
-16.5451450228
 20
11.3629463902
 10
-16.5080524847
 20
11.196407483
 10
-16.4664805621
 20
11.0289889301
 10
-16.4205124889
 20
10.8610537946
 10
-16.3702444361
 20
10.6929593294
 10
-16.3157390755
 20
10.5249149324
 10
-16.2570846124
 20
10.3572493359
 10
-16.1943792253
 20
10.190341505
 10
-16.1277071205
 20
10.0244761547
 10
-16.0571772483
 20
9.8599891434
 10
-15.9829040797
 20
9.6972507865
 10
-15.9049986854
 20
9.5365967172
 10
-15.8235921359
 20
9.3783716277
 10
-15.7388223538
 20
9.2229210876
 10
-15.6508245794
 20
9.0705788036
 10
-15.5597383929
 20
8.9216796438
 10
-15.4657184754
 20
8.7765591412
 10
-15.3689259245
 20
8.6355437259
 10
-15.2695163425
 20
8.4989572638
 10
-15.1676518821
 20
8.3671200444
 10
-15.0634999398
 20
8.2403408428
 10
-14.957239906
 20
8.118936877
 10
-14.8490581741
 20
8.0031735155
 10
-14.7390975956
 20
7.8932681447
 10
-14.6274980611
 20
7.7894919311
 10
-14.5144519122
 20
7.6921905371
 10
-14.4229431873
 20
7.6190712135
  0
LINE
  5
23F
100
AcDbEntity
  8
RACCORDO
100
AcDbLine
 62
7
  6
CONTINUOUS
 10
-15.9386653613
 20
14.3221838294
 11
-15.9394451634
 21
14.3217218774
  0
LINE
  5
240
100
AcDbEntity
  8
DRAFT
100
AcDbLine
 62
7
  6
CONTINUOUS
 10
-15.6246081554
 20
14.5080200718
 11
-15.9386647009
 21
14.3221842201
  0
LWPOLYLINE
  5
241
100
AcDbEntity
  8
RACCORDO
100
AcDbPolyline
 62
7
  6
CONTINUOUS
 90
18
 70
0
 10
-0.9496918688
 20
-21.2282416635
 10
-0.8374251427
 20
-21.2830480122
 10
-0.6946462481
 20
-21.3457833806
 10
-0.5525437024
 20
-21.4004663218
 10
-0.4114576412
 20
-21.4471170613
 10
-0.2715909209
 20
-21.4857953321
 10
-0.133065683
 20
-21.5165049143
 10
0.0038238064
 20
-21.5391942887
 10
0.1387904382
 20
-21.5538953267
 10
0.2716336213
 20
-21.5606389696
 10
0.4020843252
 20
-21.5594531979
 10
0.5298561795
 20
-21.5504021051
 10
0.6547323589
 20
-21.5335497644
 10
0.7764663518
 20
-21.5089538317
 10
0.8947275704
 20
-21.4766857443
 10
1.0091994885
 20
-21.4368976322
 10
1.1196290137
 20
-21.3897552772
 10
1.2323708687
 20
-21.3317078746
  0
LINE
  5
242
100
AcDbEntity
  8
RACCORDO
100
AcDbLine
 62
250
  6
CONTINUOUS
 10
-4.0738097824
 20
-19.478769875
 11
-4.0683100189
 21
-19.4817825688
  0
LINE
  5
243
100
AcDbEntity
  8
RACCORDO
100
AcDbLine
 62
250
  6
CONTINUOUS
 10
-4.0738097824
 20
-19.478769875
 11
-4.0683473666
 21
-19.4818049835
  0
LINE
  5
244
100
AcDbEntity
  8
0
100
AcDbLine
 62
7
  6
CONTINUOUS
 10
-18.3742054225
 20
-13.1121712678
 11
-18.0755492586
 21
-13.2846115938
  0
LINE
  5
245
100
AcDbEntity
  8
0
100
AcDbLine
 62
7
  6
CONTINUOUS
 10
12.3691261077
 20
-30.8629855889
 11
12.6677822716
 21
-31.0354259149
  0
LINE
  5
246
100
AcDbEntity
  8
0
100
AcDbLine
 62
7
  6
CONTINUOUS
 10
-18.6010522955
 20
-12.2462984584
 11
-18.5863374569
 21
-12.2547946218
  0
LINE
  5
247
100
AcDbEntity
  8
0
100
AcDbLine
 62
7
  6
CONTINUOUS
 10
14.1527065121
 20
-31.1579082929
 11
14.1674213507
 21
-31.1664044563
  0
LINE
  5
248
100
AcDbEntity
  8
0
100
AcDbLine
 62
7
  6
CONTINUOUS
 10
14.117351173
 20
-30.6067375919
 11
14.1380618511
 21
-30.6186956779
  0
LINE
  5
249
100
AcDbEntity
  8
RACCORDO
100
AcDbLine
 62
250
  6
CONTINUOUS
 10
-14.4703821149
 20
-12.6812405408
 11
-14.386640686
 21
-12.7449586223
  0
LWPOLYLINE
  5
24A
100
AcDbEntity
  8
RACCORDO
100
AcDbPolyline
 62
7
  6
CONTINUOUS
 90
16
 70
0
 10
-14.4229511237
 20
-12.792679581
 10
-13.6418214346
 20
-13.387312047
 10
-12.8220297038
 20
-13.9941325753
 10
-11.9879225836
 20
-14.594348068
 10
-11.1396780904
 20
-15.1878306295
 10
-10.2774509918
 20
-15.7744758944
 10
-9.4013846348
 20
-16.3541885819
 10
-8.5116337036
 20
-16.9268674044
 10
-7.608374801
 20
-17.4924015687
 10
-6.691784812
 20
-18.0506809707
 10
-5.7620428469
 20
-18.6015969222
 10
-4.8193134329
 20
-19.1450544815
 10
-3.8637508956
 20
-19.6809645154
 10
-2.8955302559
 20
-20.2092282304
 10
-1.914863565
 20
-20.7297328386
 10
-0.9496963242
 20
-21.2282393933
  0
LINE
  5
24B
100
AcDbEntity
  8
RACCORDO
100
AcDbLine
 62
250
  6
CONTINUOUS
 10
-14.4703821149
 20
-12.6812405408
 11
-14.3873250933
 21
-12.7452552146
  0
LINE
  5
24C
100
AcDbEntity
  8
0
100
AcDbLine
 62
250
  6
CONTINUOUS
 10
-18.3742054225
 20
32.2019290942
 11
-18.3742054225
 21
-13.1121712678
  0
LINE
  5
24D
100
AcDbEntity
  8
0
100
AcDbLine
 62
7
  6
CONTINUOUS
 10
-18.09136271
 20
32.7735135248
 11
-18.09136271
 21
33.3042704962
  0
LINE
  5
24E
100
AcDbEntity
  8
0
100
AcDbLine
 62
250
  6
CONTINUOUS
 10
-18.0755492586
 20
-13.2846115938
 11
-18.0755492586
 21
32.0294887682
  0
LINE
  5
24F
100
AcDbEntity
  8
ASSI
100
AcDbLine
 62
7
  6
CONTINUOUS
 10
-17.3836931223
 20
30.7439906586
 11
-17.3836931223
 21
-14.5701097034
  0
LINE
  5
250
100
AcDbEntity
  8
0
100
AcDbLine
 62
250
  6
CONTINUOUS
 10
-17.3624130059
 20
30.7037090957
 11
-17.3624130059
 21
-14.6103912663
  0
LINE
  5
251
100
AcDbEntity
  8
0
100
AcDbLine
 62
250
  6
CONTINUOUS
 10
-16.7125044867
 20
31.7736647527
 11
-16.7125044867
 21
32.8347547138
  0
LINE
  5
252
100
AcDbEntity
  8
ASSI
100
AcDbLine
 62
7
  6
CONTINUOUS
 10
-16.639281182
 20
31.6647693409
 11
-16.639281182
 21
32.9368233622
  0
LINE
  5
253
100
AcDbEntity
  8
ASSI
100
AcDbLine
 62
7
  6
CONTINUOUS
 10
-16.4433162116
 20
30.8464444758
 11
-16.4433162116
 21
31.0088022848
  0
LINE
  5
254
100
AcDbEntity
  8
RACCORDO
100
AcDbLine
 62
7
  6
CONTINUOUS
 10
5.4436846411
 20
-18.5105394803
 11
5.5639207764
 21
-18.528607156
  0
LWPOLYLINE
  5
255
100
AcDbEntity
  8
RACCORDO
100
AcDbPolyline
 62
7
  6
CONTINUOUS
 90
13
 70
0
 10
5.5639207764
 20
-18.528607156
 10
5.685998654
 20
-18.5529781021
 10
5.8096242134
 20
-18.5836037253
 10
5.9346402814
 20
-18.6204575657
 10
6.0607724838
 20
-18.6634770731
 10
6.1877015157
 20
-18.7125799749
 10
6.3152081008
 20
-18.7677068839
 10
6.4430322168
 20
-18.8287748841
 10
6.5708273469
 20
-18.895656729
 10
6.6982473042
 20
-18.9682001759
 10
6.8249989262
 20
-19.0462617848
 10
6.950765422
 20
-19.1296792191
 10
7.0751727313
 20
-19.2182278104
  0
LINE
  5
256
100
AcDbEntity
  8
0
100
AcDbLine
 62
7
  6
CONTINUOUS
 10
-15.4397122806
 20
30.3690461544
 11
-15.4397122806
 21
35.2027473551
  0
LINE
  5
257
100
AcDbEntity
  8
0
100
AcDbLine
 62
250
  6
CONTINUOUS
 10
-14.4674404565
 20
34.6413697893
 11
-14.4674404565
 21
31.0724143402
  0
LINE
  5
258
100
AcDbEntity
  8
0
100
AcDbLine
 62
250
  6
CONTINUOUS
 10
-14.2906637612
 20
34.6413697893
 11
-14.2906637612
 21
31.2002994649
  0
LINE
  5
259
100
AcDbEntity
  8
0
100
AcDbLine
 62
250
  6
CONTINUOUS
 10
-14.0078210487
 20
34.8046796266
 11
-14.0078210487
 21
31.2325925745
  0
LINE
  5
25A
100
AcDbEntity
  8
ASSI
100
AcDbLine
 62
7
  6
CONTINUOUS
 10
-13.9712093963
 20
34.8557139508
 11
-13.9712093963
 21
31.2114534653
  0
LINE
  5
25B
100
AcDbEntity
  8
ASSI
100
AcDbLine
 62
250
  6
CONTINUOUS
 10
-14.3970016399
 20
7.4725508354
 11
-14.3022987426
 21
7.5272311014
  0
LINE
  5
25C
100
AcDbEntity
  8
ASSI
100
AcDbLine
 62
7
  6
CONTINUOUS
 10
8.3442370979
 20
-14.1974517212
 11
8.3460283471
 21
-14.1971080829
  0
LINE
  5
25D
100
AcDbEntity
  8
ASSI
100
AcDbLine
 62
7
  6
CONTINUOUS
 10
8.3445110192
 20
-14.1980600329
 11
8.3463088992
 21
-14.19773031
  0
LINE
  5
25E
100
AcDbEntity
  8
DRAFT
100
AcDbLine
 62
7
  6
CONTINUOUS
 10
-11.815790027
 20
29.497470926
 11
-11.815790027
 21
29.9669413352
  0
LWPOLYLINE
  5
25F
100
AcDbEntity
  8
RACCORDO
100
AcDbPolyline
 62
7
  6
CONTINUOUS
 90
52
 70
0
 10
-15.9394977558
 20
4.1158082968
 10
-15.9762250805
 20
4.0930373232
 10
-16.0537671745
 20
4.0379423828
 10
-16.1274934255
 20
3.9755437119
 10
-16.1971399106
 20
3.9059957947
 10
-16.2625642653
 20
3.829376092
 10
-16.3235356448
 20
3.7458957256
 10
-16.3799282365
 20
3.6557020995
 10
-16.4316693617
 20
3.5588379161
 10
-16.4786702319
 20
3.4553245202
 10
-16.5209493882
 20
3.3449698087
 10
-16.5583054613
 20
3.2281147731
 10
-16.5904271066
 20
3.1057023939
 10
-16.6172877503
 20
2.978141278
 10
-16.6389577994
 20
2.8454985142
 10
-16.6554100235
 20
2.7083935652
 10
-16.6666826753
 20
2.5672680805
 10
-16.6728398155
 20
2.4222625988
 10
-16.6739412012
 20
2.2736139135
 10
-16.670054612
 20
2.1216404336
 10
-16.6612225004
 20
1.9666506413
 10
-16.6474947629
 20
1.8089054252
 10
-16.6289647318
 20
1.6487606031
 10
-16.6056941987
 20
1.4865433332
 10
-16.577721186
 20
1.3225166026
 10
-16.5451450228
 20
1.1570679303
 10
-16.5080524847
 20
0.9905290231
 10
-16.4664805621
 20
0.8231104702
 10
-16.4205124889
 20
0.6551753347
 10
-16.3702444361
 20
0.4870808695
 10
-16.3157390755
 20
0.3190364725
 10
-16.2570846124
 20
0.151370876
 10
-16.1943792253
 20
-0.0155369549
 10
-16.1277071205
 20
-0.1814023052
 10
-16.0571772483
 20
-0.3458893166
 10
-15.9829040797
 20
-0.5086276734
 10
-15.9049986854
 20
-0.6692817427
 10
-15.8235921359
 20
-0.8275068322
 10
-15.7388223538
 20
-0.9829573723
 10
-15.6508245794
 20
-1.1352996563
 10
-15.5597383929
 20
-1.2841988161
 10
-15.4657184754
 20
-1.4293193187
 10
-15.3689259245
 20
-1.570334734
 10
-15.2695163425
 20
-1.7069211961
 10
-15.1676518821
 20
-1.8387584155
 10
-15.0634999398
 20
-1.9655376171
 10
-14.957239906
 20
-2.086941583
 10
-14.8490581741
 20
-2.2027049444
 10
-14.7390975956
 20
-2.3126103152
 10
-14.6274980611
 20
-2.4163865288
 10
-14.5144519122
 20
-2.5136879228
 10
-14.4229431873
 20
-2.5868072464
  0
LINE
  5
260
100
AcDbEntity
  8
DRAFT
100
AcDbLine
 62
7
  6
CONTINUOUS
 10
7.3821590822
 20
17.760705143
 11
6.940217344
 21
17.4966263086
  0
LINE
  5
261
100
AcDbEntity
  8
RACCORDO
100
AcDbLine
 62
7
  6
CONTINUOUS
 10
-15.9386653613
 20
4.1163053695
 11
-15.9394451634
 21
4.1158434174
  0
LINE
  5
262
100
AcDbEntity
  8
DRAFT
100
AcDbLine
 62
7
  6
CONTINUOUS
 10
-15.6246081554
 20
4.3021416119
 11
-15.9386647009
 21
4.1163057602
  0
LINE
  5
263
100
AcDbEntity
  8
RACCORDO
100
AcDbLine
 62
250
  6
CONTINUOUS
 10
-14.4703821149
 20
-2.4753620809
 11
-14.386640686
 21
-2.5390801624
  0
LWPOLYLINE
  5
264
100
AcDbEntity
  8
RACCORDO
100
AcDbPolyline
 62
7
  6
CONTINUOUS
 90
16
 70
0
 10
-14.4229511237
 20
-2.5868011211
 10
-13.6418214346
 20
-3.1814335871
 10
-12.8220297038
 20
-3.7882541154
 10
-11.9879225836
 20
-4.3884696081
 10
-11.1396780904
 20
-4.9819521696
 10
-10.2774509918
 20
-5.5685974344
 10
-9.4013846348
 20
-6.148310122
 10
-8.5116337036
 20
-6.7209889445
 10
-7.608374801
 20
-7.2865231087
 10
-6.691784812
 20
-7.8448025108
 10
-5.7620428469
 20
-8.3957184623
 10
-4.8193134329
 20
-8.9391760215
 10
-3.8637508956
 20
-9.4750860555
 10
-2.8955302559
 20
-10.0033497704
 10
-1.914863565
 20
-10.5238543787
 10
-0.9496963242
 20
-11.0223609334
  0
LWPOLYLINE
  5
265
100
AcDbEntity
  8
RACCORDO
100
AcDbPolyline
 62
7
  6
CONTINUOUS
 90
28
 70
0
 10
7.0751727313
 20
-19.2182278104
 10
7.1979384635
 20
-19.311724232
 10
7.3187516812
 20
-19.4099584239
 10
7.4372130237
 20
-19.5126173455
 10
7.5530203525
 20
-19.6194426057
 10
7.6659258848
 20
-19.73021385
 10
7.7756323444
 20
-19.8446411438
 10
7.8818801022
 20
-19.9624588532
 10
7.9844292913
 20
-20.083401463
 10
8.0830244577
 20
-20.2071703909
 10
8.1774415191
 20
-20.3334815484
 10
8.2674665972
 20
-20.4620479066
 10
8.3528816179
 20
-20.5925507798
 10
8.4334894369
 20
-20.7246778159
 10
8.5091233966
 20
-20.8581402209
 10
8.5796277353
 20
-20.9926461332
 10
8.6448444682
 20
-21.1278735896
 10
8.7046443304
 20
-21.2635241856
 10
8.7589246604
 20
-21.3993363172
 10
8.8075733181
 20
-21.5349979389
 10
8.8504944412
 20
-21.6701938875
 10
8.8876190014
 20
-21.8046538829
 10
8.9188794989
 20
-21.9380636658
 10
8.944227978
 20
-22.0701168535
 10
8.9636385064
 20
-22.2005544824
 10
8.9770936937
 20
-22.3291003776
 10
8.9845890187
 20
-22.4554397624
 10
8.9863114586
 20
-22.5500501972
  0
LINE
  5
266
100
AcDbEntity
  8
RACCORDO
100
AcDbLine
 62
250
  6
CONTINUOUS
 10
-14.4703821149
 20
-2.4753620809
 11
-14.3873250933
 21
-2.5393767546
  0
LWPOLYLINE
  5
267
100
AcDbEntity
  8
RACCORDO
100
AcDbPolyline
 62
7
  6
CONTINUOUS
 90
20
 70
0
 10
4.1746568143
 20
12.1739233876
 10
4.1642861895
 20
12.1678025715
 10
4.0749307068
 20
12.1104868649
 10
3.9898949753
 20
12.047515393
 10
3.9093386996
 20
11.9790105362
 10
3.8334245268
 20
11.9051175355
 10
3.7622888567
 20
11.8260041678
 10
3.6960485793
 20
11.7418231112
 10
3.6348300224
 20
11.6527517752
 10
3.5787337161
 20
11.558975452
 10
3.5278366394
 20
11.4606433996
 10
3.482225669
 20
11.3579578173
 10
3.4419629437
 20
11.2511229165
 10
3.4070891835
 20
11.1402779611
 10
3.3776666041
 20
11.0256273803
 10
3.3537480713
 20
10.9073729167
 10
3.3353557194
 20
10.7856517927
 10
3.3225295551
 20
10.6606497188
 10
3.3153209329
 20
10.5325993254
 10
3.3136358453
 20
10.4323137569
  0
LINE
  5
268
100
AcDbEntity
  8
DRAFT
100
AcDbLine
 62
7
  6
CONTINUOUS
 10
4.6395442248
 20
12.4463354343
 11
4.173774322
 21
12.173408314
  0
LINE
  5
269
100
AcDbEntity
  8
ASSI
100
AcDbLine
 62
250
  6
CONTINUOUS
 10
-0.979475013
 20
9.2170396535
 11
-0.8024814489
 21
9.3192335191
  0
LINE
  5
26A
100
AcDbEntity
  8
RACCORDO
100
AcDbLine
 62
7
  6
CONTINUOUS
 10
4.3894133119
 20
11.9350158286
 11
4.3900381442
 21
11.9353675427
  0
LWPOLYLINE
  5
26B
100
AcDbEntity
  8
RACCORDO
100
AcDbPolyline
 62
7
  6
CONTINUOUS
 90
11
 70
0
 10
4.390013181
 20
11.9353530946
 10
4.4829491312
 20
11.9829596556
 10
4.5763286945
 20
12.0222482889
 10
4.6735172572
 20
12.0551859941
 10
4.7743247243
 20
12.0817585159
 10
4.8785968902
 20
12.1019544286
 10
4.9860645457
 20
12.1157571576
 10
5.096489847
 20
12.1231631571
 10
5.2097496774
 20
12.12418037
 10
5.3255768031
 20
12.1188189958
 10
5.4436846411
 20
12.1070958995
  0
LWPOLYLINE
  5
26C
100
AcDbEntity
  8
RACCORDO
100
AcDbPolyline
 62
7
  6
CONTINUOUS
 90
18
 70
0
 10
-0.9496918688
 20
-11.0223632036
 10
-0.8374251427
 20
-11.0771695522
 10
-0.6946462481
 20
-11.1399049207
 10
-0.5525437024
 20
-11.1945878619
 10
-0.4114576412
 20
-11.2412386013
 10
-0.2715909209
 20
-11.2799168722
 10
-0.133065683
 20
-11.3106264544
 10
0.0038238064
 20
-11.3333158288
 10
0.1387904382
 20
-11.3480168668
 10
0.2716336213
 20
-11.3547605097
 10
0.4020843252
 20
-11.353574738
 10
0.5298561795
 20
-11.3445236452
 10
0.6547323589
 20
-11.3276713045
 10
0.7764663518
 20
-11.3030753718
 10
0.8947275704
 20
-11.2708072843
 10
1.0091994885
 20
-11.2310191722
 10
1.1196290137
 20
-11.1838768173
 10
1.2323708687
 20
-11.1258294146
  0
LINE
  5
26D
100
AcDbEntity
  8
RACCORDO
100
AcDbLine
 62
250
  6
CONTINUOUS
 10
-4.0738097824
 20
-9.2728914151
 11
-4.0683100189
 21
-9.2759041089
  0
LINE
  5
26E
100
AcDbEntity
  8
RACCORDO
100
AcDbLine
 62
250
  6
CONTINUOUS
 10
-4.0738097824
 20
-9.2728914151
 11
-4.0683473666
 21
-9.2759265236
  0
LINE
  5
26F
100
AcDbEntity
  8
RACCORDO
100
AcDbLine
 62
250
  6
CONTINUOUS
 10
7.6683963969
 20
-19.6115054054
 11
7.661496612
 21
-19.6047189289
  0
LINE
  5
270
100
AcDbEntity
  8
RACCORDO
100
AcDbLine
 62
250
  6
CONTINUOUS
 10
7.6683079618
 20
-19.6116218658
 11
7.661496612
 21
-19.6047189289
  0
LINE
  5
271
100
AcDbEntity
  8
0
100
AcDbLine
 62
7
  6
CONTINUOUS
 10
5.1819445661
 20
12.1239306458
 11
4.5249409284
 21
11.6133126812
  0
LINE
  5
272
100
AcDbEntity
  8
ASSI
100
AcDbLine
 62
7
  6
CONTINUOUS
 10
5.1819445661
 20
12.1239306458
 11
4.5249409284
 21
11.6133126812
  0
LINE
  5
273
100
AcDbEntity
  8
0
100
AcDbLine
 62
7
  6
CONTINUOUS
 10
13.0213356622
 20
14.8094314184
 11
13.7637977824
 21
15.2381197414
  0
LINE
  5
274
100
AcDbEntity
  8
0
100
AcDbLine
 62
7
  6
CONTINUOUS
 10
16.8927452892
 20
16.6364602236
 11
17.1755880016
 21
16.7997700609
  0
LINE
  5
275
100
AcDbEntity
  8
0
100
AcDbLine
 62
7
  6
CONTINUOUS
 10
13.3748890528
 20
14.2786744471
 11
14.117351173
 21
14.7073627701
  0
LINE
  5
276
100
AcDbEntity
  8
0
100
AcDbLine
 62
7
  6
CONTINUOUS
 10
14.5769705808
 20
14.4419842844
 11
14.1527065121
 21
14.1970195284
  0
LINE
  5
277
100
AcDbEntity
  8
DRAFT
100
AcDbLine
 62
7
  6
CONTINUOUS
 10
1.2325663024
 20
9.2860372357
 11
1.6198882215
 21
9.5041859787
  0
LINE
  5
278
100
AcDbEntity
  8
RACCORDO
100
AcDbLine
 62
7
  6
CONTINUOUS
 10
1.232363994
 20
9.2859233111
 11
1.2325663909
 21
9.2860372855
  0
LINE
  5
279
100
AcDbEntity
  8
ASSI
100
AcDbLine
 62
7
  6
CONTINUOUS
 10
8.3442370979
 20
-3.9915732613
 11
8.3460283471
 21
-3.991229623
  0
LINE
  5
27A
100
AcDbEntity
  8
ASSI
100
AcDbLine
 62
7
  6
CONTINUOUS
 10
8.3445110192
 20
-3.992181573
 11
8.3463088992
 21
-3.9918518501
  0
LINE
  5
27B
100
AcDbEntity
  8
RACCORDO
100
AcDbLine
 62
7
  6
CONTINUOUS
 10
5.4436846411
 20
-8.3046610204
 11
5.5639207764
 21
-8.322728696
  0
LWPOLYLINE
  5
27C
100
AcDbEntity
  8
RACCORDO
100
AcDbPolyline
 62
7
  6
CONTINUOUS
 90
13
 70
0
 10
5.5639207764
 20
-8.322728696
 10
5.685998654
 20
-8.3470996422
 10
5.8096242134
 20
-8.3777252654
 10
5.9346402814
 20
-8.4145791058
 10
6.0607724838
 20
-8.4575986132
 10
6.1877015157
 20
-8.506701515
 10
6.3152081008
 20
-8.561828424
 10
6.4430322168
 20
-8.6228964242
 10
6.5708273469
 20
-8.6897782691
 10
6.6982473042
 20
-8.762321716
 10
6.8249989262
 20
-8.8403833249
 10
6.950765422
 20
-8.9238007591
 10
7.0751727313
 20
-9.0123493505
  0
LINE
  5
27D
100
AcDbEntity
  8
ASSI
100
AcDbLine
 62
7
  6
CONTINUOUS
 10
4.1636180823
 20
12.1826718156
 11
4.1626076045
 21
12.1812285309
  0
LINE
  5
27E
100
AcDbEntity
  8
ASSI
100
AcDbLine
 62
7
  6
CONTINUOUS
 10
4.1636209427
 20
12.1826687081
 11
4.1625743162
 21
12.181263307
  0
LWPOLYLINE
  5
27F
100
AcDbEntity
  8
RACCORDO
100
AcDbPolyline
 62
7
  6
CONTINUOUS
 90
52
 70
0
 10
-15.9394977558
 20
-6.0900701632
 10
-15.9762250805
 20
-6.1128411367
 10
-16.0537671745
 20
-6.1679360771
 10
-16.1274934255
 20
-6.230334748
 10
-16.1971399106
 20
-6.2998826652
 10
-16.2625642653
 20
-6.3765023679
 10
-16.3235356448
 20
-6.4599827343
 10
-16.3799282365
 20
-6.5501763604
 10
-16.4316693617
 20
-6.6470405438
 10
-16.4786702319
 20
-6.7505539397
 10
-16.5209493882
 20
-6.8609086512
 10
-16.5583054613
 20
-6.9777636868
 10
-16.5904271066
 20
-7.100176066
 10
-16.6172877503
 20
-7.2277371819
 10
-16.6389577994
 20
-7.3603799457
 10
-16.6554100235
 20
-7.4974848947
 10
-16.6666826753
 20
-7.6386103794
 10
-16.6728398155
 20
-7.7836158611
 10
-16.6739412012
 20
-7.9322645464
 10
-16.670054612
 20
-8.0842380263
 10
-16.6612225004
 20
-8.2392278186
 10
-16.6474947629
 20
-8.3969730347
 10
-16.6289647318
 20
-8.5571178568
 10
-16.6056941987
 20
-8.7193351267
 10
-16.577721186
 20
-8.8833618573
 10
-16.5451450228
 20
-9.0488105296
 10
-16.5080524847
 20
-9.2153494368
 10
-16.4664805621
 20
-9.3827679898
 10
-16.4205124889
 20
-9.5507031252
 10
-16.3702444361
 20
-9.7187975904
 10
-16.3157390755
 20
-9.8868419874
 10
-16.2570846124
 20
-10.0545075839
 10
-16.1943792253
 20
-10.2214154148
 10
-16.1277071205
 20
-10.3872807651
 10
-16.0571772483
 20
-10.5517677765
 10
-15.9829040797
 20
-10.7145061333
 10
-15.9049986854
 20
-10.8751602026
 10
-15.8235921359
 20
-11.0333852921
 10
-15.7388223538
 20
-11.1888358322
 10
-15.6508245794
 20
-11.3411781162
 10
-15.5597383929
 20
-11.490077276
 10
-15.4657184754
 20
-11.6351977787
 10
-15.3689259245
 20
-11.7762131939
 10
-15.2695163425
 20
-11.912799656
 10
-15.1676518821
 20
-12.0446368754
 10
-15.0634999398
 20
-12.171416077
 10
-14.957239906
 20
-12.2928200429
 10
-14.8490581741
 20
-12.4085834043
 10
-14.7390975956
 20
-12.5184887751
 10
-14.6274980611
 20
-12.6222649887
 10
-14.5144519122
 20
-12.7195663827
 10
-14.4229431873
 20
-12.7926857063
  0
LINE
  5
280
100
AcDbEntity
  8
RACCORDO
100
AcDbLine
 62
7
  6
CONTINUOUS
 10
-15.9386653613
 20
-6.0895730905
 11
-15.9394451634
 21
-6.0900350425
  0
LINE
  5
281
100
AcDbEntity
  8
DRAFT
100
AcDbLine
 62
7
  6
CONTINUOUS
 10
-15.6246081554
 20
-5.903736848
 11
-15.9386647009
 21
-6.0895726997
  0
LINE
  5
282
100
AcDbEntity
  8
0
100
AcDbLine
 62
7
  6
CONTINUOUS
 10
15.3547880401
 20
14.5236392031
 11
17.8650171133
 21
15.9730140094
  0
LINE
  5
283
100
AcDbEntity
  8
ASSI
100
AcDbLine
 62
250
  6
CONTINUOUS
 10
-14.3970016399
 20
-2.7333276246
 11
-14.3022987426
 21
-2.6786473585
  0
LINE
  5
284
100
AcDbEntity
  8
0
100
AcDbLine
 62
7
  6
CONTINUOUS
 10
15.8497627869
 20
14.2786744471
 11
18.6958675812
 21
15.9219796852
  0
LINE
  5
285
100
AcDbEntity
  8
0
100
AcDbLine
 62
7
  6
CONTINUOUS
 10
8.6253186079
 20
7.0040839761
 11
7.7159097953
 21
6.54914968
  0
LINE
  5
286
100
AcDbEntity
  8
ASSI
100
AcDbLine
 62
7
  6
CONTINUOUS
 10
8.6253186079
 20
7.0040839761
 11
7.7159097953
 21
6.54914968
  0
LINE
  5
287
100
AcDbEntity
  8
RACCORDO
100
AcDbLine
 62
250
  6
CONTINUOUS
 10
-14.4703821149
 20
7.730516379
 11
-14.386640686
 21
7.6667982975
  0
LWPOLYLINE
  5
288
100
AcDbEntity
  8
RACCORDO
100
AcDbPolyline
 62
7
  6
CONTINUOUS
 90
16
 70
0
 10
-14.4229511237
 20
7.6190773388
 10
-13.6418214346
 20
7.0244448728
 10
-12.8220297038
 20
6.4176243445
 10
-11.9879225836
 20
5.8174088518
 10
-11.1396780904
 20
5.2239262903
 10
-10.2774509918
 20
4.6372810255
 10
-9.4013846348
 20
4.0575683379
 10
-8.5116337036
 20
3.4848895155
 10
-7.608374801
 20
2.9193553512
 10
-6.691784812
 20
2.3610759491
 10
-5.7620428469
 20
1.8101599976
 10
-4.8193134329
 20
1.2667024384
 10
-3.8637508956
 20
0.7307924045
 10
-2.8955302559
 20
0.2025286895
 10
-1.914863565
 20
-0.3179759188
 10
-0.9496963242
 20
-0.8164824735
  0
LWPOLYLINE
  5
289
100
AcDbEntity
  8
RACCORDO
100
AcDbPolyline
 62
7
  6
CONTINUOUS
 90
28
 70
0
 10
7.0751727313
 20
-9.0123493505
 10
7.1979384635
 20
-9.1058457721
 10
7.3187516812
 20
-9.204079964
 10
7.4372130237
 20
-9.3067388856
 10
7.5530203525
 20
-9.4135641458
 10
7.6659258848
 20
-9.5243353901
 10
7.7756323444
 20
-9.6387626839
 10
7.8818801022
 20
-9.7565803933
 10
7.9844292913
 20
-9.877523003
 10
8.0830244577
 20
-10.0012919309
 10
8.1774415191
 20
-10.1276030885
 10
8.2674665972
 20
-10.2561694467
 10
8.3528816179
 20
-10.3866723199
 10
8.4334894369
 20
-10.518799356
 10
8.5091233966
 20
-10.652261761
 10
8.5796277353
 20
-10.7867676733
 10
8.6448444682
 20
-10.9219951297
 10
8.7046443304
 20
-11.0576457257
 10
8.7589246604
 20
-11.1934578573
 10
8.8075733181
 20
-11.329119479
 10
8.8504944412
 20
-11.4643154276
 10
8.8876190014
 20
-11.598775423
 10
8.9188794989
 20
-11.7321852059
 10
8.944227978
 20
-11.8642383936
 10
8.9636385064
 20
-11.9946760225
 10
8.9770936937
 20
-12.1232219177
 10
8.9845890187
 20
-12.2495613025
 10
8.9863114586
 20
-12.3441717373
  0
LINE
  5
28A
100
AcDbEntity
  8
RACCORDO
100
AcDbLine
 62
250
  6
CONTINUOUS
 10
-14.4703821149
 20
7.730516379
 11
-14.3873250933
 21
7.6665017053
  0
LINE
  5
28B
100
AcDbEntity
  8
RACCORDO
100
AcDbLine
 62
7
  6
CONTINUOUS
 10
8.2265436377
 20
6.5519636188
 11
8.226299604
 21
6.5518192471
  0
LINE
  5
28C
100
AcDbEntity
  8
DRAFT
100
AcDbLine
 62
7
  6
CONTINUOUS
 10
8.3407022899
 20
6.2424252284
 11
8.8008602527
 21
6.504194553
  0
LINE
  5
28D
100
AcDbEntity
  8
RACCORDO
100
AcDbLine
 62
7
  6
CONTINUOUS
 10
8.3390252485
 20
6.2414724834
 11
8.3406999052
 21
6.2424238718
  0
LWPOLYLINE
  5
28E
100
AcDbEntity
  8
RACCORDO
100
AcDbPolyline
 62
7
  6
CONTINUOUS
 90
18
 70
0
 10
-0.9496918688
 20
-0.8164847437
 10
-0.8374251427
 20
-0.8712910923
 10
-0.6946462481
 20
-0.9340264608
 10
-0.5525437024
 20
-0.988709402
 10
-0.4114576412
 20
-1.0353601414
 10
-0.2715909209
 20
-1.0740384123
 10
-0.133065683
 20
-1.1047479945
 10
0.0038238064
 20
-1.1274373689
 10
0.1387904382
 20
-1.1421384068
 10
0.2716336213
 20
-1.1488820498
 10
0.4020843252
 20
-1.1476962781
 10
0.5298561795
 20
-1.1386451853
 10
0.6547323589
 20
-1.1217928446
 10
0.7764663518
 20
-1.0971969118
 10
0.8947275704
 20
-1.0649288244
 10
1.0091994885
 20
-1.0251407123
 10
1.1196290137
 20
-0.9779983574
 10
1.2323708687
 20
-0.9199509547
  0
LINE
  5
28F
100
AcDbEntity
  8
RACCORDO
100
AcDbLine
 62
250
  6
CONTINUOUS
 10
-4.0738097824
 20
0.9329870448
 11
-4.0683100189
 21
0.929974351
  0
LINE
  5
290
100
AcDbEntity
  8
RACCORDO
100
AcDbLine
 62
250
  6
CONTINUOUS
 10
-4.0738097824
 20
0.9329870448
 11
-4.0683473666
 21
0.9299519363
  0
LINE
  5
291
100
AcDbEntity
  8
RACCORDO
100
AcDbLine
 62
250
  6
CONTINUOUS
 10
7.6683963969
 20
-9.4056269455
 11
7.661496612
 21
-9.398840469
  0
LINE
  5
292
100
AcDbEntity
  8
RACCORDO
100
AcDbLine
 62
250
  6
CONTINUOUS
 10
7.6683079618
 20
-9.4057434059
 11
7.661496612
 21
-9.398840469
  0
LWPOLYLINE
  5
293
100
AcDbEntity
  8
RACCORDO
100
AcDbPolyline
 62
7
  6
CONTINUOUS
 90
51
 70
0
 10
3.3136358456
 20
-20.1853107222
 10
3.3155418213
 20
-20.2935846872
 10
3.3237743305
 20
-20.4376956704
 10
3.3384671496
 20
-20.5840831086
 10
3.3595856509
 20
-20.7324322612
 10
3.3871019276
 20
-20.8824275512
 10
3.4209650885
 20
-21.0337119089
 10
3.461107711
 20
-21.1859418338
 10
3.5074588293
 20
-21.338775674
 10
3.5599088359
 20
-21.4918322642
 10
3.6183475961
 20
-21.644761318
 10
3.6826587532
 20
-21.7972145414
 10
3.7526870495
 20
-21.9488093615
 10
3.8282750741
 20
-22.0991743278
 10
3.9092749436
 20
-22.2479844836
 10
3.9955184717
 20
-22.39493237
 10
4.0868085872
 20
-22.5396645436
 10
4.1829647001
 20
-22.6818653599
 10
4.2838391435
 20
-22.8212869422
 10
4.3892435321
 20
-22.9576141399
 10
4.4989631087
 20
-23.0905092935
 10
4.612801581
 20
-23.2196947399
 10
4.7305477612
 20
-23.3448738961
 10
4.8519506051
 20
-23.4657189356
 10
4.9767360115
 20
-23.5819260061
 10
5.1046478189
 20
-23.6932175093
 10
5.2354177704
 20
-23.7993155808
 10
5.3687361333
 20
-23.8999507232
 10
5.5043261761
 20
-23.9948890176
 10
5.6418962913
 20
-24.0838923157
 10
5.781103782
 20
-24.1667217755
 10
5.9216636443
 20
-24.2431833419
 10
6.0632662868
 20
-24.3130758987
 10
6.2055231728
 20
-24.3761986857
 10
6.3481371602
 20
-24.4324071608
 10
6.4907853972
 20
-24.4815530687
 10
6.6330416259
 20
-24.5234988788
 10
6.7745993239
 20
-24.5581652595
 10
6.9151491659
 20
-24.5854757529
 10
7.0542687529
 20
-24.6053647779
 10
7.1916594529
 20
-24.6178053308
 10
7.3270172063
 20
-24.6227740043
 10
7.4599254421
 20
-24.6202831146
 10
7.5900951936
 20
-24.6103688617
 10
7.717236868
 20
-24.5930718785
 10
7.8409538608
 20
-24.5684907095
 10
7.960935136
 20
-24.5367431804
 10
8.0769588555
 20
-24.4979318021
 10
8.1887856424
 20
-24.4521959304
 10
8.2961441294
 20
-24.3997119703
 10
8.3389701016
 20
-24.3761939944
  0
LINE
  5
294
100
AcDbEntity
  8
ASSI
100
AcDbLine
 62
7
  6
CONTINUOUS
 10
4.1636180823
 20
1.9767933556
 11
4.1626076045
 21
1.975350071
  0
LINE
  5
295
100
AcDbEntity
  8
ASSI
100
AcDbLine
 62
7
  6
CONTINUOUS
 10
4.1636209427
 20
1.9767902482
 11
4.1625743162
 21
1.9753848471
  0
LINE
  5
296
100
AcDbEntity
  8
0
100
AcDbLine
 62
7
  6
CONTINUOUS
 10
5.1819445661
 20
1.9180521859
 11
4.5249409284
 21
1.4074342213
  0
LINE
  5
297
100
AcDbEntity
  8
ASSI
100
AcDbLine
 62
7
  6
CONTINUOUS
 10
5.1819445661
 20
1.9180521859
 11
4.5249409284
 21
1.4074342213
  0
LWPOLYLINE
  5
298
100
AcDbEntity
  8
RACCORDO
100
AcDbPolyline
 62
7
  6
CONTINUOUS
 90
20
 70
0
 10
4.1746568143
 20
1.9680449277
 10
4.1642861895
 20
1.9619241115
 10
4.0749307068
 20
1.904608405
 10
3.9898949753
 20
1.8416369331
 10
3.9093386996
 20
1.7731320763
 10
3.8334245268
 20
1.6992390756
 10
3.7622888567
 20
1.6201257079
 10
3.6960485793
 20
1.5359446512
 10
3.6348300224
 20
1.4468733153
 10
3.5787337161
 20
1.3530969921
 10
3.5278366394
 20
1.2547649397
 10
3.482225669
 20
1.1520793574
 10
3.4419629437
 20
1.0452444566
 10
3.4070891835
 20
0.9343995012
 10
3.3776666041
 20
0.8197489203
 10
3.3537480713
 20
0.7014944568
 10
3.3353557194
 20
0.5797733328
 10
3.3225295551
 20
0.4547712589
 10
3.3153209329
 20
0.3267208654
 10
3.3136358453
 20
0.226435297
  0
LINE
  5
299
100
AcDbEntity
  8
DRAFT
100
AcDbLine
 62
7
  6
CONTINUOUS
 10
4.6395442248
 20
2.2404569744
 11
4.173774322
 21
1.9675298541
  0
LINE
  5
29A
100
AcDbEntity
  8
ASSI
100
AcDbLine
 62
250
  6
CONTINUOUS
 10
-0.979475013
 20
-0.9888388064
 11
-0.8024814489
 21
-0.8866449408
  0
LINE
  5
29B
100
AcDbEntity
  8
DRAFT
100
AcDbLine
 62
7
  6
CONTINUOUS
 10
1.2325663024
 20
-0.9198412242
 11
1.6198882215
 21
-0.7016924812
  0
LINE
  5
29C
100
AcDbEntity
  8
RACCORDO
100
AcDbLine
 62
7
  6
CONTINUOUS
 10
1.232363994
 20
-0.9199551488
 11
1.2325663909
 21
-0.9198411744
  0
LINE
  5
29D
100
AcDbEntity
  8
RACCORDO
100
AcDbLine
 62
7
  6
CONTINUOUS
 10
4.3894133119
 20
1.7291373687
 11
4.3900381442
 21
1.7294890828
  0
LWPOLYLINE
  5
29E
100
AcDbEntity
  8
RACCORDO
100
AcDbPolyline
 62
7
  6
CONTINUOUS
 90
11
 70
0
 10
4.390013181
 20
1.7294746347
 10
4.4829491312
 20
1.7770811957
 10
4.5763286945
 20
1.816369829
 10
4.6735172572
 20
1.8493075342
 10
4.7743247243
 20
1.875880056
 10
4.8785968902
 20
1.8960759687
 10
4.9860645457
 20
1.9098786977
 10
5.096489847
 20
1.9172846972
 10
5.2097496774
 20
1.9183019101
 10
5.3255768031
 20
1.9129405359
 10
5.4436846411
 20
1.9012174395
  0
LINE
  5
29F
100
AcDbEntity
  8
RACCORDO
100
AcDbLine
 62
7
  6
CONTINUOUS
 10
5.4436846411
 20
1.9012174395
 11
5.5639207764
 21
1.8831497639
  0
LWPOLYLINE
  5
2A0
100
AcDbEntity
  8
RACCORDO
100
AcDbPolyline
 62
7
  6
CONTINUOUS
 90
13
 70
0
 10
5.5639207764
 20
1.8831497639
 10
5.685998654
 20
1.8587788177
 10
5.8096242134
 20
1.8281531945
 10
5.9346402814
 20
1.7912993541
 10
6.0607724838
 20
1.7482798467
 10
6.1877015157
 20
1.6991769449
 10
6.3152081008
 20
1.6440500359
 10
6.4430322168
 20
1.5829820357
 10
6.5708273469
 20
1.5161001908
 10
6.6982473042
 20
1.4435567439
 10
6.8249989262
 20
1.365495135
 10
6.950765422
 20
1.2820777008
 10
7.0751727313
 20
1.1935291094
  0
LWPOLYLINE
  5
2A1
100
AcDbEntity
  8
RACCORDO
100
AcDbPolyline
 62
7
  6
CONTINUOUS
 90
51
 70
0
 10
3.3136358456
 20
-9.9794322623
 10
3.3155418213
 20
-10.0877062273
 10
3.3237743305
 20
-10.2318172105
 10
3.3384671496
 20
-10.3782046487
 10
3.3595856509
 20
-10.5265538013
 10
3.3871019276
 20
-10.6765490913
 10
3.4209650885
 20
-10.8278334489
 10
3.461107711
 20
-10.9800633739
 10
3.5074588293
 20
-11.1328972141
 10
3.5599088359
 20
-11.2859538042
 10
3.6183475961
 20
-11.4388828581
 10
3.6826587532
 20
-11.5913360814
 10
3.7526870495
 20
-11.7429309016
 10
3.8282750741
 20
-11.8932958679
 10
3.9092749436
 20
-12.0421060237
 10
3.9955184717
 20
-12.18905391
 10
4.0868085872
 20
-12.3337860837
 10
4.1829647001
 20
-12.4759869
 10
4.2838391435
 20
-12.6154084823
 10
4.3892435321
 20
-12.75173568
 10
4.4989631087
 20
-12.8846308336
 10
4.612801581
 20
-13.01381628
 10
4.7305477612
 20
-13.1389954362
 10
4.8519506051
 20
-13.2598404757
 10
4.9767360115
 20
-13.3760475462
 10
5.1046478189
 20
-13.4873390494
 10
5.2354177704
 20
-13.5934371209
 10
5.3687361333
 20
-13.6940722633
 10
5.5043261761
 20
-13.7890105577
 10
5.6418962913
 20
-13.8780138558
 10
5.781103782
 20
-13.9608433156
 10
5.9216636443
 20
-14.037304882
 10
6.0632662868
 20
-14.1071974387
 10
6.2055231728
 20
-14.1703202258
 10
6.3481371602
 20
-14.2265287009
 10
6.4907853972
 20
-14.2756746088
 10
6.6330416259
 20
-14.3176204189
 10
6.7745993239
 20
-14.3522867996
 10
6.9151491659
 20
-14.379597293
 10
7.0542687529
 20
-14.399486318
 10
7.1916594529
 20
-14.4119268709
 10
7.3270172063
 20
-14.4168955444
 10
7.4599254421
 20
-14.4144046546
 10
7.5900951936
 20
-14.4044904017
 10
7.717236868
 20
-14.3871934186
 10
7.8409538608
 20
-14.3626122495
 10
7.960935136
 20
-14.3308647205
 10
8.0769588555
 20
-14.2920533422
 10
8.1887856424
 20
-14.2463174704
 10
8.2961441294
 20
-14.1938335104
 10
8.3389701016
 20
-14.1703155345
  0
LWPOLYLINE
  5
2A2
100
AcDbEntity
  8
RACCORDO
100
AcDbPolyline
 62
7
  6
CONTINUOUS
 90
51
 70
0
 10
3.3136358456
 20
0.2264461976
 10
3.3155418213
 20
0.1181722326
 10
3.3237743305
 20
-0.0259387506
 10
3.3384671496
 20
-0.1723261888
 10
3.3595856509
 20
-0.3206753414
 10
3.3871019276
 20
-0.4706706314
 10
3.4209650885
 20
-0.621954989
 10
3.461107711
 20
-0.774184914
 10
3.5074588293
 20
-0.9270187542
 10
3.5599088359
 20
-1.0800753443
 10
3.6183475961
 20
-1.2330043982
 10
3.6826587532
 20
-1.3854576215
 10
3.7526870495
 20
-1.5370524417
 10
3.8282750741
 20
-1.687417408
 10
3.9092749436
 20
-1.8362275638
 10
3.9955184717
 20
-1.9831754501
 10
4.0868085872
 20
-2.1279076238
 10
4.1829647001
 20
-2.2701084401
 10
4.2838391435
 20
-2.4095300224
 10
4.3892435321
 20
-2.5458572201
 10
4.4989631087
 20
-2.6787523737
 10
4.612801581
 20
-2.8079378201
 10
4.7305477612
 20
-2.9331169762
 10
4.8519506051
 20
-3.0539620158
 10
4.9767360115
 20
-3.1701690863
 10
5.1046478189
 20
-3.2814605894
 10
5.2354177704
 20
-3.387558661
 10
5.3687361333
 20
-3.4881938034
 10
5.5043261761
 20
-3.5831320977
 10
5.6418962913
 20
-3.6721353959
 10
5.781103782
 20
-3.7549648557
 10
5.9216636443
 20
-3.8314264221
 10
6.0632662868
 20
-3.9013189788
 10
6.2055231728
 20
-3.9644417659
 10
6.3481371602
 20
-4.020650241
 10
6.4907853972
 20
-4.0697961489
 10
6.6330416259
 20
-4.111741959
 10
6.7745993239
 20
-4.1464083397
 10
6.9151491659
 20
-4.1737188331
 10
7.0542687529
 20
-4.1936078581
 10
7.1916594529
 20
-4.206048411
 10
7.3270172063
 20
-4.2110170845
 10
7.4599254421
 20
-4.2085261947
 10
7.5900951936
 20
-4.1986119418
 10
7.717236868
 20
-4.1813149587
 10
7.8409538608
 20
-4.1567337896
 10
7.960935136
 20
-4.1249862606
 10
8.0769588555
 20
-4.0861748823
 10
8.1887856424
 20
-4.0404390105
 10
8.2961441294
 20
-3.9879550505
 10
8.3389701016
 20
-3.9644370746
  0
LWPOLYLINE
  5
2A3
100
AcDbEntity
  8
RACCORDO
100
AcDbPolyline
 62
7
  6
CONTINUOUS
 90
51
 70
0
 10
3.3136358456
 20
10.4323246575
 10
3.3155418213
 20
10.3240506925
 10
3.3237743305
 20
10.1799397093
 10
3.3384671496
 20
10.0335522712
 10
3.3595856509
 20
9.8852031185
 10
3.3871019276
 20
9.7352078285
 10
3.4209650885
 20
9.5839234709
 10
3.461107711
 20
9.4316935459
 10
3.5074588293
 20
9.2788597057
 10
3.5599088359
 20
9.1258031156
 10
3.6183475961
 20
8.9728740618
 10
3.6826587532
 20
8.8204208384
 10
3.7526870495
 20
8.6688260183
 10
3.8282750741
 20
8.5184610519
 10
3.9092749436
 20
8.3696508961
 10
3.9955184717
 20
8.2227030098
 10
4.0868085872
 20
8.0779708362
 10
4.1829647001
 20
7.9357700198
 10
4.2838391435
 20
7.7963484376
 10
4.3892435321
 20
7.6600212398
 10
4.4989631087
 20
7.5271260862
 10
4.612801581
 20
7.3979406398
 10
4.7305477612
 20
7.2727614837
 10
4.8519506051
 20
7.1519164441
 10
4.9767360115
 20
7.0357093736
 10
5.1046478189
 20
6.9244178705
 10
5.2354177704
 20
6.8183197989
 10
5.3687361333
 20
6.7176846565
 10
5.5043261761
 20
6.6227463622
 10
5.6418962913
 20
6.533743064
 10
5.781103782
 20
6.4509136043
 10
5.9216636443
 20
6.3744520378
 10
6.0632662868
 20
6.3045594811
 10
6.2055231728
 20
6.241436694
 10
6.3481371602
 20
6.1852282189
 10
6.4907853972
 20
6.136082311
 10
6.6330416259
 20
6.0941365009
 10
6.7745993239
 20
6.0594701202
 10
6.9151491659
 20
6.0321596268
 10
7.0542687529
 20
6.0122706018
 10
7.1916594529
 20
5.999830049
 10
7.3270172063
 20
5.9948613754
 10
7.4599254421
 20
5.9973522652
 10
7.5900951936
 20
6.0072665181
 10
7.717236868
 20
6.0245635013
 10
7.8409538608
 20
6.0491446703
 10
7.960935136
 20
6.0808921993
 10
8.0769588555
 20
6.1197035776
 10
8.1887856424
 20
6.1654394494
 10
8.2961441294
 20
6.2179234094
 10
8.3389701016
 20
6.2414413853
  0
LWPOLYLINE
  5
2A4
100
AcDbEntity
  8
RACCORDO
100
AcDbPolyline
 62
7
  6
CONTINUOUS
 90
8
 70
0
 10
8.710701707
 20
7.0231322953
 10
8.6518323569
 20
6.9370858087
 10
8.587638631
 20
6.8560340412
 10
8.518254529
 20
6.7801710961
 10
8.4438101838
 20
6.7096674655
 10
8.3644557296
 20
6.6446940041
 10
8.2803424189
 20
6.5854053364
 10
8.2263186
 20
6.551830822
  0
LINE
  5
2A5
100
AcDbEntity
  8
ASSI
100
AcDbLine
 62
250
  6
CONTINUOUS
 10
-14.3970016399
 20
-12.9392060845
 11
-14.3022987426
 21
-12.8845258184
  0
LINE
  5
2A6
100
AcDbEntity
  8
ASSI
100
AcDbLine
 62
7
  6
CONTINUOUS
 10
8.3442370979
 20
6.2143051986
 11
8.3460283471
 21
6.2146488369
  0
LINE
  5
2A7
100
AcDbEntity
  8
ASSI
100
AcDbLine
 62
7
  6
CONTINUOUS
 10
8.3445110192
 20
6.2136968869
 11
8.3463088992
 21
6.2140266098
  0
LINE
  5
2A8
100
AcDbEntity
  8
RACCORDO
100
AcDbLine
 62
250
  6
CONTINUOUS
 10
-14.4703821149
 20
17.936394839
 11
-14.386640686
 21
17.8726767574
  0
LWPOLYLINE
  5
2A9
100
AcDbEntity
  8
RACCORDO
100
AcDbPolyline
 62
7
  6
CONTINUOUS
 90
16
 70
0
 10
-14.4229511237
 20
17.8249557987
 10
-13.6418214346
 20
17.2303233327
 10
-12.8220297038
 20
16.6235028044
 10
-11.9879225836
 20
16.0232873117
 10
-11.1396780904
 20
15.4298047502
 10
-10.2774509918
 20
14.8431594854
 10
-9.4013846348
 20
14.2634467978
 10
-8.5116337036
 20
13.6907679754
 10
-7.608374801
 20
13.1252338111
 10
-6.691784812
 20
12.566954409
 10
-5.7620428469
 20
12.0160384575
 10
-4.8193134329
 20
11.4725808983
 10
-3.8637508956
 20
10.9366708644
 10
-2.8955302559
 20
10.4084071494
 10
-1.914863565
 20
9.8879025411
 10
-0.9496963242
 20
9.3893959865
  0
LWPOLYLINE
  5
2AA
100
AcDbEntity
  8
RACCORDO
100
AcDbPolyline
 62
7
  6
CONTINUOUS
 90
28
 70
0
 10
7.0751727313
 20
1.1935291094
 10
7.1979384635
 20
1.1000326878
 10
7.3187516812
 20
1.0017984959
 10
7.4372130237
 20
0.8991395743
 10
7.5530203525
 20
0.7923143141
 10
7.6659258848
 20
0.6815430698
 10
7.7756323444
 20
0.567115776
 10
7.8818801022
 20
0.4492980666
 10
7.9844292913
 20
0.3283554569
 10
8.0830244577
 20
0.204586529
 10
8.1774415191
 20
0.0782753714
 10
8.2674665972
 20
-0.0502909868
 10
8.3528816179
 20
-0.18079386
 10
8.4334894369
 20
-0.3129208961
 10
8.5091233966
 20
-0.446383301
 10
8.5796277353
 20
-0.5808892134
 10
8.6448444682
 20
-0.7161166698
 10
8.7046443304
 20
-0.8517672658
 10
8.7589246604
 20
-0.9875793974
 10
8.8075733181
 20
-1.1232410191
 10
8.8504944412
 20
-1.2584369677
 10
8.8876190014
 20
-1.3928969631
 10
8.9188794989
 20
-1.526306746
 10
8.944227978
 20
-1.6583599337
 10
8.9636385064
 20
-1.7887975626
 10
8.9770936937
 20
-1.9173434578
 10
8.9845890187
 20
-2.0436828426
 10
8.9863114586
 20
-2.1382932774
  0
LINE
  5
2AB
100
AcDbEntity
  8
RACCORDO
100
AcDbLine
 62
250
  6
CONTINUOUS
 10
-14.4703821149
 20
17.936394839
 11
-14.3873250933
 21
17.8723801652
  0
LINE
  5
2AC
100
AcDbEntity
  8
RACCORDO
100
AcDbLine
 62
250
  6
CONTINUOUS
 10
8.9475790599
 20
7.2890221037
 11
8.9465851147
 21
7.2857738251
  0
LINE
  5
2AD
100
AcDbEntity
  8
RACCORDO
100
AcDbLine
 62
250
  6
CONTINUOUS
 10
8.9476252455
 20
7.2889911858
 11
8.9465864578
 21
7.2857729097
  0
LINE
  5
2AE
100
AcDbEntity
  8
ASSI
100
AcDbLine
 62
7
  6
CONTINUOUS
 10
4.1636180823
 20
-8.2290851043
 11
4.1626076045
 21
-8.2305283889
  0
LINE
  5
2AF
100
AcDbEntity
  8
ASSI
100
AcDbLine
 62
7
  6
CONTINUOUS
 10
4.1636209427
 20
-8.2290882117
 11
4.1625743162
 21
-8.2304936128
  0
LINE
  5
2B0
100
AcDbEntity
  8
RACCORDO
100
AcDbLine
 62
7
  6
CONTINUOUS
 10
8.2265436377
 20
-3.6539148411
 11
8.226299604
 21
-3.6540592128
  0
LINE
  5
2B1
100
AcDbEntity
  8
DRAFT
100
AcDbLine
 62
7
  6
CONTINUOUS
 10
8.3407022899
 20
-3.9634532315
 11
8.8008602527
 21
-3.7016839069
  0
LINE
  5
2B2
100
AcDbEntity
  8
RACCORDO
100
AcDbLine
 62
7
  6
CONTINUOUS
 10
8.3390252485
 20
-3.9644059765
 11
8.3406999052
 21
-3.9634545881
  0
LINE
  5
2B3
100
AcDbEntity
  8
0
100
AcDbLine
 62
7
  6
CONTINUOUS
 10
8.6253186079
 20
-3.2017944838
 11
7.7159097953
 21
-3.65672878
  0
LINE
  5
2B4
100
AcDbEntity
  8
ASSI
100
AcDbLine
 62
7
  6
CONTINUOUS
 10
8.6253186079
 20
-3.2017944838
 11
7.7159097953
 21
-3.65672878
  0
LWPOLYLINE
  5
2B5
100
AcDbEntity
  8
RACCORDO
100
AcDbPolyline
 62
7
  6
CONTINUOUS
 90
18
 70
0
 10
-0.9496918688
 20
9.3893937162
 10
-0.8374251427
 20
9.3345873676
 10
-0.6946462481
 20
9.2718519991
 10
-0.5525437024
 20
9.2171690579
 10
-0.4114576412
 20
9.1705183185
 10
-0.2715909209
 20
9.1318400476
 10
-0.133065683
 20
9.1011304654
 10
0.0038238064
 20
9.078441091
 10
0.1387904382
 20
9.0637400531
 10
0.2716336213
 20
9.0569964101
 10
0.4020843252
 20
9.0581821818
 10
0.5298561795
 20
9.0672332746
 10
0.6547323589
 20
9.0840856154
 10
0.7764663518
 20
9.1086815481
 10
0.8947275704
 20
9.1409496355
 10
1.0091994885
 20
9.1807377476
 10
1.1196290137
 20
9.2278801025
 10
1.2323708687
 20
9.2859275052
  0
LINE
  5
2B6
100
AcDbEntity
  8
RACCORDO
100
AcDbLine
 62
250
  6
CONTINUOUS
 10
-4.0738097824
 20
11.1388655048
 11
-4.0683100189
 21
11.1358528109
  0
LINE
  5
2B7
100
AcDbEntity
  8
RACCORDO
100
AcDbLine
 62
250
  6
CONTINUOUS
 10
-4.0738097824
 20
11.1388655048
 11
-4.0683473666
 21
11.1358303962
  0
LINE
  5
2B8
100
AcDbEntity
  8
RACCORDO
100
AcDbLine
 62
250
  6
CONTINUOUS
 10
7.6683963969
 20
0.8002515144
 11
7.661496612
 21
0.8070379909
  0
LINE
  5
2B9
100
AcDbEntity
  8
RACCORDO
100
AcDbLine
 62
250
  6
CONTINUOUS
 10
7.6683079618
 20
0.800135054
 11
7.661496612
 21
0.8070379909
  0
LINE
  5
2BA
100
AcDbEntity
  8
0
100
AcDbLine
 62
250
  6
CONTINUOUS
 10
10.0729562944
 20
14.8628707077
 11
10.0729562944
 21
-30.4512296543
  0
LINE
  5
2BB
100
AcDbEntity
  8
0
100
AcDbLine
 62
250
  6
CONTINUOUS
 10
10.1645614007
 20
14.8516939839
 11
10.1645614007
 21
-30.4624063781
  0
LWPOLYLINE
  5
2BC
100
AcDbEntity
  8
RACCORDO
100
AcDbPolyline
 62
7
  6
CONTINUOUS
 90
11
 70
0
 10
8.9863114586
 20
8.0675760027
 10
8.9847562393
 20
7.97896921
 10
8.9776289437
 20
7.8603669659
 10
8.9646723947
 20
7.7441117657
 10
8.9458403542
 20
7.630473964
 10
8.9211162848
 20
7.5198043343
 10
8.8905328908
 20
7.4125246042
 10
8.8541275072
 20
7.3089275764
 10
8.8119492898
 20
7.2092835462
 10
8.7641068489
 20
7.1139353339
 10
8.710701707
 20
7.0231322953
  0
LWPOLYLINE
  5
2BD
100
AcDbEntity
  8
RACCORDO
100
AcDbPolyline
 62
7
  6
CONTINUOUS
 90
11
 70
0
 10
8.9863114586
 20
-2.1383024573
 10
8.9847562393
 20
-2.2269092499
 10
8.9776289437
 20
-2.345511494
 10
8.9646723947
 20
-2.4617666942
 10
8.9458403542
 20
-2.5754044959
 10
8.9211162848
 20
-2.6860741256
 10
8.8905328908
 20
-2.7933538557
 10
8.8541275072
 20
-2.8969508835
 10
8.8119492898
 20
-2.9965949137
 10
8.7641068489
 20
-3.091943126
 10
8.710701707
 20
-3.1827461646
  0
LWPOLYLINE
  5
2BE
100
AcDbEntity
  8
RACCORDO
100
AcDbPolyline
 62
7
  6
CONTINUOUS
 90
11
 70
0
 10
8.9863114586
 20
-12.3441809172
 10
8.9847562393
 20
-12.4327877098
 10
8.9776289437
 20
-12.5513899539
 10
8.9646723947
 20
-12.6676451541
 10
8.9458403542
 20
-12.7812829558
 10
8.9211162848
 20
-12.8919525855
 10
8.8905328908
 20
-12.9992323157
 10
8.8541275072
 20
-13.1028293434
 10
8.8119492898
 20
-13.2024733736
 10
8.7641068489
 20
-13.2978215859
 10
8.710701707
 20
-13.3886246245
  0
LWPOLYLINE
  5
2BF
100
AcDbEntity
  8
RACCORDO
100
AcDbPolyline
 62
7
  6
CONTINUOUS
 90
11
 70
0
 10
8.9863114586
 20
-22.5500593771
 10
8.9847562393
 20
-22.6386661698
 10
8.9776289437
 20
-22.7572684138
 10
8.9646723947
 20
-22.873523614
 10
8.9458403542
 20
-22.9871614157
 10
8.9211162848
 20
-23.0978310454
 10
8.8905328908
 20
-23.2051107756
 10
8.8541275072
 20
-23.3087078033
 10
8.8119492898
 20
-23.4083518335
 10
8.7641068489
 20
-23.5037000458
 10
8.710701707
 20
-23.5945030844
  0
LINE
  5
2C0
100
AcDbEntity
  8
RACCORDO
100
AcDbLine
 62
250
  6
CONTINUOUS
 10
8.9475790599
 20
-2.9168563562
 11
8.9465851147
 21
-2.9201046348
  0
LINE
  5
2C1
100
AcDbEntity
  8
RACCORDO
100
AcDbLine
 62
250
  6
CONTINUOUS
 10
8.9476252455
 20
-2.9168872741
 11
8.9465864578
 21
-2.9201055502
  0
LWPOLYLINE
  5
2C2
100
AcDbEntity
  8
RACCORDO
100
AcDbPolyline
 62
7
  6
CONTINUOUS
 90
8
 70
0
 10
8.710701707
 20
-3.1827461646
 10
8.6518323569
 20
-3.2687926512
 10
8.587638631
 20
-3.3498444188
 10
8.518254529
 20
-3.4257073638
 10
8.4438101838
 20
-3.4962109944
 10
8.3644557296
 20
-3.5611844558
 10
8.2803424189
 20
-3.6204731235
 10
8.2263186
 20
-3.6540476379
  0
LINE
  5
2C3
100
AcDbEntity
  8
0
100
AcDbLine
 62
7
  6
CONTINUOUS
 10
5.1819445661
 20
-8.287826274
 11
4.5249409284
 21
-8.7984442387
  0
LINE
  5
2C4
100
AcDbEntity
  8
ASSI
100
AcDbLine
 62
7
  6
CONTINUOUS
 10
5.1819445661
 20
-8.287826274
 11
4.5249409284
 21
-8.7984442387
  0
LWPOLYLINE
  5
2C5
100
AcDbEntity
  8
RACCORDO
100
AcDbPolyline
 62
7
  6
CONTINUOUS
 90
20
 70
0
 10
4.1746568143
 20
-8.2378335322
 10
4.1642861895
 20
-8.2439543484
 10
4.0749307068
 20
-8.3012700549
 10
3.9898949753
 20
-8.3642415268
 10
3.9093386996
 20
-8.4327463836
 10
3.8334245268
 20
-8.5066393843
 10
3.7622888567
 20
-8.585752752
 10
3.6960485793
 20
-8.6699338087
 10
3.6348300224
 20
-8.7590051446
 10
3.5787337161
 20
-8.8527814678
 10
3.5278366394
 20
-8.9511135202
 10
3.482225669
 20
-9.0537991025
 10
3.4419629437
 20
-9.1606340033
 10
3.4070891835
 20
-9.2714789587
 10
3.3776666041
 20
-9.3861295396
 10
3.3537480713
 20
-9.5043840031
 10
3.3353557194
 20
-9.6261051271
 10
3.3225295551
 20
-9.751107201
 10
3.3153209329
 20
-9.8791575945
 10
3.3136358453
 20
-9.9794431629
  0
LINE
  5
2C6
100
AcDbEntity
  8
DRAFT
100
AcDbLine
 62
7
  6
CONTINUOUS
 10
4.6395442248
 20
-7.9654214855
 11
4.173774322
 21
-8.2383486058
  0
LINE
  5
2C7
100
AcDbEntity
  8
ASSI
100
AcDbLine
 62
250
  6
CONTINUOUS
 10
-0.979475013
 20
-11.1947172664
 11
-0.8024814489
 21
-11.0925234007
  0
LINE
  5
2C8
100
AcDbEntity
  8
DRAFT
100
AcDbLine
 62
7
  6
CONTINUOUS
 10
1.2325663024
 20
-11.1257196842
 11
1.6198882215
 21
-10.9075709411
  0
LINE
  5
2C9
100
AcDbEntity
  8
RACCORDO
100
AcDbLine
 62
7
  6
CONTINUOUS
 10
1.232363994
 20
-11.1258336087
 11
1.2325663909
 21
-11.1257196343
  0
LINE
  5
2CA
100
AcDbEntity
  8
RACCORDO
100
AcDbLine
 62
7
  6
CONTINUOUS
 10
4.3894133119
 20
-8.4767410912
 11
4.3900381442
 21
-8.4763893771
  0
LWPOLYLINE
  5
2CB
100
AcDbEntity
  8
RACCORDO
100
AcDbPolyline
 62
7
  6
CONTINUOUS
 90
11
 70
0
 10
4.390013181
 20
-8.4764038253
 10
4.4829491312
 20
-8.4287972642
 10
4.5763286945
 20
-8.3895086309
 10
4.6735172572
 20
-8.3565709257
 10
4.7743247243
 20
-8.3299984039
 10
4.8785968902
 20
-8.3098024912
 10
4.9860645457
 20
-8.2959997622
 10
5.096489847
 20
-8.2885937627
 10
5.2097496774
 20
-8.2875765498
 10
5.3255768031
 20
-8.292937924
 10
5.4436846411
 20
-8.3046610204
  0
LINE
  5
2CC
100
AcDbEntity
  8
0
100
AcDbLine
 62
250
  6
CONTINUOUS
 10
12.3691261077
 20
-30.8629855889
 11
12.3691261077
 21
14.4511147731
  0
LINE
  5
2CD
100
AcDbEntity
  8
0
100
AcDbLine
 62
250
  6
CONTINUOUS
 10
12.6677822716
 20
14.2786744471
 11
12.6677822716
 21
-31.0354259149
  0
LINE
  5
2CE
100
AcDbEntity
  8
0
100
AcDbLine
 62
250
  6
CONTINUOUS
 10
13.3748890528
 20
14.2786744471
 11
13.3748890528
 21
-31.0354259149
  0
LINE
  5
2CF
100
AcDbEntity
  8
RACCORDO
100
AcDbLine
 62
250
  6
CONTINUOUS
 10
8.9475790599
 20
-13.1227348161
 11
8.9465851147
 21
-13.1259830947
  0
LINE
  5
2D0
100
AcDbEntity
  8
RACCORDO
100
AcDbLine
 62
250
  6
CONTINUOUS
 10
8.9476252455
 20
-13.122765734
 11
8.9465864578
 21
-13.1259840101
  0
LINE
  5
2D1
100
AcDbEntity
  8
RACCORDO
100
AcDbLine
 62
7
  6
CONTINUOUS
 10
5.4436846411
 20
12.1070958995
 11
5.5639207764
 21
12.0890282238
  0
LWPOLYLINE
  5
2D2
100
AcDbEntity
  8
RACCORDO
100
AcDbPolyline
 62
7
  6
CONTINUOUS
 90
13
 70
0
 10
5.5639207764
 20
12.0890282238
 10
5.685998654
 20
12.0646572776
 10
5.8096242134
 20
12.0340316544
 10
5.9346402814
 20
11.997177814
 10
6.0607724838
 20
11.9541583066
 10
6.1877015157
 20
11.9050554048
 10
6.3152081008
 20
11.8499284958
 10
6.4430322168
 20
11.7888604956
 10
6.5708273469
 20
11.7219786508
 10
6.6982473042
 20
11.6494352038
 10
6.8249989262
 20
11.571373595
 10
6.950765422
 20
11.4879561607
 10
7.0751727313
 20
11.3994075694
  0
LWPOLYLINE
  5
2D3
100
AcDbEntity
  8
RACCORDO
100
AcDbPolyline
 62
7
  6
CONTINUOUS
 90
28
 70
0
 10
7.0751727313
 20
11.3994075694
 10
7.1979384635
 20
11.3059111477
 10
7.3187516812
 20
11.2076769558
 10
7.4372130237
 20
11.1050180342
 10
7.5530203525
 20
10.998192774
 10
7.6659258848
 20
10.8874215297
 10
7.7756323444
 20
10.7729942359
 10
7.8818801022
 20
10.6551765265
 10
7.9844292913
 20
10.5342339168
 10
8.0830244577
 20
10.4104649889
 10
8.1774415191
 20
10.2841538313
 10
8.2674665972
 20
10.1555874731
 10
8.3528816179
 20
10.0250845999
 10
8.4334894369
 20
9.8929575638
 10
8.5091233966
 20
9.7594951589
 10
8.5796277353
 20
9.6249892465
 10
8.6448444682
 20
9.4897617901
 10
8.7046443304
 20
9.3541111941
 10
8.7589246604
 20
9.2182990626
 10
8.8075733181
 20
9.0826374408
 10
8.8504944412
 20
8.9474414922
 10
8.8876190014
 20
8.8129814968
 10
8.9188794989
 20
8.6795717139
 10
8.944227978
 20
8.5475185263
 10
8.9636385064
 20
8.4170808973
 10
8.9770936937
 20
8.2885350021
 10
8.9845890187
 20
8.1621956173
 10
8.9863114586
 20
8.0675851825
  0
LINE
  5
2D4
100
AcDbEntity
  8
RACCORDO
100
AcDbLine
 62
250
  6
CONTINUOUS
 10
7.6683963969
 20
11.0061299743
 11
7.661496612
 21
11.0129164508
  0
LINE
  5
2D5
100
AcDbEntity
  8
RACCORDO
100
AcDbLine
 62
250
  6
CONTINUOUS
 10
7.6683079618
 20
11.0060135139
 11
7.661496612
 21
11.0129164508
  0
LINE
  5
2D6
100
AcDbEntity
  8
0
100
AcDbLine
 62
7
  6
CONTINUOUS
 10
14.117351173
 20
-30.6067375919
 11
14.117351173
 21
14.7073627701
  0
LINE
  5
2D7
100
AcDbEntity
  8
ASSI
100
AcDbLine
 62
7
  6
CONTINUOUS
 10
14.1380618511
 20
14.1766057988
 11
14.1380618511
 21
-31.1374945632
  0
LINE
  5
2D8
100
AcDbEntity
  8
0
100
AcDbLine
 62
250
  6
CONTINUOUS
 10
14.1527065121
 20
14.1561920691
 11
14.1527065121
 21
-31.1579082929
  0
LINE
  5
2D9
100
AcDbEntity
  8
0
100
AcDbLine
 62
7
  6
CONTINUOUS
 10
14.1674213507
 20
-31.1664044563
 11
14.1674213507
 21
14.1476959057
  0
LINE
  5
2DA
100
AcDbEntity
  8
0
100
AcDbLine
 62
250
  6
CONTINUOUS
 10
15.8497627869
 20
-31.0354259149
 11
15.8497627869
 21
14.2786744471
  0
LINE
  5
2DB
100
AcDbEntity
  8
RACCORDO
100
AcDbLine
 62
250
  6
CONTINUOUS
 10
8.9475790599
 20
-23.328613276
 11
8.9465851147
 21
-23.3318615546
  0
LINE
  5
2DC
100
AcDbEntity
  8
RACCORDO
100
AcDbLine
 62
250
  6
CONTINUOUS
 10
8.9476252455
 20
-23.3286441939
 11
8.9465864578
 21
-23.33186247
  0
LWPOLYLINE
  5
2DD
100
AcDbEntity
  8
RACCORDO
100
AcDbPolyline
 62
7
  6
CONTINUOUS
 90
8
 70
0
 10
8.710701707
 20
-13.3886246245
 10
8.6518323569
 20
-13.4746711111
 10
8.587638631
 20
-13.5557228787
 10
8.518254529
 20
-13.6315858237
 10
8.4438101838
 20
-13.7020894543
 10
8.3644557296
 20
-13.7670629157
 10
8.2803424189
 20
-13.8263515834
 10
8.2263186
 20
-13.8599260978
  0
LINE
  5
2DE
100
AcDbEntity
  8
ASSI
100
AcDbLine
 62
7
  6
CONTINUOUS
 10
4.1636180823
 20
-18.4349635642
 11
4.1626076045
 21
-18.4364068488
  0
LINE
  5
2DF
100
AcDbEntity
  8
ASSI
100
AcDbLine
 62
7
  6
CONTINUOUS
 10
4.1636209427
 20
-18.4349666716
 11
4.1625743162
 21
-18.4363720728
  0
LINE
  5
2E0
100
AcDbEntity
  8
RACCORDO
100
AcDbLine
 62
7
  6
CONTINUOUS
 10
8.2265436377
 20
-13.859793301
 11
8.226299604
 21
-13.8599376727
  0
LINE
  5
2E1
100
AcDbEntity
  8
DRAFT
100
AcDbLine
 62
7
  6
CONTINUOUS
 10
8.3407022899
 20
-14.1693316915
 11
8.8008602527
 21
-13.9075623668
  0
LINE
  5
2E2
100
AcDbEntity
  8
RACCORDO
100
AcDbLine
 62
7
  6
CONTINUOUS
 10
8.3390252485
 20
-14.1702844364
 11
8.3406999052
 21
-14.169333048
  0
LINE
  5
2E3
100
AcDbEntity
  8
0
100
AcDbLine
 62
7
  6
CONTINUOUS
 10
8.6253186079
 20
-13.4076729437
 11
7.7159097953
 21
-13.8626072399
  0
LINE
  5
2E4
100
AcDbEntity
  8
ASSI
100
AcDbLine
 62
7
  6
CONTINUOUS
 10
8.6253186079
 20
-13.4076729437
 11
7.7159097953
 21
-13.8626072399
  0
LINE
  5
2E5
100
AcDbEntity
  8
ASSI
100
AcDbLine
 62
7
  6
CONTINUOUS
 10
16.8561336368
 20
15.3904973344
 11
16.8561336368
 21
16.5854258994
  0
LINE
  5
2E6
100
AcDbEntity
  8
0
100
AcDbLine
 62
250
  6
CONTINUOUS
 10
16.8927452892
 20
15.4116364436
 11
16.8927452892
 21
16.5343915752
  0
LINE
  5
2E7
100
AcDbEntity
  8
0
100
AcDbLine
 62
250
  6
CONTINUOUS
 10
18.6958675812
 20
15.9219796852
 11
18.6958675812
 21
-29.3921206768
  0
LINE
  5
2E8
100
AcDbEntity
  8
ASSI
100
AcDbLine
 62
7
  6
CONTINUOUS
 10
18.7324792335
 20
15.9730140094
 11
18.7324792335
 21
-29.3410863526
  0
LINE
  5
2E9
100
AcDbEntity
  8
0
100
AcDbLine
 62
7
  6
CONTINUOUS
 10
5.1819445661
 20
-18.4937047339
 11
4.5249409284
 21
-19.0043226986
  0
LINE
  5
2EA
100
AcDbEntity
  8
ASSI
100
AcDbLine
 62
7
  6
CONTINUOUS
 10
5.1819445661
 20
-18.4937047339
 11
4.5249409284
 21
-19.0043226986
  0
LWPOLYLINE
  5
2EB
100
AcDbEntity
  8
RACCORDO
100
AcDbPolyline
 62
7
  6
CONTINUOUS
 90
20
 70
0
 10
4.1746568143
 20
-18.4437119921
 10
4.1642861895
 20
-18.4498328083
 10
4.0749307068
 20
-18.5071485148
 10
3.9898949753
 20
-18.5701199867
 10
3.9093386996
 20
-18.6386248435
 10
3.8334245268
 20
-18.7125178442
 10
3.7622888567
 20
-18.791631212
 10
3.6960485793
 20
-18.8758122686
 10
3.6348300224
 20
-18.9648836045
 10
3.5787337161
 20
-19.0586599277
 10
3.5278366394
 20
-19.1569919801
 10
3.482225669
 20
-19.2596775624
 10
3.4419629437
 20
-19.3665124632
 10
3.4070891835
 20
-19.4773574187
 10
3.3776666041
 20
-19.5920079995
 10
3.3537480713
 20
-19.710262463
 10
3.3353557194
 20
-19.831983587
 10
3.3225295551
 20
-19.956985661
 10
3.3153209329
 20
-20.0850360544
 10
3.3136358453
 20
-20.1853216228
  0
LINE
  5
2EC
100
AcDbEntity
  8
DRAFT
100
AcDbLine
 62
7
  6
CONTINUOUS
 10
4.6395442248
 20
-18.1712999454
 11
4.173774322
 21
-18.4442270658
  0
LINE
  5
2ED
100
AcDbEntity
  8
ASSI
100
AcDbLine
 62
250
  6
CONTINUOUS
 10
-0.979475013
 20
-21.4005957263
 11
-0.8024814489
 21
-21.2984018606
  0
LINE
  5
2EE
100
AcDbEntity
  8
RACCORDO
100
AcDbLine
 62
7
  6
CONTINUOUS
 10
4.3894133119
 20
-18.6826195511
 11
4.3900381442
 21
-18.682267837
  0
LWPOLYLINE
  5
2EF
100
AcDbEntity
  8
RACCORDO
100
AcDbPolyline
 62
7
  6
CONTINUOUS
 90
11
 70
0
 10
4.390013181
 20
-18.6822822852
 10
4.4829491312
 20
-18.6346757241
 10
4.5763286945
 20
-18.5953870908
 10
4.6735172572
 20
-18.5624493856
 10
4.7743247243
 20
-18.5358768639
 10
4.8785968902
 20
-18.5156809511
 10
4.9860645457
 20
-18.5018782221
 10
5.096489847
 20
-18.4944722226
 10
5.2097496774
 20
-18.4934550097
 10
5.3255768031
 20
-18.4988163839
 10
5.4436846411
 20
-18.5105394803
  0
LINE
  5
2F0
100
AcDbEntity
  8
DRAFT
100
AcDbLine
 62
7
  6
CONTINUOUS
 10
6.940217344
 20
17.4966263086
 11
-12.6112851558
 21
28.7854188142
  0
LINE
  5
2F1
100
AcDbEntity
  8
0
100
AcDbLine
 62
7
  6
CONTINUOUS
 10
-18.3742054225
 20
32.2019290942
 11
-18.0755492586
 21
32.0294887682
  0
LINE
  5
2F2
100
AcDbEntity
  8
0
100
AcDbLine
 62
7
  6
CONTINUOUS
 10
12.3691261077
 20
14.4511147731
 11
12.6677822716
 21
14.2786744471
  0
LINE
  5
2F3
100
AcDbEntity
  8
DRAFT
100
AcDbLine
 62
7
  6
CONTINUOUS
 10
11.6470004662
 20
15.2982391789
 11
7.3821590822
 21
17.760705143
  0
LWPOLYLINE
  5
2F4
100
AcDbEntity
  8
RACCORDO
100
AcDbPolyline
 62
7
  6
CONTINUOUS
 90
8
 70
0
 10
8.710701707
 20
-23.5945030844
 10
8.6518323569
 20
-23.680549571
 10
8.587638631
 20
-23.7616013386
 10
8.518254529
 20
-23.8374642836
 10
8.4438101838
 20
-23.9079679142
 10
8.3644557296
 20
-23.9729413756
 10
8.2803424189
 20
-24.0322300433
 10
8.2263186
 20
-24.0658045578
  0
LINE
  5
2F5
100
AcDbEntity
  8
DRAFT
100
AcDbLine
 62
7
  6
CONTINUOUS
 10
1.2325663024
 20
-21.3315981441
 11
1.6198882215
 21
-21.113449401
  0
LINE
  5
2F6
100
AcDbEntity
  8
RACCORDO
100
AcDbLine
 62
7
  6
CONTINUOUS
 10
1.232363994
 20
-21.3317120686
 11
1.2325663909
 21
-21.3315980942
  0
LINE
  5
2F7
100
AcDbEntity
  8
0
100
AcDbLine
 62
7
  6
CONTINUOUS
 10
-18.6010522955
 20
33.0678019036
 11
-18.5863374569
 21
33.0593057402
  0
LINE
  5
2F8
100
AcDbEntity
  8
0
100
AcDbLine
 62
7
  6
CONTINUOUS
 10
-17.454966607
 20
32.4060663908
 11
-17.4391531555
 21
32.3969359022
  0
LINE
  5
2F9
100
AcDbEntity
  8
0
100
AcDbLine
 62
7
  6
CONTINUOUS
 10
13.0055222107
 20
14.8185619071
 11
13.0213356622
 21
14.8094314184
  0
LINE
  5
2FA
100
AcDbEntity
  8
0
100
AcDbLine
 62
7
  6
CONTINUOUS
 10
14.1527065121
 20
14.1561920691
 11
14.1674213507
 21
14.1476959057
  0
LINE
  5
2FB
100
AcDbEntity
  8
0
100
AcDbLine
 62
7
  6
CONTINUOUS
 10
-18.09136271
 20
33.3042704962
 11
-17.6317433023
 21
33.0388920105
  0
LINE
  5
2FC
100
AcDbEntity
  8
0
100
AcDbLine
 62
7
  6
CONTINUOUS
 10
14.117351173
 20
14.7073627701
 11
14.5769705808
 21
14.4419842844
  0
LINE
  5
2FD
100
AcDbEntity
  8
RACCORDO
100
AcDbLine
 62
7
  6
CONTINUOUS
 10
-11.815790027
 20
29.9669413352
 11
-14.0603267735
 21
31.2629087219
  0
LINE
  5
2FE
100
AcDbEntity
  8
0
100
AcDbLine
 62
7
  6
CONTINUOUS
 10
-17.9499413538
 20
33.7533725488
 11
-16.7125044867
 21
33.0388920105
  0
LINE
  5
2FF
100
AcDbEntity
  8
0
100
AcDbLine
 62
7
  6
CONTINUOUS
 10
14.117351173
 20
15.2381197414
 11
15.3547880401
 21
14.5236392031
  0
LINE
  5
300
100
AcDbEntity
  8
0
100
AcDbLine
 62
7
  6
CONTINUOUS
 10
17.8650171133
 20
15.9730140094
 11
16.8927452892
 21
16.5343915752
  0
LINE
  5
301
100
AcDbEntity
  8
0
100
AcDbLine
 62
7
  6
CONTINUOUS
 10
-14.4674404565
 20
34.6413697893
 11
-15.4397122806
 21
35.2027473551
  0
LINE
  5
302
100
AcDbEntity
  8
0
100
AcDbLine
 62
7
  6
CONTINUOUS
 10
18.6958675812
 20
16.0240483336
 11
17.3523646969
 21
16.7997700609
  0
LINE
  5
303
100
AcDbEntity
  8
0
100
AcDbLine
 62
7
  6
CONTINUOUS
 10
-14.0078210487
 20
34.906748275
 11
-15.3513239329
 21
35.6824700023
  0
LINE
  5
304
100
AcDbEntity
  8
RACCORDO
100
AcDbLine
 62
7
  6
CONTINUOUS
 10
8.2265436377
 20
-24.0656717609
 11
8.226299604
 21
-24.0658161326
  0
LINE
  5
305
100
AcDbEntity
  8
DRAFT
100
AcDbLine
 62
7
  6
CONTINUOUS
 10
8.3407022899
 20
-24.3752101514
 11
8.8008602527
 21
-24.1134408267
  0
LINE
  5
306
100
AcDbEntity
  8
RACCORDO
100
AcDbLine
 62
7
  6
CONTINUOUS
 10
8.3390252485
 20
-24.3761628963
 11
8.3406999052
 21
-24.3752115079
  0
LINE
  5
307
100
AcDbEntity
  8
0
100
AcDbLine
 62
7
  6
CONTINUOUS
 10
8.6253186079
 20
-23.6135514036
 11
7.7159097953
 21
-24.0684856998
  0
LINE
  5
308
100
AcDbEntity
  8
ASSI
100
AcDbLine
 62
7
  6
CONTINUOUS
 10
8.6253186079
 20
-23.6135514036
 11
7.7159097953
 21
-24.0684856998
  0
LINE
  5
309
100
AcDbEntity
  8
0
100
AcDbLine
 62
7
  6
CONTINUOUS
 10
13.3748890528
 20
-31.0354259149
 11
14.117351173
 21
-30.6067375919
  0
LINE
  5
30A
100
AcDbEntity
  8
0
100
AcDbLine
 62
7
  6
CONTINUOUS
 10
15.8497627869
 20
-31.0354259149
 11
18.6958675812
 21
-29.3921206768
  0
ARC
  5
30B
100
AcDbEntity
  8
ASSI
100
AcDbCircle
 62
7
  6
CONTINUOUS
 10
-14.7332927596
 20
3.5200557377
 40
1.2589954844
100
AcDbArc
 50
141.9709564693
 51
147.0094098176
  0
ARC
  5
30C
100
AcDbEntity
  8
ASSI
100
AcDbCircle
 62
7
  6
CONTINUOUS
 10
-14.7332927596
 20
-6.6858227222
 40
1.2589954844
100
AcDbArc
 50
141.9709564693
 51
147.0094098176
  0
ARC
  5
30D
100
AcDbEntity
  8
RACCORDO
100
AcDbCircle
 62
250
  6
CONTINUOUS
 10
-14.6468489529
 20
-6.6447039121
 40
1.2343586319
100
AcDbArc
 50
143.0943028584
 51
143.5759386323
  0
ARC
  5
30E
100
AcDbEntity
  8
RACCORDO
100
AcDbCircle
 62
250
  6
CONTINUOUS
 10
-14.6468489529
 20
3.5611745478
 40
1.234358632
100
AcDbArc
 50
143.0943028584
 51
143.5759386322
  0
ARC
  5
30F
100
AcDbEntity
  8
ASSI
100
AcDbCircle
 62
7
  6
CONTINUOUS
 10
-14.7332927596
 20
23.9318126575
 40
1.2589954844
100
AcDbArc
 50
141.9709564693
 51
147.0094098176
  0
ARC
  5
310
100
AcDbEntity
  8
ASSI
100
AcDbCircle
 62
7
  6
CONTINUOUS
 10
-14.7332927596
 20
13.7259341976
 40
1.2589954844
100
AcDbArc
 50
141.9709564693
 51
147.0094098176
  0
ARC
  5
311
100
AcDbEntity
  8
RACCORDO
100
AcDbCircle
 62
250
  6
CONTINUOUS
 10
-14.6468489524
 20
13.7670530074
 40
1.2343586325
100
AcDbArc
 50
143.0943028585
 51
143.5759386322
  0
ARC
  5
312
100
AcDbEntity
  8
RACCORDO
100
AcDbCircle
 62
250
  6
CONTINUOUS
 10
-14.6468489525
 20
23.9729314673
 40
1.2343586324
100
AcDbArc
 50
143.0943028585
 51
143.5759386321
  0
ARC
  5
313
100
AcDbEntity
  8
0
100
AcDbCircle
 62
7
  6
CONTINUOUS
 10
-17.5852923773
 20
31.0091277694
 40
1.1419741478
100
AcDbArc
 50
352.2535881262
 51
359.9836696087
  0
ARC
  5
314
100
AcDbEntity
  8
RACCORDO
100
AcDbCircle
 62
250
  6
CONTINUOUS
 10
3.8793921826
 20
-23.4568014707
 40
5.3984121576
100
AcDbArc
 50
45.5251820821
 51
46.6586737464
  0
ARC
  5
315
100
AcDbEntity
  8
RACCORDO
100
AcDbCircle
 62
250
  6
CONTINUOUS
 10
3.8793921827
 20
-13.2509230108
 40
5.3984121575
100
AcDbArc
 50
45.5251820821
 51
46.6586737464
  0
ARC
  5
316
100
AcDbEntity
  8
RACCORDO
100
AcDbCircle
 62
250
  6
CONTINUOUS
 10
3.9319496711
 20
-23.4004652562
 40
5.3213676224
100
AcDbArc
 50
46.653913903
 51
50.7719881531
  0
ARC
  5
317
100
AcDbEntity
  8
RACCORDO
100
AcDbCircle
 62
250
  6
CONTINUOUS
 10
3.9319496711
 20
-13.1945867963
 40
5.3213676224
100
AcDbArc
 50
46.653913903
 51
50.7719881531
  0
ARC
  5
318
100
AcDbEntity
  8
RACCORDO
100
AcDbCircle
 62
250
  6
CONTINUOUS
 10
3.9041030668
 20
-23.4384085191
 40
5.3212673629
100
AcDbArc
 50
45.3250527724
 51
45.4677462598
  0
ARC
  5
319
100
AcDbEntity
  8
RACCORDO
100
AcDbCircle
 62
250
  6
CONTINUOUS
 10
3.9041030676
 20
-13.2325300583
 40
5.3212673618
100
AcDbArc
 50
45.3250527724
 51
45.4677462598
  0
ARC
  5
31A
100
AcDbEntity
  8
RACCORDO
100
AcDbCircle
 62
250
  6
CONTINUOUS
 10
3.982770994
 20
-23.3549427863
 40
5.2065982568
100
AcDbArc
 50
45.4407135627
 51
50.8937282864
  0
ARC
  5
31B
100
AcDbEntity
  8
RACCORDO
100
AcDbCircle
 62
250
  6
CONTINUOUS
 10
3.982770994
 20
-13.1490643264
 40
5.2065982568
100
AcDbArc
 50
45.4407135627
 51
50.8937282864
  0
ARC
  5
31C
100
AcDbEntity
  8
RACCORDO
100
AcDbCircle
 62
250
  6
CONTINUOUS
 10
4.0190222909
 20
-13.0907579306
 40
5.185872986
100
AcDbArc
 50
50.7917352216
 51
51.0204687501
  0
ARC
  5
31D
100
AcDbEntity
  8
RACCORDO
100
AcDbCircle
 62
250
  6
CONTINUOUS
 10
4.0190222916
 20
-23.2966363896
 40
5.1858729849
100
AcDbArc
 50
50.7917352216
 51
51.0204687502
  0
ARC
  5
31E
100
AcDbEntity
  8
RACCORDO
100
AcDbCircle
 62
250
  6
CONTINUOUS
 10
4.0287997466
 20
-13.078671264
 40
5.1703267278
100
AcDbArc
 50
51.0204430219
 51
51.3350963548
  0
ARC
  5
31F
100
AcDbEntity
  8
RACCORDO
100
AcDbCircle
 62
250
  6
CONTINUOUS
 10
4.0287997468
 20
-23.2845497236
 40
5.1703267274
100
AcDbArc
 50
51.0204430219
 51
51.3350963548
  0
ARC
  5
320
100
AcDbEntity
  8
RACCORDO
100
AcDbCircle
 62
250
  6
CONTINUOUS
 10
4.0658536186
 20
-23.2543501319
 40
5.0761354775
100
AcDbArc
 50
50.9052451309
 51
51.3436751684
  0
ARC
  5
321
100
AcDbEntity
  8
RACCORDO
100
AcDbCircle
 62
250
  6
CONTINUOUS
 10
4.0658536186
 20
-13.048471672
 40
5.0761354775
100
AcDbArc
 50
50.9052451309
 51
51.3436751684
  0
ARC
  5
322
100
AcDbEntity
  8
RACCORDO
100
AcDbCircle
 62
250
  6
CONTINUOUS
 10
4.084272566
 20
-23.2313137036
 40
5.0466408235
100
AcDbArc
 50
51.3436051428
 51
51.8922935007
  0
ARC
  5
323
100
AcDbEntity
  8
RACCORDO
100
AcDbCircle
 62
250
  6
CONTINUOUS
 10
4.0842725661
 20
-13.0254352436
 40
5.0466408234
100
AcDbArc
 50
51.3436051428
 51
51.8922935007
  0
ARC
  5
324
100
AcDbEntity
  8
ASSI
100
AcDbCircle
 62
7
  6
CONTINUOUS
 10
0.9406811664
 20
-19.5442704973
 40
1.8278969116
100
AcDbArc
 50
277.755923093
 51
279.2686569025
  0
ARC
  5
325
100
AcDbEntity
  8
ASSI
100
AcDbCircle
 62
7
  6
CONTINUOUS
 10
0.9454779272
 20
-19.5738766409
 40
1.7979047217
100
AcDbArc
 50
279.269751515
 51
280.4276786419
  0
ARC
  5
326
100
AcDbEntity
  8
RACCORDO
100
AcDbCircle
 62
250
  6
CONTINUOUS
 10
1.0582366225
 20
-19.5067166926
 40
1.7715834083
100
AcDbArc
 50
280.497290813
 51
285.6860584714
  0
ARC
  5
327
100
AcDbEntity
  8
ASSI
100
AcDbCircle
 62
7
  6
CONTINUOUS
 10
0.9574393001
 20
-19.6361341132
 40
1.7345106152
100
AcDbArc
 50
280.4113084061
 51
286.6400503381
  0
ARC
  5
328
100
AcDbEntity
  8
RACCORDO
100
AcDbCircle
 62
250
  6
CONTINUOUS
 10
3.8793921827
 20
-3.0450445508
 40
5.3984121575
100
AcDbArc
 50
45.5251820821
 51
46.6586737464
  0
ARC
  5
329
100
AcDbEntity
  8
RACCORDO
100
AcDbCircle
 62
250
  6
CONTINUOUS
 10
3.9319496711
 20
-2.9887083364
 40
5.3213676224
100
AcDbArc
 50
46.653913903
 51
50.7719881531
  0
ARC
  5
32A
100
AcDbEntity
  8
RACCORDO
100
AcDbCircle
 62
250
  6
CONTINUOUS
 10
3.904103068
 20
-3.0266515981
 40
5.3212673613
100
AcDbArc
 50
45.3250527724
 51
45.4677462598
  0
ARC
  5
32B
100
AcDbEntity
  8
RACCORDO
100
AcDbCircle
 62
250
  6
CONTINUOUS
 10
3.982770994
 20
-2.9431858665
 40
5.2065982568
100
AcDbArc
 50
45.4407135627
 51
50.8937282864
  0
ARC
  5
32C
100
AcDbEntity
  8
RACCORDO
100
AcDbCircle
 62
250
  6
CONTINUOUS
 10
4.0190222928
 20
-2.8848794683
 40
5.185872983
100
AcDbArc
 50
50.7917352215
 51
51.0204687502
  0
ARC
  5
32D
100
AcDbEntity
  8
RACCORDO
100
AcDbCircle
 62
250
  6
CONTINUOUS
 10
4.0287997465
 20
-2.8727928041
 40
5.1703267279
100
AcDbArc
 50
51.020443022
 51
51.3350963548
  0
ARC
  5
32E
100
AcDbEntity
  8
RACCORDO
100
AcDbCircle
 62
250
  6
CONTINUOUS
 10
4.0658536182
 20
-2.8425932125
 40
5.076135478
100
AcDbArc
 50
50.9052451309
 51
51.3436751684
  0
ARC
  5
32F
100
AcDbEntity
  8
RACCORDO
100
AcDbCircle
 62
250
  6
CONTINUOUS
 10
4.0842725661
 20
-2.8195567838
 40
5.0466408234
100
AcDbArc
 50
51.3436051428
 51
51.8922935007
  0
ARC
  5
330
100
AcDbEntity
  8
ASSI
100
AcDbCircle
 62
7
  6
CONTINUOUS
 10
0.9406811664
 20
-9.3383920374
 40
1.8278969116
100
AcDbArc
 50
277.755923093
 51
279.2686569025
  0
ARC
  5
331
100
AcDbEntity
  8
ASSI
100
AcDbCircle
 62
7
  6
CONTINUOUS
 10
0.9406811664
 20
0.8674864225
 40
1.8278969116
100
AcDbArc
 50
277.755923093
 51
279.2686569025
  0
ARC
  5
332
100
AcDbEntity
  8
ASSI
100
AcDbCircle
 62
7
  6
CONTINUOUS
 10
0.9454779272
 20
-9.367998181
 40
1.7979047217
100
AcDbArc
 50
279.269751515
 51
280.4276786419
  0
ARC
  5
333
100
AcDbEntity
  8
ASSI
100
AcDbCircle
 62
7
  6
CONTINUOUS
 10
0.9454779272
 20
0.8378802789
 40
1.7979047217
100
AcDbArc
 50
279.269751515
 51
280.4276786419
  0
ARC
  5
334
100
AcDbEntity
  8
RACCORDO
100
AcDbCircle
 62
250
  6
CONTINUOUS
 10
1.0582366225
 20
-9.3008382327
 40
1.7715834083
100
AcDbArc
 50
280.497290813
 51
285.6860584714
  0
ARC
  5
335
100
AcDbEntity
  8
RACCORDO
100
AcDbCircle
 62
250
  6
CONTINUOUS
 10
1.0582366225
 20
0.9050402272
 40
1.7715834083
100
AcDbArc
 50
280.497290813
 51
285.6860584714
  0
ARC
  5
336
100
AcDbEntity
  8
ASSI
100
AcDbCircle
 62
7
  6
CONTINUOUS
 10
0.9574393001
 20
-9.4302556533
 40
1.7345106152
100
AcDbArc
 50
280.4113084061
 51
286.6400503381
  0
ARC
  5
337
100
AcDbEntity
  8
ASSI
100
AcDbCircle
 62
7
  6
CONTINUOUS
 10
0.9574393001
 20
0.7756228066
 40
1.7345106152
100
AcDbArc
 50
280.4113084061
 51
286.6400503381
  0
ARC
  5
338
100
AcDbEntity
  8
RACCORDO
100
AcDbCircle
 62
250
  6
CONTINUOUS
 10
5.2093769945
 20
-22.7993561167
 40
3.8610321782
100
AcDbArc
 50
16.5653143974
 51
16.8919775247
  0
ARC
  5
339
100
AcDbEntity
  8
RACCORDO
100
AcDbCircle
 62
250
  6
CONTINUOUS
 10
5.2093769945
 20
-12.5934776568
 40
3.8610321782
100
AcDbArc
 50
16.5653143974
 51
16.8919775247
  0
ARC
  5
33A
100
AcDbEntity
  8
RACCORDO
100
AcDbCircle
 62
250
  6
CONTINUOUS
 10
5.0000778405
 20
-21.1614592648
 40
2.8140976218
100
AcDbArc
 50
79.3525516816
 51
79.8682135369
  0
ARC
  5
33B
100
AcDbEntity
  8
RACCORDO
100
AcDbCircle
 62
250
  6
CONTINUOUS
 10
5.0204247936
 20
-21.1848818
 40
2.7762333106
100
AcDbArc
 50
78.8069002481
 51
79.8631752937
  0
ARC
  5
33C
100
AcDbEntity
  8
RACCORDO
100
AcDbCircle
 62
250
  6
CONTINUOUS
 10
5.0164879473
 20
-21.0676082165
 40
2.7188233854
100
AcDbArc
 50
79.8607238263
 51
82.7021157646
  0
ARC
  5
33D
100
AcDbEntity
  8
RACCORDO
100
AcDbCircle
 62
250
  6
CONTINUOUS
 10
5.0340653413
 20
-20.9387353263
 40
2.5887618751
100
AcDbArc
 50
82.7256766748
 51
83.4585743206
  0
ARC
  5
33E
100
AcDbEntity
  8
0
100
AcDbCircle
 62
250
  6
CONTINUOUS
 10
6.4592179853
 20
-20.4706383715
 40
2.5068970907
100
AcDbArc
 50
178.7541990668
 51
180.0030263933
  0
ARC
  5
33F
100
AcDbEntity
  8
ASSI
100
AcDbCircle
 62
250
  6
CONTINUOUS
 10
6.4592179853
 20
-20.4706383715
 40
2.5068970907
100
AcDbArc
 50
178.7541990668
 51
180.0030263933
  0
ARC
  5
340
100
AcDbEntity
  8
0
100
AcDbCircle
 62
250
  6
CONTINUOUS
 10
5.1410231574
 20
-20.9196797636
 40
2.1656710776
100
AcDbArc
 50
72.3931295005
 51
73.1473749383
  0
ARC
  5
341
100
AcDbEntity
  8
ASSI
100
AcDbCircle
 62
250
  6
CONTINUOUS
 10
5.1410231574
 20
-20.9196797636
 40
2.1656710776
100
AcDbArc
 50
72.3931295005
 51
73.1473749383
  0
ARC
  5
342
100
AcDbEntity
  8
ASSI
100
AcDbCircle
 62
7
  6
CONTINUOUS
 10
7.9671399083
 20
-22.3375275102
 40
2.1005919065
100
AcDbArc
 50
278.0602355434
 51
279.3372668107
  0
ARC
  5
343
100
AcDbEntity
  8
ASSI
100
AcDbCircle
 62
7
  6
CONTINUOUS
 10
7.9671399083
 20
-12.1316490502
 40
2.1005919066
100
AcDbArc
 50
278.0602355434
 51
279.3372668107
  0
ARC
  5
344
100
AcDbEntity
  8
ASSI
100
AcDbCircle
 62
7
  6
CONTINUOUS
 10
7.9722757384
 20
-22.3689168622
 40
2.0687851849
100
AcDbArc
 50
279.337959305
 51
280.3656476892
  0
ARC
  5
345
100
AcDbEntity
  8
ASSI
100
AcDbCircle
 62
7
  6
CONTINUOUS
 10
7.9722757384
 20
-12.1630384023
 40
2.0687851849
100
AcDbArc
 50
279.337959305
 51
280.3656476892
  0
ARC
  5
346
100
AcDbEntity
  8
RACCORDO
100
AcDbCircle
 62
250
  6
CONTINUOUS
 10
8.1644968161
 20
-22.2925247658
 40
1.9870871386
100
AcDbArc
 50
282.4541616941
 51
286.7054362269
  0
ARC
  5
347
100
AcDbEntity
  8
RACCORDO
100
AcDbCircle
 62
250
  6
CONTINUOUS
 10
8.1644968161
 20
-12.0866463059
 40
1.9870871386
100
AcDbArc
 50
282.4541616941
 51
286.7054362269
  0
ARC
  5
348
100
AcDbEntity
  8
ASSI
100
AcDbCircle
 62
7
  6
CONTINUOUS
 10
5.4964333943
 20
-19.4285890026
 40
1.6624302922
100
AcDbArc
 50
143.3555700921
 51
144.4592923129
  0
ARC
  5
349
100
AcDbEntity
  8
RACCORDO
100
AcDbCircle
 62
250
  6
CONTINUOUS
 10
5.6234090603
 20
-19.3137956399
 40
1.5930153472
100
AcDbArc
 50
135.490778362
 51
141.7497834847
  0
ARC
  5
34A
100
AcDbEntity
  8
ASSI
100
AcDbCircle
 62
7
  6
CONTINUOUS
 10
5.4383881099
 20
-19.3826878639
 40
1.588460509
100
AcDbArc
 50
133.7096207255
 51
143.3711714101
  0
ARC
  5
34B
100
AcDbEntity
  8
0
100
AcDbCircle
 62
7
  6
CONTINUOUS
 10
8.1222799924
 20
-22.6075543604
 40
1.124750035
100
AcDbArc
 50
296.5668573881
 51
303.2677348343
  0
ARC
  5
34C
100
AcDbEntity
  8
0
100
AcDbCircle
 62
7
  6
CONTINUOUS
 10
8.1222799924
 20
-12.4016759005
 40
1.124750035
100
AcDbArc
 50
296.5668573881
 51
303.2677348343
  0
ARC
  5
34D
100
AcDbEntity
  8
RACCORDO
100
AcDbCircle
 62
250
  6
CONTINUOUS
 10
5.2093769949
 20
-2.3875991968
 40
3.8610321777
100
AcDbArc
 50
16.5653143974
 51
16.8919775248
  0
ARC
  5
34E
100
AcDbEntity
  8
RACCORDO
100
AcDbCircle
 62
250
  6
CONTINUOUS
 10
5.0000778404
 20
-10.9555808052
 40
2.8140976221
100
AcDbArc
 50
79.3525516816
 51
79.8682135368
  0
ARC
  5
34F
100
AcDbEntity
  8
RACCORDO
100
AcDbCircle
 62
250
  6
CONTINUOUS
 10
5.0000778404
 20
-0.7497023452
 40
2.814097622
100
AcDbArc
 50
79.3525516816
 51
79.8682135368
  0
ARC
  5
350
100
AcDbEntity
  8
RACCORDO
100
AcDbCircle
 62
250
  6
CONTINUOUS
 10
5.0204247936
 20
-10.9790033402
 40
2.7762333106
100
AcDbArc
 50
78.8069002481
 51
79.8631752937
  0
ARC
  5
351
100
AcDbEntity
  8
RACCORDO
100
AcDbCircle
 62
250
  6
CONTINUOUS
 10
5.0204247936
 20
-0.7731248803
 40
2.7762333107
100
AcDbArc
 50
78.8069002482
 51
79.8631752937
  0
ARC
  5
352
100
AcDbEntity
  8
RACCORDO
100
AcDbCircle
 62
250
  6
CONTINUOUS
 10
5.0164879473
 20
-10.8617297566
 40
2.7188233854
100
AcDbArc
 50
79.8607238263
 51
82.7021157646
  0
ARC
  5
353
100
AcDbEntity
  8
RACCORDO
100
AcDbCircle
 62
250
  6
CONTINUOUS
 10
5.0164879473
 20
-0.6558512967
 40
2.7188233854
100
AcDbArc
 50
79.8607238263
 51
82.7021157646
  0
ARC
  5
354
100
AcDbEntity
  8
RACCORDO
100
AcDbCircle
 62
250
  6
CONTINUOUS
 10
5.0340653413
 20
-10.7328568663
 40
2.5887618751
100
AcDbArc
 50
82.7256766748
 51
83.4585743206
  0
ARC
  5
355
100
AcDbEntity
  8
RACCORDO
100
AcDbCircle
 62
250
  6
CONTINUOUS
 10
5.0340653413
 20
-0.5269784065
 40
2.5887618752
100
AcDbArc
 50
82.7256766748
 51
83.4585743206
  0
ARC
  5
356
100
AcDbEntity
  8
0
100
AcDbCircle
 62
250
  6
CONTINUOUS
 10
6.4592179853
 20
-10.2647599116
 40
2.5068970907
100
AcDbArc
 50
178.7541990668
 51
180.0030263933
  0
ARC
  5
357
100
AcDbEntity
  8
ASSI
100
AcDbCircle
 62
250
  6
CONTINUOUS
 10
6.4592179853
 20
-10.2647599116
 40
2.5068970907
100
AcDbArc
 50
178.7541990668
 51
180.0030263933
  0
ARC
  5
358
100
AcDbEntity
  8
0
100
AcDbCircle
 62
250
  6
CONTINUOUS
 10
6.4592179853
 20
-0.0588814517
 40
2.5068970907
100
AcDbArc
 50
178.7541990668
 51
180.0030263933
  0
ARC
  5
359
100
AcDbEntity
  8
ASSI
100
AcDbCircle
 62
250
  6
CONTINUOUS
 10
6.4592179853
 20
-0.0588814517
 40
2.5068970907
100
AcDbArc
 50
178.7541990668
 51
180.0030263933
  0
ARC
  5
35A
100
AcDbEntity
  8
0
100
AcDbCircle
 62
250
  6
CONTINUOUS
 10
5.1410231574
 20
-10.7138013036
 40
2.1656710775
100
AcDbArc
 50
72.3931295005
 51
73.1473749383
  0
ARC
  5
35B
100
AcDbEntity
  8
ASSI
100
AcDbCircle
 62
250
  6
CONTINUOUS
 10
5.1410231574
 20
-10.7138013036
 40
2.1656710775
100
AcDbArc
 50
72.3931295005
 51
73.1473749383
  0
ARC
  5
35C
100
AcDbEntity
  8
0
100
AcDbCircle
 62
250
  6
CONTINUOUS
 10
5.1410231574
 20
-0.5079228438
 40
2.1656710776
100
AcDbArc
 50
72.3931295005
 51
73.1473749383
  0
ARC
  5
35D
100
AcDbEntity
  8
ASSI
100
AcDbCircle
 62
250
  6
CONTINUOUS
 10
5.1410231574
 20
-0.5079228438
 40
2.1656710776
100
AcDbArc
 50
72.3931295005
 51
73.1473749383
  0
ARC
  5
35E
100
AcDbEntity
  8
ASSI
100
AcDbCircle
 62
7
  6
CONTINUOUS
 10
7.9671399083
 20
-1.9257705903
 40
2.1005919065
100
AcDbArc
 50
278.0602355434
 51
279.3372668107
  0
ARC
  5
35F
100
AcDbEntity
  8
ASSI
100
AcDbCircle
 62
7
  6
CONTINUOUS
 10
7.9722757384
 20
-1.9571599424
 40
2.0687851849
100
AcDbArc
 50
279.337959305
 51
280.3656476892
  0
ARC
  5
360
100
AcDbEntity
  8
RACCORDO
100
AcDbCircle
 62
250
  6
CONTINUOUS
 10
8.1644968161
 20
-1.880767846
 40
1.9870871386
100
AcDbArc
 50
282.4541616941
 51
286.7054362269
  0
ARC
  5
361
100
AcDbEntity
  8
ASSI
100
AcDbCircle
 62
7
  6
CONTINUOUS
 10
5.4964333943
 20
0.9831679172
 40
1.6624302922
100
AcDbArc
 50
143.3555700921
 51
144.4592923129
  0
ARC
  5
362
100
AcDbEntity
  8
ASSI
100
AcDbCircle
 62
7
  6
CONTINUOUS
 10
5.4964333943
 20
-9.2227105427
 40
1.6624302921
100
AcDbArc
 50
143.3555700921
 51
144.4592923129
  0
ARC
  5
363
100
AcDbEntity
  8
RACCORDO
100
AcDbCircle
 62
250
  6
CONTINUOUS
 10
5.6234090603
 20
-9.1079171799
 40
1.5930153472
100
AcDbArc
 50
135.490778362
 51
141.7497834847
  0
ARC
  5
364
100
AcDbEntity
  8
RACCORDO
100
AcDbCircle
 62
250
  6
CONTINUOUS
 10
5.6234090603
 20
1.09796128
 40
1.5930153472
100
AcDbArc
 50
135.490778362
 51
141.7497834847
  0
ARC
  5
365
100
AcDbEntity
  8
ASSI
100
AcDbCircle
 62
7
  6
CONTINUOUS
 10
5.4383881099
 20
1.0290690559
 40
1.588460509
100
AcDbArc
 50
133.7096207254
 51
143.3711714101
  0
ARC
  5
366
100
AcDbEntity
  8
ASSI
100
AcDbCircle
 62
7
  6
CONTINUOUS
 10
5.4383881099
 20
-9.176809404
 40
1.588460509
100
AcDbArc
 50
133.7096207254
 51
143.3711714101
  0
ARC
  5
367
100
AcDbEntity
  8
0
100
AcDbCircle
 62
7
  6
CONTINUOUS
 10
8.1222799924
 20
-2.1957974406
 40
1.124750035
100
AcDbArc
 50
296.5668573881
 51
303.2677348343
  0
ARC
  5
368
100
AcDbEntity
  8
RACCORDO
100
AcDbCircle
 62
250
  6
CONTINUOUS
 10
3.8793921827
 20
7.1608339091
 40
5.3984121575
100
AcDbArc
 50
45.5251820821
 51
46.6586737464
  0
ARC
  5
369
100
AcDbEntity
  8
RACCORDO
100
AcDbCircle
 62
250
  6
CONTINUOUS
 10
3.9319496711
 20
7.2171701235
 40
5.3213676224
100
AcDbArc
 50
46.653913903
 51
50.7719881531
  0
ARC
  5
36A
100
AcDbEntity
  8
RACCORDO
100
AcDbCircle
 62
250
  6
CONTINUOUS
 10
3.9041030683
 20
7.1792268622
 40
5.3212673608
100
AcDbArc
 50
45.3250527724
 51
45.4677462598
  0
ARC
  5
36B
100
AcDbEntity
  8
RACCORDO
100
AcDbCircle
 62
250
  6
CONTINUOUS
 10
3.982770994
 20
7.2626925934
 40
5.2065982568
100
AcDbArc
 50
45.4407135627
 51
50.8937282864
  0
ARC
  5
36C
100
AcDbEntity
  8
RACCORDO
100
AcDbCircle
 62
250
  6
CONTINUOUS
 10
4.0190222927
 20
7.3209989914
 40
5.1858729832
100
AcDbArc
 50
50.7917352215
 51
51.0204687502
  0
ARC
  5
36D
100
AcDbEntity
  8
RACCORDO
100
AcDbCircle
 62
250
  6
CONTINUOUS
 10
4.0287997466
 20
7.3330856559
 40
5.1703267278
100
AcDbArc
 50
51.0204430219
 51
51.3350963548
  0
ARC
  5
36E
100
AcDbEntity
  8
RACCORDO
100
AcDbCircle
 62
250
  6
CONTINUOUS
 10
4.0658536184
 20
7.3632852476
 40
5.0761354778
100
AcDbArc
 50
50.9052451309
 51
51.3436751684
  0
ARC
  5
36F
100
AcDbEntity
  8
RACCORDO
100
AcDbCircle
 62
250
  6
CONTINUOUS
 10
4.0842725661
 20
7.3863216762
 40
5.0466408234
100
AcDbArc
 50
51.3436051428
 51
51.8922935007
  0
ARC
  5
370
100
AcDbEntity
  8
RACCORDO
100
AcDbCircle
 62
250
  6
CONTINUOUS
 10
5.2093769944
 20
7.818279263
 40
3.8610321783
100
AcDbArc
 50
16.5653143974
 51
16.8919775247
  0
ARC
  5
371
100
AcDbEntity
  8
RACCORDO
100
AcDbCircle
 62
250
  6
CONTINUOUS
 10
5.0000778405
 20
9.4561761149
 40
2.8140976218
100
AcDbArc
 50
79.3525516816
 51
79.8682135368
  0
ARC
  5
372
100
AcDbEntity
  8
RACCORDO
100
AcDbCircle
 62
250
  6
CONTINUOUS
 10
5.0204247936
 20
9.4327535797
 40
2.7762333106
100
AcDbArc
 50
78.8069002482
 51
79.8631752937
  0
ARC
  5
373
100
AcDbEntity
  8
RACCORDO
100
AcDbCircle
 62
250
  6
CONTINUOUS
 10
5.0164879473
 20
9.5500271632
 40
2.7188233854
100
AcDbArc
 50
79.8607238263
 51
82.7021157646
  0
ARC
  5
374
100
AcDbEntity
  8
RACCORDO
100
AcDbCircle
 62
250
  6
CONTINUOUS
 10
5.0340653413
 20
9.6789000535
 40
2.5887618751
100
AcDbArc
 50
82.7256766748
 51
83.4585743206
  0
ARC
  5
375
100
AcDbEntity
  8
0
100
AcDbCircle
 62
250
  6
CONTINUOUS
 10
6.4592179853
 20
10.1469970083
 40
2.5068970907
100
AcDbArc
 50
178.7541990668
 51
180.0030263933
  0
ARC
  5
376
100
AcDbEntity
  8
ASSI
100
AcDbCircle
 62
250
  6
CONTINUOUS
 10
6.4592179853
 20
10.1469970083
 40
2.5068970907
100
AcDbArc
 50
178.7541990668
 51
180.0030263933
  0
ARC
  5
377
100
AcDbEntity
  8
0
100
AcDbCircle
 62
250
  6
CONTINUOUS
 10
5.1410231574
 20
9.6979556161
 40
2.1656710776
100
AcDbArc
 50
72.3931295005
 51
73.1473749383
  0
ARC
  5
378
100
AcDbEntity
  8
ASSI
100
AcDbCircle
 62
250
  6
CONTINUOUS
 10
5.1410231574
 20
9.6979556161
 40
2.1656710776
100
AcDbArc
 50
72.3931295005
 51
73.1473749383
  0
ARC
  5
379
100
AcDbEntity
  8
ASSI
100
AcDbCircle
 62
7
  6
CONTINUOUS
 10
7.9671399083
 20
8.2801078695
 40
2.1005919065
100
AcDbArc
 50
278.0602355434
 51
279.3372668107
  0
ARC
  5
37A
100
AcDbEntity
  8
ASSI
100
AcDbCircle
 62
7
  6
CONTINUOUS
 10
7.9722757384
 20
8.2487185175
 40
2.0687851849
100
AcDbArc
 50
279.337959305
 51
280.3656476892
  0
ARC
  5
37B
100
AcDbEntity
  8
RACCORDO
100
AcDbCircle
 62
250
  6
CONTINUOUS
 10
8.1644968161
 20
8.3251106139
 40
1.9870871386
100
AcDbArc
 50
282.4541616941
 51
286.7054362269
  0
ARC
  5
37C
100
AcDbEntity
  8
ASSI
100
AcDbCircle
 62
7
  6
CONTINUOUS
 10
0.9406811664
 20
11.0733648825
 40
1.8278969116
100
AcDbArc
 50
277.755923093
 51
279.2686569025
  0
ARC
  5
37D
100
AcDbEntity
  8
ASSI
100
AcDbCircle
 62
7
  6
CONTINUOUS
 10
0.9454779272
 20
11.0437587388
 40
1.7979047217
100
AcDbArc
 50
279.269751515
 51
280.4276786419
  0
ARC
  5
37E
100
AcDbEntity
  8
RACCORDO
100
AcDbCircle
 62
250
  6
CONTINUOUS
 10
1.0582366225
 20
11.1109186871
 40
1.7715834083
100
AcDbArc
 50
280.497290813
 51
285.6860584714
  0
ARC
  5
37F
100
AcDbEntity
  8
ASSI
100
AcDbCircle
 62
7
  6
CONTINUOUS
 10
0.9574393001
 20
10.9815012665
 40
1.7345106152
100
AcDbArc
 50
280.4113084061
 51
286.6400503381
  0
ARC
  5
380
100
AcDbEntity
  8
ASSI
100
AcDbCircle
 62
7
  6
CONTINUOUS
 10
5.4964333943
 20
11.1890463771
 40
1.6624302922
100
AcDbArc
 50
143.3555700921
 51
144.4592923129
  0
ARC
  5
381
100
AcDbEntity
  8
RACCORDO
100
AcDbCircle
 62
250
  6
CONTINUOUS
 10
5.6234090603
 20
11.3038397399
 40
1.5930153472
100
AcDbArc
 50
135.490778362
 51
141.7497834847
  0
ARC
  5
382
100
AcDbEntity
  8
ASSI
100
AcDbCircle
 62
7
  6
CONTINUOUS
 10
5.4383881099
 20
11.2349475158
 40
1.588460509
100
AcDbArc
 50
133.7096207254
 51
143.3711714101
  0
ARC
  5
383
100
AcDbEntity
  8
0
100
AcDbCircle
 62
7
  6
CONTINUOUS
 10
8.1222799924
 20
8.0100810193
 40
1.124750035
100
AcDbArc
 50
296.5668573881
 51
303.2677348343
  0
ARC
  5
384
100
AcDbEntity
  8
RACCORDO
100
AcDbCircle
 62
250
  6
CONTINUOUS
 10
42.7714773386
 20
64.8432350394
 40
96.4607772791
100
AcDbArc
 50
240.9492484736
 51
243.0127864795
  0
ARC
  5
385
100
AcDbEntity
  8
RACCORDO
100
AcDbCircle
 62
250
  6
CONTINUOUS
 10
42.7714773386
 20
75.0491134993
 40
96.4607772791
100
AcDbArc
 50
240.9492484736
 51
243.0127864795
  0
ARC
  5
386
100
AcDbEntity
  8
RACCORDO
100
AcDbCircle
 62
250
  6
CONTINUOUS
 10
42.7714773386
 20
85.2549919592
 40
96.4607772791
100
AcDbArc
 50
240.9492484736
 51
243.0127864795
  0
ARC
  5
387
100
AcDbEntity
  8
RACCORDO
100
AcDbCircle
 62
250
  6
CONTINUOUS
 10
42.7714773386
 20
95.4608704192
 40
96.4607772791
100
AcDbArc
 50
240.9492484736
 51
243.0127864795
  0
SPLINE
  5
388
100
AcDbEntity
  8
0
100
AcDbSpline
 62
7
  6
CONTINUOUS
 70
0
 71
3
 72
17
 73
13
 74
0
 42
0.0000001
 43
0.0000001
 44
0.0000000001
 40
0.0
 40
0.0
 40
0.0
 40
0.0
 40
0.1253437346
 40
0.2608824372
 40
0.4014393539
 40
0.5404051076
 40
0.6716179834
 40
0.791130619
 40
0.8464772768
 40
0.8992936688
 40
0.9501618945
 40
1.0
 40
1.0
 40
1.0
 40
1.0
 10
3.9370806617
 20
-20.4163069477
 30
0.0
 10
3.9370806617
 20
-20.6666738587
 30
0.0
 10
4.0076580771
 20
-21.1886056444
 30
0.0
 10
4.2753465154
 20
-21.9489568824
 30
0.0
 10
4.6869633814
 20
-22.6735671736
 30
0.0
 10
5.2124419396
 20
-23.3094046952
 30
0.0
 10
5.8150330631
 20
-23.8097458046
 30
0.0
 10
6.367487034
 20
-24.0892892929
 30
0.0
 10
6.8107635163
 20
-24.1987727403
 30
0.0
 10
7.1294809708
 20
-24.2211274726
 30
0.0
 10
7.435766793
 20
-24.1821210717
 30
0.0
 10
7.6268796875
 20
-24.1130232596
 30
0.0
 10
7.7159097953
 20
-24.0684856998
 30
0.0
  0
SPLINE
  5
389
100
AcDbEntity
  8
0
100
AcDbSpline
 62
7
  6
CONTINUOUS
 70
0
 71
3
 72
11
 73
7
 74
0
 42
0.0000001
 43
0.0000001
 44
0.0000000001
 40
0.0
 40
0.0
 40
0.0
 40
0.0
 40
0.2337242032
 40
0.4750151687
 40
0.7291749818
 40
1.0
 40
1.0
 40
1.0
 40
1.0
 10
4.5249409284
 20
-19.0043226986
 30
0.0
 10
4.4277077786
 20
-19.0798915238
 30
0.0
 10
4.2516997452
 20
-19.2632333489
 30
0.0
 10
4.0665684544
 20
-19.6041707047
 30
0.0
 10
3.9586044699
 20
-19.9962209031
 30
0.0
 10
3.9370806617
 20
-20.2736130707
 30
0.0
 10
3.9370806617
 20
-20.4163069477
 30
0.0
  0
SPLINE
  5
38A
100
AcDbEntity
  8
0
100
AcDbSpline
 62
250
  6
CONTINUOUS
 70
0
 71
3
 72
23
 73
19
 74
0
 42
0.0000001
 43
0.0000001
 44
0.0000000001
 40
0.0
 40
0.0
 40
0.0
 40
0.0
 40
0.0655655519
 40
0.1362182788
 40
0.210561824
 40
0.2870116387
 40
0.3637332672
 40
0.438887317
 40
0.510767095
 40
0.5779487236
 40
0.6394781842
 40
0.6951020191
 40
0.7455146862
 40
0.7925325322
 40
0.8389185564
 40
0.8876196187
 40
0.9409434215
 40
1.0
 40
1.0
 40
1.0
 40
1.0
 10
8.1479773065
 20
-22.6906008571
 30
0.0
 10
8.1479773065
 20
-22.5331385189
 30
0.0
 10
8.1180985436
 20
-22.2056632869
 30
0.0
 10
7.998805221
 20
-21.7127642715
 30
0.0
 10
7.8073525508
 20
-21.215091488
 30
0.0
 10
7.5511290589
 20
-20.7310839796
 30
0.0
 10
7.2393593706
 20
-20.2784742244
 30
0.0
 10
6.8836215506
 20
-19.8739541457
 30
0.0
 10
6.4969337622
 20
-19.5323554741
 30
0.0
 10
6.093186901
 20
-19.2662117404
 30
0.0
 10
5.6864676659
 20
-19.0854272756
 30
0.0
 10
5.2904420501
 20
-18.9973721813
 30
0.0
 10
4.9184345212
 20
-19.0077971581
 30
0.0
 10
4.5858162914
 20
-19.1208897116
 30
0.0
 10
4.3113180573
 20
-19.333956864
 30
0.0
 10
4.1090589799
 20
-19.633737935
 30
0.0
 10
3.9847777484
 20
-20.0039720375
 30
0.0
 10
3.95600467
 20
-20.2743376939
 30
0.0
 10
3.952913467
 20
-20.4161343804
 30
0.0
  0
SPLINE
  5
38B
100
AcDbEntity
  8
0
100
AcDbSpline
 62
250
  6
CONTINUOUS
 70
0
 71
3
 72
12
 73
8
 74
0
 42
0.0000001
 43
0.0000001
 44
0.0000000001
 40
0.0
 40
0.0
 40
0.0
 40
0.0
 40
0.1113321615
 40
0.2300762953
 40
0.483245643
 40
0.7454264223
 40
1.0
 40
1.0
 40
1.0
 40
1.0
 10
8.4214524235
 20
-22.648816004
 30
0.0
 10
8.4214524235
 20
-22.5144883294
 30
0.0
 10
8.4008615528
 20
-22.2366466893
 30
0.0
 10
8.2862918139
 20
-21.6638494231
 30
0.0
 10
8.0110175014
 20
-20.943497404
 30
0.0
 10
7.5196440949
 20
-20.1496288135
 30
0.0
 10
7.0943205981
 20
-19.6867127943
 30
0.0
 10
6.8626580978
 20
-19.4850275515
 30
0.0
  0
SPLINE
  5
38C
100
AcDbEntity
  8
0
100
AcDbSpline
 62
250
  6
CONTINUOUS
 70
0
 71
3
 72
9
 73
5
 74
0
 42
0.0000001
 43
0.0000001
 44
0.0000000001
 40
0.0
 40
0.0
 40
0.0
 40
0.0
 40
0.5261579437
 40
1.0
 40
1.0
 40
1.0
 40
1.0
 10
6.8626580978
 20
-19.4850275515
 30
0.0
 10
6.6979934393
 20
-19.3416705922
 30
0.0
 10
6.3626769222
 20
-19.0934043717
 30
0.0
 10
5.9835116912
 20
-18.9149303596
 30
0.0
 10
5.7961044156
 20
-18.8554608407
 30
0.0
  0
SPLINE
  5
38D
100
AcDbEntity
  8
0
100
AcDbSpline
 62
250
  6
CONTINUOUS
 70
0
 71
3
 72
11
 73
7
 74
0
 42
0.0000001
 43
0.0000001
 44
0.0000000001
 40
0.0
 40
0.0
 40
0.0
 40
0.0
 40
0.2768918453
 40
0.531226455
 40
0.7691343388
 40
1.0
 40
1.0
 40
1.0
 40
1.0
 10
5.7688749261
 20
-18.8470164111
 30
0.0
 10
5.6539376018
 20
-18.8122022014
 30
0.0
 10
5.427067348
 20
-18.7635813784
 30
0.0
 10
5.0906249289
 20
-18.7630820438
 30
0.0
 10
4.7829918895
 20
-18.8400267124
 30
0.0
 10
4.603993536
 20
-18.9428657107
 30
0.0
 10
4.5249438093
 20
-19.0043269268
 30
0.0
  0
SPLINE
  5
38E
100
AcDbEntity
  8
0
100
AcDbSpline
 62
250
  6
CONTINUOUS
 70
0
 71
3
 72
23
 73
19
 74
0
 42
0.0000001
 43
0.0000001
 44
0.0000000001
 40
0.0
 40
0.0
 40
0.0
 40
0.0
 40
0.0597345028
 40
0.1136660306
 40
0.1627530657
 40
0.2092394535
 40
0.2560837866
 40
0.3061445903
 40
0.3613572193
 40
0.4225061351
 40
0.4893878075
 40
0.5610675924
 40
0.6361198743
 40
0.7128204119
 40
0.7893039244
 40
0.8637058263
 40
0.934410758
 40
1.0
 40
1.0
 40
1.0
 40
1.0
 10
8.1479773065
 20
-22.6906008571
 30
0.0
 10
8.1479773065
 20
-22.8351423716
 30
0.0
 10
8.1249033179
 20
-23.1111927718
 30
0.0
 10
8.0085390227
 20
-23.4912163692
 30
0.0
 10
7.8126348245
 20
-23.8014925827
 30
0.0
 10
7.5423644929
 20
-24.0253203456
 30
0.0
 10
7.2113754025
 20
-24.1483698689
 30
0.0
 10
6.8389499299
 20
-24.1669624945
 30
0.0
 10
6.4411519611
 20
-24.0851461799
 30
0.0
 10
6.0316352233
 20
-23.9087553317
 30
0.0
 10
5.6243093515
 20
-23.6452166608
 30
0.0
 10
5.2335449036
 20
-23.3045122545
 30
0.0
 10
4.8735733307
 20
-22.8993153078
 30
0.0
 10
4.5577543081
 20
-22.4446996404
 30
0.0
 10
4.2979859293
 20
-21.9576801201
 30
0.0
 10
4.1037588578
 20
-21.4563699935
 30
0.0
 10
3.9826742509
 20
-20.9596133649
 30
0.0
 10
3.9523208981
 20
-20.6294792041
 30
0.0
 10
3.9523208981
 20
-20.4707707871
 30
0.0
  0
SPLINE
  5
38F
100
AcDbEntity
  8
0
100
AcDbSpline
 62
250
  6
CONTINUOUS
 70
0
 71
3
 72
13
 73
9
 74
0
 42
0.0000001
 43
0.0000001
 44
0.0000000001
 40
0.0
 40
0.0
 40
0.0
 40
0.0
 40
0.2859670454
 40
0.542797863
 40
0.6621168142
 40
0.7769140469
 40
0.8888925622
 40
1.0
 40
1.0
 40
1.0
 40
1.0
 10
8.4214524235
 20
-22.648816004
 30
0.0
 10
8.4214524235
 20
-22.807834599
 30
0.0
 10
8.3952188158
 20
-23.1107720786
 30
0.0
 10
8.2803124053
 20
-23.4652118869
 30
0.0
 10
8.1417603431
 20
-23.7015502726
 30
0.0
 10
8.019427839
 20
-23.8512099422
 30
0.0
 10
7.8776269072
 20
-23.9757724737
 30
0.0
 10
7.7711575413
 20
-24.0408311871
 30
0.0
 10
7.7158993742
 20
-24.0684677689
 30
0.0
  0
SPLINE
  5
390
100
AcDbEntity
  8
ASSI
100
AcDbSpline
 62
7
  6
CONTINUOUS
 70
0
 71
3
 72
17
 73
13
 74
0
 42
0.0000001
 43
0.0000001
 44
0.0000000001
 40
0.0
 40
0.0
 40
0.0
 40
0.0
 40
0.1253437346
 40
0.2608824372
 40
0.4014393539
 40
0.5404051076
 40
0.6716179834
 40
0.791130619
 40
0.8464772768
 40
0.8992936688
 40
0.9501618945
 40
1.0
 40
1.0
 40
1.0
 40
1.0
 10
3.9370806617
 20
-20.4163069477
 30
0.0
 10
3.9370806617
 20
-20.6666738587
 30
0.0
 10
4.0076580771
 20
-21.1886056444
 30
0.0
 10
4.2753465154
 20
-21.9489568824
 30
0.0
 10
4.6869633814
 20
-22.6735671736
 30
0.0
 10
5.2124419396
 20
-23.3094046952
 30
0.0
 10
5.8150330631
 20
-23.8097458046
 30
0.0
 10
6.367487034
 20
-24.0892892929
 30
0.0
 10
6.8107635163
 20
-24.1987727403
 30
0.0
 10
7.1294809708
 20
-24.2211274726
 30
0.0
 10
7.435766793
 20
-24.1821210717
 30
0.0
 10
7.6268796875
 20
-24.1130232596
 30
0.0
 10
7.7159097953
 20
-24.0684856998
 30
0.0
  0
SPLINE
  5
391
100
AcDbEntity
  8
ASSI
100
AcDbSpline
 62
7
  6
CONTINUOUS
 70
0
 71
3
 72
11
 73
7
 74
0
 42
0.0000001
 43
0.0000001
 44
0.0000000001
 40
0.0
 40
0.0
 40
0.0
 40
0.0
 40
0.2337242032
 40
0.4750151687
 40
0.7291749818
 40
1.0
 40
1.0
 40
1.0
 40
1.0
 10
4.5249409284
 20
-19.0043226986
 30
0.0
 10
4.4277077786
 20
-19.0798915238
 30
0.0
 10
4.2516997452
 20
-19.2632333489
 30
0.0
 10
4.0665684544
 20
-19.6041707047
 30
0.0
 10
3.9586044699
 20
-19.9962209031
 30
0.0
 10
3.9370806617
 20
-20.2736130707
 30
0.0
 10
3.9370806617
 20
-20.4163069477
 30
0.0
  0
SPLINE
  5
392
100
AcDbEntity
  8
ASSI
100
AcDbSpline
 62
250
  6
CONTINUOUS
 70
0
 71
3
 72
23
 73
19
 74
0
 42
0.0000001
 43
0.0000001
 44
0.0000000001
 40
0.0
 40
0.0
 40
0.0
 40
0.0
 40
0.0655655519
 40
0.1362182788
 40
0.210561824
 40
0.2870116387
 40
0.3637332672
 40
0.438887317
 40
0.510767095
 40
0.5779487236
 40
0.6394781842
 40
0.6951020191
 40
0.7455146862
 40
0.7925325322
 40
0.8389185564
 40
0.8876196187
 40
0.9409434215
 40
1.0
 40
1.0
 40
1.0
 40
1.0
 10
8.1479773065
 20
-22.6906008571
 30
0.0
 10
8.1479773065
 20
-22.5331385189
 30
0.0
 10
8.1180985436
 20
-22.2056632869
 30
0.0
 10
7.998805221
 20
-21.7127642715
 30
0.0
 10
7.8073525508
 20
-21.215091488
 30
0.0
 10
7.5511290589
 20
-20.7310839796
 30
0.0
 10
7.2393593706
 20
-20.2784742244
 30
0.0
 10
6.8836215506
 20
-19.8739541457
 30
0.0
 10
6.4969337622
 20
-19.5323554741
 30
0.0
 10
6.093186901
 20
-19.2662117404
 30
0.0
 10
5.6864676659
 20
-19.0854272756
 30
0.0
 10
5.2904420501
 20
-18.9973721813
 30
0.0
 10
4.9184345212
 20
-19.0077971581
 30
0.0
 10
4.5858162914
 20
-19.1208897116
 30
0.0
 10
4.3113180573
 20
-19.333956864
 30
0.0
 10
4.1090589799
 20
-19.633737935
 30
0.0
 10
3.9847777484
 20
-20.0039720375
 30
0.0
 10
3.95600467
 20
-20.2743376939
 30
0.0
 10
3.952913467
 20
-20.4161343804
 30
0.0
  0
SPLINE
  5
393
100
AcDbEntity
  8
ASSI
100
AcDbSpline
 62
250
  6
CONTINUOUS
 70
0
 71
3
 72
12
 73
8
 74
0
 42
0.0000001
 43
0.0000001
 44
0.0000000001
 40
0.0
 40
0.0
 40
0.0
 40
0.0
 40
0.1113321615
 40
0.2300762953
 40
0.483245643
 40
0.7454264223
 40
1.0
 40
1.0
 40
1.0
 40
1.0
 10
8.4214524235
 20
-22.648816004
 30
0.0
 10
8.4214524235
 20
-22.5144883294
 30
0.0
 10
8.4008615528
 20
-22.2366466893
 30
0.0
 10
8.2862918139
 20
-21.6638494231
 30
0.0
 10
8.0110175014
 20
-20.943497404
 30
0.0
 10
7.5196440949
 20
-20.1496288135
 30
0.0
 10
7.0943205981
 20
-19.6867127943
 30
0.0
 10
6.8626580978
 20
-19.4850275515
 30
0.0
  0
SPLINE
  5
394
100
AcDbEntity
  8
ASSI
100
AcDbSpline
 62
250
  6
CONTINUOUS
 70
0
 71
3
 72
9
 73
5
 74
0
 42
0.0000001
 43
0.0000001
 44
0.0000000001
 40
0.0
 40
0.0
 40
0.0
 40
0.0
 40
0.5261579437
 40
1.0
 40
1.0
 40
1.0
 40
1.0
 10
6.8626580978
 20
-19.4850275515
 30
0.0
 10
6.6979934393
 20
-19.3416705922
 30
0.0
 10
6.3626769222
 20
-19.0934043717
 30
0.0
 10
5.9835116912
 20
-18.9149303596
 30
0.0
 10
5.7961044156
 20
-18.8554608407
 30
0.0
  0
SPLINE
  5
395
100
AcDbEntity
  8
ASSI
100
AcDbSpline
 62
250
  6
CONTINUOUS
 70
0
 71
3
 72
11
 73
7
 74
0
 42
0.0000001
 43
0.0000001
 44
0.0000000001
 40
0.0
 40
0.0
 40
0.0
 40
0.0
 40
0.2768918453
 40
0.531226455
 40
0.7691343388
 40
1.0
 40
1.0
 40
1.0
 40
1.0
 10
5.7688749261
 20
-18.8470164111
 30
0.0
 10
5.6539376018
 20
-18.8122022014
 30
0.0
 10
5.427067348
 20
-18.7635813784
 30
0.0
 10
5.0906249289
 20
-18.7630820438
 30
0.0
 10
4.7829918895
 20
-18.8400267124
 30
0.0
 10
4.603993536
 20
-18.9428657107
 30
0.0
 10
4.5249438093
 20
-19.0043269268
 30
0.0
  0
SPLINE
  5
396
100
AcDbEntity
  8
ASSI
100
AcDbSpline
 62
250
  6
CONTINUOUS
 70
0
 71
3
 72
23
 73
19
 74
0
 42
0.0000001
 43
0.0000001
 44
0.0000000001
 40
0.0
 40
0.0
 40
0.0
 40
0.0
 40
0.0597345028
 40
0.1136660306
 40
0.1627530657
 40
0.2092394535
 40
0.2560837866
 40
0.3061445903
 40
0.3613572193
 40
0.4225061351
 40
0.4893878075
 40
0.5610675924
 40
0.6361198743
 40
0.7128204119
 40
0.7893039244
 40
0.8637058263
 40
0.934410758
 40
1.0
 40
1.0
 40
1.0
 40
1.0
 10
8.1479773065
 20
-22.6906008571
 30
0.0
 10
8.1479773065
 20
-22.8351423716
 30
0.0
 10
8.1249033179
 20
-23.1111927718
 30
0.0
 10
8.0085390227
 20
-23.4912163692
 30
0.0
 10
7.8126348245
 20
-23.8014925827
 30
0.0
 10
7.5423644929
 20
-24.0253203456
 30
0.0
 10
7.2113754025
 20
-24.1483698689
 30
0.0
 10
6.8389499299
 20
-24.1669624945
 30
0.0
 10
6.4411519611
 20
-24.0851461799
 30
0.0
 10
6.0316352233
 20
-23.9087553317
 30
0.0
 10
5.6243093515
 20
-23.6452166608
 30
0.0
 10
5.2335449036
 20
-23.3045122545
 30
0.0
 10
4.8735733307
 20
-22.8993153078
 30
0.0
 10
4.5577543081
 20
-22.4446996404
 30
0.0
 10
4.2979859293
 20
-21.9576801201
 30
0.0
 10
4.1037588578
 20
-21.4563699935
 30
0.0
 10
3.9826742509
 20
-20.9596133649
 30
0.0
 10
3.9523208981
 20
-20.6294792041
 30
0.0
 10
3.9523208981
 20
-20.4707707871
 30
0.0
  0
SPLINE
  5
397
100
AcDbEntity
  8
ASSI
100
AcDbSpline
 62
250
  6
CONTINUOUS
 70
0
 71
3
 72
13
 73
9
 74
0
 42
0.0000001
 43
0.0000001
 44
0.0000000001
 40
0.0
 40
0.0
 40
0.0
 40
0.0
 40
0.2859670454
 40
0.542797863
 40
0.6621168142
 40
0.7769140469
 40
0.8888925622
 40
1.0
 40
1.0
 40
1.0
 40
1.0
 10
8.4214524235
 20
-22.648816004
 30
0.0
 10
8.4214524235
 20
-22.807834599
 30
0.0
 10
8.3952188158
 20
-23.1107720786
 30
0.0
 10
8.2803124053
 20
-23.4652118869
 30
0.0
 10
8.1417603431
 20
-23.7015502726
 30
0.0
 10
8.019427839
 20
-23.8512099422
 30
0.0
 10
7.8776269072
 20
-23.9757724737
 30
0.0
 10
7.7711575413
 20
-24.0408311871
 30
0.0
 10
7.7158993742
 20
-24.0684677689
 30
0.0
  0
SPLINE
  5
398
100
AcDbEntity
  8
0
100
AcDbSpline
 62
7
  6
CONTINUOUS
 70
0
 71
3
 72
17
 73
13
 74
0
 42
0.0000001
 43
0.0000001
 44
0.0000000001
 40
0.0
 40
0.0
 40
0.0
 40
0.0
 40
0.1253437346
 40
0.2608824372
 40
0.4014393539
 40
0.5404051076
 40
0.6716179834
 40
0.791130619
 40
0.8464772768
 40
0.8992936688
 40
0.9501618945
 40
1.0
 40
1.0
 40
1.0
 40
1.0
 10
3.9370806617
 20
-10.2104284878
 30
0.0
 10
3.9370806617
 20
-10.4607953988
 30
0.0
 10
4.0076580771
 20
-10.9827271845
 30
0.0
 10
4.2753465154
 20
-11.7430784225
 30
0.0
 10
4.6869633814
 20
-12.4676887137
 30
0.0
 10
5.2124419396
 20
-13.1035262353
 30
0.0
 10
5.8150330631
 20
-13.6038673447
 30
0.0
 10
6.367487034
 20
-13.883410833
 30
0.0
 10
6.8107635163
 20
-13.9928942804
 30
0.0
 10
7.1294809708
 20
-14.0152490127
 30
0.0
 10
7.435766793
 20
-13.9762426118
 30
0.0
 10
7.6268796875
 20
-13.9071447997
 30
0.0
 10
7.7159097953
 20
-13.8626072399
 30
0.0
  0
SPLINE
  5
399
100
AcDbEntity
  8
0
100
AcDbSpline
 62
7
  6
CONTINUOUS
 70
0
 71
3
 72
11
 73
7
 74
0
 42
0.0000001
 43
0.0000001
 44
0.0000000001
 40
0.0
 40
0.0
 40
0.0
 40
0.0
 40
0.2337242032
 40
0.4750151687
 40
0.7291749818
 40
1.0
 40
1.0
 40
1.0
 40
1.0
 10
4.5249409284
 20
-8.7984442387
 30
0.0
 10
4.4277077786
 20
-8.8740130639
 30
0.0
 10
4.2516997452
 20
-9.057354889
 30
0.0
 10
4.0665684544
 20
-9.3982922448
 30
0.0
 10
3.9586044699
 20
-9.7903424431
 30
0.0
 10
3.9370806617
 20
-10.0677346108
 30
0.0
 10
3.9370806617
 20
-10.2104284878
 30
0.0
  0
SPLINE
  5
39A
100
AcDbEntity
  8
0
100
AcDbSpline
 62
250
  6
CONTINUOUS
 70
0
 71
3
 72
23
 73
19
 74
0
 42
0.0000001
 43
0.0000001
 44
0.0000000001
 40
0.0
 40
0.0
 40
0.0
 40
0.0
 40
0.0655655519
 40
0.1362182788
 40
0.210561824
 40
0.2870116387
 40
0.3637332672
 40
0.438887317
 40
0.510767095
 40
0.5779487236
 40
0.6394781842
 40
0.6951020191
 40
0.7455146862
 40
0.7925325322
 40
0.8389185564
 40
0.8876196187
 40
0.9409434215
 40
1.0
 40
1.0
 40
1.0
 40
1.0
 10
8.1479773065
 20
-12.4847223972
 30
0.0
 10
8.1479773065
 20
-12.327260059
 30
0.0
 10
8.1180985436
 20
-11.999784827
 30
0.0
 10
7.998805221
 20
-11.5068858116
 30
0.0
 10
7.8073525508
 20
-11.0092130281
 30
0.0
 10
7.5511290589
 20
-10.5252055197
 30
0.0
 10
7.2393593706
 20
-10.0725957645
 30
0.0
 10
6.8836215506
 20
-9.6680756858
 30
0.0
 10
6.4969337622
 20
-9.3264770142
 30
0.0
 10
6.093186901
 20
-9.0603332805
 30
0.0
 10
5.6864676659
 20
-8.8795488157
 30
0.0
 10
5.2904420501
 20
-8.7914937214
 30
0.0
 10
4.9184345212
 20
-8.8019186982
 30
0.0
 10
4.5858162914
 20
-8.9150112517
 30
0.0
 10
4.3113180573
 20
-9.1280784041
 30
0.0
 10
4.1090589799
 20
-9.4278594751
 30
0.0
 10
3.9847777484
 20
-9.7980935776
 30
0.0
 10
3.95600467
 20
-10.068459234
 30
0.0
 10
3.952913467
 20
-10.2102559205
 30
0.0
  0
SPLINE
  5
39B
100
AcDbEntity
  8
0
100
AcDbSpline
 62
250
  6
CONTINUOUS
 70
0
 71
3
 72
12
 73
8
 74
0
 42
0.0000001
 43
0.0000001
 44
0.0000000001
 40
0.0
 40
0.0
 40
0.0
 40
0.0
 40
0.1113321615
 40
0.2300762953
 40
0.483245643
 40
0.7454264223
 40
1.0
 40
1.0
 40
1.0
 40
1.0
 10
8.4214524235
 20
-12.4429375441
 30
0.0
 10
8.4214524235
 20
-12.3086098695
 30
0.0
 10
8.4008615528
 20
-12.0307682294
 30
0.0
 10
8.2862918139
 20
-11.4579709632
 30
0.0
 10
8.0110175014
 20
-10.7376189441
 30
0.0
 10
7.5196440949
 20
-9.9437503536
 30
0.0
 10
7.0943205981
 20
-9.4808343344
 30
0.0
 10
6.8626580978
 20
-9.2791490915
 30
0.0
  0
SPLINE
  5
39C
100
AcDbEntity
  8
0
100
AcDbSpline
 62
250
  6
CONTINUOUS
 70
0
 71
3
 72
9
 73
5
 74
0
 42
0.0000001
 43
0.0000001
 44
0.0000000001
 40
0.0
 40
0.0
 40
0.0
 40
0.0
 40
0.5261579437
 40
1.0
 40
1.0
 40
1.0
 40
1.0
 10
6.8626580978
 20
-9.2791490915
 30
0.0
 10
6.6979934393
 20
-9.1357921323
 30
0.0
 10
6.3626769222
 20
-8.8875259118
 30
0.0
 10
5.9835116912
 20
-8.7090518997
 30
0.0
 10
5.7961044156
 20
-8.6495823808
 30
0.0
  0
SPLINE
  5
39D
100
AcDbEntity
  8
0
100
AcDbSpline
 62
250
  6
CONTINUOUS
 70
0
 71
3
 72
11
 73
7
 74
0
 42
0.0000001
 43
0.0000001
 44
0.0000000001
 40
0.0
 40
0.0
 40
0.0
 40
0.0
 40
0.2768918453
 40
0.531226455
 40
0.7691343388
 40
1.0
 40
1.0
 40
1.0
 40
1.0
 10
5.7688749261
 20
-8.6411379512
 30
0.0
 10
5.6539376018
 20
-8.6063237415
 30
0.0
 10
5.427067348
 20
-8.5577029185
 30
0.0
 10
5.0906249289
 20
-8.5572035839
 30
0.0
 10
4.7829918895
 20
-8.6341482525
 30
0.0
 10
4.603993536
 20
-8.7369872508
 30
0.0
 10
4.5249438093
 20
-8.7984484669
 30
0.0
  0
SPLINE
  5
39E
100
AcDbEntity
  8
0
100
AcDbSpline
 62
250
  6
CONTINUOUS
 70
0
 71
3
 72
23
 73
19
 74
0
 42
0.0000001
 43
0.0000001
 44
0.0000000001
 40
0.0
 40
0.0
 40
0.0
 40
0.0
 40
0.0597345028
 40
0.1136660306
 40
0.1627530657
 40
0.2092394535
 40
0.2560837866
 40
0.3061445903
 40
0.3613572193
 40
0.4225061351
 40
0.4893878075
 40
0.5610675924
 40
0.6361198743
 40
0.7128204119
 40
0.7893039244
 40
0.8637058263
 40
0.934410758
 40
1.0
 40
1.0
 40
1.0
 40
1.0
 10
8.1479773065
 20
-12.4847223972
 30
0.0
 10
8.1479773065
 20
-12.6292639117
 30
0.0
 10
8.1249033179
 20
-12.9053143119
 30
0.0
 10
8.0085390227
 20
-13.2853379092
 30
0.0
 10
7.8126348245
 20
-13.5956141228
 30
0.0
 10
7.5423644929
 20
-13.8194418856
 30
0.0
 10
7.2113754025
 20
-13.942491409
 30
0.0
 10
6.8389499299
 20
-13.9610840346
 30
0.0
 10
6.4411519611
 20
-13.87926772
 30
0.0
 10
6.0316352233
 20
-13.7028768718
 30
0.0
 10
5.6243093515
 20
-13.4393382009
 30
0.0
 10
5.2335449036
 20
-13.0986337946
 30
0.0
 10
4.8735733307
 20
-12.6934368479
 30
0.0
 10
4.5577543081
 20
-12.2388211805
 30
0.0
 10
4.2979859293
 20
-11.7518016601
 30
0.0
 10
4.1037588578
 20
-11.2504915336
 30
0.0
 10
3.9826742509
 20
-10.753734905
 30
0.0
 10
3.9523208981
 20
-10.4236007442
 30
0.0
 10
3.9523208981
 20
-10.2648923272
 30
0.0
  0
SPLINE
  5
39F
100
AcDbEntity
  8
0
100
AcDbSpline
 62
250
  6
CONTINUOUS
 70
0
 71
3
 72
13
 73
9
 74
0
 42
0.0000001
 43
0.0000001
 44
0.0000000001
 40
0.0
 40
0.0
 40
0.0
 40
0.0
 40
0.2859670454
 40
0.542797863
 40
0.6621168142
 40
0.7769140469
 40
0.8888925622
 40
1.0
 40
1.0
 40
1.0
 40
1.0
 10
8.4214524235
 20
-12.4429375441
 30
0.0
 10
8.4214524235
 20
-12.601956139
 30
0.0
 10
8.3952188158
 20
-12.9048936187
 30
0.0
 10
8.2803124053
 20
-13.259333427
 30
0.0
 10
8.1417603431
 20
-13.4956718127
 30
0.0
 10
8.019427839
 20
-13.6453314823
 30
0.0
 10
7.8776269072
 20
-13.7698940138
 30
0.0
 10
7.7711575413
 20
-13.8349527272
 30
0.0
 10
7.7158993742
 20
-13.862589309
 30
0.0
  0
SPLINE
  5
3A0
100
AcDbEntity
  8
ASSI
100
AcDbSpline
 62
7
  6
CONTINUOUS
 70
0
 71
3
 72
17
 73
13
 74
0
 42
0.0000001
 43
0.0000001
 44
0.0000000001
 40
0.0
 40
0.0
 40
0.0
 40
0.0
 40
0.1253437346
 40
0.2608824372
 40
0.4014393539
 40
0.5404051076
 40
0.6716179834
 40
0.791130619
 40
0.8464772768
 40
0.8992936688
 40
0.9501618945
 40
1.0
 40
1.0
 40
1.0
 40
1.0
 10
3.9370806617
 20
-10.2104284878
 30
0.0
 10
3.9370806617
 20
-10.4607953988
 30
0.0
 10
4.0076580771
 20
-10.9827271845
 30
0.0
 10
4.2753465154
 20
-11.7430784225
 30
0.0
 10
4.6869633814
 20
-12.4676887137
 30
0.0
 10
5.2124419396
 20
-13.1035262353
 30
0.0
 10
5.8150330631
 20
-13.6038673447
 30
0.0
 10
6.367487034
 20
-13.883410833
 30
0.0
 10
6.8107635163
 20
-13.9928942804
 30
0.0
 10
7.1294809708
 20
-14.0152490127
 30
0.0
 10
7.435766793
 20
-13.9762426118
 30
0.0
 10
7.6268796875
 20
-13.9071447997
 30
0.0
 10
7.7159097953
 20
-13.8626072399
 30
0.0
  0
SPLINE
  5
3A1
100
AcDbEntity
  8
ASSI
100
AcDbSpline
 62
7
  6
CONTINUOUS
 70
0
 71
3
 72
11
 73
7
 74
0
 42
0.0000001
 43
0.0000001
 44
0.0000000001
 40
0.0
 40
0.0
 40
0.0
 40
0.0
 40
0.2337242032
 40
0.4750151687
 40
0.7291749818
 40
1.0
 40
1.0
 40
1.0
 40
1.0
 10
4.5249409284
 20
-8.7984442387
 30
0.0
 10
4.4277077786
 20
-8.8740130639
 30
0.0
 10
4.2516997452
 20
-9.057354889
 30
0.0
 10
4.0665684544
 20
-9.3982922448
 30
0.0
 10
3.9586044699
 20
-9.7903424431
 30
0.0
 10
3.9370806617
 20
-10.0677346108
 30
0.0
 10
3.9370806617
 20
-10.2104284878
 30
0.0
  0
SPLINE
  5
3A2
100
AcDbEntity
  8
ASSI
100
AcDbSpline
 62
250
  6
CONTINUOUS
 70
0
 71
3
 72
23
 73
19
 74
0
 42
0.0000001
 43
0.0000001
 44
0.0000000001
 40
0.0
 40
0.0
 40
0.0
 40
0.0
 40
0.0655655519
 40
0.1362182788
 40
0.210561824
 40
0.2870116387
 40
0.3637332672
 40
0.438887317
 40
0.510767095
 40
0.5779487236
 40
0.6394781842
 40
0.6951020191
 40
0.7455146862
 40
0.7925325322
 40
0.8389185564
 40
0.8876196187
 40
0.9409434215
 40
1.0
 40
1.0
 40
1.0
 40
1.0
 10
8.1479773065
 20
-12.4847223972
 30
0.0
 10
8.1479773065
 20
-12.327260059
 30
0.0
 10
8.1180985436
 20
-11.999784827
 30
0.0
 10
7.998805221
 20
-11.5068858116
 30
0.0
 10
7.8073525508
 20
-11.0092130281
 30
0.0
 10
7.5511290589
 20
-10.5252055197
 30
0.0
 10
7.2393593706
 20
-10.0725957645
 30
0.0
 10
6.8836215506
 20
-9.6680756858
 30
0.0
 10
6.4969337622
 20
-9.3264770142
 30
0.0
 10
6.093186901
 20
-9.0603332805
 30
0.0
 10
5.6864676659
 20
-8.8795488157
 30
0.0
 10
5.2904420501
 20
-8.7914937214
 30
0.0
 10
4.9184345212
 20
-8.8019186982
 30
0.0
 10
4.5858162914
 20
-8.9150112517
 30
0.0
 10
4.3113180573
 20
-9.1280784041
 30
0.0
 10
4.1090589799
 20
-9.4278594751
 30
0.0
 10
3.9847777484
 20
-9.7980935776
 30
0.0
 10
3.95600467
 20
-10.068459234
 30
0.0
 10
3.952913467
 20
-10.2102559205
 30
0.0
  0
SPLINE
  5
3A3
100
AcDbEntity
  8
ASSI
100
AcDbSpline
 62
250
  6
CONTINUOUS
 70
0
 71
3
 72
12
 73
8
 74
0
 42
0.0000001
 43
0.0000001
 44
0.0000000001
 40
0.0
 40
0.0
 40
0.0
 40
0.0
 40
0.1113321615
 40
0.2300762953
 40
0.483245643
 40
0.7454264223
 40
1.0
 40
1.0
 40
1.0
 40
1.0
 10
8.4214524235
 20
-12.4429375441
 30
0.0
 10
8.4214524235
 20
-12.3086098695
 30
0.0
 10
8.4008615528
 20
-12.0307682294
 30
0.0
 10
8.2862918139
 20
-11.4579709632
 30
0.0
 10
8.0110175014
 20
-10.7376189441
 30
0.0
 10
7.5196440949
 20
-9.9437503536
 30
0.0
 10
7.0943205981
 20
-9.4808343344
 30
0.0
 10
6.8626580978
 20
-9.2791490915
 30
0.0
  0
SPLINE
  5
3A4
100
AcDbEntity
  8
ASSI
100
AcDbSpline
 62
250
  6
CONTINUOUS
 70
0
 71
3
 72
9
 73
5
 74
0
 42
0.0000001
 43
0.0000001
 44
0.0000000001
 40
0.0
 40
0.0
 40
0.0
 40
0.0
 40
0.5261579437
 40
1.0
 40
1.0
 40
1.0
 40
1.0
 10
6.8626580978
 20
-9.2791490915
 30
0.0
 10
6.6979934393
 20
-9.1357921323
 30
0.0
 10
6.3626769222
 20
-8.8875259118
 30
0.0
 10
5.9835116912
 20
-8.7090518997
 30
0.0
 10
5.7961044156
 20
-8.6495823808
 30
0.0
  0
SPLINE
  5
3A5
100
AcDbEntity
  8
ASSI
100
AcDbSpline
 62
250
  6
CONTINUOUS
 70
0
 71
3
 72
11
 73
7
 74
0
 42
0.0000001
 43
0.0000001
 44
0.0000000001
 40
0.0
 40
0.0
 40
0.0
 40
0.0
 40
0.2768918453
 40
0.531226455
 40
0.7691343388
 40
1.0
 40
1.0
 40
1.0
 40
1.0
 10
5.7688749261
 20
-8.6411379512
 30
0.0
 10
5.6539376018
 20
-8.6063237415
 30
0.0
 10
5.427067348
 20
-8.5577029185
 30
0.0
 10
5.0906249289
 20
-8.5572035839
 30
0.0
 10
4.7829918895
 20
-8.6341482525
 30
0.0
 10
4.603993536
 20
-8.7369872508
 30
0.0
 10
4.5249438093
 20
-8.7984484669
 30
0.0
  0
SPLINE
  5
3A6
100
AcDbEntity
  8
ASSI
100
AcDbSpline
 62
250
  6
CONTINUOUS
 70
0
 71
3
 72
23
 73
19
 74
0
 42
0.0000001
 43
0.0000001
 44
0.0000000001
 40
0.0
 40
0.0
 40
0.0
 40
0.0
 40
0.0597345028
 40
0.1136660306
 40
0.1627530657
 40
0.2092394535
 40
0.2560837866
 40
0.3061445903
 40
0.3613572193
 40
0.4225061351
 40
0.4893878075
 40
0.5610675924
 40
0.6361198743
 40
0.7128204119
 40
0.7893039244
 40
0.8637058263
 40
0.934410758
 40
1.0
 40
1.0
 40
1.0
 40
1.0
 10
8.1479773065
 20
-12.4847223972
 30
0.0
 10
8.1479773065
 20
-12.6292639117
 30
0.0
 10
8.1249033179
 20
-12.9053143119
 30
0.0
 10
8.0085390227
 20
-13.2853379092
 30
0.0
 10
7.8126348245
 20
-13.5956141228
 30
0.0
 10
7.5423644929
 20
-13.8194418856
 30
0.0
 10
7.2113754025
 20
-13.942491409
 30
0.0
 10
6.8389499299
 20
-13.9610840346
 30
0.0
 10
6.4411519611
 20
-13.87926772
 30
0.0
 10
6.0316352233
 20
-13.7028768718
 30
0.0
 10
5.6243093515
 20
-13.4393382009
 30
0.0
 10
5.2335449036
 20
-13.0986337946
 30
0.0
 10
4.8735733307
 20
-12.6934368479
 30
0.0
 10
4.5577543081
 20
-12.2388211805
 30
0.0
 10
4.2979859293
 20
-11.7518016601
 30
0.0
 10
4.1037588578
 20
-11.2504915336
 30
0.0
 10
3.9826742509
 20
-10.753734905
 30
0.0
 10
3.9523208981
 20
-10.4236007442
 30
0.0
 10
3.9523208981
 20
-10.2648923272
 30
0.0
  0
SPLINE
  5
3A7
100
AcDbEntity
  8
ASSI
100
AcDbSpline
 62
250
  6
CONTINUOUS
 70
0
 71
3
 72
13
 73
9
 74
0
 42
0.0000001
 43
0.0000001
 44
0.0000000001
 40
0.0
 40
0.0
 40
0.0
 40
0.0
 40
0.2859670454
 40
0.542797863
 40
0.6621168142
 40
0.7769140469
 40
0.8888925622
 40
1.0
 40
1.0
 40
1.0
 40
1.0
 10
8.4214524235
 20
-12.4429375441
 30
0.0
 10
8.4214524235
 20
-12.601956139
 30
0.0
 10
8.3952188158
 20
-12.9048936187
 30
0.0
 10
8.2803124053
 20
-13.259333427
 30
0.0
 10
8.1417603431
 20
-13.4956718127
 30
0.0
 10
8.019427839
 20
-13.6453314823
 30
0.0
 10
7.8776269072
 20
-13.7698940138
 30
0.0
 10
7.7711575413
 20
-13.8349527272
 30
0.0
 10
7.7158993742
 20
-13.862589309
 30
0.0
  0
SPLINE
  5
3A8
100
AcDbEntity
  8
0
100
AcDbSpline
 62
7
  6
CONTINUOUS
 70
0
 71
3
 72
17
 73
13
 74
0
 42
0.0000001
 43
0.0000001
 44
0.0000000001
 40
0.0
 40
0.0
 40
0.0
 40
0.0
 40
0.1253437346
 40
0.2608824372
 40
0.4014393539
 40
0.5404051076
 40
0.6716179834
 40
0.791130619
 40
0.8464772768
 40
0.8992936688
 40
0.9501618945
 40
1.0
 40
1.0
 40
1.0
 40
1.0
 10
3.9370806617
 20
-0.0045500278
 30
0.0
 10
3.9370806617
 20
-0.2549169389
 30
0.0
 10
4.0076580771
 20
-0.7768487246
 30
0.0
 10
4.2753465154
 20
-1.5371999626
 30
0.0
 10
4.6869633814
 20
-2.2618102538
 30
0.0
 10
5.2124419396
 20
-2.8976477754
 30
0.0
 10
5.8150330631
 20
-3.3979888848
 30
0.0
 10
6.367487034
 20
-3.6775323731
 30
0.0
 10
6.8107635163
 20
-3.7870158205
 30
0.0
 10
7.1294809708
 20
-3.8093705528
 30
0.0
 10
7.435766793
 20
-3.7703641519
 30
0.0
 10
7.6268796875
 20
-3.7012663398
 30
0.0
 10
7.7159097953
 20
-3.65672878
 30
0.0
  0
SPLINE
  5
3A9
100
AcDbEntity
  8
0
100
AcDbSpline
 62
7
  6
CONTINUOUS
 70
0
 71
3
 72
11
 73
7
 74
0
 42
0.0000001
 43
0.0000001
 44
0.0000000001
 40
0.0
 40
0.0
 40
0.0
 40
0.0
 40
0.2337242032
 40
0.4750151687
 40
0.7291749818
 40
1.0
 40
1.0
 40
1.0
 40
1.0
 10
4.5249409284
 20
1.4074342213
 30
0.0
 10
4.4277077786
 20
1.331865396
 30
0.0
 10
4.2516997452
 20
1.1485235709
 30
0.0
 10
4.0665684544
 20
0.8075862151
 30
0.0
 10
3.9586044699
 20
0.4155360168
 30
0.0
 10
3.9370806617
 20
0.1381438491
 30
0.0
 10
3.9370806617
 20
-0.0045500278
 30
0.0
  0
SPLINE
  5
3AA
100
AcDbEntity
  8
0
100
AcDbSpline
 62
250
  6
CONTINUOUS
 70
0
 71
3
 72
23
 73
19
 74
0
 42
0.0000001
 43
0.0000001
 44
0.0000000001
 40
0.0
 40
0.0
 40
0.0
 40
0.0
 40
0.0655655519
 40
0.1362182788
 40
0.210561824
 40
0.2870116387
 40
0.3637332672
 40
0.438887317
 40
0.510767095
 40
0.5779487236
 40
0.6394781842
 40
0.6951020191
 40
0.7455146862
 40
0.7925325322
 40
0.8389185564
 40
0.8876196187
 40
0.9409434215
 40
1.0
 40
1.0
 40
1.0
 40
1.0
 10
8.1479773065
 20
-2.2788439372
 30
0.0
 10
8.1479773065
 20
-2.1213815991
 30
0.0
 10
8.1180985436
 20
-1.7939063671
 30
0.0
 10
7.998805221
 20
-1.3010073517
 30
0.0
 10
7.8073525508
 20
-0.8033345682
 30
0.0
 10
7.5511290589
 20
-0.3193270598
 30
0.0
 10
7.2393593706
 20
0.1332826954
 30
0.0
 10
6.8836215506
 20
0.5378027741
 30
0.0
 10
6.4969337622
 20
0.8794014457
 30
0.0
 10
6.093186901
 20
1.1455451794
 30
0.0
 10
5.6864676659
 20
1.3263296442
 30
0.0
 10
5.2904420501
 20
1.4143847386
 30
0.0
 10
4.9184345212
 20
1.4039597617
 30
0.0
 10
4.5858162914
 20
1.2908672082
 30
0.0
 10
4.3113180573
 20
1.0778000558
 30
0.0
 10
4.1090589799
 20
0.7780189848
 30
0.0
 10
3.9847777484
 20
0.4077848823
 30
0.0
 10
3.95600467
 20
0.1374192259
 30
0.0
 10
3.952913467
 20
-0.0043774606
 30
0.0
  0
SPLINE
  5
3AB
100
AcDbEntity
  8
0
100
AcDbSpline
 62
250
  6
CONTINUOUS
 70
0
 71
3
 72
12
 73
8
 74
0
 42
0.0000001
 43
0.0000001
 44
0.0000000001
 40
0.0
 40
0.0
 40
0.0
 40
0.0
 40
0.1113321615
 40
0.2300762953
 40
0.483245643
 40
0.7454264223
 40
1.0
 40
1.0
 40
1.0
 40
1.0
 10
8.4214524235
 20
-2.2370590841
 30
0.0
 10
8.4214524235
 20
-2.1027314096
 30
0.0
 10
8.4008615528
 20
-1.8248897694
 30
0.0
 10
8.2862918139
 20
-1.2520925033
 30
0.0
 10
8.0110175014
 20
-0.5317404842
 30
0.0
 10
7.5196440949
 20
0.2621281063
 30
0.0
 10
7.0943205981
 20
0.7250441256
 30
0.0
 10
6.8626580978
 20
0.9267293684
 30
0.0
  0
SPLINE
  5
3AC
100
AcDbEntity
  8
0
100
AcDbSpline
 62
250
  6
CONTINUOUS
 70
0
 71
3
 72
9
 73
5
 74
0
 42
0.0000001
 43
0.0000001
 44
0.0000000001
 40
0.0
 40
0.0
 40
0.0
 40
0.0
 40
0.5261579437
 40
1.0
 40
1.0
 40
1.0
 40
1.0
 10
6.8626580978
 20
0.9267293684
 30
0.0
 10
6.6979934393
 20
1.0700863276
 30
0.0
 10
6.3626769222
 20
1.3183525481
 30
0.0
 10
5.9835116912
 20
1.4968265602
 30
0.0
 10
5.7961044156
 20
1.5562960791
 30
0.0
  0
SPLINE
  5
3AD
100
AcDbEntity
  8
0
100
AcDbSpline
 62
250
  6
CONTINUOUS
 70
0
 71
3
 72
11
 73
7
 74
0
 42
0.0000001
 43
0.0000001
 44
0.0000000001
 40
0.0
 40
0.0
 40
0.0
 40
0.0
 40
0.2768918453
 40
0.531226455
 40
0.7691343388
 40
1.0
 40
1.0
 40
1.0
 40
1.0
 10
5.7688749261
 20
1.5647405087
 30
0.0
 10
5.6539376018
 20
1.5995547184
 30
0.0
 10
5.427067348
 20
1.6481755414
 30
0.0
 10
5.0906249289
 20
1.648674876
 30
0.0
 10
4.7829918895
 20
1.5717302074
 30
0.0
 10
4.603993536
 20
1.4688912091
 30
0.0
 10
4.5249438093
 20
1.407429993
 30
0.0
  0
SPLINE
  5
3AE
100
AcDbEntity
  8
0
100
AcDbSpline
 62
250
  6
CONTINUOUS
 70
0
 71
3
 72
23
 73
19
 74
0
 42
0.0000001
 43
0.0000001
 44
0.0000000001
 40
0.0
 40
0.0
 40
0.0
 40
0.0
 40
0.0597345028
 40
0.1136660306
 40
0.1627530657
 40
0.2092394535
 40
0.2560837866
 40
0.3061445903
 40
0.3613572193
 40
0.4225061351
 40
0.4893878075
 40
0.5610675924
 40
0.6361198743
 40
0.7128204119
 40
0.7893039244
 40
0.8637058263
 40
0.934410758
 40
1.0
 40
1.0
 40
1.0
 40
1.0
 10
8.1479773065
 20
-2.2788439372
 30
0.0
 10
8.1479773065
 20
-2.4233854518
 30
0.0
 10
8.1249033179
 20
-2.699435852
 30
0.0
 10
8.0085390227
 20
-3.0794594493
 30
0.0
 10
7.8126348245
 20
-3.3897356629
 30
0.0
 10
7.5423644929
 20
-3.6135634257
 30
0.0
 10
7.2113754025
 20
-3.7366129491
 30
0.0
 10
6.8389499299
 20
-3.7552055747
 30
0.0
 10
6.4411519611
 20
-3.67338926
 30
0.0
 10
6.0316352233
 20
-3.4969984119
 30
0.0
 10
5.6243093515
 20
-3.233459741
 30
0.0
 10
5.2335449036
 20
-2.8927553347
 30
0.0
 10
4.8735733307
 20
-2.487558388
 30
0.0
 10
4.5577543081
 20
-2.0329427205
 30
0.0
 10
4.2979859293
 20
-1.5459232002
 30
0.0
 10
4.1037588578
 20
-1.0446130737
 30
0.0
 10
3.9826742509
 20
-0.5478564451
 30
0.0
 10
3.9523208981
 20
-0.2177222843
 30
0.0
 10
3.9523208981
 20
-0.0590138673
 30
0.0
  0
SPLINE
  5
3AF
100
AcDbEntity
  8
0
100
AcDbSpline
 62
250
  6
CONTINUOUS
 70
0
 71
3
 72
13
 73
9
 74
0
 42
0.0000001
 43
0.0000001
 44
0.0000000001
 40
0.0
 40
0.0
 40
0.0
 40
0.0
 40
0.2859670454
 40
0.542797863
 40
0.6621168142
 40
0.7769140469
 40
0.8888925622
 40
1.0
 40
1.0
 40
1.0
 40
1.0
 10
8.4214524235
 20
-2.2370590841
 30
0.0
 10
8.4214524235
 20
-2.3960776791
 30
0.0
 10
8.3952188158
 20
-2.6990151588
 30
0.0
 10
8.2803124053
 20
-3.0534549671
 30
0.0
 10
8.1417603431
 20
-3.2897933528
 30
0.0
 10
8.019427839
 20
-3.4394530224
 30
0.0
 10
7.8776269072
 20
-3.5640155539
 30
0.0
 10
7.7711575413
 20
-3.6290742673
 30
0.0
 10
7.7158993742
 20
-3.6567108491
 30
0.0
  0
SPLINE
  5
3B0
100
AcDbEntity
  8
ASSI
100
AcDbSpline
 62
7
  6
CONTINUOUS
 70
0
 71
3
 72
17
 73
13
 74
0
 42
0.0000001
 43
0.0000001
 44
0.0000000001
 40
0.0
 40
0.0
 40
0.0
 40
0.0
 40
0.1253437346
 40
0.2608824372
 40
0.4014393539
 40
0.5404051076
 40
0.6716179834
 40
0.791130619
 40
0.8464772768
 40
0.8992936688
 40
0.9501618945
 40
1.0
 40
1.0
 40
1.0
 40
1.0
 10
3.9370806617
 20
-0.0045500278
 30
0.0
 10
3.9370806617
 20
-0.2549169389
 30
0.0
 10
4.0076580771
 20
-0.7768487246
 30
0.0
 10
4.2753465154
 20
-1.5371999626
 30
0.0
 10
4.6869633814
 20
-2.2618102538
 30
0.0
 10
5.2124419396
 20
-2.8976477754
 30
0.0
 10
5.8150330631
 20
-3.3979888848
 30
0.0
 10
6.367487034
 20
-3.6775323731
 30
0.0
 10
6.8107635163
 20
-3.7870158205
 30
0.0
 10
7.1294809708
 20
-3.8093705528
 30
0.0
 10
7.435766793
 20
-3.7703641519
 30
0.0
 10
7.6268796875
 20
-3.7012663398
 30
0.0
 10
7.7159097953
 20
-3.65672878
 30
0.0
  0
SPLINE
  5
3B1
100
AcDbEntity
  8
ASSI
100
AcDbSpline
 62
7
  6
CONTINUOUS
 70
0
 71
3
 72
11
 73
7
 74
0
 42
0.0000001
 43
0.0000001
 44
0.0000000001
 40
0.0
 40
0.0
 40
0.0
 40
0.0
 40
0.2337242032
 40
0.4750151687
 40
0.7291749818
 40
1.0
 40
1.0
 40
1.0
 40
1.0
 10
4.5249409284
 20
1.4074342213
 30
0.0
 10
4.4277077786
 20
1.331865396
 30
0.0
 10
4.2516997452
 20
1.1485235709
 30
0.0
 10
4.0665684544
 20
0.8075862151
 30
0.0
 10
3.9586044699
 20
0.4155360168
 30
0.0
 10
3.9370806617
 20
0.1381438491
 30
0.0
 10
3.9370806617
 20
-0.0045500278
 30
0.0
  0
SPLINE
  5
3B2
100
AcDbEntity
  8
ASSI
100
AcDbSpline
 62
250
  6
CONTINUOUS
 70
0
 71
3
 72
23
 73
19
 74
0
 42
0.0000001
 43
0.0000001
 44
0.0000000001
 40
0.0
 40
0.0
 40
0.0
 40
0.0
 40
0.0655655519
 40
0.1362182788
 40
0.210561824
 40
0.2870116387
 40
0.3637332672
 40
0.438887317
 40
0.510767095
 40
0.5779487236
 40
0.6394781842
 40
0.6951020191
 40
0.7455146862
 40
0.7925325322
 40
0.8389185564
 40
0.8876196187
 40
0.9409434215
 40
1.0
 40
1.0
 40
1.0
 40
1.0
 10
8.1479773065
 20
-2.2788439372
 30
0.0
 10
8.1479773065
 20
-2.1213815991
 30
0.0
 10
8.1180985436
 20
-1.7939063671
 30
0.0
 10
7.998805221
 20
-1.3010073517
 30
0.0
 10
7.8073525508
 20
-0.8033345682
 30
0.0
 10
7.5511290589
 20
-0.3193270598
 30
0.0
 10
7.2393593706
 20
0.1332826954
 30
0.0
 10
6.8836215506
 20
0.5378027741
 30
0.0
 10
6.4969337622
 20
0.8794014457
 30
0.0
 10
6.093186901
 20
1.1455451794
 30
0.0
 10
5.6864676659
 20
1.3263296442
 30
0.0
 10
5.2904420501
 20
1.4143847386
 30
0.0
 10
4.9184345212
 20
1.4039597617
 30
0.0
 10
4.5858162914
 20
1.2908672082
 30
0.0
 10
4.3113180573
 20
1.0778000558
 30
0.0
 10
4.1090589799
 20
0.7780189848
 30
0.0
 10
3.9847777484
 20
0.4077848823
 30
0.0
 10
3.95600467
 20
0.1374192259
 30
0.0
 10
3.952913467
 20
-0.0043774606
 30
0.0
  0
SPLINE
  5
3B3
100
AcDbEntity
  8
ASSI
100
AcDbSpline
 62
250
  6
CONTINUOUS
 70
0
 71
3
 72
12
 73
8
 74
0
 42
0.0000001
 43
0.0000001
 44
0.0000000001
 40
0.0
 40
0.0
 40
0.0
 40
0.0
 40
0.1113321615
 40
0.2300762953
 40
0.483245643
 40
0.7454264223
 40
1.0
 40
1.0
 40
1.0
 40
1.0
 10
8.4214524235
 20
-2.2370590841
 30
0.0
 10
8.4214524235
 20
-2.1027314096
 30
0.0
 10
8.4008615528
 20
-1.8248897694
 30
0.0
 10
8.2862918139
 20
-1.2520925033
 30
0.0
 10
8.0110175014
 20
-0.5317404842
 30
0.0
 10
7.5196440949
 20
0.2621281063
 30
0.0
 10
7.0943205981
 20
0.7250441256
 30
0.0
 10
6.8626580978
 20
0.9267293684
 30
0.0
  0
SPLINE
  5
3B4
100
AcDbEntity
  8
ASSI
100
AcDbSpline
 62
250
  6
CONTINUOUS
 70
0
 71
3
 72
9
 73
5
 74
0
 42
0.0000001
 43
0.0000001
 44
0.0000000001
 40
0.0
 40
0.0
 40
0.0
 40
0.0
 40
0.5261579437
 40
1.0
 40
1.0
 40
1.0
 40
1.0
 10
6.8626580978
 20
0.9267293684
 30
0.0
 10
6.6979934393
 20
1.0700863276
 30
0.0
 10
6.3626769222
 20
1.3183525481
 30
0.0
 10
5.9835116912
 20
1.4968265602
 30
0.0
 10
5.7961044156
 20
1.5562960791
 30
0.0
  0
SPLINE
  5
3B5
100
AcDbEntity
  8
ASSI
100
AcDbSpline
 62
250
  6
CONTINUOUS
 70
0
 71
3
 72
11
 73
7
 74
0
 42
0.0000001
 43
0.0000001
 44
0.0000000001
 40
0.0
 40
0.0
 40
0.0
 40
0.0
 40
0.2768918453
 40
0.531226455
 40
0.7691343388
 40
1.0
 40
1.0
 40
1.0
 40
1.0
 10
5.7688749261
 20
1.5647405087
 30
0.0
 10
5.6539376018
 20
1.5995547184
 30
0.0
 10
5.427067348
 20
1.6481755414
 30
0.0
 10
5.0906249289
 20
1.648674876
 30
0.0
 10
4.7829918895
 20
1.5717302074
 30
0.0
 10
4.603993536
 20
1.4688912091
 30
0.0
 10
4.5249438093
 20
1.407429993
 30
0.0
  0
SPLINE
  5
3B6
100
AcDbEntity
  8
ASSI
100
AcDbSpline
 62
250
  6
CONTINUOUS
 70
0
 71
3
 72
23
 73
19
 74
0
 42
0.0000001
 43
0.0000001
 44
0.0000000001
 40
0.0
 40
0.0
 40
0.0
 40
0.0
 40
0.0597345028
 40
0.1136660306
 40
0.1627530657
 40
0.2092394535
 40
0.2560837866
 40
0.3061445903
 40
0.3613572193
 40
0.4225061351
 40
0.4893878075
 40
0.5610675924
 40
0.6361198743
 40
0.7128204119
 40
0.7893039244
 40
0.8637058263
 40
0.934410758
 40
1.0
 40
1.0
 40
1.0
 40
1.0
 10
8.1479773065
 20
-2.2788439372
 30
0.0
 10
8.1479773065
 20
-2.4233854518
 30
0.0
 10
8.1249033179
 20
-2.699435852
 30
0.0
 10
8.0085390227
 20
-3.0794594493
 30
0.0
 10
7.8126348245
 20
-3.3897356629
 30
0.0
 10
7.5423644929
 20
-3.6135634257
 30
0.0
 10
7.2113754025
 20
-3.7366129491
 30
0.0
 10
6.8389499299
 20
-3.7552055747
 30
0.0
 10
6.4411519611
 20
-3.67338926
 30
0.0
 10
6.0316352233
 20
-3.4969984119
 30
0.0
 10
5.6243093515
 20
-3.233459741
 30
0.0
 10
5.2335449036
 20
-2.8927553347
 30
0.0
 10
4.8735733307
 20
-2.487558388
 30
0.0
 10
4.5577543081
 20
-2.0329427205
 30
0.0
 10
4.2979859293
 20
-1.5459232002
 30
0.0
 10
4.1037588578
 20
-1.0446130737
 30
0.0
 10
3.9826742509
 20
-0.5478564451
 30
0.0
 10
3.9523208981
 20
-0.2177222843
 30
0.0
 10
3.9523208981
 20
-0.0590138673
 30
0.0
  0
SPLINE
  5
3B7
100
AcDbEntity
  8
ASSI
100
AcDbSpline
 62
250
  6
CONTINUOUS
 70
0
 71
3
 72
13
 73
9
 74
0
 42
0.0000001
 43
0.0000001
 44
0.0000000001
 40
0.0
 40
0.0
 40
0.0
 40
0.0
 40
0.2859670454
 40
0.542797863
 40
0.6621168142
 40
0.7769140469
 40
0.8888925622
 40
1.0
 40
1.0
 40
1.0
 40
1.0
 10
8.4214524235
 20
-2.2370590841
 30
0.0
 10
8.4214524235
 20
-2.3960776791
 30
0.0
 10
8.3952188158
 20
-2.6990151588
 30
0.0
 10
8.2803124053
 20
-3.0534549671
 30
0.0
 10
8.1417603431
 20
-3.2897933528
 30
0.0
 10
8.019427839
 20
-3.4394530224
 30
0.0
 10
7.8776269072
 20
-3.5640155539
 30
0.0
 10
7.7711575413
 20
-3.6290742673
 30
0.0
 10
7.7158993742
 20
-3.6567108491
 30
0.0
  0
SPLINE
  5
3B8
100
AcDbEntity
  8
0
100
AcDbSpline
 62
7
  6
CONTINUOUS
 70
0
 71
3
 72
17
 73
13
 74
0
 42
0.0000001
 43
0.0000001
 44
0.0000000001
 40
0.0
 40
0.0
 40
0.0
 40
0.0
 40
0.1253437346
 40
0.2608824372
 40
0.4014393539
 40
0.5404051076
 40
0.6716179834
 40
0.791130619
 40
0.8464772768
 40
0.8992936688
 40
0.9501618945
 40
1.0
 40
1.0
 40
1.0
 40
1.0
 10
3.9370806617
 20
10.2013284321
 30
0.0
 10
3.9370806617
 20
9.950961521
 30
0.0
 10
4.0076580771
 20
9.4290297353
 30
0.0
 10
4.2753465154
 20
8.6686784973
 30
0.0
 10
4.6869633814
 20
7.9440682061
 30
0.0
 10
5.2124419396
 20
7.3082306845
 30
0.0
 10
5.8150330631
 20
6.8078895751
 30
0.0
 10
6.367487034
 20
6.5283460868
 30
0.0
 10
6.8107635163
 20
6.4188626394
 30
0.0
 10
7.1294809708
 20
6.3965079071
 30
0.0
 10
7.435766793
 20
6.435514308
 30
0.0
 10
7.6268796875
 20
6.5046121201
 30
0.0
 10
7.7159097953
 20
6.54914968
 30
0.0
  0
SPLINE
  5
3B9
100
AcDbEntity
  8
0
100
AcDbSpline
 62
7
  6
CONTINUOUS
 70
0
 71
3
 72
11
 73
7
 74
0
 42
0.0000001
 43
0.0000001
 44
0.0000000001
 40
0.0
 40
0.0
 40
0.0
 40
0.0
 40
0.2337242032
 40
0.4750151687
 40
0.7291749818
 40
1.0
 40
1.0
 40
1.0
 40
1.0
 10
4.5249409284
 20
11.6133126812
 30
0.0
 10
4.4277077786
 20
11.537743856
 30
0.0
 10
4.2516997452
 20
11.3544020308
 30
0.0
 10
4.0665684544
 20
11.013464675
 30
0.0
 10
3.9586044699
 20
10.6214144767
 30
0.0
 10
3.9370806617
 20
10.344022309
 30
0.0
 10
3.9370806617
 20
10.2013284321
 30
0.0
  0
SPLINE
  5
3BA
100
AcDbEntity
  8
0
100
AcDbSpline
 62
250
  6
CONTINUOUS
 70
0
 71
3
 72
23
 73
19
 74
0
 42
0.0000001
 43
0.0000001
 44
0.0000000001
 40
0.0
 40
0.0
 40
0.0
 40
0.0
 40
0.0655655519
 40
0.1362182788
 40
0.210561824
 40
0.2870116387
 40
0.3637332672
 40
0.438887317
 40
0.510767095
 40
0.5779487236
 40
0.6394781842
 40
0.6951020191
 40
0.7455146862
 40
0.7925325322
 40
0.8389185564
 40
0.8876196187
 40
0.9409434215
 40
1.0
 40
1.0
 40
1.0
 40
1.0
 10
8.1479773065
 20
7.9270345227
 30
0.0
 10
8.1479773065
 20
8.0844968608
 30
0.0
 10
8.1180985436
 20
8.4119720928
 30
0.0
 10
7.998805221
 20
8.9048711082
 30
0.0
 10
7.8073525508
 20
9.4025438917
 30
0.0
 10
7.5511290589
 20
9.8865514001
 30
0.0
 10
7.2393593706
 20
10.3391611553
 30
0.0
 10
6.8836215506
 20
10.743681234
 30
0.0
 10
6.4969337622
 20
11.0852799056
 30
0.0
 10
6.093186901
 20
11.3514236393
 30
0.0
 10
5.6864676659
 20
11.5322081041
 30
0.0
 10
5.2904420501
 20
11.6202631985
 30
0.0
 10
4.9184345212
 20
11.6098382216
 30
0.0
 10
4.5858162914
 20
11.4967456681
 30
0.0
 10
4.3113180573
 20
11.2836785157
 30
0.0
 10
4.1090589799
 20
10.9838974448
 30
0.0
 10
3.9847777484
 20
10.6136633422
 30
0.0
 10
3.95600467
 20
10.3432976858
 30
0.0
 10
3.952913467
 20
10.2015009993
 30
0.0
  0
SPLINE
  5
3BB
100
AcDbEntity
  8
0
100
AcDbSpline
 62
250
  6
CONTINUOUS
 70
0
 71
3
 72
12
 73
8
 74
0
 42
0.0000001
 43
0.0000001
 44
0.0000000001
 40
0.0
 40
0.0
 40
0.0
 40
0.0
 40
0.1113321615
 40
0.2300762953
 40
0.483245643
 40
0.7454264223
 40
1.0
 40
1.0
 40
1.0
 40
1.0
 10
8.4214524235
 20
7.9688193758
 30
0.0
 10
8.4214524235
 20
8.1031470503
 30
0.0
 10
8.4008615528
 20
8.3809886905
 30
0.0
 10
8.2862918139
 20
8.9537859566
 30
0.0
 10
8.0110175014
 20
9.6741379757
 30
0.0
 10
7.5196440949
 20
10.4680065662
 30
0.0
 10
7.0943205981
 20
10.9309225855
 30
0.0
 10
6.8626580978
 20
11.1326078283
 30
0.0
  0
SPLINE
  5
3BC
100
AcDbEntity
  8
0
100
AcDbSpline
 62
250
  6
CONTINUOUS
 70
0
 71
3
 72
9
 73
5
 74
0
 42
0.0000001
 43
0.0000001
 44
0.0000000001
 40
0.0
 40
0.0
 40
0.0
 40
0.0
 40
0.5261579437
 40
1.0
 40
1.0
 40
1.0
 40
1.0
 10
6.8626580978
 20
11.1326078283
 30
0.0
 10
6.6979934393
 20
11.2759647875
 30
0.0
 10
6.3626769222
 20
11.524231008
 30
0.0
 10
5.9835116912
 20
11.7027050202
 30
0.0
 10
5.7961044156
 20
11.762174539
 30
0.0
  0
SPLINE
  5
3BD
100
AcDbEntity
  8
0
100
AcDbSpline
 62
250
  6
CONTINUOUS
 70
0
 71
3
 72
11
 73
7
 74
0
 42
0.0000001
 43
0.0000001
 44
0.0000000001
 40
0.0
 40
0.0
 40
0.0
 40
0.0
 40
0.2768918453
 40
0.531226455
 40
0.7691343388
 40
1.0
 40
1.0
 40
1.0
 40
1.0
 10
5.7688749261
 20
11.7706189686
 30
0.0
 10
5.6539376018
 20
11.8054331783
 30
0.0
 10
5.427067348
 20
11.8540540013
 30
0.0
 10
5.0906249289
 20
11.8545533359
 30
0.0
 10
4.7829918895
 20
11.7776086673
 30
0.0
 10
4.603993536
 20
11.6747696691
 30
0.0
 10
4.5249438093
 20
11.613308453
 30
0.0
  0
SPLINE
  5
3BE
100
AcDbEntity
  8
0
100
AcDbSpline
 62
250
  6
CONTINUOUS
 70
0
 71
3
 72
23
 73
19
 74
0
 42
0.0000001
 43
0.0000001
 44
0.0000000001
 40
0.0
 40
0.0
 40
0.0
 40
0.0
 40
0.0597345028
 40
0.1136660306
 40
0.1627530657
 40
0.2092394535
 40
0.2560837866
 40
0.3061445903
 40
0.3613572193
 40
0.4225061351
 40
0.4893878075
 40
0.5610675924
 40
0.6361198743
 40
0.7128204119
 40
0.7893039244
 40
0.8637058263
 40
0.934410758
 40
1.0
 40
1.0
 40
1.0
 40
1.0
 10
8.1479773065
 20
7.9270345227
 30
0.0
 10
8.1479773065
 20
7.7824930081
 30
0.0
 10
8.1249033179
 20
7.5064426079
 30
0.0
 10
8.0085390227
 20
7.1264190106
 30
0.0
 10
7.8126348245
 20
6.816142797
 30
0.0
 10
7.5423644929
 20
6.5923150342
 30
0.0
 10
7.2113754025
 20
6.4692655108
 30
0.0
 10
6.8389499299
 20
6.4506728852
 30
0.0
 10
6.4411519611
 20
6.5324891999
 30
0.0
 10
6.0316352233
 20
6.708880048
 30
0.0
 10
5.6243093515
 20
6.9724187189
 30
0.0
 10
5.2335449036
 20
7.3131231252
 30
0.0
 10
4.8735733307
 20
7.7183200719
 30
0.0
 10
4.5577543081
 20
8.1729357394
 30
0.0
 10
4.2979859293
 20
8.6599552597
 30
0.0
 10
4.1037588578
 20
9.1612653862
 30
0.0
 10
3.9826742509
 20
9.6580220148
 30
0.0
 10
3.9523208981
 20
9.9881561756
 30
0.0
 10
3.9523208981
 20
10.1468645926
 30
0.0
  0
SPLINE
  5
3BF
100
AcDbEntity
  8
0
100
AcDbSpline
 62
250
  6
CONTINUOUS
 70
0
 71
3
 72
13
 73
9
 74
0
 42
0.0000001
 43
0.0000001
 44
0.0000000001
 40
0.0
 40
0.0
 40
0.0
 40
0.0
 40
0.2859670454
 40
0.542797863
 40
0.6621168142
 40
0.7769140469
 40
0.8888925622
 40
1.0
 40
1.0
 40
1.0
 40
1.0
 10
8.4214524235
 20
7.9688193758
 30
0.0
 10
8.4214524235
 20
7.8098007808
 30
0.0
 10
8.3952188158
 20
7.5068633011
 30
0.0
 10
8.2803124053
 20
7.1524234928
 30
0.0
 10
8.1417603431
 20
6.9160851071
 30
0.0
 10
8.019427839
 20
6.7664254375
 30
0.0
 10
7.8776269072
 20
6.641862906
 30
0.0
 10
7.7711575413
 20
6.5768041926
 30
0.0
 10
7.7158993742
 20
6.5491676108
 30
0.0
  0
SPLINE
  5
3C0
100
AcDbEntity
  8
ASSI
100
AcDbSpline
 62
7
  6
CONTINUOUS
 70
0
 71
3
 72
17
 73
13
 74
0
 42
0.0000001
 43
0.0000001
 44
0.0000000001
 40
0.0
 40
0.0
 40
0.0
 40
0.0
 40
0.1253437346
 40
0.2608824372
 40
0.4014393539
 40
0.5404051076
 40
0.6716179834
 40
0.791130619
 40
0.8464772768
 40
0.8992936688
 40
0.9501618945
 40
1.0
 40
1.0
 40
1.0
 40
1.0
 10
3.9370806617
 20
10.2013284321
 30
0.0
 10
3.9370806617
 20
9.950961521
 30
0.0
 10
4.0076580771
 20
9.4290297353
 30
0.0
 10
4.2753465154
 20
8.6686784973
 30
0.0
 10
4.6869633814
 20
7.9440682061
 30
0.0
 10
5.2124419396
 20
7.3082306845
 30
0.0
 10
5.8150330631
 20
6.8078895751
 30
0.0
 10
6.367487034
 20
6.5283460868
 30
0.0
 10
6.8107635163
 20
6.4188626394
 30
0.0
 10
7.1294809708
 20
6.3965079071
 30
0.0
 10
7.435766793
 20
6.435514308
 30
0.0
 10
7.6268796875
 20
6.5046121201
 30
0.0
 10
7.7159097953
 20
6.54914968
 30
0.0
  0
SPLINE
  5
3C1
100
AcDbEntity
  8
ASSI
100
AcDbSpline
 62
7
  6
CONTINUOUS
 70
0
 71
3
 72
11
 73
7
 74
0
 42
0.0000001
 43
0.0000001
 44
0.0000000001
 40
0.0
 40
0.0
 40
0.0
 40
0.0
 40
0.2337242032
 40
0.4750151687
 40
0.7291749818
 40
1.0
 40
1.0
 40
1.0
 40
1.0
 10
4.5249409284
 20
11.6133126812
 30
0.0
 10
4.4277077786
 20
11.537743856
 30
0.0
 10
4.2516997452
 20
11.3544020308
 30
0.0
 10
4.0665684544
 20
11.013464675
 30
0.0
 10
3.9586044699
 20
10.6214144767
 30
0.0
 10
3.9370806617
 20
10.344022309
 30
0.0
 10
3.9370806617
 20
10.2013284321
 30
0.0
  0
SPLINE
  5
3C2
100
AcDbEntity
  8
ASSI
100
AcDbSpline
 62
250
  6
CONTINUOUS
 70
0
 71
3
 72
23
 73
19
 74
0
 42
0.0000001
 43
0.0000001
 44
0.0000000001
 40
0.0
 40
0.0
 40
0.0
 40
0.0
 40
0.0655655519
 40
0.1362182788
 40
0.210561824
 40
0.2870116387
 40
0.3637332672
 40
0.438887317
 40
0.510767095
 40
0.5779487236
 40
0.6394781842
 40
0.6951020191
 40
0.7455146862
 40
0.7925325322
 40
0.8389185564
 40
0.8876196187
 40
0.9409434215
 40
1.0
 40
1.0
 40
1.0
 40
1.0
 10
8.1479773065
 20
7.9270345227
 30
0.0
 10
8.1479773065
 20
8.0844968608
 30
0.0
 10
8.1180985436
 20
8.4119720928
 30
0.0
 10
7.998805221
 20
8.9048711082
 30
0.0
 10
7.8073525508
 20
9.4025438917
 30
0.0
 10
7.5511290589
 20
9.8865514001
 30
0.0
 10
7.2393593706
 20
10.3391611553
 30
0.0
 10
6.8836215506
 20
10.743681234
 30
0.0
 10
6.4969337622
 20
11.0852799056
 30
0.0
 10
6.093186901
 20
11.3514236393
 30
0.0
 10
5.6864676659
 20
11.5322081041
 30
0.0
 10
5.2904420501
 20
11.6202631985
 30
0.0
 10
4.9184345212
 20
11.6098382216
 30
0.0
 10
4.5858162914
 20
11.4967456681
 30
0.0
 10
4.3113180573
 20
11.2836785157
 30
0.0
 10
4.1090589799
 20
10.9838974448
 30
0.0
 10
3.9847777484
 20
10.6136633422
 30
0.0
 10
3.95600467
 20
10.3432976858
 30
0.0
 10
3.952913467
 20
10.2015009993
 30
0.0
  0
SPLINE
  5
3C3
100
AcDbEntity
  8
ASSI
100
AcDbSpline
 62
250
  6
CONTINUOUS
 70
0
 71
3
 72
12
 73
8
 74
0
 42
0.0000001
 43
0.0000001
 44
0.0000000001
 40
0.0
 40
0.0
 40
0.0
 40
0.0
 40
0.1113321615
 40
0.2300762953
 40
0.483245643
 40
0.7454264223
 40
1.0
 40
1.0
 40
1.0
 40
1.0
 10
8.4214524235
 20
7.9688193758
 30
0.0
 10
8.4214524235
 20
8.1031470503
 30
0.0
 10
8.4008615528
 20
8.3809886905
 30
0.0
 10
8.2862918139
 20
8.9537859566
 30
0.0
 10
8.0110175014
 20
9.6741379757
 30
0.0
 10
7.5196440949
 20
10.4680065662
 30
0.0
 10
7.0943205981
 20
10.9309225855
 30
0.0
 10
6.8626580978
 20
11.1326078283
 30
0.0
  0
SPLINE
  5
3C4
100
AcDbEntity
  8
ASSI
100
AcDbSpline
 62
250
  6
CONTINUOUS
 70
0
 71
3
 72
9
 73
5
 74
0
 42
0.0000001
 43
0.0000001
 44
0.0000000001
 40
0.0
 40
0.0
 40
0.0
 40
0.0
 40
0.5261579437
 40
1.0
 40
1.0
 40
1.0
 40
1.0
 10
6.8626580978
 20
11.1326078283
 30
0.0
 10
6.6979934393
 20
11.2759647875
 30
0.0
 10
6.3626769222
 20
11.524231008
 30
0.0
 10
5.9835116912
 20
11.7027050202
 30
0.0
 10
5.7961044156
 20
11.762174539
 30
0.0
  0
SPLINE
  5
3C5
100
AcDbEntity
  8
ASSI
100
AcDbSpline
 62
250
  6
CONTINUOUS
 70
0
 71
3
 72
11
 73
7
 74
0
 42
0.0000001
 43
0.0000001
 44
0.0000000001
 40
0.0
 40
0.0
 40
0.0
 40
0.0
 40
0.2768918453
 40
0.531226455
 40
0.7691343388
 40
1.0
 40
1.0
 40
1.0
 40
1.0
 10
5.7688749261
 20
11.7706189686
 30
0.0
 10
5.6539376018
 20
11.8054331783
 30
0.0
 10
5.427067348
 20
11.8540540013
 30
0.0
 10
5.0906249289
 20
11.8545533359
 30
0.0
 10
4.7829918895
 20
11.7776086673
 30
0.0
 10
4.603993536
 20
11.6747696691
 30
0.0
 10
4.5249438093
 20
11.613308453
 30
0.0
  0
SPLINE
  5
3C6
100
AcDbEntity
  8
ASSI
100
AcDbSpline
 62
250
  6
CONTINUOUS
 70
0
 71
3
 72
23
 73
19
 74
0
 42
0.0000001
 43
0.0000001
 44
0.0000000001
 40
0.0
 40
0.0
 40
0.0
 40
0.0
 40
0.0597345028
 40
0.1136660306
 40
0.1627530657
 40
0.2092394535
 40
0.2560837866
 40
0.3061445903
 40
0.3613572193
 40
0.4225061351
 40
0.4893878075
 40
0.5610675924
 40
0.6361198743
 40
0.7128204119
 40
0.7893039244
 40
0.8637058263
 40
0.934410758
 40
1.0
 40
1.0
 40
1.0
 40
1.0
 10
8.1479773065
 20
7.9270345227
 30
0.0
 10
8.1479773065
 20
7.7824930081
 30
0.0
 10
8.1249033179
 20
7.5064426079
 30
0.0
 10
8.0085390227
 20
7.1264190106
 30
0.0
 10
7.8126348245
 20
6.816142797
 30
0.0
 10
7.5423644929
 20
6.5923150342
 30
0.0
 10
7.2113754025
 20
6.4692655108
 30
0.0
 10
6.8389499299
 20
6.4506728852
 30
0.0
 10
6.4411519611
 20
6.5324891999
 30
0.0
 10
6.0316352233
 20
6.708880048
 30
0.0
 10
5.6243093515
 20
6.9724187189
 30
0.0
 10
5.2335449036
 20
7.3131231252
 30
0.0
 10
4.8735733307
 20
7.7183200719
 30
0.0
 10
4.5577543081
 20
8.1729357394
 30
0.0
 10
4.2979859293
 20
8.6599552597
 30
0.0
 10
4.1037588578
 20
9.1612653862
 30
0.0
 10
3.9826742509
 20
9.6580220148
 30
0.0
 10
3.9523208981
 20
9.9881561756
 30
0.0
 10
3.9523208981
 20
10.1468645926
 30
0.0
  0
SPLINE
  5
3C7
100
AcDbEntity
  8
ASSI
100
AcDbSpline
 62
250
  6
CONTINUOUS
 70
0
 71
3
 72
13
 73
9
 74
0
 42
0.0000001
 43
0.0000001
 44
0.0000000001
 40
0.0
 40
0.0
 40
0.0
 40
0.0
 40
0.2859670454
 40
0.542797863
 40
0.6621168142
 40
0.7769140469
 40
0.8888925622
 40
1.0
 40
1.0
 40
1.0
 40
1.0
 10
8.4214524235
 20
7.9688193758
 30
0.0
 10
8.4214524235
 20
7.8098007808
 30
0.0
 10
8.3952188158
 20
7.5068633011
 30
0.0
 10
8.2803124053
 20
7.1524234928
 30
0.0
 10
8.1417603431
 20
6.9160851071
 30
0.0
 10
8.019427839
 20
6.7664254375
 30
0.0
 10
7.8776269072
 20
6.641862906
 30
0.0
 10
7.7711575413
 20
6.5768041926
 30
0.0
 10
7.7158993742
 20
6.5491676108
 30
0.0
  0
SPLINE
  5
3C8
100
AcDbEntity
  8
RACCORDO
100
AcDbSpline
 62
250
  6
CONTINUOUS
 70
0
 71
3
 72
17
 73
13
 74
0
 42
0.0000001
 43
0.0000001
 44
0.0000000001
 40
0.0
 40
0.0
 40
0.0
 40
0.0
 40
0.0487449591
 40
0.099318257
 40
0.152471805
 40
0.20866476
 40
0.330346504
 40
0.4632734038
 40
0.6030344334
 40
0.7434141948
 40
0.8776592384
 40
1.0
 40
1.0
 40
1.0
 40
1.0
 10
8.2263071412
 20
-24.0658113387
 30
0.0
 10
8.1294502077
 20
-24.1230991611
 30
0.0
 10
7.9187573367
 20
-24.2184990763
 30
0.0
 10
7.5733596774
 20
-24.2964032382
 30
0.0
 10
7.2024968172
 20
-24.3102695613
 30
0.0
 10
6.6715212876
 20
-24.2418602443
 30
0.0
 10
5.9894622958
 20
-23.9899126791
 30
0.0
 10
5.2285379878
 20
-23.4775686198
 30
0.0
 10
4.5592429992
 20
-22.7893703935
 30
0.0
 10
4.0342192457
 20
-21.9822263975
 30
0.0
 10
3.6940873414
 20
-21.1247664741
 30
0.0
 10
3.6039667611
 20
-20.5313707761
 30
0.0
 10
3.603966045
 20
-20.248939675
 30
0.0
  0
SPLINE
  5
3C9
100
AcDbEntity
  8
RACCORDO
100
AcDbSpline
 62
250
  6
CONTINUOUS
 70
0
 71
3
 72
11
 73
7
 74
0
 42
0.0000001
 43
0.0000001
 44
0.0000000001
 40
0.0
 40
0.0
 40
0.0
 40
0.0
 40
0.275786398
 40
0.5291828739
 40
0.7673906063
 40
1.0
 40
1.0
 40
1.0
 40
1.0
 10
-15.024259593
 20
-6.0320139083
 30
0.0
 10
-15.10681329
 20
-6.0054634024
 30
0.0
 10
-15.2694273477
 20
-5.9660771633
 30
0.0
 10
-15.5120460768
 20
-5.9536740967
 30
0.0
 10
-15.7384976105
 20
-5.9922476139
 30
0.0
 10
-15.8757144791
 20
-6.0523317845
 30
0.0
 10
-15.9386635905
 20
-6.0895756464
 30
0.0
  0
SPLINE
  5
3CA
100
AcDbEntity
  8
RACCORDO
100
AcDbSpline
 62
250
  6
CONTINUOUS
 70
0
 71
3
 72
11
 73
7
 74
0
 42
0.0000001
 43
0.0000001
 44
0.0000000001
 40
0.0
 40
0.0
 40
0.0
 40
0.0
 40
0.2429567307
 40
0.4882348041
 40
0.7395096873
 40
1.0
 40
1.0
 40
1.0
 40
1.0
 10
1.2325662111
 20
-21.3315979588
 30
0.0
 10
1.3054824772
 20
-21.2905301997
 30
0.0
 10
1.4454709469
 20
-21.1956949627
 30
0.0
 10
1.6305553988
 20
-21.019104732
 30
0.0
 10
1.788917156
 20
-20.8106510559
 30
0.0
 10
1.8735461722
 20
-20.6551926457
 30
0.0
 10
1.9109915285
 20
-20.5736543722
 30
0.0
  0
SPLINE
  5
3CB
100
AcDbEntity
  8
RACCORDO
100
AcDbSpline
 62
250
  6
CONTINUOUS
 70
0
 71
3
 72
11
 73
7
 74
0
 42
0.0000001
 43
0.0000001
 44
0.0000000001
 40
0.0
 40
0.0
 40
0.0
 40
0.0
 40
0.2419573208
 40
0.4855193318
 40
0.7365600983
 40
1.0
 40
1.0
 40
1.0
 40
1.0
 10
8.3407024219
 20
-24.3752097353
 30
0.0
 10
8.4450803853
 20
-24.3158263811
 30
0.0
 10
8.6423710949
 20
-24.1735100431
 30
0.0
 10
8.8862095667
 20
-23.8973155379
 30
0.0
 10
9.0704489356
 20
-23.566227914
 30
0.0
 10
9.1484142063
 20
-23.3212102547
 30
0.0
 10
9.1771032075
 20
-23.1936462473
 30
0.0
  0
SPLINE
  5
3CC
100
AcDbEntity
  8
RACCORDO
100
AcDbSpline
 62
250
  6
CONTINUOUS
 70
0
 71
3
 72
9
 73
5
 74
0
 42
0.0000001
 43
0.0000001
 44
0.0000000001
 40
0.0
 40
0.0
 40
0.0
 40
0.0
 40
0.5133171539
 40
1.0
 40
1.0
 40
1.0
 40
1.0
 10
-1.0016175501
 20
-15.1656368774
 30
0.0
 10
-3.4267807801
 20
-13.9297742672
 30
0.0
 10
-8.0559214132
 20
-11.3285330594
 30
0.0
 10
-12.4274661117
 20
-8.310088684
 30
0.0
 10
-14.4703821149
 20
-6.7332625909
 30
0.0
  0
SPLINE
  5
3CD
100
AcDbEntity
  8
RACCORDO
100
AcDbSpline
 62
250
  6
CONTINUOUS
 70
0
 71
3
 72
26
 73
22
 74
0
 42
0.0000001
 43
0.0000001
 44
0.0000000001
 40
0.0
 40
0.0
 40
0.0
 40
0.0
 40
0.0612727094
 40
0.1171941938
 40
0.1684798669
 40
0.1929365998
 40
0.2169332354
 40
0.2407926933
 40
0.2648521732
 40
0.2894343385
 40
0.3148276312
 40
0.3688260905
 40
0.4281120736
 40
0.4928823452
 40
0.562534428
 40
0.6359038737
 40
0.7114413012
 40
0.7873902074
 40
0.8619213386
 40
0.9332837557
 40
1.0
 40
1.0
 40
1.0
 40
1.0
 10
-1.0016175501
 20
-21.1137176587
 30
0.0
 10
-0.8301831292
 20
-21.2010787335
 30
0.0
 10
-0.4871746911
 20
-21.3413339682
 30
0.0
 10
0.0371598253
 20
-21.4383988145
 30
0.0
 10
0.455372799
 20
-21.4104495127
 30
0.0
 10
0.7566403786
 20
-21.3209978826
 30
0.0
 10
0.9628504704
 20
-21.223720119
 30
0.0
 10
1.1503165899
 20
-21.0961274495
 30
0.0
 10
1.3167782761
 20
-20.939476577
 30
0.0
 10
1.4606026757
 20
-20.7557170014
 30
0.0
 10
1.6231906803
 20
-20.4714347274
 30
0.0
 10
1.7590806673
 20
-20.0524530158
 30
0.0
 10
1.8090023119
 20
-19.4918664358
 30
0.0
 10
1.7495984198
 20
-18.8834768167
 30
0.0
 10
1.584708514
 20
-18.2497481761
 30
0.0
 10
1.3215290226
 20
-17.613768684
 30
0.0
 10
0.9714660249
 20
-16.9985600694
 30
0.0
 10
0.5488089242
 20
-16.4263499039
 30
0.0
 10
0.0704930123
 20
-15.9174916904
 30
0.0
 10
-0.4448544037
 20
-15.4903571419
 30
0.0
 10
-0.8149535428
 20
-15.2607608475
 30
0.0
 10
-1.0016175501
 20
-15.1656368774
 30
0.0
  0
SPLINE
  5
3CE
100
AcDbEntity
  8
RACCORDO
100
AcDbSpline
 62
250
  6
CONTINUOUS
 70
0
 71
3
 72
9
 73
5
 74
0
 42
0.0000001
 43
0.0000001
 44
0.0000000001
 40
0.0
 40
0.0
 40
0.0
 40
0.0
 40
0.4893804334
 40
1.0
 40
1.0
 40
1.0
 40
1.0
 10
-14.3873250933
 20
-12.7452552146
 30
0.0
 10
-12.7939316952
 20
-13.9715051836
 30
0.0
 10
-9.4334658215
 20
-16.343418326
 30
0.0
 10
-5.907591814
 20
-18.4597768623
 30
0.0
 10
-4.0738097824
 20
-19.478769875
 30
0.0
  0
SPLINE
  5
3CF
100
AcDbEntity
  8
RACCORDO
100
AcDbSpline
 62
250
  6
CONTINUOUS
 70
0
 71
3
 72
11
 73
7
 74
0
 42
0.0000001
 43
0.0000001
 44
0.0000000001
 40
0.0
 40
0.0
 40
0.0
 40
0.0
 40
0.2775842178
 40
0.5317593842
 40
0.7689372839
 40
1.0
 40
1.0
 40
1.0
 40
1.0
 10
3.603966045
 20
-20.248939675
 30
0.0
 10
3.6039663305
 20
-20.0791997352
 30
0.0
 10
3.6339194305
 20
-19.7526408217
 30
0.0
 10
3.7845085327
 20
-19.3019968516
 30
0.0
 10
4.0365862687
 20
-18.9317227819
 30
0.0
 10
4.2662922551
 20
-18.7519626312
 30
0.0
 10
4.3894021176
 20
-18.6826262354
 30
0.0
  0
SPLINE
  5
3D0
100
AcDbEntity
  8
RACCORDO
100
AcDbSpline
 62
250
  6
CONTINUOUS
 70
0
 71
3
 72
27
 73
23
 74
0
 42
0.0000001
 43
0.0000001
 44
0.0000000001
 40
0.0
 40
0.0
 40
0.0
 40
0.0
 40
0.0579075105
 40
0.0837604818
 40
0.1076227981
 40
0.1502257782
 40
0.1699549127
 40
0.1893501047
 40
0.2090675992
 40
0.229729376
 40
0.2756855839
 40
0.3017216548
 40
0.3299420138
 40
0.3928212245
 40
0.4635282853
 40
0.5403087152
 40
0.6209299834
 40
0.7029517723
 40
0.7839524035
 40
0.8616864778
 40
0.9341988363
 40
1.0
 40
1.0
 40
1.0
 40
1.0
 10
-14.4703821149
 20
-6.7332625909
 30
0.0
 10
-14.6044329581
 20
-6.6297953485
 30
0.0
 10
-14.8099730205
 20
-6.4933230602
 30
0.0
 10
-15.0972044164
 20
-6.3629228166
 30
0.0
 10
-15.3550889841
 20
-6.2820878065
 30
0.0
 10
-15.6118019628
 20
-6.2581589474
 30
0.0
 10
-15.8473717068
 20
-6.3067086987
 30
0.0
 10
-16.0063445931
 20
-6.3758078715
 30
0.0
 10
-16.1497345106
 20
-6.4778815189
 30
0.0
 10
-16.3240629352
 20
-6.6623856912
 30
0.0
 10
-16.4538937452
 20
-6.9057261013
 30
0.0
 10
-16.5433707521
 20
-7.1849524779
 30
0.0
 10
-16.6128076834
 20
-7.5210575519
 30
0.0
 10
-16.6432236514
 20
-7.9954462892
 30
0.0
 10
-16.5985208904
 20
-8.6104049717
 30
0.0
 10
-16.4754783715
 20
-9.267298576
 30
0.0
 10
-16.2783172584
 20
-9.9402199952
 30
0.0
 10
-16.0141457436
 20
-10.6030543836
 30
0.0
 10
-15.6921437658
 20
-11.2303716291
 30
0.0
 10
-15.3235117546
 20
-11.7988823268
 30
0.0
 10
-14.9208394092
 20
-12.2875351576
 30
0.0
 10
-14.6227037473
 20
-12.5636661581
 30
0.0
 10
-14.4703821149
 20
-12.6812405408
 30
0.0
  0
SPLINE
  5
3D1
100
AcDbEntity
  8
RACCORDO
100
AcDbSpline
 62
250
  6
CONTINUOUS
 70
0
 71
3
 72
11
 73
7
 74
0
 42
0.0000001
 43
0.0000001
 44
0.0000000001
 40
0.0
 40
0.0
 40
0.0
 40
0.0
 40
0.2272879338
 40
0.474621746
 40
0.7352497277
 40
1.0
 40
1.0
 40
1.0
 40
1.0
 10
9.1104269267
 20
-22.6443510692
 30
0.0
 10
9.110423332
 20
-22.3839953874
 30
0.0
 10
9.0337448668
 20
-21.8392632379
 30
0.0
 10
8.7375348683
 20
-21.0454194188
 30
0.0
 10
8.2786644625
 20
-20.283319609
 30
0.0
 10
7.884417222
 20
-19.824359106
 30
0.0
 10
7.6683963969
 20
-19.6115054054
 30
0.0
  0
SPLINE
  5
3D2
100
AcDbEntity
  8
RACCORDO
100
AcDbSpline
 62
250
  6
CONTINUOUS
 70
0
 71
3
 72
9
 73
5
 74
0
 42
0.0000001
 43
0.0000001
 44
0.0000000001
 40
0.0
 40
0.0
 40
0.0
 40
0.0
 40
0.525594712
 40
1.0
 40
1.0
 40
1.0
 40
1.0
 10
7.2590362816
 20
-19.2474901009
 30
0.0
 10
6.9922304316
 20
-19.0340071305
 30
0.0
 10
6.4434978041
 20
-18.6759694896
 30
0.0
 10
5.8231383161
 20
-18.4527958618
 30
0.0
 10
5.5200253898
 20
-18.3958128718
 30
0.0
  0
SPLINE
  5
3D3
100
AcDbEntity
  8
RACCORDO
100
AcDbSpline
 62
250
  6
CONTINUOUS
 70
0
 71
3
 72
15
 73
11
 74
0
 42
0.0000001
 43
0.0000001
 44
0.0000000001
 40
0.0
 40
0.0
 40
0.0
 40
0.0
 40
0.1327319474
 40
0.2568301748
 40
0.3747529109
 40
0.4900842752
 40
0.6069494044
 40
0.7292061714
 40
0.8597101009
 40
1.0
 40
1.0
 40
1.0
 40
1.0
 10
5.3289811092
 20
-18.3668269422
 30
0.0
 10
5.1913567654
 20
-18.3510484379
 30
0.0
 10
4.9217703227
 20
-18.341985466
 30
0.0
 10
4.5330157147
 20
-18.4054570993
 30
0.0
 10
4.184293086
 20
-18.5472098255
 30
0.0
 10
3.8860977398
 20
-18.7648570407
 30
0.0
 10
3.6478365205
 20
-19.0525898944
 30
0.0
 10
3.4758589802
 20
-19.4014101249
 30
0.0
 10
3.3730726253
 20
-19.8010285152
 30
0.0
 10
3.3519576888
 20
-20.0843514948
 30
0.0
 10
3.3519578532
 20
-20.2307652482
 30
0.0
  0
SPLINE
  5
3D4
100
AcDbEntity
  8
RACCORDO
100
AcDbSpline
 62
250
  6
CONTINUOUS
 70
0
 71
3
 72
23
 73
19
 74
0
 42
0.0000001
 43
0.0000001
 44
0.0000000001
 40
0.0
 40
0.0
 40
0.0
 40
0.0
 40
0.0630884923
 40
0.1308794836
 40
0.2022802318
 40
0.2758356886
 40
0.3499435798
 40
0.4230291363
 40
0.4936778503
 40
0.5607648683
 40
0.6235541246
 40
0.6818267396
 40
0.7359861716
 40
0.7871572695
 40
0.837133623
 40
0.8880546091
 40
0.9418998705
 40
1.0
 40
1.0
 40
1.0
 40
1.0
 10
3.3519578532
 20
-20.2307652482
 30
0.0
 10
3.3519603055
 20
-20.4273425652
 30
0.0
 10
3.3926375887
 20
-20.8356730038
 30
0.0
 10
3.5558463152
 20
-21.446745252
 30
0.0
 10
3.8177761742
 20
-22.05805929
 30
0.0
 10
4.1688240693
 20
-22.6457030014
 30
0.0
 10
4.5959506437
 20
-23.1873136485
 30
0.0
 10
5.0839760828
 20
-23.6620257096
 30
0.0
 10
5.6153595023
 20
-24.0520526542
 30
0.0
 10
6.1710975187
 20
-24.343342558
 30
0.0
 10
6.7318532361
 20
-24.5250368054
 30
0.0
 10
7.2779754088
 20
-24.5900916514
 30
0.0
 10
7.7898221318
 20
-24.5341032343
 30
0.0
 10
8.2464070393
 20
-24.3557309784
 30
0.0
 10
8.6254808131
 20
-24.0600315297
 30
0.0
 10
8.9064336508
 20
-23.6599020969
 30
0.0
 10
9.0759741011
 20
-23.1758035427
 30
0.0
 10
9.1104271273
 20
-22.8253851557
 30
0.0
 10
9.1104269267
 20
-22.6443510692
 30
0.0
  0
SPLINE
  5
3D5
100
AcDbEntity
  8
RACCORDO
100
AcDbSpline
 62
250
  6
CONTINUOUS
 70
0
 71
3
 72
9
 73
5
 74
0
 42
0.0000001
 43
0.0000001
 44
0.0000000001
 40
0.0
 40
0.0
 40
0.0
 40
0.0
 40
0.2606713971
 40
1.0
 40
1.0
 40
1.0
 40
1.0
 10
9.0526213043
 20
-22.6219295305
 30
0.0
 10
9.0526211419
 20
-22.6841478359
 30
0.0
 10
9.0444536967
 20
-22.9226796391
 30
0.0
 10
9.00168738
 20
-23.1606628966
 30
0.0
 10
8.9476252455
 20
-23.3286441939
 30
0.0
  0
SPLINE
  5
3D6
100
AcDbEntity
  8
RACCORDO
100
AcDbSpline
 62
250
  6
CONTINUOUS
 70
0
 71
3
 72
22
 73
18
 74
0
 42
0.0000001
 43
0.0000001
 44
0.0000000001
 40
0.0
 40
0.0
 40
0.0
 40
0.0
 40
0.0523016018
 40
0.1023994993
 40
0.1520242978
 40
0.2029548645
 40
0.2566526272
 40
0.3140579765
 40
0.3755603479
 40
0.4410601999
 40
0.5100487256
 40
0.5816874533
 40
0.7281423062
 40
0.8006490638
 40
0.8708489082
 40
0.9375862551
 40
1.0
 40
1.0
 40
1.0
 40
1.0
 10
8.9465864578
 20
-23.33186247
 30
0.0
 10
8.9012454759
 20
-23.4719239221
 30
0.0
 10
8.7810031479
 20
-23.737596737
 30
0.0
 10
8.5076598074
 20
-24.0731957486
 30
0.0
 10
8.1574382486
 20
-24.3213730597
 30
0.0
 10
7.7457290312
 20
-24.4731726868
 30
0.0
 10
7.2887797736
 20
-24.52542778
 30
0.0
 10
6.8020966466
 20
-24.4785534152
 30
0.0
 10
6.3005881569
 20
-24.3352647799
 30
0.0
 10
5.7991221867
 20
-24.100430169
 30
0.0
 10
5.3123940887
 20
-23.7811921212
 30
0.0
 10
4.6987976181
 20
-23.2528287509
 30
0.0
 10
4.1806593126
 20
-22.6076825783
 30
0.0
 10
3.7903789499
 20
-21.8917880066
 30
0.0
 10
3.5738034227
 20
-21.3415749377
 30
0.0
 10
3.4394476048
 20
-20.7950257712
 30
0.0
 10
3.4063977404
 20
-20.4310578911
 30
0.0
 10
3.4063969603
 20
-20.2553768416
 30
0.0
  0
SPLINE
  5
3D7
100
AcDbEntity
  8
RACCORDO
100
AcDbSpline
 62
250
  6
CONTINUOUS
 70
0
 71
3
 72
15
 73
11
 74
0
 42
0.0000001
 43
0.0000001
 44
0.0000000001
 40
0.0
 40
0.0
 40
0.0
 40
0.0
 40
0.1393313608
 40
0.268482728
 40
0.3892672457
 40
0.5049647686
 40
0.619902335
 40
0.7385401904
 40
0.8644964467
 40
1.0
 40
1.0
 40
1.0
 40
1.0
 10
3.4063969603
 20
-20.2553768416
 30
0.0
 10
3.406397406
 20
-20.1051463066
 30
0.0
 10
3.4289304702
 20
-19.814836593
 30
0.0
 10
3.5398308883
 20
-19.4071354658
 30
0.0
 10
3.7252668745
 20
-19.0551191717
 30
0.0
 10
3.9815459085
 20
-18.7703673628
 30
0.0
 10
4.3009071968
 20
-18.5628785469
 30
0.0
 10
4.6720810099
 20
-18.4385785205
 30
0.0
 10
5.08289971
 20
-18.3986721364
 30
0.0
 10
5.3652166365
 20
-18.4262762853
 30
0.0
 10
5.5090403077
 20
-18.4519847522
 30
0.0
  0
SPLINE
  5
3D8
100
AcDbEntity
  8
RACCORDO
100
AcDbSpline
 62
250
  6
CONTINUOUS
 70
0
 71
3
 72
9
 73
5
 74
0
 42
0.0000001
 43
0.0000001
 44
0.0000000001
 40
0.0
 40
0.0
 40
0.0
 40
0.0
 40
0.4753555424
 40
1.0
 40
1.0
 40
1.0
 40
1.0
 10
5.5593366858
 20
-18.4614564995
 30
0.0
 10
5.8447115306
 20
-18.517915029
 30
0.0
 10
6.4276239413
 20
-18.7287672356
 30
0.0
 10
6.9461298003
 20
-19.0622098719
 30
0.0
 10
7.1987651403
 20
-19.2603541715
 30
0.0
  0
SPLINE
  5
3D9
100
AcDbEntity
  8
RACCORDO
100
AcDbSpline
 62
250
  6
CONTINUOUS
 70
0
 71
3
 72
9
 73
5
 74
0
 42
0.0000001
 43
0.0000001
 44
0.0000000001
 40
0.0
 40
0.0
 40
0.0
 40
0.0
 40
0.5059904575
 40
1.0
 40
1.0
 40
1.0
 40
1.0
 10
7.6454001374
 20
-19.6544182207
 30
0.0
 10
7.8850769288
 20
-19.891390769
 30
0.0
 10
8.3156419402
 20
-20.4052728479
 30
0.0
 10
8.6408320201
 20
-20.9927728052
 30
0.0
 10
8.7669730449
 20
-21.2967026758
 30
0.0
  0
SPLINE
  5
3DA
100
AcDbEntity
  8
RACCORDO
100
AcDbSpline
 62
250
  6
CONTINUOUS
 70
0
 71
3
 72
9
 73
5
 74
0
 42
0.0000001
 43
0.0000001
 44
0.0000000001
 40
0.0
 40
0.0
 40
0.0
 40
0.0
 40
0.2531736929
 40
1.0
 40
1.0
 40
1.0
 40
1.0
 10
8.7669730449
 20
-21.2967026758
 30
0.0
 10
8.7800648579
 20
-21.3282466802
 30
0.0
 10
8.8303021977
 20
-21.4534455071
 30
0.0
 10
8.8745488219
 20
-21.5810633953
 30
0.0
 10
8.9038221532
 20
-21.677462873
 30
0.0
  0
SPLINE
  5
3DB
100
AcDbEntity
  8
RACCORDO
100
AcDbSpline
 62
250
  6
CONTINUOUS
 70
0
 71
3
 72
9
 73
5
 74
0
 42
0.0000001
 43
0.0000001
 44
0.0000000001
 40
0.0
 40
0.0
 40
0.0
 40
0.0
 40
0.2608700867
 40
1.0
 40
1.0
 40
1.0
 40
1.0
 10
8.9101583769
 20
-21.6985443069
 30
0.0
 10
8.933365402
 20
-21.7765640947
 30
0.0
 10
9.0128207999
 20
-22.0782684524
 30
0.0
 10
9.0526203501
 20
-22.3913021587
 30
0.0
 10
9.0526213043
 20
-22.6219295305
 30
0.0
  0
SPLINE
  5
3DC
100
AcDbEntity
  8
RACCORDO
100
AcDbSpline
 62
250
  6
CONTINUOUS
 70
0
 71
3
 72
11
 73
7
 74
0
 42
0.0000001
 43
0.0000001
 44
0.0000000001
 40
0.0
 40
0.0
 40
0.0
 40
0.0
 40
0.2795837924
 40
0.5374016016
 40
0.7756068682
 40
1.0
 40
1.0
 40
1.0
 40
1.0
 10
6.0427127617
 20
-18.3927018256
 30
0.0
 10
5.8737211964
 20
-18.3323970347
 30
0.0
 10
5.5394151522
 20
-18.2403794427
 30
0.0
 10
5.04032929
 20
-18.1968782671
 30
0.0
 10
4.5778099907
 20
-18.2573353631
 30
0.0
 10
4.2989211875
 20
-18.3710002116
 30
0.0
 10
4.1746267552
 20
-18.4437296654
 30
0.0
  0
SPLINE
  5
3DD
100
AcDbEntity
  8
RACCORDO
100
AcDbSpline
 62
250
  6
CONTINUOUS
 70
0
 71
3
 72
9
 73
5
 74
0
 42
0.0000001
 43
0.0000001
 44
0.0000000001
 40
0.0
 40
0.0
 40
0.0
 40
0.0
 40
0.5605304371
 40
1.0
 40
1.0
 40
1.0
 40
1.0
 10
3.3519578532
 20
-20.2307652482
 30
0.0
 10
3.3414192213
 20
-20.2259973028
 30
0.0
 10
3.3232132176
 20
-20.2148822551
 30
0.0
 10
3.3136480626
 20
-20.1943904487
 30
0.0
 10
3.3136406742
 20
-20.1853216215
 30
0.0
  0
SPLINE
  5
3DE
100
AcDbEntity
  8
RACCORDO
100
AcDbSpline
 62
250
  6
CONTINUOUS
 70
0
 71
3
 72
9
 73
5
 74
0
 42
0.0000001
 43
0.0000001
 44
0.0000000001
 40
0.0
 40
0.0
 40
0.0
 40
0.0
 40
0.493316161
 40
1.0
 40
1.0
 40
1.0
 40
1.0
 10
9.1104269267
 20
-22.6443510692
 30
0.0
 10
9.1255874714
 20
-22.6502269376
 30
0.0
 10
9.1586145997
 20
-22.6562941304
 30
0.0
 10
9.191948137
 20
-22.6531367657
 30
0.0
 10
9.2080835969
 20
-22.648831366
 30
0.0
  0
SPLINE
  5
3DF
100
AcDbEntity
  8
RACCORDO
100
AcDbSpline
 62
250
  6
CONTINUOUS
 70
0
 71
3
 72
9
 73
5
 74
0
 42
0.0000001
 43
0.0000001
 44
0.0000000001
 40
0.0
 40
0.0
 40
0.0
 40
0.0
 40
0.5314849144
 40
1.0
 40
1.0
 40
1.0
 40
1.0
 10
-14.4703821149
 20
-12.6812405408
 30
0.0
 10
-14.4703822978
 20
-12.7032805979
 30
0.0
 10
-14.4639986152
 20
-12.7455246189
 30
0.0
 10
-14.4383335856
 20
-12.7808112614
 30
0.0
 10
-14.4229467174
 20
-12.7926738695
 30
0.0
  0
SPLINE
  5
3E0
100
AcDbEntity
  8
RACCORDO
100
AcDbSpline
 62
250
  6
CONTINUOUS
 70
0
 71
3
 72
9
 73
5
 74
0
 42
0.0000001
 43
0.0000001
 44
0.0000000001
 40
0.0
 40
0.0
 40
0.0
 40
0.0
 40
0.4811867036
 40
1.0
 40
1.0
 40
1.0
 40
1.0
 10
-14.4703821149
 20
-6.7332625909
 30
0.0
 10
-14.4703825339
 20
-6.6828383187
 30
0.0
 10
-14.4345530033
 20
-6.5787165089
 30
0.0
 10
-14.361791559
 20
-6.4988031987
 30
0.0
 10
-14.3167325988
 20
-6.4683814202
 30
0.0
  0
SPLINE
  5
3E1
100
AcDbEntity
  8
RACCORDO
100
AcDbSpline
 62
250
  6
CONTINUOUS
 70
0
 71
3
 72
9
 73
5
 74
0
 42
0.0000001
 43
0.0000001
 44
0.0000000001
 40
0.0
 40
0.0
 40
0.0
 40
0.0
 40
0.4823217976
 40
1.0
 40
1.0
 40
1.0
 40
1.0
 10
-1.0016175501
 20
-15.1656368774
 30
0.0
 10
-1.0016173513
 20
-15.1210266282
 30
0.0
 10
-0.9790188597
 20
-15.028832907
 30
0.0
 10
-0.93146365
 20
-14.9477796032
 30
0.0
 10
-0.900418227
 20
-14.911328087
 30
0.0
  0
SPLINE
  5
3E2
100
AcDbEntity
  8
RACCORDO
100
AcDbSpline
 62
250
  6
CONTINUOUS
 70
0
 71
3
 72
11
 73
7
 74
0
 42
0.0000001
 43
0.0000001
 44
0.0000000001
 40
0.0
 40
0.0
 40
0.0
 40
0.0
 40
0.2971509878
 40
0.5590387273
 40
0.7890651795
 40
1.0
 40
1.0
 40
1.0
 40
1.0
 10
-1.0016175501
 20
-21.1137176587
 30
0.0
 10
-1.0016174815
 20
-21.1267718654
 30
0.0
 10
-0.9997212183
 20
-21.1514119471
 30
0.0
 10
-0.9900177496
 20
-21.1850128163
 30
0.0
 10
-0.9735882244
 20
-21.2117211564
 30
0.0
 10
-0.9579464398
 20
-21.2240196672
 30
0.0
 10
-0.9496915409
 20
-21.2282300093
 30
0.0
  0
SPLINE
  5
3E3
100
AcDbEntity
  8
RACCORDO
100
AcDbSpline
 62
250
  6
CONTINUOUS
 70
0
 71
3
 72
17
 73
13
 74
0
 42
0.0000001
 43
0.0000001
 44
0.0000000001
 40
0.0
 40
0.0
 40
0.0
 40
0.0
 40
0.0487449591
 40
0.099318257
 40
0.152471805
 40
0.20866476
 40
0.330346504
 40
0.4632734038
 40
0.6030344334
 40
0.7434141948
 40
0.8776592384
 40
1.0
 40
1.0
 40
1.0
 40
1.0
 10
8.2263071412
 20
-13.8599328788
 30
0.0
 10
8.1294502077
 20
-13.9172207012
 30
0.0
 10
7.9187573367
 20
-14.0126206164
 30
0.0
 10
7.5733596774
 20
-14.0905247783
 30
0.0
 10
7.2024968172
 20
-14.1043911014
 30
0.0
 10
6.6715212876
 20
-14.0359817844
 30
0.0
 10
5.9894622958
 20
-13.7840342192
 30
0.0
 10
5.2285379878
 20
-13.2716901599
 30
0.0
 10
4.5592429992
 20
-12.5834919336
 30
0.0
 10
4.0342192457
 20
-11.7763479376
 30
0.0
 10
3.6940873414
 20
-10.9188880141
 30
0.0
 10
3.6039667611
 20
-10.3254923162
 30
0.0
 10
3.603966045
 20
-10.0430612151
 30
0.0
  0
SPLINE
  5
3E4
100
AcDbEntity
  8
RACCORDO
100
AcDbSpline
 62
250
  6
CONTINUOUS
 70
0
 71
3
 72
11
 73
7
 74
0
 42
0.0000001
 43
0.0000001
 44
0.0000000001
 40
0.0
 40
0.0
 40
0.0
 40
0.0
 40
0.275786398
 40
0.5291828739
 40
0.7673906063
 40
1.0
 40
1.0
 40
1.0
 40
1.0
 10
-15.024259593
 20
4.1738645516
 30
0.0
 10
-15.10681329
 20
4.2004150575
 30
0.0
 10
-15.2694273477
 20
4.2398012967
 30
0.0
 10
-15.5120460768
 20
4.2522043632
 30
0.0
 10
-15.7384976105
 20
4.213630846
 30
0.0
 10
-15.8757144791
 20
4.1535466754
 30
0.0
 10
-15.9386635905
 20
4.1163028135
 30
0.0
  0
SPLINE
  5
3E5
100
AcDbEntity
  8
RACCORDO
100
AcDbSpline
 62
250
  6
CONTINUOUS
 70
0
 71
3
 72
11
 73
7
 74
0
 42
0.0000001
 43
0.0000001
 44
0.0000000001
 40
0.0
 40
0.0
 40
0.0
 40
0.0
 40
0.2429567307
 40
0.4882348041
 40
0.7395096873
 40
1.0
 40
1.0
 40
1.0
 40
1.0
 10
1.2325662111
 20
-11.1257194989
 30
0.0
 10
1.3054824772
 20
-11.0846517397
 30
0.0
 10
1.4454709469
 20
-10.9898165028
 30
0.0
 10
1.6305553988
 20
-10.8132262721
 30
0.0
 10
1.788917156
 20
-10.604772596
 30
0.0
 10
1.8735461722
 20
-10.4493141858
 30
0.0
 10
1.9109915285
 20
-10.3677759123
 30
0.0
  0
SPLINE
  5
3E6
100
AcDbEntity
  8
RACCORDO
100
AcDbSpline
 62
250
  6
CONTINUOUS
 70
0
 71
3
 72
11
 73
7
 74
0
 42
0.0000001
 43
0.0000001
 44
0.0000000001
 40
0.0
 40
0.0
 40
0.0
 40
0.0
 40
0.2419573208
 40
0.4855193318
 40
0.7365600983
 40
1.0
 40
1.0
 40
1.0
 40
1.0
 10
8.3407024219
 20
-14.1693312754
 30
0.0
 10
8.4450803853
 20
-14.1099479212
 30
0.0
 10
8.6423710949
 20
-13.9676315832
 30
0.0
 10
8.8862095667
 20
-13.691437078
 30
0.0
 10
9.0704489356
 20
-13.3603494541
 30
0.0
 10
9.1484142063
 20
-13.1153317948
 30
0.0
 10
9.1771032075
 20
-12.9877677874
 30
0.0
  0
SPLINE
  5
3E7
100
AcDbEntity
  8
RACCORDO
100
AcDbSpline
 62
250
  6
CONTINUOUS
 70
0
 71
3
 72
9
 73
5
 74
0
 42
0.0000001
 43
0.0000001
 44
0.0000000001
 40
0.0
 40
0.0
 40
0.0
 40
0.0
 40
0.5133171539
 40
1.0
 40
1.0
 40
1.0
 40
1.0
 10
-1.0016175501
 20
-4.9597584175
 30
0.0
 10
-3.4267807801
 20
-3.7238958073
 30
0.0
 10
-8.0559214132
 20
-1.1226545995
 30
0.0
 10
-12.4274661117
 20
1.8957897759
 30
0.0
 10
-14.4703821149
 20
3.472615869
 30
0.0
  0
SPLINE
  5
3E8
100
AcDbEntity
  8
RACCORDO
100
AcDbSpline
 62
250
  6
CONTINUOUS
 70
0
 71
3
 72
26
 73
22
 74
0
 42
0.0000001
 43
0.0000001
 44
0.0000000001
 40
0.0
 40
0.0
 40
0.0
 40
0.0
 40
0.0612727094
 40
0.1171941938
 40
0.1684798669
 40
0.1929365998
 40
0.2169332354
 40
0.2407926933
 40
0.2648521732
 40
0.2894343385
 40
0.3148276312
 40
0.3688260905
 40
0.4281120736
 40
0.4928823452
 40
0.562534428
 40
0.6359038737
 40
0.7114413012
 40
0.7873902074
 40
0.8619213386
 40
0.9332837557
 40
1.0
 40
1.0
 40
1.0
 40
1.0
 10
-1.0016175501
 20
-10.9078391988
 30
0.0
 10
-0.8301831292
 20
-10.9952002736
 30
0.0
 10
-0.4871746911
 20
-11.1354555083
 30
0.0
 10
0.0371598253
 20
-11.2325203546
 30
0.0
 10
0.455372799
 20
-11.2045710528
 30
0.0
 10
0.7566403786
 20
-11.1151194227
 30
0.0
 10
0.9628504704
 20
-11.0178416591
 30
0.0
 10
1.1503165899
 20
-10.8902489896
 30
0.0
 10
1.3167782761
 20
-10.7335981171
 30
0.0
 10
1.4606026757
 20
-10.5498385415
 30
0.0
 10
1.6231906803
 20
-10.2655562675
 30
0.0
 10
1.7590806673
 20
-9.8465745559
 30
0.0
 10
1.8090023119
 20
-9.2859879759
 30
0.0
 10
1.7495984198
 20
-8.6775983568
 30
0.0
 10
1.584708514
 20
-8.0438697162
 30
0.0
 10
1.3215290226
 20
-7.4078902241
 30
0.0
 10
0.9714660249
 20
-6.7926816095
 30
0.0
 10
0.5488089242
 20
-6.220471444
 30
0.0
 10
0.0704930123
 20
-5.7116132305
 30
0.0
 10
-0.4448544037
 20
-5.284478682
 30
0.0
 10
-0.8149535428
 20
-5.0548823876
 30
0.0
 10
-1.0016175501
 20
-4.9597584175
 30
0.0
  0
SPLINE
  5
3E9
100
AcDbEntity
  8
RACCORDO
100
AcDbSpline
 62
250
  6
CONTINUOUS
 70
0
 71
3
 72
9
 73
5
 74
0
 42
0.0000001
 43
0.0000001
 44
0.0000000001
 40
0.0
 40
0.0
 40
0.0
 40
0.0
 40
0.4893804334
 40
1.0
 40
1.0
 40
1.0
 40
1.0
 10
-14.3873250933
 20
-2.5393767546
 30
0.0
 10
-12.7939316952
 20
-3.7656267237
 30
0.0
 10
-9.4334658215
 20
-6.1375398661
 30
0.0
 10
-5.907591814
 20
-8.2538984024
 30
0.0
 10
-4.0738097824
 20
-9.2728914151
 30
0.0
  0
SPLINE
  5
3EA
100
AcDbEntity
  8
RACCORDO
100
AcDbSpline
 62
250
  6
CONTINUOUS
 70
0
 71
3
 72
11
 73
7
 74
0
 42
0.0000001
 43
0.0000001
 44
0.0000000001
 40
0.0
 40
0.0
 40
0.0
 40
0.0
 40
0.2775842178
 40
0.5317593842
 40
0.7689372839
 40
1.0
 40
1.0
 40
1.0
 40
1.0
 10
3.603966045
 20
-10.0430612151
 30
0.0
 10
3.6039663305
 20
-9.8733212753
 30
0.0
 10
3.6339194305
 20
-9.5467623618
 30
0.0
 10
3.7845085327
 20
-9.0961183917
 30
0.0
 10
4.0365862687
 20
-8.7258443219
 30
0.0
 10
4.2662922551
 20
-8.5460841713
 30
0.0
 10
4.3894021176
 20
-8.4767477755
 30
0.0
  0
SPLINE
  5
3EB
100
AcDbEntity
  8
RACCORDO
100
AcDbSpline
 62
250
  6
CONTINUOUS
 70
0
 71
3
 72
27
 73
23
 74
0
 42
0.0000001
 43
0.0000001
 44
0.0000000001
 40
0.0
 40
0.0
 40
0.0
 40
0.0
 40
0.0579075105
 40
0.0837604818
 40
0.1076227981
 40
0.1502257782
 40
0.1699549127
 40
0.1893501047
 40
0.2090675992
 40
0.229729376
 40
0.2756855839
 40
0.3017216548
 40
0.3299420138
 40
0.3928212245
 40
0.4635282853
 40
0.5403087152
 40
0.6209299834
 40
0.7029517723
 40
0.7839524035
 40
0.8616864778
 40
0.9341988363
 40
1.0
 40
1.0
 40
1.0
 40
1.0
 10
-14.4703821149
 20
3.472615869
 30
0.0
 10
-14.6044329581
 20
3.5760831114
 30
0.0
 10
-14.8099730205
 20
3.7125553997
 30
0.0
 10
-15.0972044164
 20
3.8429556433
 30
0.0
 10
-15.3550889841
 20
3.9237906534
 30
0.0
 10
-15.6118019628
 20
3.9477195125
 30
0.0
 10
-15.8473717068
 20
3.8991697612
 30
0.0
 10
-16.0063445931
 20
3.8300705884
 30
0.0
 10
-16.1497345106
 20
3.7279969411
 30
0.0
 10
-16.3240629352
 20
3.5434927687
 30
0.0
 10
-16.4538937452
 20
3.3001523586
 30
0.0
 10
-16.5433707521
 20
3.020925982
 30
0.0
 10
-16.6128076834
 20
2.6848209081
 30
0.0
 10
-16.6432236514
 20
2.2104321707
 30
0.0
 10
-16.5985208904
 20
1.5954734882
 30
0.0
 10
-16.4754783715
 20
0.9385798839
 30
0.0
 10
-16.2783172584
 20
0.2656584647
 30
0.0
 10
-16.0141457436
 20
-0.3971759237
 30
0.0
 10
-15.6921437658
 20
-1.0244931692
 30
0.0
 10
-15.3235117546
 20
-1.5930038669
 30
0.0
 10
-14.9208394092
 20
-2.0816566977
 30
0.0
 10
-14.6227037473
 20
-2.3577876982
 30
0.0
 10
-14.4703821149
 20
-2.4753620809
 30
0.0
  0
SPLINE
  5
3EC
100
AcDbEntity
  8
RACCORDO
100
AcDbSpline
 62
250
  6
CONTINUOUS
 70
0
 71
3
 72
11
 73
7
 74
0
 42
0.0000001
 43
0.0000001
 44
0.0000000001
 40
0.0
 40
0.0
 40
0.0
 40
0.0
 40
0.2272879338
 40
0.474621746
 40
0.7352497277
 40
1.0
 40
1.0
 40
1.0
 40
1.0
 10
9.1104269267
 20
-12.4384726093
 30
0.0
 10
9.110423332
 20
-12.1781169275
 30
0.0
 10
9.0337448668
 20
-11.633384778
 30
0.0
 10
8.7375348683
 20
-10.8395409589
 30
0.0
 10
8.2786644625
 20
-10.0774411491
 30
0.0
 10
7.884417222
 20
-9.6184806461
 30
0.0
 10
7.6683963969
 20
-9.4056269455
 30
0.0
  0
SPLINE
  5
3ED
100
AcDbEntity
  8
RACCORDO
100
AcDbSpline
 62
250
  6
CONTINUOUS
 70
0
 71
3
 72
9
 73
5
 74
0
 42
0.0000001
 43
0.0000001
 44
0.0000000001
 40
0.0
 40
0.0
 40
0.0
 40
0.0
 40
0.525594712
 40
1.0
 40
1.0
 40
1.0
 40
1.0
 10
7.2590362816
 20
-9.041611641
 30
0.0
 10
6.9922304316
 20
-8.8281286706
 30
0.0
 10
6.4434978041
 20
-8.4700910297
 30
0.0
 10
5.8231383161
 20
-8.2469174019
 30
0.0
 10
5.5200253898
 20
-8.1899344119
 30
0.0
  0
SPLINE
  5
3EE
100
AcDbEntity
  8
RACCORDO
100
AcDbSpline
 62
250
  6
CONTINUOUS
 70
0
 71
3
 72
15
 73
11
 74
0
 42
0.0000001
 43
0.0000001
 44
0.0000000001
 40
0.0
 40
0.0
 40
0.0
 40
0.0
 40
0.1327319474
 40
0.2568301748
 40
0.3747529109
 40
0.4900842752
 40
0.6069494044
 40
0.7292061714
 40
0.8597101009
 40
1.0
 40
1.0
 40
1.0
 40
1.0
 10
5.3289811092
 20
-8.1609484823
 30
0.0
 10
5.1913567654
 20
-8.145169978
 30
0.0
 10
4.9217703227
 20
-8.1361070061
 30
0.0
 10
4.5330157147
 20
-8.1995786394
 30
0.0
 10
4.184293086
 20
-8.3413313656
 30
0.0
 10
3.8860977398
 20
-8.5589785808
 30
0.0
 10
3.6478365205
 20
-8.8467114345
 30
0.0
 10
3.4758589802
 20
-9.195531665
 30
0.0
 10
3.3730726253
 20
-9.5951500553
 30
0.0
 10
3.3519576888
 20
-9.8784730349
 30
0.0
 10
3.3519578532
 20
-10.0248867883
 30
0.0
  0
SPLINE
  5
3EF
100
AcDbEntity
  8
RACCORDO
100
AcDbSpline
 62
250
  6
CONTINUOUS
 70
0
 71
3
 72
23
 73
19
 74
0
 42
0.0000001
 43
0.0000001
 44
0.0000000001
 40
0.0
 40
0.0
 40
0.0
 40
0.0
 40
0.0630884923
 40
0.1308794836
 40
0.2022802318
 40
0.2758356886
 40
0.3499435798
 40
0.4230291363
 40
0.4936778503
 40
0.5607648683
 40
0.6235541246
 40
0.6818267396
 40
0.7359861716
 40
0.7871572695
 40
0.837133623
 40
0.8880546091
 40
0.9418998705
 40
1.0
 40
1.0
 40
1.0
 40
1.0
 10
3.3519578532
 20
-10.0248867883
 30
0.0
 10
3.3519603055
 20
-10.2214641053
 30
0.0
 10
3.3926375887
 20
-10.6297945439
 30
0.0
 10
3.5558463152
 20
-11.2408667921
 30
0.0
 10
3.8177761742
 20
-11.8521808301
 30
0.0
 10
4.1688240693
 20
-12.4398245415
 30
0.0
 10
4.5959506437
 20
-12.9814351886
 30
0.0
 10
5.0839760828
 20
-13.4561472497
 30
0.0
 10
5.6153595023
 20
-13.8461741943
 30
0.0
 10
6.1710975187
 20
-14.1374640981
 30
0.0
 10
6.7318532361
 20
-14.3191583455
 30
0.0
 10
7.2779754088
 20
-14.3842131915
 30
0.0
 10
7.7898221318
 20
-14.3282247744
 30
0.0
 10
8.2464070393
 20
-14.1498525185
 30
0.0
 10
8.6254808131
 20
-13.8541530698
 30
0.0
 10
8.9064336508
 20
-13.454023637
 30
0.0
 10
9.0759741011
 20
-12.9699250828
 30
0.0
 10
9.1104271273
 20
-12.6195066958
 30
0.0
 10
9.1104269267
 20
-12.4384726093
 30
0.0
  0
SPLINE
  5
3F0
100
AcDbEntity
  8
RACCORDO
100
AcDbSpline
 62
250
  6
CONTINUOUS
 70
0
 71
3
 72
9
 73
5
 74
0
 42
0.0000001
 43
0.0000001
 44
0.0000000001
 40
0.0
 40
0.0
 40
0.0
 40
0.0
 40
0.2606713971
 40
1.0
 40
1.0
 40
1.0
 40
1.0
 10
9.0526213043
 20
-12.4160510706
 30
0.0
 10
9.0526211419
 20
-12.478269376
 30
0.0
 10
9.0444536967
 20
-12.7168011792
 30
0.0
 10
9.00168738
 20
-12.9547844367
 30
0.0
 10
8.9476252455
 20
-13.122765734
 30
0.0
  0
SPLINE
  5
3F1
100
AcDbEntity
  8
RACCORDO
100
AcDbSpline
 62
250
  6
CONTINUOUS
 70
0
 71
3
 72
22
 73
18
 74
0
 42
0.0000001
 43
0.0000001
 44
0.0000000001
 40
0.0
 40
0.0
 40
0.0
 40
0.0
 40
0.0523016018
 40
0.1023994993
 40
0.1520242978
 40
0.2029548645
 40
0.2566526272
 40
0.3140579765
 40
0.3755603479
 40
0.4410601999
 40
0.5100487256
 40
0.5816874533
 40
0.7281423062
 40
0.8006490638
 40
0.8708489082
 40
0.9375862551
 40
1.0
 40
1.0
 40
1.0
 40
1.0
 10
8.9465864578
 20
-13.1259840101
 30
0.0
 10
8.9012454759
 20
-13.2660454622
 30
0.0
 10
8.7810031479
 20
-13.531718277
 30
0.0
 10
8.5076598074
 20
-13.8673172887
 30
0.0
 10
8.1574382486
 20
-14.1154945998
 30
0.0
 10
7.7457290312
 20
-14.2672942269
 30
0.0
 10
7.2887797736
 20
-14.3195493201
 30
0.0
 10
6.8020966466
 20
-14.2726749552
 30
0.0
 10
6.3005881569
 20
-14.12938632
 30
0.0
 10
5.7991221867
 20
-13.8945517091
 30
0.0
 10
5.3123940887
 20
-13.5753136613
 30
0.0
 10
4.6987976181
 20
-13.046950291
 30
0.0
 10
4.1806593126
 20
-12.4018041184
 30
0.0
 10
3.7903789499
 20
-11.6859095467
 30
0.0
 10
3.5738034227
 20
-11.1356964778
 30
0.0
 10
3.4394476048
 20
-10.5891473113
 30
0.0
 10
3.4063977404
 20
-10.2251794312
 30
0.0
 10
3.4063969603
 20
-10.0494983817
 30
0.0
  0
SPLINE
  5
3F2
100
AcDbEntity
  8
RACCORDO
100
AcDbSpline
 62
250
  6
CONTINUOUS
 70
0
 71
3
 72
15
 73
11
 74
0
 42
0.0000001
 43
0.0000001
 44
0.0000000001
 40
0.0
 40
0.0
 40
0.0
 40
0.0
 40
0.1393313608
 40
0.268482728
 40
0.3892672457
 40
0.5049647686
 40
0.619902335
 40
0.7385401904
 40
0.8644964467
 40
1.0
 40
1.0
 40
1.0
 40
1.0
 10
3.4063969603
 20
-10.0494983817
 30
0.0
 10
3.406397406
 20
-9.8992678467
 30
0.0
 10
3.4289304702
 20
-9.6089581331
 30
0.0
 10
3.5398308883
 20
-9.2012570059
 30
0.0
 10
3.7252668745
 20
-8.8492407118
 30
0.0
 10
3.9815459085
 20
-8.5644889029
 30
0.0
 10
4.3009071968
 20
-8.357000087
 30
0.0
 10
4.6720810099
 20
-8.2327000606
 30
0.0
 10
5.08289971
 20
-8.1927936765
 30
0.0
 10
5.3652166365
 20
-8.2203978254
 30
0.0
 10
5.5090403077
 20
-8.2461062923
 30
0.0
  0
SPLINE
  5
3F3
100
AcDbEntity
  8
RACCORDO
100
AcDbSpline
 62
250
  6
CONTINUOUS
 70
0
 71
3
 72
9
 73
5
 74
0
 42
0.0000001
 43
0.0000001
 44
0.0000000001
 40
0.0
 40
0.0
 40
0.0
 40
0.0
 40
0.4753555424
 40
1.0
 40
1.0
 40
1.0
 40
1.0
 10
5.5593366858
 20
-8.2555780396
 30
0.0
 10
5.8447115306
 20
-8.312036569
 30
0.0
 10
6.4276239413
 20
-8.5228887757
 30
0.0
 10
6.9461298003
 20
-8.856331412
 30
0.0
 10
7.1987651403
 20
-9.0544757116
 30
0.0
  0
SPLINE
  5
3F4
100
AcDbEntity
  8
RACCORDO
100
AcDbSpline
 62
250
  6
CONTINUOUS
 70
0
 71
3
 72
9
 73
5
 74
0
 42
0.0000001
 43
0.0000001
 44
0.0000000001
 40
0.0
 40
0.0
 40
0.0
 40
0.0
 40
0.5059904575
 40
1.0
 40
1.0
 40
1.0
 40
1.0
 10
7.6454001374
 20
-9.4485397608
 30
0.0
 10
7.8850769288
 20
-9.6855123091
 30
0.0
 10
8.3156419402
 20
-10.199394388
 30
0.0
 10
8.6408320201
 20
-10.7868943453
 30
0.0
 10
8.7669730449
 20
-11.0908242159
 30
0.0
  0
SPLINE
  5
3F5
100
AcDbEntity
  8
RACCORDO
100
AcDbSpline
 62
250
  6
CONTINUOUS
 70
0
 71
3
 72
9
 73
5
 74
0
 42
0.0000001
 43
0.0000001
 44
0.0000000001
 40
0.0
 40
0.0
 40
0.0
 40
0.0
 40
0.2531736929
 40
1.0
 40
1.0
 40
1.0
 40
1.0
 10
8.7669730449
 20
-11.0908242159
 30
0.0
 10
8.7800648579
 20
-11.1223682203
 30
0.0
 10
8.8303021977
 20
-11.2475670472
 30
0.0
 10
8.8745488219
 20
-11.3751849354
 30
0.0
 10
8.9038221532
 20
-11.4715844131
 30
0.0
  0
SPLINE
  5
3F6
100
AcDbEntity
  8
RACCORDO
100
AcDbSpline
 62
250
  6
CONTINUOUS
 70
0
 71
3
 72
9
 73
5
 74
0
 42
0.0000001
 43
0.0000001
 44
0.0000000001
 40
0.0
 40
0.0
 40
0.0
 40
0.0
 40
0.2608700867
 40
1.0
 40
1.0
 40
1.0
 40
1.0
 10
8.9101583769
 20
-11.492665847
 30
0.0
 10
8.933365402
 20
-11.5706856348
 30
0.0
 10
9.0128207999
 20
-11.8723899925
 30
0.0
 10
9.0526203501
 20
-12.1854236988
 30
0.0
 10
9.0526213043
 20
-12.4160510706
 30
0.0
  0
SPLINE
  5
3F7
100
AcDbEntity
  8
RACCORDO
100
AcDbSpline
 62
250
  6
CONTINUOUS
 70
0
 71
3
 72
11
 73
7
 74
0
 42
0.0000001
 43
0.0000001
 44
0.0000000001
 40
0.0
 40
0.0
 40
0.0
 40
0.0
 40
0.2795837924
 40
0.5374016016
 40
0.7756068682
 40
1.0
 40
1.0
 40
1.0
 40
1.0
 10
6.0427127617
 20
-8.1868233657
 30
0.0
 10
5.8737211964
 20
-8.1265185748
 30
0.0
 10
5.5394151522
 20
-8.0345009827
 30
0.0
 10
5.04032929
 20
-7.9909998072
 30
0.0
 10
4.5778099907
 20
-8.0514569032
 30
0.0
 10
4.2989211875
 20
-8.1651217517
 30
0.0
 10
4.1746267552
 20
-8.2378512055
 30
0.0
  0
SPLINE
  5
3F8
100
AcDbEntity
  8
RACCORDO
100
AcDbSpline
 62
250
  6
CONTINUOUS
 70
0
 71
3
 72
9
 73
5
 74
0
 42
0.0000001
 43
0.0000001
 44
0.0000000001
 40
0.0
 40
0.0
 40
0.0
 40
0.0
 40
0.5605304371
 40
1.0
 40
1.0
 40
1.0
 40
1.0
 10
3.3519578532
 20
-10.0248867883
 30
0.0
 10
3.3414192213
 20
-10.0201188429
 30
0.0
 10
3.3232132176
 20
-10.0090037952
 30
0.0
 10
3.3136480626
 20
-9.9885119888
 30
0.0
 10
3.3136406742
 20
-9.9794431616
 30
0.0
  0
SPLINE
  5
3F9
100
AcDbEntity
  8
RACCORDO
100
AcDbSpline
 62
250
  6
CONTINUOUS
 70
0
 71
3
 72
9
 73
5
 74
0
 42
0.0000001
 43
0.0000001
 44
0.0000000001
 40
0.0
 40
0.0
 40
0.0
 40
0.0
 40
0.493316161
 40
1.0
 40
1.0
 40
1.0
 40
1.0
 10
9.1104269267
 20
-12.4384726093
 30
0.0
 10
9.1255874714
 20
-12.4443484777
 30
0.0
 10
9.1586145997
 20
-12.4504156705
 30
0.0
 10
9.191948137
 20
-12.4472583058
 30
0.0
 10
9.2080835969
 20
-12.4429529061
 30
0.0
  0
SPLINE
  5
3FA
100
AcDbEntity
  8
RACCORDO
100
AcDbSpline
 62
250
  6
CONTINUOUS
 70
0
 71
3
 72
9
 73
5
 74
0
 42
0.0000001
 43
0.0000001
 44
0.0000000001
 40
0.0
 40
0.0
 40
0.0
 40
0.0
 40
0.5314849144
 40
1.0
 40
1.0
 40
1.0
 40
1.0
 10
-14.4703821149
 20
-2.4753620809
 30
0.0
 10
-14.4703822978
 20
-2.497402138
 30
0.0
 10
-14.4639986152
 20
-2.539646159
 30
0.0
 10
-14.4383335856
 20
-2.5749328015
 30
0.0
 10
-14.4229467174
 20
-2.5867954096
 30
0.0
  0
SPLINE
  5
3FB
100
AcDbEntity
  8
RACCORDO
100
AcDbSpline
 62
250
  6
CONTINUOUS
 70
0
 71
3
 72
9
 73
5
 74
0
 42
0.0000001
 43
0.0000001
 44
0.0000000001
 40
0.0
 40
0.0
 40
0.0
 40
0.0
 40
0.4811867036
 40
1.0
 40
1.0
 40
1.0
 40
1.0
 10
-14.4703821149
 20
3.472615869
 30
0.0
 10
-14.4703825339
 20
3.5230401412
 30
0.0
 10
-14.4345530033
 20
3.6271619511
 30
0.0
 10
-14.361791559
 20
3.7070752612
 30
0.0
 10
-14.3167325988
 20
3.7374970397
 30
0.0
  0
SPLINE
  5
3FC
100
AcDbEntity
  8
RACCORDO
100
AcDbSpline
 62
250
  6
CONTINUOUS
 70
0
 71
3
 72
9
 73
5
 74
0
 42
0.0000001
 43
0.0000001
 44
0.0000000001
 40
0.0
 40
0.0
 40
0.0
 40
0.0
 40
0.4823217976
 40
1.0
 40
1.0
 40
1.0
 40
1.0
 10
-1.0016175501
 20
-4.9597584175
 30
0.0
 10
-1.0016173513
 20
-4.9151481683
 30
0.0
 10
-0.9790188597
 20
-4.8229544471
 30
0.0
 10
-0.93146365
 20
-4.7419011433
 30
0.0
 10
-0.900418227
 20
-4.7054496271
 30
0.0
  0
SPLINE
  5
3FD
100
AcDbEntity
  8
RACCORDO
100
AcDbSpline
 62
250
  6
CONTINUOUS
 70
0
 71
3
 72
11
 73
7
 74
0
 42
0.0000001
 43
0.0000001
 44
0.0000000001
 40
0.0
 40
0.0
 40
0.0
 40
0.0
 40
0.2971509878
 40
0.5590387273
 40
0.7890651795
 40
1.0
 40
1.0
 40
1.0
 40
1.0
 10
-1.0016175501
 20
-10.9078391988
 30
0.0
 10
-1.0016174815
 20
-10.9208934055
 30
0.0
 10
-0.9997212183
 20
-10.9455334871
 30
0.0
 10
-0.9900177496
 20
-10.9791343564
 30
0.0
 10
-0.9735882244
 20
-11.0058426965
 30
0.0
 10
-0.9579464398
 20
-11.0181412072
 30
0.0
 10
-0.9496915409
 20
-11.0223515494
 30
0.0
  0
SPLINE
  5
3FE
100
AcDbEntity
  8
RACCORDO
100
AcDbSpline
 62
250
  6
CONTINUOUS
 70
0
 71
3
 72
17
 73
13
 74
0
 42
0.0000001
 43
0.0000001
 44
0.0000000001
 40
0.0
 40
0.0
 40
0.0
 40
0.0
 40
0.0487449591
 40
0.099318257
 40
0.152471805
 40
0.20866476
 40
0.330346504
 40
0.4632734038
 40
0.6030344334
 40
0.7434141948
 40
0.8776592384
 40
1.0
 40
1.0
 40
1.0
 40
1.0
 10
8.2263071412
 20
-3.6540544189
 30
0.0
 10
8.1294502077
 20
-3.7113422413
 30
0.0
 10
7.9187573367
 20
-3.8067421565
 30
0.0
 10
7.5733596774
 20
-3.8846463184
 30
0.0
 10
7.2024968172
 20
-3.8985126415
 30
0.0
 10
6.6715212876
 20
-3.8301033245
 30
0.0
 10
5.9894622958
 20
-3.5781557593
 30
0.0
 10
5.2285379878
 20
-3.0658116999
 30
0.0
 10
4.5592429992
 20
-2.3776134737
 30
0.0
 10
4.0342192457
 20
-1.5704694777
 30
0.0
 10
3.6940873414
 20
-0.7130095542
 30
0.0
 10
3.6039667611
 20
-0.1196138563
 30
0.0
 10
3.603966045
 20
0.1628172449
 30
0.0
  0
SPLINE
  5
3FF
100
AcDbEntity
  8
RACCORDO
100
AcDbSpline
 62
250
  6
CONTINUOUS
 70
0
 71
3
 72
11
 73
7
 74
0
 42
0.0000001
 43
0.0000001
 44
0.0000000001
 40
0.0
 40
0.0
 40
0.0
 40
0.0
 40
0.275786398
 40
0.5291828739
 40
0.7673906063
 40
1.0
 40
1.0
 40
1.0
 40
1.0
 10
-15.024259593
 20
14.3797430115
 30
0.0
 10
-15.10681329
 20
14.4062935174
 30
0.0
 10
-15.2694273477
 20
14.4456797566
 30
0.0
 10
-15.5120460768
 20
14.4580828231
 30
0.0
 10
-15.7384976105
 20
14.419509306
 30
0.0
 10
-15.8757144791
 20
14.3594251353
 30
0.0
 10
-15.9386635905
 20
14.3221812734
 30
0.0
  0
SPLINE
  5
400
100
AcDbEntity
  8
RACCORDO
100
AcDbSpline
 62
250
  6
CONTINUOUS
 70
0
 71
3
 72
11
 73
7
 74
0
 42
0.0000001
 43
0.0000001
 44
0.0000000001
 40
0.0
 40
0.0
 40
0.0
 40
0.0
 40
0.2429567307
 40
0.4882348041
 40
0.7395096873
 40
1.0
 40
1.0
 40
1.0
 40
1.0
 10
1.2325662111
 20
-0.919841039
 30
0.0
 10
1.3054824772
 20
-0.8787732798
 30
0.0
 10
1.4454709469
 20
-0.7839380429
 30
0.0
 10
1.6305553988
 20
-0.6073478122
 30
0.0
 10
1.788917156
 20
-0.3988941361
 30
0.0
 10
1.8735461722
 20
-0.2434357259
 30
0.0
 10
1.9109915285
 20
-0.1618974524
 30
0.0
  0
SPLINE
  5
401
100
AcDbEntity
  8
RACCORDO
100
AcDbSpline
 62
250
  6
CONTINUOUS
 70
0
 71
3
 72
11
 73
7
 74
0
 42
0.0000001
 43
0.0000001
 44
0.0000000001
 40
0.0
 40
0.0
 40
0.0
 40
0.0
 40
0.2419573208
 40
0.4855193318
 40
0.7365600983
 40
1.0
 40
1.0
 40
1.0
 40
1.0
 10
8.3407024219
 20
-3.9634528155
 30
0.0
 10
8.4450803853
 20
-3.9040694613
 30
0.0
 10
8.6423710949
 20
-3.7617531233
 30
0.0
 10
8.8862095667
 20
-3.4855586181
 30
0.0
 10
9.0704489356
 20
-3.1544709942
 30
0.0
 10
9.1484142063
 20
-2.9094533349
 30
0.0
 10
9.1771032075
 20
-2.7818893275
 30
0.0
  0
SPLINE
  5
402
100
AcDbEntity
  8
RACCORDO
100
AcDbSpline
 62
250
  6
CONTINUOUS
 70
0
 71
3
 72
9
 73
5
 74
0
 42
0.0000001
 43
0.0000001
 44
0.0000000001
 40
0.0
 40
0.0
 40
0.0
 40
0.0
 40
0.5133171539
 40
1.0
 40
1.0
 40
1.0
 40
1.0
 10
-1.0016175501
 20
5.2461200424
 30
0.0
 10
-3.4267807801
 20
6.4819826526
 30
0.0
 10
-8.0559214132
 20
9.0832238604
 30
0.0
 10
-12.4274661117
 20
12.1016682358
 30
0.0
 10
-14.4703821149
 20
13.6784943289
 30
0.0
  0
SPLINE
  5
403
100
AcDbEntity
  8
RACCORDO
100
AcDbSpline
 62
250
  6
CONTINUOUS
 70
0
 71
3
 72
26
 73
22
 74
0
 42
0.0000001
 43
0.0000001
 44
0.0000000001
 40
0.0
 40
0.0
 40
0.0
 40
0.0
 40
0.0612727094
 40
0.1171941938
 40
0.1684798669
 40
0.1929365998
 40
0.2169332354
 40
0.2407926933
 40
0.2648521732
 40
0.2894343385
 40
0.3148276312
 40
0.3688260905
 40
0.4281120736
 40
0.4928823452
 40
0.562534428
 40
0.6359038737
 40
0.7114413012
 40
0.7873902074
 40
0.8619213386
 40
0.9332837557
 40
1.0
 40
1.0
 40
1.0
 40
1.0
 10
-1.0016175501
 20
-0.7019607389
 30
0.0
 10
-0.8301831292
 20
-0.7893218136
 30
0.0
 10
-0.4871746911
 20
-0.9295770484
 30
0.0
 10
0.0371598253
 20
-1.0266418947
 30
0.0
 10
0.455372799
 20
-0.9986925929
 30
0.0
 10
0.7566403786
 20
-0.9092409628
 30
0.0
 10
0.9628504704
 20
-0.8119631992
 30
0.0
 10
1.1503165899
 20
-0.6843705297
 30
0.0
 10
1.3167782761
 20
-0.5277196571
 30
0.0
 10
1.4606026757
 20
-0.3439600816
 30
0.0
 10
1.6231906803
 20
-0.0596778076
 30
0.0
 10
1.7590806673
 20
0.359303904
 30
0.0
 10
1.8090023119
 20
0.919890484
 30
0.0
 10
1.7495984198
 20
1.5282801031
 30
0.0
 10
1.584708514
 20
2.1620087437
 30
0.0
 10
1.3215290226
 20
2.7979882358
 30
0.0
 10
0.9714660249
 20
3.4131968504
 30
0.0
 10
0.5488089242
 20
3.9854070159
 30
0.0
 10
0.0704930123
 20
4.4942652294
 30
0.0
 10
-0.4448544037
 20
4.9213997779
 30
0.0
 10
-0.8149535428
 20
5.1509960723
 30
0.0
 10
-1.0016175501
 20
5.2461200424
 30
0.0
  0
SPLINE
  5
404
100
AcDbEntity
  8
RACCORDO
100
AcDbSpline
 62
250
  6
CONTINUOUS
 70
0
 71
3
 72
9
 73
5
 74
0
 42
0.0000001
 43
0.0000001
 44
0.0000000001
 40
0.0
 40
0.0
 40
0.0
 40
0.0
 40
0.4893804334
 40
1.0
 40
1.0
 40
1.0
 40
1.0
 10
-14.3873250933
 20
7.6665017053
 30
0.0
 10
-12.7939316952
 20
6.4402517362
 30
0.0
 10
-9.4334658215
 20
4.0683385938
 30
0.0
 10
-5.907591814
 20
1.9519800575
 30
0.0
 10
-4.0738097824
 20
0.9329870448
 30
0.0
  0
SPLINE
  5
405
100
AcDbEntity
  8
RACCORDO
100
AcDbSpline
 62
250
  6
CONTINUOUS
 70
0
 71
3
 72
11
 73
7
 74
0
 42
0.0000001
 43
0.0000001
 44
0.0000000001
 40
0.0
 40
0.0
 40
0.0
 40
0.0
 40
0.2775842178
 40
0.5317593842
 40
0.7689372839
 40
1.0
 40
1.0
 40
1.0
 40
1.0
 10
3.603966045
 20
0.1628172449
 30
0.0
 10
3.6039663305
 20
0.3325571846
 30
0.0
 10
3.6339194305
 20
0.6591160981
 30
0.0
 10
3.7845085327
 20
1.1097600682
 30
0.0
 10
4.0365862687
 20
1.480034138
 30
0.0
 10
4.2662922551
 20
1.6597942887
 30
0.0
 10
4.3894021176
 20
1.7291306844
 30
0.0
  0
SPLINE
  5
406
100
AcDbEntity
  8
RACCORDO
100
AcDbSpline
 62
250
  6
CONTINUOUS
 70
0
 71
3
 72
27
 73
23
 74
0
 42
0.0000001
 43
0.0000001
 44
0.0000000001
 40
0.0
 40
0.0
 40
0.0
 40
0.0
 40
0.0579075105
 40
0.0837604818
 40
0.1076227981
 40
0.1502257782
 40
0.1699549127
 40
0.1893501047
 40
0.2090675992
 40
0.229729376
 40
0.2756855839
 40
0.3017216548
 40
0.3299420138
 40
0.3928212245
 40
0.4635282853
 40
0.5403087152
 40
0.6209299834
 40
0.7029517723
 40
0.7839524035
 40
0.8616864778
 40
0.9341988363
 40
1.0
 40
1.0
 40
1.0
 40
1.0
 10
-14.4703821149
 20
13.6784943289
 30
0.0
 10
-14.6044329581
 20
13.7819615713
 30
0.0
 10
-14.8099730205
 20
13.9184338596
 30
0.0
 10
-15.0972044164
 20
14.0488341032
 30
0.0
 10
-15.3550889841
 20
14.1296691134
 30
0.0
 10
-15.6118019628
 20
14.1535979724
 30
0.0
 10
-15.8473717068
 20
14.1050482212
 30
0.0
 10
-16.0063445931
 20
14.0359490483
 30
0.0
 10
-16.1497345106
 20
13.933875401
 30
0.0
 10
-16.3240629352
 20
13.7493712286
 30
0.0
 10
-16.4538937452
 20
13.5060308185
 30
0.0
 10
-16.5433707521
 20
13.2268044419
 30
0.0
 10
-16.6128076834
 20
12.890699368
 30
0.0
 10
-16.6432236514
 20
12.4163106306
 30
0.0
 10
-16.5985208904
 20
11.8013519481
 30
0.0
 10
-16.4754783715
 20
11.1444583438
 30
0.0
 10
-16.2783172584
 20
10.4715369246
 30
0.0
 10
-16.0141457436
 20
9.8087025362
 30
0.0
 10
-15.6921437658
 20
9.1813852907
 30
0.0
 10
-15.3235117546
 20
8.6128745931
 30
0.0
 10
-14.9208394092
 20
8.1242217623
 30
0.0
 10
-14.6227037473
 20
7.8480907617
 30
0.0
 10
-14.4703821149
 20
7.730516379
 30
0.0
  0
SPLINE
  5
407
100
AcDbEntity
  8
RACCORDO
100
AcDbSpline
 62
250
  6
CONTINUOUS
 70
0
 71
3
 72
11
 73
7
 74
0
 42
0.0000001
 43
0.0000001
 44
0.0000000001
 40
0.0
 40
0.0
 40
0.0
 40
0.0
 40
0.2272879338
 40
0.474621746
 40
0.7352497277
 40
1.0
 40
1.0
 40
1.0
 40
1.0
 10
9.1104269267
 20
-2.2325941493
 30
0.0
 10
9.110423332
 20
-1.9722384675
 30
0.0
 10
9.0337448668
 20
-1.4275063181
 30
0.0
 10
8.7375348683
 20
-0.633662499
 30
0.0
 10
8.2786644625
 20
0.1284373108
 30
0.0
 10
7.884417222
 20
0.5873978138
 30
0.0
 10
7.6683963969
 20
0.8002515144
 30
0.0
  0
SPLINE
  5
408
100
AcDbEntity
  8
RACCORDO
100
AcDbSpline
 62
250
  6
CONTINUOUS
 70
0
 71
3
 72
9
 73
5
 74
0
 42
0.0000001
 43
0.0000001
 44
0.0000000001
 40
0.0
 40
0.0
 40
0.0
 40
0.0
 40
0.525594712
 40
1.0
 40
1.0
 40
1.0
 40
1.0
 10
7.2590362816
 20
1.164266819
 30
0.0
 10
6.9922304316
 20
1.3777497893
 30
0.0
 10
6.4434978041
 20
1.7357874302
 30
0.0
 10
5.8231383161
 20
1.9589610581
 30
0.0
 10
5.5200253898
 20
2.015944048
 30
0.0
  0
SPLINE
  5
409
100
AcDbEntity
  8
RACCORDO
100
AcDbSpline
 62
250
  6
CONTINUOUS
 70
0
 71
3
 72
15
 73
11
 74
0
 42
0.0000001
 43
0.0000001
 44
0.0000000001
 40
0.0
 40
0.0
 40
0.0
 40
0.0
 40
0.1327319474
 40
0.2568301748
 40
0.3747529109
 40
0.4900842752
 40
0.6069494044
 40
0.7292061714
 40
0.8597101009
 40
1.0
 40
1.0
 40
1.0
 40
1.0
 10
5.3289811092
 20
2.0449299776
 30
0.0
 10
5.1913567654
 20
2.0607084819
 30
0.0
 10
4.9217703227
 20
2.0697714538
 30
0.0
 10
4.5330157147
 20
2.0062998205
 30
0.0
 10
4.184293086
 20
1.8645470943
 30
0.0
 10
3.8860977398
 20
1.6468998791
 30
0.0
 10
3.6478365205
 20
1.3591670254
 30
0.0
 10
3.4758589802
 20
1.0103467949
 30
0.0
 10
3.3730726253
 20
0.6107284046
 30
0.0
 10
3.3519576888
 20
0.327405425
 30
0.0
 10
3.3519578532
 20
0.1809916716
 30
0.0
  0
SPLINE
  5
40A
100
AcDbEntity
  8
RACCORDO
100
AcDbSpline
 62
250
  6
CONTINUOUS
 70
0
 71
3
 72
23
 73
19
 74
0
 42
0.0000001
 43
0.0000001
 44
0.0000000001
 40
0.0
 40
0.0
 40
0.0
 40
0.0
 40
0.0630884923
 40
0.1308794836
 40
0.2022802318
 40
0.2758356886
 40
0.3499435798
 40
0.4230291363
 40
0.4936778503
 40
0.5607648683
 40
0.6235541246
 40
0.6818267396
 40
0.7359861716
 40
0.7871572695
 40
0.837133623
 40
0.8880546091
 40
0.9418998705
 40
1.0
 40
1.0
 40
1.0
 40
1.0
 10
3.3519578532
 20
0.1809916716
 30
0.0
 10
3.3519603055
 20
-0.0155856454
 30
0.0
 10
3.3926375887
 20
-0.423916084
 30
0.0
 10
3.5558463152
 20
-1.0349883322
 30
0.0
 10
3.8177761742
 20
-1.6463023702
 30
0.0
 10
4.1688240693
 20
-2.2339460815
 30
0.0
 10
4.5959506437
 20
-2.7755567287
 30
0.0
 10
5.0839760828
 20
-3.2502687897
 30
0.0
 10
5.6153595023
 20
-3.6402957344
 30
0.0
 10
6.1710975187
 20
-3.9315856382
 30
0.0
 10
6.7318532361
 20
-4.1132798856
 30
0.0
 10
7.2779754088
 20
-4.1783347316
 30
0.0
 10
7.7898221318
 20
-4.1223463145
 30
0.0
 10
8.2464070393
 20
-3.9439740586
 30
0.0
 10
8.6254808131
 20
-3.6482746099
 30
0.0
 10
8.9064336508
 20
-3.2481451771
 30
0.0
 10
9.0759741011
 20
-2.7640466228
 30
0.0
 10
9.1104271273
 20
-2.4136282359
 30
0.0
 10
9.1104269267
 20
-2.2325941493
 30
0.0
  0
SPLINE
  5
40B
100
AcDbEntity
  8
RACCORDO
100
AcDbSpline
 62
250
  6
CONTINUOUS
 70
0
 71
3
 72
9
 73
5
 74
0
 42
0.0000001
 43
0.0000001
 44
0.0000000001
 40
0.0
 40
0.0
 40
0.0
 40
0.0
 40
0.2606713971
 40
1.0
 40
1.0
 40
1.0
 40
1.0
 10
9.0526213043
 20
-2.2101726107
 30
0.0
 10
9.0526211419
 20
-2.2723909161
 30
0.0
 10
9.0444536967
 20
-2.5109227193
 30
0.0
 10
9.00168738
 20
-2.7489059768
 30
0.0
 10
8.9476252455
 20
-2.9168872741
 30
0.0
  0
SPLINE
  5
40C
100
AcDbEntity
  8
RACCORDO
100
AcDbSpline
 62
250
  6
CONTINUOUS
 70
0
 71
3
 72
22
 73
18
 74
0
 42
0.0000001
 43
0.0000001
 44
0.0000000001
 40
0.0
 40
0.0
 40
0.0
 40
0.0
 40
0.0523016018
 40
0.1023994993
 40
0.1520242978
 40
0.2029548645
 40
0.2566526272
 40
0.3140579765
 40
0.3755603479
 40
0.4410601999
 40
0.5100487256
 40
0.5816874533
 40
0.7281423062
 40
0.8006490638
 40
0.8708489082
 40
0.9375862551
 40
1.0
 40
1.0
 40
1.0
 40
1.0
 10
8.9465864578
 20
-2.9201055502
 30
0.0
 10
8.9012454759
 20
-3.0601670023
 30
0.0
 10
8.7810031479
 20
-3.3258398171
 30
0.0
 10
8.5076598074
 20
-3.6614388288
 30
0.0
 10
8.1574382486
 20
-3.9096161399
 30
0.0
 10
7.7457290312
 20
-4.061415767
 30
0.0
 10
7.2887797736
 20
-4.1136708602
 30
0.0
 10
6.8020966466
 20
-4.0667964953
 30
0.0
 10
6.3005881569
 20
-3.9235078601
 30
0.0
 10
5.7991221867
 20
-3.6886732492
 30
0.0
 10
5.3123940887
 20
-3.3694352014
 30
0.0
 10
4.6987976181
 20
-2.8410718311
 30
0.0
 10
4.1806593126
 20
-2.1959256585
 30
0.0
 10
3.7903789499
 20
-1.4800310868
 30
0.0
 10
3.5738034227
 20
-0.9298180179
 30
0.0
 10
3.4394476048
 20
-0.3832688514
 30
0.0
 10
3.4063977404
 20
-0.0193009713
 30
0.0
 10
3.4063969603
 20
0.1563800782
 30
0.0
  0
SPLINE
  5
40D
100
AcDbEntity
  8
RACCORDO
100
AcDbSpline
 62
250
  6
CONTINUOUS
 70
0
 71
3
 72
15
 73
11
 74
0
 42
0.0000001
 43
0.0000001
 44
0.0000000001
 40
0.0
 40
0.0
 40
0.0
 40
0.0
 40
0.1393313608
 40
0.268482728
 40
0.3892672457
 40
0.5049647686
 40
0.619902335
 40
0.7385401904
 40
0.8644964467
 40
1.0
 40
1.0
 40
1.0
 40
1.0
 10
3.4063969603
 20
0.1563800782
 30
0.0
 10
3.406397406
 20
0.3066106133
 30
0.0
 10
3.4289304702
 20
0.5969203268
 30
0.0
 10
3.5398308883
 20
1.004621454
 30
0.0
 10
3.7252668745
 20
1.3566377481
 30
0.0
 10
3.9815459085
 20
1.6413895571
 30
0.0
 10
4.3009071968
 20
1.8488783729
 30
0.0
 10
4.6720810099
 20
1.9731783993
 30
0.0
 10
5.08289971
 20
2.0130847834
 30
0.0
 10
5.3652166365
 20
1.9854806345
 30
0.0
 10
5.5090403077
 20
1.9597721677
 30
0.0
  0
SPLINE
  5
40E
100
AcDbEntity
  8
RACCORDO
100
AcDbSpline
 62
250
  6
CONTINUOUS
 70
0
 71
3
 72
9
 73
5
 74
0
 42
0.0000001
 43
0.0000001
 44
0.0000000001
 40
0.0
 40
0.0
 40
0.0
 40
0.0
 40
0.4753555424
 40
1.0
 40
1.0
 40
1.0
 40
1.0
 10
5.5593366858
 20
1.9503004203
 30
0.0
 10
5.8447115306
 20
1.8938418909
 30
0.0
 10
6.4276239413
 20
1.6829896842
 30
0.0
 10
6.9461298003
 20
1.3495470479
 30
0.0
 10
7.1987651403
 20
1.1514027483
 30
0.0
  0
SPLINE
  5
40F
100
AcDbEntity
  8
RACCORDO
100
AcDbSpline
 62
250
  6
CONTINUOUS
 70
0
 71
3
 72
9
 73
5
 74
0
 42
0.0000001
 43
0.0000001
 44
0.0000000001
 40
0.0
 40
0.0
 40
0.0
 40
0.0
 40
0.5059904575
 40
1.0
 40
1.0
 40
1.0
 40
1.0
 10
7.6454001374
 20
0.7573386991
 30
0.0
 10
7.8850769288
 20
0.5203661508
 30
0.0
 10
8.3156419402
 20
0.0064840719
 30
0.0
 10
8.6408320201
 20
-0.5810158853
 30
0.0
 10
8.7669730449
 20
-0.884945756
 30
0.0
  0
SPLINE
  5
410
100
AcDbEntity
  8
RACCORDO
100
AcDbSpline
 62
250
  6
CONTINUOUS
 70
0
 71
3
 72
9
 73
5
 74
0
 42
0.0000001
 43
0.0000001
 44
0.0000000001
 40
0.0
 40
0.0
 40
0.0
 40
0.0
 40
0.2531736929
 40
1.0
 40
1.0
 40
1.0
 40
1.0
 10
8.7669730449
 20
-0.884945756
 30
0.0
 10
8.7800648579
 20
-0.9164897604
 30
0.0
 10
8.8303021977
 20
-1.0416885873
 30
0.0
 10
8.8745488219
 20
-1.1693064755
 30
0.0
 10
8.9038221532
 20
-1.2657059532
 30
0.0
  0
SPLINE
  5
411
100
AcDbEntity
  8
RACCORDO
100
AcDbSpline
 62
250
  6
CONTINUOUS
 70
0
 71
3
 72
9
 73
5
 74
0
 42
0.0000001
 43
0.0000001
 44
0.0000000001
 40
0.0
 40
0.0
 40
0.0
 40
0.0
 40
0.2608700867
 40
1.0
 40
1.0
 40
1.0
 40
1.0
 10
8.9101583769
 20
-1.2867873871
 30
0.0
 10
8.933365402
 20
-1.3648071749
 30
0.0
 10
9.0128207999
 20
-1.6665115325
 30
0.0
 10
9.0526203501
 20
-1.9795452388
 30
0.0
 10
9.0526213043
 20
-2.2101726107
 30
0.0
  0
SPLINE
  5
412
100
AcDbEntity
  8
RACCORDO
100
AcDbSpline
 62
250
  6
CONTINUOUS
 70
0
 71
3
 72
11
 73
7
 74
0
 42
0.0000001
 43
0.0000001
 44
0.0000000001
 40
0.0
 40
0.0
 40
0.0
 40
0.0
 40
0.2795837924
 40
0.5374016016
 40
0.7756068682
 40
1.0
 40
1.0
 40
1.0
 40
1.0
 10
6.0427127617
 20
2.0190550942
 30
0.0
 10
5.8737211964
 20
2.0793598851
 30
0.0
 10
5.5394151522
 20
2.1713774772
 30
0.0
 10
5.04032929
 20
2.2148786527
 30
0.0
 10
4.5778099907
 20
2.1544215567
 30
0.0
 10
4.2989211875
 20
2.0407567082
 30
0.0
 10
4.1746267552
 20
1.9680272544
 30
0.0
  0
SPLINE
  5
413
100
AcDbEntity
  8
RACCORDO
100
AcDbSpline
 62
250
  6
CONTINUOUS
 70
0
 71
3
 72
9
 73
5
 74
0
 42
0.0000001
 43
0.0000001
 44
0.0000000001
 40
0.0
 40
0.0
 40
0.0
 40
0.0
 40
0.5605304371
 40
1.0
 40
1.0
 40
1.0
 40
1.0
 10
3.3519578532
 20
0.1809916716
 30
0.0
 10
3.3414192213
 20
0.185759617
 30
0.0
 10
3.3232132176
 20
0.1968746647
 30
0.0
 10
3.3136480626
 20
0.2173664711
 30
0.0
 10
3.3136406742
 20
0.2264352983
 30
0.0
  0
SPLINE
  5
414
100
AcDbEntity
  8
RACCORDO
100
AcDbSpline
 62
250
  6
CONTINUOUS
 70
0
 71
3
 72
9
 73
5
 74
0
 42
0.0000001
 43
0.0000001
 44
0.0000000001
 40
0.0
 40
0.0
 40
0.0
 40
0.0
 40
0.493316161
 40
1.0
 40
1.0
 40
1.0
 40
1.0
 10
9.1104269267
 20
-2.2325941493
 30
0.0
 10
9.1255874714
 20
-2.2384700178
 30
0.0
 10
9.1586145997
 20
-2.2445372106
 30
0.0
 10
9.191948137
 20
-2.2413798459
 30
0.0
 10
9.2080835969
 20
-2.2370744461
 30
0.0
  0
SPLINE
  5
415
100
AcDbEntity
  8
RACCORDO
100
AcDbSpline
 62
250
  6
CONTINUOUS
 70
0
 71
3
 72
9
 73
5
 74
0
 42
0.0000001
 43
0.0000001
 44
0.0000000001
 40
0.0
 40
0.0
 40
0.0
 40
0.0
 40
0.5314849144
 40
1.0
 40
1.0
 40
1.0
 40
1.0
 10
-14.4703821149
 20
7.730516379
 30
0.0
 10
-14.4703822978
 20
7.7084763219
 30
0.0
 10
-14.4639986152
 20
7.666232301
 30
0.0
 10
-14.4383335856
 20
7.6309456584
 30
0.0
 10
-14.4229467174
 20
7.6190830503
 30
0.0
  0
SPLINE
  5
416
100
AcDbEntity
  8
RACCORDO
100
AcDbSpline
 62
250
  6
CONTINUOUS
 70
0
 71
3
 72
9
 73
5
 74
0
 42
0.0000001
 43
0.0000001
 44
0.0000000001
 40
0.0
 40
0.0
 40
0.0
 40
0.0
 40
0.4811867036
 40
1.0
 40
1.0
 40
1.0
 40
1.0
 10
-14.4703821149
 20
13.6784943289
 30
0.0
 10
-14.4703825339
 20
13.7289186011
 30
0.0
 10
-14.4345530033
 20
13.833040411
 30
0.0
 10
-14.361791559
 20
13.9129537211
 30
0.0
 10
-14.3167325988
 20
13.9433754996
 30
0.0
  0
SPLINE
  5
417
100
AcDbEntity
  8
RACCORDO
100
AcDbSpline
 62
250
  6
CONTINUOUS
 70
0
 71
3
 72
9
 73
5
 74
0
 42
0.0000001
 43
0.0000001
 44
0.0000000001
 40
0.0
 40
0.0
 40
0.0
 40
0.0
 40
0.4823217976
 40
1.0
 40
1.0
 40
1.0
 40
1.0
 10
-1.0016175501
 20
5.2461200424
 30
0.0
 10
-1.0016173513
 20
5.2907302916
 30
0.0
 10
-0.9790188597
 20
5.3829240128
 30
0.0
 10
-0.93146365
 20
5.4639773166
 30
0.0
 10
-0.900418227
 20
5.5004288328
 30
0.0
  0
SPLINE
  5
418
100
AcDbEntity
  8
RACCORDO
100
AcDbSpline
 62
250
  6
CONTINUOUS
 70
0
 71
3
 72
11
 73
7
 74
0
 42
0.0000001
 43
0.0000001
 44
0.0000000001
 40
0.0
 40
0.0
 40
0.0
 40
0.0
 40
0.2971509878
 40
0.5590387273
 40
0.7890651795
 40
1.0
 40
1.0
 40
1.0
 40
1.0
 10
-1.0016175501
 20
-0.7019607389
 30
0.0
 10
-1.0016174815
 20
-0.7150149456
 30
0.0
 10
-0.9997212183
 20
-0.7396550272
 30
0.0
 10
-0.9900177496
 20
-0.7732558965
 30
0.0
 10
-0.9735882244
 20
-0.7999642365
 30
0.0
 10
-0.9579464398
 20
-0.8122627473
 30
0.0
 10
-0.9496915409
 20
-0.8164730895
 30
0.0
  0
SPLINE
  5
419
100
AcDbEntity
  8
RACCORDO
100
AcDbSpline
 62
250
  6
CONTINUOUS
 70
0
 71
3
 72
17
 73
13
 74
0
 42
0.0000001
 43
0.0000001
 44
0.0000000001
 40
0.0
 40
0.0
 40
0.0
 40
0.0
 40
0.0487449591
 40
0.099318257
 40
0.152471805
 40
0.20866476
 40
0.330346504
 40
0.4632734038
 40
0.6030344334
 40
0.7434141948
 40
0.8776592384
 40
1.0
 40
1.0
 40
1.0
 40
1.0
 10
8.2263071412
 20
6.551824041
 30
0.0
 10
8.1294502077
 20
6.4945362186
 30
0.0
 10
7.9187573367
 20
6.3991363034
 30
0.0
 10
7.5733596774
 20
6.3212321415
 30
0.0
 10
7.2024968172
 20
6.3073658184
 30
0.0
 10
6.6715212876
 20
6.3757751354
 30
0.0
 10
5.9894622958
 20
6.6277227006
 30
0.0
 10
5.2285379878
 20
7.14006676
 30
0.0
 10
4.5592429992
 20
7.8282649862
 30
0.0
 10
4.0342192457
 20
8.6354089822
 30
0.0
 10
3.6940873414
 20
9.4928689057
 30
0.0
 10
3.6039667611
 20
10.0862646036
 30
0.0
 10
3.603966045
 20
10.3686957048
 30
0.0
  0
SPLINE
  5
41A
100
AcDbEntity
  8
RACCORDO
100
AcDbSpline
 62
250
  6
CONTINUOUS
 70
0
 71
3
 72
11
 73
7
 74
0
 42
0.0000001
 43
0.0000001
 44
0.0000000001
 40
0.0
 40
0.0
 40
0.0
 40
0.0
 40
0.275786398
 40
0.5291828739
 40
0.7673906063
 40
1.0
 40
1.0
 40
1.0
 40
1.0
 10
-15.024259593
 20
24.5856214714
 30
0.0
 10
-15.10681329
 20
24.6121719773
 30
0.0
 10
-15.2694273477
 20
24.6515582165
 30
0.0
 10
-15.5120460768
 20
24.663961283
 30
0.0
 10
-15.7384976105
 20
24.6253877659
 30
0.0
 10
-15.8757144791
 20
24.5653035953
 30
0.0
 10
-15.9386635905
 20
24.5280597334
 30
0.0
  0
SPLINE
  5
41B
100
AcDbEntity
  8
RACCORDO
100
AcDbSpline
 62
250
  6
CONTINUOUS
 70
0
 71
3
 72
11
 73
7
 74
0
 42
0.0000001
 43
0.0000001
 44
0.0000000001
 40
0.0
 40
0.0
 40
0.0
 40
0.0
 40
0.2429567307
 40
0.4882348041
 40
0.7395096873
 40
1.0
 40
1.0
 40
1.0
 40
1.0
 10
1.2325662111
 20
9.2860374209
 30
0.0
 10
1.3054824772
 20
9.3271051801
 30
0.0
 10
1.4454709469
 20
9.4219404171
 30
0.0
 10
1.6305553988
 20
9.5985306477
 30
0.0
 10
1.788917156
 20
9.8069843238
 30
0.0
 10
1.8735461722
 20
9.9624427341
 30
0.0
 10
1.9109915285
 20
10.0439810075
 30
0.0
  0
SPLINE
  5
41C
100
AcDbEntity
  8
RACCORDO
100
AcDbSpline
 62
250
  6
CONTINUOUS
 70
0
 71
3
 72
11
 73
7
 74
0
 42
0.0000001
 43
0.0000001
 44
0.0000000001
 40
0.0
 40
0.0
 40
0.0
 40
0.0
 40
0.2419573208
 40
0.4855193318
 40
0.7365600983
 40
1.0
 40
1.0
 40
1.0
 40
1.0
 10
8.3407024219
 20
6.2424256444
 30
0.0
 10
8.4450803853
 20
6.3018089986
 30
0.0
 10
8.6423710949
 20
6.4441253366
 30
0.0
 10
8.8862095667
 20
6.7203198419
 30
0.0
 10
9.0704489356
 20
7.0514074657
 30
0.0
 10
9.1484142063
 20
7.296425125
 30
0.0
 10
9.1771032075
 20
7.4239891325
 30
0.0
  0
SPLINE
  5
41D
100
AcDbEntity
  8
RACCORDO
100
AcDbSpline
 62
250
  6
CONTINUOUS
 70
0
 71
3
 72
9
 73
5
 74
0
 42
0.0000001
 43
0.0000001
 44
0.0000000001
 40
0.0
 40
0.0
 40
0.0
 40
0.0
 40
0.5133171539
 40
1.0
 40
1.0
 40
1.0
 40
1.0
 10
-1.0016175501
 20
15.4519985023
 30
0.0
 10
-3.4267807801
 20
16.6878611125
 30
0.0
 10
-8.0559214132
 20
19.2891023204
 30
0.0
 10
-12.4274661117
 20
22.3075466957
 30
0.0
 10
-14.4703821149
 20
23.8843727888
 30
0.0
  0
SPLINE
  5
41E
100
AcDbEntity
  8
RACCORDO
100
AcDbSpline
 62
250
  6
CONTINUOUS
 70
0
 71
3
 72
26
 73
22
 74
0
 42
0.0000001
 43
0.0000001
 44
0.0000000001
 40
0.0
 40
0.0
 40
0.0
 40
0.0
 40
0.0612727094
 40
0.1171941938
 40
0.1684798669
 40
0.1929365998
 40
0.2169332354
 40
0.2407926933
 40
0.2648521732
 40
0.2894343385
 40
0.3148276312
 40
0.3688260905
 40
0.4281120736
 40
0.4928823452
 40
0.562534428
 40
0.6359038737
 40
0.7114413012
 40
0.7873902074
 40
0.8619213386
 40
0.9332837557
 40
1.0
 40
1.0
 40
1.0
 40
1.0
 10
-1.0016175501
 20
9.503917721
 30
0.0
 10
-0.8301831292
 20
9.4165566463
 30
0.0
 10
-0.4871746911
 20
9.2763014115
 30
0.0
 10
0.0371598253
 20
9.1792365652
 30
0.0
 10
0.455372799
 20
9.207185867
 30
0.0
 10
0.7566403786
 20
9.2966374971
 30
0.0
 10
0.9628504704
 20
9.3939152607
 30
0.0
 10
1.1503165899
 20
9.5215079302
 30
0.0
 10
1.3167782761
 20
9.6781588028
 30
0.0
 10
1.4606026757
 20
9.8619183783
 30
0.0
 10
1.6231906803
 20
10.1462006523
 30
0.0
 10
1.7590806673
 20
10.5651823639
 30
0.0
 10
1.8090023119
 20
11.125768944
 30
0.0
 10
1.7495984198
 20
11.734158563
 30
0.0
 10
1.584708514
 20
12.3678872037
 30
0.0
 10
1.3215290226
 20
13.0038666957
 30
0.0
 10
0.9714660249
 20
13.6190753103
 30
0.0
 10
0.5488089242
 20
14.1912854758
 30
0.0
 10
0.0704930123
 20
14.7001436893
 30
0.0
 10
-0.4448544037
 20
15.1272782378
 30
0.0
 10
-0.8149535428
 20
15.3568745322
 30
0.0
 10
-1.0016175501
 20
15.4519985023
 30
0.0
  0
SPLINE
  5
41F
100
AcDbEntity
  8
RACCORDO
100
AcDbSpline
 62
250
  6
CONTINUOUS
 70
0
 71
3
 72
9
 73
5
 74
0
 42
0.0000001
 43
0.0000001
 44
0.0000000001
 40
0.0
 40
0.0
 40
0.0
 40
0.0
 40
0.4893804334
 40
1.0
 40
1.0
 40
1.0
 40
1.0
 10
-14.3873250933
 20
17.8723801652
 30
0.0
 10
-12.7939316952
 20
16.6461301961
 30
0.0
 10
-9.4334658215
 20
14.2742170537
 30
0.0
 10
-5.907591814
 20
12.1578585174
 30
0.0
 10
-4.0738097824
 20
11.1388655048
 30
0.0
  0
SPLINE
  5
420
100
AcDbEntity
  8
RACCORDO
100
AcDbSpline
 62
250
  6
CONTINUOUS
 70
0
 71
3
 72
11
 73
7
 74
0
 42
0.0000001
 43
0.0000001
 44
0.0000000001
 40
0.0
 40
0.0
 40
0.0
 40
0.0
 40
0.2775842178
 40
0.5317593842
 40
0.7689372839
 40
1.0
 40
1.0
 40
1.0
 40
1.0
 10
3.603966045
 20
10.3686957048
 30
0.0
 10
3.6039663305
 20
10.5384356445
 30
0.0
 10
3.6339194305
 20
10.864994558
 30
0.0
 10
3.7845085327
 20
11.3156385281
 30
0.0
 10
4.0365862687
 20
11.6859125979
 30
0.0
 10
4.2662922551
 20
11.8656727486
 30
0.0
 10
4.3894021176
 20
11.9350091443
 30
0.0
  0
SPLINE
  5
421
100
AcDbEntity
  8
RACCORDO
100
AcDbSpline
 62
250
  6
CONTINUOUS
 70
0
 71
3
 72
27
 73
23
 74
0
 42
0.0000001
 43
0.0000001
 44
0.0000000001
 40
0.0
 40
0.0
 40
0.0
 40
0.0
 40
0.0579075105
 40
0.0837604818
 40
0.1076227981
 40
0.1502257782
 40
0.1699549127
 40
0.1893501047
 40
0.2090675992
 40
0.229729376
 40
0.2756855839
 40
0.3017216548
 40
0.3299420138
 40
0.3928212245
 40
0.4635282853
 40
0.5403087152
 40
0.6209299834
 40
0.7029517723
 40
0.7839524035
 40
0.8616864778
 40
0.9341988363
 40
1.0
 40
1.0
 40
1.0
 40
1.0
 10
-14.4703821149
 20
23.8843727888
 30
0.0
 10
-14.6044329581
 20
23.9878400312
 30
0.0
 10
-14.8099730205
 20
24.1243123196
 30
0.0
 10
-15.0972044164
 20
24.2547125631
 30
0.0
 10
-15.3550889841
 20
24.3355475733
 30
0.0
 10
-15.6118019628
 20
24.3594764323
 30
0.0
 10
-15.8473717068
 20
24.3109266811
 30
0.0
 10
-16.0063445931
 20
24.2418275082
 30
0.0
 10
-16.1497345106
 20
24.1397538609
 30
0.0
 10
-16.3240629352
 20
23.9552496885
 30
0.0
 10
-16.4538937452
 20
23.7119092785
 30
0.0
 10
-16.5433707521
 20
23.4326829018
 30
0.0
 10
-16.6128076834
 20
23.0965778279
 30
0.0
 10
-16.6432236514
 20
22.6221890905
 30
0.0
 10
-16.5985208904
 20
22.007230408
 30
0.0
 10
-16.4754783715
 20
21.3503368038
 30
0.0
 10
-16.2783172584
 20
20.6774153845
 30
0.0
 10
-16.0141457436
 20
20.0145809961
 30
0.0
 10
-15.6921437658
 20
19.3872637506
 30
0.0
 10
-15.3235117546
 20
18.818753053
 30
0.0
 10
-14.9208394092
 20
18.3301002222
 30
0.0
 10
-14.6227037473
 20
18.0539692216
 30
0.0
 10
-14.4703821149
 20
17.936394839
 30
0.0
  0
SPLINE
  5
422
100
AcDbEntity
  8
RACCORDO
100
AcDbSpline
 62
250
  6
CONTINUOUS
 70
0
 71
3
 72
11
 73
7
 74
0
 42
0.0000001
 43
0.0000001
 44
0.0000000001
 40
0.0
 40
0.0
 40
0.0
 40
0.0
 40
0.2272879338
 40
0.474621746
 40
0.7352497277
 40
1.0
 40
1.0
 40
1.0
 40
1.0
 10
9.1104269267
 20
7.9732843106
 30
0.0
 10
9.110423332
 20
8.2336399924
 30
0.0
 10
9.0337448668
 20
8.7783721419
 30
0.0
 10
8.7375348683
 20
9.5722159609
 30
0.0
 10
8.2786644625
 20
10.3343157707
 30
0.0
 10
7.884417222
 20
10.7932762737
 30
0.0
 10
7.6683963969
 20
11.0061299743
 30
0.0
  0
SPLINE
  5
423
100
AcDbEntity
  8
RACCORDO
100
AcDbSpline
 62
250
  6
CONTINUOUS
 70
0
 71
3
 72
9
 73
5
 74
0
 42
0.0000001
 43
0.0000001
 44
0.0000000001
 40
0.0
 40
0.0
 40
0.0
 40
0.0
 40
0.525594712
 40
1.0
 40
1.0
 40
1.0
 40
1.0
 10
7.2590362816
 20
11.3701452789
 30
0.0
 10
6.9922304316
 20
11.5836282493
 30
0.0
 10
6.4434978041
 20
11.9416658901
 30
0.0
 10
5.8231383161
 20
12.164839518
 30
0.0
 10
5.5200253898
 20
12.2218225079
 30
0.0
  0
SPLINE
  5
424
100
AcDbEntity
  8
RACCORDO
100
AcDbSpline
 62
250
  6
CONTINUOUS
 70
0
 71
3
 72
15
 73
11
 74
0
 42
0.0000001
 43
0.0000001
 44
0.0000000001
 40
0.0
 40
0.0
 40
0.0
 40
0.0
 40
0.1327319474
 40
0.2568301748
 40
0.3747529109
 40
0.4900842752
 40
0.6069494044
 40
0.7292061714
 40
0.8597101009
 40
1.0
 40
1.0
 40
1.0
 40
1.0
 10
5.3289811092
 20
12.2508084375
 30
0.0
 10
5.1913567654
 20
12.2665869418
 30
0.0
 10
4.9217703227
 20
12.2756499137
 30
0.0
 10
4.5330157147
 20
12.2121782804
 30
0.0
 10
4.184293086
 20
12.0704255542
 30
0.0
 10
3.8860977398
 20
11.852778339
 30
0.0
 10
3.6478365205
 20
11.5650454853
 30
0.0
 10
3.4758589802
 20
11.2162252548
 30
0.0
 10
3.3730726253
 20
10.8166068645
 30
0.0
 10
3.3519576888
 20
10.533283885
 30
0.0
 10
3.3519578532
 20
10.3868701316
 30
0.0
  0
SPLINE
  5
425
100
AcDbEntity
  8
RACCORDO
100
AcDbSpline
 62
250
  6
CONTINUOUS
 70
0
 71
3
 72
23
 73
19
 74
0
 42
0.0000001
 43
0.0000001
 44
0.0000000001
 40
0.0
 40
0.0
 40
0.0
 40
0.0
 40
0.0630884923
 40
0.1308794836
 40
0.2022802318
 40
0.2758356886
 40
0.3499435798
 40
0.4230291363
 40
0.4936778503
 40
0.5607648683
 40
0.6235541246
 40
0.6818267396
 40
0.7359861716
 40
0.7871572695
 40
0.837133623
 40
0.8880546091
 40
0.9418998705
 40
1.0
 40
1.0
 40
1.0
 40
1.0
 10
3.3519578532
 20
10.3868701316
 30
0.0
 10
3.3519603055
 20
10.1902928145
 30
0.0
 10
3.3926375887
 20
9.7819623759
 30
0.0
 10
3.5558463152
 20
9.1708901277
 30
0.0
 10
3.8177761742
 20
8.5595760897
 30
0.0
 10
4.1688240693
 20
7.9719323784
 30
0.0
 10
4.5959506437
 20
7.4303217312
 30
0.0
 10
5.0839760828
 20
6.9556096702
 30
0.0
 10
5.6153595023
 20
6.5655827255
 30
0.0
 10
6.1710975187
 20
6.2742928217
 30
0.0
 10
6.7318532361
 20
6.0925985743
 30
0.0
 10
7.2779754088
 20
6.0275437284
 30
0.0
 10
7.7898221318
 20
6.0835321454
 30
0.0
 10
8.2464070393
 20
6.2619044013
 30
0.0
 10
8.6254808131
 20
6.5576038501
 30
0.0
 10
8.9064336508
 20
6.9577332828
 30
0.0
 10
9.0759741011
 20
7.4418318371
 30
0.0
 10
9.1104271273
 20
7.792250224
 30
0.0
 10
9.1104269267
 20
7.9732843106
 30
0.0
  0
SPLINE
  5
426
100
AcDbEntity
  8
RACCORDO
100
AcDbSpline
 62
250
  6
CONTINUOUS
 70
0
 71
3
 72
9
 73
5
 74
0
 42
0.0000001
 43
0.0000001
 44
0.0000000001
 40
0.0
 40
0.0
 40
0.0
 40
0.0
 40
0.2606713971
 40
1.0
 40
1.0
 40
1.0
 40
1.0
 10
9.0526213043
 20
7.9957058492
 30
0.0
 10
9.0526211419
 20
7.9334875438
 30
0.0
 10
9.0444536967
 20
7.6949557406
 30
0.0
 10
9.00168738
 20
7.4569724831
 30
0.0
 10
8.9476252455
 20
7.2889911858
 30
0.0
  0
SPLINE
  5
427
100
AcDbEntity
  8
RACCORDO
100
AcDbSpline
 62
250
  6
CONTINUOUS
 70
0
 71
3
 72
22
 73
18
 74
0
 42
0.0000001
 43
0.0000001
 44
0.0000000001
 40
0.0
 40
0.0
 40
0.0
 40
0.0
 40
0.0523016018
 40
0.1023994993
 40
0.1520242978
 40
0.2029548645
 40
0.2566526272
 40
0.3140579765
 40
0.3755603479
 40
0.4410601999
 40
0.5100487256
 40
0.5816874533
 40
0.7281423062
 40
0.8006490638
 40
0.8708489082
 40
0.9375862551
 40
1.0
 40
1.0
 40
1.0
 40
1.0
 10
8.9465864578
 20
7.2857729097
 30
0.0
 10
8.9012454759
 20
7.1457114576
 30
0.0
 10
8.7810031479
 20
6.8800386428
 30
0.0
 10
8.5076598074
 20
6.5444396312
 30
0.0
 10
8.1574382486
 20
6.2962623201
 30
0.0
 10
7.7457290312
 20
6.1444626929
 30
0.0
 10
7.2887797736
 20
6.0922075998
 30
0.0
 10
6.8020966466
 20
6.1390819646
 30
0.0
 10
6.3005881569
 20
6.2823705998
 30
0.0
 10
5.7991221867
 20
6.5172052107
 30
0.0
 10
5.3123940887
 20
6.8364432585
 30
0.0
 10
4.6987976181
 20
7.3648066288
 30
0.0
 10
4.1806593126
 20
8.0099528014
 30
0.0
 10
3.7903789499
 20
8.7258473732
 30
0.0
 10
3.5738034227
 20
9.276060442
 30
0.0
 10
3.4394476048
 20
9.8226096085
 30
0.0
 10
3.4063977404
 20
10.1865774886
 30
0.0
 10
3.4063969603
 20
10.3622585381
 30
0.0
  0
SPLINE
  5
428
100
AcDbEntity
  8
RACCORDO
100
AcDbSpline
 62
250
  6
CONTINUOUS
 70
0
 71
3
 72
15
 73
11
 74
0
 42
0.0000001
 43
0.0000001
 44
0.0000000001
 40
0.0
 40
0.0
 40
0.0
 40
0.0
 40
0.1393313608
 40
0.268482728
 40
0.3892672457
 40
0.5049647686
 40
0.619902335
 40
0.7385401904
 40
0.8644964467
 40
1.0
 40
1.0
 40
1.0
 40
1.0
 10
3.4063969603
 20
10.3622585381
 30
0.0
 10
3.406397406
 20
10.5124890732
 30
0.0
 10
3.4289304702
 20
10.8027987867
 30
0.0
 10
3.5398308883
 20
11.2104999139
 30
0.0
 10
3.7252668745
 20
11.562516208
 30
0.0
 10
3.9815459085
 20
11.847268017
 30
0.0
 10
4.3009071968
 20
12.0547568328
 30
0.0
 10
4.6720810099
 20
12.1790568592
 30
0.0
 10
5.08289971
 20
12.2189632433
 30
0.0
 10
5.3652166365
 20
12.1913590944
 30
0.0
 10
5.5090403077
 20
12.1656506276
 30
0.0
  0
SPLINE
  5
429
100
AcDbEntity
  8
RACCORDO
100
AcDbSpline
 62
250
  6
CONTINUOUS
 70
0
 71
3
 72
9
 73
5
 74
0
 42
0.0000001
 43
0.0000001
 44
0.0000000001
 40
0.0
 40
0.0
 40
0.0
 40
0.0
 40
0.4753555424
 40
1.0
 40
1.0
 40
1.0
 40
1.0
 10
5.5593366858
 20
12.1561788802
 30
0.0
 10
5.8447115306
 20
12.0997203508
 30
0.0
 10
6.4276239413
 20
11.8888681441
 30
0.0
 10
6.9461298003
 20
11.5554255078
 30
0.0
 10
7.1987651403
 20
11.3572812083
 30
0.0
  0
SPLINE
  5
42A
100
AcDbEntity
  8
RACCORDO
100
AcDbSpline
 62
250
  6
CONTINUOUS
 70
0
 71
3
 72
9
 73
5
 74
0
 42
0.0000001
 43
0.0000001
 44
0.0000000001
 40
0.0
 40
0.0
 40
0.0
 40
0.0
 40
0.5059904575
 40
1.0
 40
1.0
 40
1.0
 40
1.0
 10
7.6454001374
 20
10.963217159
 30
0.0
 10
7.8850769288
 20
10.7262446107
 30
0.0
 10
8.3156419402
 20
10.2123625318
 30
0.0
 10
8.6408320201
 20
9.6248625746
 30
0.0
 10
8.7669730449
 20
9.3209327039
 30
0.0
  0
SPLINE
  5
42B
100
AcDbEntity
  8
RACCORDO
100
AcDbSpline
 62
250
  6
CONTINUOUS
 70
0
 71
3
 72
9
 73
5
 74
0
 42
0.0000001
 43
0.0000001
 44
0.0000000001
 40
0.0
 40
0.0
 40
0.0
 40
0.0
 40
0.2531736929
 40
1.0
 40
1.0
 40
1.0
 40
1.0
 10
8.7669730449
 20
9.3209327039
 30
0.0
 10
8.7800648579
 20
9.2893886995
 30
0.0
 10
8.8303021977
 20
9.1641898726
 30
0.0
 10
8.8745488219
 20
9.0365719844
 30
0.0
 10
8.9038221532
 20
8.9401725067
 30
0.0
  0
SPLINE
  5
42C
100
AcDbEntity
  8
RACCORDO
100
AcDbSpline
 62
250
  6
CONTINUOUS
 70
0
 71
3
 72
9
 73
5
 74
0
 42
0.0000001
 43
0.0000001
 44
0.0000000001
 40
0.0
 40
0.0
 40
0.0
 40
0.0
 40
0.2608700867
 40
1.0
 40
1.0
 40
1.0
 40
1.0
 10
8.9101583769
 20
8.9190910728
 30
0.0
 10
8.933365402
 20
8.841071285
 30
0.0
 10
9.0128207999
 20
8.5393669274
 30
0.0
 10
9.0526203501
 20
8.2263332211
 30
0.0
 10
9.0526213043
 20
7.9957058492
 30
0.0
  0
SPLINE
  5
42D
100
AcDbEntity
  8
RACCORDO
100
AcDbSpline
 62
250
  6
CONTINUOUS
 70
0
 71
3
 72
11
 73
7
 74
0
 42
0.0000001
 43
0.0000001
 44
0.0000000001
 40
0.0
 40
0.0
 40
0.0
 40
0.0
 40
0.2795837924
 40
0.5374016016
 40
0.7756068682
 40
1.0
 40
1.0
 40
1.0
 40
1.0
 10
6.0427127617
 20
12.2249335541
 30
0.0
 10
5.8737211964
 20
12.285238345
 30
0.0
 10
5.5394151522
 20
12.3772559371
 30
0.0
 10
5.04032929
 20
12.4207571126
 30
0.0
 10
4.5778099907
 20
12.3603000166
 30
0.0
 10
4.2989211875
 20
12.2466351681
 30
0.0
 10
4.1746267552
 20
12.1739057144
 30
0.0
  0
SPLINE
  5
42E
100
AcDbEntity
  8
RACCORDO
100
AcDbSpline
 62
250
  6
CONTINUOUS
 70
0
 71
3
 72
9
 73
5
 74
0
 42
0.0000001
 43
0.0000001
 44
0.0000000001
 40
0.0
 40
0.0
 40
0.0
 40
0.0
 40
0.5605304371
 40
1.0
 40
1.0
 40
1.0
 40
1.0
 10
3.3519578532
 20
10.3868701316
 30
0.0
 10
3.3414192213
 20
10.3916380769
 30
0.0
 10
3.3232132176
 20
10.4027531246
 30
0.0
 10
3.3136480626
 20
10.423244931
 30
0.0
 10
3.3136406742
 20
10.4323137582
 30
0.0
  0
SPLINE
  5
42F
100
AcDbEntity
  8
RACCORDO
100
AcDbSpline
 62
250
  6
CONTINUOUS
 70
0
 71
3
 72
9
 73
5
 74
0
 42
0.0000001
 43
0.0000001
 44
0.0000000001
 40
0.0
 40
0.0
 40
0.0
 40
0.0
 40
0.493316161
 40
1.0
 40
1.0
 40
1.0
 40
1.0
 10
9.1104269267
 20
7.9732843106
 30
0.0
 10
9.1255874714
 20
7.9674084421
 30
0.0
 10
9.1586145997
 20
7.9613412493
 30
0.0
 10
9.191948137
 20
7.964498614
 30
0.0
 10
9.2080835969
 20
7.9688040138
 30
0.0
  0
SPLINE
  5
430
100
AcDbEntity
  8
RACCORDO
100
AcDbSpline
 62
250
  6
CONTINUOUS
 70
0
 71
3
 72
9
 73
5
 74
0
 42
0.0000001
 43
0.0000001
 44
0.0000000001
 40
0.0
 40
0.0
 40
0.0
 40
0.0
 40
0.5314849144
 40
1.0
 40
1.0
 40
1.0
 40
1.0
 10
-14.4703821149
 20
17.936394839
 30
0.0
 10
-14.4703822978
 20
17.9143547818
 30
0.0
 10
-14.4639986152
 20
17.8721107609
 30
0.0
 10
-14.4383335856
 20
17.8368241183
 30
0.0
 10
-14.4229467174
 20
17.8249615102
 30
0.0
  0
SPLINE
  5
431
100
AcDbEntity
  8
RACCORDO
100
AcDbSpline
 62
250
  6
CONTINUOUS
 70
0
 71
3
 72
9
 73
5
 74
0
 42
0.0000001
 43
0.0000001
 44
0.0000000001
 40
0.0
 40
0.0
 40
0.0
 40
0.0
 40
0.4811867036
 40
1.0
 40
1.0
 40
1.0
 40
1.0
 10
-14.4703821149
 20
23.8843727888
 30
0.0
 10
-14.4703825339
 20
23.934797061
 30
0.0
 10
-14.4345530033
 20
24.0389188709
 30
0.0
 10
-14.361791559
 20
24.118832181
 30
0.0
 10
-14.3167325988
 20
24.1492539595
 30
0.0
  0
SPLINE
  5
432
100
AcDbEntity
  8
RACCORDO
100
AcDbSpline
 62
250
  6
CONTINUOUS
 70
0
 71
3
 72
9
 73
5
 74
0
 42
0.0000001
 43
0.0000001
 44
0.0000000001
 40
0.0
 40
0.0
 40
0.0
 40
0.0
 40
0.4823217976
 40
1.0
 40
1.0
 40
1.0
 40
1.0
 10
-1.0016175501
 20
15.4519985023
 30
0.0
 10
-1.0016173513
 20
15.4966087515
 30
0.0
 10
-0.9790188597
 20
15.5888024727
 30
0.0
 10
-0.93146365
 20
15.6698557765
 30
0.0
 10
-0.900418227
 20
15.7063072927
 30
0.0
  0
SPLINE
  5
433
100
AcDbEntity
  8
RACCORDO
100
AcDbSpline
 62
250
  6
CONTINUOUS
 70
0
 71
3
 72
11
 73
7
 74
0
 42
0.0000001
 43
0.0000001
 44
0.0000000001
 40
0.0
 40
0.0
 40
0.0
 40
0.0
 40
0.2971509878
 40
0.5590387273
 40
0.7890651795
 40
1.0
 40
1.0
 40
1.0
 40
1.0
 10
-1.0016175501
 20
9.503917721
 30
0.0
 10
-1.0016174815
 20
9.4908635143
 30
0.0
 10
-0.9997212183
 20
9.4662234327
 30
0.0
 10
-0.9900177496
 20
9.4326225634
 30
0.0
 10
-0.9735882244
 20
9.4059142234
 30
0.0
 10
-0.9579464398
 20
9.3936157126
 30
0.0
 10
-0.9496915409
 20
9.3894053704
 30
0.0
  0
SPLINE
  5
434
100
AcDbEntity
  8
ASSI
100
AcDbSpline
 62
7
  6
CONTINUOUS
 70
0
 71
3
 72
14
 73
10
 74
0
 42
0.0000001
 43
0.0000001
 44
0.0000000001
 40
0.0
 40
0.0
 40
0.0
 40
0.0
 40
0.1023913846
 40
0.2064172655
 40
0.3153251582
 40
0.4317544875
 40
0.5575961507
 40
0.6940098847
 40
1.0
 40
1.0
 40
1.0
 40
1.0
 10
-16.0810122612
 20
24.5908579678
 30
0.0
 10
-16.0269967585
 20
24.6220461652
 30
0.0
 10
-15.9112010146
 20
24.6737743246
 30
0.0
 10
-15.7221630747
 20
24.7143293845
 30
0.0
 10
-15.5204238057
 20
24.7178551992
 30
0.0
 10
-15.3081438522
 20
24.6849995519
 30
0.0
 10
-15.0870704863
 20
24.6166739971
 30
0.0
 10
-14.7709382846
 20
24.4740844437
 30
0.0
 10
-14.5446243405
 20
24.323996324
 30
0.0
 10
-14.3970016399
 20
24.2101915096
 30
0.0
  0
SPLINE
  5
435
100
AcDbEntity
  8
0
100
AcDbSpline
 62
7
  6
CONTINUOUS
 70
0
 71
3
 72
11
 73
7
 74
0
 42
0.0000001
 43
0.0000001
 44
0.0000000001
 40
0.0
 40
0.0
 40
0.0
 40
0.0
 40
0.2517594073
 40
0.5142117408
 40
0.7691387172
 40
1.0
 40
1.0
 40
1.0
 40
1.0
 10
14.1674213507
 20
-31.1664044563
 30
0.0
 10
14.3052814111
 20
-31.2116983773
 30
0.0
 10
14.597968462
 20
-31.2719432366
 30
0.0
 10
15.0436004855
 20
-31.2790177439
 30
0.0
 10
15.4711406131
 20
-31.2063527146
 30
0.0
 10
15.7345272003
 20
-31.1019614984
 30
0.0
 10
15.8497627869
 20
-31.0354259149
 30
0.0
  0
SPLINE
  5
436
100
AcDbEntity
  8
ASSI
100
AcDbSpline
 62
7
  6
CONTINUOUS
 70
0
 71
3
 72
14
 73
10
 74
0
 42
0.0000001
 43
0.0000001
 44
0.0000000001
 40
0.0
 40
0.0
 40
0.0
 40
0.0
 40
0.1011482787
 40
0.2070556428
 40
0.3198659357
 40
0.4407521871
 40
0.569984071
 40
0.7070912379
 40
1.0
 40
1.0
 40
1.0
 40
1.0
 10
3.9954198278
 20
12.234545716
 30
0.0
 10
4.1014048419
 20
12.2957403309
 30
0.0
 10
4.3339520321
 20
12.3955615854
 30
0.0
 10
4.716684563
 20
12.4682554741
 30
0.0
 10
5.1297947038
 20
12.4666834254
 30
0.0
 10
5.5643048457
 20
12.3923879436
 30
0.0
 10
6.0115536587
 20
12.2480408104
 30
0.0
 10
6.6256329052
 20
11.9608987435
 30
0.0
 10
7.0569481634
 20
11.6609182372
 30
0.0
 10
7.3277750859
 20
11.4323292923
 30
0.0
  0
SPLINE
  5
437
100
AcDbEntity
  8
ASSI
100
AcDbSpline
 62
7
  6
CONTINUOUS
 70
0
 71
3
 72
11
 73
7
 74
0
 42
0.0000001
 43
0.0000001
 44
0.0000000001
 40
0.0
 40
0.0
 40
0.0
 40
0.0
 40
0.2552335013
 40
0.5122130931
 40
0.7628647343
 40
1.0
 40
1.0
 40
1.0
 40
1.0
 10
7.3277750859
 20
11.4323292923
 30
0.0
 10
7.5528126547
 20
11.2423884256
 30
0.0
 10
7.9751405144
 20
10.8251729612
 30
0.0
 10
8.5037888846
 20
10.1173196767
 30
0.0
 10
8.9062265893
 20
9.354047105
 30
0.0
 10
9.0798473945
 20
8.81447141
 30
0.0
 10
9.1357585628
 20
8.5466447674
 30
0.0
  0
SPLINE
  5
438
100
AcDbEntity
  8
ASSI
100
AcDbSpline
 62
7
  6
CONTINUOUS
 70
0
 71
3
 72
9
 73
5
 74
0
 42
0.0000001
 43
0.0000001
 44
0.0000000001
 40
0.0
 40
0.0
 40
0.0
 40
0.0
 40
0.2579248153
 40
1.0
 40
1.0
 40
1.0
 40
1.0
 10
9.1357585628
 20
8.5466447674
 30
0.0
 10
9.1480212267
 20
8.4879039434
 30
0.0
 10
9.1902354618
 20
8.259110717
 30
0.0
 10
9.2104211698
 20
8.0260148129
 30
0.0
 10
9.2104211698
 20
7.853368329
 30
0.0
  0
SPLINE
  5
439
100
AcDbEntity
  8
0
100
AcDbSpline
 62
7
  6
CONTINUOUS
 70
0
 71
3
 72
11
 73
7
 74
0
 42
0.0000001
 43
0.0000001
 44
0.0000000001
 40
0.0
 40
0.0
 40
0.0
 40
0.0
 40
0.2277123015
 40
0.4759660347
 40
0.7366269121
 40
1.0
 40
1.0
 40
1.0
 40
1.0
 10
12.3691261077
 20
-30.8629855889
 30
0.0
 10
12.2197302655
 20
-30.776726302
 30
0.0
 10
11.8876041729
 20
-30.6300391849
 30
0.0
 10
11.3450112325
 20
-30.4913275894
 30
0.0
 10
10.7613352653
 20
-30.429517713
 30
0.0
 10
10.3630484557
 20
-30.4420700745
 30
0.0
 10
10.1645614007
 20
-30.4624063781
 30
0.0
  0
SPLINE
  5
43A
100
AcDbEntity
  8
0
100
AcDbSpline
 62
7
  6
CONTINUOUS
 70
0
 71
3
 72
11
 73
7
 74
0
 42
0.0000001
 43
0.0000001
 44
0.0000000001
 40
0.0
 40
0.0
 40
0.0
 40
0.0
 40
0.2676516195
 40
0.5239773089
 40
0.7682223034
 40
1.0
 40
1.0
 40
1.0
 40
1.0
 10
10.0729562944
 20
-30.4512296543
 30
0.0
 10
7.4266094355
 20
-29.4234711986
 30
0.0
 10
2.3129084268
 20
-27.2321397736
 30
0.0
 10
-4.918581142
 20
-23.4586962174
 30
0.0
 10
-11.4900555003
 20
-19.2994073838
 30
0.0
 10
-15.4970100887
 20
-16.2116557292
 30
0.0
 10
-17.3624130059
 20
-14.6103912663
 30
0.0
  0
SPLINE
  5
43B
100
AcDbEntity
  8
ASSI
100
AcDbSpline
 62
7
  6
CONTINUOUS
 70
0
 71
3
 72
19
 73
15
 74
0
 42
0.0000001
 43
0.0000001
 44
0.0000000001
 40
0.0
 40
0.0
 40
0.0
 40
0.0
 40
0.1298470891
 40
0.2711819215
 40
0.4166779368
 40
0.5584790418
 40
0.6258540943
 40
0.689884388
 40
0.7501118377
 40
0.8063472243
 40
0.8587322122
 40
0.9077934032
 40
0.9544593258
 40
1.0
 40
1.0
 40
1.0
 40
1.0
 10
-0.979475013
 20
-14.8688335119
 30
0.0
 10
-0.6690324394
 20
-15.0295394392
 30
0.0
 10
-0.0625439404
 20
-15.4480607268
 30
0.0
 10
0.7268798385
 20
-16.2527296653
 30
0.0
 10
1.3835837699
 20
-17.2085612331
 30
0.0
 10
1.7788856501
 20
-18.0848121491
 30
0.0
 10
1.974358822
 20
-18.7952115712
 30
0.0
 10
2.0542518953
 20
-19.3061746291
 30
0.0
 10
2.0678253085
 20
-19.7933882204
 30
0.0
 10
2.0143633106
 20
-20.2466537216
 30
0.0
 10
1.8945180557
 20
-20.6562537035
 30
0.0
 10
1.7101488237
 20
-21.0130015229
 30
0.0
 10
1.4650124453
 20
-21.3078391767
 30
0.0
 10
1.2640555844
 20
-21.4582021807
 30
0.0
 10
1.1578791689
 20
-21.5195072089
 30
0.0
  0
SPLINE
  5
43C
100
AcDbEntity
  8
ASSI
100
AcDbSpline
 62
7
  6
CONTINUOUS
 70
0
 71
3
 72
9
 73
5
 74
0
 42
0.0000001
 43
0.0000001
 44
0.0000000001
 40
0.0
 40
0.0
 40
0.0
 40
0.0
 40
0.5128153729
 40
1.0
 40
1.0
 40
1.0
 40
1.0
 10
-0.979475013
 20
-14.8688335119
 30
0.0
 10
-3.3899003929
 20
-13.6210354361
 30
0.0
 10
-7.9969072869
 20
-11.0014672977
 30
0.0
 10
-12.3548143636
 20
-7.981800273
 30
0.0
 10
-14.3970016399
 20
-6.4074438701
 30
0.0
  0
SPLINE
  5
43D
100
AcDbEntity
  8
ASSI
100
AcDbSpline
 62
7
  6
CONTINUOUS
 70
0
 71
3
 72
11
 73
7
 74
0
 42
0.0000001
 43
0.0000001
 44
0.0000000001
 40
0.0
 40
0.0
 40
0.0
 40
0.0
 40
0.2739753143
 40
0.5273675231
 40
0.766290525
 40
1.0
 40
1.0
 40
1.0
 40
1.0
 10
9.2104211698
 20
-22.7642670507
 30
0.0
 10
9.2104211698
 20
-22.9569149278
 30
0.0
 10
9.1745147526
 20
-23.3294166972
 30
0.0
 10
8.9965460012
 20
-23.8440929523
 30
0.0
 10
8.7021811439
 20
-24.2694537812
 30
0.0
 10
8.436929451
 20
-24.4790059036
 30
0.0
 10
8.2946140649
 20
-24.5611777009
 30
0.0
  0
SPLINE
  5
43E
100
AcDbEntity
  8
ASSI
100
AcDbSpline
 62
7
  6
CONTINUOUS
 70
0
 71
3
 72
11
 73
7
 74
0
 42
0.0000001
 43
0.0000001
 44
0.0000000001
 40
0.0
 40
0.0
 40
0.0
 40
0.0
 40
0.2739753143
 40
0.5273675231
 40
0.766290525
 40
1.0
 40
1.0
 40
1.0
 40
1.0
 10
9.2104211698
 20
-12.5583885908
 30
0.0
 10
9.2104211698
 20
-12.7510364679
 30
0.0
 10
9.1745147526
 20
-13.1235382373
 30
0.0
 10
8.9965460012
 20
-13.6382144923
 30
0.0
 10
8.7021811439
 20
-14.0635753213
 30
0.0
 10
8.436929451
 20
-14.2731274437
 30
0.0
 10
8.2946140649
 20
-14.355299241
 30
0.0
  0
SPLINE
  5
43F
100
AcDbEntity
  8
ASSI
100
AcDbSpline
 62
7
  6
CONTINUOUS
 70
0
 71
3
 72
19
 73
15
 74
0
 42
0.0000001
 43
0.0000001
 44
0.0000000001
 40
0.0
 40
0.0
 40
0.0
 40
0.0
 40
0.1298470891
 40
0.2711819215
 40
0.4166779368
 40
0.5584790418
 40
0.6258540943
 40
0.689884388
 40
0.7501118377
 40
0.8063472243
 40
0.8587322122
 40
0.9077934032
 40
0.9544593258
 40
1.0
 40
1.0
 40
1.0
 40
1.0
 10
-0.979475013
 20
-4.662955052
 30
0.0
 10
-0.6690324394
 20
-4.8236609793
 30
0.0
 10
-0.0625439404
 20
-5.2421822669
 30
0.0
 10
0.7268798385
 20
-6.0468512054
 30
0.0
 10
1.3835837699
 20
-7.0026827731
 30
0.0
 10
1.7788856501
 20
-7.8789336892
 30
0.0
 10
1.974358822
 20
-8.5893331112
 30
0.0
 10
2.0542518953
 20
-9.1002961692
 30
0.0
 10
2.0678253085
 20
-9.5875097605
 30
0.0
 10
2.0143633106
 20
-10.0407752617
 30
0.0
 10
1.8945180557
 20
-10.4503752435
 30
0.0
 10
1.7101488237
 20
-10.807123063
 30
0.0
 10
1.4650124453
 20
-11.1019607168
 30
0.0
 10
1.2640555844
 20
-11.2523237208
 30
0.0
 10
1.1578791689
 20
-11.313628749
 30
0.0
  0
SPLINE
  5
440
100
AcDbEntity
  8
ASSI
100
AcDbSpline
 62
7
  6
CONTINUOUS
 70
0
 71
3
 72
9
 73
5
 74
0
 42
0.0000001
 43
0.0000001
 44
0.0000000001
 40
0.0
 40
0.0
 40
0.0
 40
0.0
 40
0.5128153729
 40
1.0
 40
1.0
 40
1.0
 40
1.0
 10
-0.979475013
 20
-4.662955052
 30
0.0
 10
-3.3899003929
 20
-3.4151569762
 30
0.0
 10
-7.9969072869
 20
-0.7955888378
 30
0.0
 10
-12.3548143636
 20
2.2240781869
 30
0.0
 10
-14.3970016399
 20
3.7984345898
 30
0.0
  0
SPLINE
  5
441
100
AcDbEntity
  8
ASSI
100
AcDbSpline
 62
7
  6
CONTINUOUS
 70
0
 71
3
 72
11
 73
7
 74
0
 42
0.0000001
 43
0.0000001
 44
0.0000000001
 40
0.0
 40
0.0
 40
0.0
 40
0.0
 40
0.2739753143
 40
0.5273675231
 40
0.766290525
 40
1.0
 40
1.0
 40
1.0
 40
1.0
 10
9.2104211698
 20
-2.3525101309
 30
0.0
 10
9.2104211698
 20
-2.545158008
 30
0.0
 10
9.1745147526
 20
-2.9176597774
 30
0.0
 10
8.9965460012
 20
-3.4323360324
 30
0.0
 10
8.7021811439
 20
-3.8576968614
 30
0.0
 10
8.436929451
 20
-4.0672489838
 30
0.0
 10
8.2946140649
 20
-4.1494207811
 30
0.0
  0
SPLINE
  5
442
100
AcDbEntity
  8
ASSI
100
AcDbSpline
 62
7
  6
CONTINUOUS
 70
0
 71
3
 72
19
 73
15
 74
0
 42
0.0000001
 43
0.0000001
 44
0.0000000001
 40
0.0
 40
0.0
 40
0.0
 40
0.0
 40
0.1298470891
 40
0.2711819215
 40
0.4166779368
 40
0.5584790418
 40
0.6258540943
 40
0.689884388
 40
0.7501118377
 40
0.8063472243
 40
0.8587322122
 40
0.9077934032
 40
0.9544593258
 40
1.0
 40
1.0
 40
1.0
 40
1.0
 10
-0.979475013
 20
5.5429234079
 30
0.0
 10
-0.6690324394
 20
5.3822174806
 30
0.0
 10
-0.0625439404
 20
4.963696193
 30
0.0
 10
0.7268798385
 20
4.1590272546
 30
0.0
 10
1.3835837699
 20
3.2031956868
 30
0.0
 10
1.7788856501
 20
2.3269447707
 30
0.0
 10
1.974358822
 20
1.6165453487
 30
0.0
 10
2.0542518953
 20
1.1055822907
 30
0.0
 10
2.0678253085
 20
0.6183686994
 30
0.0
 10
2.0143633106
 20
0.1651031982
 30
0.0
 10
1.8945180557
 20
-0.2444967836
 30
0.0
 10
1.7101488237
 20
-0.6012446031
 30
0.0
 10
1.4650124453
 20
-0.8960822569
 30
0.0
 10
1.2640555844
 20
-1.0464452609
 30
0.0
 10
1.1578791689
 20
-1.1077502891
 30
0.0
  0
SPLINE
  5
443
100
AcDbEntity
  8
ASSI
100
AcDbSpline
 62
7
  6
CONTINUOUS
 70
0
 71
3
 72
9
 73
5
 74
0
 42
0.0000001
 43
0.0000001
 44
0.0000000001
 40
0.0
 40
0.0
 40
0.0
 40
0.0
 40
0.5128153729
 40
1.0
 40
1.0
 40
1.0
 40
1.0
 10
-0.979475013
 20
5.5429234079
 30
0.0
 10
-3.3899003929
 20
6.7907214837
 30
0.0
 10
-7.9969072869
 20
9.4102896221
 30
0.0
 10
-12.3548143636
 20
12.4299566468
 30
0.0
 10
-14.3970016399
 20
14.0043130497
 30
0.0
  0
SPLINE
  5
444
100
AcDbEntity
  8
ASSI
100
AcDbSpline
 62
7
  6
CONTINUOUS
 70
0
 71
3
 72
11
 73
7
 74
0
 42
0.0000001
 43
0.0000001
 44
0.0000000001
 40
0.0
 40
0.0
 40
0.0
 40
0.0
 40
0.2739753143
 40
0.5273675231
 40
0.766290525
 40
1.0
 40
1.0
 40
1.0
 40
1.0
 10
9.2104211698
 20
7.853368329
 30
0.0
 10
9.2104211698
 20
7.6607204519
 30
0.0
 10
9.1745147526
 20
7.2882186825
 30
0.0
 10
8.9965460012
 20
6.7735424275
 30
0.0
 10
8.7021811439
 20
6.3481815985
 30
0.0
 10
8.436929451
 20
6.1386294761
 30
0.0
 10
8.2946140649
 20
6.0564576789
 30
0.0
  0
SPLINE
  5
445
100
AcDbEntity
  8
ASSI
100
AcDbSpline
 62
7
  6
CONTINUOUS
 70
0
 71
3
 72
19
 73
15
 74
0
 42
0.0000001
 43
0.0000001
 44
0.0000000001
 40
0.0
 40
0.0
 40
0.0
 40
0.0
 40
0.1298470891
 40
0.2711819215
 40
0.4166779368
 40
0.5584790418
 40
0.6258540943
 40
0.689884388
 40
0.7501118377
 40
0.8063472243
 40
0.8587322122
 40
0.9077934032
 40
0.9544593258
 40
1.0
 40
1.0
 40
1.0
 40
1.0
 10
-0.979475013
 20
15.7488018678
 30
0.0
 10
-0.6690324394
 20
15.5880959405
 30
0.0
 10
-0.0625439404
 20
15.1695746529
 30
0.0
 10
0.7268798385
 20
14.3649057145
 30
0.0
 10
1.3835837699
 20
13.4090741467
 30
0.0
 10
1.7788856501
 20
12.5328232306
 30
0.0
 10
1.974358822
 20
11.8224238086
 30
0.0
 10
2.0542518953
 20
11.3114607506
 30
0.0
 10
2.0678253085
 20
10.8242471593
 30
0.0
 10
2.0143633106
 20
10.3709816581
 30
0.0
 10
1.8945180557
 20
9.9613816763
 30
0.0
 10
1.7101488237
 20
9.6046338569
 30
0.0
 10
1.4650124453
 20
9.309796203
 30
0.0
 10
1.2640555844
 20
9.159433199
 30
0.0
 10
1.1578791689
 20
9.0981281708
 30
0.0
  0
SPLINE
  5
446
100
AcDbEntity
  8
ASSI
100
AcDbSpline
 62
7
  6
CONTINUOUS
 70
0
 71
3
 72
9
 73
5
 74
0
 42
0.0000001
 43
0.0000001
 44
0.0000000001
 40
0.0
 40
0.0
 40
0.0
 40
0.0
 40
0.5128153729
 40
1.0
 40
1.0
 40
1.0
 40
1.0
 10
-0.979475013
 20
15.7488018678
 30
0.0
 10
-3.3899003929
 20
16.9965999436
 30
0.0
 10
-7.9969072869
 20
19.616168082
 30
0.0
 10
-12.3548143636
 20
22.6358351067
 30
0.0
 10
-14.3970016399
 20
24.2101915096
 30
0.0
  0
SPLINE
  5
447
100
AcDbEntity
  8
0
100
AcDbSpline
 62
7
  6
CONTINUOUS
 70
0
 71
3
 72
9
 73
5
 74
0
 42
0.0000001
 43
0.0000001
 44
0.0000000001
 40
0.0
 40
0.0
 40
0.0
 40
0.0
 40
0.253545511
 40
1.0
 40
1.0
 40
1.0
 40
1.0
 10
-17.3817704122
 20
30.7566007361
 30
0.0
 10
-17.3754231877
 20
30.7772535265
 30
0.0
 10
-17.353280813
 20
30.8595650395
 30
0.0
 10
-17.3433158071
 20
30.9451924207
 30
0.0
 10
-17.3433161757
 20
31.0088022847
 30
0.0
  0
SPLINE
  5
448
100
AcDbEntity
  8
ASSI
100
AcDbSpline
 62
7
  6
CONTINUOUS
 70
0
 71
3
 72
14
 73
10
 74
0
 42
0.0000001
 43
0.0000001
 44
0.0000000001
 40
0.0
 40
0.0
 40
0.0
 40
0.0
 40
0.1023913846
 40
0.2064172655
 40
0.3153251582
 40
0.4317544875
 40
0.5575961507
 40
0.6940098847
 40
1.0
 40
1.0
 40
1.0
 40
1.0
 10
-16.0810122612
 20
14.3849795079
 30
0.0
 10
-16.0269967585
 20
14.4161677053
 30
0.0
 10
-15.9112010146
 20
14.4678958647
 30
0.0
 10
-15.7221630747
 20
14.5084509246
 30
0.0
 10
-15.5204238057
 20
14.5119767393
 30
0.0
 10
-15.3081438522
 20
14.479121092
 30
0.0
 10
-15.0870704863
 20
14.4107955372
 30
0.0
 10
-14.7709382846
 20
14.2682059838
 30
0.0
 10
-14.5446243405
 20
14.118117864
 30
0.0
 10
-14.3970016399
 20
14.0043130497
 30
0.0
  0
SPLINE
  5
449
100
AcDbEntity
  8
ASSI
100
AcDbSpline
 62
7
  6
CONTINUOUS
 70
0
 71
3
 72
14
 73
10
 74
0
 42
0.0000001
 43
0.0000001
 44
0.0000000001
 40
0.0
 40
0.0
 40
0.0
 40
0.0
 40
0.1011482787
 40
0.2070556428
 40
0.3198659357
 40
0.4407521871
 40
0.569984071
 40
0.7070912379
 40
1.0
 40
1.0
 40
1.0
 40
1.0
 10
3.9954198278
 20
2.0286672561
 30
0.0
 10
4.1014048419
 20
2.089861871
 30
0.0
 10
4.3339520321
 20
2.1896831255
 30
0.0
 10
4.716684563
 20
2.2623770142
 30
0.0
 10
5.1297947038
 20
2.2608049655
 30
0.0
 10
5.5643048457
 20
2.1865094836
 30
0.0
 10
6.0115536587
 20
2.0421623505
 30
0.0
 10
6.6256329052
 20
1.7550202836
 30
0.0
 10
7.0569481634
 20
1.4550397773
 30
0.0
 10
7.3277750859
 20
1.2264508324
 30
0.0
  0
SPLINE
  5
44A
100
AcDbEntity
  8
ASSI
100
AcDbSpline
 62
7
  6
CONTINUOUS
 70
0
 71
3
 72
11
 73
7
 74
0
 42
0.0000001
 43
0.0000001
 44
0.0000000001
 40
0.0
 40
0.0
 40
0.0
 40
0.0
 40
0.2552335013
 40
0.5122130931
 40
0.7628647343
 40
1.0
 40
1.0
 40
1.0
 40
1.0
 10
7.3277750859
 20
1.2264508324
 30
0.0
 10
7.5528126547
 20
1.0365099657
 30
0.0
 10
7.9751405144
 20
0.6192945013
 30
0.0
 10
8.5037888846
 20
-0.0885587832
 30
0.0
 10
8.9062265893
 20
-0.8518313549
 30
0.0
 10
9.0798473945
 20
-1.39140705
 30
0.0
 10
9.1357585628
 20
-1.6592336925
 30
0.0
  0
SPLINE
  5
44B
100
AcDbEntity
  8
ASSI
100
AcDbSpline
 62
7
  6
CONTINUOUS
 70
0
 71
3
 72
9
 73
5
 74
0
 42
0.0000001
 43
0.0000001
 44
0.0000000001
 40
0.0
 40
0.0
 40
0.0
 40
0.0
 40
0.2579248153
 40
1.0
 40
1.0
 40
1.0
 40
1.0
 10
9.1357585628
 20
-1.6592336925
 30
0.0
 10
9.1480212267
 20
-1.7179745165
 30
0.0
 10
9.1902354618
 20
-1.946767743
 30
0.0
 10
9.2104211698
 20
-2.179863647
 30
0.0
 10
9.2104211698
 20
-2.3525101309
 30
0.0
  0
SPLINE
  5
44C
100
AcDbEntity
  8
0
100
AcDbSpline
 62
7
  6
CONTINUOUS
 70
0
 71
3
 72
11
 73
7
 74
0
 42
0.0000001
 43
0.0000001
 44
0.0000000001
 40
0.0
 40
0.0
 40
0.0
 40
0.0
 40
0.2898019501
 40
0.5490403542
 40
0.7822233176
 40
1.0
 40
1.0
 40
1.0
 40
1.0
 10
-18.3742054225
 20
34.0391647641
 30
0.0
 10
-18.4356595153
 20
34.0036819412
 30
0.0
 10
-18.5471308705
 20
33.9269459076
 30
0.0
 10
-18.6802837465
 20
33.7869034762
 30
0.0
 10
-18.7645755748
 20
33.6320768578
 30
0.0
 10
-18.784255336
 20
33.5209061181
 30
0.0
 10
-18.7842546567
 20
33.4675803341
 30
0.0
  0
SPLINE
  5
44D
100
AcDbEntity
  8
ASSI
100
AcDbSpline
 62
7
  6
CONTINUOUS
 70
0
 71
3
 72
14
 73
10
 74
0
 42
0.0000001
 43
0.0000001
 44
0.0000000001
 40
0.0
 40
0.0
 40
0.0
 40
0.0
 40
0.1023913846
 40
0.2064172655
 40
0.3153251582
 40
0.4317544875
 40
0.5575961507
 40
0.6940098847
 40
1.0
 40
1.0
 40
1.0
 40
1.0
 10
-16.0810122612
 20
4.179101048
 30
0.0
 10
-16.0269967585
 20
4.2102892454
 30
0.0
 10
-15.9112010146
 20
4.2620174048
 30
0.0
 10
-15.7221630747
 20
4.3025724647
 30
0.0
 10
-15.5204238057
 20
4.3060982794
 30
0.0
 10
-15.3081438522
 20
4.2732426321
 30
0.0
 10
-15.0870704863
 20
4.2049170773
 30
0.0
 10
-14.7709382846
 20
4.0623275239
 30
0.0
 10
-14.5446243405
 20
3.9122394041
 30
0.0
 10
-14.3970016399
 20
3.7984345898
 30
0.0
  0
SPLINE
  5
44E
100
AcDbEntity
  8
ASSI
100
AcDbSpline
 62
7
  6
CONTINUOUS
 70
0
 71
3
 72
14
 73
10
 74
0
 42
0.0000001
 43
0.0000001
 44
0.0000000001
 40
0.0
 40
0.0
 40
0.0
 40
0.0
 40
0.1011482787
 40
0.2070556428
 40
0.3198659357
 40
0.4407521871
 40
0.569984071
 40
0.7070912379
 40
1.0
 40
1.0
 40
1.0
 40
1.0
 10
3.9954198278
 20
-8.1772112038
 30
0.0
 10
4.1014048419
 20
-8.1160165889
 30
0.0
 10
4.3339520321
 20
-8.0161953344
 30
0.0
 10
4.716684563
 20
-7.9435014457
 30
0.0
 10
5.1297947038
 20
-7.9450734944
 30
0.0
 10
5.5643048457
 20
-8.0193689763
 30
0.0
 10
6.0115536587
 20
-8.1637161094
 30
0.0
 10
6.6256329052
 20
-8.4508581763
 30
0.0
 10
7.0569481634
 20
-8.7508386826
 30
0.0
 10
7.3277750859
 20
-8.9794276275
 30
0.0
  0
SPLINE
  5
44F
100
AcDbEntity
  8
ASSI
100
AcDbSpline
 62
7
  6
CONTINUOUS
 70
0
 71
3
 72
11
 73
7
 74
0
 42
0.0000001
 43
0.0000001
 44
0.0000000001
 40
0.0
 40
0.0
 40
0.0
 40
0.0
 40
0.2552335013
 40
0.5122130931
 40
0.7628647343
 40
1.0
 40
1.0
 40
1.0
 40
1.0
 10
7.3277750859
 20
-8.9794276275
 30
0.0
 10
7.5528126547
 20
-9.1693684942
 30
0.0
 10
7.9751405144
 20
-9.5865839586
 30
0.0
 10
8.5037888846
 20
-10.2944372431
 30
0.0
 10
8.9062265893
 20
-11.0577098148
 30
0.0
 10
9.0798473945
 20
-11.5972855099
 30
0.0
 10
9.1357585628
 20
-11.8651121524
 30
0.0
  0
SPLINE
  5
450
100
AcDbEntity
  8
ASSI
100
AcDbSpline
 62
7
  6
CONTINUOUS
 70
0
 71
3
 72
9
 73
5
 74
0
 42
0.0000001
 43
0.0000001
 44
0.0000000001
 40
0.0
 40
0.0
 40
0.0
 40
0.0
 40
0.2579248153
 40
1.0
 40
1.0
 40
1.0
 40
1.0
 10
9.1357585628
 20
-11.8651121524
 30
0.0
 10
9.1480212267
 20
-11.9238529764
 30
0.0
 10
9.1902354618
 20
-12.1526462029
 30
0.0
 10
9.2104211698
 20
-12.3857421069
 30
0.0
 10
9.2104211698
 20
-12.5583885908
 30
0.0
  0
SPLINE
  5
451
100
AcDbEntity
  8
ASSI
100
AcDbSpline
 62
7
  6
CONTINUOUS
 70
0
 71
3
 72
14
 73
10
 74
0
 42
0.0000001
 43
0.0000001
 44
0.0000000001
 40
0.0
 40
0.0
 40
0.0
 40
0.0
 40
0.1011482787
 40
0.2070556428
 40
0.3198659357
 40
0.4407521871
 40
0.569984071
 40
0.7070912379
 40
1.0
 40
1.0
 40
1.0
 40
1.0
 10
3.9954198278
 20
-18.3830896637
 30
0.0
 10
4.1014048419
 20
-18.3218950488
 30
0.0
 10
4.3339520321
 20
-18.2220737943
 30
0.0
 10
4.716684563
 20
-18.1493799056
 30
0.0
 10
5.1297947038
 20
-18.1509519543
 30
0.0
 10
5.5643048457
 20
-18.2252474362
 30
0.0
 10
6.0115536587
 20
-18.3695945693
 30
0.0
 10
6.6256329052
 20
-18.6567366362
 30
0.0
 10
7.0569481634
 20
-18.9567171425
 30
0.0
 10
7.3277750859
 20
-19.1853060874
 30
0.0
  0
SPLINE
  5
452
100
AcDbEntity
  8
ASSI
100
AcDbSpline
 62
7
  6
CONTINUOUS
 70
0
 71
3
 72
11
 73
7
 74
0
 42
0.0000001
 43
0.0000001
 44
0.0000000001
 40
0.0
 40
0.0
 40
0.0
 40
0.0
 40
0.2552335013
 40
0.5122130931
 40
0.7628647343
 40
1.0
 40
1.0
 40
1.0
 40
1.0
 10
7.3277750859
 20
-19.1853060874
 30
0.0
 10
7.5528126547
 20
-19.3752469542
 30
0.0
 10
7.9751405144
 20
-19.7924624185
 30
0.0
 10
8.5037888846
 20
-20.500315703
 30
0.0
 10
8.9062265893
 20
-21.2635882747
 30
0.0
 10
9.0798473945
 20
-21.8031639698
 30
0.0
 10
9.1357585628
 20
-22.0709906123
 30
0.0
  0
SPLINE
  5
453
100
AcDbEntity
  8
ASSI
100
AcDbSpline
 62
7
  6
CONTINUOUS
 70
0
 71
3
 72
9
 73
5
 74
0
 42
0.0000001
 43
0.0000001
 44
0.0000000001
 40
0.0
 40
0.0
 40
0.0
 40
0.0
 40
0.2579248153
 40
1.0
 40
1.0
 40
1.0
 40
1.0
 10
9.1357585628
 20
-22.0709906123
 30
0.0
 10
9.1480212267
 20
-22.1297314363
 30
0.0
 10
9.1902354618
 20
-22.3585246628
 30
0.0
 10
9.2104211698
 20
-22.5916205668
 30
0.0
 10
9.2104211698
 20
-22.7642670507
 30
0.0
  0
SPLINE
  5
454
100
AcDbEntity
  8
ASSI
100
AcDbSpline
 62
7
  6
CONTINUOUS
 70
0
 71
3
 72
14
 73
10
 74
0
 42
0.0000001
 43
0.0000001
 44
0.0000000001
 40
0.0
 40
0.0
 40
0.0
 40
0.0
 40
0.1023913846
 40
0.2064172655
 40
0.3153251582
 40
0.4317544875
 40
0.5575961507
 40
0.6940098847
 40
1.0
 40
1.0
 40
1.0
 40
1.0
 10
-16.0810122612
 20
-6.0267774119
 30
0.0
 10
-16.0269967585
 20
-5.9955892145
 30
0.0
 10
-15.9112010146
 20
-5.9438610551
 30
0.0
 10
-15.7221630747
 20
-5.9033059952
 30
0.0
 10
-15.5204238057
 20
-5.8997801806
 30
0.0
 10
-15.3081438522
 20
-5.9326358278
 30
0.0
 10
-15.0870704863
 20
-6.0009613826
 30
0.0
 10
-14.7709382846
 20
-6.1435509361
 30
0.0
 10
-14.5446243405
 20
-6.2936390558
 30
0.0
 10
-14.3970016399
 20
-6.4074438701
 30
0.0
  0
SPLINE
  5
455
100
AcDbEntity
  8
0
100
AcDbSpline
 62
7
  6
CONTINUOUS
 70
0
 71
3
 72
9
 73
5
 74
0
 42
0.0000001
 43
0.0000001
 44
0.0000000001
 40
0.0
 40
0.0
 40
0.0
 40
0.0
 40
0.4491821089
 40
1.0
 40
1.0
 40
1.0
 40
1.0
 10
14.138064174
 20
14.1766057988
 30
0.0
 10
14.138064174
 20
14.1805000804
 30
0.0
 10
14.1414645263
 20
14.189192209
 30
0.0
 10
14.1485709306
 20
14.1946316955
 30
0.0
 10
14.1527065121
 20
14.1970195284
 30
0.0
  0
SPLINE
  5
456
100
AcDbEntity
  8
0
100
AcDbSpline
 62
7
  6
CONTINUOUS
 70
0
 71
3
 72
11
 73
7
 74
0
 42
0.0000001
 43
0.0000001
 44
0.0000000001
 40
0.0
 40
0.0
 40
0.0
 40
0.0
 40
0.2278550815
 40
0.4749219948
 40
0.7348612182
 40
1.0
 40
1.0
 40
1.0
 40
1.0
 10
13.0055222107
 20
14.8185619071
 30
0.0
 10
12.8237995668
 20
14.9234862842
 30
0.0
 10
12.423418326
 20
15.1056290595
 30
0.0
 10
11.7700832623
 20
15.2898666666
 30
0.0
 10
11.0642041513
 20
15.3904257096
 30
0.0
 10
10.5792573937
 20
15.3985809093
 30
0.0
 10
10.3353334136
 20
15.3875274035
 30
0.0
  0
SPLINE
  5
457
100
AcDbEntity
  8
0
100
AcDbSpline
 62
7
  6
CONTINUOUS
 70
0
 71
3
 72
8
 73
4
 74
0
 42
0.0000001
 43
0.0000001
 44
0.0000000001
 40
0.0
 40
0.0
 40
0.0
 40
0.0
 40
1.0
 40
1.0
 40
1.0
 40
1.0
 10
-17.3836899815
 20
30.7439906553
 30
0.0
 10
-17.3836884139
 20
30.7482424374
 30
0.0
 10
-17.3830194565
 20
30.7525365582
 30
0.0
 10
-17.3817704122
 20
30.7566007361
 30
0.0
  0
SPLINE
  5
458
100
AcDbEntity
  8
0
100
AcDbSpline
 62
7
  6
CONTINUOUS
 70
0
 71
3
 72
11
 73
7
 74
0
 42
0.0000001
 43
0.0000001
 44
0.0000000001
 40
0.0
 40
0.0
 40
0.0
 40
0.0
 40
0.2320489942
 40
0.4763760943
 40
0.7326031079
 40
1.0
 40
1.0
 40
1.0
 40
1.0
 10
-16.4537394968
 20
30.855202356
 30
0.0
 10
-14.6255755439
 20
29.2956602565
 30
0.0
 10
-10.7045486177
 20
26.2872410613
 30
0.0
 10
-4.2843413726
 20
22.2289779275
 30
0.0
 10
2.7707726289
 20
18.5417460068
 30
0.0
 10
7.75624722
 20
16.3954300847
 30
0.0
 10
10.3353334136
 20
15.3875274035
 30
0.0
  0
SPLINE
  5
459
100
AcDbEntity
  8
0
100
AcDbSpline
 62
7
  6
CONTINUOUS
 70
0
 71
3
 72
9
 73
5
 74
0
 42
0.0000001
 43
0.0000001
 44
0.0000000001
 40
0.0
 40
0.0
 40
0.0
 40
0.0
 40
0.4492219968
 40
1.0
 40
1.0
 40
1.0
 40
1.0
 10
18.7324792335
 20
-29.3410863526
 30
0.0
 10
18.7324792335
 20
-29.3508231305
 30
0.0
 10
18.7239678051
 20
-29.3725503419
 30
0.0
 10
18.7062060084
 20
-29.3861513985
 30
0.0
 10
18.6958675812
 20
-29.3921206768
 30
0.0
  0
SPLINE
  5
45A
100
AcDbEntity
  8
ASSI
100
AcDbSpline
 62
7
  6
CONTINUOUS
 70
0
 71
3
 72
9
 73
5
 74
0
 42
0.0000001
 43
0.0000001
 44
0.0000000001
 40
0.0
 40
0.0
 40
0.0
 40
0.0
 40
0.252770165
 40
1.0
 40
1.0
 40
1.0
 40
1.0
 10
8.3463088992
 20
-24.4036087699
 30
0.0
 10
8.3675699089
 20
-24.3996998193
 30
0.0
 10
8.4514314526
 20
-24.3829102991
 30
0.0
 10
8.5342275725
 20
-24.3607416679
 30
0.0
 10
8.5950352024
 20
-24.3410894071
 30
0.0
  0
SPLINE
  5
45B
100
AcDbEntity
  8
ASSI
100
AcDbSpline
 62
7
  6
CONTINUOUS
 70
0
 71
3
 72
9
 73
5
 74
0
 42
0.0000001
 43
0.0000001
 44
0.0000000001
 40
0.0
 40
0.0
 40
0.0
 40
0.0
 40
0.252770165
 40
1.0
 40
1.0
 40
1.0
 40
1.0
 10
8.3463088992
 20
-14.19773031
 30
0.0
 10
8.3675699089
 20
-14.1938213594
 30
0.0
 10
8.4514314526
 20
-14.1770318392
 30
0.0
 10
8.5342275725
 20
-14.154863208
 30
0.0
 10
8.5950352024
 20
-14.1352109472
 30
0.0
  0
SPLINE
  5
45C
100
AcDbEntity
  8
ASSI
100
AcDbSpline
 62
7
  6
CONTINUOUS
 70
0
 71
3
 72
9
 73
5
 74
0
 42
0.0000001
 43
0.0000001
 44
0.0000000001
 40
0.0
 40
0.0
 40
0.0
 40
0.0
 40
0.252770165
 40
1.0
 40
1.0
 40
1.0
 40
1.0
 10
8.3463088992
 20
-3.9918518501
 30
0.0
 10
8.3675699089
 20
-3.9879428995
 30
0.0
 10
8.4514314526
 20
-3.9711533793
 30
0.0
 10
8.5342275725
 20
-3.9489847481
 30
0.0
 10
8.5950352024
 20
-3.9293324873
 30
0.0
  0
SPLINE
  5
45D
100
AcDbEntity
  8
0
100
AcDbSpline
 62
7
  6
CONTINUOUS
 70
0
 71
3
 72
11
 73
7
 74
0
 42
0.0000001
 43
0.0000001
 44
0.0000000001
 40
0.0
 40
0.0
 40
0.0
 40
0.0
 40
0.2177814642
 40
0.4509426406
 40
0.7102332255
 40
1.0
 40
1.0
 40
1.0
 40
1.0
 10
-16.6392823499
 20
32.9368233622
 30
0.0
 10
-16.6392823499
 20
32.9463459656
 30
0.0
 10
-16.642798833
 20
32.9661962437
 30
0.0
 10
-16.6578465858
 20
32.9938475543
 30
0.0
 10
-16.6816273848
 20
33.0188519561
 30
0.0
 10
-16.7015319509
 20
33.0325566058
 30
0.0
 10
-16.7125044867
 20
33.0388920105
 30
0.0
  0
SPLINE
  5
45E
100
AcDbEntity
  8
ASSI
100
AcDbSpline
 62
7
  6
CONTINUOUS
 70
0
 71
3
 72
9
 73
5
 74
0
 42
0.0000001
 43
0.0000001
 44
0.0000000001
 40
0.0
 40
0.0
 40
0.0
 40
0.0
 40
0.252770165
 40
1.0
 40
1.0
 40
1.0
 40
1.0
 10
8.3463088992
 20
6.2140266098
 30
0.0
 10
8.3675699089
 20
6.2179355604
 30
0.0
 10
8.4514314526
 20
6.2347250806
 30
0.0
 10
8.5342275725
 20
6.2568937118
 30
0.0
 10
8.5950352024
 20
6.2765459726
 30
0.0
  0
SPLINE
  5
45F
100
AcDbEntity
  8
0
100
AcDbSpline
 62
7
  6
CONTINUOUS
 70
0
 71
3
 72
11
 73
7
 74
0
 42
0.0000001
 43
0.0000001
 44
0.0000000001
 40
0.0
 40
0.0
 40
0.0
 40
0.0
 40
0.217776992
 40
0.4509583864
 40
0.7102062846
 40
1.0
 40
1.0
 40
1.0
 40
1.0
 10
-18.5206520319
 20
32.4060663908
 30
0.0
 10
-18.5206520319
 20
32.4251113558
 30
0.0
 10
-18.5136231594
 20
32.4648149086
 30
0.0
 10
-18.4835195765
 20
32.5201113922
 30
0.0
 10
-18.4359637683
 20
32.5701256273
 30
0.0
 10
-18.3961527065
 20
32.5975316008
 30
0.0
 10
-18.3742054225
 20
32.6102036875
 30
0.0
  0
SPLINE
  5
460
100
AcDbEntity
  8
0
100
AcDbSpline
 62
7
  6
CONTINUOUS
 70
0
 71
3
 72
12
 73
8
 74
0
 42
0.0000001
 43
0.0000001
 44
0.0000000001
 40
0.0
 40
0.0
 40
0.0
 40
0.0
 40
0.1081717205
 40
0.2183727946
 40
0.4513768555
 40
0.710426052
 40
1.0
 40
1.0
 40
1.0
 40
1.0
 10
-16.4433182759
 20
31.008802285
 30
0.0
 10
-16.4433162556
 20
31.0731776284
 30
0.0
 10
-16.4545114349
 20
31.2034056374
 30
0.0
 10
-16.5221528789
 20
31.4644808306
 30
0.0
 10
-16.6957997214
 20
31.7845930052
 30
0.0
 10
-17.0192048214
 20
32.1243118691
 30
0.0
 10
-17.2899118824
 20
32.3107658615
 30
0.0
 10
-17.4391531555
 20
32.3969359022
 30
0.0
  0
SPLINE
  5
461
100
AcDbEntity
  8
0
100
AcDbSpline
 62
7
  6
CONTINUOUS
 70
0
 71
3
 72
10
 73
6
 74
0
 42
0.0000001
 43
0.0000001
 44
0.0000000001
 40
0.0
 40
0.0
 40
0.0
 40
0.0
 40
0.2333036369
 40
0.4741088844
 40
1.0
 40
1.0
 40
1.0
 40
1.0
 10
-18.7842546567
 20
-11.8465200279
 30
0.0
 10
-18.7842542112
 20
-11.8814897667
 30
0.0
 10
-18.7761149284
 20
-11.9528093425
 30
0.0
 10
-18.7268719502
 20
-12.0953520084
 30
0.0
 10
-18.656382465
 20
-12.1901555053
 30
0.0
 10
-18.6010522955
 20
-12.2462984584
 30
0.0
  0
SPLINE
  5
462
100
AcDbEntity
  8
0
100
AcDbSpline
 62
7
  6
CONTINUOUS
 70
0
 71
3
 72
11
 73
7
 74
0
 42
0.0000001
 43
0.0000001
 44
0.0000000001
 40
0.0
 40
0.0
 40
0.0
 40
0.0
 40
0.2204404728
 40
0.4583239333
 40
0.7176969263
 40
1.0
 40
1.0
 40
1.0
 40
1.0
 10
-17.383465539
 20
-14.0476420534
 30
0.0
 10
-17.4066403269
 20
-13.9738783311
 30
0.0
 10
-17.4746672694
 20
-13.826302821
 30
0.0
 10
-17.627888341
 20
-13.6246163224
 30
0.0
 10
-17.830906819
 20
-13.4395952971
 30
0.0
 10
-17.9897997605
 20
-13.3341222793
 30
0.0
 10
-18.0755492586
 20
-13.2846115938
 30
0.0
  0
SPLINE
  5
463
100
AcDbEntity
  8
0
100
AcDbSpline
 62
7
  6
CONTINUOUS
 70
0
 71
3
 72
11
 73
7
 74
0
 42
0.0000001
 43
0.0000001
 44
0.0000000001
 40
0.0
 40
0.0
 40
0.0
 40
0.0
 40
0.2372193404
 40
0.5
 40
0.7627806596
 40
1.0
 40
1.0
 40
1.0
 40
1.0
 10
13.3748890528
 20
-31.0354259149
 30
0.0
 10
13.3246993901
 20
-31.0644047971
 30
0.0
 10
13.2079740774
 20
-31.1066993075
 30
0.0
 10
13.0213356622
 20
-31.1269634061
 30
0.0
 10
12.8346972469
 20
-31.1066993075
 30
0.0
 10
12.7179719343
 20
-31.0644047971
 30
0.0
 10
12.6677822716
 20
-31.0354259149
 30
0.0
  0
SPLINE
  5
464
100
AcDbEntity
  8
0
100
AcDbSpline
 62
7
  6
CONTINUOUS
 70
0
 71
3
 72
11
 73
7
 74
0
 42
0.0000001
 43
0.0000001
 44
0.0000000001
 40
0.0
 40
0.0
 40
0.0
 40
0.0
 40
0.2897937154
 40
0.5490416136
 40
0.782223008
 40
1.0
 40
1.0
 40
1.0
 40
1.0
 10
-18.3742054225
 20
-13.1121712678
 30
0.0
 10
-18.3961527065
 20
-13.0994991811
 30
0.0
 10
-18.4359637683
 20
-13.0720932077
 30
0.0
 10
-18.4835195765
 20
-13.0220789725
 30
0.0
 10
-18.5136231594
 20
-12.9667824889
 30
0.0
 10
-18.5206520319
 20
-12.9270789361
 30
0.0
 10
-18.5206520319
 20
-12.9080339712
 30
0.0
  0
SPLINE
  5
465
100
AcDbEntity
  8
0
100
AcDbSpline
 62
7
  6
CONTINUOUS
 70
0
 71
3
 72
11
 73
7
 74
0
 42
0.0000001
 43
0.0000001
 44
0.0000000001
 40
0.0
 40
0.0
 40
0.0
 40
0.0
 40
0.2372259409
 40
0.5
 40
0.7627740591
 40
1.0
 40
1.0
 40
1.0
 40
1.0
 10
13.7637977824
 20
15.2381197414
 30
0.0
 10
13.788893303
 20
15.2526095805
 30
0.0
 10
13.8472560268
 20
15.2737570005
 30
0.0
 10
13.9405744777
 20
15.2838870748
 30
0.0
 10
14.0338929287
 20
15.2737570005
 30
0.0
 10
14.0922556525
 20
15.2526095805
 30
0.0
 10
14.117351173
 20
15.2381197414
 30
0.0
  0
SPLINE
  5
466
100
AcDbEntity
  8
0
100
AcDbSpline
 62
7
  6
CONTINUOUS
 70
0
 71
3
 72
9
 73
5
 74
0
 42
0.0000001
 43
0.0000001
 44
0.0000000001
 40
0.0
 40
0.0
 40
0.0
 40
0.0
 40
0.5507780032
 40
1.0
 40
1.0
 40
1.0
 40
1.0
 10
16.8927452892
 20
16.6364602236
 30
0.0
 10
16.882406862
 20
16.6304909452
 30
0.0
 10
16.8646450653
 20
16.6168898887
 30
0.0
 10
16.8561336368
 20
16.5951626773
 30
0.0
 10
16.8561336368
 20
16.5854258994
 30
0.0
  0
SPLINE
  5
467
100
AcDbEntity
  8
0
100
AcDbSpline
 62
7
  6
CONTINUOUS
 70
0
 71
3
 72
11
 73
7
 74
0
 42
0.0000001
 43
0.0000001
 44
0.0000000001
 40
0.0
 40
0.0
 40
0.0
 40
0.0
 40
0.2372383085
 40
0.5
 40
0.7627616915
 40
1.0
 40
1.0
 40
1.0
 40
1.0
 10
17.1755880016
 20
16.7997700609
 30
0.0
 10
17.1881364173
 20
16.8070153588
 30
0.0
 10
17.2173179843
 20
16.8175884961
 30
0.0
 10
17.2639763493
 20
16.8226542619
 30
0.0
 10
17.3106347143
 20
16.8175884961
 30
0.0
 10
17.3398162813
 20
16.8070153588
 30
0.0
 10
17.3523646969
 20
16.7997700609
 30
0.0
  0
SPLINE
  5
468
100
AcDbEntity
  8
0
100
AcDbSpline
 62
7
  6
CONTINUOUS
 70
0
 71
3
 72
9
 73
5
 74
0
 42
0.0000001
 43
0.0000001
 44
0.0000000001
 40
0.0
 40
0.0
 40
0.0
 40
0.0
 40
0.5507780032
 40
1.0
 40
1.0
 40
1.0
 40
1.0
 10
18.6958675812
 20
16.0240483336
 30
0.0
 10
18.7062060084
 20
16.0180790553
 30
0.0
 10
18.7239678051
 20
16.0044779987
 30
0.0
 10
18.7324792335
 20
15.9827507873
 30
0.0
 10
18.7324792335
 20
15.9730140094
 30
0.0
  0
SPLINE
  5
469
100
AcDbEntity
  8
0
100
AcDbSpline
 62
7
  6
CONTINUOUS
 70
0
 71
3
 72
11
 73
7
 74
0
 42
0.0000001
 43
0.0000001
 44
0.0000000001
 40
0.0
 40
0.0
 40
0.0
 40
0.0
 40
0.2372383085
 40
0.5
 40
0.7627616915
 40
1.0
 40
1.0
 40
1.0
 40
1.0
 10
-15.5281006282
 20
35.6824700023
 30
0.0
 10
-15.5155522126
 20
35.6897153002
 30
0.0
 10
-15.4863706456
 20
35.7002884375
 30
0.0
 10
-15.4397122806
 20
35.7053542033
 30
0.0
 10
-15.3930539155
 20
35.7002884375
 30
0.0
 10
-15.3638723486
 20
35.6897153002
 30
0.0
 10
-15.3513239329
 20
35.6824700023
 30
0.0
  0
SPLINE
  5
46A
100
AcDbEntity
  8
0
100
AcDbSpline
 62
7
  6
CONTINUOUS
 70
0
 71
3
 72
9
 73
5
 74
0
 42
0.0000001
 43
0.0000001
 44
0.0000000001
 40
0.0
 40
0.0
 40
0.0
 40
0.0
 40
0.5507780032
 40
1.0
 40
1.0
 40
1.0
 40
1.0
 10
-14.0078210487
 20
34.906748275
 30
0.0
 10
-13.9974826215
 20
34.9007789967
 30
0.0
 10
-13.9797208248
 20
34.8871779401
 30
0.0
 10
-13.9712093963
 20
34.8654507287
 30
0.0
 10
-13.9712093963
 20
34.8557139508
 30
0.0
  0
SPLINE
  5
46B
100
AcDbEntity
  8
0
100
AcDbSpline
 62
7
  6
CONTINUOUS
 70
0
 71
3
 72
9
 73
5
 74
0
 42
0.0000001
 43
0.0000001
 44
0.0000000001
 40
0.0
 40
0.0
 40
0.0
 40
0.0
 40
0.257705489
 40
1.0
 40
1.0
 40
1.0
 40
1.0
 10
10.1645614007
 20
-30.4624063781
 30
0.0
 10
10.156636879
 20
-30.4632182975
 30
0.0
 10
10.1257647043
 20
-30.4646080145
 30
0.0
 10
10.0943451519
 20
-30.4595364185
 30
0.0
 10
10.0729562944
 20
-30.4512296543
 30
0.0
  0
SPLINE
  5
46C
100
AcDbEntity
  8
0
100
AcDbSpline
 62
7
  6
CONTINUOUS
 70
0
 71
3
 72
9
 73
5
 74
0
 42
0.0000001
 43
0.0000001
 44
0.0000000001
 40
0.0
 40
0.0
 40
0.0
 40
0.0
 40
0.5338743508
 40
1.0
 40
1.0
 40
1.0
 40
1.0
 10
-17.3624130059
 20
-14.6103912663
 30
0.0
 10
-17.3687133549
 20
-14.604983038
 30
0.0
 10
-17.3793061522
 20
-14.5930453916
 30
0.0
 10
-17.3836926544
 20
-14.5773592399
 30
0.0
 10
-17.3836899815
 20
-14.5701097067
 30
0.0
  0
SPLINE
  5
46D
100
AcDbEntity
  8
0
100
AcDbSpline
 62
7
  6
CONTINUOUS
 70
0
 71
3
 72
9
 73
5
 74
0
 42
0.0000001
 43
0.0000001
 44
0.0000000001
 40
0.0
 40
0.0
 40
0.0
 40
0.0
 40
0.5508178911
 40
1.0
 40
1.0
 40
1.0
 40
1.0
 10
14.1527065121
 20
-31.1579082929
 30
0.0
 10
14.1485709306
 20
-31.15552046
 30
0.0
 10
14.1414645263
 20
-31.1500809735
 30
0.0
 10
14.138064174
 20
-31.1413888449
 30
0.0
 10
14.138064174
 20
-31.1374945632
 30
0.0
  0
SPLINE
  5
46E
100
AcDbEntity
  8
0
100
AcDbSpline
 62
7
  6
CONTINUOUS
 70
0
 71
3
 72
9
 73
5
 74
0
 42
0.0000001
 43
0.0000001
 44
0.0000000001
 40
0.0
 40
0.0
 40
0.0
 40
0.0
 40
0.5080050777
 40
1.0
 40
1.0
 40
1.0
 40
1.0
 10
-18.5206150753
 20
-12.257313962
 30
0.0
 10
-18.5310433576
 20
-12.2619147899
 30
0.0
 10
-18.5539602588
 20
-12.2652833209
 30
0.0
 10
-18.5767776598
 20
-12.2603143289
 30
0.0
 10
-18.5863374569
 20
-12.2547946218
 30
0.0
  0
SPLINE
  5
46F
100
AcDbEntity
  8
ASSI
100
AcDbSpline
 62
7
  6
CONTINUOUS
 70
0
 71
3
 72
21
 73
17
 74
0
 42
0.0000001
 43
0.0000001
 44
0.0000000001
 40
0.0
 40
0.0
 40
0.0
 40
0.0
 40
0.0600579224
 40
0.124984073
 40
0.1940994119
 40
0.2665166991
 40
0.4168892669
 40
0.5667329359
 40
0.6383534246
 40
0.7061397059
 40
0.7690661461
 40
0.8263594532
 40
0.8776159008
 40
0.9229516219
 40
0.9631864357
 40
1.0
 40
1.0
 40
1.0
 40
1.0
 10
-14.3970016399
 20
17.6784292953
 30
0.0
 10
-14.5205945135
 20
17.7737091132
 30
0.0
 10
-14.7646156002
 20
17.9893939411
 30
0.0
 10
-15.1048497747
 20
18.3627253953
 30
0.0
 10
-15.4281428478
 20
18.7917456624
 30
0.0
 10
-15.832987588
 20
19.4339973588
 30
0.0
 10
-16.2536628457
 20
20.310092183
 30
0.0
 10
-16.5490516717
 20
21.2336862064
 30
0.0
 10
-16.6961872391
 20
21.9714290365
 30
0.0
 10
-16.7566555814
 20
22.4943608305
 30
0.0
 10
-16.7677686471
 20
22.9835575
 30
0.0
 10
-16.7292250197
 20
23.4285278607
 30
0.0
 10
-16.641553313
 20
23.8201685975
 30
0.0
 10
-16.5054497207
 20
24.1510223579
 30
0.0
 10
-16.32177325
 20
24.4143589403
 30
0.0
 10
-16.1638522919
 20
24.5430266768
 30
0.0
 10
-16.0810122612
 20
24.5908579678
 30
0.0
  0
SPLINE
  5
470
100
AcDbEntity
  8
ASSI
100
AcDbSpline
 62
7
  6
CONTINUOUS
 70
0
 71
3
 72
9
 73
5
 74
0
 42
0.0000001
 43
0.0000001
 44
0.0000000001
 40
0.0
 40
0.0
 40
0.0
 40
0.0
 40
0.4871846271
 40
1.0
 40
1.0
 40
1.0
 40
1.0
 10
-14.3970016399
 20
17.6784292953
 30
0.0
 10
-12.3548143636
 20
16.1040728924
 30
0.0
 10
-7.9969072869
 20
13.0844058677
 30
0.0
 10
-3.3899003929
 20
10.4648377293
 30
0.0
 10
-0.979475013
 20
9.2170396535
 30
0.0
  0
SPLINE
  5
471
100
AcDbEntity
  8
0
100
AcDbSpline
 62
7
  6
CONTINUOUS
 70
0
 71
3
 72
9
 73
5
 74
0
 42
0.0000001
 43
0.0000001
 44
0.0000000001
 40
0.0
 40
0.0
 40
0.0
 40
0.0
 40
0.4492219968
 40
1.0
 40
1.0
 40
1.0
 40
1.0
 10
-13.9712093963
 20
34.8557139508
 30
0.0
 10
-13.9712093963
 20
34.8459771729
 30
0.0
 10
-13.9797208248
 20
34.8242499615
 30
0.0
 10
-13.9974826215
 20
34.8106489049
 30
0.0
 10
-14.0078210487
 20
34.8046796266
 30
0.0
  0
SPLINE
  5
472
100
AcDbEntity
  8
ASSI
100
AcDbSpline
 62
7
  6
CONTINUOUS
 70
0
 71
3
 72
12
 73
8
 74
0
 42
0.0000001
 43
0.0000001
 44
0.0000000001
 40
0.0
 40
0.0
 40
0.0
 40
0.0
 40
0.1105793538
 40
0.2232081235
 40
0.4593410749
 40
0.7170767584
 40
1.0
 40
1.0
 40
1.0
 40
1.0
 10
1.1578791689
 20
-1.1077502891
 30
0.0
 10
1.0867360668
 20
-1.1488274894
 30
0.0
 10
0.9362841473
 20
-1.2204658078
 30
0.0
 10
0.6082515665
 20
-1.3185142334
 30
0.0
 10
0.1523167768
 20
-1.3487393452
 30
0.0
 10
-0.4193565494
 20
-1.2408910578
 30
0.0
 10
-0.7928164879
 20
-1.0854657962
 30
0.0
 10
-0.979475013
 20
-0.9888388064
 30
0.0
  0
SPLINE
  5
473
100
AcDbEntity
  8
0
100
AcDbSpline
 62
7
  6
CONTINUOUS
 70
0
 71
3
 72
9
 73
5
 74
0
 42
0.0000001
 43
0.0000001
 44
0.0000000001
 40
0.0
 40
0.0
 40
0.0
 40
0.0
 40
0.4492219968
 40
1.0
 40
1.0
 40
1.0
 40
1.0
 10
18.7324792335
 20
15.9730140094
 30
0.0
 10
18.7324792335
 20
15.9632772315
 30
0.0
 10
18.7239678051
 20
15.9415500201
 30
0.0
 10
18.7062060084
 20
15.9279489635
 30
0.0
 10
18.6958675812
 20
15.9219796852
 30
0.0
  0
SPLINE
  5
474
100
AcDbEntity
  8
0
100
AcDbSpline
 62
7
  6
CONTINUOUS
 70
0
 71
3
 72
11
 73
7
 74
0
 42
0.0000001
 43
0.0000001
 44
0.0000000001
 40
0.0
 40
0.0
 40
0.0
 40
0.0
 40
0.2277123015
 40
0.4759660347
 40
0.7366269121
 40
1.0
 40
1.0
 40
1.0
 40
1.0
 10
12.3691261077
 20
14.4511147731
 30
0.0
 10
12.2197302655
 20
14.53737406
 30
0.0
 10
11.8876041729
 20
14.6840611771
 30
0.0
 10
11.3450112325
 20
14.8227727727
 30
0.0
 10
10.7613352653
 20
14.884582649
 30
0.0
 10
10.3630484557
 20
14.8720302875
 30
0.0
 10
10.1645614007
 20
14.8516939839
 30
0.0
  0
SPLINE
  5
475
100
AcDbEntity
  8
0
100
AcDbSpline
 62
7
  6
CONTINUOUS
 70
0
 71
3
 72
9
 73
5
 74
0
 42
0.0000001
 43
0.0000001
 44
0.0000000001
 40
0.0
 40
0.0
 40
0.0
 40
0.0
 40
0.4492219968
 40
1.0
 40
1.0
 40
1.0
 40
1.0
 10
16.8561336368
 20
16.5854258994
 30
0.0
 10
16.8561336368
 20
16.5756891215
 30
0.0
 10
16.8646450653
 20
16.5539619101
 30
0.0
 10
16.882406862
 20
16.5403608535
 30
0.0
 10
16.8927452892
 20
16.5343915752
 30
0.0
  0
SPLINE
  5
476
100
AcDbEntity
  8
0
100
AcDbSpline
 62
7
  6
CONTINUOUS
 70
0
 71
3
 72
11
 73
7
 74
0
 42
0.0000001
 43
0.0000001
 44
0.0000000001
 40
0.0
 40
0.0
 40
0.0
 40
0.0
 40
0.2317776966
 40
0.4760226911
 40
0.7323483805
 40
1.0
 40
1.0
 40
1.0
 40
1.0
 10
-17.3624130059
 20
30.7037090957
 30
0.0
 10
-15.4970100887
 20
29.1024446328
 30
0.0
 10
-11.4900555003
 20
26.0146929782
 30
0.0
 10
-4.918581142
 20
21.8554041446
 30
0.0
 10
2.3129084268
 20
18.0819605884
 30
0.0
 10
7.4266094355
 20
15.8906291634
 30
0.0
 10
10.0729562944
 20
14.8628707077
 30
0.0
  0
SPLINE
  5
477
100
AcDbEntity
  8
ASSI
100
AcDbSpline
 62
7
  6
CONTINUOUS
 70
0
 71
3
 72
21
 73
17
 74
0
 42
0.0000001
 43
0.0000001
 44
0.0000000001
 40
0.0
 40
0.0
 40
0.0
 40
0.0
 40
0.0600579224
 40
0.124984073
 40
0.1940994119
 40
0.2665166991
 40
0.4168892669
 40
0.5667329359
 40
0.6383534246
 40
0.7061397059
 40
0.7690661461
 40
0.8263594532
 40
0.8776159008
 40
0.9229516219
 40
0.9631864357
 40
1.0
 40
1.0
 40
1.0
 40
1.0
 10
-14.3970016399
 20
-12.9392060845
 30
0.0
 10
-14.5205945135
 20
-12.8439262665
 30
0.0
 10
-14.7646156002
 20
-12.6282414386
 30
0.0
 10
-15.1048497747
 20
-12.2549099844
 30
0.0
 10
-15.4281428478
 20
-11.8258897173
 30
0.0
 10
-15.832987588
 20
-11.183638021
 30
0.0
 10
-16.2536628457
 20
-10.3075431967
 30
0.0
 10
-16.5490516717
 20
-9.3839491734
 30
0.0
 10
-16.6961872391
 20
-8.6462063432
 30
0.0
 10
-16.7566555814
 20
-8.1232745492
 30
0.0
 10
-16.7677686471
 20
-7.6340778798
 30
0.0
 10
-16.7292250197
 20
-7.189107519
 30
0.0
 10
-16.641553313
 20
-6.7974667823
 30
0.0
 10
-16.5054497207
 20
-6.4666130218
 30
0.0
 10
-16.32177325
 20
-6.2032764395
 30
0.0
 10
-16.1638522919
 20
-6.0746087029
 30
0.0
 10
-16.0810122612
 20
-6.0267774119
 30
0.0
  0
SPLINE
  5
478
100
AcDbEntity
  8
ASSI
100
AcDbSpline
 62
7
  6
CONTINUOUS
 70
0
 71
3
 72
9
 73
5
 74
0
 42
0.0000001
 43
0.0000001
 44
0.0000000001
 40
0.0
 40
0.0
 40
0.0
 40
0.0
 40
0.4871846271
 40
1.0
 40
1.0
 40
1.0
 40
1.0
 10
-14.3970016399
 20
-12.9392060845
 30
0.0
 10
-12.3548143636
 20
-14.5135624874
 30
0.0
 10
-7.9969072869
 20
-17.5332295121
 30
0.0
 10
-3.3899003929
 20
-20.1527976505
 30
0.0
 10
-0.979475013
 20
-21.4005957263
 30
0.0
  0
SPLINE
  5
479
100
AcDbEntity
  8
ASSI
100
AcDbSpline
 62
7
  6
CONTINUOUS
 70
0
 71
3
 72
18
 73
14
 74
0
 42
0.0000001
 43
0.0000001
 44
0.0000000001
 40
0.0
 40
0.0
 40
0.0
 40
0.0
 40
0.048227623
 40
0.0982870145
 40
0.1509747554
 40
0.2067844042
 40
0.3280180417
 40
0.4609302426
 40
0.6010417524
 40
0.7420098498
 40
0.8107242269
 40
0.8771022345
 40
1.0
 40
1.0
 40
1.0
 40
1.0
 10
8.2946140649
 20
-4.1494207811
 30
0.0
 10
8.185627763
 20
-4.2123486243
 30
0.0
 10
7.9486458172
 20
-4.316293704
 30
0.0
 10
7.5607681267
 20
-4.3978539057
 30
0.0
 10
7.1448900579
 20
-4.4064070873
 30
0.0
 10
6.5495408047
 20
-4.318600812
 30
0.0
 10
5.7863467303
 20
-4.0196195558
 30
0.0
 10
4.9374427706
 20
-3.4249106375
 30
0.0
 10
4.192149876
 20
-2.6333558609
 30
0.0
 10
3.7008688634
 20
-1.8567986118
 30
0.0
 10
3.4098967516
 20
-1.1964100476
 30
0.0
 10
3.2040003488
 20
-0.5549003776
 30
0.0
 10
3.1304534458
 20
-0.0595871719
 30
0.0
 10
3.1304534458
 20
0.2611116051
 30
0.0
  0
SPLINE
  5
47A
100
AcDbEntity
  8
ASSI
100
AcDbSpline
 62
7
  6
CONTINUOUS
 70
0
 71
3
 72
12
 73
8
 74
0
 42
0.0000001
 43
0.0000001
 44
0.0000000001
 40
0.0
 40
0.0
 40
0.0
 40
0.0
 40
0.1105793538
 40
0.2232081235
 40
0.4593410749
 40
0.7170767584
 40
1.0
 40
1.0
 40
1.0
 40
1.0
 10
1.1578791689
 20
-11.313628749
 30
0.0
 10
1.0867360668
 20
-11.3547059493
 30
0.0
 10
0.9362841473
 20
-11.4263442677
 30
0.0
 10
0.6082515665
 20
-11.5243926933
 30
0.0
 10
0.1523167768
 20
-11.5546178051
 30
0.0
 10
-0.4193565494
 20
-11.4467695177
 30
0.0
 10
-0.7928164879
 20
-11.2913442561
 30
0.0
 10
-0.979475013
 20
-11.1947172664
 30
0.0
  0
SPLINE
  5
47B
100
AcDbEntity
  8
0
100
AcDbSpline
 62
7
  6
CONTINUOUS
 70
0
 71
3
 72
10
 73
6
 74
0
 42
0.0000001
 43
0.0000001
 44
0.0000000001
 40
0.0
 40
0.0
 40
0.0
 40
0.0
 40
0.2333036369
 40
0.4741088844
 40
1.0
 40
1.0
 40
1.0
 40
1.0
 10
-18.7842546567
 20
33.4675803341
 30
0.0
 10
-18.7842542112
 20
33.4326105953
 30
0.0
 10
-18.7761149284
 20
33.3612910195
 30
0.0
 10
-18.7268719502
 20
33.2187483536
 30
0.0
 10
-18.656382465
 20
33.1239448567
 30
0.0
 10
-18.6010522955
 20
33.0678019036
 30
0.0
  0
SPLINE
  5
47C
100
AcDbEntity
  8
ASSI
100
AcDbSpline
 62
7
  6
CONTINUOUS
 70
0
 71
3
 72
12
 73
8
 74
0
 42
0.0000001
 43
0.0000001
 44
0.0000000001
 40
0.0
 40
0.0
 40
0.0
 40
0.0
 40
0.1105793538
 40
0.2232081235
 40
0.4593410749
 40
0.7170767584
 40
1.0
 40
1.0
 40
1.0
 40
1.0
 10
1.1578791689
 20
9.0981281708
 30
0.0
 10
1.0867360668
 20
9.0570509705
 30
0.0
 10
0.9362841473
 20
8.9854126521
 30
0.0
 10
0.6082515665
 20
8.8873642265
 30
0.0
 10
0.1523167768
 20
8.8571391148
 30
0.0
 10
-0.4193565494
 20
8.9649874021
 30
0.0
 10
-0.7928164879
 20
9.1204126637
 30
0.0
 10
-0.979475013
 20
9.2170396535
 30
0.0
  0
SPLINE
  5
47D
100
AcDbEntity
  8
ASSI
100
AcDbSpline
 62
7
  6
CONTINUOUS
 70
0
 71
3
 72
13
 73
9
 74
0
 42
0.0000001
 43
0.0000001
 44
0.0000000001
 40
0.0
 40
0.0
 40
0.0
 40
0.0
 40
0.2788046317
 40
0.5333867235
 40
0.653578661
 40
0.7704037045
 40
0.885336663
 40
1.0
 40
1.0
 40
1.0
 40
1.0
 10
3.1304534458
 20
-20.1506453148
 30
0.0
 10
3.1304534458
 20
-19.9591546894
 30
0.0
 10
3.1631501316
 20
-19.5914424041
 30
0.0
 10
3.303793679
 20
-19.1598222814
 30
0.0
 10
3.4724226937
 20
-18.8661129185
 30
0.0
 10
3.6222680731
 20
-18.6752717188
 30
0.0
 10
3.7964066467
 20
-18.5118364509
 30
0.0
 10
3.9272180967
 20
-18.4224686147
 30
0.0
 10
3.9954198278
 20
-18.3830896637
 30
0.0
  0
SPLINE
  5
47E
100
AcDbEntity
  8
0
100
AcDbSpline
 62
7
  6
CONTINUOUS
 70
0
 71
3
 72
11
 73
7
 74
0
 42
0.0000001
 43
0.0000001
 44
0.0000000001
 40
0.0
 40
0.0
 40
0.0
 40
0.0
 40
0.2517594073
 40
0.5142117408
 40
0.7691387172
 40
1.0
 40
1.0
 40
1.0
 40
1.0
 10
14.1674213507
 20
14.1476959057
 30
0.0
 10
14.3052814111
 20
14.1024019847
 30
0.0
 10
14.597968462
 20
14.0421571254
 30
0.0
 10
15.0436004855
 20
14.0350826181
 30
0.0
 10
15.4711406131
 20
14.1077476474
 30
0.0
 10
15.7345272003
 20
14.2121388636
 30
0.0
 10
15.8497627869
 20
14.2786744471
 30
0.0
  0
SPLINE
  5
47F
100
AcDbEntity
  8
ASSI
100
AcDbSpline
 62
7
  6
CONTINUOUS
 70
0
 71
3
 72
18
 73
14
 74
0
 42
0.0000001
 43
0.0000001
 44
0.0000000001
 40
0.0
 40
0.0
 40
0.0
 40
0.0
 40
0.048227623
 40
0.0982870145
 40
0.1509747554
 40
0.2067844042
 40
0.3280180417
 40
0.4609302426
 40
0.6010417524
 40
0.7420098498
 40
0.8107242269
 40
0.8771022345
 40
1.0
 40
1.0
 40
1.0
 40
1.0
 10
8.2946140649
 20
6.0564576789
 30
0.0
 10
8.185627763
 20
5.9935298356
 30
0.0
 10
7.9486458172
 20
5.889584756
 30
0.0
 10
7.5607681267
 20
5.8080245543
 30
0.0
 10
7.1448900579
 20
5.7994713726
 30
0.0
 10
6.5495408047
 20
5.8872776479
 30
0.0
 10
5.7863467303
 20
6.1862589041
 30
0.0
 10
4.9374427706
 20
6.7809678224
 30
0.0
 10
4.192149876
 20
7.572522599
 30
0.0
 10
3.7008688634
 20
8.3490798481
 30
0.0
 10
3.4098967516
 20
9.0094684124
 30
0.0
 10
3.2040003488
 20
9.6509780823
 30
0.0
 10
3.1304534458
 20
10.146291288
 30
0.0
 10
3.1304534458
 20
10.466990065
 30
0.0
  0
SPLINE
  5
480
100
AcDbEntity
  8
0
100
AcDbSpline
 62
7
  6
CONTINUOUS
 70
0
 71
3
 72
11
 73
7
 74
0
 42
0.0000001
 43
0.0000001
 44
0.0000000001
 40
0.0
 40
0.0
 40
0.0
 40
0.0
 40
0.217774499
 40
0.4509563541
 40
0.7102018643
 40
1.0
 40
1.0
 40
1.0
 40
1.0
 10
-17.3433161757
 20
31.0088022847
 30
0.0
 10
-17.3433167275
 20
31.104026008
 30
0.0
 10
-17.3784596211
 20
31.3025429197
 30
0.0
 10
-17.5289771024
 20
31.5790234959
 30
0.0
 10
-17.766754976
 20
31.8290969442
 30
0.0
 10
-17.9658111782
 20
31.9661273759
 30
0.0
 10
-18.0755492586
 20
32.0294887682
 30
0.0
  0
SPLINE
  5
481
100
AcDbEntity
  8
ASSI
100
AcDbSpline
 62
7
  6
CONTINUOUS
 70
0
 71
3
 72
13
 73
9
 74
0
 42
0.0000001
 43
0.0000001
 44
0.0000000001
 40
0.0
 40
0.0
 40
0.0
 40
0.0
 40
0.2788046317
 40
0.5333867235
 40
0.653578661
 40
0.7704037045
 40
0.885336663
 40
1.0
 40
1.0
 40
1.0
 40
1.0
 10
3.1304534458
 20
-9.9447668548
 30
0.0
 10
3.1304534458
 20
-9.7532762295
 30
0.0
 10
3.1631501316
 20
-9.3855639442
 30
0.0
 10
3.303793679
 20
-8.9539438215
 30
0.0
 10
3.4724226937
 20
-8.6602344586
 30
0.0
 10
3.6222680731
 20
-8.4693932588
 30
0.0
 10
3.7964066467
 20
-8.305957991
 30
0.0
 10
3.9272180967
 20
-8.2165901548
 30
0.0
 10
3.9954198278
 20
-8.1772112038
 30
0.0
  0
SPLINE
  5
482
100
AcDbEntity
  8
ASSI
100
AcDbSpline
 62
7
  6
CONTINUOUS
 70
0
 71
3
 72
18
 73
14
 74
0
 42
0.0000001
 43
0.0000001
 44
0.0000000001
 40
0.0
 40
0.0
 40
0.0
 40
0.0
 40
0.048227623
 40
0.0982870145
 40
0.1509747554
 40
0.2067844042
 40
0.3280180417
 40
0.4609302426
 40
0.6010417524
 40
0.7420098498
 40
0.8107242269
 40
0.8771022345
 40
1.0
 40
1.0
 40
1.0
 40
1.0
 10
8.2946140649
 20
-14.355299241
 30
0.0
 10
8.185627763
 20
-14.4182270842
 30
0.0
 10
7.9486458172
 20
-14.5221721639
 30
0.0
 10
7.5607681267
 20
-14.6037323656
 30
0.0
 10
7.1448900579
 20
-14.6122855472
 30
0.0
 10
6.5495408047
 20
-14.5244792719
 30
0.0
 10
5.7863467303
 20
-14.2254980157
 30
0.0
 10
4.9374427706
 20
-13.6307890974
 30
0.0
 10
4.192149876
 20
-12.8392343208
 30
0.0
 10
3.7008688634
 20
-12.0626770717
 30
0.0
 10
3.4098967516
 20
-11.4022885075
 30
0.0
 10
3.2040003488
 20
-10.7607788375
 30
0.0
 10
3.1304534458
 20
-10.2654656318
 30
0.0
 10
3.1304534458
 20
-9.9447668548
 30
0.0
  0
SPLINE
  5
483
100
AcDbEntity
  8
ASSI
100
AcDbSpline
 62
7
  6
CONTINUOUS
 70
0
 71
3
 72
21
 73
17
 74
0
 42
0.0000001
 43
0.0000001
 44
0.0000000001
 40
0.0
 40
0.0
 40
0.0
 40
0.0
 40
0.0600579224
 40
0.124984073
 40
0.1940994119
 40
0.2665166991
 40
0.4168892669
 40
0.5667329359
 40
0.6383534246
 40
0.7061397059
 40
0.7690661461
 40
0.8263594532
 40
0.8776159008
 40
0.9229516219
 40
0.9631864357
 40
1.0
 40
1.0
 40
1.0
 40
1.0
 10
-14.3970016399
 20
-2.7333276246
 30
0.0
 10
-14.5205945135
 20
-2.6380478066
 30
0.0
 10
-14.7646156002
 20
-2.4223629787
 30
0.0
 10
-15.1048497747
 20
-2.0490315245
 30
0.0
 10
-15.4281428478
 20
-1.6200112574
 30
0.0
 10
-15.832987588
 20
-0.9777595611
 30
0.0
 10
-16.2536628457
 20
-0.1016647368
 30
0.0
 10
-16.5490516717
 20
0.8219292866
 30
0.0
 10
-16.6961872391
 20
1.5596721167
 30
0.0
 10
-16.7566555814
 20
2.0826039107
 30
0.0
 10
-16.7677686471
 20
2.5718005801
 30
0.0
 10
-16.7292250197
 20
3.0167709409
 30
0.0
 10
-16.641553313
 20
3.4084116776
 30
0.0
 10
-16.5054497207
 20
3.7392654381
 30
0.0
 10
-16.32177325
 20
4.0026020204
 30
0.0
 10
-16.1638522919
 20
4.131269757
 30
0.0
 10
-16.0810122612
 20
4.179101048
 30
0.0
  0
SPLINE
  5
484
100
AcDbEntity
  8
ASSI
100
AcDbSpline
 62
7
  6
CONTINUOUS
 70
0
 71
3
 72
18
 73
14
 74
0
 42
0.0000001
 43
0.0000001
 44
0.0000000001
 40
0.0
 40
0.0
 40
0.0
 40
0.0
 40
0.048227623
 40
0.0982870145
 40
0.1509747554
 40
0.2067844042
 40
0.3280180417
 40
0.4609302426
 40
0.6010417524
 40
0.7420098498
 40
0.8107242269
 40
0.8771022345
 40
1.0
 40
1.0
 40
1.0
 40
1.0
 10
8.2946140649
 20
-24.5611777009
 30
0.0
 10
8.185627763
 20
-24.6241055441
 30
0.0
 10
7.9486458172
 20
-24.7280506238
 30
0.0
 10
7.5607681267
 20
-24.8096108255
 30
0.0
 10
7.1448900579
 20
-24.8181640071
 30
0.0
 10
6.5495408047
 20
-24.7303577318
 30
0.0
 10
5.7863467303
 20
-24.4313764756
 30
0.0
 10
4.9374427706
 20
-23.8366675573
 30
0.0
 10
4.192149876
 20
-23.0451127808
 30
0.0
 10
3.7008688634
 20
-22.2685555316
 30
0.0
 10
3.4098967516
 20
-21.6081669674
 30
0.0
 10
3.2040003488
 20
-20.9666572975
 30
0.0
 10
3.1304534458
 20
-20.4713440917
 30
0.0
 10
3.1304534458
 20
-20.1506453148
 30
0.0
  0
SPLINE
  5
485
100
AcDbEntity
  8
ASSI
100
AcDbSpline
 62
7
  6
CONTINUOUS
 70
0
 71
3
 72
9
 73
5
 74
0
 42
0.0000001
 43
0.0000001
 44
0.0000000001
 40
0.0
 40
0.0
 40
0.0
 40
0.0
 40
0.4871846271
 40
1.0
 40
1.0
 40
1.0
 40
1.0
 10
-14.3970016399
 20
-2.7333276246
 30
0.0
 10
-12.3548143636
 20
-4.3076840275
 30
0.0
 10
-7.9969072869
 20
-7.3273510522
 30
0.0
 10
-3.3899003929
 20
-9.9469191906
 30
0.0
 10
-0.979475013
 20
-11.1947172664
 30
0.0
  0
SPLINE
  5
486
100
AcDbEntity
  8
0
100
AcDbSpline
 62
7
  6
CONTINUOUS
 70
0
 71
3
 72
11
 73
7
 74
0
 42
0.0000001
 43
0.0000001
 44
0.0000000001
 40
0.0
 40
0.0
 40
0.0
 40
0.0
 40
0.2372193404
 40
0.5
 40
0.7627806596
 40
1.0
 40
1.0
 40
1.0
 40
1.0
 10
13.3748890528
 20
14.2786744471
 30
0.0
 10
13.3246993901
 20
14.2496955649
 30
0.0
 10
13.2079740774
 20
14.2074010545
 30
0.0
 10
13.0213356622
 20
14.1871369559
 30
0.0
 10
12.8346972469
 20
14.2074010545
 30
0.0
 10
12.7179719343
 20
14.2496955649
 30
0.0
 10
12.6677822716
 20
14.2786744471
 30
0.0
  0
SPLINE
  5
487
100
AcDbEntity
  8
0
100
AcDbSpline
 62
7
  6
CONTINUOUS
 70
0
 71
3
 72
11
 73
7
 74
0
 42
0.0000001
 43
0.0000001
 44
0.0000000001
 40
0.0
 40
0.0
 40
0.0
 40
0.0
 40
0.2897937154
 40
0.5490416136
 40
0.782223008
 40
1.0
 40
1.0
 40
1.0
 40
1.0
 10
-18.3742054225
 20
32.2019290942
 30
0.0
 10
-18.3961527065
 20
32.2146011809
 30
0.0
 10
-18.4359637683
 20
32.2420071543
 30
0.0
 10
-18.4835195765
 20
32.2920213895
 30
0.0
 10
-18.5136231594
 20
32.3473178731
 30
0.0
 10
-18.5206520319
 20
32.3870214259
 30
0.0
 10
-18.5206520319
 20
32.4060663908
 30
0.0
  0
SPLINE
  5
488
100
AcDbEntity
  8
0
100
AcDbSpline
 62
7
  6
CONTINUOUS
 70
0
 71
3
 72
11
 73
7
 74
0
 42
0.0000001
 43
0.0000001
 44
0.0000000001
 40
0.0
 40
0.0
 40
0.0
 40
0.0
 40
0.2897667745
 40
0.5490573594
 40
0.7822185358
 40
1.0
 40
1.0
 40
1.0
 40
1.0
 10
-16.7125044867
 20
32.8347547138
 30
0.0
 10
-16.7015319509
 20
32.8410901185
 30
0.0
 10
-16.6816273848
 20
32.8547947682
 30
0.0
 10
-16.6578465858
 20
32.87979917
 30
0.0
 10
-16.642798833
 20
32.9074504806
 30
0.0
 10
-16.6392823499
 20
32.9273007587
 30
0.0
 10
-16.6392823499
 20
32.9368233622
 30
0.0
  0
SPLINE
  5
489
100
AcDbEntity
  8
ASSI
100
AcDbSpline
 62
7
  6
CONTINUOUS
 70
0
 71
3
 72
12
 73
8
 74
0
 42
0.0000001
 43
0.0000001
 44
0.0000000001
 40
0.0
 40
0.0
 40
0.0
 40
0.0
 40
0.1105793538
 40
0.2232081235
 40
0.4593410749
 40
0.7170767584
 40
1.0
 40
1.0
 40
1.0
 40
1.0
 10
1.1578791689
 20
-21.5195072089
 30
0.0
 10
1.0867360668
 20
-21.5605844092
 30
0.0
 10
0.9362841473
 20
-21.6322227276
 30
0.0
 10
0.6082515665
 20
-21.7302711532
 30
0.0
 10
0.1523167768
 20
-21.760496265
 30
0.0
 10
-0.4193565494
 20
-21.6526479777
 30
0.0
 10
-0.7928164879
 20
-21.497222716
 30
0.0
 10
-0.979475013
 20
-21.4005957263
 30
0.0
  0
SPLINE
  5
48A
100
AcDbEntity
  8
ASSI
100
AcDbSpline
 62
7
  6
CONTINUOUS
 70
0
 71
3
 72
13
 73
9
 74
0
 42
0.0000001
 43
0.0000001
 44
0.0000000001
 40
0.0
 40
0.0
 40
0.0
 40
0.0
 40
0.2788046317
 40
0.5333867235
 40
0.653578661
 40
0.7704037045
 40
0.885336663
 40
1.0
 40
1.0
 40
1.0
 40
1.0
 10
3.1304534458
 20
0.2611116051
 30
0.0
 10
3.1304534458
 20
0.4526022304
 30
0.0
 10
3.1631501316
 20
0.8203145157
 30
0.0
 10
3.303793679
 20
1.2519346384
 30
0.0
 10
3.4724226937
 20
1.5456440013
 30
0.0
 10
3.6222680731
 20
1.7364852011
 30
0.0
 10
3.7964066467
 20
1.8999204689
 30
0.0
 10
3.9272180967
 20
1.9892883051
 30
0.0
 10
3.9954198278
 20
2.0286672561
 30
0.0
  0
SPLINE
  5
48B
100
AcDbEntity
  8
0
100
AcDbSpline
 62
7
  6
CONTINUOUS
 70
0
 71
3
 72
11
 73
7
 74
0
 42
0.0000001
 43
0.0000001
 44
0.0000000001
 40
0.0
 40
0.0
 40
0.0
 40
0.0
 40
0.2372383085
 40
0.5
 40
0.7627616915
 40
1.0
 40
1.0
 40
1.0
 40
1.0
 10
-14.2906637612
 20
34.6413697893
 30
0.0
 10
-14.3032121768
 20
34.6341244914
 30
0.0
 10
-14.3323937438
 20
34.6235513541
 30
0.0
 10
-14.3790521088
 20
34.6184855883
 30
0.0
 10
-14.4257104738
 20
34.6235513541
 30
0.0
 10
-14.4548920408
 20
34.6341244914
 30
0.0
 10
-14.4674404565
 20
34.6413697893
 30
0.0
  0
SPLINE
  5
48C
100
AcDbEntity
  8
ASSI
100
AcDbSpline
 62
7
  6
CONTINUOUS
 70
0
 71
3
 72
21
 73
17
 74
0
 42
0.0000001
 43
0.0000001
 44
0.0000000001
 40
0.0
 40
0.0
 40
0.0
 40
0.0
 40
0.0600579224
 40
0.124984073
 40
0.1940994119
 40
0.2665166991
 40
0.4168892669
 40
0.5667329359
 40
0.6383534246
 40
0.7061397059
 40
0.7690661461
 40
0.8263594532
 40
0.8776159008
 40
0.9229516219
 40
0.9631864357
 40
1.0
 40
1.0
 40
1.0
 40
1.0
 10
-14.3970016399
 20
7.4725508354
 30
0.0
 10
-14.5205945135
 20
7.5678306533
 30
0.0
 10
-14.7646156002
 20
7.7835154812
 30
0.0
 10
-15.1048497747
 20
8.1568469354
 30
0.0
 10
-15.4281428478
 20
8.5858672025
 30
0.0
 10
-15.832987588
 20
9.2281188989
 30
0.0
 10
-16.2536628457
 20
10.1042137231
 30
0.0
 10
-16.5490516717
 20
11.0278077465
 30
0.0
 10
-16.6961872391
 20
11.7655505766
 30
0.0
 10
-16.7566555814
 20
12.2884823706
 30
0.0
 10
-16.7677686471
 20
12.77767904
 30
0.0
 10
-16.7292250197
 20
13.2226494008
 30
0.0
 10
-16.641553313
 20
13.6142901375
 30
0.0
 10
-16.5054497207
 20
13.945143898
 30
0.0
 10
-16.32177325
 20
14.2084804803
 30
0.0
 10
-16.1638522919
 20
14.3371482169
 30
0.0
 10
-16.0810122612
 20
14.3849795079
 30
0.0
  0
SPLINE
  5
48D
100
AcDbEntity
  8
ASSI
100
AcDbSpline
 62
7
  6
CONTINUOUS
 70
0
 71
3
 72
9
 73
5
 74
0
 42
0.0000001
 43
0.0000001
 44
0.0000000001
 40
0.0
 40
0.0
 40
0.0
 40
0.0
 40
0.4871846271
 40
1.0
 40
1.0
 40
1.0
 40
1.0
 10
-14.3970016399
 20
7.4725508354
 30
0.0
 10
-12.3548143636
 20
5.8981944324
 30
0.0
 10
-7.9969072869
 20
2.8785274078
 30
0.0
 10
-3.3899003929
 20
0.2589592693
 30
0.0
 10
-0.979475013
 20
-0.9888388064
 30
0.0
  0
SPLINE
  5
48E
100
AcDbEntity
  8
0
100
AcDbSpline
 62
7
  6
CONTINUOUS
 70
0
 71
3
 72
9
 73
5
 74
0
 42
0.0000001
 43
0.0000001
 44
0.0000000001
 40
0.0
 40
0.0
 40
0.0
 40
0.0
 40
0.257705489
 40
1.0
 40
1.0
 40
1.0
 40
1.0
 10
10.1645614007
 20
14.8516939839
 30
0.0
 10
10.156636879
 20
14.8508820645
 30
0.0
 10
10.1257647043
 20
14.8494923475
 30
0.0
 10
10.0943451519
 20
14.8545639435
 30
0.0
 10
10.0729562944
 20
14.8628707077
 30
0.0
  0
SPLINE
  5
48F
100
AcDbEntity
  8
0
100
AcDbSpline
 62
7
  6
CONTINUOUS
 70
0
 71
3
 72
9
 73
5
 74
0
 42
0.0000001
 43
0.0000001
 44
0.0000000001
 40
0.0
 40
0.0
 40
0.0
 40
0.0
 40
0.5338743508
 40
1.0
 40
1.0
 40
1.0
 40
1.0
 10
-17.3624130059
 20
30.7037090957
 30
0.0
 10
-17.3687133549
 20
30.709117324
 30
0.0
 10
-17.3793061522
 20
30.7210549704
 30
0.0
 10
-17.3836926544
 20
30.7367411221
 30
0.0
 10
-17.3836899815
 20
30.7439906553
 30
0.0
  0
SPLINE
  5
490
100
AcDbEntity
  8
0
100
AcDbSpline
 62
7
  6
CONTINUOUS
 70
0
 71
3
 72
9
 73
5
 74
0
 42
0.0000001
 43
0.0000001
 44
0.0000000001
 40
0.0
 40
0.0
 40
0.0
 40
0.0
 40
0.5508178911
 40
1.0
 40
1.0
 40
1.0
 40
1.0
 10
14.1527065121
 20
14.1561920691
 30
0.0
 10
14.1485709306
 20
14.158579902
 30
0.0
 10
14.1414645263
 20
14.1640193885
 30
0.0
 10
14.138064174
 20
14.1727115171
 30
0.0
 10
14.138064174
 20
14.1766057988
 30
0.0
  0
SPLINE
  5
491
100
AcDbEntity
  8
0
100
AcDbSpline
 62
7
  6
CONTINUOUS
 70
0
 71
3
 72
9
 73
5
 74
0
 42
0.0000001
 43
0.0000001
 44
0.0000000001
 40
0.0
 40
0.0
 40
0.0
 40
0.0
 40
0.5
 40
1.0
 40
1.0
 40
1.0
 40
1.0
 10
-18.5156267787
 20
33.0593057402
 30
0.0
 10
-18.5261205573
 20
33.0532467639
 30
0.0
 10
-18.5509821178
 20
33.0484561114
 30
0.0
 10
-18.5758436783
 20
33.0532467639
 30
0.0
 10
-18.5863374569
 20
33.0593057402
 30
0.0
  0
SPLINE
  5
492
100
AcDbEntity
  8
ASSI
100
AcDbSpline
 62
7
  6
CONTINUOUS
 70
0
 71
3
 72
13
 73
9
 74
0
 42
0.0000001
 43
0.0000001
 44
0.0000000001
 40
0.0
 40
0.0
 40
0.0
 40
0.0
 40
0.2788046317
 40
0.5333867235
 40
0.653578661
 40
0.7704037045
 40
0.885336663
 40
1.0
 40
1.0
 40
1.0
 40
1.0
 10
3.1304534458
 20
10.466990065
 30
0.0
 10
3.1304534458
 20
10.6584806903
 30
0.0
 10
3.1631501316
 20
11.0261929756
 30
0.0
 10
3.303793679
 20
11.4578130983
 30
0.0
 10
3.4724226937
 20
11.7515224612
 30
0.0
 10
3.6222680731
 20
11.942363661
 30
0.0
 10
3.7964066467
 20
12.1057989288
 30
0.0
 10
3.9272180967
 20
12.195166765
 30
0.0
 10
3.9954198278
 20
12.234545716
 30
0.0
  0
ELLIPSE
  5
493
100
AcDbEntity
  8
RACCORDO
100
AcDbEllipse
 62
7
  6
CONTINUOUS
 10
-14.0600282078
 20
31.0585876718
 30
0.0
 11
-0.126258007
 21
0.2167194942
 31
0.0
 40
0.5763500122
 41
-0.7890988531
 42
0.0570435847
  0
ENDSEC
  0
SECTION
  2
OBJECTS
  0
DICTIONARY
  5
C
100
AcDbDictionary
280
0
281
1
  3
ACAD_GROUP
350
D
  3
ACAD_MLINESTYLE
350
17
  3
ACAD_LAYOUT
350
1A
  3
ACAD_PLOTSETTINGS
350
19
  3
ACAD_PLOTSTYLENAME
350
E
  0
DICTIONARY
  5
D
102
{ACAD_REACTORS
330
C
102
}
100
AcDbDictionary
280
0
281
1
  0
ACDBDICTIONARYWDFLT
  5
E
102
{ACAD_REACTORS
330
C
102
}
100
AcDbDictionary
281
1
  3
Normal
350
F
100
AcDbDictionaryWithDefault
340
F
  0
DICTIONARY
  5
17
102
{ACAD_REACTORS
330
C
102
}
100
AcDbDictionary
280
0
281
1
  3
Standard
350
18
  0
DICTIONARY
  5
19
102
{ACAD_REACTORS
330
C
102
}
100
AcDbDictionary
281
1
  0
DICTIONARY
  5
1A
102
{ACAD_REACTORS
330
C
102
}
100
AcDbDictionary
281
1
  3
Model
350
494
  3
Layout1
350
495
  0
ACDBPLACEHOLDER
  5
F
102
{ACAD_REACTORS
330
E
102
}
  0
MLINESTYLE
  5
18
102
{ACAD_REACTORS
330
17
102
}
100
AcDbMlineStyle
  2
STANDARD
 70
0
  3

 62
256
 51
90.0
 52
90.0
 71
2
 49
0.5
 62
256
  6
BYLAYER
 49
-0.5
 62
256
  6
BYLAYER
  0
LAYOUT
  5
494
102
{ACAD_REACTORS
330
1A
102
}
100
AcDbPlotSettings
  1

  2
none_device
  4
ISO_A4_(297.00_x_210.00_MM)
  6

 40
0.0
 41
0.0
 42
0.0
 43
0.0
 44
297.0
 45
210.0
 46
0.0
 47
0.0
 48
0.0
 49
0.0
140
0.0
141
0.0
142
1.0
143
1.0
 70
1024
 72
1
 73
0
 74
0
  7

 75
0
147
1.0
148
0.0
149
0.0
100
AcDbLayout
  1
Model
 70
0
 71
0
 10
0.0
 20
0.0
 11
297.0
 21
210.0
 12
0.0
 22
0.0
 32
0.0
 14
0.0
 24
0.0
 34
0.0
 15
0.0
 25
0.0
 35
0.0
146
0.0
 13
0.0
 23
0.0
 33
0.0
 16
1.0
 26
0.0
 36
0.0
 17
0.0
 27
1.0
 37
0.0
 76
0
330
222
345
0
346
0
  0
LAYOUT
  5
495
102
{ACAD_REACTORS
330
1A
102
}
100
AcDbPlotSettings
  1

  2
none_device
  4
ISO_A4_(297.00_x_210.00_MM)
  6

 40
0.0
 41
0.0
 42
0.0
 43
0.0
 44
297.0
 45
210.0
 46
0.0
 47
0.0
 48
0.0
 49
0.0
140
0.0
141
0.0
142
1.0
143
1.0
 70
0
 72
1
 73
0
 74
0
  7

 75
0
147
1.0
148
0.0
149
0.0
100
AcDbLayout
  1
Layout1
 70
0
 71
1
 10
0.0
 20
0.0
 11
297.0
 21
210.0
 12
0.0
 22
0.0
 32
0.0
 14
0.0
 24
0.0
 34
0.0
 15
0.0
 25
0.0
 35
0.0
146
0.0
 13
0.0
 23
0.0
 33
0.0
 16
1.0
 26
0.0
 36
0.0
 17
0.0
 27
1.0
 37
0.0
 76
0
330
223
345
0
346
0
  0
ENDSEC
  0
EOF
