  0
SECTION
  2
HEADER
  9
$ACADVER
  1
AC1024
  9
$DWGCODEPAGE
  3
ANSI_1252
  9
$EXTMAX
 10
297.0
 20
210.0
 30
0.0
  9
$EXTMIN
 10
0.0
 20
0.0
 30
0.0
  9
$LIMMIN
 10
0.0
 20
0.0
  9
$LIMMAX
 10
297.0
 20
210.0
  9
$VIEWCTR
 10
148.5
 20
105.0
  9
$VIEWSIZE
 40
210.0
  9
$CLAYER
  8
0
  9
$LTSCALE
 40
16.335
  9
$CELTYPE
  6
BYLAYER
  9
$DIMSCALE
 40
1.0
  9
$DIMASZ
 40
3.0
  9
$DIMEXO
 40
0.5
  9
$DIMDLI
 40
11.286
  9
$DIMEXE
 40
1.5
  9
$DIMCEN
 40
2.673
  9
$DIMLFAC
 40
1.0
  9
$DIMBLK
  1
_FILLED
  9
$DIMALT
 70
0
  9
$DIMALTF
 40
0.0393700787
  9
$DIMTXT
 40
3.0
  9
$DIMTOL
 70
1
  9
$DIMLIM
 70
0
  9
$DIMTFAC
 40
1.0
  9
$DIMTP
 40
0.01
  9
$DIMTM
 40
0.01
  9
$DIMGAP
 40
0.625
  9
$DIMDSEP
 70
44
  9
$AUNITS
 70
0
  9
$PDMODE
 70
3
  9
$PDSIZE
 40
3.0
  9
$HANDSEED
  5
3D3
  9
$TILEMODE
 70
1
  9
$MEASUREMENT
 70
1
  9
$INSUNITS
 70
4
  0
ENDSEC
  0
SECTION
  2
CLASSES
  0
CLASS
  1
ACDBDICTIONARYWDFLT
  2
AcDbDictionaryWithDefault
  3
AutoCAD 2000
 90
0
 91
1
280
0
281
0
  0
CLASS
  1
ACDBPLACEHOLDER
  2
AcDbPlaceHolder
  3
AutoCAD 2000
 90
0
 91
1
280
0
281
0
  0
CLASS
  1
LAYOUT
  2
AcDbLayout
  3
AutoCAD 2000
 90
0
 91
0
280
0
281
0
  0
ENDSEC
  0
SECTION
  2
TABLES
  0
TABLE
  2
VPORT
  5
8
100
AcDbSymbolTable
 70
2
  0
VPORT
  5
1F4
100
AcDbSymbolTableRecord
100
AcDbViewportTableRecord
  2
*ACTIVE
 70
0
 10
0.0
 20
0.0
 11
1.0
 21
1.0
 12
148.5
 22
105.0
 13
0.0
 23
0.0
 14
1.0
 24
1.0
 15
0.0
 25
0.0
 16
0.0
 26
0.0
 36
1.0
 17
0.0
 27
0.0
 37
0.0
 40
210.0
 41
1.4142857143
 42
50.0
 43
0.0
 44
0.0
 50
0.0
 51
0.0
 71
0
 72
100
 73
1
 74
1
 75
0
 76
0
 77
0
 78
0
  0
ENDTAB
  0
TABLE
  2
LTYPE
  5
5
100
AcDbSymbolTable
 70
6
  0
LTYPE
  5
14
100
AcDbSymbolTableRecord
100
AcDbLinetypeTableRecord
  2
BYBLOCK
 70
0
  3

 72
65
 73
0
 40
0.0
  0
LTYPE
  5
15
100
AcDbSymbolTableRecord
100
AcDbLinetypeTableRecord
  2
BYLAYER
 70
0
  3

 72
65
 73
0
 40
0.0
  0
LTYPE
  5
16
100
AcDbSymbolTableRecord
100
AcDbLinetypeTableRecord
  2
CONTINUOUS
 70
64
  3
Solid line
 72
65
 73
0
 40
0.0
  0
LTYPE
  5
1F5
100
AcDbSymbolTableRecord
100
AcDbLinetypeTableRecord
  2
CENTER
 70
64
  3
____ _ ____ _ ____ _ ____ _ ____ _ ____ _ ____
 72
65
 73
4
 40
0.6
 49
0.375
 74
0
 49
-0.075
 74
0
 49
0.075
 74
0
 49
-0.075
 74
0
  0
LTYPE
  5
1F6
100
AcDbSymbolTableRecord
100
AcDbLinetypeTableRecord
  2
HIDDEN
 70
64
  3
- - - - - - - - - - - - - - - - - - - -
 72
65
 73
2
 40
0.2
 49
0.1
 74
0
 49
-0.1
 74
0
  0
LTYPE
  5
1F7
100
AcDbSymbolTableRecord
100
AcDbLinetypeTableRecord
  2
PHANTOM
 70
64
  3
_____ _ _ _____ _ _ _____ _ _ _____
 72
65
 73
6
 40
0.8
 49
0.45
 74
0
 49
-0.05
 74
0
 49
0.1
 74
0
 49
-0.05
 74
0
 49
0.1
 74
0
 49
-0.05
 74
0
  0
LTYPE
  5
1F8
100
AcDbSymbolTableRecord
100
AcDbLinetypeTableRecord
  2
DOT
 70
64
  3
. . . . . . . . . . . . . . . . . . . .
 72
65
 73
2
 40
0.2
 49
0.1
 74
0
 49
-0.1
 74
0
  0
LTYPE
  5
1F9
100
AcDbSymbolTableRecord
100
AcDbLinetypeTableRecord
  2
DASHED
 70
64
  3
- - - - - - - - - - - - - - - - - - - -
 72
65
 73
2
 40
0.2
 49
0.1
 74
0
 49
-0.1
 74
0
  0
ENDTAB
  0
TABLE
  2
LAYER
  5
2
100
AcDbSymbolTable
 70
36
  0
LAYER
  5
10
100
AcDbSymbolTableRecord
100
AcDbLayerTableRecord
  2
0
 70
0
 62
7
  6
CONTINUOUS
370
-3
390
F
  0
LAYER
  5
1FA
100
AcDbSymbolTableRecord
100
AcDbLayerTableRecord
  2
DEFAULT_1
 70
0
 62
7
  6
CENTER
370
-3
390
F
  0
LAYER
  5
1FB
100
AcDbSymbolTableRecord
100
AcDbLayerTableRecord
  2
DEFAULT_2
 70
0
 62
7
  6
HIDDEN
370
-3
390
F
  0
LAYER
  5
1FC
100
AcDbSymbolTableRecord
100
AcDbLayerTableRecord
  2
DEFAULT_3
 70
0
 62
7
  6
PHANTOM
370
-3
390
F
  0
LAYER
  5
1FD
100
AcDbSymbolTableRecord
100
AcDbLayerTableRecord
  2
ASSI
 70
0
 62
7
  6
CONTINUOUS
370
-3
390
F
  0
LAYER
  5
1FE
100
AcDbSymbolTableRecord
100
AcDbLayerTableRecord
  2
COORDINATE
 70
0
 62
7
  6
CONTINUOUS
370
-3
390
F
  0
LAYER
  5
1FF
100
AcDbSymbolTableRecord
100
AcDbLayerTableRecord
  2
COPY_PUBLISH
 70
0
 62
7
  6
CONTINUOUS
370
-3
390
F
  0
LAYER
  5
200
100
AcDbSymbolTableRecord
100
AcDbLayerTableRecord
  2
COSMETICI
 70
0
 62
7
  6
CONTINUOUS
370
-3
390
F
  0
LAYER
  5
201
100
AcDbSymbolTableRecord
100
AcDbLayerTableRecord
  2
CURVE
 70
0
 62
7
  6
CONTINUOUS
370
-3
390
F
  0
LAYER
  5
202
100
AcDbSymbolTableRecord
100
AcDbLayerTableRecord
  2
DRAFT
 70
0
 62
7
  6
CONTINUOUS
370
-3
390
F
  0
LAYER
  5
203
100
AcDbSymbolTableRecord
100
AcDbLayerTableRecord
  2
IMPORT_IGES
 70
0
 62
7
  6
CONTINUOUS
370
-3
390
F
  0
LAYER
  5
204
100
AcDbSymbolTableRecord
100
AcDbLayerTableRecord
  2
INTFCLR_2816
 70
0
 62
7
  6
CONTINUOUS
370
-3
390
F
  0
LAYER
  5
205
100
AcDbSymbolTableRecord
100
AcDbLayerTableRecord
  2
NOTE
 70
0
 62
7
  6
CONTINUOUS
370
-3
390
F
  0
LAYER
  5
206
100
AcDbSymbolTableRecord
100
AcDbLayerTableRecord
  2
PIANI
 70
0
 62
7
  6
CONTINUOUS
370
-3
390
F
  0
LAYER
  5
207
100
AcDbSymbolTableRecord
100
AcDbLayerTableRecord
  2
PUNTI
 70
0
 62
7
  6
CONTINUOUS
370
-3
390
F
  0
LAYER
  5
208
100
AcDbSymbolTableRecord
100
AcDbLayerTableRecord
  2
RACCORDO
 70
0
 62
7
  6
CONTINUOUS
370
-3
390
F
  0
LAYER
  5
209
100
AcDbSymbolTableRecord
100
AcDbLayerTableRecord
  2
SIMBOLI
 70
0
 62
7
  6
CONTINUOUS
370
-3
390
F
  0
LAYER
  5
20A
100
AcDbSymbolTableRecord
100
AcDbLayerTableRecord
  2
SMUSSO
 70
0
 62
7
  6
CONTINUOUS
370
-3
390
F
  0
LAYER
  5
20B
100
AcDbSymbolTableRecord
100
AcDbLayerTableRecord
  2
SNAPLINE
 70
0
 62
7
  6
CONTINUOUS
370
-3
390
F
  0
LAYER
  5
20C
100
AcDbSymbolTableRecord
100
AcDbLayerTableRecord
  2
SUPERFICI
 70
0
 62
7
  6
CONTINUOUS
370
-3
390
F
  0
LAYER
  5
20D
100
AcDbSymbolTableRecord
100
AcDbLayerTableRecord
  2
TRASH
 70
0
 62
7
  6
CONTINUOUS
370
-3
390
F
  0
ENDTAB
  0
TABLE
  2
STYLE
  5
3
100
AcDbSymbolTable
 70
1
  0
STYLE
  5
11
100
AcDbSymbolTableRecord
100
AcDbTextStyleTableRecord
  2
STANDARD
 70
0
 40
0.0
 41
0.8
 50
0.0
 71
0
 42
0.2
  3
txt
  4

  0
STYLE
  5
20E
100
AcDbSymbolTableRecord
100
AcDbTextStyleTableRecord
  2
TEXTSTYLE_1
 70
0
 40
0.0
 41
0.8
 50
0.0
 71
0
 42
0.2
  3
gdt
  4

  0
ENDTAB
  0
TABLE
  2
VIEW
  5
6
100
AcDbSymbolTable
 70
0
  0
ENDTAB
  0
TABLE
  2
UCS
  5
7
100
AcDbSymbolTable
 70
0
  0
ENDTAB
  0
TABLE
  2
APPID
  5
9
100
AcDbSymbolTable
 70
1
  0
APPID
  5
20F
100
AcDbSymbolTableRecord
100
AcDbRegAppTableRecord
  2
ACAD
 70
0
  0
ENDTAB
  0
TABLE
  2
BLOCK_RECORD
  5
1
100
AcDbSymbolTable
 70
0
  0
BLOCK_RECORD
  5
210
100
AcDbSymbolTableRecord
100
AcDbBlockTableRecord
  2
*Model_Space
  0
BLOCK_RECORD
  5
211
100
AcDbSymbolTableRecord
100
AcDbBlockTableRecord
  2
*Paper_Space
  0
BLOCK_RECORD
  5
212
100
AcDbSymbolTableRecord
100
AcDbBlockTableRecord
  2
_FILLED
  0
ENDTAB
  0
TABLE
  2
DIMSTYLE
  5
A
100
AcDbSymbolTable
 70
1
100
AcDbDimStyleTable
 71
0
  0
DIMSTYLE
105
213
100
AcDbSymbolTableRecord
100
AcDbDimStyleTableRecord
  2
STANDARD
 70
0
  3

  4

 40
1.0
 41
3.0
 42
0.5
 43
0.38
 44
1.5
 45
0.0
 46
0.0
 47
0.01
 48
0.01
140
3.0
141
0.09
142
0.0
143
25.4
144
1.0
145
0.0
146
1.0
147
0.625
 71
1.0
 72
0.0
 73
0
 74
0
 75
0
 76
0
 77
1
 78
8
 79
2
170
0
171
1
172
0
173
0
174
0
175
0
176
0
177
0
178
0
270
2
179
2
271
2
272
2
273
2
274
2
275
0
280
0
281
0
282
0
283
1
284
8
285
0
286
0
287
3
288
0
340
11
278
44
341
212
342
212
343
212
344
212
  0
ENDTAB
  0
ENDSEC
  0
SECTION
  2
BLOCKS
  0
BLOCK
  5
20
100
AcDbEntity
  8
0
100
AcDbBlockBegin
  2
*Model_Space
 70
0
 10
0.0
 20
0.0
 30
0.0
  3
*Model_Space
  1

  0
ENDBLK
  5
21
100
AcDbEntity
  8
0
100
AcDbBlockEnd
  0
BLOCK
  5
1C
100
AcDbEntity
  8
0
100
AcDbBlockBegin
  2
*Paper_Space
 70
0
 10
0.0
 20
0.0
 30
0.0
  3
*Paper_Space
  1

  0
ENDBLK
  5
1D
100
AcDbEntity
  8
0
100
AcDbBlockEnd
  0
BLOCK
  5
214
100
AcDbEntity
  8
0
100
AcDbBlockBegin
  2
_FILLED
 70
64
 10
0.0
 20
0.0
  3
_FILLED
  1

  0
SOLID
  5
215
100
AcDbEntity
  8
0
  6
BYBLOCK
 62
0
100
AcDbTrace
 10
0.0
 20
0.0
 11
-1.0
 21
0.3166666667
 12
-1.0
 22
-0.3166666667
 13
-1.0
 23
-0.3166666667
  0
ENDBLK
  5
216
100
AcDbEntity
  8
0
  6
BYBLOCK
 62
0
100
AcDbBlockEnd
  0
ENDSEC
  0
SECTION
  2
ENTITIES
  0
LINE
  5
217
100
AcDbEntity
  8
0
100
AcDbLine
 62
7
  6
CONTINUOUS
 10
-15.5281006282
 20
35.6824700023
 11
-18.3742054225
 21
34.0391647641
  0
LINE
  5
218
100
AcDbEntity
  8
0
100
AcDbLine
 62
7
  6
CONTINUOUS
 10
-15.4397122806
 20
35.2027473551
 11
-17.9499413538
 21
33.7533725488
  0
LINE
  5
219
100
AcDbEntity
  8
0
100
AcDbLine
 62
7
  6
CONTINUOUS
 10
-18.5156267787
 20
33.0593057402
 11
-18.09136271
 21
33.3042704962
  0
LINE
  5
21A
100
AcDbEntity
  8
0
100
AcDbLine
 62
7
  6
CONTINUOUS
 10
-17.6317433023
 20
33.0388920105
 11
-18.3742054225
 21
32.6102036875
  0
LINE
  5
21B
100
AcDbEntity
  8
0
100
AcDbLine
 62
7
  6
CONTINUOUS
 10
-14.2906637612
 20
34.6413697893
 11
-14.0078210487
 21
34.8046796266
  0
LINE
  5
21C
100
AcDbEntity
  8
0
100
AcDbLine
 62
7
  6
CONTINUOUS
 10
-16.7125044867
 20
32.8347547138
 11
-17.454966607
 21
32.4060663908
  0
LINE
  5
21D
100
AcDbEntity
  8
ASSI
100
AcDbLine
 62
7
  6
CONTINUOUS
 10
-15.0878922656
 20
30.3973688031
 11
-15.4612285128
 21
30.0260640305
  0
LINE
  5
21E
100
AcDbEntity
  8
DRAFT
100
AcDbLine
 62
7
  6
CONTINUOUS
 10
-15.0878922656
 20
30.3973688031
 11
-15.4612285128
 21
30.0260640305
  0
LINE
  5
21F
100
AcDbEntity
  8
ASSI
100
AcDbLine
 62
7
  6
CONTINUOUS
 10
-14.4713989115
 20
30.3775981554
 11
-15.1115393806
 21
29.7409409514
  0
LINE
  5
220
100
AcDbEntity
  8
DRAFT
100
AcDbLine
 62
7
  6
CONTINUOUS
 10
-14.4713989115
 20
30.3775981554
 11
-15.1115393806
 21
29.7409409514
  0
LWPOLYLINE
  5
221
100
AcDbEntity
  8
ASSI
100
AcDbPolyline
 62
7
  6
CONTINUOUS
 90
5
 70
0
 10
-13.8108878931
 20
21.9372664493
 10
-13.9984939783
 20
21.6801837773
 10
-14.1909027026
 20
21.3941217748
 10
-14.3734123302
 20
21.0981201414
 10
-14.545937632
 20
20.7919834912
  0
LWPOLYLINE
  5
222
100
AcDbEntity
  8
RACCORDO
100
AcDbPolyline
 62
7
  6
CONTINUOUS
 90
5
 70
0
 10
-13.8108878931
 20
21.9372664493
 10
-13.9984939756
 20
21.6801837812
 10
-14.1909026979
 20
21.394121782
 10
-14.3734123244
 20
21.0981201513
 10
-14.5459376289
 20
20.7919834971
  0
LINE
  5
223
100
AcDbEntity
  8
ASSI
100
AcDbLine
 62
7
  6
CONTINUOUS
 10
-13.2103698928
 20
22.4296921875
 11
-13.2278453768
 21
22.4060558557
  0
LINE
  5
224
100
AcDbEntity
  8
ASSI
100
AcDbLine
 62
7
  6
CONTINUOUS
 10
-13.8108878931
 20
21.9372664493
 11
-13.8108088195
 21
21.9373706726
  0
LINE
  5
225
100
AcDbEntity
  8
RACCORDO
100
AcDbLine
 62
7
  6
CONTINUOUS
 10
-13.8108878931
 20
21.9372664493
 11
-13.8108088195
 21
21.9373706726
  0
LWPOLYLINE
  5
226
100
AcDbEntity
  8
ASSI
100
AcDbPolyline
 62
7
  6
CONTINUOUS
 90
8
 70
0
 10
-13.4028535286
 20
22.3033957985
 10
-13.4206949664
 20
22.2928039464
 10
-13.4955009452
 20
22.2440069606
 10
-13.5680125303
 20
22.1893256411
 10
-13.6376899275
 20
22.1289938357
 10
-13.7042344303
 20
22.0631606853
 10
-13.767527646
 20
21.9918429037
 10
-13.8108078595
 20
21.9373699439
  0
LWPOLYLINE
  5
227
100
AcDbEntity
  8
RACCORDO
100
AcDbPolyline
 62
7
  6
CONTINUOUS
 90
8
 70
0
 10
-13.4028535286
 20
22.3033957985
 10
-13.4206949664
 20
22.2928039464
 10
-13.4955009452
 20
22.2440069606
 10
-13.5680125303
 20
22.1893256411
 10
-13.6376899275
 20
22.1289938357
 10
-13.7042344303
 20
22.0631606853
 10
-13.767527646
 20
21.9918429037
 10
-13.8108078595
 20
21.9373699439
  0
LINE
  5
228
100
AcDbEntity
  8
ASSI
100
AcDbLine
 62
7
  6
CONTINUOUS
 10
-13.1597698592
 20
22.445138313
 11
-13.4030532748
 21
22.3032792846
  0
LINE
  5
229
100
AcDbEntity
  8
DRAFT
100
AcDbLine
 62
7
  6
CONTINUOUS
 10
-13.1597698592
 20
22.445138313
 11
-13.4030532748
 21
22.3032792846
  0
LINE
  5
22A
100
AcDbEntity
  8
RACCORDO
100
AcDbLine
 62
7
  6
CONTINUOUS
 10
-13.402865
 20
22.3033890383
 11
-13.4030567244
 21
22.3032772732
  0
LINE
  5
22B
100
AcDbEntity
  8
ASSI
100
AcDbLine
 62
250
  6
CONTINUOUS
 10
-13.8525421499
 20
22.0589099745
 11
-13.2103698928
 21
22.4296921875
  0
LINE
  5
22C
100
AcDbEntity
  8
ASSI
100
AcDbLine
 62
7
  6
CONTINUOUS
 10
-14.8604948451
 20
20.1494827001
 11
-15.0024370019
 21
19.8131861926
  0
LINE
  5
22D
100
AcDbEntity
  8
RACCORDO
100
AcDbLine
 62
7
  6
CONTINUOUS
 10
-14.8604948451
 20
20.1494827001
 11
-15.0024370019
 21
19.8131861926
  0
LINE
  5
22E
100
AcDbEntity
  8
ASSI
100
AcDbLine
 62
7
  6
CONTINUOUS
 10
-14.7083520145
 20
20.47569851
 11
-14.8604948451
 21
20.1494827001
  0
LINE
  5
22F
100
AcDbEntity
  8
RACCORDO
100
AcDbLine
 62
7
  6
CONTINUOUS
 10
-14.7083520145
 20
20.47569851
 11
-14.8604948451
 21
20.1494827001
  0
LINE
  5
230
100
AcDbEntity
  8
ASSI
100
AcDbLine
 62
7
  6
CONTINUOUS
 10
-14.545937632
 20
20.7919834912
 11
-14.7083520145
 21
20.47569851
  0
LINE
  5
231
100
AcDbEntity
  8
RACCORDO
100
AcDbLine
 62
7
  6
CONTINUOUS
 10
-14.545937632
 20
20.7919834912
 11
-14.7083520145
 21
20.47569851
  0
LINE
  5
232
100
AcDbEntity
  8
ASSI
100
AcDbLine
 62
7
  6
CONTINUOUS
 10
-13.2103698928
 20
22.4296921875
 11
-13.2275359183
 21
22.4056237934
  0
LINE
  5
233
100
AcDbEntity
  8
ASSI
100
AcDbLine
 62
7
  6
CONTINUOUS
 10
-18.7842559288
 20
-11.8465200285
 11
-18.7842559288
 21
33.4675803335
  0
LINE
  5
234
100
AcDbEntity
  8
0
100
AcDbLine
 62
7
  6
CONTINUOUS
 10
-18.6010522955
 20
-12.2462984584
 11
-18.6010522955
 21
33.0678019036
  0
LINE
  5
235
100
AcDbEntity
  8
0
100
AcDbLine
 62
250
  6
CONTINUOUS
 10
-18.5863374569
 20
33.0593057402
 11
-18.5863374569
 21
-12.2547946218
  0
LINE
  5
236
100
AcDbEntity
  8
ASSI
100
AcDbLine
 62
7
  6
CONTINUOUS
 10
-18.5206520319
 20
32.4060663908
 11
-18.5206520319
 21
-12.9080339712
  0
LINE
  5
237
100
AcDbEntity
  8
0
100
AcDbLine
 62
250
  6
CONTINUOUS
 10
-18.5156267787
 20
33.0593057402
 11
-18.5156267787
 21
32.446326036
  0
LWPOLYLINE
  5
238
100
AcDbEntity
  8
ASSI
100
AcDbPolyline
 62
7
  6
CONTINUOUS
 90
6
 70
0
 10
-15.5607364891
 20
17.9979442551
 10
-15.6383790844
 20
17.6259208834
 10
-15.7132290826
 20
17.2200303899
 10
-15.7799069881
 20
16.806494357
 10
-15.8388395662
 20
16.3853123044
 10
-15.8904131754
 20
15.9566940825
  0
LWPOLYLINE
  5
239
100
AcDbEntity
  8
RACCORDO
100
AcDbPolyline
 62
7
  6
CONTINUOUS
 90
6
 70
0
 10
-15.5607364891
 20
17.9979442551
 10
-15.6383790848
 20
17.6259208814
 10
-15.7132290833
 20
17.2200303859
 10
-15.779906989
 20
16.8064943511
 10
-15.8388395672
 20
16.3853122964
 10
-15.8904131765
 20
15.9566940725
  0
LINE
  5
23A
100
AcDbEntity
  8
ASSI
100
AcDbLine
 62
7
  6
CONTINUOUS
 10
-15.5602023523
 20
18.0003143376
 11
-15.5607365373
 21
17.9979440403
  0
LINE
  5
23B
100
AcDbEntity
  8
RACCORDO
100
AcDbLine
 62
7
  6
CONTINUOUS
 10
-15.5602023523
 20
18.0003143376
 11
-15.5607365373
 21
17.9979440403
  0
LWPOLYLINE
  5
23C
100
AcDbEntity
  8
RACCORDO
100
AcDbPolyline
 62
7
  6
CONTINUOUS
 90
5
 70
0
 10
-15.1343392107
 20
19.4666019359
 10
-15.2562915971
 20
19.1098786185
 10
-15.3685386883
 20
18.7429011962
 10
-15.471511783
 20
18.3652195491
 10
-15.5602023523
 20
18.0003143376
  0
LWPOLYLINE
  5
23D
100
AcDbEntity
  8
ASSI
100
AcDbPolyline
 62
7
  6
CONTINUOUS
 90
6
 70
0
 10
-15.0024370047
 20
19.8131861861
 10
-15.134339215
 20
19.4666019239
 10
-15.2562916004
 20
19.1098786083
 10
-15.3685386905
 20
18.7429011886
 10
-15.4715117841
 20
18.3652195448
 10
-15.5602023523
 20
18.0003143376
  0
LINE
  5
23E
100
AcDbEntity
  8
RACCORDO
100
AcDbLine
 62
7
  6
CONTINUOUS
 10
-15.0024370019
 20
19.8131861926
 11
-15.1343392107
 21
19.4666019359
  0
LINE
  5
23F
100
AcDbEntity
  8
ASSI
100
AcDbLine
 62
250
  6
CONTINUOUS
 10
-16.3846889548
 20
12.7709871652
 11
-16.0706824119
 21
12.9522906076
  0
LINE
  5
240
100
AcDbEntity
  8
0
100
AcDbLine
 62
7
  6
CONTINUOUS
 10
-18.3742054225
 20
-13.1121712678
 11
-18.0755492586
 21
-13.2846115938
  0
LINE
  5
241
100
AcDbEntity
  8
0
100
AcDbLine
 62
7
  6
CONTINUOUS
 10
12.3691261077
 20
-30.8629855889
 11
12.6677822716
 21
-31.0354259149
  0
LINE
  5
242
100
AcDbEntity
  8
0
100
AcDbLine
 62
7
  6
CONTINUOUS
 10
-18.6010522955
 20
-12.2462984584
 11
-18.5863374569
 21
-12.2547946218
  0
LINE
  5
243
100
AcDbEntity
  8
0
100
AcDbLine
 62
7
  6
CONTINUOUS
 10
14.1527065121
 20
-31.1579082929
 11
14.1674213507
 21
-31.1664044563
  0
LINE
  5
244
100
AcDbEntity
  8
0
100
AcDbLine
 62
7
  6
CONTINUOUS
 10
14.117351173
 20
-30.6067375919
 11
14.1380618511
 21
-30.6186956779
  0
LINE
  5
245
100
AcDbEntity
  8
0
100
AcDbLine
 62
250
  6
CONTINUOUS
 10
-18.3742054225
 20
32.2019290942
 11
-18.3742054225
 21
-13.1121712678
  0
LINE
  5
246
100
AcDbEntity
  8
0
100
AcDbLine
 62
7
  6
CONTINUOUS
 10
-18.09136271
 20
32.7735135248
 11
-18.09136271
 21
33.3042704962
  0
LINE
  5
247
100
AcDbEntity
  8
0
100
AcDbLine
 62
250
  6
CONTINUOUS
 10
-18.0755492586
 20
-13.2846115938
 11
-18.0755492586
 21
32.0294887682
  0
LINE
  5
248
100
AcDbEntity
  8
ASSI
100
AcDbLine
 62
7
  6
CONTINUOUS
 10
-17.3836931223
 20
30.7439906586
 11
-17.3836931223
 21
-14.5701097034
  0
LINE
  5
249
100
AcDbEntity
  8
0
100
AcDbLine
 62
250
  6
CONTINUOUS
 10
-17.3624130059
 20
30.7037090957
 11
-17.3624130059
 21
-14.6103912663
  0
LINE
  5
24A
100
AcDbEntity
  8
0
100
AcDbLine
 62
250
  6
CONTINUOUS
 10
-16.7125044867
 20
31.7736647527
 11
-16.7125044867
 21
32.8347547138
  0
LINE
  5
24B
100
AcDbEntity
  8
ASSI
100
AcDbLine
 62
7
  6
CONTINUOUS
 10
-16.639281182
 20
31.6647693409
 11
-16.639281182
 21
32.9368233622
  0
LINE
  5
24C
100
AcDbEntity
  8
ASSI
100
AcDbLine
 62
7
  6
CONTINUOUS
 10
-16.4433162116
 20
30.8464444758
 11
-16.4433162116
 21
31.0088022848
  0
LWPOLYLINE
  5
24D
100
AcDbEntity
  8
ASSI
100
AcDbPolyline
 62
7
  6
CONTINUOUS
 90
25
 70
0
 10
-16.0736042797
 20
12.8055388608
 10
-16.0736821649
 20
12.7605356489
 10
-16.0711530475
 20
12.681952301
 10
-16.06546553
 20
12.6033712615
 10
-16.0568940304
 20
12.52522076
 10
-16.0456452264
 20
12.4474526322
 10
-16.0318003908
 20
12.3696720325
 10
-16.0154924985
 20
12.2920809259
 10
-15.9968391931
 20
12.2148835336
 10
-15.9758194113
 20
12.1377955629
 10
-15.9524933461
 20
12.0609939123
 10
-15.9269311541
 20
11.984705865
 10
-15.8990602064
 20
11.9087701655
 10
-15.8689019037
 20
11.8333903124
 10
-15.836493971
 20
11.7588027378
 10
-15.8017146621
 20
11.6849288149
 10
-15.7644942506
 20
11.6118905347
 10
-15.724891093
 20
11.5400796092
 10
-15.6829057623
 20
11.4697877891
 10
-15.6384498549
 20
11.4011761778
 10
-15.5915535721
 20
11.3346393771
 10
-15.5423019617
 20
11.2706379011
 10
-15.490621813
 20
11.2094318367
 10
-15.4363744692
 20
11.1512635457
 10
-15.4017380187
 20
11.1171848269
  0
LWPOLYLINE
  5
24E
100
AcDbEntity
  8
RACCORDO
100
AcDbPolyline
 62
7
  6
CONTINUOUS
 90
25
 70
0
 10
-16.0736042797
 20
12.8055388608
 10
-16.0736821649
 20
12.7605356489
 10
-16.0711530475
 20
12.681952301
 10
-16.06546553
 20
12.6033712615
 10
-16.0568940304
 20
12.52522076
 10
-16.0456452264
 20
12.4474526322
 10
-16.0318003908
 20
12.3696720325
 10
-16.0154924985
 20
12.2920809259
 10
-15.9968391931
 20
12.2148835336
 10
-15.9758194113
 20
12.1377955629
 10
-15.9524933461
 20
12.0609939123
 10
-15.9269311541
 20
11.984705865
 10
-15.8990602064
 20
11.9087701655
 10
-15.8689019037
 20
11.8333903124
 10
-15.836493971
 20
11.7588027378
 10
-15.8017146621
 20
11.6849288149
 10
-15.7644942506
 20
11.6118905347
 10
-15.724891093
 20
11.5400796092
 10
-15.6829057623
 20
11.4697877891
 10
-15.6384498549
 20
11.4011761778
 10
-15.5915535721
 20
11.3346393771
 10
-15.5423019617
 20
11.2706379011
 10
-15.490621813
 20
11.2094318367
 10
-15.4363744692
 20
11.1512635457
 10
-15.4017380187
 20
11.1171848269
  0
LINE
  5
24F
100
AcDbEntity
  8
ASSI
100
AcDbLine
 62
7
  6
CONTINUOUS
 10
-16.0736072359
 20
12.8053441171
 11
-16.0736042797
 21
12.8055388608
  0
LINE
  5
250
100
AcDbEntity
  8
RACCORDO
100
AcDbLine
 62
7
  6
CONTINUOUS
 10
-16.0736072359
 20
12.8053441171
 11
-16.0736042797
 21
12.8055388608
  0
LWPOLYLINE
  5
251
100
AcDbEntity
  8
RACCORDO
100
AcDbPolyline
 62
7
  6
CONTINUOUS
 90
4
 70
0
 10
-16.0302974729
 20
14.1744680193
 10
-16.0502856813
 20
13.7136283883
 10
-16.0648092527
 20
13.2472584428
 10
-16.0736082903
 20
12.8053441328
  0
LWPOLYLINE
  5
252
100
AcDbEntity
  8
ASSI
100
AcDbPolyline
 62
7
  6
CONTINUOUS
 90
5
 70
0
 10
-16.0046037619
 20
14.629612308
 10
-16.0302974724
 20
14.1744680308
 10
-16.050285681
 20
13.7136283973
 10
-16.0648092526
 20
13.247258448
 10
-16.0736082903
 20
12.8053441328
  0
LINE
  5
253
100
AcDbEntity
  8
RACCORDO
100
AcDbLine
 62
7
  6
CONTINUOUS
 10
-16.0046037627
 20
14.6296122955
 11
-16.0302974729
 21
14.1744680193
  0
LINE
  5
254
100
AcDbEntity
  8
ASSI
100
AcDbLine
 62
7
  6
CONTINUOUS
 10
-15.9729304196
 20
15.0786790524
 11
-16.0046037619
 21
14.629612308
  0
LINE
  5
255
100
AcDbEntity
  8
RACCORDO
100
AcDbLine
 62
7
  6
CONTINUOUS
 10
-15.9729304205
 20
15.0786790401
 11
-16.0046037627
 21
14.6296122955
  0
LINE
  5
256
100
AcDbEntity
  8
ASSI
100
AcDbLine
 62
7
  6
CONTINUOUS
 10
-15.9349836119
 20
15.5210972119
 11
-15.9729304196
 21
15.0786790524
  0
LINE
  5
257
100
AcDbEntity
  8
RACCORDO
100
AcDbLine
 62
7
  6
CONTINUOUS
 10
-15.934983613
 20
15.5210972004
 11
-15.9729304205
 21
15.0786790401
  0
LINE
  5
258
100
AcDbEntity
  8
ASSI
100
AcDbLine
 62
7
  6
CONTINUOUS
 10
-15.8904131754
 20
15.9566940825
 11
-15.9349836119
 21
15.5210972119
  0
LINE
  5
259
100
AcDbEntity
  8
RACCORDO
100
AcDbLine
 62
7
  6
CONTINUOUS
 10
-15.8904131765
 20
15.9566940725
 11
-15.934983613
 21
15.5210972004
  0
LINE
  5
25A
100
AcDbEntity
  8
ASSI
100
AcDbLine
 62
250
  6
CONTINUOUS
 10
-15.5049971061
 20
10.7928349653
 11
-15.2266225503
 21
10.953564945
  0
LINE
  5
25B
100
AcDbEntity
  8
0
100
AcDbLine
 62
7
  6
CONTINUOUS
 10
-15.4397122806
 20
30.0474631842
 11
-15.4397122806
 21
35.2027473551
  0
LINE
  5
25C
100
AcDbEntity
  8
ASSI
100
AcDbLine
 62
7
  6
CONTINUOUS
 10
-14.4713989115
 20
30.3775981554
 11
-14.4713989115
 21
29.2277635746
  0
LINE
  5
25D
100
AcDbEntity
  8
DRAFT
100
AcDbLine
 62
7
  6
CONTINUOUS
 10
-14.4713989115
 20
30.3775981554
 11
-14.4713989115
 21
29.2277635746
  0
LINE
  5
25E
100
AcDbEntity
  8
0
100
AcDbLine
 62
250
  6
CONTINUOUS
 10
-14.4674404565
 20
34.6413697893
 11
-14.4674404565
 21
29.2246306283
  0
LINE
  5
25F
100
AcDbEntity
  8
0
100
AcDbLine
 62
250
  6
CONTINUOUS
 10
-14.2906637612
 20
34.6413697893
 11
-14.2906637612
 21
29.0847195034
  0
LINE
  5
260
100
AcDbEntity
  8
0
100
AcDbLine
 62
250
  6
CONTINUOUS
 10
-14.0078210487
 20
34.8046796266
 11
-14.0078210487
 21
28.8608617037
  0
LINE
  5
261
100
AcDbEntity
  8
ASSI
100
AcDbLine
 62
7
  6
CONTINUOUS
 10
-13.9712093963
 20
34.8557139508
 11
-13.9712093963
 21
28.8326959642
  0
LINE
  5
262
100
AcDbEntity
  8
0
100
AcDbLine
 62
7
  6
CONTINUOUS
 10
13.0213356622
 20
14.8094314184
 11
13.7637977824
 21
15.2381197414
  0
LINE
  5
263
100
AcDbEntity
  8
0
100
AcDbLine
 62
7
  6
CONTINUOUS
 10
16.8927452892
 20
16.6364602236
 11
17.1755880016
 21
16.7997700609
  0
LINE
  5
264
100
AcDbEntity
  8
0
100
AcDbLine
 62
7
  6
CONTINUOUS
 10
13.3748890528
 20
14.2786744471
 11
14.117351173
 21
14.7073627701
  0
LINE
  5
265
100
AcDbEntity
  8
0
100
AcDbLine
 62
7
  6
CONTINUOUS
 10
14.5769705808
 20
14.4419842844
 11
14.1527065121
 21
14.1970195284
  0
LINE
  5
266
100
AcDbEntity
  8
0
100
AcDbLine
 62
7
  6
CONTINUOUS
 10
15.3547880401
 20
14.5236392031
 11
17.8650171133
 21
15.9730140094
  0
LINE
  5
267
100
AcDbEntity
  8
0
100
AcDbLine
 62
7
  6
CONTINUOUS
 10
15.8497627869
 20
14.2786744471
 11
18.6958675812
 21
15.9219796852
  0
LWPOLYLINE
  5
268
100
AcDbEntity
  8
ASSI
100
AcDbPolyline
 62
7
  6
CONTINUOUS
 90
16
 70
0
 10
-15.4019070425
 20
11.1173433634
 10
-14.8441739243
 20
10.5962211188
 10
-14.250556305
 20
10.0607640823
 10
-13.6422504287
 20
9.5311196697
 10
-13.01943727
 20
9.0074389037
 10
-12.3822751722
 20
8.4898498144
 10
-11.7309090639
 20
7.9784695638
 10
-11.0654988756
 20
7.4734214962
 10
-10.3862421778
 20
6.974831379
 10
-9.6933390803
 20
6.4828204846
 10
-8.9869920121
 20
5.9975122606
 10
-8.2673820115
 20
5.519017219
 10
-7.5346761849
 20
5.047438045
 10
-6.7890584012
 20
4.5828889182
 10
-6.0307486084
 20
4.1255051747
 10
-5.2870053169
 20
3.6909653962
  0
LWPOLYLINE
  5
269
100
AcDbEntity
  8
RACCORDO
100
AcDbPolyline
 62
7
  6
CONTINUOUS
 90
16
 70
0
 10
-15.4019070425
 20
11.1173433634
 10
-14.8441739243
 20
10.5962211188
 10
-14.250556305
 20
10.0607640823
 10
-13.6422504287
 20
9.5311196697
 10
-13.01943727
 20
9.0074389037
 10
-12.3822751722
 20
8.4898498144
 10
-11.7309090639
 20
7.9784695638
 10
-11.0654988756
 20
7.4734214962
 10
-10.3862421778
 20
6.974831379
 10
-9.6933390803
 20
6.4828204846
 10
-8.9869920121
 20
5.9975122606
 10
-8.2673820115
 20
5.519017219
 10
-7.5346761849
 20
5.047438045
 10
-6.7890584012
 20
4.5828889182
 10
-6.0307486084
 20
4.1255051747
 10
-5.2870053169
 20
3.6909653962
  0
LINE
  5
26A
100
AcDbEntity
  8
ASSI
100
AcDbLine
 62
7
  6
CONTINUOUS
 10
-15.4019070425
 20
11.1173433634
 11
-15.4017390299
 21
11.1171837622
  0
LINE
  5
26B
100
AcDbEntity
  8
RACCORDO
100
AcDbLine
 62
7
  6
CONTINUOUS
 10
-15.4019070425
 20
11.1173433634
 11
-15.4017390299
 21
11.1171837622
  0
LWPOLYLINE
  5
26C
100
AcDbEntity
  8
ASSI
100
AcDbPolyline
 62
7
  6
CONTINUOUS
 90
17
 70
0
 10
7.5467427473
 20
-2.1390271372
 10
7.5843928021
 20
-2.151709418
 10
7.6589220375
 20
-2.1737235279
 10
7.7332423093
 20
-2.1916093595
 10
7.807196953
 20
-2.2053684642
 10
7.8806260125
 20
-2.2150145785
 10
7.9533376326
 20
-2.2205603993
 10
8.0251840103
 20
-2.2220277176
 10
8.0960056559
 20
-2.219447743
 10
8.1655766536
 20
-2.212860498
 10
8.2337185804
 20
-2.2023152312
 10
8.3002695678
 20
-2.1878772149
 10
8.3650089058
 20
-2.1696370367
 10
8.4277527914
 20
-2.1476911672
 10
8.4883322407
 20
-2.1221523777
 10
8.5465382607
 20
-2.0931742438
 10
8.5695991767
 20
-2.0803792958
  0
LWPOLYLINE
  5
26D
100
AcDbEntity
  8
RACCORDO
100
AcDbPolyline
 62
7
  6
CONTINUOUS
 90
17
 70
0
 10
7.5467427473
 20
-2.1390271372
 10
7.5843928021
 20
-2.151709418
 10
7.6589220375
 20
-2.1737235279
 10
7.7332423093
 20
-2.1916093595
 10
7.807196953
 20
-2.2053684642
 10
7.8806260125
 20
-2.2150145785
 10
7.9533376326
 20
-2.2205603993
 10
8.0251840103
 20
-2.2220277176
 10
8.0960056559
 20
-2.219447743
 10
8.1655766536
 20
-2.212860498
 10
8.2337185804
 20
-2.2023152312
 10
8.3002695678
 20
-2.1878772149
 10
8.3650089058
 20
-2.1696370367
 10
8.4277527914
 20
-2.1476911672
 10
8.4883322407
 20
-2.1221523777
 10
8.5465382607
 20
-2.0931742438
 10
8.5695991767
 20
-2.0803792958
  0
LWPOLYLINE
  5
26E
100
AcDbEntity
  8
ASSI
100
AcDbPolyline
 62
7
  6
CONTINUOUS
 90
16
 70
0
 10
-5.2874830827
 20
3.691242555
 10
-4.5372060289
 20
3.2631070581
 10
-3.7457607807
 20
2.8256061649
 10
-2.9420782041
 20
2.3955022214
 10
-2.1263983825
 20
1.972917935
 10
-1.2989261532
 20
1.5579559227
 10
-0.4598488943
 20
1.1507102276
 10
0.390634539
 20
0.751281753
 10
1.2523033505
 20
0.3597834295
 10
2.1249369391
 20
-0.0236716516
 10
3.0083098588
 20
-0.3989731271
 10
3.9022014778
 20
-0.7660326622
 10
4.8063981758
 20
-1.1247694093
 10
5.7206697957
 20
-1.4750958387
 10
6.6447485313
 20
-1.8169121841
 10
7.5467399518
 20
-2.1390274327
  0
LWPOLYLINE
  5
26F
100
AcDbEntity
  8
RACCORDO
100
AcDbPolyline
 62
7
  6
CONTINUOUS
 90
16
 70
0
 10
-5.2874830827
 20
3.691242555
 10
-4.5372060289
 20
3.2631070581
 10
-3.7457607807
 20
2.8256061649
 10
-2.9420782041
 20
2.3955022214
 10
-2.1263983825
 20
1.972917935
 10
-1.2989261532
 20
1.5579559227
 10
-0.4598488943
 20
1.1507102276
 10
0.390634539
 20
0.751281753
 10
1.2523033505
 20
0.3597834295
 10
2.1249369391
 20
-0.0236716516
 10
3.0083098588
 20
-0.3989731271
 10
3.9022014778
 20
-0.7660326622
 10
4.8063981758
 20
-1.1247694093
 10
5.7206697957
 20
-1.4750958387
 10
6.6447485313
 20
-1.8169121841
 10
7.5467399518
 20
-2.1390274327
  0
LINE
  5
270
100
AcDbEntity
  8
ASSI
100
AcDbLine
 62
7
  6
CONTINUOUS
 10
-5.2874830827
 20
3.691242555
 11
-5.2870049847
 21
3.6909665005
  0
LINE
  5
271
100
AcDbEntity
  8
RACCORDO
100
AcDbLine
 62
7
  6
CONTINUOUS
 10
-5.2874830827
 20
3.691242555
 11
-5.2870049847
 21
3.6909665005
  0
LINE
  5
272
100
AcDbEntity
  8
ASSI
100
AcDbLine
 62
7
  6
CONTINUOUS
 10
-13.1987132408
 20
15.5755296581
 11
-13.1782606013
 21
15.5575863387
  0
LINE
  5
273
100
AcDbEntity
  8
RACCORDO
100
AcDbLine
 62
7
  6
CONTINUOUS
 10
-13.1987132408
 20
15.5755296581
 11
-13.1782606013
 21
15.5575863387
  0
LINE
  5
274
100
AcDbEntity
  8
ASSI
100
AcDbLine
 62
7
  6
CONTINUOUS
 10
-13.5316776699
 20
15.8704388177
 11
-13.5124172509
 21
15.8532343783
  0
LINE
  5
275
100
AcDbEntity
  8
RACCORDO
100
AcDbLine
 62
7
  6
CONTINUOUS
 10
-13.5316776699
 20
15.8704388177
 11
-13.5124172509
 21
15.8532343783
  0
LINE
  5
276
100
AcDbEntity
  8
ASSI
100
AcDbLine
 62
7
  6
CONTINUOUS
 10
-13.5298444264
 20
15.8711277062
 11
-13.5107423328
 21
15.8538644371
  0
LINE
  5
277
100
AcDbEntity
  8
RACCORDO
100
AcDbLine
 62
7
  6
CONTINUOUS
 10
-13.5298444264
 20
15.8711277062
 11
-13.5107423328
 21
15.8538644371
  0
LINE
  5
278
100
AcDbEntity
  8
ASSI
100
AcDbLine
 62
7
  6
CONTINUOUS
 10
-10.4052832677
 20
13.2903305094
 11
-10.3802463596
 21
13.2712242308
  0
LINE
  5
279
100
AcDbEntity
  8
RACCORDO
100
AcDbLine
 62
7
  6
CONTINUOUS
 10
-10.4052832677
 20
13.2903305094
 11
-10.3802463596
 21
13.2712242308
  0
LINE
  5
27A
100
AcDbEntity
  8
ASSI
100
AcDbLine
 62
7
  6
CONTINUOUS
 10
-10.7651828856
 20
13.5701758453
 11
-10.7402909212
 21
13.5509673044
  0
LINE
  5
27B
100
AcDbEntity
  8
RACCORDO
100
AcDbLine
 62
7
  6
CONTINUOUS
 10
-10.7651828856
 20
13.5701758453
 11
-10.7402909212
 21
13.5509673044
  0
LINE
  5
27C
100
AcDbEntity
  8
ASSI
100
AcDbLine
 62
7
  6
CONTINUOUS
 10
-10.4035342292
 20
13.2911001197
 11
-10.378674698
 21
13.2719166067
  0
LINE
  5
27D
100
AcDbEntity
  8
RACCORDO
100
AcDbLine
 62
7
  6
CONTINUOUS
 10
-10.4035342292
 20
13.2911001197
 11
-10.378674698
 21
13.2719166067
  0
LINE
  5
27E
100
AcDbEntity
  8
ASSI
100
AcDbLine
 62
7
  6
CONTINUOUS
 10
-10.7674159823
 20
13.5692099676
 11
-10.7426171947
 21
13.5499599328
  0
LINE
  5
27F
100
AcDbEntity
  8
RACCORDO
100
AcDbLine
 62
7
  6
CONTINUOUS
 10
-10.7674159823
 20
13.5692099676
 11
-10.7426171947
 21
13.5499599328
  0
LINE
  5
280
100
AcDbEntity
  8
ASSI
100
AcDbLine
 62
7
  6
CONTINUOUS
 10
-11.1244222729
 20
13.8488738696
 11
-11.1007498282
 21
13.8301813032
  0
LINE
  5
281
100
AcDbEntity
  8
RACCORDO
100
AcDbLine
 62
7
  6
CONTINUOUS
 10
-11.1244222729
 20
13.8488738696
 11
-11.1007498282
 21
13.8301813032
  0
LINE
  5
282
100
AcDbEntity
  8
ASSI
100
AcDbLine
 62
7
  6
CONTINUOUS
 10
-11.8324481467
 20
14.4180415764
 11
-11.8065507804
 21
14.3972677761
  0
LINE
  5
283
100
AcDbEntity
  8
RACCORDO
100
AcDbLine
 62
7
  6
CONTINUOUS
 10
-11.8324481467
 20
14.4180415764
 11
-11.8065507804
 21
14.3972677761
  0
LINE
  5
284
100
AcDbEntity
  8
ASSI
100
AcDbLine
 62
7
  6
CONTINUOUS
 10
-11.477348697
 20
14.1331954284
 11
-11.4538839055
 21
14.1143729395
  0
LINE
  5
285
100
AcDbEntity
  8
RACCORDO
100
AcDbLine
 62
7
  6
CONTINUOUS
 10
-11.477348697
 20
14.1331954284
 11
-11.4538839055
 21
14.1143729395
  0
LINE
  5
286
100
AcDbEntity
  8
ASSI
100
AcDbLine
 62
7
  6
CONTINUOUS
 10
-11.1234294849
 20
13.8492960185
 11
-11.0999989064
 21
13.8305009738
  0
LINE
  5
287
100
AcDbEntity
  8
RACCORDO
100
AcDbLine
 62
7
  6
CONTINUOUS
 10
-11.1234294849
 20
13.8492960185
 11
-11.0999989064
 21
13.8305009738
  0
LINE
  5
288
100
AcDbEntity
  8
ASSI
100
AcDbLine
 62
7
  6
CONTINUOUS
 10
-11.479870253
 20
14.1321417132
 11
-11.4564282118
 21
14.1133084874
  0
LINE
  5
289
100
AcDbEntity
  8
RACCORDO
100
AcDbLine
 62
7
  6
CONTINUOUS
 10
-11.479870253
 20
14.1321417132
 11
-11.4564282118
 21
14.1133084874
  0
LINE
  5
28A
100
AcDbEntity
  8
ASSI
100
AcDbLine
 62
7
  6
CONTINUOUS
 10
-11.8324481467
 20
14.4180415764
 11
-11.8068735585
 21
14.3971350687
  0
LINE
  5
28B
100
AcDbEntity
  8
RACCORDO
100
AcDbLine
 62
7
  6
CONTINUOUS
 10
-11.8324481467
 20
14.4180415764
 11
-11.8068735585
 21
14.3971350687
  0
LINE
  5
28C
100
AcDbEntity
  8
ASSI
100
AcDbLine
 62
7
  6
CONTINUOUS
 10
-12.1781071101
 20
14.7032537784
 11
-12.156044428
 21
14.6849003439
  0
LINE
  5
28D
100
AcDbEntity
  8
RACCORDO
100
AcDbLine
 62
7
  6
CONTINUOUS
 10
-12.1781071101
 20
14.7032537784
 11
-12.156044428
 21
14.6849003439
  0
LINE
  5
28E
100
AcDbEntity
  8
ASSI
100
AcDbLine
 62
7
  6
CONTINUOUS
 10
-12.5205227942
 20
14.9920701617
 11
-12.4984662214
 21
14.9736693917
  0
LINE
  5
28F
100
AcDbEntity
  8
RACCORDO
100
AcDbLine
 62
7
  6
CONTINUOUS
 10
-12.5205227942
 20
14.9920701617
 11
-12.4984662214
 21
14.9736693917
  0
LINE
  5
290
100
AcDbEntity
  8
ASSI
100
AcDbLine
 62
7
  6
CONTINUOUS
 10
-12.1755582772
 20
14.704282355
 11
-12.1535388748
 21
14.6859125946
  0
LINE
  5
291
100
AcDbEntity
  8
RACCORDO
100
AcDbLine
 62
7
  6
CONTINUOUS
 10
-12.1755582772
 20
14.704282355
 11
-12.1535388748
 21
14.6859125946
  0
LINE
  5
292
100
AcDbEntity
  8
ASSI
100
AcDbLine
 62
7
  6
CONTINUOUS
 10
-12.5215715842
 20
14.9916543471
 11
-12.4997341075
 21
14.9731661416
  0
LINE
  5
293
100
AcDbEntity
  8
RACCORDO
100
AcDbLine
 62
7
  6
CONTINUOUS
 10
-12.5215715842
 20
14.9916543471
 11
-12.4997341075
 21
14.9731661416
  0
LINE
  5
294
100
AcDbEntity
  8
ASSI
100
AcDbLine
 62
7
  6
CONTINUOUS
 10
-12.8620619432
 20
15.2826502126
 11
-12.8413928873
 21
15.2648377804
  0
LINE
  5
295
100
AcDbEntity
  8
RACCORDO
100
AcDbLine
 62
7
  6
CONTINUOUS
 10
-12.8620619432
 20
15.2826502126
 11
-12.8413928873
 21
15.2648377804
  0
LINE
  5
296
100
AcDbEntity
  8
ASSI
100
AcDbLine
 62
7
  6
CONTINUOUS
 10
-13.1969011586
 20
15.5762229263
 11
-13.1762980657
 21
15.5583379945
  0
LINE
  5
297
100
AcDbEntity
  8
RACCORDO
100
AcDbLine
 62
7
  6
CONTINUOUS
 10
-13.1969011586
 20
15.5762229263
 11
-13.1762980657
 21
15.5583379945
  0
LINE
  5
298
100
AcDbEntity
  8
ASSI
100
AcDbLine
 62
7
  6
CONTINUOUS
 10
-12.8597489768
 20
15.2835511495
 11
-12.8391838506
 21
15.2656991755
  0
LINE
  5
299
100
AcDbEntity
  8
RACCORDO
100
AcDbLine
 62
7
  6
CONTINUOUS
 10
-12.8597489768
 20
15.2835511495
 11
-12.8391838506
 21
15.2656991755
  0
LINE
  5
29A
100
AcDbEntity
  8
ASSI
100
AcDbLine
 62
250
  6
CONTINUOUS
 10
7.4052626043
 20
-2.4352618585
 11
7.804343455
 21
-2.204837577
  0
LINE
  5
29B
100
AcDbEntity
  8
RACCORDO
100
AcDbLine
 62
7
  6
CONTINUOUS
 10
8.5694349536
 20
-2.0804738686
 11
8.5695833702
 21
-2.0803889939
  0
LINE
  5
29C
100
AcDbEntity
  8
ASSI
100
AcDbLine
 62
7
  6
CONTINUOUS
 10
8.5855535418
 20
-2.0712588532
 11
8.5694292508
 21
-2.0804771289
  0
LINE
  5
29D
100
AcDbEntity
  8
DRAFT
100
AcDbLine
 62
7
  6
CONTINUOUS
 10
8.5855535418
 20
-2.0712588532
 11
8.5694292508
 21
-2.0804771289
  0
LINE
  5
29E
100
AcDbEntity
  8
ASSI
100
AcDbLine
 62
7
  6
CONTINUOUS
 10
7.1833618193
 20
4.637007784
 11
7.0876003458
 21
4.6687368853
  0
LINE
  5
29F
100
AcDbEntity
  8
RACCORDO
100
AcDbLine
 62
7
  6
CONTINUOUS
 10
7.1833618193
 20
4.637007784
 11
7.0876003458
 21
4.6687368853
  0
LINE
  5
2A0
100
AcDbEntity
  8
ASSI
100
AcDbLine
 62
7
  6
CONTINUOUS
 10
7.1833618193
 20
4.637007784
 11
7.0880726831
 21
4.6692050644
  0
LINE
  5
2A1
100
AcDbEntity
  8
RACCORDO
100
AcDbLine
 62
7
  6
CONTINUOUS
 10
7.1833618193
 20
4.637007784
 11
7.0880726831
 21
4.6692050644
  0
LINE
  5
2A2
100
AcDbEntity
  8
ASSI
100
AcDbLine
 62
7
  6
CONTINUOUS
 10
6.0260095334
 20
5.0280659628
 11
6.0155274592
 21
5.0316077547
  0
LINE
  5
2A3
100
AcDbEntity
  8
RACCORDO
100
AcDbLine
 62
7
  6
CONTINUOUS
 10
6.0260095334
 20
5.0280659628
 11
6.0155274592
 21
5.0316077547
  0
LINE
  5
2A4
100
AcDbEntity
  8
ASSI
100
AcDbLine
 62
7
  6
CONTINUOUS
 10
6.0259518415
 20
5.0280109198
 11
6.0155274592
 21
5.0316077547
  0
LINE
  5
2A5
100
AcDbEntity
  8
RACCORDO
100
AcDbLine
 62
7
  6
CONTINUOUS
 10
6.0259518415
 20
5.0280109198
 11
6.0155274592
 21
5.0316077547
  0
LINE
  5
2A6
100
AcDbEntity
  8
ASSI
100
AcDbLine
 62
7
  6
CONTINUOUS
 10
1.9299963275
 20
6.5526284155
 11
1.882326302
 21
6.571610705
  0
LINE
  5
2A7
100
AcDbEntity
  8
RACCORDO
100
AcDbLine
 62
7
  6
CONTINUOUS
 10
1.9299963275
 20
6.5526284155
 11
1.882326302
 21
6.571610705
  0
LINE
  5
2A8
100
AcDbEntity
  8
ASSI
100
AcDbLine
 62
7
  6
CONTINUOUS
 10
1.9282528042
 20
6.5511910893
 11
1.8806527583
 21
6.5702333978
  0
LINE
  5
2A9
100
AcDbEntity
  8
RACCORDO
100
AcDbLine
 62
7
  6
CONTINUOUS
 10
1.9282528042
 20
6.5511910893
 11
1.8806527583
 21
6.5702333978
  0
LINE
  5
2AA
100
AcDbEntity
  8
ASSI
100
AcDbLine
 62
7
  6
CONTINUOUS
 10
1.4787891036
 20
6.7322999391
 11
1.3865769178
 21
6.7698184066
  0
LINE
  5
2AB
100
AcDbEntity
  8
RACCORDO
100
AcDbLine
 62
7
  6
CONTINUOUS
 10
1.4787891036
 20
6.7322999391
 11
1.3865769178
 21
6.7698184066
  0
LINE
  5
2AC
100
AcDbEntity
  8
ASSI
100
AcDbLine
 62
7
  6
CONTINUOUS
 10
0.9404501257
 20
6.9530962087
 11
0.8940098352
 21
6.9723438023
  0
LINE
  5
2AD
100
AcDbEntity
  8
RACCORDO
100
AcDbLine
 62
7
  6
CONTINUOUS
 10
0.9404501257
 20
6.9530962087
 11
0.8940098352
 21
6.9723438023
  0
LINE
  5
2AE
100
AcDbEntity
  8
ASSI
100
AcDbLine
 62
7
  6
CONTINUOUS
 10
1.4787891036
 20
6.7322999391
 11
1.3871370265
 21
6.7702713086
  0
LINE
  5
2AF
100
AcDbEntity
  8
RACCORDO
100
AcDbLine
 62
7
  6
CONTINUOUS
 10
1.4787891036
 20
6.7322999391
 11
1.3871370265
 21
6.7702713086
  0
LINE
  5
2B0
100
AcDbEntity
  8
ASSI
100
AcDbLine
 62
7
  6
CONTINUOUS
 10
0.942298651
 20
6.9545674301
 11
0.8958542243
 21
6.9738093125
  0
LINE
  5
2B1
100
AcDbEntity
  8
RACCORDO
100
AcDbLine
 62
7
  6
CONTINUOUS
 10
0.942298651
 20
6.9545674301
 11
0.8958542243
 21
6.9738093125
  0
LINE
  5
2B2
100
AcDbEntity
  8
ASSI
100
AcDbLine
 62
7
  6
CONTINUOUS
 10
0.453340727
 20
7.1571422391
 11
0.4069531437
 21
7.1763605714
  0
LINE
  5
2B3
100
AcDbEntity
  8
RACCORDO
100
AcDbLine
 62
7
  6
CONTINUOUS
 10
0.453340727
 20
7.1571422391
 11
0.4069531437
 21
7.1763605714
  0
LINE
  5
2B4
100
AcDbEntity
  8
ASSI
100
AcDbLine
 62
7
  6
CONTINUOUS
 10
0.4528796031
 20
7.1567815384
 11
0.4067796106
 21
7.1762250525
  0
LINE
  5
2B5
100
AcDbEntity
  8
RACCORDO
100
AcDbLine
 62
7
  6
CONTINUOUS
 10
0.4528796031
 20
7.1567815384
 11
0.4067796106
 21
7.1762250525
  0
LINE
  5
2B6
100
AcDbEntity
  8
ASSI
100
AcDbLine
 62
7
  6
CONTINUOUS
 10
-0.0329525047
 20
7.3633163562
 11
-0.0782303836
 21
7.3827488908
  0
LINE
  5
2B7
100
AcDbEntity
  8
RACCORDO
100
AcDbLine
 62
7
  6
CONTINUOUS
 10
-0.0329525047
 20
7.3633163562
 11
-0.0782303836
 21
7.3827488908
  0
LINE
  5
2B8
100
AcDbEntity
  8
ASSI
100
AcDbLine
 62
7
  6
CONTINUOUS
 10
-0.0311698663
 20
7.3646867387
 11
-0.076383675
 21
7.3841662401
  0
LINE
  5
2B9
100
AcDbEntity
  8
RACCORDO
100
AcDbLine
 62
7
  6
CONTINUOUS
 10
-0.0311698663
 20
7.3646867387
 11
-0.076383675
 21
7.3841662401
  0
LINE
  5
2BA
100
AcDbEntity
  8
ASSI
100
AcDbLine
 62
7
  6
CONTINUOUS
 10
-0.512651429
 20
7.5721238258
 11
-0.5578166825
 21
7.5915824081
  0
LINE
  5
2BB
100
AcDbEntity
  8
RACCORDO
100
AcDbLine
 62
7
  6
CONTINUOUS
 10
-0.512651429
 20
7.5721238258
 11
-0.5578166825
 21
7.5915824081
  0
LINE
  5
2BC
100
AcDbEntity
  8
ASSI
100
AcDbLine
 62
7
  6
CONTINUOUS
 10
-0.5137520995
 20
7.5712920692
 11
-0.558697202
 21
7.5909180814
  0
LINE
  5
2BD
100
AcDbEntity
  8
RACCORDO
100
AcDbLine
 62
7
  6
CONTINUOUS
 10
-0.5137520995
 20
7.5712920692
 11
-0.558697202
 21
7.5909180814
  0
LINE
  5
2BE
100
AcDbEntity
  8
ASSI
100
AcDbLine
 62
7
  6
CONTINUOUS
 10
-0.9920650405
 20
7.7817942805
 11
-1.0361757976
 21
7.8013905247
  0
LINE
  5
2BF
100
AcDbEntity
  8
RACCORDO
100
AcDbLine
 62
7
  6
CONTINUOUS
 10
-0.9920650405
 20
7.7817942805
 11
-1.0361757976
 21
7.8013905247
  0
LINE
  5
2C0
100
AcDbEntity
  8
ASSI
100
AcDbLine
 62
7
  6
CONTINUOUS
 10
-0.9905387659
 20
7.7829280066
 11
-1.0345152247
 21
7.8026220646
  0
LINE
  5
2C1
100
AcDbEntity
  8
RACCORDO
100
AcDbLine
 62
7
  6
CONTINUOUS
 10
-0.9905387659
 20
7.7829280066
 11
-1.0345152247
 21
7.8026220646
  0
LINE
  5
2C2
100
AcDbEntity
  8
ASSI
100
AcDbLine
 62
250
  6
CONTINUOUS
 10
7.2958718913
 20
4.2821449583
 11
7.2903707084
 21
4.2996454267
  0
LINE
  5
2C3
100
AcDbEntity
  8
RACCORDO
100
AcDbLine
 62
250
  6
CONTINUOUS
 10
7.2958718913
 20
4.2821449583
 11
7.2903707084
 21
4.2996454267
  0
LINE
  5
2C4
100
AcDbEntity
  8
ASSI
100
AcDbLine
 62
250
  6
CONTINUOUS
 10
7.3931257227
 20
3.9663295631
 11
7.3771529337
 21
4.0186571697
  0
LINE
  5
2C5
100
AcDbEntity
  8
RACCORDO
100
AcDbLine
 62
250
  6
CONTINUOUS
 10
7.3931257227
 20
3.9663295631
 11
7.3771529337
 21
4.0186571697
  0
LINE
  5
2C6
100
AcDbEntity
  8
ASSI
100
AcDbLine
 62
250
  6
CONTINUOUS
 10
7.8829890585
 20
2.0838572571
 11
7.8774994108
 21
2.109026948
  0
LINE
  5
2C7
100
AcDbEntity
  8
RACCORDO
100
AcDbLine
 62
250
  6
CONTINUOUS
 10
7.8829890585
 20
2.0838572571
 11
7.8774994108
 21
2.109026948
  0
LINE
  5
2C8
100
AcDbEntity
  8
ASSI
100
AcDbLine
 62
250
  6
CONTINUOUS
 10
8.1677537944
 20
0.4829494034
 11
8.1674173915
 21
0.4853092088
  0
LINE
  5
2C9
100
AcDbEntity
  8
RACCORDO
100
AcDbLine
 62
250
  6
CONTINUOUS
 10
8.1677537944
 20
0.4829494034
 11
8.1674173915
 21
0.4853092088
  0
LINE
  5
2CA
100
AcDbEntity
  8
ASSI
100
AcDbLine
 62
250
  6
CONTINUOUS
 10
8.171668766
 20
0.4536613415
 11
8.1673650434
 21
0.4853211272
  0
LINE
  5
2CB
100
AcDbEntity
  8
RACCORDO
100
AcDbLine
 62
250
  6
CONTINUOUS
 10
8.171668766
 20
0.4536613415
 11
8.1673650434
 21
0.4853211272
  0
LINE
  5
2CC
100
AcDbEntity
  8
ASSI
100
AcDbLine
 62
250
  6
CONTINUOUS
 10
8.1716122554
 20
0.4536622502
 11
8.1677537944
 21
0.4829494034
  0
LINE
  5
2CD
100
AcDbEntity
  8
RACCORDO
100
AcDbLine
 62
250
  6
CONTINUOUS
 10
8.1716122554
 20
0.4536622502
 11
8.1677537944
 21
0.4829494034
  0
LINE
  5
2CE
100
AcDbEntity
  8
0
100
AcDbLine
 62
250
  6
CONTINUOUS
 10
10.0729562944
 20
14.8628707077
 11
10.0729562944
 21
-30.4512296543
  0
LINE
  5
2CF
100
AcDbEntity
  8
0
100
AcDbLine
 62
250
  6
CONTINUOUS
 10
10.1645614007
 20
14.8516939839
 11
10.1645614007
 21
-30.4624063781
  0
LINE
  5
2D0
100
AcDbEntity
  8
ASSI
100
AcDbLine
 62
250
  6
CONTINUOUS
 10
5.9340598936
 20
8.0089486426
 11
5.926515531
 21
8.0272538333
  0
LINE
  5
2D1
100
AcDbEntity
  8
RACCORDO
100
AcDbLine
 62
250
  6
CONTINUOUS
 10
5.9340598936
 20
8.0089486426
 11
5.926515531
 21
8.0272538333
  0
LINE
  5
2D2
100
AcDbEntity
  8
ASSI
100
AcDbLine
 62
250
  6
CONTINUOUS
 10
5.9341675799
 20
8.0089955339
 11
5.9267318238
 21
8.0272752421
  0
LINE
  5
2D3
100
AcDbEntity
  8
RACCORDO
100
AcDbLine
 62
250
  6
CONTINUOUS
 10
5.9341675799
 20
8.0089955339
 11
5.9267318238
 21
8.0272752421
  0
LINE
  5
2D4
100
AcDbEntity
  8
0
100
AcDbLine
 62
250
  6
CONTINUOUS
 10
12.3691261077
 20
-30.8629855889
 11
12.3691261077
 21
14.4511147731
  0
LINE
  5
2D5
100
AcDbEntity
  8
0
100
AcDbLine
 62
250
  6
CONTINUOUS
 10
12.6677822716
 20
14.2786744471
 11
12.6677822716
 21
-31.0354259149
  0
LINE
  5
2D6
100
AcDbEntity
  8
0
100
AcDbLine
 62
250
  6
CONTINUOUS
 10
13.3748890528
 20
14.2786744471
 11
13.3748890528
 21
-31.0354259149
  0
LINE
  5
2D7
100
AcDbEntity
  8
0
100
AcDbLine
 62
7
  6
CONTINUOUS
 10
14.117351173
 20
-30.6067375919
 11
14.117351173
 21
14.7073627701
  0
LINE
  5
2D8
100
AcDbEntity
  8
ASSI
100
AcDbLine
 62
7
  6
CONTINUOUS
 10
14.1380618511
 20
14.1766057988
 11
14.1380618511
 21
-31.1374945632
  0
LINE
  5
2D9
100
AcDbEntity
  8
0
100
AcDbLine
 62
250
  6
CONTINUOUS
 10
14.1527065121
 20
14.1561920691
 11
14.1527065121
 21
-31.1579082929
  0
LINE
  5
2DA
100
AcDbEntity
  8
0
100
AcDbLine
 62
7
  6
CONTINUOUS
 10
14.1674213507
 20
-31.1664044563
 11
14.1674213507
 21
14.1476959057
  0
LINE
  5
2DB
100
AcDbEntity
  8
0
100
AcDbLine
 62
250
  6
CONTINUOUS
 10
15.8497627869
 20
-31.0354259149
 11
15.8497627869
 21
14.2786744471
  0
LINE
  5
2DC
100
AcDbEntity
  8
ASSI
100
AcDbLine
 62
7
  6
CONTINUOUS
 10
16.8561336368
 20
15.3904973344
 11
16.8561336368
 21
16.5854258994
  0
LINE
  5
2DD
100
AcDbEntity
  8
0
100
AcDbLine
 62
250
  6
CONTINUOUS
 10
16.8927452892
 20
15.4116364436
 11
16.8927452892
 21
16.5343915752
  0
LINE
  5
2DE
100
AcDbEntity
  8
0
100
AcDbLine
 62
250
  6
CONTINUOUS
 10
18.6958675812
 20
15.9219796852
 11
18.6958675812
 21
-29.3921206768
  0
LINE
  5
2DF
100
AcDbEntity
  8
ASSI
100
AcDbLine
 62
7
  6
CONTINUOUS
 10
18.7324792335
 20
15.9730140094
 11
18.7324792335
 21
-29.3410863526
  0
LINE
  5
2E0
100
AcDbEntity
  8
0
100
AcDbLine
 62
7
  6
CONTINUOUS
 10
-13.5991871874
 20
28.5468155606
 11
6.3373477851
 21
17.035710131
  0
LINE
  5
2E1
100
AcDbEntity
  8
0
100
AcDbLine
 62
7
  6
CONTINUOUS
 10
-18.3742054225
 20
32.2019290942
 11
-18.0755492586
 21
32.0294887682
  0
LINE
  5
2E2
100
AcDbEntity
  8
0
100
AcDbLine
 62
7
  6
CONTINUOUS
 10
12.3691261077
 20
14.4511147731
 11
12.6677822716
 21
14.2786744471
  0
LINE
  5
2E3
100
AcDbEntity
  8
ASSI
100
AcDbLine
 62
7
  6
CONTINUOUS
 10
-14.5911841432
 20
30.4467606469
 11
-14.4713989115
 21
30.3775981554
  0
LINE
  5
2E4
100
AcDbEntity
  8
DRAFT
100
AcDbLine
 62
7
  6
CONTINUOUS
 10
-14.5911841432
 20
30.4467606469
 11
-14.4713989115
 21
30.3775981554
  0
LINE
  5
2E5
100
AcDbEntity
  8
0
100
AcDbLine
 62
7
  6
CONTINUOUS
 10
-18.6010522955
 20
33.0678019036
 11
-18.5863374569
 21
33.0593057402
  0
LINE
  5
2E6
100
AcDbEntity
  8
0
100
AcDbLine
 62
7
  6
CONTINUOUS
 10
-17.454966607
 20
32.4060663908
 11
-17.4391531555
 21
32.3969359022
  0
LINE
  5
2E7
100
AcDbEntity
  8
0
100
AcDbLine
 62
7
  6
CONTINUOUS
 10
13.0055222107
 20
14.8185619071
 11
13.0213356622
 21
14.8094314184
  0
LINE
  5
2E8
100
AcDbEntity
  8
0
100
AcDbLine
 62
7
  6
CONTINUOUS
 10
14.1527065121
 20
14.1561920691
 11
14.1674213507
 21
14.1476959057
  0
LINE
  5
2E9
100
AcDbEntity
  8
0
100
AcDbLine
 62
7
  6
CONTINUOUS
 10
-18.09136271
 20
33.3042704962
 11
-17.6317433023
 21
33.0388920105
  0
LINE
  5
2EA
100
AcDbEntity
  8
0
100
AcDbLine
 62
7
  6
CONTINUOUS
 10
14.117351173
 20
14.7073627701
 11
14.5769705808
 21
14.4419842844
  0
LINE
  5
2EB
100
AcDbEntity
  8
0
100
AcDbLine
 62
7
  6
CONTINUOUS
 10
-17.9499413538
 20
33.7533725488
 11
-16.7125044867
 21
33.0388920105
  0
LINE
  5
2EC
100
AcDbEntity
  8
0
100
AcDbLine
 62
7
  6
CONTINUOUS
 10
14.117351173
 20
15.2381197414
 11
15.3547880401
 21
14.5236392031
  0
LINE
  5
2ED
100
AcDbEntity
  8
0
100
AcDbLine
 62
7
  6
CONTINUOUS
 10
17.8650171133
 20
15.9730140094
 11
16.8927452892
 21
16.5343915752
  0
LINE
  5
2EE
100
AcDbEntity
  8
0
100
AcDbLine
 62
7
  6
CONTINUOUS
 10
-14.4674404565
 20
34.6413697893
 11
-15.4397122806
 21
35.2027473551
  0
LINE
  5
2EF
100
AcDbEntity
  8
0
100
AcDbLine
 62
7
  6
CONTINUOUS
 10
18.6958675812
 20
16.0240483336
 11
17.3523646969
 21
16.7997700609
  0
LINE
  5
2F0
100
AcDbEntity
  8
0
100
AcDbLine
 62
7
  6
CONTINUOUS
 10
-14.0078210487
 20
34.906748275
 11
-15.3513239329
 21
35.6824700023
  0
LINE
  5
2F1
100
AcDbEntity
  8
ASSI
100
AcDbLine
 62
7
  6
CONTINUOUS
 10
-14.5911841432
 20
30.4467606469
 11
-15.0878922656
 21
30.3973688031
  0
LINE
  5
2F2
100
AcDbEntity
  8
DRAFT
100
AcDbLine
 62
7
  6
CONTINUOUS
 10
-14.5911841432
 20
30.4467606469
 11
-15.0878922656
 21
30.3973688031
  0
LINE
  5
2F3
100
AcDbEntity
  8
0
100
AcDbLine
 62
7
  6
CONTINUOUS
 10
13.3748890528
 20
-31.0354259149
 11
14.117351173
 21
-30.6067375919
  0
LINE
  5
2F4
100
AcDbEntity
  8
0
100
AcDbLine
 62
7
  6
CONTINUOUS
 10
15.8497627869
 20
-31.0354259149
 11
18.6958675812
 21
-29.3921206768
  0
ARC
  5
2F5
100
AcDbEntity
  8
RACCORDO
100
AcDbCircle
 62
250
  6
CONTINUOUS
 10
-84.5454830627
 20
-30.0156997165
 40
98.1512483933
100
AcDbArc
 50
24.3781076863
 51
24.5701395855
  0
ARC
  5
2F6
100
AcDbEntity
  8
ASSI
100
AcDbCircle
 62
250
  6
CONTINUOUS
 10
-84.5454830627
 20
-30.0156997165
 40
98.1512483933
100
AcDbArc
 50
24.3781076863
 51
24.5701395855
  0
ARC
  5
2F7
100
AcDbEntity
  8
RACCORDO
100
AcDbCircle
 62
250
  6
CONTINUOUS
 10
-73.090955982
 20
-24.8594786509
 40
85.58973282
100
AcDbArc
 50
23.4672692863
 51
24.399147625
  0
ARC
  5
2F8
100
AcDbEntity
  8
ASSI
100
AcDbCircle
 62
250
  6
CONTINUOUS
 10
-73.090955982
 20
-24.8594786509
 40
85.58973282
100
AcDbArc
 50
23.4672692863
 51
24.399147625
  0
ARC
  5
2F9
100
AcDbEntity
  8
RACCORDO
100
AcDbCircle
 62
250
  6
CONTINUOUS
 10
-62.6503360688
 20
-20.3269894131
 40
74.2077293564
100
AcDbArc
 50
22.9430471737
 51
23.4673623115
  0
ARC
  5
2FA
100
AcDbEntity
  8
ASSI
100
AcDbCircle
 62
250
  6
CONTINUOUS
 10
-62.6503360688
 20
-20.3269894131
 40
74.2077293564
100
AcDbArc
 50
22.9430471737
 51
23.4673623115
  0
ARC
  5
2FB
100
AcDbEntity
  8
RACCORDO
100
AcDbCircle
 62
250
  6
CONTINUOUS
 10
-55.2917637601
 20
-17.2176533446
 40
66.2192045995
100
AcDbArc
 50
22.4100420853
 51
22.9474803522
  0
ARC
  5
2FC
100
AcDbEntity
  8
ASSI
100
AcDbCircle
 62
250
  6
CONTINUOUS
 10
-55.2917637601
 20
-17.2176533446
 40
66.2192045995
100
AcDbArc
 50
22.4100420853
 51
22.9474803522
  0
ARC
  5
2FD
100
AcDbEntity
  8
RACCORDO
100
AcDbCircle
 62
250
  6
CONTINUOUS
 10
-48.7155472933
 20
-14.5147449686
 40
59.1091899757
100
AcDbArc
 50
21.7413291239
 51
22.3988806401
  0
ARC
  5
2FE
100
AcDbEntity
  8
ASSI
100
AcDbCircle
 62
250
  6
CONTINUOUS
 10
-48.7155472933
 20
-14.5147449686
 40
59.1091899757
100
AcDbArc
 50
21.7413291239
 51
22.3988806401
  0
ARC
  5
2FF
100
AcDbEntity
  8
RACCORDO
100
AcDbCircle
 62
250
  6
CONTINUOUS
 10
-20.6585850166
 20
-4.4869862392
 40
29.297798012
100
AcDbArc
 50
17.4520060842
 51
18.1458057422
  0
ARC
  5
300
100
AcDbEntity
  8
ASSI
100
AcDbCircle
 62
250
  6
CONTINUOUS
 10
-20.6585850166
 20
-4.4869862392
 40
29.297798012
100
AcDbArc
 50
17.4520060842
 51
18.1458057422
  0
ARC
  5
301
100
AcDbEntity
  8
RACCORDO
100
AcDbCircle
 62
250
  6
CONTINUOUS
 10
44.3192131608
 20
10.5563061285
 40
50.1546284297
100
AcDbArc
 50
187.4738084442
 51
187.668493993
  0
ARC
  5
302
100
AcDbEntity
  8
ASSI
100
AcDbCircle
 62
250
  6
CONTINUOUS
 10
44.3192131608
 20
10.5563061285
 40
50.1546284297
100
AcDbArc
 50
187.4738084442
 51
187.668493993
  0
ARC
  5
303
100
AcDbEntity
  8
RACCORDO
100
AcDbCircle
 62
250
  6
CONTINUOUS
 10
-19.7489310537
 20
-4.2014580608
 40
28.3443844025
100
AcDbArc
 50
16.8584334661
 51
17.4157905333
  0
ARC
  5
304
100
AcDbEntity
  8
ASSI
100
AcDbCircle
 62
250
  6
CONTINUOUS
 10
-19.7489310537
 20
-4.2014580608
 40
28.3443844025
100
AcDbArc
 50
16.8584334661
 51
17.4157905333
  0
ARC
  5
305
100
AcDbEntity
  8
RACCORDO
100
AcDbCircle
 62
250
  6
CONTINUOUS
 10
-18.1883545253
 20
-3.735214125
 40
26.7156491004
100
AcDbArc
 50
15.4793742594
 51
16.7549123883
  0
ARC
  5
306
100
AcDbEntity
  8
ASSI
100
AcDbCircle
 62
250
  6
CONTINUOUS
 10
-18.1883545253
 20
-3.735214125
 40
26.7156491004
100
AcDbArc
 50
15.4793742594
 51
16.7549123883
  0
ARC
  5
307
100
AcDbEntity
  8
RACCORDO
100
AcDbCircle
 62
250
  6
CONTINUOUS
 10
-16.529997245
 20
-3.2797710508
 40
24.9958924903
100
AcDbArc
 50
14.0658609359
 51
15.4878068347
  0
ARC
  5
308
100
AcDbEntity
  8
ASSI
100
AcDbCircle
 62
250
  6
CONTINUOUS
 10
-16.529997245
 20
-3.2797710508
 40
24.9958924903
100
AcDbArc
 50
14.0658609359
 51
15.4878068347
  0
ARC
  5
309
100
AcDbEntity
  8
RACCORDO
100
AcDbCircle
 62
250
  6
CONTINUOUS
 10
-15.1517525682
 20
-2.9360116729
 40
23.5754254985
100
AcDbArc
 50
12.8810244144
 51
14.0695358757
  0
ARC
  5
30A
100
AcDbEntity
  8
ASSI
100
AcDbCircle
 62
250
  6
CONTINUOUS
 10
-15.1517525682
 20
-2.9360116729
 40
23.5754254985
100
AcDbArc
 50
12.8810244144
 51
14.0695358757
  0
ARC
  5
30B
100
AcDbEntity
  8
RACCORDO
100
AcDbCircle
 62
250
  6
CONTINUOUS
 10
-14.4105894039
 20
-2.7658900216
 40
22.8149888993
100
AcDbArc
 50
12.3376092603
 51
12.8794797812
  0
ARC
  5
30C
100
AcDbEntity
  8
ASSI
100
AcDbCircle
 62
250
  6
CONTINUOUS
 10
-14.4105894039
 20
-2.7658900216
 40
22.8149888993
100
AcDbArc
 50
12.3376092603
 51
12.8794797812
  0
ARC
  5
30D
100
AcDbEntity
  8
RACCORDO
100
AcDbCircle
 62
250
  6
CONTINUOUS
 10
8.6298832769
 20
-0.8835149087
 40
1.2709268965
100
AcDbArc
 50
261.6099397635
 51
266.3916241054
  0
ARC
  5
30E
100
AcDbEntity
  8
ASSI
100
AcDbCircle
 62
250
  6
CONTINUOUS
 10
8.6298832769
 20
-0.8835149087
 40
1.2709268965
100
AcDbArc
 50
261.6099397635
 51
266.3916241054
  0
ARC
  5
30F
100
AcDbEntity
  8
ASSI
100
AcDbCircle
 62
7
  6
CONTINUOUS
 10
-12.2883934345
 20
21.7456794448
 40
1.1480043648
100
AcDbArc
 50
142.6820688745
 51
143.4283441089
  0
ARC
  5
310
100
AcDbEntity
  8
0
100
AcDbCircle
 62
7
  6
CONTINUOUS
 10
-17.5852923773
 20
31.0091277694
 40
1.1419741478
100
AcDbArc
 50
352.2535881262
 51
359.9836696087
  0
ARC
  5
311
100
AcDbEntity
  8
RACCORDO
100
AcDbCircle
 62
250
  6
CONTINUOUS
 10
8.2365443669
 20
-1.498126502
 40
0.6707785992
100
AcDbArc
 50
299.7677241553
 51
301.3700464616
  0
ARC
  5
312
100
AcDbEntity
  8
ASSI
100
AcDbCircle
 62
250
  6
CONTINUOUS
 10
8.2365443669
 20
-1.498126502
 40
0.6707785992
100
AcDbArc
 50
299.7677241553
 51
301.3700464616
  0
ARC
  5
313
100
AcDbEntity
  8
ASSI
100
AcDbCircle
 62
250
  6
CONTINUOUS
 10
-15.2692510222
 20
17.9334686656
 40
0.2985309271
100
AcDbArc
 50
167.527226636
 51
168.7606941154
  0
ARC
  5
314
100
AcDbEntity
  8
RACCORDO
100
AcDbCircle
 62
250
  6
CONTINUOUS
 10
-15.2692510223
 20
17.9334686656
 40
0.2985309271
100
AcDbArc
 50
167.5272266359
 51
168.7606941155
  0
ARC
  5
315
100
AcDbEntity
  8
RACCORDO
100
AcDbCircle
 62
7
  6
CONTINUOUS
 10
20.9429273582
 20
54.4967891406
 40
51.7738194542
100
AcDbArc
 50
229.7639831179
 51
230.2286434489
  0
ARC
  5
316
100
AcDbEntity
  8
ASSI
100
AcDbCircle
 62
7
  6
CONTINUOUS
 10
20.9429273582
 20
54.4967891406
 40
51.7738194542
100
AcDbArc
 50
229.7639831179
 51
230.2286434489
  0
ARC
  5
317
100
AcDbEntity
  8
RACCORDO
100
AcDbCircle
 62
7
  6
CONTINUOUS
 10
20.5134357481
 20
53.9901997269
 40
51.109668862
100
AcDbArc
 50
229.2611066014
 51
229.7326296649
  0
ARC
  5
318
100
AcDbEntity
  8
ASSI
100
AcDbCircle
 62
7
  6
CONTINUOUS
 10
20.5134357481
 20
53.9901997269
 40
51.109668862
100
AcDbArc
 50
229.2611066014
 51
229.7326296649
  0
ARC
  5
319
100
AcDbEntity
  8
RACCORDO
100
AcDbCircle
 62
7
  6
CONTINUOUS
 10
20.0814953976
 20
53.4896858103
 40
50.4485434817
100
AcDbArc
 50
228.7549546068
 51
229.2308398249
  0
ARC
  5
31A
100
AcDbEntity
  8
ASSI
100
AcDbCircle
 62
7
  6
CONTINUOUS
 10
20.0814953976
 20
53.4896858103
 40
50.4485434817
100
AcDbArc
 50
228.7549546068
 51
229.2308398249
  0
ARC
  5
31B
100
AcDbEntity
  8
RACCORDO
100
AcDbCircle
 62
7
  6
CONTINUOUS
 10
19.6461426519
 20
52.9941520545
 40
49.7889331143
100
AcDbArc
 50
228.2422529672
 51
228.7243860307
  0
ARC
  5
31C
100
AcDbEntity
  8
ASSI
100
AcDbCircle
 62
7
  6
CONTINUOUS
 10
19.6461426519
 20
52.9941520545
 40
49.7889331143
100
AcDbArc
 50
228.2422529672
 51
228.7243860307
  0
ARC
  5
31D
100
AcDbEntity
  8
RACCORDO
100
AcDbCircle
 62
7
  6
CONTINUOUS
 10
19.1936775434
 20
52.4884475725
 40
49.1103597931
100
AcDbArc
 50
227.6949042669
 51
228.2129791763
  0
ARC
  5
31E
100
AcDbEntity
  8
ASSI
100
AcDbCircle
 62
7
  6
CONTINUOUS
 10
19.1936775434
 20
52.4884475725
 40
49.1103597931
100
AcDbArc
 50
227.6949042669
 51
228.2129791763
  0
ARC
  5
31F
100
AcDbEntity
  8
RACCORDO
100
AcDbCircle
 62
7
  6
CONTINUOUS
 10
18.7537581263
 20
52.0058058337
 40
48.4573116385
100
AcDbArc
 50
227.1730173608
 51
227.6954908187
  0
ARC
  5
320
100
AcDbEntity
  8
ASSI
100
AcDbCircle
 62
7
  6
CONTINUOUS
 10
18.7537581263
 20
52.0058058337
 40
48.4573116385
100
AcDbArc
 50
227.1730173608
 51
227.6954908187
  0
ARC
  5
321
100
AcDbEntity
  8
RACCORDO
100
AcDbCircle
 62
7
  6
CONTINUOUS
 10
17.4886567081
 20
50.6596808593
 40
46.6100529185
100
AcDbArc
 50
224.9377497213
 51
227.1887025011
  0
ARC
  5
322
100
AcDbEntity
  8
ASSI
100
AcDbCircle
 62
7
  6
CONTINUOUS
 10
17.4886567081
 20
50.6596808593
 40
46.6100529185
100
AcDbArc
 50
224.9377497213
 51
227.1887025011
  0
ARC
  5
323
100
AcDbEntity
  8
RACCORDO
100
AcDbCircle
 62
7
  6
CONTINUOUS
 10
21.3832067182
 20
55.0253881929
 40
52.4617606199
100
AcDbArc
 50
230.2597222542
 51
230.7178099236
  0
ARC
  5
324
100
AcDbEntity
  8
ASSI
100
AcDbCircle
 62
7
  6
CONTINUOUS
 10
21.3832067182
 20
55.0253881929
 40
52.4617606199
100
AcDbArc
 50
230.2597222542
 51
230.7178099236
  0
ARC
  5
325
100
AcDbEntity
  8
RACCORDO
100
AcDbCircle
 62
7
  6
CONTINUOUS
 10
25.0048007323
 20
59.7244696439
 40
58.3955588936
100
AcDbArc
 50
234.0565201845
 51
234.5104233164
  0
ARC
  5
326
100
AcDbEntity
  8
ASSI
100
AcDbCircle
 62
7
  6
CONTINUOUS
 10
25.0048007323
 20
59.7244696439
 40
58.3955588936
100
AcDbArc
 50
234.0565201845
 51
234.5104233164
  0
ARC
  5
327
100
AcDbEntity
  8
RACCORDO
100
AcDbCircle
 62
7
  6
CONTINUOUS
 10
24.5680240621
 20
59.1229017818
 40
57.6521495186
100
AcDbArc
 50
233.5977665648
 51
234.057017469
  0
ARC
  5
328
100
AcDbEntity
  8
ASSI
100
AcDbCircle
 62
7
  6
CONTINUOUS
 10
24.5680240621
 20
59.1229017818
 40
57.6521495186
100
AcDbArc
 50
233.5977665648
 51
234.057017469
  0
ARC
  5
329
100
AcDbEntity
  8
RACCORDO
100
AcDbCircle
 62
7
  6
CONTINUOUS
 10
24.1268008449
 20
58.5253346385
 40
56.9093412233
100
AcDbArc
 50
233.1353072706
 51
233.5982712152
  0
ARC
  5
32A
100
AcDbEntity
  8
ASSI
100
AcDbCircle
 62
7
  6
CONTINUOUS
 10
24.1268008449
 20
58.5253346385
 40
56.9093412233
100
AcDbArc
 50
233.1353072706
 51
233.5982712152
  0
ARC
  5
32B
100
AcDbEntity
  8
RACCORDO
100
AcDbCircle
 62
7
  6
CONTINUOUS
 10
23.6815793335
 20
57.9324376057
 40
56.1678907355
100
AcDbArc
 50
232.668273652
 51
233.1358237832
  0
ARC
  5
32C
100
AcDbEntity
  8
ASSI
100
AcDbCircle
 62
7
  6
CONTINUOUS
 10
23.6815793335
 20
57.9324376057
 40
56.1678907355
100
AcDbArc
 50
232.668273652
 51
233.1358237832
  0
ARC
  5
32D
100
AcDbEntity
  8
RACCORDO
100
AcDbCircle
 62
7
  6
CONTINUOUS
 10
23.2190933466
 20
57.3271105562
 40
55.4061070604
100
AcDbArc
 50
232.1961826943
 51
232.6363797127
  0
ARC
  5
32E
100
AcDbEntity
  8
ASSI
100
AcDbCircle
 62
7
  6
CONTINUOUS
 10
23.2190933466
 20
57.3271105562
 40
55.4061070604
100
AcDbArc
 50
232.1961826943
 51
232.6363797127
  0
ARC
  5
32F
100
AcDbEntity
  8
RACCORDO
100
AcDbCircle
 62
7
  6
CONTINUOUS
 10
22.7659216613
 20
56.7440863289
 40
54.6676749308
100
AcDbArc
 50
231.7203064106
 51
232.1640001599
  0
ARC
  5
330
100
AcDbEntity
  8
ASSI
100
AcDbCircle
 62
7
  6
CONTINUOUS
 10
22.7659216613
 20
56.7440863289
 40
54.6676749308
100
AcDbArc
 50
231.7203064106
 51
232.1640001599
  0
ARC
  5
331
100
AcDbEntity
  8
RACCORDO
100
AcDbCircle
 62
7
  6
CONTINUOUS
 10
22.3090757163
 20
56.1663162317
 40
53.9311108347
100
AcDbArc
 50
231.2380715531
 51
231.6889981717
  0
ARC
  5
332
100
AcDbEntity
  8
ASSI
100
AcDbCircle
 62
7
  6
CONTINUOUS
 10
22.3090757163
 20
56.1663162317
 40
53.9311108347
100
AcDbArc
 50
231.2380715531
 51
231.6889981717
  0
ARC
  5
333
100
AcDbEntity
  8
RACCORDO
100
AcDbCircle
 62
7
  6
CONTINUOUS
 10
21.8489060644
 20
55.5942996032
 40
53.1969723547
100
AcDbArc
 50
230.7530990507
 51
231.2064250883
  0
ARC
  5
334
100
AcDbEntity
  8
ASSI
100
AcDbCircle
 62
7
  6
CONTINUOUS
 10
21.8489060644
 20
55.5942996032
 40
53.1969723547
100
AcDbArc
 50
230.7530990507
 51
231.2064250883
  0
ARC
  5
335
100
AcDbEntity
  8
RACCORDO
100
AcDbCircle
 62
7
  6
CONTINUOUS
 10
34.8429266101
 20
88.9176382799
 40
88.6995552517
100
AcDbArc
 50
248.5649668722
 51
248.9133013765
  0
ARC
  5
336
100
AcDbEntity
  8
ASSI
100
AcDbCircle
 62
7
  6
CONTINUOUS
 10
34.8429266101
 20
88.9176382799
 40
88.6995552517
100
AcDbArc
 50
248.5649668722
 51
248.9133013765
  0
ARC
  5
337
100
AcDbEntity
  8
RACCORDO
100
AcDbCircle
 62
7
  6
CONTINUOUS
 10
34.4879730892
 20
88.0122126957
 40
87.7270393106
100
AcDbArc
 50
248.2135615674
 51
248.5646521533
  0
ARC
  5
338
100
AcDbEntity
  8
ASSI
100
AcDbCircle
 62
7
  6
CONTINUOUS
 10
34.4879730892
 20
88.0122126957
 40
87.7270393106
100
AcDbArc
 50
248.2135615674
 51
248.5646521533
  0
ARC
  5
339
100
AcDbEntity
  8
RACCORDO
100
AcDbCircle
 62
7
  6
CONTINUOUS
 10
34.1141417746
 20
87.0763488319
 40
86.7192737311
100
AcDbArc
 50
247.8932555088
 51
248.1795473325
  0
ARC
  5
33A
100
AcDbEntity
  8
ASSI
100
AcDbCircle
 62
7
  6
CONTINUOUS
 10
34.1141417746
 20
87.0763488319
 40
86.7192737311
100
AcDbArc
 50
247.8932555088
 51
248.1795473325
  0
ARC
  5
33B
100
AcDbEntity
  8
RACCORDO
100
AcDbCircle
 62
7
  6
CONTINUOUS
 10
33.792688608
 20
86.2859650495
 40
85.8660215208
100
AcDbArc
 50
247.505247285
 51
247.8270763506
  0
ARC
  5
33C
100
AcDbEntity
  8
ASSI
100
AcDbCircle
 62
7
  6
CONTINUOUS
 10
33.792688608
 20
86.2859650495
 40
85.8660215208
100
AcDbArc
 50
247.505247285
 51
247.8270763506
  0
ARC
  5
33D
100
AcDbEntity
  8
RACCORDO
100
AcDbCircle
 62
7
  6
CONTINUOUS
 10
33.4533196878
 20
85.4660555588
 40
84.9786528688
100
AcDbArc
 50
247.1488756422
 51
247.4712525882
  0
ARC
  5
33E
100
AcDbEntity
  8
ASSI
100
AcDbCircle
 62
7
  6
CONTINUOUS
 10
33.4533196878
 20
85.4660555588
 40
84.9786528688
100
AcDbArc
 50
247.1488756422
 51
247.4712525882
  0
ARC
  5
33F
100
AcDbEntity
  8
RACCORDO
100
AcDbCircle
 62
7
  6
CONTINUOUS
 10
33.1062504113
 20
84.6420982443
 40
84.084581821
100
AcDbArc
 50
246.7890555168
 51
247.1146852
  0
ARC
  5
340
100
AcDbEntity
  8
ASSI
100
AcDbCircle
 62
7
  6
CONTINUOUS
 10
33.1062504113
 20
84.6420982443
 40
84.084581821
100
AcDbArc
 50
246.7890555168
 51
247.1146852
  0
ARC
  5
341
100
AcDbEntity
  8
RACCORDO
100
AcDbCircle
 62
7
  6
CONTINUOUS
 10
32.7512237659
 20
83.8138039727
 40
83.1834072437
100
AcDbArc
 50
246.4281244762
 51
246.7550112977
  0
ARC
  5
342
100
AcDbEntity
  8
ASSI
100
AcDbCircle
 62
7
  6
CONTINUOUS
 10
32.7512237659
 20
83.8138039727
 40
83.1834072437
100
AcDbArc
 50
246.4281244762
 51
246.7550112977
  0
ARC
  5
343
100
AcDbEntity
  8
RACCORDO
100
AcDbCircle
 62
7
  6
CONTINUOUS
 10
32.3885101692
 20
82.9820921416
 40
82.2760451147
100
AcDbArc
 50
246.0640979456
 51
246.3938653523
  0
ARC
  5
344
100
AcDbEntity
  8
ASSI
100
AcDbCircle
 62
7
  6
CONTINUOUS
 10
32.3885101692
 20
82.9820921416
 40
82.2760451147
100
AcDbArc
 50
246.0640979456
 51
246.3938653523
  0
ARC
  5
345
100
AcDbEntity
  8
RACCORDO
100
AcDbCircle
 62
250
  6
CONTINUOUS
 10
32.5306569899
 20
84.082977083
 40
77.2318380202
100
AcDbArc
 50
245.7306638868
 51
247.2748007441
  0
ARC
  5
346
100
AcDbEntity
  8
ASSI
100
AcDbCircle
 62
250
  6
CONTINUOUS
 10
32.5306569899
 20
84.082977083
 40
77.2318380202
100
AcDbArc
 50
245.7306638868
 51
247.2748007441
  0
ARC
  5
347
100
AcDbEntity
  8
RACCORDO
100
AcDbCircle
 62
7
  6
CONTINUOUS
 10
37.381568044
 20
95.9398632301
 40
96.1672656529
100
AcDbArc
 50
251.3031223235
 51
251.6383833001
  0
ARC
  5
348
100
AcDbEntity
  8
ASSI
100
AcDbCircle
 62
7
  6
CONTINUOUS
 10
37.381568044
 20
95.9398632301
 40
96.1672656529
100
AcDbArc
 50
251.3031223235
 51
251.6383833001
  0
ARC
  5
349
100
AcDbEntity
  8
RACCORDO
100
AcDbCircle
 62
7
  6
CONTINUOUS
 10
37.0937839374
 20
95.0881433824
 40
95.2682405124
100
AcDbArc
 50
250.9672221209
 51
251.3028628779
  0
ARC
  5
34A
100
AcDbEntity
  8
ASSI
100
AcDbCircle
 62
7
  6
CONTINUOUS
 10
37.0937839374
 20
95.0881433824
 40
95.2682405124
100
AcDbArc
 50
250.9672221209
 51
251.3028628779
  0
ARC
  5
34B
100
AcDbEntity
  8
RACCORDO
100
AcDbCircle
 62
7
  6
CONTINUOUS
 10
36.7941997024
 20
94.2184834481
 40
94.3484258534
100
AcDbArc
 50
250.6288805134
 51
250.9602840878
  0
ARC
  5
34C
100
AcDbEntity
  8
ASSI
100
AcDbCircle
 62
7
  6
CONTINUOUS
 10
36.7941997024
 20
94.2184834481
 40
94.3484258534
100
AcDbArc
 50
250.6288805134
 51
250.9602840878
  0
ARC
  5
34D
100
AcDbEntity
  8
RACCORDO
100
AcDbCircle
 62
7
  6
CONTINUOUS
 10
36.4928511988
 20
93.3601170695
 40
93.4386986506
100
AcDbArc
 50
250.2897002432
 51
250.6286237984
  0
ARC
  5
34E
100
AcDbEntity
  8
ASSI
100
AcDbCircle
 62
7
  6
CONTINUOUS
 10
36.4928511988
 20
93.3601170695
 40
93.4386986506
100
AcDbArc
 50
250.2897002432
 51
250.6286237984
  0
ARC
  5
34F
100
AcDbEntity
  8
RACCORDO
100
AcDbCircle
 62
7
  6
CONTINUOUS
 10
36.1797390802
 20
92.4847953311
 40
92.5090604727
100
AcDbArc
 50
249.9482749744
 51
250.2894227192
  0
ARC
  5
350
100
AcDbEntity
  8
ASSI
100
AcDbCircle
 62
7
  6
CONTINUOUS
 10
36.1797390802
 20
92.4847953311
 40
92.5090604727
100
AcDbArc
 50
249.9482749744
 51
250.2894227192
  0
ARC
  5
351
100
AcDbEntity
  8
RACCORDO
100
AcDbCircle
 62
7
  6
CONTINUOUS
 10
35.858020813
 20
91.6020237426
 40
91.5694924287
100
AcDbArc
 50
249.6054071128
 51
249.9479886508
  0
ARC
  5
352
100
AcDbEntity
  8
ASSI
100
AcDbCircle
 62
7
  6
CONTINUOUS
 10
35.858020813
 20
91.6020237426
 40
91.5694924287
100
AcDbArc
 50
249.6054071128
 51
249.9479886508
  0
ARC
  5
353
100
AcDbEntity
  8
RACCORDO
100
AcDbCircle
 62
7
  6
CONTINUOUS
 10
35.528041233
 20
90.713150829
 40
90.6213461513
100
AcDbArc
 50
249.260545015
 51
249.6051144701
  0
ARC
  5
354
100
AcDbEntity
  8
ASSI
100
AcDbCircle
 62
7
  6
CONTINUOUS
 10
35.528041233
 20
90.713150829
 40
90.6213461513
100
AcDbArc
 50
249.260545015
 51
249.6051144701
  0
ARC
  5
355
100
AcDbEntity
  8
RACCORDO
100
AcDbCircle
 62
7
  6
CONTINUOUS
 10
35.1895938551
 20
89.8180106639
 40
89.664360091
100
AcDbArc
 50
248.9136098683
 51
249.2602447157
  0
ARC
  5
356
100
AcDbEntity
  8
ASSI
100
AcDbCircle
 62
7
  6
CONTINUOUS
 10
35.1895938551
 20
89.8180106639
 40
89.664360091
100
AcDbArc
 50
248.9136098683
 51
249.2602447157
  0
SPLINE
  5
357
100
AcDbEntity
  8
ASSI
100
AcDbSpline
 62
250
  6
CONTINUOUS
 70
0
 71
3
 72
9
 73
5
 74
0
 42
0.0000001
 43
0.0000001
 44
0.0000000001
 40
0.0
 40
0.0
 40
0.0
 40
0.0
 40
0.4840521096
 40
1.0
 40
1.0
 40
1.0
 40
1.0
 10
-15.5620566267
 20
17.9916545099
 30
0.0
 10
-15.5704158203
 20
17.9495883091
 30
0.0
 10
-15.5683482403
 20
17.8579976633
 30
0.0
 10
-15.5307095392
 20
17.7753037149
 30
0.0
 10
-15.5054145253
 20
17.7372247968
 30
0.0
  0
SPLINE
  5
358
100
AcDbEntity
  8
RACCORDO
100
AcDbSpline
 62
250
  6
CONTINUOUS
 70
0
 71
3
 72
9
 73
5
 74
0
 42
0.0000001
 43
0.0000001
 44
0.0000000001
 40
0.0
 40
0.0
 40
0.0
 40
0.0
 40
0.2551570158
 40
1.0
 40
1.0
 40
1.0
 40
1.0
 10
0.7863226325
 20
13.6766276521
 30
0.0
 10
0.2487430869
 20
13.9191003325
 30
0.0
 10
-1.8468343907
 20
14.8940881533
 30
0.0
 10
-3.896175876
 20
15.9693350703
 30
0.0
 10
-5.3870404791
 20
16.8301251876
 30
0.0
  0
SPLINE
  5
359
100
AcDbEntity
  8
RACCORDO
100
AcDbSpline
 62
250
  6
CONTINUOUS
 70
0
 71
3
 72
11
 73
7
 74
0
 42
0.0000001
 43
0.0000001
 44
0.0000000001
 40
0.0
 40
0.0
 40
0.0
 40
0.0
 40
0.256653405
 40
0.4504613797
 40
0.6412090228
 40
1.0
 40
1.0
 40
1.0
 40
1.0
 10
4.7184579132
 20
10.7962642477
 30
0.0
 10
4.613903763
 20
11.0249390699
 30
0.0
 10
4.3938594908
 20
11.4106071884
 30
0.0
 10
4.0037547432
 20
11.905227236
 30
0.0
 10
3.4814534714
 20
12.4141908762
 30
0.0
 10
3.0192990268
 20
12.710961911
 30
0.0
 10
2.6950907627
 20
12.8467798804
 30
0.0
  0
SPLINE
  5
35A
100
AcDbEntity
  8
RACCORDO
100
AcDbSpline
 62
250
  6
CONTINUOUS
 70
0
 71
3
 72
9
 73
5
 74
0
 42
0.0000001
 43
0.0000001
 44
0.0000000001
 40
0.0
 40
0.0
 40
0.0
 40
0.0
 40
0.4948363897
 40
1.0
 40
1.0
 40
1.0
 40
1.0
 10
7.1833618193
 20
4.637007784
 30
0.0
 10
7.0367063317
 20
5.0955005981
 30
0.0
 10
6.7194450473
 20
6.0154291992
 30
0.0
 10
6.370951543
 20
6.9238196002
 30
0.0
 10
6.1889471408
 20
7.3802962627
 30
0.0
  0
SPLINE
  5
35B
100
AcDbEntity
  8
RACCORDO
100
AcDbSpline
 62
7
  6
CONTINUOUS
 70
0
 71
3
 72
9
 73
5
 74
0
 42
0.0000001
 43
0.0000001
 44
0.0000000001
 40
0.0
 40
0.0
 40
0.0
 40
0.0
 40
0.2540792544
 40
1.0
 40
1.0
 40
1.0
 40
1.0
 10
-1.0361757976
 20
7.8013905247
 30
0.0
 10
-1.4511834794
 20
7.9859048066
 30
0.0
 10
-3.0784651746
 20
8.7257159816
 30
0.0
 10
-4.6808511585
 20
9.5205468177
 30
0.0
 10
-5.8584153955
 20
10.1460085837
 30
0.0
  0
SPLINE
  5
35C
100
AcDbEntity
  8
RACCORDO
100
AcDbSpline
 62
7
  6
CONTINUOUS
 70
0
 71
3
 72
9
 73
5
 74
0
 42
0.0000001
 43
0.0000001
 44
0.0000000001
 40
0.0
 40
0.0
 40
0.0
 40
0.0
 40
0.2550277417
 40
1.0
 40
1.0
 40
1.0
 40
1.0
 10
-5.3870411185
 20
16.8301255548
 30
0.0
 10
-5.4531976656
 20
16.2642392286
 30
0.0
 10
-5.6878599138
 20
14.0425349723
 30
0.0
 10
-5.821994735
 20
11.8099024073
 30
0.0
 10
-5.8584153955
 20
10.1460085837
 30
0.0
  0
SPLINE
  5
35D
100
AcDbEntity
  8
RACCORDO
100
AcDbSpline
 62
250
  6
CONTINUOUS
 70
0
 71
3
 72
9
 73
5
 74
0
 42
0.0000001
 43
0.0000001
 44
0.0000000001
 40
0.0
 40
0.0
 40
0.0
 40
0.0
 40
0.2476285348
 40
1.0
 40
1.0
 40
1.0
 40
1.0
 10
8.3270392465
 20
-1.3978218219
 30
0.0
 10
8.3222631162
 20
-1.2444935131
 30
0.0
 10
8.2946560176
 20
-0.6255837121
 30
0.0
 10
8.234066355
 20
-0.0082274025
 30
0.0
 10
8.171668766
 20
0.4536613415
 30
0.0
  0
SPLINE
  5
35E
100
AcDbEntity
  8
RACCORDO
100
AcDbSpline
 62
250
  6
CONTINUOUS
 70
0
 71
3
 72
9
 73
5
 74
0
 42
0.0000001
 43
0.0000001
 44
0.0000000001
 40
0.0
 40
0.0
 40
0.0
 40
0.0
 40
0.2477941476
 40
1.0
 40
1.0
 40
1.0
 40
1.0
 10
8.1673650434
 20
0.4853211272
 30
0.0
 10
8.1491881296
 20
0.6182123986
 30
0.0
 10
8.0702436277
 20
1.1537366765
 30
0.0
 10
7.9695260245
 20
1.6859977484
 30
0.0
 10
7.8829890585
 20
2.0838572571
 30
0.0
  0
SPLINE
  5
35F
100
AcDbEntity
  8
RACCORDO
100
AcDbSpline
 62
250
  6
CONTINUOUS
 70
0
 71
3
 72
15
 73
11
 74
0
 42
0.0000001
 43
0.0000001
 44
0.0000000001
 40
0.0
 40
0.0
 40
0.0
 40
0.0
 40
0.1429572818
 40
0.2769409404
 40
0.402325831
 40
0.5208149803
 40
0.6355742556
 40
0.7508888413
 40
0.8712137141
 40
1.0
 40
1.0
 40
1.0
 40
1.0
 10
7.4530467907
 20
-1.916360673
 30
0.0
 10
7.5080619476
 20
-1.9354551316
 30
0.0
 10
7.6178232593
 20
-1.9641780757
 30
0.0
 10
7.782277513
 20
-1.9762645634
 30
0.0
 10
7.9360705661
 20
-1.95506871
 30
0.0
 10
8.0732262937
 20
-1.9001401949
 30
0.0
 10
8.1872351724
 20
-1.8122683957
 30
0.0
 10
8.2714545105
 20
-1.6944876714
 30
0.0
 10
8.3208519369
 20
-1.5525847744
 30
0.0
 10
8.3286674261
 20
-1.450258479
 30
0.0
 10
8.3270392465
 20
-1.3978218219
 30
0.0
  0
SPLINE
  5
360
100
AcDbEntity
  8
RACCORDO
100
AcDbSpline
 62
250
  6
CONTINUOUS
 70
0
 71
3
 72
9
 73
5
 74
0
 42
0.0000001
 43
0.0000001
 44
0.0000000001
 40
0.0
 40
0.0
 40
0.0
 40
0.0
 40
0.4866692657
 40
1.0
 40
1.0
 40
1.0
 40
1.0
 10
-5.386868719
 20
3.863610328
 30
0.0
 10
-3.4048111248
 20
2.7231373139
 30
0.0
 10
0.7962695926
 20
0.5987068155
 30
0.0
 10
5.1744117751
 20
-1.1253491225
 30
0.0
 10
7.4530467907
 20
-1.916360673
 30
0.0
  0
SPLINE
  5
361
100
AcDbEntity
  8
RACCORDO
100
AcDbSpline
 62
250
  6
CONTINUOUS
 70
0
 71
3
 72
9
 73
5
 74
0
 42
0.0000001
 43
0.0000001
 44
0.0000000001
 40
0.0
 40
0.0
 40
0.0
 40
0.0
 40
0.2557915051
 40
1.0
 40
1.0
 40
1.0
 40
1.0
 10
1.8505287915
 20
13.9281880073
 30
0.0
 10
1.2482801919
 20
14.1912875564
 30
0.0
 10
-1.0929298018
 20
15.2497301591
 30
0.0
 10
-3.3798160191
 20
16.4296839517
 30
0.0
 10
-5.0383673008
 20
17.3811916326
 30
0.0
  0
SPLINE
  5
362
100
AcDbEntity
  8
RACCORDO
100
AcDbSpline
 62
250
  6
CONTINUOUS
 70
0
 71
3
 72
9
 73
5
 74
0
 42
0.0000001
 43
0.0000001
 44
0.0000000001
 40
0.0
 40
0.0
 40
0.0
 40
0.0
 40
0.256317859
 40
1.0
 40
1.0
 40
1.0
 40
1.0
 10
-5.0383673008
 20
17.3811916326
 30
0.0
 10
-5.5427176182
 20
17.674269844
 30
0.0
 10
-7.4944742372
 20
18.8447143035
 30
0.0
 10
-9.3809847895
 20
20.1251124208
 30
0.0
 10
-10.73368267
 20
21.1422675539
 30
0.0
  0
SPLINE
  5
363
100
AcDbEntity
  8
RACCORDO
100
AcDbSpline
 62
250
  6
CONTINUOUS
 70
0
 71
3
 72
9
 73
5
 74
0
 42
0.0000001
 43
0.0000001
 44
0.0000000001
 40
0.0
 40
0.0
 40
0.0
 40
0.0
 40
0.5063753239
 40
1.0
 40
1.0
 40
1.0
 40
1.0
 10
-12.901008101
 20
22.4334716445
 30
0.0
 10
-12.9893200242
 20
22.4340639847
 30
0.0
 10
-13.1648557777
 20
22.4141492923
 30
0.0
 10
-13.3284811542
 20
22.3467398603
 30
0.0
 10
-13.4028615125
 20
22.3033915575
 30
0.0
  0
SPLINE
  5
364
100
AcDbEntity
  8
0
100
AcDbSpline
 62
7
  6
CONTINUOUS
 70
0
 71
3
 72
9
 73
5
 74
0
 42
0.0000001
 43
0.0000001
 44
0.0000000001
 40
0.0
 40
0.0
 40
0.0
 40
0.0
 40
0.2559402587
 40
1.0
 40
1.0
 40
1.0
 40
1.0
 10
-5.8584153955
 20
10.1460085837
 30
0.0
 10
-5.8481177612
 20
9.6229963823
 30
0.0
 10
-5.7814720261
 20
7.5801658475
 30
0.0
 10
-5.6071371617
 20
5.5404007094
 30
0.0
 10
-5.4093228652
 20
4.0325451251
 30
0.0
  0
SPLINE
  5
365
100
AcDbEntity
  8
RACCORDO
100
AcDbSpline
 62
250
  6
CONTINUOUS
 70
0
 71
3
 72
11
 73
7
 74
0
 42
0.0000001
 43
0.0000001
 44
0.0000000001
 40
0.0
 40
0.0
 40
0.0
 40
0.0
 40
0.2421078624
 40
0.4867772985
 40
0.7380313195
 40
1.0
 40
1.0
 40
1.0
 40
1.0
 10
-13.8272132941
 20
21.5043023709
 30
0.0
 10
-14.0292781987
 20
21.2368733246
 30
0.0
 10
-14.4034176521
 20
20.6740633859
 30
0.0
 10
-14.8660352816
 20
19.7606626341
 30
0.0
 10
-15.2363753075
 20
18.7770083159
 30
0.0
 10
-15.4232028078
 20
18.0904633893
 30
0.0
 10
-15.5054165865
 20
17.7372240784
 30
0.0
  0
SPLINE
  5
366
100
AcDbEntity
  8
RACCORDO
100
AcDbSpline
 62
250
  6
CONTINUOUS
 70
0
 71
3
 72
9
 73
5
 74
0
 42
0.0000001
 43
0.0000001
 44
0.0000000001
 40
0.0
 40
0.0
 40
0.0
 40
0.0
 40
0.2569139716
 40
1.0
 40
1.0
 40
1.0
 40
1.0
 10
-12.2646226187
 20
21.4843308976
 30
0.0
 10
-12.2810531231
 20
21.4974067313
 30
0.0
 10
-12.3456436079
 20
21.5474923199
 30
0.0
 10
-12.4128327994
 20
21.5942609221
 30
0.0
 10
-12.4642030814
 20
21.6266624742
 30
0.0
  0
SPLINE
  5
367
100
AcDbEntity
  8
RACCORDO
100
AcDbSpline
 62
250
  6
CONTINUOUS
 70
0
 71
3
 72
15
 73
11
 74
0
 42
0.0000001
 43
0.0000001
 44
0.0000000001
 40
0.0
 40
0.0
 40
0.0
 40
0.0
 40
0.1488877668
 40
0.2863230278
 40
0.4136275135
 40
0.5329941441
 40
0.647525056
 40
0.760973701
 40
0.8772872122
 40
1.0
 40
1.0
 40
1.0
 40
1.0
 10
-12.4642030814
 20
21.6266624742
 30
0.0
 10
-12.5280748052
 20
21.6669492491
 30
0.0
 10
-12.6554699629
 20
21.7376043276
 30
0.0
 10
-12.8518712984
 20
21.8134687732
 30
0.0
 10
-13.0435216166
 20
21.8536426341
 30
0.0
 10
-13.2279176982
 20
21.8570314886
 30
0.0
 10
-13.4022074801
 20
21.8229976132
 30
0.0
 10
-13.5632522374
 20
21.7517666885
 30
0.0
 10
-13.7080740461
 20
21.6447444477
 30
0.0
 10
-13.7896889664
 20
21.5539583423
 30
0.0
 10
-13.8272132941
 20
21.5043023709
 30
0.0
  0
SPLINE
  5
368
100
AcDbEntity
  8
RACCORDO
100
AcDbSpline
 62
250
  6
CONTINUOUS
 70
0
 71
3
 72
9
 73
5
 74
0
 42
0.0000001
 43
0.0000001
 44
0.0000000001
 40
0.0
 40
0.0
 40
0.0
 40
0.0
 40
0.5102078535
 40
1.0
 40
1.0
 40
1.0
 40
1.0
 10
-5.3870404826
 20
16.830125189
 30
0.0
 10
-6.610961341
 20
17.5368152755
 30
0.0
 10
-8.9641303068
 20
19.003041492
 30
0.0
 10
-11.2030563438
 20
20.6394528001
 30
0.0
 10
-12.2646226187
 20
21.4843308976
 30
0.0
  0
SPLINE
  5
369
100
AcDbEntity
  8
RACCORDO
100
AcDbSpline
 62
7
  6
CONTINUOUS
 70
0
 71
3
 72
9
 73
5
 74
0
 42
0.0000001
 43
0.0000001
 44
0.0000000001
 40
0.0
 40
0.0
 40
0.0
 40
0.0
 40
0.2470963662
 40
1.0
 40
1.0
 40
1.0
 40
1.0
 10
-8.8970236902
 20
12.1775706986
 30
0.0
 10
-8.6518752734
 20
12.0027706706
 30
0.0
 10
-7.6543385438
 20
11.3029786645
 30
0.0
 10
-6.6356192365
 20
10.6334467265
 30
0.0
 10
-5.8584153955
 20
10.1460085837
 30
0.0
  0
SPLINE
  5
36A
100
AcDbEntity
  8
RACCORDO
100
AcDbSpline
 62
250
  6
CONTINUOUS
 70
0
 71
3
 72
11
 73
7
 74
0
 42
0.0000001
 43
0.0000001
 44
0.0000000001
 40
0.0
 40
0.0
 40
0.0
 40
0.0
 40
0.2273053145
 40
0.4692978774
 40
0.7268233235
 40
1.0
 40
1.0
 40
1.0
 40
1.0
 10
-15.5047116743
 20
17.7365175148
 30
0.0
 10
-15.5892576031
 20
17.3581214841
 30
0.0
 10
-15.733592436
 20
16.5699673129
 30
0.0
 10
-15.8815457884
 20
15.3384765484
 30
0.0
 10
-15.9738409113
 20
14.0232540975
 30
0.0
 10
-16.0008250167
 20
13.1181734611
 30
0.0
 10
-16.0068151159
 20
12.6522407121
 30
0.0
  0
SPLINE
  5
36B
100
AcDbEntity
  8
RACCORDO
100
AcDbSpline
 62
250
  6
CONTINUOUS
 70
0
 71
3
 72
10
 73
6
 74
0
 42
0.0000001
 43
0.0000001
 44
0.0000000001
 40
0.0
 40
0.0
 40
0.0
 40
0.0
 40
0.4832745624
 40
0.7375211513
 40
1.0
 40
1.0
 40
1.0
 40
1.0
 10
-15.4848981797
 20
11.327721273
 30
0.0
 10
-14.0206145756
 20
9.9263204772
 30
0.0
 10
-11.6340103557
 20
7.9415993126
 30
0.0
 10
-8.1870745255
 20
5.5506632502
 30
0.0
 10
-6.3393755396
 20
4.4154675277
 30
0.0
 10
-5.386868719
 20
3.863610328
 30
0.0
  0
SPLINE
  5
36C
100
AcDbEntity
  8
RACCORDO
100
AcDbSpline
 62
250
  6
CONTINUOUS
 70
0
 71
3
 72
13
 73
9
 74
0
 42
0.0000001
 43
0.0000001
 44
0.0000000001
 40
0.0
 40
0.0
 40
0.0
 40
0.0
 40
0.1166643143
 40
0.2446389533
 40
0.5157152493
 40
0.7771628408
 40
0.8948730545
 40
1.0
 40
1.0
 40
1.0
 40
1.0
 10
-16.0068151159
 20
12.6522407121
 30
0.0
 10
-16.0075389581
 20
12.5956920504
 30
0.0
 10
-16.0008093033
 20
12.4769552982
 30
0.0
 10
-15.9607176393
 20
12.2298810422
 30
0.0
 10
-15.866956786
 20
11.9220974995
 30
0.0
 10
-15.727562546
 20
11.637370824
 30
0.0
 10
-15.5936451983
 20
11.4440993082
 30
0.0
 10
-15.521712528
 20
11.3629587415
 30
0.0
 10
-15.4848981797
 20
11.327721273
 30
0.0
  0
SPLINE
  5
36D
100
AcDbEntity
  8
RACCORDO
100
AcDbSpline
 62
250
  6
CONTINUOUS
 70
0
 71
3
 72
9
 73
5
 74
0
 42
0.0000001
 43
0.0000001
 44
0.0000000001
 40
0.0
 40
0.0
 40
0.0
 40
0.0
 40
0.4840521096
 40
1.0
 40
1.0
 40
1.0
 40
1.0
 10
-15.5620566267
 20
17.9916545099
 30
0.0
 10
-15.5704158203
 20
17.9495883091
 30
0.0
 10
-15.5683482403
 20
17.8579976633
 30
0.0
 10
-15.5307095392
 20
17.7753037149
 30
0.0
 10
-15.5054145253
 20
17.7372247968
 30
0.0
  0
SPLINE
  5
36E
100
AcDbEntity
  8
RACCORDO
100
AcDbSpline
 62
250
  6
CONTINUOUS
 70
0
 71
3
 72
9
 73
5
 74
0
 42
0.0000001
 43
0.0000001
 44
0.0000000001
 40
0.0
 40
0.0
 40
0.0
 40
0.0
 40
0.5258496862
 40
1.0
 40
1.0
 40
1.0
 40
1.0
 10
-16.0068151575
 20
12.6522406981
 30
0.0
 10
-16.0273977385
 20
12.6738620048
 30
0.0
 10
-16.0613229503
 20
12.72098829
 30
0.0
 10
-16.0739981444
 20
12.7784301584
 30
0.0
 10
-16.0736034865
 20
12.8053440622
 30
0.0
  0
SPLINE
  5
36F
100
AcDbEntity
  8
RACCORDO
100
AcDbSpline
 62
250
  6
CONTINUOUS
 70
0
 71
3
 72
9
 73
5
 74
0
 42
0.0000001
 43
0.0000001
 44
0.0000000001
 40
0.0
 40
0.0
 40
0.0
 40
0.0
 40
0.5212754009
 40
1.0
 40
1.0
 40
1.0
 40
1.0
 10
-15.4848981421
 20
11.3277212863
 30
0.0
 10
-15.4846420768
 20
11.2876000857
 30
0.0
 10
-15.4722238362
 20
11.2096320771
 30
0.0
 10
-15.4286040461
 20
11.1427395458
 30
0.0
 10
-15.4019057121
 20
11.1173447624
 30
0.0
  0
SPLINE
  5
370
100
AcDbEntity
  8
RACCORDO
100
AcDbSpline
 62
250
  6
CONTINUOUS
 70
0
 71
3
 72
10
 73
6
 74
0
 42
0.0000001
 43
0.0000001
 44
0.0000000001
 40
0.0
 40
0.0
 40
0.0
 40
0.0
 40
0.5360184639
 40
0.7734668318
 40
1.0
 40
1.0
 40
1.0
 40
1.0
 10
-5.3872026416
 20
3.8638025056
 30
0.0
 10
-5.3823150334
 20
3.8274083611
 30
0.0
 10
-5.367307227
 20
3.7746211753
 30
0.0
 10
-5.3262705703
 20
3.7189845828
 30
0.0
 10
-5.3009064265
 20
3.6990306654
 30
0.0
 10
-5.2874813092
 20
3.6912456133
 30
0.0
  0
SPLINE
  5
371
100
AcDbEntity
  8
RACCORDO
100
AcDbSpline
 62
250
  6
CONTINUOUS
 70
0
 71
3
 72
13
 73
9
 74
0
 42
0.0000001
 43
0.0000001
 44
0.0000000001
 40
0.0
 40
0.0
 40
0.0
 40
0.0
 40
0.1678833396
 40
0.3233599581
 40
0.5312753561
 40
0.7094717535
 40
0.8623672421
 40
1.0
 40
1.0
 40
1.0
 40
1.0
 10
7.4530468217
 20
-1.9163606432
 30
0.0
 10
7.453085194
 20
-1.9306463031
 30
0.0
 10
7.4540850313
 20
-1.9581760966
 30
0.0
 10
7.4593205573
 20
-2.0031207596
 30
0.0
 10
7.4698898594
 20
-2.0481847253
 30
0.0
 10
7.4886161989
 20
-2.0904449033
 30
0.0
 10
7.5138924447
 20
-2.1220580335
 30
0.0
 10
7.5356897168
 20
-2.1351475106
 30
0.0
 10
7.5467403563
 20
-2.1390262798
 30
0.0
  0
SPLINE
  5
372
100
AcDbEntity
  8
RACCORDO
100
AcDbSpline
 62
250
  6
CONTINUOUS
 70
0
 71
3
 72
9
 73
5
 74
0
 42
0.0000001
 43
0.0000001
 44
0.0000000001
 40
0.0
 40
0.0
 40
0.0
 40
0.0
 40
0.4879615979
 40
1.0
 40
1.0
 40
1.0
 40
1.0
 10
8.3270392314
 20
-1.3978218372
 30
0.0
 10
8.3754326325
 20
-1.4125600139
 30
0.0
 10
8.4781692355
 20
-1.4315086156
 30
0.0
 10
8.5824436641
 20
-1.4314876019
 30
0.0
 10
8.6353136665
 20
-1.4267260843
 30
0.0
  0
SPLINE
  5
373
100
AcDbEntity
  8
RACCORDO
100
AcDbSpline
 62
250
  6
CONTINUOUS
 70
0
 71
3
 72
9
 73
5
 74
0
 42
0.0000001
 43
0.0000001
 44
0.0000000001
 40
0.0
 40
0.0
 40
0.0
 40
0.0
 40
0.5208604817
 40
1.0
 40
1.0
 40
1.0
 40
1.0
 10
7.6206093099
 20
4.7334645579
 30
0.0
 10
7.5492274977
 20
4.701036519
 30
0.0
 10
7.405403486
 20
4.6534612092
 30
0.0
 10
7.2542175021
 20
4.6346681554
 30
0.0
 10
7.1821472343
 20
4.6374095775
 30
0.0
  0
SPLINE
  5
374
100
AcDbEntity
  8
RACCORDO
100
AcDbSpline
 62
250
  6
CONTINUOUS
 70
0
 71
3
 72
11
 73
7
 74
0
 42
0.0000001
 43
0.0000001
 44
0.0000000001
 40
0.0
 40
0.0
 40
0.0
 40
0.0
 40
0.2347910824
 40
0.4888116092
 40
0.7488111877
 40
1.0
 40
1.0
 40
1.0
 40
1.0
 10
-12.2646226006
 20
21.4843309033
 30
0.0
 10
-12.2597074394
 20
21.53218768
 30
0.0
 10
-12.2342939796
 20
21.6304663411
 30
0.0
 10
-12.1622706909
 20
21.7671964586
 30
0.0
 10
-12.0614215017
 20
21.8886515258
 30
0.0
 10
-11.9782250758
 20
21.9540310483
 30
0.0
 10
-11.9341094161
 20
21.9805415231
 30
0.0
  0
SPLINE
  5
375
100
AcDbEntity
  8
RACCORDO
100
AcDbSpline
 62
250
  6
CONTINUOUS
 70
0
 71
3
 72
11
 73
7
 74
0
 42
0.0000001
 43
0.0000001
 44
0.0000000001
 40
0.0
 40
0.0
 40
0.0
 40
0.0
 40
0.2676278718
 40
0.5220816306
 40
0.7646352678
 40
1.0
 40
1.0
 40
1.0
 40
1.0
 10
-13.8272131994
 20
21.5043024008
 30
0.0
 10
-13.8458589352
 20
21.5404298242
 30
0.0
 10
-13.8743621919
 20
21.6154180353
 30
0.0
 10
-13.8869777781
 20
21.7322730416
 30
0.0
 10
-13.8672109584
 20
21.843380081
 30
0.0
 10
-13.8324918884
 20
21.9087772989
 30
0.0
 10
-13.8108879335
 20
21.93726648
 30
0.0
  0
SPLINE
  5
376
100
AcDbEntity
  8
RACCORDO
100
AcDbSpline
 62
250
  6
CONTINUOUS
 70
0
 71
3
 72
11
 73
7
 74
0
 42
0.0000001
 43
0.0000001
 44
0.0000000001
 40
0.0
 40
0.0
 40
0.0
 40
0.0
 40
0.244259817
 40
0.5066869452
 40
0.7656088431
 40
1.0
 40
1.0
 40
1.0
 40
1.0
 10
2.6950907661
 20
12.8467798826
 30
0.0
 10
2.6987749022
 20
12.8976027927
 30
0.0
 10
2.7180184271
 20
13.002274049
 30
0.0
 10
2.7720973201
 20
13.1531902743
 30
0.0
 10
2.8476648459
 20
13.2922304809
 30
0.0
 10
2.9119696559
 20
13.373651441
 30
0.0
 10
2.946762828
 20
13.4080084226
 30
0.0
  0
SPLINE
  5
377
100
AcDbEntity
  8
RACCORDO
100
AcDbSpline
 62
250
  6
CONTINUOUS
 70
0
 71
3
 72
11
 73
7
 74
0
 42
0.0000001
 43
0.0000001
 44
0.0000000001
 40
0.0
 40
0.0
 40
0.0
 40
0.0
 40
0.2336090489
 40
0.4919134261
 40
0.754548347
 40
1.0
 40
1.0
 40
1.0
 40
1.0
 10
-5.0383673008
 20
17.3811916326
 30
0.0
 10
-5.083560498
 20
17.3549150941
 30
0.0
 10
-5.1699224226
 20
17.2842433224
 30
0.0
 10
-5.2744272698
 20
17.1502564058
 30
0.0
 10
-5.3516660319
 20
16.9959322031
 30
0.0
 10
-5.380660035
 20
16.8846807626
 30
0.0
 10
-5.3870410843
 20
16.8301255704
 30
0.0
  0
SPLINE
  5
378
100
AcDbEntity
  8
RACCORDO
100
AcDbSpline
 62
250
  6
CONTINUOUS
 70
0
 71
3
 72
10
 73
6
 74
0
 42
0.0000001
 43
0.0000001
 44
0.0000000001
 40
0.0
 40
0.0
 40
0.0
 40
0.0
 40
0.2216987328
 40
0.4754742343
 40
1.0
 40
1.0
 40
1.0
 40
1.0
 10
4.7184579597
 20
10.7962642829
 30
0.0
 10
4.7568064583
 20
10.805693693
 30
0.0
 10
4.8379478498
 20
10.8304340552
 30
0.0
 10
5.0043729254
 20
10.8940492296
 30
0.0
 10
5.1296538191
 20
10.9544984445
 30
0.0
 10
5.2109163117
 20
11.0006079951
 30
0.0
  0
SPLINE
  5
379
100
AcDbEntity
  8
ASSI
100
AcDbSpline
 62
250
  6
CONTINUOUS
 70
0
 71
3
 72
9
 73
5
 74
0
 42
0.0000001
 43
0.0000001
 44
0.0000000001
 40
0.0
 40
0.0
 40
0.0
 40
0.0
 40
0.2551570158
 40
1.0
 40
1.0
 40
1.0
 40
1.0
 10
0.7863226325
 20
13.6766276521
 30
0.0
 10
0.2487430869
 20
13.9191003325
 30
0.0
 10
-1.8468343907
 20
14.8940881533
 30
0.0
 10
-3.896175876
 20
15.9693350703
 30
0.0
 10
-5.3870404791
 20
16.8301251876
 30
0.0
  0
SPLINE
  5
37A
100
AcDbEntity
  8
ASSI
100
AcDbSpline
 62
250
  6
CONTINUOUS
 70
0
 71
3
 72
11
 73
7
 74
0
 42
0.0000001
 43
0.0000001
 44
0.0000000001
 40
0.0
 40
0.0
 40
0.0
 40
0.0
 40
0.256653405
 40
0.4504613797
 40
0.6412090228
 40
1.0
 40
1.0
 40
1.0
 40
1.0
 10
4.7184579132
 20
10.7962642477
 30
0.0
 10
4.613903763
 20
11.0249390699
 30
0.0
 10
4.3938594908
 20
11.4106071884
 30
0.0
 10
4.0037547432
 20
11.905227236
 30
0.0
 10
3.4814534714
 20
12.4141908762
 30
0.0
 10
3.0192990268
 20
12.710961911
 30
0.0
 10
2.6950907627
 20
12.8467798804
 30
0.0
  0
SPLINE
  5
37B
100
AcDbEntity
  8
ASSI
100
AcDbSpline
 62
250
  6
CONTINUOUS
 70
0
 71
3
 72
9
 73
5
 74
0
 42
0.0000001
 43
0.0000001
 44
0.0000000001
 40
0.0
 40
0.0
 40
0.0
 40
0.0
 40
0.4948363897
 40
1.0
 40
1.0
 40
1.0
 40
1.0
 10
7.1833618193
 20
4.637007784
 30
0.0
 10
7.0367063317
 20
5.0955005981
 30
0.0
 10
6.7194450473
 20
6.0154291992
 30
0.0
 10
6.370951543
 20
6.9238196002
 30
0.0
 10
6.1889471408
 20
7.3802962627
 30
0.0
  0
SPLINE
  5
37C
100
AcDbEntity
  8
ASSI
100
AcDbSpline
 62
7
  6
CONTINUOUS
 70
0
 71
3
 72
9
 73
5
 74
0
 42
0.0000001
 43
0.0000001
 44
0.0000000001
 40
0.0
 40
0.0
 40
0.0
 40
0.0
 40
0.2540792544
 40
1.0
 40
1.0
 40
1.0
 40
1.0
 10
-1.0361757976
 20
7.8013905247
 30
0.0
 10
-1.4511834794
 20
7.9859048066
 30
0.0
 10
-3.0784651746
 20
8.7257159816
 30
0.0
 10
-4.6808511585
 20
9.5205468177
 30
0.0
 10
-5.8584153955
 20
10.1460085837
 30
0.0
  0
SPLINE
  5
37D
100
AcDbEntity
  8
ASSI
100
AcDbSpline
 62
7
  6
CONTINUOUS
 70
0
 71
3
 72
9
 73
5
 74
0
 42
0.0000001
 43
0.0000001
 44
0.0000000001
 40
0.0
 40
0.0
 40
0.0
 40
0.0
 40
0.2550277417
 40
1.0
 40
1.0
 40
1.0
 40
1.0
 10
-5.3870411185
 20
16.8301255548
 30
0.0
 10
-5.4531976656
 20
16.2642392286
 30
0.0
 10
-5.6878599138
 20
14.0425349723
 30
0.0
 10
-5.821994735
 20
11.8099024073
 30
0.0
 10
-5.8584153955
 20
10.1460085837
 30
0.0
  0
SPLINE
  5
37E
100
AcDbEntity
  8
ASSI
100
AcDbSpline
 62
250
  6
CONTINUOUS
 70
0
 71
3
 72
9
 73
5
 74
0
 42
0.0000001
 43
0.0000001
 44
0.0000000001
 40
0.0
 40
0.0
 40
0.0
 40
0.0
 40
0.2476285348
 40
1.0
 40
1.0
 40
1.0
 40
1.0
 10
8.3270392465
 20
-1.3978218219
 30
0.0
 10
8.3222631162
 20
-1.2444935131
 30
0.0
 10
8.2946560176
 20
-0.6255837121
 30
0.0
 10
8.234066355
 20
-0.0082274025
 30
0.0
 10
8.171668766
 20
0.4536613415
 30
0.0
  0
SPLINE
  5
37F
100
AcDbEntity
  8
ASSI
100
AcDbSpline
 62
250
  6
CONTINUOUS
 70
0
 71
3
 72
9
 73
5
 74
0
 42
0.0000001
 43
0.0000001
 44
0.0000000001
 40
0.0
 40
0.0
 40
0.0
 40
0.0
 40
0.2477941476
 40
1.0
 40
1.0
 40
1.0
 40
1.0
 10
8.1673650434
 20
0.4853211272
 30
0.0
 10
8.1491881296
 20
0.6182123986
 30
0.0
 10
8.0702436277
 20
1.1537366765
 30
0.0
 10
7.9695260245
 20
1.6859977484
 30
0.0
 10
7.8829890585
 20
2.0838572571
 30
0.0
  0
SPLINE
  5
380
100
AcDbEntity
  8
ASSI
100
AcDbSpline
 62
250
  6
CONTINUOUS
 70
0
 71
3
 72
15
 73
11
 74
0
 42
0.0000001
 43
0.0000001
 44
0.0000000001
 40
0.0
 40
0.0
 40
0.0
 40
0.0
 40
0.1429572818
 40
0.2769409404
 40
0.402325831
 40
0.5208149803
 40
0.6355742556
 40
0.7508888413
 40
0.8712137141
 40
1.0
 40
1.0
 40
1.0
 40
1.0
 10
7.4530467907
 20
-1.916360673
 30
0.0
 10
7.5080619476
 20
-1.9354551316
 30
0.0
 10
7.6178232593
 20
-1.9641780757
 30
0.0
 10
7.782277513
 20
-1.9762645634
 30
0.0
 10
7.9360705661
 20
-1.95506871
 30
0.0
 10
8.0732262937
 20
-1.9001401949
 30
0.0
 10
8.1872351724
 20
-1.8122683957
 30
0.0
 10
8.2714545105
 20
-1.6944876714
 30
0.0
 10
8.3208519369
 20
-1.5525847744
 30
0.0
 10
8.3286674261
 20
-1.450258479
 30
0.0
 10
8.3270392465
 20
-1.3978218219
 30
0.0
  0
SPLINE
  5
381
100
AcDbEntity
  8
ASSI
100
AcDbSpline
 62
250
  6
CONTINUOUS
 70
0
 71
3
 72
9
 73
5
 74
0
 42
0.0000001
 43
0.0000001
 44
0.0000000001
 40
0.0
 40
0.0
 40
0.0
 40
0.0
 40
0.4866692657
 40
1.0
 40
1.0
 40
1.0
 40
1.0
 10
-5.386868719
 20
3.863610328
 30
0.0
 10
-3.4048111248
 20
2.7231373139
 30
0.0
 10
0.7962695926
 20
0.5987068155
 30
0.0
 10
5.1744117751
 20
-1.1253491225
 30
0.0
 10
7.4530467907
 20
-1.916360673
 30
0.0
  0
SPLINE
  5
382
100
AcDbEntity
  8
ASSI
100
AcDbSpline
 62
250
  6
CONTINUOUS
 70
0
 71
3
 72
9
 73
5
 74
0
 42
0.0000001
 43
0.0000001
 44
0.0000000001
 40
0.0
 40
0.0
 40
0.0
 40
0.0
 40
0.2557915051
 40
1.0
 40
1.0
 40
1.0
 40
1.0
 10
1.8505287915
 20
13.9281880073
 30
0.0
 10
1.2482801919
 20
14.1912875564
 30
0.0
 10
-1.0929298018
 20
15.2497301591
 30
0.0
 10
-3.3798160191
 20
16.4296839517
 30
0.0
 10
-5.0383673008
 20
17.3811916326
 30
0.0
  0
SPLINE
  5
383
100
AcDbEntity
  8
ASSI
100
AcDbSpline
 62
250
  6
CONTINUOUS
 70
0
 71
3
 72
9
 73
5
 74
0
 42
0.0000001
 43
0.0000001
 44
0.0000000001
 40
0.0
 40
0.0
 40
0.0
 40
0.0
 40
0.256317859
 40
1.0
 40
1.0
 40
1.0
 40
1.0
 10
-5.0383673008
 20
17.3811916326
 30
0.0
 10
-5.5427176182
 20
17.674269844
 30
0.0
 10
-7.4944742372
 20
18.8447143035
 30
0.0
 10
-9.3809847895
 20
20.1251124208
 30
0.0
 10
-10.73368267
 20
21.1422675539
 30
0.0
  0
SPLINE
  5
384
100
AcDbEntity
  8
ASSI
100
AcDbSpline
 62
250
  6
CONTINUOUS
 70
0
 71
3
 72
9
 73
5
 74
0
 42
0.0000001
 43
0.0000001
 44
0.0000000001
 40
0.0
 40
0.0
 40
0.0
 40
0.0
 40
0.5063753239
 40
1.0
 40
1.0
 40
1.0
 40
1.0
 10
-12.901008101
 20
22.4334716445
 30
0.0
 10
-12.9893200242
 20
22.4340639847
 30
0.0
 10
-13.1648557777
 20
22.4141492923
 30
0.0
 10
-13.3284811542
 20
22.3467398603
 30
0.0
 10
-13.4028615125
 20
22.3033915575
 30
0.0
  0
SPLINE
  5
385
100
AcDbEntity
  8
ASSI
100
AcDbSpline
 62
7
  6
CONTINUOUS
 70
0
 71
3
 72
9
 73
5
 74
0
 42
0.0000001
 43
0.0000001
 44
0.0000000001
 40
0.0
 40
0.0
 40
0.0
 40
0.0
 40
0.2559402587
 40
1.0
 40
1.0
 40
1.0
 40
1.0
 10
-5.8584153955
 20
10.1460085837
 30
0.0
 10
-5.8481177612
 20
9.6229963823
 30
0.0
 10
-5.7814720261
 20
7.5801658475
 30
0.0
 10
-5.6071371617
 20
5.5404007094
 30
0.0
 10
-5.4093228652
 20
4.0325451251
 30
0.0
  0
SPLINE
  5
386
100
AcDbEntity
  8
ASSI
100
AcDbSpline
 62
250
  6
CONTINUOUS
 70
0
 71
3
 72
11
 73
7
 74
0
 42
0.0000001
 43
0.0000001
 44
0.0000000001
 40
0.0
 40
0.0
 40
0.0
 40
0.0
 40
0.2421078624
 40
0.4867772985
 40
0.7380313195
 40
1.0
 40
1.0
 40
1.0
 40
1.0
 10
-13.8272132941
 20
21.5043023709
 30
0.0
 10
-14.0292781987
 20
21.2368733246
 30
0.0
 10
-14.4034176521
 20
20.6740633859
 30
0.0
 10
-14.8660352816
 20
19.7606626341
 30
0.0
 10
-15.2363753075
 20
18.7770083159
 30
0.0
 10
-15.4232028078
 20
18.0904633893
 30
0.0
 10
-15.5054165865
 20
17.7372240784
 30
0.0
  0
SPLINE
  5
387
100
AcDbEntity
  8
ASSI
100
AcDbSpline
 62
250
  6
CONTINUOUS
 70
0
 71
3
 72
9
 73
5
 74
0
 42
0.0000001
 43
0.0000001
 44
0.0000000001
 40
0.0
 40
0.0
 40
0.0
 40
0.0
 40
0.2569139716
 40
1.0
 40
1.0
 40
1.0
 40
1.0
 10
-12.2646226187
 20
21.4843308976
 30
0.0
 10
-12.2810531231
 20
21.4974067313
 30
0.0
 10
-12.3456436079
 20
21.5474923199
 30
0.0
 10
-12.4128327994
 20
21.5942609221
 30
0.0
 10
-12.4642030814
 20
21.6266624742
 30
0.0
  0
SPLINE
  5
388
100
AcDbEntity
  8
ASSI
100
AcDbSpline
 62
250
  6
CONTINUOUS
 70
0
 71
3
 72
15
 73
11
 74
0
 42
0.0000001
 43
0.0000001
 44
0.0000000001
 40
0.0
 40
0.0
 40
0.0
 40
0.0
 40
0.1488877668
 40
0.2863230278
 40
0.4136275135
 40
0.5329941441
 40
0.647525056
 40
0.760973701
 40
0.8772872122
 40
1.0
 40
1.0
 40
1.0
 40
1.0
 10
-12.4642030814
 20
21.6266624742
 30
0.0
 10
-12.5280748052
 20
21.6669492491
 30
0.0
 10
-12.6554699629
 20
21.7376043276
 30
0.0
 10
-12.8518712984
 20
21.8134687732
 30
0.0
 10
-13.0435216166
 20
21.8536426341
 30
0.0
 10
-13.2279176982
 20
21.8570314886
 30
0.0
 10
-13.4022074801
 20
21.8229976132
 30
0.0
 10
-13.5632522374
 20
21.7517666885
 30
0.0
 10
-13.7080740461
 20
21.6447444477
 30
0.0
 10
-13.7896889664
 20
21.5539583423
 30
0.0
 10
-13.8272132941
 20
21.5043023709
 30
0.0
  0
SPLINE
  5
389
100
AcDbEntity
  8
ASSI
100
AcDbSpline
 62
250
  6
CONTINUOUS
 70
0
 71
3
 72
9
 73
5
 74
0
 42
0.0000001
 43
0.0000001
 44
0.0000000001
 40
0.0
 40
0.0
 40
0.0
 40
0.0
 40
0.5102078535
 40
1.0
 40
1.0
 40
1.0
 40
1.0
 10
-5.3870404826
 20
16.830125189
 30
0.0
 10
-6.610961341
 20
17.5368152755
 30
0.0
 10
-8.9641303068
 20
19.003041492
 30
0.0
 10
-11.2030563438
 20
20.6394528001
 30
0.0
 10
-12.2646226187
 20
21.4843308976
 30
0.0
  0
SPLINE
  5
38A
100
AcDbEntity
  8
ASSI
100
AcDbSpline
 62
7
  6
CONTINUOUS
 70
0
 71
3
 72
9
 73
5
 74
0
 42
0.0000001
 43
0.0000001
 44
0.0000000001
 40
0.0
 40
0.0
 40
0.0
 40
0.0
 40
0.2470963662
 40
1.0
 40
1.0
 40
1.0
 40
1.0
 10
-8.8970236902
 20
12.1775706986
 30
0.0
 10
-8.6518752734
 20
12.0027706706
 30
0.0
 10
-7.6543385438
 20
11.3029786645
 30
0.0
 10
-6.6356192365
 20
10.6334467265
 30
0.0
 10
-5.8584153955
 20
10.1460085837
 30
0.0
  0
SPLINE
  5
38B
100
AcDbEntity
  8
ASSI
100
AcDbSpline
 62
250
  6
CONTINUOUS
 70
0
 71
3
 72
11
 73
7
 74
0
 42
0.0000001
 43
0.0000001
 44
0.0000000001
 40
0.0
 40
0.0
 40
0.0
 40
0.0
 40
0.2273053145
 40
0.4692978774
 40
0.7268233235
 40
1.0
 40
1.0
 40
1.0
 40
1.0
 10
-15.5047116743
 20
17.7365175148
 30
0.0
 10
-15.5892576031
 20
17.3581214841
 30
0.0
 10
-15.733592436
 20
16.5699673129
 30
0.0
 10
-15.8815457884
 20
15.3384765484
 30
0.0
 10
-15.9738409113
 20
14.0232540975
 30
0.0
 10
-16.0008250167
 20
13.1181734611
 30
0.0
 10
-16.0068151159
 20
12.6522407121
 30
0.0
  0
SPLINE
  5
38C
100
AcDbEntity
  8
ASSI
100
AcDbSpline
 62
250
  6
CONTINUOUS
 70
0
 71
3
 72
10
 73
6
 74
0
 42
0.0000001
 43
0.0000001
 44
0.0000000001
 40
0.0
 40
0.0
 40
0.0
 40
0.0
 40
0.4832745624
 40
0.7375211513
 40
1.0
 40
1.0
 40
1.0
 40
1.0
 10
-15.4848981797
 20
11.327721273
 30
0.0
 10
-14.0206145756
 20
9.9263204772
 30
0.0
 10
-11.6340103557
 20
7.9415993126
 30
0.0
 10
-8.1870745255
 20
5.5506632502
 30
0.0
 10
-6.3393755396
 20
4.4154675277
 30
0.0
 10
-5.386868719
 20
3.863610328
 30
0.0
  0
SPLINE
  5
38D
100
AcDbEntity
  8
ASSI
100
AcDbSpline
 62
250
  6
CONTINUOUS
 70
0
 71
3
 72
13
 73
9
 74
0
 42
0.0000001
 43
0.0000001
 44
0.0000000001
 40
0.0
 40
0.0
 40
0.0
 40
0.0
 40
0.1166643143
 40
0.2446389533
 40
0.5157152493
 40
0.7771628408
 40
0.8948730545
 40
1.0
 40
1.0
 40
1.0
 40
1.0
 10
-16.0068151159
 20
12.6522407121
 30
0.0
 10
-16.0075389581
 20
12.5956920504
 30
0.0
 10
-16.0008093033
 20
12.4769552982
 30
0.0
 10
-15.9607176393
 20
12.2298810422
 30
0.0
 10
-15.866956786
 20
11.9220974995
 30
0.0
 10
-15.727562546
 20
11.637370824
 30
0.0
 10
-15.5936451983
 20
11.4440993082
 30
0.0
 10
-15.521712528
 20
11.3629587415
 30
0.0
 10
-15.4848981797
 20
11.327721273
 30
0.0
  0
SPLINE
  5
38E
100
AcDbEntity
  8
ASSI
100
AcDbSpline
 62
250
  6
CONTINUOUS
 70
0
 71
3
 72
9
 73
5
 74
0
 42
0.0000001
 43
0.0000001
 44
0.0000000001
 40
0.0
 40
0.0
 40
0.0
 40
0.0
 40
0.4840494502
 40
1.0
 40
1.0
 40
1.0
 40
1.0
 10
-15.562026557
 20
17.9918056259
 30
0.0
 10
-15.5704121859
 20
17.9497201107
 30
0.0
 10
-15.5683779384
 20
17.8580725834
 30
0.0
 10
-15.5307240237
 20
17.7753255197
 30
0.0
 10
-15.5054145253
 20
17.7372247968
 30
0.0
  0
SPLINE
  5
38F
100
AcDbEntity
  8
ASSI
100
AcDbSpline
 62
250
  6
CONTINUOUS
 70
0
 71
3
 72
9
 73
5
 74
0
 42
0.0000001
 43
0.0000001
 44
0.0000000001
 40
0.0
 40
0.0
 40
0.0
 40
0.0
 40
0.5258496862
 40
1.0
 40
1.0
 40
1.0
 40
1.0
 10
-16.0068151575
 20
12.6522406981
 30
0.0
 10
-16.0273977385
 20
12.6738620048
 30
0.0
 10
-16.0613229503
 20
12.72098829
 30
0.0
 10
-16.0739981444
 20
12.7784301584
 30
0.0
 10
-16.0736034865
 20
12.8053440622
 30
0.0
  0
SPLINE
  5
390
100
AcDbEntity
  8
ASSI
100
AcDbSpline
 62
250
  6
CONTINUOUS
 70
0
 71
3
 72
9
 73
5
 74
0
 42
0.0000001
 43
0.0000001
 44
0.0000000001
 40
0.0
 40
0.0
 40
0.0
 40
0.0
 40
0.5212754009
 40
1.0
 40
1.0
 40
1.0
 40
1.0
 10
-15.4848981421
 20
11.3277212863
 30
0.0
 10
-15.4846420768
 20
11.2876000857
 30
0.0
 10
-15.4722238362
 20
11.2096320771
 30
0.0
 10
-15.4286040461
 20
11.1427395458
 30
0.0
 10
-15.4019057121
 20
11.1173447624
 30
0.0
  0
SPLINE
  5
391
100
AcDbEntity
  8
ASSI
100
AcDbSpline
 62
250
  6
CONTINUOUS
 70
0
 71
3
 72
10
 73
6
 74
0
 42
0.0000001
 43
0.0000001
 44
0.0000000001
 40
0.0
 40
0.0
 40
0.0
 40
0.0
 40
0.5360184639
 40
0.7734668318
 40
1.0
 40
1.0
 40
1.0
 40
1.0
 10
-5.3872026416
 20
3.8638025056
 30
0.0
 10
-5.3823150334
 20
3.8274083611
 30
0.0
 10
-5.367307227
 20
3.7746211753
 30
0.0
 10
-5.3262705703
 20
3.7189845828
 30
0.0
 10
-5.3009064265
 20
3.6990306654
 30
0.0
 10
-5.2874813092
 20
3.6912456133
 30
0.0
  0
SPLINE
  5
392
100
AcDbEntity
  8
ASSI
100
AcDbSpline
 62
250
  6
CONTINUOUS
 70
0
 71
3
 72
13
 73
9
 74
0
 42
0.0000001
 43
0.0000001
 44
0.0000000001
 40
0.0
 40
0.0
 40
0.0
 40
0.0
 40
0.1678833396
 40
0.3233599581
 40
0.5312753561
 40
0.7094717535
 40
0.8623672421
 40
1.0
 40
1.0
 40
1.0
 40
1.0
 10
7.4530468217
 20
-1.9163606432
 30
0.0
 10
7.453085194
 20
-1.9306463031
 30
0.0
 10
7.4540850313
 20
-1.9581760966
 30
0.0
 10
7.4593205573
 20
-2.0031207596
 30
0.0
 10
7.4698898594
 20
-2.0481847253
 30
0.0
 10
7.4886161989
 20
-2.0904449033
 30
0.0
 10
7.5138924447
 20
-2.1220580335
 30
0.0
 10
7.5356897168
 20
-2.1351475106
 30
0.0
 10
7.5467403563
 20
-2.1390262798
 30
0.0
  0
SPLINE
  5
393
100
AcDbEntity
  8
ASSI
100
AcDbSpline
 62
250
  6
CONTINUOUS
 70
0
 71
3
 72
9
 73
5
 74
0
 42
0.0000001
 43
0.0000001
 44
0.0000000001
 40
0.0
 40
0.0
 40
0.0
 40
0.0
 40
0.4879615979
 40
1.0
 40
1.0
 40
1.0
 40
1.0
 10
8.3270392314
 20
-1.3978218372
 30
0.0
 10
8.3754326325
 20
-1.4125600139
 30
0.0
 10
8.4781692355
 20
-1.4315086156
 30
0.0
 10
8.5824436641
 20
-1.4314876019
 30
0.0
 10
8.6353136665
 20
-1.4267260843
 30
0.0
  0
SPLINE
  5
394
100
AcDbEntity
  8
ASSI
100
AcDbSpline
 62
250
  6
CONTINUOUS
 70
0
 71
3
 72
9
 73
5
 74
0
 42
0.0000001
 43
0.0000001
 44
0.0000000001
 40
0.0
 40
0.0
 40
0.0
 40
0.0
 40
0.5208604817
 40
1.0
 40
1.0
 40
1.0
 40
1.0
 10
7.6206093099
 20
4.7334645579
 30
0.0
 10
7.5492274977
 20
4.701036519
 30
0.0
 10
7.405403486
 20
4.6534612092
 30
0.0
 10
7.2542175021
 20
4.6346681554
 30
0.0
 10
7.1821472343
 20
4.6374095775
 30
0.0
  0
SPLINE
  5
395
100
AcDbEntity
  8
ASSI
100
AcDbSpline
 62
250
  6
CONTINUOUS
 70
0
 71
3
 72
11
 73
7
 74
0
 42
0.0000001
 43
0.0000001
 44
0.0000000001
 40
0.0
 40
0.0
 40
0.0
 40
0.0
 40
0.2347910824
 40
0.4888116092
 40
0.7488111877
 40
1.0
 40
1.0
 40
1.0
 40
1.0
 10
-12.2646226006
 20
21.4843309033
 30
0.0
 10
-12.2597074394
 20
21.53218768
 30
0.0
 10
-12.2342939796
 20
21.6304663411
 30
0.0
 10
-12.1622706909
 20
21.7671964586
 30
0.0
 10
-12.0614215017
 20
21.8886515258
 30
0.0
 10
-11.9782250758
 20
21.9540310483
 30
0.0
 10
-11.9341094161
 20
21.9805415231
 30
0.0
  0
SPLINE
  5
396
100
AcDbEntity
  8
ASSI
100
AcDbSpline
 62
250
  6
CONTINUOUS
 70
0
 71
3
 72
11
 73
7
 74
0
 42
0.0000001
 43
0.0000001
 44
0.0000000001
 40
0.0
 40
0.0
 40
0.0
 40
0.0
 40
0.2676278718
 40
0.5220816306
 40
0.7646352678
 40
1.0
 40
1.0
 40
1.0
 40
1.0
 10
-13.8272131994
 20
21.5043024008
 30
0.0
 10
-13.8458589352
 20
21.5404298242
 30
0.0
 10
-13.8743621919
 20
21.6154180353
 30
0.0
 10
-13.8869777781
 20
21.7322730416
 30
0.0
 10
-13.8672109584
 20
21.843380081
 30
0.0
 10
-13.8324918884
 20
21.9087772989
 30
0.0
 10
-13.8108879335
 20
21.93726648
 30
0.0
  0
SPLINE
  5
397
100
AcDbEntity
  8
ASSI
100
AcDbSpline
 62
250
  6
CONTINUOUS
 70
0
 71
3
 72
11
 73
7
 74
0
 42
0.0000001
 43
0.0000001
 44
0.0000000001
 40
0.0
 40
0.0
 40
0.0
 40
0.0
 40
0.244259817
 40
0.5066869452
 40
0.7656088431
 40
1.0
 40
1.0
 40
1.0
 40
1.0
 10
2.6950907661
 20
12.8467798826
 30
0.0
 10
2.6987749022
 20
12.8976027927
 30
0.0
 10
2.7180184271
 20
13.002274049
 30
0.0
 10
2.7720973201
 20
13.1531902743
 30
0.0
 10
2.8476648459
 20
13.2922304809
 30
0.0
 10
2.9119696559
 20
13.373651441
 30
0.0
 10
2.946762828
 20
13.4080084226
 30
0.0
  0
SPLINE
  5
398
100
AcDbEntity
  8
ASSI
100
AcDbSpline
 62
250
  6
CONTINUOUS
 70
0
 71
3
 72
11
 73
7
 74
0
 42
0.0000001
 43
0.0000001
 44
0.0000000001
 40
0.0
 40
0.0
 40
0.0
 40
0.0
 40
0.2336090489
 40
0.4919134261
 40
0.754548347
 40
1.0
 40
1.0
 40
1.0
 40
1.0
 10
-5.0383673008
 20
17.3811916326
 30
0.0
 10
-5.083560498
 20
17.3549150941
 30
0.0
 10
-5.1699224226
 20
17.2842433224
 30
0.0
 10
-5.2744272698
 20
17.1502564058
 30
0.0
 10
-5.3516660319
 20
16.9959322031
 30
0.0
 10
-5.380660035
 20
16.8846807626
 30
0.0
 10
-5.3870410843
 20
16.8301255704
 30
0.0
  0
SPLINE
  5
399
100
AcDbEntity
  8
ASSI
100
AcDbSpline
 62
250
  6
CONTINUOUS
 70
0
 71
3
 72
10
 73
6
 74
0
 42
0.0000001
 43
0.0000001
 44
0.0000000001
 40
0.0
 40
0.0
 40
0.0
 40
0.0
 40
0.2216987328
 40
0.4754742343
 40
1.0
 40
1.0
 40
1.0
 40
1.0
 10
4.7184579597
 20
10.7962642829
 30
0.0
 10
4.7568064583
 20
10.805693693
 30
0.0
 10
4.8379478498
 20
10.8304340552
 30
0.0
 10
5.0043729254
 20
10.8940492296
 30
0.0
 10
5.1296538191
 20
10.9544984445
 30
0.0
 10
5.2109163117
 20
11.0006079951
 30
0.0
  0
SPLINE
  5
39A
100
AcDbEntity
  8
ASSI
100
AcDbSpline
 62
7
  6
CONTINUOUS
 70
0
 71
3
 72
13
 73
9
 74
0
 42
0.0000001
 43
0.0000001
 44
0.0000000001
 40
0.0
 40
0.0
 40
0.0
 40
0.0
 40
0.1040166778
 40
0.209811098
 40
0.4368040257
 40
0.5627691078
 40
0.6984098838
 40
1.0
 40
1.0
 40
1.0
 40
1.0
 10
-13.5574704485
 20
22.3268478803
 30
0.0
 10
-13.5076956849
 20
22.3555864617
 30
0.0
 10
-13.4012600533
 20
22.4037743441
 30
0.0
 10
-13.1649128041
 20
22.4588361486
 30
0.0
 10
-12.9063430843
 20
22.4448799772
 30
0.0
 10
-12.6452553254
 20
22.3748981291
 30
0.0
 10
-12.3559976181
 20
22.2582119461
 30
0.0
 10
-12.1479123789
 20
22.1318853794
 30
0.0
 10
-12.0121713989
 20
22.0352130949
 30
0.0
  0
SPLINE
  5
39B
100
AcDbEntity
  8
0
100
AcDbSpline
 62
7
  6
CONTINUOUS
 70
0
 71
3
 72
11
 73
7
 74
0
 42
0.0000001
 43
0.0000001
 44
0.0000000001
 40
0.0
 40
0.0
 40
0.0
 40
0.0
 40
0.2517594073
 40
0.5142117408
 40
0.7691387172
 40
1.0
 40
1.0
 40
1.0
 40
1.0
 10
14.1674213507
 20
-31.1664044563
 30
0.0
 10
14.3052814111
 20
-31.2116983773
 30
0.0
 10
14.597968462
 20
-31.2719432366
 30
0.0
 10
15.0436004855
 20
-31.2790177439
 30
0.0
 10
15.4711406131
 20
-31.2063527146
 30
0.0
 10
15.7345272003
 20
-31.1019614984
 30
0.0
 10
15.8497627869
 20
-31.0354259149
 30
0.0
  0
SPLINE
  5
39C
100
AcDbEntity
  8
0
100
AcDbSpline
 62
7
  6
CONTINUOUS
 70
0
 71
3
 72
9
 73
5
 74
0
 42
0.0000001
 43
0.0000001
 44
0.0000000001
 40
0.0
 40
0.0
 40
0.0
 40
0.0
 40
0.4491821089
 40
1.0
 40
1.0
 40
1.0
 40
1.0
 10
14.138064174
 20
14.1766057988
 30
0.0
 10
14.138064174
 20
14.1805000804
 30
0.0
 10
14.1414645263
 20
14.189192209
 30
0.0
 10
14.1485709306
 20
14.1946316955
 30
0.0
 10
14.1527065121
 20
14.1970195284
 30
0.0
  0
SPLINE
  5
39D
100
AcDbEntity
  8
0
100
AcDbSpline
 62
7
  6
CONTINUOUS
 70
0
 71
3
 72
8
 73
4
 74
0
 42
0.0000001
 43
0.0000001
 44
0.0000000001
 40
0.0
 40
0.0
 40
0.0
 40
0.0
 40
1.0
 40
1.0
 40
1.0
 40
1.0
 10
-17.3836899815
 20
30.7439906553
 30
0.0
 10
-17.3836884139
 20
30.7482424374
 30
0.0
 10
-17.3830194565
 20
30.7525365582
 30
0.0
 10
-17.3817704122
 20
30.7566007361
 30
0.0
  0
SPLINE
  5
39E
100
AcDbEntity
  8
0
100
AcDbSpline
 62
7
  6
CONTINUOUS
 70
0
 71
3
 72
11
 73
7
 74
0
 42
0.0000001
 43
0.0000001
 44
0.0000000001
 40
0.0
 40
0.0
 40
0.0
 40
0.0
 40
0.2277123015
 40
0.4759660347
 40
0.7366269121
 40
1.0
 40
1.0
 40
1.0
 40
1.0
 10
12.3691261077
 20
-30.8629855889
 30
0.0
 10
12.2197302655
 20
-30.776726302
 30
0.0
 10
11.8876041729
 20
-30.6300391849
 30
0.0
 10
11.3450112325
 20
-30.4913275894
 30
0.0
 10
10.7613352653
 20
-30.429517713
 30
0.0
 10
10.3630484557
 20
-30.4420700745
 30
0.0
 10
10.1645614007
 20
-30.4624063781
 30
0.0
  0
SPLINE
  5
39F
100
AcDbEntity
  8
0
100
AcDbSpline
 62
7
  6
CONTINUOUS
 70
0
 71
3
 72
11
 73
7
 74
0
 42
0.0000001
 43
0.0000001
 44
0.0000000001
 40
0.0
 40
0.0
 40
0.0
 40
0.0
 40
0.2676516195
 40
0.5239773089
 40
0.7682223034
 40
1.0
 40
1.0
 40
1.0
 40
1.0
 10
10.0729562944
 20
-30.4512296543
 30
0.0
 10
7.4266094355
 20
-29.4234711986
 30
0.0
 10
2.3129084268
 20
-27.2321397736
 30
0.0
 10
-4.918581142
 20
-23.4586962174
 30
0.0
 10
-11.4900555003
 20
-19.2994073838
 30
0.0
 10
-15.4970100887
 20
-16.2116557292
 30
0.0
 10
-17.3624130059
 20
-14.6103912663
 30
0.0
  0
SPLINE
  5
3A0
100
AcDbEntity
  8
ASSI
100
AcDbSpline
 62
7
  6
CONTINUOUS
 70
0
 71
3
 72
11
 73
7
 74
0
 42
0.0000001
 43
0.0000001
 44
0.0000000001
 40
0.0
 40
0.0
 40
0.0
 40
0.0
 40
0.2757482085
 40
0.5295038438
 40
0.7675508144
 40
1.0
 40
1.0
 40
1.0
 40
1.0
 10
8.6459171018
 20
-1.6813710648
 30
0.0
 10
8.6483861254
 20
-1.7622014734
 30
0.0
 10
8.6380664149
 20
-1.9185993153
 30
0.0
 10
8.5694388567
 20
-2.1356204216
 30
0.0
 10
8.4501063717
 20
-2.3149855285
 30
0.0
 10
8.3403189806
 20
-2.4027468416
 30
0.0
 10
8.2812823037
 20
-2.4368321051
 30
0.0
  0
SPLINE
  5
3A1
100
AcDbEntity
  8
ASSI
100
AcDbSpline
 62
7
  6
CONTINUOUS
 70
0
 71
3
 72
10
 73
6
 74
0
 42
0.0000001
 43
0.0000001
 44
0.0000000001
 40
0.0
 40
0.0
 40
0.0
 40
0.0
 40
0.2651308871
 40
0.5214327081
 40
1.0
 40
1.0
 40
1.0
 40
1.0
 10
5.176742681
 20
11.0716394061
 30
0.0
 10
5.6928718855
 20
10.0158827877
 30
0.0
 10
6.6244983726
 20
7.8961166708
 30
0.0
 10
8.0267596844
 20
3.6892178906
 30
0.0
 10
8.5811537562
 20
0.4388385811
 30
0.0
 10
8.6459171018
 20
-1.6813710648
 30
0.0
  0
SPLINE
  5
3A2
100
AcDbEntity
  8
ASSI
100
AcDbSpline
 62
7
  6
CONTINUOUS
 70
0
 71
3
 72
11
 73
7
 74
0
 42
0.0000001
 43
0.0000001
 44
0.0000000001
 40
0.0
 40
0.0
 40
0.0
 40
0.0
 40
0.2334733768
 40
0.4839340697
 40
0.7426775263
 40
1.0
 40
1.0
 40
1.0
 40
1.0
 10
2.8370710061
 20
13.461446635
 30
0.0
 10
3.0767847212
 20
13.3492353368
 30
0.0
 10
3.5492196436
 20
13.0627166438
 30
0.0
 10
4.1863802482
 20
12.5071223848
 30
0.0
 10
4.7461457604
 20
11.8380457613
 30
0.0
 10
5.0486227337
 20
11.3337123154
 30
0.0
 10
5.176742681
 20
11.0716394061
 30
0.0
  0
SPLINE
  5
3A3
100
AcDbEntity
  8
ASSI
100
AcDbSpline
 62
7
  6
CONTINUOUS
 70
0
 71
3
 72
9
 73
5
 74
0
 42
0.0000001
 43
0.0000001
 44
0.0000000001
 40
0.0
 40
0.0
 40
0.0
 40
0.0
 40
0.5130025452
 40
1.0
 40
1.0
 40
1.0
 40
1.0
 10
2.8370710061
 20
13.461446635
 30
0.0
 10
0.1788106041
 20
14.7057928358
 30
0.0
 10
-4.9092422299
 20
17.3387323517
 30
0.0
 10
-9.7426070577
 20
20.4188701922
 30
0.0
 10
-12.0121713989
 20
22.0352130949
 30
0.0
  0
SPLINE
  5
3A4
100
AcDbEntity
  8
0
100
AcDbSpline
 62
7
  6
CONTINUOUS
 70
0
 71
3
 72
9
 73
5
 74
0
 42
0.0000001
 43
0.0000001
 44
0.0000000001
 40
0.0
 40
0.0
 40
0.0
 40
0.0
 40
0.253545511
 40
1.0
 40
1.0
 40
1.0
 40
1.0
 10
-17.3817704122
 20
30.7566007361
 30
0.0
 10
-17.3754231877
 20
30.7772535265
 30
0.0
 10
-17.353280813
 20
30.8595650395
 30
0.0
 10
-17.3433158071
 20
30.9451924207
 30
0.0
 10
-17.3433161757
 20
31.0088022847
 30
0.0
  0
SPLINE
  5
3A5
100
AcDbEntity
  8
0
100
AcDbSpline
 62
7
  6
CONTINUOUS
 70
0
 71
3
 72
9
 73
5
 74
0
 42
0.0000001
 43
0.0000001
 44
0.0000000001
 40
0.0
 40
0.0
 40
0.0
 40
0.0
 40
0.4492219968
 40
1.0
 40
1.0
 40
1.0
 40
1.0
 10
18.7324792335
 20
-29.3410863526
 30
0.0
 10
18.7324792335
 20
-29.3508231305
 30
0.0
 10
18.7239678051
 20
-29.3725503419
 30
0.0
 10
18.7062060084
 20
-29.3861513985
 30
0.0
 10
18.6958675812
 20
-29.3921206768
 30
0.0
  0
SPLINE
  5
3A6
100
AcDbEntity
  8
0
100
AcDbSpline
 62
7
  6
CONTINUOUS
 70
0
 71
3
 72
11
 73
7
 74
0
 42
0.0000001
 43
0.0000001
 44
0.0000000001
 40
0.0
 40
0.0
 40
0.0
 40
0.0
 40
0.2898019501
 40
0.5490403542
 40
0.7822233176
 40
1.0
 40
1.0
 40
1.0
 40
1.0
 10
-18.3742054225
 20
34.0391647641
 30
0.0
 10
-18.4356595153
 20
34.0036819412
 30
0.0
 10
-18.5471308705
 20
33.9269459076
 30
0.0
 10
-18.6802837465
 20
33.7869034762
 30
0.0
 10
-18.7645755748
 20
33.6320768578
 30
0.0
 10
-18.784255336
 20
33.5209061181
 30
0.0
 10
-18.7842546567
 20
33.4675803341
 30
0.0
  0
SPLINE
  5
3A7
100
AcDbEntity
  8
0
100
AcDbSpline
 62
7
  6
CONTINUOUS
 70
0
 71
3
 72
11
 73
7
 74
0
 42
0.0000001
 43
0.0000001
 44
0.0000000001
 40
0.0
 40
0.0
 40
0.0
 40
0.0
 40
0.2177814642
 40
0.4509426406
 40
0.7102332255
 40
1.0
 40
1.0
 40
1.0
 40
1.0
 10
-16.6392823499
 20
32.9368233622
 30
0.0
 10
-16.6392823499
 20
32.9463459656
 30
0.0
 10
-16.642798833
 20
32.9661962437
 30
0.0
 10
-16.6578465858
 20
32.9938475543
 30
0.0
 10
-16.6816273848
 20
33.0188519561
 30
0.0
 10
-16.7015319509
 20
33.0325566058
 30
0.0
 10
-16.7125044867
 20
33.0388920105
 30
0.0
  0
SPLINE
  5
3A8
100
AcDbEntity
  8
0
100
AcDbSpline
 62
7
  6
CONTINUOUS
 70
0
 71
3
 72
11
 73
7
 74
0
 42
0.0000001
 43
0.0000001
 44
0.0000000001
 40
0.0
 40
0.0
 40
0.0
 40
0.0
 40
0.217776992
 40
0.4509583864
 40
0.7102062846
 40
1.0
 40
1.0
 40
1.0
 40
1.0
 10
-18.5206520319
 20
32.4060663908
 30
0.0
 10
-18.5206520319
 20
32.4251113558
 30
0.0
 10
-18.5136231594
 20
32.4648149086
 30
0.0
 10
-18.4835195765
 20
32.5201113922
 30
0.0
 10
-18.4359637683
 20
32.5701256273
 30
0.0
 10
-18.3961527065
 20
32.5975316008
 30
0.0
 10
-18.3742054225
 20
32.6102036875
 30
0.0
  0
SPLINE
  5
3A9
100
AcDbEntity
  8
0
100
AcDbSpline
 62
7
  6
CONTINUOUS
 70
0
 71
3
 72
12
 73
8
 74
0
 42
0.0000001
 43
0.0000001
 44
0.0000000001
 40
0.0
 40
0.0
 40
0.0
 40
0.0
 40
0.1081717205
 40
0.2183727946
 40
0.4513768555
 40
0.710426052
 40
1.0
 40
1.0
 40
1.0
 40
1.0
 10
-16.4433182759
 20
31.008802285
 30
0.0
 10
-16.4433162556
 20
31.0731776284
 30
0.0
 10
-16.4545114349
 20
31.2034056374
 30
0.0
 10
-16.5221528789
 20
31.4644808306
 30
0.0
 10
-16.6957997214
 20
31.7845930052
 30
0.0
 10
-17.0192048214
 20
32.1243118691
 30
0.0
 10
-17.2899118824
 20
32.3107658615
 30
0.0
 10
-17.4391531555
 20
32.3969359022
 30
0.0
  0
SPLINE
  5
3AA
100
AcDbEntity
  8
0
100
AcDbSpline
 62
7
  6
CONTINUOUS
 70
0
 71
3
 72
10
 73
6
 74
0
 42
0.0000001
 43
0.0000001
 44
0.0000000001
 40
0.0
 40
0.0
 40
0.0
 40
0.0
 40
0.2333036369
 40
0.4741088844
 40
1.0
 40
1.0
 40
1.0
 40
1.0
 10
-18.7842546567
 20
-11.8465200279
 30
0.0
 10
-18.7842542112
 20
-11.8814897667
 30
0.0
 10
-18.7761149284
 20
-11.9528093425
 30
0.0
 10
-18.7268719502
 20
-12.0953520084
 30
0.0
 10
-18.656382465
 20
-12.1901555053
 30
0.0
 10
-18.6010522955
 20
-12.2462984584
 30
0.0
  0
SPLINE
  5
3AB
100
AcDbEntity
  8
0
100
AcDbSpline
 62
7
  6
CONTINUOUS
 70
0
 71
3
 72
11
 73
7
 74
0
 42
0.0000001
 43
0.0000001
 44
0.0000000001
 40
0.0
 40
0.0
 40
0.0
 40
0.0
 40
0.2278550815
 40
0.4749219948
 40
0.7348612182
 40
1.0
 40
1.0
 40
1.0
 40
1.0
 10
13.0055222107
 20
14.8185619071
 30
0.0
 10
12.8237995668
 20
14.9234862842
 30
0.0
 10
12.423418326
 20
15.1056290595
 30
0.0
 10
11.7700832623
 20
15.2898666666
 30
0.0
 10
11.0642041513
 20
15.3904257096
 30
0.0
 10
10.5792573937
 20
15.3985809093
 30
0.0
 10
10.3353334136
 20
15.3875274035
 30
0.0
  0
SPLINE
  5
3AC
100
AcDbEntity
  8
0
100
AcDbSpline
 62
7
  6
CONTINUOUS
 70
0
 71
3
 72
11
 73
7
 74
0
 42
0.0000001
 43
0.0000001
 44
0.0000000001
 40
0.0
 40
0.0
 40
0.0
 40
0.0
 40
0.2204404728
 40
0.4583239333
 40
0.7176969263
 40
1.0
 40
1.0
 40
1.0
 40
1.0
 10
-17.383465539
 20
-14.0476420534
 30
0.0
 10
-17.4066403269
 20
-13.9738783311
 30
0.0
 10
-17.4746672694
 20
-13.826302821
 30
0.0
 10
-17.627888341
 20
-13.6246163224
 30
0.0
 10
-17.830906819
 20
-13.4395952971
 30
0.0
 10
-17.9897997605
 20
-13.3341222793
 30
0.0
 10
-18.0755492586
 20
-13.2846115938
 30
0.0
  0
SPLINE
  5
3AD
100
AcDbEntity
  8
0
100
AcDbSpline
 62
7
  6
CONTINUOUS
 70
0
 71
3
 72
11
 73
7
 74
0
 42
0.0000001
 43
0.0000001
 44
0.0000000001
 40
0.0
 40
0.0
 40
0.0
 40
0.0
 40
0.2320489942
 40
0.4763760943
 40
0.7326031079
 40
1.0
 40
1.0
 40
1.0
 40
1.0
 10
-16.4537394968
 20
30.855202356
 30
0.0
 10
-14.6255755439
 20
29.2956602565
 30
0.0
 10
-10.7045486177
 20
26.2872410613
 30
0.0
 10
-4.2843413726
 20
22.2289779275
 30
0.0
 10
2.7707726289
 20
18.5417460068
 30
0.0
 10
7.75624722
 20
16.3954300847
 30
0.0
 10
10.3353334136
 20
15.3875274035
 30
0.0
  0
SPLINE
  5
3AE
100
AcDbEntity
  8
0
100
AcDbSpline
 62
7
  6
CONTINUOUS
 70
0
 71
3
 72
9
 73
5
 74
0
 42
0.0000001
 43
0.0000001
 44
0.0000000001
 40
0.0
 40
0.0
 40
0.0
 40
0.0
 40
0.5080050777
 40
1.0
 40
1.0
 40
1.0
 40
1.0
 10
-18.5206150753
 20
-12.257313962
 30
0.0
 10
-18.5310433576
 20
-12.2619147899
 30
0.0
 10
-18.5539602588
 20
-12.2652833209
 30
0.0
 10
-18.5767776598
 20
-12.2603143289
 30
0.0
 10
-18.5863374569
 20
-12.2547946218
 30
0.0
  0
SPLINE
  5
3AF
100
AcDbEntity
  8
0
100
AcDbSpline
 62
7
  6
CONTINUOUS
 70
0
 71
3
 72
9
 73
5
 74
0
 42
0.0000001
 43
0.0000001
 44
0.0000000001
 40
0.0
 40
0.0
 40
0.0
 40
0.0
 40
0.5508178911
 40
1.0
 40
1.0
 40
1.0
 40
1.0
 10
14.1527065121
 20
-31.1579082929
 30
0.0
 10
14.1485709306
 20
-31.15552046
 30
0.0
 10
14.1414645263
 20
-31.1500809735
 30
0.0
 10
14.138064174
 20
-31.1413888449
 30
0.0
 10
14.138064174
 20
-31.1374945632
 30
0.0
  0
SPLINE
  5
3B0
100
AcDbEntity
  8
ASSI
100
AcDbSpline
 62
7
  6
CONTINUOUS
 70
0
 71
3
 72
9
 73
5
 74
0
 42
0.0000001
 43
0.0000001
 44
0.0000000001
 40
0.0
 40
0.0
 40
0.0
 40
0.0
 40
0.2546956582
 40
1.0
 40
1.0
 40
1.0
 40
1.0
 10
8.400813063
 20
-2.1574708122
 30
0.0
 10
8.4128415994
 20
-2.1588986791
 30
0.0
 10
8.4601548856
 20
-2.1637387284
 30
0.0
 10
8.5078006796
 20
-2.165451412
 30
0.0
 10
8.5432398692
 20
-2.1647726828
 30
0.0
  0
SPLINE
  5
3B1
100
AcDbEntity
  8
0
100
AcDbSpline
 62
7
  6
CONTINUOUS
 70
0
 71
3
 72
9
 73
5
 74
0
 42
0.0000001
 43
0.0000001
 44
0.0000000001
 40
0.0
 40
0.0
 40
0.0
 40
0.0
 40
0.5338743508
 40
1.0
 40
1.0
 40
1.0
 40
1.0
 10
-17.3624130059
 20
-14.6103912663
 30
0.0
 10
-17.3687133549
 20
-14.604983038
 30
0.0
 10
-17.3793061522
 20
-14.5930453916
 30
0.0
 10
-17.3836926544
 20
-14.5773592399
 30
0.0
 10
-17.3836899815
 20
-14.5701097067
 30
0.0
  0
SPLINE
  5
3B2
100
AcDbEntity
  8
0
100
AcDbSpline
 62
7
  6
CONTINUOUS
 70
0
 71
3
 72
9
 73
5
 74
0
 42
0.0000001
 43
0.0000001
 44
0.0000000001
 40
0.0
 40
0.0
 40
0.0
 40
0.0
 40
0.257705489
 40
1.0
 40
1.0
 40
1.0
 40
1.0
 10
10.1645614007
 20
-30.4624063781
 30
0.0
 10
10.156636879
 20
-30.4632182975
 30
0.0
 10
10.1257647043
 20
-30.4646080145
 30
0.0
 10
10.0943451519
 20
-30.4595364185
 30
0.0
 10
10.0729562944
 20
-30.4512296543
 30
0.0
  0
SPLINE
  5
3B3
100
AcDbEntity
  8
0
100
AcDbSpline
 62
7
  6
CONTINUOUS
 70
0
 71
3
 72
9
 73
5
 74
0
 42
0.0000001
 43
0.0000001
 44
0.0000000001
 40
0.0
 40
0.0
 40
0.0
 40
0.0
 40
0.5507780032
 40
1.0
 40
1.0
 40
1.0
 40
1.0
 10
-14.0078210487
 20
34.906748275
 30
0.0
 10
-13.9974826215
 20
34.9007789967
 30
0.0
 10
-13.9797208248
 20
34.8871779401
 30
0.0
 10
-13.9712093963
 20
34.8654507287
 30
0.0
 10
-13.9712093963
 20
34.8557139508
 30
0.0
  0
SPLINE
  5
3B4
100
AcDbEntity
  8
0
100
AcDbSpline
 62
7
  6
CONTINUOUS
 70
0
 71
3
 72
11
 73
7
 74
0
 42
0.0000001
 43
0.0000001
 44
0.0000000001
 40
0.0
 40
0.0
 40
0.0
 40
0.0
 40
0.2372383085
 40
0.5
 40
0.7627616915
 40
1.0
 40
1.0
 40
1.0
 40
1.0
 10
-15.5281006282
 20
35.6824700023
 30
0.0
 10
-15.5155522126
 20
35.6897153002
 30
0.0
 10
-15.4863706456
 20
35.7002884375
 30
0.0
 10
-15.4397122806
 20
35.7053542033
 30
0.0
 10
-15.3930539155
 20
35.7002884375
 30
0.0
 10
-15.3638723486
 20
35.6897153002
 30
0.0
 10
-15.3513239329
 20
35.6824700023
 30
0.0
  0
SPLINE
  5
3B5
100
AcDbEntity
  8
0
100
AcDbSpline
 62
7
  6
CONTINUOUS
 70
0
 71
3
 72
9
 73
5
 74
0
 42
0.0000001
 43
0.0000001
 44
0.0000000001
 40
0.0
 40
0.0
 40
0.0
 40
0.0
 40
0.5507780032
 40
1.0
 40
1.0
 40
1.0
 40
1.0
 10
18.6958675812
 20
16.0240483336
 30
0.0
 10
18.7062060084
 20
16.0180790553
 30
0.0
 10
18.7239678051
 20
16.0044779987
 30
0.0
 10
18.7324792335
 20
15.9827507873
 30
0.0
 10
18.7324792335
 20
15.9730140094
 30
0.0
  0
SPLINE
  5
3B6
100
AcDbEntity
  8
0
100
AcDbSpline
 62
7
  6
CONTINUOUS
 70
0
 71
3
 72
11
 73
7
 74
0
 42
0.0000001
 43
0.0000001
 44
0.0000000001
 40
0.0
 40
0.0
 40
0.0
 40
0.0
 40
0.2372383085
 40
0.5
 40
0.7627616915
 40
1.0
 40
1.0
 40
1.0
 40
1.0
 10
17.1755880016
 20
16.7997700609
 30
0.0
 10
17.1881364173
 20
16.8070153588
 30
0.0
 10
17.2173179843
 20
16.8175884961
 30
0.0
 10
17.2639763493
 20
16.8226542619
 30
0.0
 10
17.3106347143
 20
16.8175884961
 30
0.0
 10
17.3398162813
 20
16.8070153588
 30
0.0
 10
17.3523646969
 20
16.7997700609
 30
0.0
  0
SPLINE
  5
3B7
100
AcDbEntity
  8
0
100
AcDbSpline
 62
7
  6
CONTINUOUS
 70
0
 71
3
 72
11
 73
7
 74
0
 42
0.0000001
 43
0.0000001
 44
0.0000000001
 40
0.0
 40
0.0
 40
0.0
 40
0.0
 40
0.2372193404
 40
0.5
 40
0.7627806596
 40
1.0
 40
1.0
 40
1.0
 40
1.0
 10
13.3748890528
 20
-31.0354259149
 30
0.0
 10
13.3246993901
 20
-31.0644047971
 30
0.0
 10
13.2079740774
 20
-31.1066993075
 30
0.0
 10
13.0213356622
 20
-31.1269634061
 30
0.0
 10
12.8346972469
 20
-31.1066993075
 30
0.0
 10
12.7179719343
 20
-31.0644047971
 30
0.0
 10
12.6677822716
 20
-31.0354259149
 30
0.0
  0
SPLINE
  5
3B8
100
AcDbEntity
  8
0
100
AcDbSpline
 62
7
  6
CONTINUOUS
 70
0
 71
3
 72
11
 73
7
 74
0
 42
0.0000001
 43
0.0000001
 44
0.0000000001
 40
0.0
 40
0.0
 40
0.0
 40
0.0
 40
0.2897937154
 40
0.5490416136
 40
0.782223008
 40
1.0
 40
1.0
 40
1.0
 40
1.0
 10
-18.3742054225
 20
-13.1121712678
 30
0.0
 10
-18.3961527065
 20
-13.0994991811
 30
0.0
 10
-18.4359637683
 20
-13.0720932077
 30
0.0
 10
-18.4835195765
 20
-13.0220789725
 30
0.0
 10
-18.5136231594
 20
-12.9667824889
 30
0.0
 10
-18.5206520319
 20
-12.9270789361
 30
0.0
 10
-18.5206520319
 20
-12.9080339712
 30
0.0
  0
SPLINE
  5
3B9
100
AcDbEntity
  8
0
100
AcDbSpline
 62
7
  6
CONTINUOUS
 70
0
 71
3
 72
11
 73
7
 74
0
 42
0.0000001
 43
0.0000001
 44
0.0000000001
 40
0.0
 40
0.0
 40
0.0
 40
0.0
 40
0.2372259409
 40
0.5
 40
0.7627740591
 40
1.0
 40
1.0
 40
1.0
 40
1.0
 10
13.7637977824
 20
15.2381197414
 30
0.0
 10
13.788893303
 20
15.2526095805
 30
0.0
 10
13.8472560268
 20
15.2737570005
 30
0.0
 10
13.9405744777
 20
15.2838870748
 30
0.0
 10
14.0338929287
 20
15.2737570005
 30
0.0
 10
14.0922556525
 20
15.2526095805
 30
0.0
 10
14.117351173
 20
15.2381197414
 30
0.0
  0
SPLINE
  5
3BA
100
AcDbEntity
  8
0
100
AcDbSpline
 62
7
  6
CONTINUOUS
 70
0
 71
3
 72
9
 73
5
 74
0
 42
0.0000001
 43
0.0000001
 44
0.0000000001
 40
0.0
 40
0.0
 40
0.0
 40
0.0
 40
0.5507780032
 40
1.0
 40
1.0
 40
1.0
 40
1.0
 10
16.8927452892
 20
16.6364602236
 30
0.0
 10
16.882406862
 20
16.6304909452
 30
0.0
 10
16.8646450653
 20
16.6168898887
 30
0.0
 10
16.8561336368
 20
16.5951626773
 30
0.0
 10
16.8561336368
 20
16.5854258994
 30
0.0
  0
SPLINE
  5
3BB
100
AcDbEntity
  8
0
100
AcDbSpline
 62
7
  6
CONTINUOUS
 70
0
 71
3
 72
11
 73
7
 74
0
 42
0.0000001
 43
0.0000001
 44
0.0000000001
 40
0.0
 40
0.0
 40
0.0
 40
0.0
 40
0.2517594073
 40
0.5142117408
 40
0.7691387172
 40
1.0
 40
1.0
 40
1.0
 40
1.0
 10
14.1674213507
 20
14.1476959057
 30
0.0
 10
14.3052814111
 20
14.1024019847
 30
0.0
 10
14.597968462
 20
14.0421571254
 30
0.0
 10
15.0436004855
 20
14.0350826181
 30
0.0
 10
15.4711406131
 20
14.1077476474
 30
0.0
 10
15.7345272003
 20
14.2121388636
 30
0.0
 10
15.8497627869
 20
14.2786744471
 30
0.0
  0
SPLINE
  5
3BC
100
AcDbEntity
  8
0
100
AcDbSpline
 62
7
  6
CONTINUOUS
 70
0
 71
3
 72
10
 73
6
 74
0
 42
0.0000001
 43
0.0000001
 44
0.0000000001
 40
0.0
 40
0.0
 40
0.0
 40
0.0
 40
0.2333036369
 40
0.4741088844
 40
1.0
 40
1.0
 40
1.0
 40
1.0
 10
-18.7842546567
 20
33.4675803341
 30
0.0
 10
-18.7842542112
 20
33.4326105953
 30
0.0
 10
-18.7761149284
 20
33.3612910195
 30
0.0
 10
-18.7268719502
 20
33.2187483536
 30
0.0
 10
-18.656382465
 20
33.1239448567
 30
0.0
 10
-18.6010522955
 20
33.0678019036
 30
0.0
  0
SPLINE
  5
3BD
100
AcDbEntity
  8
0
100
AcDbSpline
 62
7
  6
CONTINUOUS
 70
0
 71
3
 72
11
 73
7
 74
0
 42
0.0000001
 43
0.0000001
 44
0.0000000001
 40
0.0
 40
0.0
 40
0.0
 40
0.0
 40
0.217774499
 40
0.4509563541
 40
0.7102018643
 40
1.0
 40
1.0
 40
1.0
 40
1.0
 10
-17.3433161757
 20
31.0088022847
 30
0.0
 10
-17.3433167275
 20
31.104026008
 30
0.0
 10
-17.3784596211
 20
31.3025429197
 30
0.0
 10
-17.5289771024
 20
31.5790234959
 30
0.0
 10
-17.766754976
 20
31.8290969442
 30
0.0
 10
-17.9658111782
 20
31.9661273759
 30
0.0
 10
-18.0755492586
 20
32.0294887682
 30
0.0
  0
SPLINE
  5
3BE
100
AcDbEntity
  8
0
100
AcDbSpline
 62
7
  6
CONTINUOUS
 70
0
 71
3
 72
9
 73
5
 74
0
 42
0.0000001
 43
0.0000001
 44
0.0000000001
 40
0.0
 40
0.0
 40
0.0
 40
0.0
 40
0.5
 40
1.0
 40
1.0
 40
1.0
 40
1.0
 10
-18.5156267787
 20
33.0593057402
 30
0.0
 10
-18.5261205573
 20
33.0532467639
 30
0.0
 10
-18.5509821178
 20
33.0484561114
 30
0.0
 10
-18.5758436783
 20
33.0532467639
 30
0.0
 10
-18.5863374569
 20
33.0593057402
 30
0.0
  0
SPLINE
  5
3BF
100
AcDbEntity
  8
0
100
AcDbSpline
 62
7
  6
CONTINUOUS
 70
0
 71
3
 72
9
 73
5
 74
0
 42
0.0000001
 43
0.0000001
 44
0.0000000001
 40
0.0
 40
0.0
 40
0.0
 40
0.0
 40
0.4492219968
 40
1.0
 40
1.0
 40
1.0
 40
1.0
 10
-13.9712093963
 20
34.8557139508
 30
0.0
 10
-13.9712093963
 20
34.8459771729
 30
0.0
 10
-13.9797208248
 20
34.8242499615
 30
0.0
 10
-13.9974826215
 20
34.8106489049
 30
0.0
 10
-14.0078210487
 20
34.8046796266
 30
0.0
  0
SPLINE
  5
3C0
100
AcDbEntity
  8
0
100
AcDbSpline
 62
7
  6
CONTINUOUS
 70
0
 71
3
 72
9
 73
5
 74
0
 42
0.0000001
 43
0.0000001
 44
0.0000000001
 40
0.0
 40
0.0
 40
0.0
 40
0.0
 40
0.5508178911
 40
1.0
 40
1.0
 40
1.0
 40
1.0
 10
14.1527065121
 20
14.1561920691
 30
0.0
 10
14.1485709306
 20
14.158579902
 30
0.0
 10
14.1414645263
 20
14.1640193885
 30
0.0
 10
14.138064174
 20
14.1727115171
 30
0.0
 10
14.138064174
 20
14.1766057988
 30
0.0
  0
SPLINE
  5
3C1
100
AcDbEntity
  8
0
100
AcDbSpline
 62
7
  6
CONTINUOUS
 70
0
 71
3
 72
9
 73
5
 74
0
 42
0.0000001
 43
0.0000001
 44
0.0000000001
 40
0.0
 40
0.0
 40
0.0
 40
0.0
 40
0.5338743508
 40
1.0
 40
1.0
 40
1.0
 40
1.0
 10
-17.3624130059
 20
30.7037090957
 30
0.0
 10
-17.3687133549
 20
30.709117324
 30
0.0
 10
-17.3793061522
 20
30.7210549704
 30
0.0
 10
-17.3836926544
 20
30.7367411221
 30
0.0
 10
-17.3836899815
 20
30.7439906553
 30
0.0
  0
SPLINE
  5
3C2
100
AcDbEntity
  8
0
100
AcDbSpline
 62
7
  6
CONTINUOUS
 70
0
 71
3
 72
11
 73
7
 74
0
 42
0.0000001
 43
0.0000001
 44
0.0000000001
 40
0.0
 40
0.0
 40
0.0
 40
0.0
 40
0.2277123015
 40
0.4759660347
 40
0.7366269121
 40
1.0
 40
1.0
 40
1.0
 40
1.0
 10
12.3691261077
 20
14.4511147731
 30
0.0
 10
12.2197302655
 20
14.53737406
 30
0.0
 10
11.8876041729
 20
14.6840611771
 30
0.0
 10
11.3450112325
 20
14.8227727727
 30
0.0
 10
10.7613352653
 20
14.884582649
 30
0.0
 10
10.3630484557
 20
14.8720302875
 30
0.0
 10
10.1645614007
 20
14.8516939839
 30
0.0
  0
SPLINE
  5
3C3
100
AcDbEntity
  8
0
100
AcDbSpline
 62
7
  6
CONTINUOUS
 70
0
 71
3
 72
9
 73
5
 74
0
 42
0.0000001
 43
0.0000001
 44
0.0000000001
 40
0.0
 40
0.0
 40
0.0
 40
0.0
 40
0.257705489
 40
1.0
 40
1.0
 40
1.0
 40
1.0
 10
10.1645614007
 20
14.8516939839
 30
0.0
 10
10.156636879
 20
14.8508820645
 30
0.0
 10
10.1257647043
 20
14.8494923475
 30
0.0
 10
10.0943451519
 20
14.8545639435
 30
0.0
 10
10.0729562944
 20
14.8628707077
 30
0.0
  0
SPLINE
  5
3C4
100
AcDbEntity
  8
0
100
AcDbSpline
 62
7
  6
CONTINUOUS
 70
0
 71
3
 72
9
 73
5
 74
0
 42
0.0000001
 43
0.0000001
 44
0.0000000001
 40
0.0
 40
0.0
 40
0.0
 40
0.0
 40
0.4492219968
 40
1.0
 40
1.0
 40
1.0
 40
1.0
 10
18.7324792335
 20
15.9730140094
 30
0.0
 10
18.7324792335
 20
15.9632772315
 30
0.0
 10
18.7239678051
 20
15.9415500201
 30
0.0
 10
18.7062060084
 20
15.9279489635
 30
0.0
 10
18.6958675812
 20
15.9219796852
 30
0.0
  0
SPLINE
  5
3C5
100
AcDbEntity
  8
0
100
AcDbSpline
 62
7
  6
CONTINUOUS
 70
0
 71
3
 72
11
 73
7
 74
0
 42
0.0000001
 43
0.0000001
 44
0.0000000001
 40
0.0
 40
0.0
 40
0.0
 40
0.0
 40
0.2372383085
 40
0.5
 40
0.7627616915
 40
1.0
 40
1.0
 40
1.0
 40
1.0
 10
-14.2906637612
 20
34.6413697893
 30
0.0
 10
-14.3032121768
 20
34.6341244914
 30
0.0
 10
-14.3323937438
 20
34.6235513541
 30
0.0
 10
-14.3790521088
 20
34.6184855883
 30
0.0
 10
-14.4257104738
 20
34.6235513541
 30
0.0
 10
-14.4548920408
 20
34.6341244914
 30
0.0
 10
-14.4674404565
 20
34.6413697893
 30
0.0
  0
SPLINE
  5
3C6
100
AcDbEntity
  8
0
100
AcDbSpline
 62
7
  6
CONTINUOUS
 70
0
 71
3
 72
11
 73
7
 74
0
 42
0.0000001
 43
0.0000001
 44
0.0000000001
 40
0.0
 40
0.0
 40
0.0
 40
0.0
 40
0.2317776966
 40
0.4760226911
 40
0.7323483805
 40
1.0
 40
1.0
 40
1.0
 40
1.0
 10
-17.3624130059
 20
30.7037090957
 30
0.0
 10
-15.4970100887
 20
29.1024446328
 30
0.0
 10
-11.4900555003
 20
26.0146929782
 30
0.0
 10
-4.918581142
 20
21.8554041446
 30
0.0
 10
2.3129084268
 20
18.0819605884
 30
0.0
 10
7.4266094355
 20
15.8906291634
 30
0.0
 10
10.0729562944
 20
14.8628707077
 30
0.0
  0
SPLINE
  5
3C7
100
AcDbEntity
  8
0
100
AcDbSpline
 62
7
  6
CONTINUOUS
 70
0
 71
3
 72
9
 73
5
 74
0
 42
0.0000001
 43
0.0000001
 44
0.0000000001
 40
0.0
 40
0.0
 40
0.0
 40
0.0
 40
0.4492219968
 40
1.0
 40
1.0
 40
1.0
 40
1.0
 10
16.8561336368
 20
16.5854258994
 30
0.0
 10
16.8561336368
 20
16.5756891215
 30
0.0
 10
16.8646450653
 20
16.5539619101
 30
0.0
 10
16.882406862
 20
16.5403608535
 30
0.0
 10
16.8927452892
 20
16.5343915752
 30
0.0
  0
SPLINE
  5
3C8
100
AcDbEntity
  8
ASSI
100
AcDbSpline
 62
7
  6
CONTINUOUS
 70
0
 71
3
 72
11
 73
7
 74
0
 42
0.0000001
 43
0.0000001
 44
0.0000000001
 40
0.0
 40
0.0
 40
0.0
 40
0.0
 40
0.2248115301
 40
0.4635190123
 40
0.7213469525
 40
1.0
 40
1.0
 40
1.0
 40
1.0
 10
8.2812823037
 20
-2.4368321051
 30
0.0
 10
8.2225287323
 20
-2.4707539155
 30
0.0
 10
8.0902919176
 20
-2.522702117
 30
0.0
 10
7.8717589153
 20
-2.5461629032
 30
0.0
 10
7.6378445878
 20
-2.5178585534
 30
0.0
 10
7.4829044511
 20
-2.4675583311
 30
0.0
 10
7.4052626043
 20
-2.4352618585
 30
0.0
  0
SPLINE
  5
3C9
100
AcDbEntity
  8
0
100
AcDbSpline
 62
7
  6
CONTINUOUS
 70
0
 71
3
 72
11
 73
7
 74
0
 42
0.0000001
 43
0.0000001
 44
0.0000000001
 40
0.0
 40
0.0
 40
0.0
 40
0.0
 40
0.2372193404
 40
0.5
 40
0.7627806596
 40
1.0
 40
1.0
 40
1.0
 40
1.0
 10
13.3748890528
 20
14.2786744471
 30
0.0
 10
13.3246993901
 20
14.2496955649
 30
0.0
 10
13.2079740774
 20
14.2074010545
 30
0.0
 10
13.0213356622
 20
14.1871369559
 30
0.0
 10
12.8346972469
 20
14.2074010545
 30
0.0
 10
12.7179719343
 20
14.2496955649
 30
0.0
 10
12.6677822716
 20
14.2786744471
 30
0.0
  0
SPLINE
  5
3CA
100
AcDbEntity
  8
ASSI
100
AcDbSpline
 62
7
  6
CONTINUOUS
 70
0
 71
3
 72
9
 73
5
 74
0
 42
0.0000001
 43
0.0000001
 44
0.0000000001
 40
0.0
 40
0.0
 40
0.0
 40
0.0
 40
0.5117647542
 40
1.0
 40
1.0
 40
1.0
 40
1.0
 10
-13.8525421499
 20
22.0589099745
 30
0.0
 10
-13.8117941259
 20
22.1137875784
 30
0.0
 10
-13.7224019045
 20
22.2142841205
 30
0.0
 10
-13.613942612
 20
22.2942424041
 30
0.0
 10
-13.5574704485
 20
22.3268478803
 30
0.0
  0
SPLINE
  5
3CB
100
AcDbEntity
  8
0
100
AcDbSpline
 62
7
  6
CONTINUOUS
 70
0
 71
3
 72
11
 73
7
 74
0
 42
0.0000001
 43
0.0000001
 44
0.0000000001
 40
0.0
 40
0.0
 40
0.0
 40
0.0
 40
0.2897937154
 40
0.5490416136
 40
0.782223008
 40
1.0
 40
1.0
 40
1.0
 40
1.0
 10
-18.3742054225
 20
32.2019290942
 30
0.0
 10
-18.3961527065
 20
32.2146011809
 30
0.0
 10
-18.4359637683
 20
32.2420071543
 30
0.0
 10
-18.4835195765
 20
32.2920213895
 30
0.0
 10
-18.5136231594
 20
32.3473178731
 30
0.0
 10
-18.5206520319
 20
32.3870214259
 30
0.0
 10
-18.5206520319
 20
32.4060663908
 30
0.0
  0
SPLINE
  5
3CC
100
AcDbEntity
  8
ASSI
100
AcDbSpline
 62
7
  6
CONTINUOUS
 70
0
 71
3
 72
14
 73
10
 74
0
 42
0.0000001
 43
0.0000001
 44
0.0000000001
 40
0.0
 40
0.0
 40
0.0
 40
0.0
 40
0.2877803523
 40
0.4219112106
 40
0.5494545008
 40
0.6705762103
 40
0.7856297374
 40
0.895176531
 40
1.0
 40
1.0
 40
1.0
 40
1.0
 10
-16.3846889548
 20
12.7709871652
 30
0.0
 10
-16.3640986943
 20
13.7080687323
 30
0.0
 10
-16.2696858463
 20
15.0826541636
 30
0.0
 10
-15.9853393995
 20
16.8504769469
 30
0.0
 10
-15.7058831874
 20
18.0666198282
 30
0.0
 10
-15.3552844246
 20
19.1994475496
 30
0.0
 10
-14.9333561739
 20
20.245045254
 30
0.0
 10
-14.4400854331
 20
21.1997029341
 30
0.0
 10
-14.0560761292
 20
21.7847995758
 30
0.0
 10
-13.8525421499
 20
22.0589099745
 30
0.0
  0
SPLINE
  5
3CD
100
AcDbEntity
  8
ASSI
100
AcDbSpline
 62
7
  6
CONTINUOUS
 70
0
 71
3
 72
15
 73
11
 74
0
 42
0.0000001
 43
0.0000001
 44
0.0000000001
 40
0.0
 40
0.0
 40
0.0
 40
0.0
 40
0.1081361042
 40
0.2279463994
 40
0.3566681475
 40
0.4907917589
 40
0.6263311777
 40
0.7590688241
 40
0.8848553041
 40
1.0
 40
1.0
 40
1.0
 40
1.0
 10
-15.5049971061
 20
10.7928349653
 30
0.0
 10
-15.5676001017
 20
10.843008025
 30
0.0
 10
-15.6902527142
 20
10.9605501338
 30
0.0
 10
-15.8560076051
 20
11.1675333022
 30
0.0
 10
-16.0081676028
 20
11.4078426746
 30
0.0
 10
-16.1409516107
 20
11.6724087503
 30
0.0
 10
-16.2492803765
 20
11.9510797282
 30
0.0
 10
-16.3289113067
 20
12.2328926046
 30
0.0
 10
-16.3766806486
 20
12.5064722277
 30
0.0
 10
-16.3865655766
 20
12.6855803923
 30
0.0
 10
-16.3846889548
 20
12.7709871652
 30
0.0
  0
SPLINE
  5
3CE
100
AcDbEntity
  8
ASSI
100
AcDbSpline
 62
7
  6
CONTINUOUS
 70
0
 71
3
 72
9
 73
5
 74
0
 42
0.0000001
 43
0.0000001
 44
0.0000000001
 40
0.0
 40
0.0
 40
0.0
 40
0.0
 40
0.2465114043
 40
1.0
 40
1.0
 40
1.0
 40
1.0
 10
-15.5049971061
 20
10.7928349653
 30
0.0
 10
-15.171681358
 20
10.5256996509
 30
0.0
 10
-13.8101235778
 20
9.4538352483
 30
0.0
 10
-12.4118152917
 20
8.4287845522
 30
0.0
 10
-11.340737619
 20
7.6821286245
 30
0.0
  0
SPLINE
  5
3CF
100
AcDbEntity
  8
ASSI
100
AcDbSpline
 62
7
  6
CONTINUOUS
 70
0
 71
3
 72
9
 73
5
 74
0
 42
0.0000001
 43
0.0000001
 44
0.0000000001
 40
0.0
 40
0.0
 40
0.0
 40
0.0
 40
0.246563052
 40
1.0
 40
1.0
 40
1.0
 40
1.0
 10
0.7226298821
 20
0.5991161274
 30
0.0
 10
1.2633249423
 20
0.3315895735
 30
0.0
 10
3.4654569813
 20
-0.7347610366
 30
0.0
 10
5.703227577
 20
-1.7272708731
 30
0.0
 10
7.4052626043
 20
-2.4352618585
 30
0.0
  0
SPLINE
  5
3D0
100
AcDbEntity
  8
0
100
AcDbSpline
 62
7
  6
CONTINUOUS
 70
0
 71
3
 72
11
 73
7
 74
0
 42
0.0000001
 43
0.0000001
 44
0.0000000001
 40
0.0
 40
0.0
 40
0.0
 40
0.0
 40
0.2897667745
 40
0.5490573594
 40
0.7822185358
 40
1.0
 40
1.0
 40
1.0
 40
1.0
 10
-16.7125044867
 20
32.8347547138
 30
0.0
 10
-16.7015319509
 20
32.8410901185
 30
0.0
 10
-16.6816273848
 20
32.8547947682
 30
0.0
 10
-16.6578465858
 20
32.87979917
 30
0.0
 10
-16.642798833
 20
32.9074504806
 30
0.0
 10
-16.6392823499
 20
32.9273007587
 30
0.0
 10
-16.6392823499
 20
32.9368233622
 30
0.0
  0
ENDSEC
  0
SECTION
  2
OBJECTS
  0
DICTIONARY
  5
C
100
AcDbDictionary
280
0
281
1
  3
ACAD_GROUP
350
D
  3
ACAD_MLINESTYLE
350
17
  3
ACAD_LAYOUT
350
1A
  3
ACAD_PLOTSETTINGS
350
19
  3
ACAD_PLOTSTYLENAME
350
E
  0
DICTIONARY
  5
D
102
{ACAD_REACTORS
330
C
102
}
100
AcDbDictionary
280
0
281
1
  0
ACDBDICTIONARYWDFLT
  5
E
102
{ACAD_REACTORS
330
C
102
}
100
AcDbDictionary
281
1
  3
Normal
350
F
100
AcDbDictionaryWithDefault
340
F
  0
DICTIONARY
  5
17
102
{ACAD_REACTORS
330
C
102
}
100
AcDbDictionary
280
0
281
1
  3
Standard
350
18
  0
DICTIONARY
  5
19
102
{ACAD_REACTORS
330
C
102
}
100
AcDbDictionary
281
1
  0
DICTIONARY
  5
1A
102
{ACAD_REACTORS
330
C
102
}
100
AcDbDictionary
281
1
  3
Model
350
3D1
  3
Layout1
350
3D2
  0
ACDBPLACEHOLDER
  5
F
102
{ACAD_REACTORS
330
E
102
}
  0
MLINESTYLE
  5
18
102
{ACAD_REACTORS
330
17
102
}
100
AcDbMlineStyle
  2
STANDARD
 70
0
  3

 62
256
 51
90.0
 52
90.0
 71
2
 49
0.5
 62
256
  6
BYLAYER
 49
-0.5
 62
256
  6
BYLAYER
  0
LAYOUT
  5
3D1
102
{ACAD_REACTORS
330
1A
102
}
100
AcDbPlotSettings
  1

  2
none_device
  4
ISO_A4_(297.00_x_210.00_MM)
  6

 40
0.0
 41
0.0
 42
0.0
 43
0.0
 44
297.0
 45
210.0
 46
0.0
 47
0.0
 48
0.0
 49
0.0
140
0.0
141
0.0
142
1.0
143
1.0
 70
1024
 72
1
 73
0
 74
0
  7

 75
0
147
1.0
148
0.0
149
0.0
100
AcDbLayout
  1
Model
 70
0
 71
0
 10
0.0
 20
0.0
 11
297.0
 21
210.0
 12
0.0
 22
0.0
 32
0.0
 14
0.0
 24
0.0
 34
0.0
 15
0.0
 25
0.0
 35
0.0
146
0.0
 13
0.0
 23
0.0
 33
0.0
 16
1.0
 26
0.0
 36
0.0
 17
0.0
 27
1.0
 37
0.0
 76
0
330
210
345
0
346
0
  0
LAYOUT
  5
3D2
102
{ACAD_REACTORS
330
1A
102
}
100
AcDbPlotSettings
  1

  2
none_device
  4
ISO_A4_(297.00_x_210.00_MM)
  6

 40
0.0
 41
0.0
 42
0.0
 43
0.0
 44
297.0
 45
210.0
 46
0.0
 47
0.0
 48
0.0
 49
0.0
140
0.0
141
0.0
142
1.0
143
1.0
 70
0
 72
1
 73
0
 74
0
  7

 75
0
147
1.0
148
0.0
149
0.0
100
AcDbLayout
  1
Layout1
 70
0
 71
1
 10
0.0
 20
0.0
 11
297.0
 21
210.0
 12
0.0
 22
0.0
 32
0.0
 14
0.0
 24
0.0
 34
0.0
 15
0.0
 25
0.0
 35
0.0
146
0.0
 13
0.0
 23
0.0
 33
0.0
 16
1.0
 26
0.0
 36
0.0
 17
0.0
 27
1.0
 37
0.0
 76
0
330
211
345
0
346
0
  0
ENDSEC
  0
EOF
