  0
SECTION
  2
HEADER
  9
$ACADVER
  1
AC1024
  9
$DWGCODEPAGE
  3
ANSI_1252
  9
$EXTMAX
 10
297.0
 20
210.0
 30
0.0
  9
$EXTMIN
 10
0.0
 20
0.0
 30
0.0
  9
$LIMMIN
 10
0.0
 20
0.0
  9
$LIMMAX
 10
297.0
 20
210.0
  9
$VIEWCTR
 10
148.5
 20
105.0
  9
$VIEWSIZE
 40
210.0
  9
$CLAYER
  8
0
  9
$LTSCALE
 40
16.335
  9
$CELTYPE
  6
BYLAYER
  9
$DIMSCALE
 40
1.0
  9
$DIMASZ
 40
3.0
  9
$DIMEXO
 40
0.5
  9
$DIMDLI
 40
11.286
  9
$DIMEXE
 40
1.5
  9
$DIMCEN
 40
2.673
  9
$DIMLFAC
 40
1.0
  9
$DIMBLK
  1
_FILLED
  9
$DIMALT
 70
0
  9
$DIMALTF
 40
0.0393700787
  9
$DIMTXT
 40
3.0
  9
$DIMTOL
 70
1
  9
$DIMLIM
 70
0
  9
$DIMTFAC
 40
1.0
  9
$DIMTP
 40
0.01
  9
$DIMTM
 40
0.01
  9
$DIMGAP
 40
0.625
  9
$DIMDSEP
 70
44
  9
$AUNITS
 70
0
  9
$PDMODE
 70
3
  9
$PDSIZE
 40
3.0
  9
$HANDSEED
  5
2D8
  9
$TILEMODE
 70
1
  9
$MEASUREMENT
 70
1
  9
$INSUNITS
 70
4
  0
ENDSEC
  0
SECTION
  2
CLASSES
  0
CLASS
  1
ACDBDICTIONARYWDFLT
  2
AcDbDictionaryWithDefault
  3
AutoCAD 2000
 90
0
 91
1
280
0
281
0
  0
CLASS
  1
ACDBPLACEHOLDER
  2
AcDbPlaceHolder
  3
AutoCAD 2000
 90
0
 91
1
280
0
281
0
  0
CLASS
  1
LAYOUT
  2
AcDbLayout
  3
AutoCAD 2000
 90
0
 91
0
280
0
281
0
  0
ENDSEC
  0
SECTION
  2
TABLES
  0
TABLE
  2
VPORT
  5
8
100
AcDbSymbolTable
 70
2
  0
VPORT
  5
1F4
100
AcDbSymbolTableRecord
100
AcDbViewportTableRecord
  2
*ACTIVE
 70
0
 10
0.0
 20
0.0
 11
1.0
 21
1.0
 12
148.5
 22
105.0
 13
0.0
 23
0.0
 14
1.0
 24
1.0
 15
0.0
 25
0.0
 16
0.0
 26
0.0
 36
1.0
 17
0.0
 27
0.0
 37
0.0
 40
210.0
 41
1.4142857143
 42
50.0
 43
0.0
 44
0.0
 50
0.0
 51
0.0
 71
0
 72
100
 73
1
 74
1
 75
0
 76
0
 77
0
 78
0
  0
ENDTAB
  0
TABLE
  2
LTYPE
  5
5
100
AcDbSymbolTable
 70
6
  0
LTYPE
  5
14
100
AcDbSymbolTableRecord
100
AcDbLinetypeTableRecord
  2
BYBLOCK
 70
0
  3

 72
65
 73
0
 40
0.0
  0
LTYPE
  5
15
100
AcDbSymbolTableRecord
100
AcDbLinetypeTableRecord
  2
BYLAYER
 70
0
  3

 72
65
 73
0
 40
0.0
  0
LTYPE
  5
16
100
AcDbSymbolTableRecord
100
AcDbLinetypeTableRecord
  2
CONTINUOUS
 70
64
  3
Solid line
 72
65
 73
0
 40
0.0
  0
LTYPE
  5
1F5
100
AcDbSymbolTableRecord
100
AcDbLinetypeTableRecord
  2
CENTER
 70
64
  3
____ _ ____ _ ____ _ ____ _ ____ _ ____ _ ____
 72
65
 73
4
 40
0.6
 49
0.375
 74
0
 49
-0.075
 74
0
 49
0.075
 74
0
 49
-0.075
 74
0
  0
LTYPE
  5
1F6
100
AcDbSymbolTableRecord
100
AcDbLinetypeTableRecord
  2
HIDDEN
 70
64
  3
- - - - - - - - - - - - - - - - - - - -
 72
65
 73
2
 40
0.2
 49
0.1
 74
0
 49
-0.1
 74
0
  0
LTYPE
  5
1F7
100
AcDbSymbolTableRecord
100
AcDbLinetypeTableRecord
  2
PHANTOM
 70
64
  3
_____ _ _ _____ _ _ _____ _ _ _____
 72
65
 73
6
 40
0.8
 49
0.45
 74
0
 49
-0.05
 74
0
 49
0.1
 74
0
 49
-0.05
 74
0
 49
0.1
 74
0
 49
-0.05
 74
0
  0
LTYPE
  5
1F8
100
AcDbSymbolTableRecord
100
AcDbLinetypeTableRecord
  2
DOT
 70
64
  3
. . . . . . . . . . . . . . . . . . . .
 72
65
 73
2
 40
0.2
 49
0.1
 74
0
 49
-0.1
 74
0
  0
LTYPE
  5
1F9
100
AcDbSymbolTableRecord
100
AcDbLinetypeTableRecord
  2
DASHED
 70
64
  3
- - - - - - - - - - - - - - - - - - - -
 72
65
 73
2
 40
0.2
 49
0.1
 74
0
 49
-0.1
 74
0
  0
ENDTAB
  0
TABLE
  2
LAYER
  5
2
100
AcDbSymbolTable
 70
36
  0
LAYER
  5
10
100
AcDbSymbolTableRecord
100
AcDbLayerTableRecord
  2
0
 70
0
 62
7
  6
CONTINUOUS
370
-3
390
F
  0
LAYER
  5
1FA
100
AcDbSymbolTableRecord
100
AcDbLayerTableRecord
  2
DEFAULT_1
 70
0
 62
7
  6
CENTER
370
-3
390
F
  0
LAYER
  5
1FB
100
AcDbSymbolTableRecord
100
AcDbLayerTableRecord
  2
DEFAULT_2
 70
0
 62
7
  6
HIDDEN
370
-3
390
F
  0
LAYER
  5
1FC
100
AcDbSymbolTableRecord
100
AcDbLayerTableRecord
  2
DEFAULT_3
 70
0
 62
7
  6
PHANTOM
370
-3
390
F
  0
LAYER
  5
1FD
100
AcDbSymbolTableRecord
100
AcDbLayerTableRecord
  2
ASSI
 70
0
 62
7
  6
CONTINUOUS
370
-3
390
F
  0
LAYER
  5
1FE
100
AcDbSymbolTableRecord
100
AcDbLayerTableRecord
  2
COORDINATE
 70
0
 62
7
  6
CONTINUOUS
370
-3
390
F
  0
LAYER
  5
1FF
100
AcDbSymbolTableRecord
100
AcDbLayerTableRecord
  2
COPY_PUBLISH
 70
0
 62
7
  6
CONTINUOUS
370
-3
390
F
  0
LAYER
  5
200
100
AcDbSymbolTableRecord
100
AcDbLayerTableRecord
  2
COSMETICI
 70
0
 62
7
  6
CONTINUOUS
370
-3
390
F
  0
LAYER
  5
201
100
AcDbSymbolTableRecord
100
AcDbLayerTableRecord
  2
CURVE
 70
0
 62
7
  6
CONTINUOUS
370
-3
390
F
  0
LAYER
  5
202
100
AcDbSymbolTableRecord
100
AcDbLayerTableRecord
  2
DRAFT
 70
0
 62
7
  6
CONTINUOUS
370
-3
390
F
  0
LAYER
  5
203
100
AcDbSymbolTableRecord
100
AcDbLayerTableRecord
  2
IMPORT_IGES
 70
0
 62
7
  6
CONTINUOUS
370
-3
390
F
  0
LAYER
  5
204
100
AcDbSymbolTableRecord
100
AcDbLayerTableRecord
  2
INTFCLR_2816
 70
0
 62
7
  6
CONTINUOUS
370
-3
390
F
  0
LAYER
  5
205
100
AcDbSymbolTableRecord
100
AcDbLayerTableRecord
  2
NOTE
 70
0
 62
7
  6
CONTINUOUS
370
-3
390
F
  0
LAYER
  5
206
100
AcDbSymbolTableRecord
100
AcDbLayerTableRecord
  2
PIANI
 70
0
 62
7
  6
CONTINUOUS
370
-3
390
F
  0
LAYER
  5
207
100
AcDbSymbolTableRecord
100
AcDbLayerTableRecord
  2
PUNTI
 70
0
 62
7
  6
CONTINUOUS
370
-3
390
F
  0
LAYER
  5
208
100
AcDbSymbolTableRecord
100
AcDbLayerTableRecord
  2
RACCORDO
 70
0
 62
7
  6
CONTINUOUS
370
-3
390
F
  0
LAYER
  5
209
100
AcDbSymbolTableRecord
100
AcDbLayerTableRecord
  2
SIMBOLI
 70
0
 62
7
  6
CONTINUOUS
370
-3
390
F
  0
LAYER
  5
20A
100
AcDbSymbolTableRecord
100
AcDbLayerTableRecord
  2
SMUSSO
 70
0
 62
7
  6
CONTINUOUS
370
-3
390
F
  0
LAYER
  5
20B
100
AcDbSymbolTableRecord
100
AcDbLayerTableRecord
  2
SNAPLINE
 70
0
 62
7
  6
CONTINUOUS
370
-3
390
F
  0
LAYER
  5
20C
100
AcDbSymbolTableRecord
100
AcDbLayerTableRecord
  2
SUPERFICI
 70
0
 62
7
  6
CONTINUOUS
370
-3
390
F
  0
LAYER
  5
20D
100
AcDbSymbolTableRecord
100
AcDbLayerTableRecord
  2
TRASH
 70
0
 62
7
  6
CONTINUOUS
370
-3
390
F
  0
ENDTAB
  0
TABLE
  2
STYLE
  5
3
100
AcDbSymbolTable
 70
1
  0
STYLE
  5
11
100
AcDbSymbolTableRecord
100
AcDbTextStyleTableRecord
  2
STANDARD
 70
0
 40
0.0
 41
0.8
 50
0.0
 71
0
 42
0.2
  3
txt
  4

  0
STYLE
  5
20E
100
AcDbSymbolTableRecord
100
AcDbTextStyleTableRecord
  2
TEXTSTYLE_1
 70
0
 40
0.0
 41
0.8
 50
0.0
 71
0
 42
0.2
  3
gdt
  4

  0
ENDTAB
  0
TABLE
  2
VIEW
  5
6
100
AcDbSymbolTable
 70
0
  0
ENDTAB
  0
TABLE
  2
UCS
  5
7
100
AcDbSymbolTable
 70
0
  0
ENDTAB
  0
TABLE
  2
APPID
  5
9
100
AcDbSymbolTable
 70
1
  0
APPID
  5
20F
100
AcDbSymbolTableRecord
100
AcDbRegAppTableRecord
  2
ACAD
 70
0
  0
ENDTAB
  0
TABLE
  2
BLOCK_RECORD
  5
1
100
AcDbSymbolTable
 70
0
  0
BLOCK_RECORD
  5
210
100
AcDbSymbolTableRecord
100
AcDbBlockTableRecord
  2
*Model_Space
  0
BLOCK_RECORD
  5
211
100
AcDbSymbolTableRecord
100
AcDbBlockTableRecord
  2
*Paper_Space
  0
BLOCK_RECORD
  5
212
100
AcDbSymbolTableRecord
100
AcDbBlockTableRecord
  2
_FILLED
  0
ENDTAB
  0
TABLE
  2
DIMSTYLE
  5
A
100
AcDbSymbolTable
 70
1
100
AcDbDimStyleTable
 71
0
  0
DIMSTYLE
105
213
100
AcDbSymbolTableRecord
100
AcDbDimStyleTableRecord
  2
STANDARD
 70
0
  3

  4

 40
1.0
 41
3.0
 42
0.5
 43
0.38
 44
1.5
 45
0.0
 46
0.0
 47
0.01
 48
0.01
140
3.0
141
0.09
142
0.0
143
25.4
144
1.0
145
0.0
146
1.0
147
0.625
 71
1.0
 72
0.0
 73
0
 74
0
 75
0
 76
0
 77
1
 78
8
 79
2
170
0
171
1
172
0
173
0
174
0
175
0
176
0
177
0
178
0
270
2
179
2
271
2
272
2
273
2
274
2
275
0
280
0
281
0
282
0
283
1
284
8
285
0
286
0
287
3
288
0
340
11
278
44
341
212
342
212
343
212
344
212
  0
ENDTAB
  0
ENDSEC
  0
SECTION
  2
BLOCKS
  0
BLOCK
  5
20
100
AcDbEntity
  8
0
100
AcDbBlockBegin
  2
*Model_Space
 70
0
 10
0.0
 20
0.0
 30
0.0
  3
*Model_Space
  1

  0
ENDBLK
  5
21
100
AcDbEntity
  8
0
100
AcDbBlockEnd
  0
BLOCK
  5
1C
100
AcDbEntity
  8
0
100
AcDbBlockBegin
  2
*Paper_Space
 70
0
 10
0.0
 20
0.0
 30
0.0
  3
*Paper_Space
  1

  0
ENDBLK
  5
1D
100
AcDbEntity
  8
0
100
AcDbBlockEnd
  0
BLOCK
  5
214
100
AcDbEntity
  8
0
100
AcDbBlockBegin
  2
_FILLED
 70
64
 10
0.0
 20
0.0
  3
_FILLED
  1

  0
SOLID
  5
215
100
AcDbEntity
  8
0
  6
BYBLOCK
 62
0
100
AcDbTrace
 10
0.0
 20
0.0
 11
-1.0
 21
0.3166666667
 12
-1.0
 22
-0.3166666667
 13
-1.0
 23
-0.3166666667
  0
ENDBLK
  5
216
100
AcDbEntity
  8
0
  6
BYBLOCK
 62
0
100
AcDbBlockEnd
  0
ENDSEC
  0
SECTION
  2
ENTITIES
  0
LINE
  5
217
100
AcDbEntity
  8
0
100
AcDbLine
 62
7
  6
CONTINUOUS
 10
-15.5281006282
 20
35.6824700023
 11
-18.3742054225
 21
34.0391647641
  0
LINE
  5
218
100
AcDbEntity
  8
0
100
AcDbLine
 62
7
  6
CONTINUOUS
 10
-15.4397122806
 20
35.2027473551
 11
-17.9499413538
 21
33.7533725488
  0
LINE
  5
219
100
AcDbEntity
  8
0
100
AcDbLine
 62
7
  6
CONTINUOUS
 10
-18.5156267787
 20
33.0593057402
 11
-18.09136271
 21
33.3042704962
  0
LINE
  5
21A
100
AcDbEntity
  8
0
100
AcDbLine
 62
7
  6
CONTINUOUS
 10
-17.6317433023
 20
33.0388920105
 11
-18.3742054225
 21
32.6102036875
  0
LINE
  5
21B
100
AcDbEntity
  8
0
100
AcDbLine
 62
7
  6
CONTINUOUS
 10
-14.2906637612
 20
34.6413697893
 11
-14.0078210487
 21
34.8046796266
  0
LINE
  5
21C
100
AcDbEntity
  8
0
100
AcDbLine
 62
7
  6
CONTINUOUS
 10
-16.7125044867
 20
32.8347547138
 11
-17.454966607
 21
32.4060663908
  0
LINE
  5
21D
100
AcDbEntity
  8
DRAFT
100
AcDbLine
 62
7
  6
CONTINUOUS
 10
-14.4327935872
 20
21.5572883235
 11
-14.6495522265
 21
21.4232415295
  0
LINE
  5
21E
100
AcDbEntity
  8
ASSI
100
AcDbLine
 62
7
  6
CONTINUOUS
 10
-18.7842559288
 20
-11.8465200285
 11
-18.7842559288
 21
33.4675803335
  0
LINE
  5
21F
100
AcDbEntity
  8
0
100
AcDbLine
 62
7
  6
CONTINUOUS
 10
-18.6010522955
 20
-12.2462984584
 11
-18.6010522955
 21
33.0678019036
  0
LINE
  5
220
100
AcDbEntity
  8
0
100
AcDbLine
 62
250
  6
CONTINUOUS
 10
-18.5863374569
 20
33.0593057402
 11
-18.5863374569
 21
-12.2547946218
  0
LINE
  5
221
100
AcDbEntity
  8
ASSI
100
AcDbLine
 62
7
  6
CONTINUOUS
 10
-18.5206520319
 20
32.4060663908
 11
-18.5206520319
 21
-12.9080339712
  0
LINE
  5
222
100
AcDbEntity
  8
0
100
AcDbLine
 62
250
  6
CONTINUOUS
 10
-18.5156267787
 20
33.0593057402
 11
-18.5156267787
 21
32.446326036
  0
LINE
  5
223
100
AcDbEntity
  8
0
100
AcDbLine
 62
7
  6
CONTINUOUS
 10
-18.3742054225
 20
-13.1121712678
 11
-18.0755492586
 21
-13.2846115938
  0
LINE
  5
224
100
AcDbEntity
  8
0
100
AcDbLine
 62
7
  6
CONTINUOUS
 10
12.3691261077
 20
-30.8629855889
 11
12.6677822716
 21
-31.0354259149
  0
LINE
  5
225
100
AcDbEntity
  8
0
100
AcDbLine
 62
7
  6
CONTINUOUS
 10
-18.6010522955
 20
-12.2462984584
 11
-18.5863374569
 21
-12.2547946218
  0
LINE
  5
226
100
AcDbEntity
  8
0
100
AcDbLine
 62
7
  6
CONTINUOUS
 10
14.1527065121
 20
-31.1579082929
 11
14.1674213507
 21
-31.1664044563
  0
LINE
  5
227
100
AcDbEntity
  8
0
100
AcDbLine
 62
7
  6
CONTINUOUS
 10
14.117351173
 20
-30.6067375919
 11
14.1380618511
 21
-30.6186956779
  0
LINE
  5
228
100
AcDbEntity
  8
0
100
AcDbLine
 62
250
  6
CONTINUOUS
 10
-18.3742054225
 20
32.2019290942
 11
-18.3742054225
 21
-13.1121712678
  0
LINE
  5
229
100
AcDbEntity
  8
0
100
AcDbLine
 62
7
  6
CONTINUOUS
 10
-18.09136271
 20
32.7735135248
 11
-18.09136271
 21
33.3042704962
  0
LINE
  5
22A
100
AcDbEntity
  8
0
100
AcDbLine
 62
250
  6
CONTINUOUS
 10
-18.0755492586
 20
-13.2846115938
 11
-18.0755492586
 21
32.0294887682
  0
LINE
  5
22B
100
AcDbEntity
  8
ASSI
100
AcDbLine
 62
7
  6
CONTINUOUS
 10
-17.3836931223
 20
30.7439906586
 11
-17.3836931223
 21
-14.5701097034
  0
LINE
  5
22C
100
AcDbEntity
  8
0
100
AcDbLine
 62
250
  6
CONTINUOUS
 10
-17.3624130059
 20
30.7037090957
 11
-17.3624130059
 21
-14.6103912663
  0
LINE
  5
22D
100
AcDbEntity
  8
0
100
AcDbLine
 62
250
  6
CONTINUOUS
 10
-16.7125044867
 20
31.7736647527
 11
-16.7125044867
 21
32.8347547138
  0
LINE
  5
22E
100
AcDbEntity
  8
ASSI
100
AcDbLine
 62
7
  6
CONTINUOUS
 10
-16.639281182
 20
31.6647693409
 11
-16.639281182
 21
32.9368233622
  0
LINE
  5
22F
100
AcDbEntity
  8
ASSI
100
AcDbLine
 62
7
  6
CONTINUOUS
 10
-16.4433162116
 20
30.8464444758
 11
-16.4433162116
 21
31.0088022848
  0
LINE
  5
230
100
AcDbEntity
  8
RACCORDO
100
AcDbLine
 62
250
  6
CONTINUOUS
 10
-16.1519593292
 20
-11.3224860136
 11
-16.1519593292
 21
25.3843796554
  0
LINE
  5
231
100
AcDbEntity
  8
RACCORDO
100
AcDbLine
 62
250
  6
CONTINUOUS
 10
-14.6939869744
 20
-12.0503001051
 11
7.1490878456
 21
-24.6622177481
  0
LINE
  5
232
100
AcDbEntity
  8
RACCORDO
100
AcDbLine
 62
250
  6
CONTINUOUS
 10
-15.2982909243
 20
-11.5898467186
 11
7.8241008205
 21
-24.9404259205
  0
LINE
  5
233
100
AcDbEntity
  8
RACCORDO
100
AcDbLine
 62
250
  6
CONTINUOUS
 10
-15.4468910857
 20
-11.5638813716
 11
-15.4468910857
 21
25.1429936984
  0
LINE
  5
234
100
AcDbEntity
  8
0
100
AcDbLine
 62
7
  6
CONTINUOUS
 10
-15.4397122806
 20
30.0085205217
 11
-15.4397122806
 21
35.2027473551
  0
LINE
  5
235
100
AcDbEntity
  8
RACCORDO
100
AcDbLine
 62
250
  6
CONTINUOUS
 10
-15.2982909243
 20
25.0862426164
 11
-15.2982909243
 21
-11.5898467186
  0
LINE
  5
236
100
AcDbEntity
  8
0
100
AcDbLine
 62
7
  6
CONTINUOUS
 10
-14.6972501603
 20
21.7099822344
 11
-14.6972501603
 21
-8.9076531453
  0
LINE
  5
237
100
AcDbEntity
  8
DRAFT
100
AcDbLine
 62
7
  6
CONTINUOUS
 10
-14.6495522265
 20
-8.8393026561
 11
-14.6495522265
 21
21.4232415295
  0
LINE
  5
238
100
AcDbEntity
  8
0
100
AcDbLine
 62
250
  6
CONTINUOUS
 10
-14.4674404565
 20
34.6413697893
 11
-14.4674404565
 21
29.2246306283
  0
LINE
  5
239
100
AcDbEntity
  8
0
100
AcDbLine
 62
250
  6
CONTINUOUS
 10
-14.2906637612
 20
34.6413697893
 11
-14.2906637612
 21
29.0847195034
  0
LINE
  5
23A
100
AcDbEntity
  8
0
100
AcDbLine
 62
250
  6
CONTINUOUS
 10
-14.0078210487
 20
34.8046796266
 11
-14.0078210487
 21
28.8608617037
  0
LINE
  5
23B
100
AcDbEntity
  8
ASSI
100
AcDbLine
 62
7
  6
CONTINUOUS
 10
-13.9712093963
 20
34.8557139508
 11
-13.9712093963
 21
28.8326959642
  0
LINE
  5
23C
100
AcDbEntity
  8
0
100
AcDbLine
 62
7
  6
CONTINUOUS
 10
-14.6972501603
 20
-8.9076531453
 11
7.2230600564
 21
-21.5641655385
  0
LINE
  5
23D
100
AcDbEntity
  8
DRAFT
100
AcDbLine
 62
7
  6
CONTINUOUS
 10
7.0339407664
 20
-21.3590797522
 11
-14.6495522265
 21
-8.8393026561
  0
LINE
  5
23E
100
AcDbEntity
  8
0
100
AcDbLine
 62
7
  6
CONTINUOUS
 10
13.0213356622
 20
14.8094314184
 11
13.7637977824
 21
15.2381197414
  0
LINE
  5
23F
100
AcDbEntity
  8
0
100
AcDbLine
 62
7
  6
CONTINUOUS
 10
16.8927452892
 20
16.6364602236
 11
17.1755880016
 21
16.7997700609
  0
LINE
  5
240
100
AcDbEntity
  8
0
100
AcDbLine
 62
7
  6
CONTINUOUS
 10
13.3748890528
 20
14.2786744471
 11
14.117351173
 21
14.7073627701
  0
LINE
  5
241
100
AcDbEntity
  8
0
100
AcDbLine
 62
7
  6
CONTINUOUS
 10
14.5769705808
 20
14.4419842844
 11
14.1527065121
 21
14.1970195284
  0
LINE
  5
242
100
AcDbEntity
  8
0
100
AcDbLine
 62
7
  6
CONTINUOUS
 10
15.3547880401
 20
14.5236392031
 11
17.8650171133
 21
15.9730140094
  0
LINE
  5
243
100
AcDbEntity
  8
0
100
AcDbLine
 62
7
  6
CONTINUOUS
 10
15.8497627869
 20
14.2786744471
 11
18.6958675812
 21
15.9219796852
  0
LINE
  5
244
100
AcDbEntity
  8
DRAFT
100
AcDbLine
 62
7
  6
CONTINUOUS
 10
7.2230600564
 20
9.0126591792
 11
7.0339407664
 21
8.9034644334
  0
LINE
  5
245
100
AcDbEntity
  8
0
100
AcDbLine
 62
7
  6
CONTINUOUS
 10
-14.6972501603
 20
-8.9076531453
 11
-14.6142117469
 21
-8.8597078061
  0
LINE
  5
246
100
AcDbEntity
  8
DRAFT
100
AcDbLine
 62
7
  6
CONTINUOUS
 10
7.0339407664
 20
8.9034644334
 11
7.0339407664
 21
-21.3590797522
  0
LINE
  5
247
100
AcDbEntity
  8
0
100
AcDbLine
 62
7
  6
CONTINUOUS
 10
7.2230600564
 20
-21.5641655385
 11
7.2230600564
 21
9.0534698413
  0
LINE
  5
248
100
AcDbEntity
  8
RACCORDO
100
AcDbLine
 62
250
  6
CONTINUOUS
 10
7.8241008205
 20
11.7356634146
 11
7.8241008205
 21
-24.9404259205
  0
LINE
  5
249
100
AcDbEntity
  8
RACCORDO
100
AcDbLine
 62
250
  6
CONTINUOUS
 10
7.8957312163
 20
11.6652566896
 11
7.8957312163
 21
-25.0416183804
  0
LINE
  5
24A
100
AcDbEntity
  8
RACCORDO
100
AcDbLine
 62
250
  6
CONTINUOUS
 10
8.3138206469
 20
11.2581633618
 11
8.3138206469
 21
-25.4487023073
  0
LINE
  5
24B
100
AcDbEntity
  8
0
100
AcDbLine
 62
250
  6
CONTINUOUS
 10
10.0729562944
 20
14.8628707077
 11
10.0729562944
 21
-30.4512296543
  0
LINE
  5
24C
100
AcDbEntity
  8
0
100
AcDbLine
 62
250
  6
CONTINUOUS
 10
10.1645614007
 20
14.8516939839
 11
10.1645614007
 21
-30.4624063781
  0
LINE
  5
24D
100
AcDbEntity
  8
RACCORDO
100
AcDbLine
 62
7
  6
CONTINUOUS
 10
7.8943070913
 20
11.6798707722
 11
7.8942718122
 21
11.6800182001
  0
LINE
  5
24E
100
AcDbEntity
  8
0
100
AcDbLine
 62
250
  6
CONTINUOUS
 10
12.3691261077
 20
-30.8629855889
 11
12.3691261077
 21
14.4511147731
  0
LINE
  5
24F
100
AcDbEntity
  8
0
100
AcDbLine
 62
250
  6
CONTINUOUS
 10
12.6677822716
 20
14.2786744471
 11
12.6677822716
 21
-31.0354259149
  0
LINE
  5
250
100
AcDbEntity
  8
0
100
AcDbLine
 62
250
  6
CONTINUOUS
 10
13.3748890528
 20
14.2786744471
 11
13.3748890528
 21
-31.0354259149
  0
LWPOLYLINE
  5
251
100
AcDbEntity
  8
RACCORDO
100
AcDbPolyline
 62
7
  6
CONTINUOUS
 90
13
 70
0
 10
-4.7674491257
 20
18.5821951187
 10
-3.8690561244
 20
18.0662140811
 10
-2.93012223
 20
17.5326583613
 10
-1.9793213809
 20
16.9980896217
 10
-1.0168824985
 20
16.4626421754
 10
-0.0430082196
 20
15.9264308106
 10
0.9421161183
 20
15.3895590653
 10
1.9382939424
 20
14.8521365136
 10
2.9452997903
 20
14.3142846986
 10
3.9629022738
 20
13.7761263785
 10
4.9908729008
 20
13.2377823912
 10
6.0289837418
 20
12.6993696595
 10
7.1156547468
 20
12.141145994
  0
LINE
  5
252
100
AcDbEntity
  8
DRAFT
100
AcDbLine
 62
7
  6
CONTINUOUS
 10
-14.6495522265
 20
21.4232415295
 11
7.0339407664
 21
8.9034644334
  0
LINE
  5
253
100
AcDbEntity
  8
0
100
AcDbLine
 62
7
  6
CONTINUOUS
 10
7.2230600564
 20
9.0534698413
 11
-14.6972501603
 21
21.7099822344
  0
LWPOLYLINE
  5
254
100
AcDbEntity
  8
RACCORDO
100
AcDbPolyline
 62
7
  6
CONTINUOUS
 90
4
 70
0
 10
-15.403793265
 20
25.1750899617
 10
-15.3710571751
 20
25.1547409004
 10
-15.3165048909
 20
25.1205375051
 10
-15.2597576897
 20
25.0845941478
  0
LINE
  5
255
100
AcDbEntity
  8
RACCORDO
100
AcDbLine
 62
7
  6
CONTINUOUS
 10
-15.2597576897
 20
25.0845941478
 11
-15.1396997422
 21
25.0074459586
  0
LWPOLYLINE
  5
256
100
AcDbEntity
  8
RACCORDO
100
AcDbPolyline
 62
7
  6
CONTINUOUS
 90
12
 70
0
 10
-14.1416465861
 20
24.3464801161
 10
-13.350396754
 20
23.8284031451
 10
-12.5459115404
 20
23.3085225617
 10
-11.728369819
 20
22.7869502464
 10
-10.89796148
 20
22.2638002244
 10
-10.0548789533
 20
21.7391868496
 10
-9.1993230838
 20
21.2132285812
 10
-8.3314869345
 20
20.6860346371
 10
-7.451550706
 20
20.1577057844
 10
-6.5597160978
 20
19.6283546362
 10
-5.6562308981
 20
19.0981161097
 10
-4.7674488431
 20
18.5821949555
  0
LINE
  5
257
100
AcDbEntity
  8
RACCORDO
100
AcDbLine
 62
7
  6
CONTINUOUS
 10
-15.1396997422
 20
25.0074459586
 11
-15.0108290529
 21
24.9231639863
  0
LINE
  5
258
100
AcDbEntity
  8
RACCORDO
100
AcDbLine
 62
7
  6
CONTINUOUS
 10
-15.0108290529
 20
24.9231639863
 11
-14.1416465861
 21
24.3464801161
  0
LINE
  5
259
100
AcDbEntity
  8
RACCORDO
100
AcDbLine
 62
7
  6
CONTINUOUS
 10
7.8954370146
 20
11.6753936006
 11
7.8956253578
 21
11.6749182739
  0
LINE
  5
25A
100
AcDbEntity
  8
0
100
AcDbLine
 62
7
  6
CONTINUOUS
 10
14.117351173
 20
-30.6067375919
 11
14.117351173
 21
14.7073627701
  0
LINE
  5
25B
100
AcDbEntity
  8
ASSI
100
AcDbLine
 62
7
  6
CONTINUOUS
 10
14.1380618511
 20
14.1766057988
 11
14.1380618511
 21
-31.1374945632
  0
LINE
  5
25C
100
AcDbEntity
  8
0
100
AcDbLine
 62
250
  6
CONTINUOUS
 10
14.1527065121
 20
14.1561920691
 11
14.1527065121
 21
-31.1579082929
  0
LINE
  5
25D
100
AcDbEntity
  8
0
100
AcDbLine
 62
7
  6
CONTINUOUS
 10
14.1674213507
 20
-31.1664044563
 11
14.1674213507
 21
14.1476959057
  0
LINE
  5
25E
100
AcDbEntity
  8
0
100
AcDbLine
 62
250
  6
CONTINUOUS
 10
15.8497627869
 20
-31.0354259149
 11
15.8497627869
 21
14.2786744471
  0
LINE
  5
25F
100
AcDbEntity
  8
RACCORDO
100
AcDbLine
 62
7
  6
CONTINUOUS
 10
7.1156547468
 20
12.141145994
 11
7.301968804
 21
12.0446455963
  0
LINE
  5
260
100
AcDbEntity
  8
RACCORDO
100
AcDbLine
 62
7
  6
CONTINUOUS
 10
7.301968804
 20
12.0446455963
 11
7.477546323
 21
11.9522628662
  0
LINE
  5
261
100
AcDbEntity
  8
RACCORDO
100
AcDbLine
 62
7
  6
CONTINUOUS
 10
7.477546323
 20
11.9522628662
 11
7.6423230824
 21
11.8641132599
  0
LINE
  5
262
100
AcDbEntity
  8
RACCORDO
100
AcDbLine
 62
7
  6
CONTINUOUS
 10
7.6423230824
 20
11.8641132599
 11
7.765240783
 21
11.7973249186
  0
LWPOLYLINE
  5
263
100
AcDbEntity
  8
RACCORDO
100
AcDbPolyline
 62
7
  6
CONTINUOUS
 90
42
 70
0
 10
7.7652313627
 20
11.7973300744
 10
7.7679760709
 20
11.7958198457
 10
7.7727562666
 20
11.7931496324
 10
7.7774619167
 20
11.7904691757
 10
7.7820838015
 20
11.7877830409
 10
7.786597347
 20
11.7851052792
 10
7.790985656
 20
11.7824454064
 10
7.7952534024
 20
11.7798001543
 10
7.7994073746
 20
11.7771652031
 10
7.8034449447
 20
11.7745423709
 10
7.8073781099
 20
11.7719236694
 10
7.8112324054
 20
11.7692911804
 10
7.8150038851
 20
11.766645847
 10
7.8187067916
 20
11.7639755415
 10
7.8223886347
 20
11.7612431071
 10
7.8260545197
 20
11.7584398173
 10
7.8297075769
 20
11.7555576295
 10
7.8333835645
 20
11.7525617003
 10
7.8370816974
 20
11.7494435024
 10
7.8408026256
 20
11.7461934729
 10
7.844569877
 20
11.7427795322
 10
7.8483958136
 20
11.739176582
 10
7.852251383
 20
11.7353969807
 10
7.8560896729
 20
11.7314750336
 10
7.8599199626
 20
11.7273900763
 10
7.8636984901
 20
11.7231782472
 10
7.8673018494
 20
11.7189774159
 10
7.870688885
 20
11.7148480123
 10
7.8738836337
 20
11.7107748144
 10
7.8768697996
 20
11.706792472
 10
7.8796342884
 20
11.7029353483
 10
7.8821780516
 20
11.6992209279
 10
7.8845057703
 20
11.6956617079
 10
7.8866213248
 20
11.6922713266
 10
7.8885117002
 20
11.6890927908
 10
7.890161562
 20
11.6861795871
 10
7.8915744539
 20
11.6835577177
 10
7.8927600955
 20
11.681243519
 10
7.8937245291
 20
11.6792618069
 10
7.8944788629
 20
11.6776289824
 10
7.8950418594
 20
11.6763445151
 10
7.8954370146
 20
11.6753936006
  0
LINE
  5
264
100
AcDbEntity
  8
RACCORDO
100
AcDbLine
 62
7
  6
CONTINUOUS
 10
7.8033544439
 20
11.7814590739
 11
7.8033926231
 21
11.7814370633
  0
LINE
  5
265
100
AcDbEntity
  8
RACCORDO
100
AcDbLine
 62
250
  6
CONTINUOUS
 10
7.8241008205
 20
11.7356634146
 11
7.1737233382
 21
12.1111832217
  0
LINE
  5
266
100
AcDbEntity
  8
RACCORDO
100
AcDbLine
 62
250
  6
CONTINUOUS
 10
-14.9765528077
 20
24.9004750602
 11
-15.2982909243
 21
25.0862426164
  0
LINE
  5
267
100
AcDbEntity
  8
RACCORDO
100
AcDbLine
 62
7
  6
CONTINUOUS
 10
-15.3188919781
 20
25.1319541354
 11
-15.3189992512
 21
25.1320163399
  0
LINE
  5
268
100
AcDbEntity
  8
ASSI
100
AcDbLine
 62
7
  6
CONTINUOUS
 10
16.8561336368
 20
15.3904973344
 11
16.8561336368
 21
16.5854258994
  0
LINE
  5
269
100
AcDbEntity
  8
0
100
AcDbLine
 62
250
  6
CONTINUOUS
 10
16.8927452892
 20
15.4116364436
 11
16.8927452892
 21
16.5343915752
  0
LINE
  5
26A
100
AcDbEntity
  8
0
100
AcDbLine
 62
250
  6
CONTINUOUS
 10
18.6958675812
 20
15.9219796852
 11
18.6958675812
 21
-29.3921206768
  0
LINE
  5
26B
100
AcDbEntity
  8
ASSI
100
AcDbLine
 62
7
  6
CONTINUOUS
 10
18.7324792335
 20
15.9730140094
 11
18.7324792335
 21
-29.3410863526
  0
LINE
  5
26C
100
AcDbEntity
  8
0
100
AcDbLine
 62
7
  6
CONTINUOUS
 10
-18.3742054225
 20
32.2019290942
 11
-18.0755492586
 21
32.0294887682
  0
LINE
  5
26D
100
AcDbEntity
  8
0
100
AcDbLine
 62
7
  6
CONTINUOUS
 10
12.3691261077
 20
14.4511147731
 11
12.6677822716
 21
14.2786744471
  0
LINE
  5
26E
100
AcDbEntity
  8
0
100
AcDbLine
 62
7
  6
CONTINUOUS
 10
-18.6010522955
 20
33.0678019036
 11
-18.5863374569
 21
33.0593057402
  0
LINE
  5
26F
100
AcDbEntity
  8
0
100
AcDbLine
 62
7
  6
CONTINUOUS
 10
-17.454966607
 20
32.4060663908
 11
-17.4391531555
 21
32.3969359022
  0
LINE
  5
270
100
AcDbEntity
  8
0
100
AcDbLine
 62
7
  6
CONTINUOUS
 10
13.0055222107
 20
14.8185619071
 11
13.0213356622
 21
14.8094314184
  0
LINE
  5
271
100
AcDbEntity
  8
0
100
AcDbLine
 62
7
  6
CONTINUOUS
 10
14.1527065121
 20
14.1561920691
 11
14.1674213507
 21
14.1476959057
  0
LINE
  5
272
100
AcDbEntity
  8
0
100
AcDbLine
 62
7
  6
CONTINUOUS
 10
-18.09136271
 20
33.3042704962
 11
-17.6317433023
 21
33.0388920105
  0
LINE
  5
273
100
AcDbEntity
  8
0
100
AcDbLine
 62
7
  6
CONTINUOUS
 10
14.117351173
 20
14.7073627701
 11
14.5769705808
 21
14.4419842844
  0
LINE
  5
274
100
AcDbEntity
  8
0
100
AcDbLine
 62
7
  6
CONTINUOUS
 10
-17.9499413538
 20
33.7533725488
 11
-16.7125044867
 21
33.0388920105
  0
LINE
  5
275
100
AcDbEntity
  8
0
100
AcDbLine
 62
7
  6
CONTINUOUS
 10
14.117351173
 20
15.2381197414
 11
15.3547880401
 21
14.5236392031
  0
LINE
  5
276
100
AcDbEntity
  8
DRAFT
100
AcDbLine
 62
7
  6
CONTINUOUS
 10
7.2230600564
 20
-21.2573775182
 11
7.0339407664
 21
-21.3590797522
  0
LINE
  5
277
100
AcDbEntity
  8
0
100
AcDbLine
 62
7
  6
CONTINUOUS
 10
17.8650171133
 20
15.9730140094
 11
16.8927452892
 21
16.5343915752
  0
LINE
  5
278
100
AcDbEntity
  8
0
100
AcDbLine
 62
7
  6
CONTINUOUS
 10
-14.4674404565
 20
34.6413697893
 11
-15.4397122806
 21
35.2027473551
  0
LINE
  5
279
100
AcDbEntity
  8
0
100
AcDbLine
 62
7
  6
CONTINUOUS
 10
18.6958675812
 20
16.0240483336
 11
17.3523646969
 21
16.7997700609
  0
LINE
  5
27A
100
AcDbEntity
  8
0
100
AcDbLine
 62
7
  6
CONTINUOUS
 10
-14.0078210487
 20
34.906748275
 11
-15.3513239329
 21
35.6824700023
  0
LINE
  5
27B
100
AcDbEntity
  8
0
100
AcDbLine
 62
7
  6
CONTINUOUS
 10
13.3748890528
 20
-31.0354259149
 11
14.117351173
 21
-30.6067375919
  0
LINE
  5
27C
100
AcDbEntity
  8
0
100
AcDbLine
 62
7
  6
CONTINUOUS
 10
15.8497627869
 20
-31.0354259149
 11
18.6958675812
 21
-29.3921206768
  0
ARC
  5
27D
100
AcDbEntity
  8
RACCORDO
100
AcDbCircle
 62
250
  6
CONTINUOUS
 10
74.7338350306
 20
136.1378933236
 40
173.0811255858
100
AcDbArc
 50
238.6460693375
 51
238.8900816696
  0
ARC
  5
27E
100
AcDbEntity
  8
RACCORDO
100
AcDbCircle
 62
250
  6
CONTINUOUS
 10
90.1910677359
 20
125.7662715429
 40
171.8275321887
100
AcDbArc
 50
241.0997104694
 51
241.3466191607
  0
ARC
  5
27F
100
AcDbEntity
  8
RACCORDO
100
AcDbCircle
 62
250
  6
CONTINUOUS
 10
-2.6000900379
 20
0.8511131369
 40
18.611097623
100
AcDbArc
 50
225.3032103557
 51
227.605493027
  0
ARC
  5
280
100
AcDbEntity
  8
0
100
AcDbCircle
 62
7
  6
CONTINUOUS
 10
-17.5852923773
 20
31.0091277694
 40
1.1419741478
100
AcDbArc
 50
352.2535881262
 51
359.9836696087
  0
ARC
  5
281
100
AcDbEntity
  8
RACCORDO
100
AcDbCircle
 62
250
  6
CONTINUOUS
 10
7.8347677758
 20
11.6656572592
 40
0.0612123689
100
AcDbArc
 50
10.0657256544
 51
13.4266301533
  0
SPLINE
  5
282
100
AcDbEntity
  8
0
100
AcDbSpline
 62
7
  6
CONTINUOUS
 70
0
 71
3
 72
11
 73
7
 74
0
 42
0.0000001
 43
0.0000001
 44
0.0000000001
 40
0.0
 40
0.0
 40
0.0
 40
0.0
 40
0.2517594073
 40
0.5142117408
 40
0.7691387172
 40
1.0
 40
1.0
 40
1.0
 40
1.0
 10
14.1674213507
 20
-31.1664044563
 30
0.0
 10
14.3052814111
 20
-31.2116983773
 30
0.0
 10
14.597968462
 20
-31.2719432366
 30
0.0
 10
15.0436004855
 20
-31.2790177439
 30
0.0
 10
15.4711406131
 20
-31.2063527146
 30
0.0
 10
15.7345272003
 20
-31.1019614984
 30
0.0
 10
15.8497627869
 20
-31.0354259149
 30
0.0
  0
SPLINE
  5
283
100
AcDbEntity
  8
0
100
AcDbSpline
 62
7
  6
CONTINUOUS
 70
0
 71
3
 72
11
 73
7
 74
0
 42
0.0000001
 43
0.0000001
 44
0.0000000001
 40
0.0
 40
0.0
 40
0.0
 40
0.0
 40
0.2277123015
 40
0.4759660347
 40
0.7366269121
 40
1.0
 40
1.0
 40
1.0
 40
1.0
 10
12.3691261077
 20
-30.8629855889
 30
0.0
 10
12.2197302655
 20
-30.776726302
 30
0.0
 10
11.8876041729
 20
-30.6300391849
 30
0.0
 10
11.3450112325
 20
-30.4913275894
 30
0.0
 10
10.7613352653
 20
-30.429517713
 30
0.0
 10
10.3630484557
 20
-30.4420700745
 30
0.0
 10
10.1645614007
 20
-30.4624063781
 30
0.0
  0
SPLINE
  5
284
100
AcDbEntity
  8
0
100
AcDbSpline
 62
7
  6
CONTINUOUS
 70
0
 71
3
 72
11
 73
7
 74
0
 42
0.0000001
 43
0.0000001
 44
0.0000000001
 40
0.0
 40
0.0
 40
0.0
 40
0.0
 40
0.2676516195
 40
0.5239773089
 40
0.7682223034
 40
1.0
 40
1.0
 40
1.0
 40
1.0
 10
10.0729562944
 20
-30.4512296543
 30
0.0
 10
7.4266094355
 20
-29.4234711986
 30
0.0
 10
2.3129084268
 20
-27.2321397736
 30
0.0
 10
-4.918581142
 20
-23.4586962174
 30
0.0
 10
-11.4900555003
 20
-19.2994073838
 30
0.0
 10
-15.4970100887
 20
-16.2116557292
 30
0.0
 10
-17.3624130059
 20
-14.6103912663
 30
0.0
  0
SPLINE
  5
285
100
AcDbEntity
  8
0
100
AcDbSpline
 62
7
  6
CONTINUOUS
 70
0
 71
3
 72
9
 73
5
 74
0
 42
0.0000001
 43
0.0000001
 44
0.0000000001
 40
0.0
 40
0.0
 40
0.0
 40
0.0
 40
0.253545511
 40
1.0
 40
1.0
 40
1.0
 40
1.0
 10
-17.3817704122
 20
30.7566007361
 30
0.0
 10
-17.3754231877
 20
30.7772535265
 30
0.0
 10
-17.353280813
 20
30.8595650395
 30
0.0
 10
-17.3433158071
 20
30.9451924207
 30
0.0
 10
-17.3433161757
 20
31.0088022847
 30
0.0
  0
SPLINE
  5
286
100
AcDbEntity
  8
0
100
AcDbSpline
 62
7
  6
CONTINUOUS
 70
0
 71
3
 72
11
 73
7
 74
0
 42
0.0000001
 43
0.0000001
 44
0.0000000001
 40
0.0
 40
0.0
 40
0.0
 40
0.0
 40
0.2898019501
 40
0.5490403542
 40
0.7822233176
 40
1.0
 40
1.0
 40
1.0
 40
1.0
 10
-18.3742054225
 20
34.0391647641
 30
0.0
 10
-18.4356595153
 20
34.0036819412
 30
0.0
 10
-18.5471308705
 20
33.9269459076
 30
0.0
 10
-18.6802837465
 20
33.7869034762
 30
0.0
 10
-18.7645755748
 20
33.6320768578
 30
0.0
 10
-18.784255336
 20
33.5209061181
 30
0.0
 10
-18.7842546567
 20
33.4675803341
 30
0.0
  0
SPLINE
  5
287
100
AcDbEntity
  8
0
100
AcDbSpline
 62
7
  6
CONTINUOUS
 70
0
 71
3
 72
11
 73
7
 74
0
 42
0.0000001
 43
0.0000001
 44
0.0000000001
 40
0.0
 40
0.0
 40
0.0
 40
0.0
 40
0.2278550815
 40
0.4749219948
 40
0.7348612182
 40
1.0
 40
1.0
 40
1.0
 40
1.0
 10
13.0055222107
 20
14.8185619071
 30
0.0
 10
12.8237995668
 20
14.9234862842
 30
0.0
 10
12.423418326
 20
15.1056290595
 30
0.0
 10
11.7700832623
 20
15.2898666666
 30
0.0
 10
11.0642041513
 20
15.3904257096
 30
0.0
 10
10.5792573937
 20
15.3985809093
 30
0.0
 10
10.3353334136
 20
15.3875274035
 30
0.0
  0
SPLINE
  5
288
100
AcDbEntity
  8
0
100
AcDbSpline
 62
7
  6
CONTINUOUS
 70
0
 71
3
 72
11
 73
7
 74
0
 42
0.0000001
 43
0.0000001
 44
0.0000000001
 40
0.0
 40
0.0
 40
0.0
 40
0.0
 40
0.2320489942
 40
0.4763760943
 40
0.7326031079
 40
1.0
 40
1.0
 40
1.0
 40
1.0
 10
-16.4537394968
 20
30.855202356
 30
0.0
 10
-14.6255755439
 20
29.2956602565
 30
0.0
 10
-10.7045486177
 20
26.2872410613
 30
0.0
 10
-4.2843413726
 20
22.2289779275
 30
0.0
 10
2.7707726289
 20
18.5417460068
 30
0.0
 10
7.75624722
 20
16.3954300847
 30
0.0
 10
10.3353334136
 20
15.3875274035
 30
0.0
  0
SPLINE
  5
289
100
AcDbEntity
  8
0
100
AcDbSpline
 62
7
  6
CONTINUOUS
 70
0
 71
3
 72
9
 73
5
 74
0
 42
0.0000001
 43
0.0000001
 44
0.0000000001
 40
0.0
 40
0.0
 40
0.0
 40
0.0
 40
0.4491821089
 40
1.0
 40
1.0
 40
1.0
 40
1.0
 10
14.138064174
 20
14.1766057988
 30
0.0
 10
14.138064174
 20
14.1805000804
 30
0.0
 10
14.1414645263
 20
14.189192209
 30
0.0
 10
14.1485709306
 20
14.1946316955
 30
0.0
 10
14.1527065121
 20
14.1970195284
 30
0.0
  0
SPLINE
  5
28A
100
AcDbEntity
  8
0
100
AcDbSpline
 62
7
  6
CONTINUOUS
 70
0
 71
3
 72
8
 73
4
 74
0
 42
0.0000001
 43
0.0000001
 44
0.0000000001
 40
0.0
 40
0.0
 40
0.0
 40
0.0
 40
1.0
 40
1.0
 40
1.0
 40
1.0
 10
-17.3836899815
 20
30.7439906553
 30
0.0
 10
-17.3836884139
 20
30.7482424374
 30
0.0
 10
-17.3830194565
 20
30.7525365582
 30
0.0
 10
-17.3817704122
 20
30.7566007361
 30
0.0
  0
SPLINE
  5
28B
100
AcDbEntity
  8
0
100
AcDbSpline
 62
7
  6
CONTINUOUS
 70
0
 71
3
 72
9
 73
5
 74
0
 42
0.0000001
 43
0.0000001
 44
0.0000000001
 40
0.0
 40
0.0
 40
0.0
 40
0.0
 40
0.4492219968
 40
1.0
 40
1.0
 40
1.0
 40
1.0
 10
18.7324792335
 20
-29.3410863526
 30
0.0
 10
18.7324792335
 20
-29.3508231305
 30
0.0
 10
18.7239678051
 20
-29.3725503419
 30
0.0
 10
18.7062060084
 20
-29.3861513985
 30
0.0
 10
18.6958675812
 20
-29.3921206768
 30
0.0
  0
SPLINE
  5
28C
100
AcDbEntity
  8
0
100
AcDbSpline
 62
7
  6
CONTINUOUS
 70
0
 71
3
 72
11
 73
7
 74
0
 42
0.0000001
 43
0.0000001
 44
0.0000000001
 40
0.0
 40
0.0
 40
0.0
 40
0.0
 40
0.2177814642
 40
0.4509426406
 40
0.7102332255
 40
1.0
 40
1.0
 40
1.0
 40
1.0
 10
-16.6392823499
 20
32.9368233622
 30
0.0
 10
-16.6392823499
 20
32.9463459656
 30
0.0
 10
-16.642798833
 20
32.9661962437
 30
0.0
 10
-16.6578465858
 20
32.9938475543
 30
0.0
 10
-16.6816273848
 20
33.0188519561
 30
0.0
 10
-16.7015319509
 20
33.0325566058
 30
0.0
 10
-16.7125044867
 20
33.0388920105
 30
0.0
  0
SPLINE
  5
28D
100
AcDbEntity
  8
0
100
AcDbSpline
 62
7
  6
CONTINUOUS
 70
0
 71
3
 72
11
 73
7
 74
0
 42
0.0000001
 43
0.0000001
 44
0.0000000001
 40
0.0
 40
0.0
 40
0.0
 40
0.0
 40
0.2372193404
 40
0.5
 40
0.7627806596
 40
1.0
 40
1.0
 40
1.0
 40
1.0
 10
13.3748890528
 20
-31.0354259149
 30
0.0
 10
13.3246993901
 20
-31.0644047971
 30
0.0
 10
13.2079740774
 20
-31.1066993075
 30
0.0
 10
13.0213356622
 20
-31.1269634061
 30
0.0
 10
12.8346972469
 20
-31.1066993075
 30
0.0
 10
12.7179719343
 20
-31.0644047971
 30
0.0
 10
12.6677822716
 20
-31.0354259149
 30
0.0
  0
SPLINE
  5
28E
100
AcDbEntity
  8
0
100
AcDbSpline
 62
7
  6
CONTINUOUS
 70
0
 71
3
 72
11
 73
7
 74
0
 42
0.0000001
 43
0.0000001
 44
0.0000000001
 40
0.0
 40
0.0
 40
0.0
 40
0.0
 40
0.2897937154
 40
0.5490416136
 40
0.782223008
 40
1.0
 40
1.0
 40
1.0
 40
1.0
 10
-18.3742054225
 20
-13.1121712678
 30
0.0
 10
-18.3961527065
 20
-13.0994991811
 30
0.0
 10
-18.4359637683
 20
-13.0720932077
 30
0.0
 10
-18.4835195765
 20
-13.0220789725
 30
0.0
 10
-18.5136231594
 20
-12.9667824889
 30
0.0
 10
-18.5206520319
 20
-12.9270789361
 30
0.0
 10
-18.5206520319
 20
-12.9080339712
 30
0.0
  0
SPLINE
  5
28F
100
AcDbEntity
  8
0
100
AcDbSpline
 62
7
  6
CONTINUOUS
 70
0
 71
3
 72
11
 73
7
 74
0
 42
0.0000001
 43
0.0000001
 44
0.0000000001
 40
0.0
 40
0.0
 40
0.0
 40
0.0
 40
0.2372259409
 40
0.5
 40
0.7627740591
 40
1.0
 40
1.0
 40
1.0
 40
1.0
 10
13.7637977824
 20
15.2381197414
 30
0.0
 10
13.788893303
 20
15.2526095805
 30
0.0
 10
13.8472560268
 20
15.2737570005
 30
0.0
 10
13.9405744777
 20
15.2838870748
 30
0.0
 10
14.0338929287
 20
15.2737570005
 30
0.0
 10
14.0922556525
 20
15.2526095805
 30
0.0
 10
14.117351173
 20
15.2381197414
 30
0.0
  0
SPLINE
  5
290
100
AcDbEntity
  8
0
100
AcDbSpline
 62
7
  6
CONTINUOUS
 70
0
 71
3
 72
11
 73
7
 74
0
 42
0.0000001
 43
0.0000001
 44
0.0000000001
 40
0.0
 40
0.0
 40
0.0
 40
0.0
 40
0.217776992
 40
0.4509583864
 40
0.7102062846
 40
1.0
 40
1.0
 40
1.0
 40
1.0
 10
-18.5206520319
 20
32.4060663908
 30
0.0
 10
-18.5206520319
 20
32.4251113558
 30
0.0
 10
-18.5136231594
 20
32.4648149086
 30
0.0
 10
-18.4835195765
 20
32.5201113922
 30
0.0
 10
-18.4359637683
 20
32.5701256273
 30
0.0
 10
-18.3961527065
 20
32.5975316008
 30
0.0
 10
-18.3742054225
 20
32.6102036875
 30
0.0
  0
SPLINE
  5
291
100
AcDbEntity
  8
0
100
AcDbSpline
 62
7
  6
CONTINUOUS
 70
0
 71
3
 72
9
 73
5
 74
0
 42
0.0000001
 43
0.0000001
 44
0.0000000001
 40
0.0
 40
0.0
 40
0.0
 40
0.0
 40
0.5507780032
 40
1.0
 40
1.0
 40
1.0
 40
1.0
 10
16.8927452892
 20
16.6364602236
 30
0.0
 10
16.882406862
 20
16.6304909452
 30
0.0
 10
16.8646450653
 20
16.6168898887
 30
0.0
 10
16.8561336368
 20
16.5951626773
 30
0.0
 10
16.8561336368
 20
16.5854258994
 30
0.0
  0
SPLINE
  5
292
100
AcDbEntity
  8
0
100
AcDbSpline
 62
7
  6
CONTINUOUS
 70
0
 71
3
 72
11
 73
7
 74
0
 42
0.0000001
 43
0.0000001
 44
0.0000000001
 40
0.0
 40
0.0
 40
0.0
 40
0.0
 40
0.2372383085
 40
0.5
 40
0.7627616915
 40
1.0
 40
1.0
 40
1.0
 40
1.0
 10
17.1755880016
 20
16.7997700609
 30
0.0
 10
17.1881364173
 20
16.8070153588
 30
0.0
 10
17.2173179843
 20
16.8175884961
 30
0.0
 10
17.2639763493
 20
16.8226542619
 30
0.0
 10
17.3106347143
 20
16.8175884961
 30
0.0
 10
17.3398162813
 20
16.8070153588
 30
0.0
 10
17.3523646969
 20
16.7997700609
 30
0.0
  0
SPLINE
  5
293
100
AcDbEntity
  8
0
100
AcDbSpline
 62
7
  6
CONTINUOUS
 70
0
 71
3
 72
12
 73
8
 74
0
 42
0.0000001
 43
0.0000001
 44
0.0000000001
 40
0.0
 40
0.0
 40
0.0
 40
0.0
 40
0.1081717205
 40
0.2183727946
 40
0.4513768555
 40
0.710426052
 40
1.0
 40
1.0
 40
1.0
 40
1.0
 10
-16.4433182759
 20
31.008802285
 30
0.0
 10
-16.4433162556
 20
31.0731776284
 30
0.0
 10
-16.4545114349
 20
31.2034056374
 30
0.0
 10
-16.5221528789
 20
31.4644808306
 30
0.0
 10
-16.6957997214
 20
31.7845930052
 30
0.0
 10
-17.0192048214
 20
32.1243118691
 30
0.0
 10
-17.2899118824
 20
32.3107658615
 30
0.0
 10
-17.4391531555
 20
32.3969359022
 30
0.0
  0
SPLINE
  5
294
100
AcDbEntity
  8
0
100
AcDbSpline
 62
7
  6
CONTINUOUS
 70
0
 71
3
 72
9
 73
5
 74
0
 42
0.0000001
 43
0.0000001
 44
0.0000000001
 40
0.0
 40
0.0
 40
0.0
 40
0.0
 40
0.5507780032
 40
1.0
 40
1.0
 40
1.0
 40
1.0
 10
18.6958675812
 20
16.0240483336
 30
0.0
 10
18.7062060084
 20
16.0180790553
 30
0.0
 10
18.7239678051
 20
16.0044779987
 30
0.0
 10
18.7324792335
 20
15.9827507873
 30
0.0
 10
18.7324792335
 20
15.9730140094
 30
0.0
  0
SPLINE
  5
295
100
AcDbEntity
  8
0
100
AcDbSpline
 62
7
  6
CONTINUOUS
 70
0
 71
3
 72
11
 73
7
 74
0
 42
0.0000001
 43
0.0000001
 44
0.0000000001
 40
0.0
 40
0.0
 40
0.0
 40
0.0
 40
0.2372383085
 40
0.5
 40
0.7627616915
 40
1.0
 40
1.0
 40
1.0
 40
1.0
 10
-15.5281006282
 20
35.6824700023
 30
0.0
 10
-15.5155522126
 20
35.6897153002
 30
0.0
 10
-15.4863706456
 20
35.7002884375
 30
0.0
 10
-15.4397122806
 20
35.7053542033
 30
0.0
 10
-15.3930539155
 20
35.7002884375
 30
0.0
 10
-15.3638723486
 20
35.6897153002
 30
0.0
 10
-15.3513239329
 20
35.6824700023
 30
0.0
  0
SPLINE
  5
296
100
AcDbEntity
  8
0
100
AcDbSpline
 62
7
  6
CONTINUOUS
 70
0
 71
3
 72
9
 73
5
 74
0
 42
0.0000001
 43
0.0000001
 44
0.0000000001
 40
0.0
 40
0.0
 40
0.0
 40
0.0
 40
0.5507780032
 40
1.0
 40
1.0
 40
1.0
 40
1.0
 10
-14.0078210487
 20
34.906748275
 30
0.0
 10
-13.9974826215
 20
34.9007789967
 30
0.0
 10
-13.9797208248
 20
34.8871779401
 30
0.0
 10
-13.9712093963
 20
34.8654507287
 30
0.0
 10
-13.9712093963
 20
34.8557139508
 30
0.0
  0
SPLINE
  5
297
100
AcDbEntity
  8
0
100
AcDbSpline
 62
7
  6
CONTINUOUS
 70
0
 71
3
 72
10
 73
6
 74
0
 42
0.0000001
 43
0.0000001
 44
0.0000000001
 40
0.0
 40
0.0
 40
0.0
 40
0.0
 40
0.2333036369
 40
0.4741088844
 40
1.0
 40
1.0
 40
1.0
 40
1.0
 10
-18.7842546567
 20
-11.8465200279
 30
0.0
 10
-18.7842542112
 20
-11.8814897667
 30
0.0
 10
-18.7761149284
 20
-11.9528093425
 30
0.0
 10
-18.7268719502
 20
-12.0953520084
 30
0.0
 10
-18.656382465
 20
-12.1901555053
 30
0.0
 10
-18.6010522955
 20
-12.2462984584
 30
0.0
  0
SPLINE
  5
298
100
AcDbEntity
  8
0
100
AcDbSpline
 62
7
  6
CONTINUOUS
 70
0
 71
3
 72
9
 73
5
 74
0
 42
0.0000001
 43
0.0000001
 44
0.0000000001
 40
0.0
 40
0.0
 40
0.0
 40
0.0
 40
0.257705489
 40
1.0
 40
1.0
 40
1.0
 40
1.0
 10
10.1645614007
 20
-30.4624063781
 30
0.0
 10
10.156636879
 20
-30.4632182975
 30
0.0
 10
10.1257647043
 20
-30.4646080145
 30
0.0
 10
10.0943451519
 20
-30.4595364185
 30
0.0
 10
10.0729562944
 20
-30.4512296543
 30
0.0
  0
SPLINE
  5
299
100
AcDbEntity
  8
0
100
AcDbSpline
 62
7
  6
CONTINUOUS
 70
0
 71
3
 72
9
 73
5
 74
0
 42
0.0000001
 43
0.0000001
 44
0.0000000001
 40
0.0
 40
0.0
 40
0.0
 40
0.0
 40
0.5338743508
 40
1.0
 40
1.0
 40
1.0
 40
1.0
 10
-17.3624130059
 20
-14.6103912663
 30
0.0
 10
-17.3687133549
 20
-14.604983038
 30
0.0
 10
-17.3793061522
 20
-14.5930453916
 30
0.0
 10
-17.3836926544
 20
-14.5773592399
 30
0.0
 10
-17.3836899815
 20
-14.5701097067
 30
0.0
  0
SPLINE
  5
29A
100
AcDbEntity
  8
0
100
AcDbSpline
 62
7
  6
CONTINUOUS
 70
0
 71
3
 72
9
 73
5
 74
0
 42
0.0000001
 43
0.0000001
 44
0.0000000001
 40
0.0
 40
0.0
 40
0.0
 40
0.0
 40
0.5508178911
 40
1.0
 40
1.0
 40
1.0
 40
1.0
 10
14.1527065121
 20
-31.1579082929
 30
0.0
 10
14.1485709306
 20
-31.15552046
 30
0.0
 10
14.1414645263
 20
-31.1500809735
 30
0.0
 10
14.138064174
 20
-31.1413888449
 30
0.0
 10
14.138064174
 20
-31.1374945632
 30
0.0
  0
SPLINE
  5
29B
100
AcDbEntity
  8
0
100
AcDbSpline
 62
7
  6
CONTINUOUS
 70
0
 71
3
 72
9
 73
5
 74
0
 42
0.0000001
 43
0.0000001
 44
0.0000000001
 40
0.0
 40
0.0
 40
0.0
 40
0.0
 40
0.5080050777
 40
1.0
 40
1.0
 40
1.0
 40
1.0
 10
-18.5206150753
 20
-12.257313962
 30
0.0
 10
-18.5310433576
 20
-12.2619147899
 30
0.0
 10
-18.5539602588
 20
-12.2652833209
 30
0.0
 10
-18.5767776598
 20
-12.2603143289
 30
0.0
 10
-18.5863374569
 20
-12.2547946218
 30
0.0
  0
SPLINE
  5
29C
100
AcDbEntity
  8
0
100
AcDbSpline
 62
7
  6
CONTINUOUS
 70
0
 71
3
 72
11
 73
7
 74
0
 42
0.0000001
 43
0.0000001
 44
0.0000000001
 40
0.0
 40
0.0
 40
0.0
 40
0.0
 40
0.2204404728
 40
0.4583239333
 40
0.7176969263
 40
1.0
 40
1.0
 40
1.0
 40
1.0
 10
-17.383465539
 20
-14.0476420534
 30
0.0
 10
-17.4066403269
 20
-13.9738783311
 30
0.0
 10
-17.4746672694
 20
-13.826302821
 30
0.0
 10
-17.627888341
 20
-13.6246163224
 30
0.0
 10
-17.830906819
 20
-13.4395952971
 30
0.0
 10
-17.9897997605
 20
-13.3341222793
 30
0.0
 10
-18.0755492586
 20
-13.2846115938
 30
0.0
  0
SPLINE
  5
29D
100
AcDbEntity
  8
0
100
AcDbSpline
 62
7
  6
CONTINUOUS
 70
0
 71
3
 72
11
 73
7
 74
0
 42
0.0000001
 43
0.0000001
 44
0.0000000001
 40
0.0
 40
0.0
 40
0.0
 40
0.0
 40
0.2517594073
 40
0.5142117408
 40
0.7691387172
 40
1.0
 40
1.0
 40
1.0
 40
1.0
 10
14.1674213507
 20
14.1476959057
 30
0.0
 10
14.3052814111
 20
14.1024019847
 30
0.0
 10
14.597968462
 20
14.0421571254
 30
0.0
 10
15.0436004855
 20
14.0350826181
 30
0.0
 10
15.4711406131
 20
14.1077476474
 30
0.0
 10
15.7345272003
 20
14.2121388636
 30
0.0
 10
15.8497627869
 20
14.2786744471
 30
0.0
  0
SPLINE
  5
29E
100
AcDbEntity
  8
RACCORDO
100
AcDbSpline
 62
250
  6
CONTINUOUS
 70
0
 71
3
 72
10
 73
6
 74
0
 42
0.0000001
 43
0.0000001
 44
0.0000000001
 40
0.0
 40
0.0
 40
0.0
 40
0.0
 40
0.235107868
 40
0.4773200837
 40
1.0
 40
1.0
 40
1.0
 40
1.0
 10
-15.4037904357
 20
25.1750945603
 30
0.0
 10
-15.444251497
 20
25.2001629064
 30
0.0
 10
-15.5199121727
 20
25.2624391361
 30
0.0
 10
-15.6392189746
 20
25.4281137811
 30
0.0
 10
-15.6809839062
 20
25.5837072527
 30
0.0
 10
-15.6902958938
 20
25.6891130164
 30
0.0
  0
SPLINE
  5
29F
100
AcDbEntity
  8
0
100
AcDbSpline
 62
7
  6
CONTINUOUS
 70
0
 71
3
 72
9
 73
5
 74
0
 42
0.0000001
 43
0.0000001
 44
0.0000000001
 40
0.0
 40
0.0
 40
0.0
 40
0.0
 40
0.4492219968
 40
1.0
 40
1.0
 40
1.0
 40
1.0
 10
-13.9712093963
 20
34.8557139508
 30
0.0
 10
-13.9712093963
 20
34.8459771729
 30
0.0
 10
-13.9797208248
 20
34.8242499615
 30
0.0
 10
-13.9974826215
 20
34.8106489049
 30
0.0
 10
-14.0078210487
 20
34.8046796266
 30
0.0
  0
SPLINE
  5
2A0
100
AcDbEntity
  8
0
100
AcDbSpline
 62
7
  6
CONTINUOUS
 70
0
 71
3
 72
9
 73
5
 74
0
 42
0.0000001
 43
0.0000001
 44
0.0000000001
 40
0.0
 40
0.0
 40
0.0
 40
0.0
 40
0.4492219968
 40
1.0
 40
1.0
 40
1.0
 40
1.0
 10
18.7324792335
 20
15.9730140094
 30
0.0
 10
18.7324792335
 20
15.9632772315
 30
0.0
 10
18.7239678051
 20
15.9415500201
 30
0.0
 10
18.7062060084
 20
15.9279489635
 30
0.0
 10
18.6958675812
 20
15.9219796852
 30
0.0
  0
SPLINE
  5
2A1
100
AcDbEntity
  8
0
100
AcDbSpline
 62
7
  6
CONTINUOUS
 70
0
 71
3
 72
9
 73
5
 74
0
 42
0.0000001
 43
0.0000001
 44
0.0000000001
 40
0.0
 40
0.0
 40
0.0
 40
0.0
 40
0.4492219968
 40
1.0
 40
1.0
 40
1.0
 40
1.0
 10
16.8561336368
 20
16.5854258994
 30
0.0
 10
16.8561336368
 20
16.5756891215
 30
0.0
 10
16.8646450653
 20
16.5539619101
 30
0.0
 10
16.882406862
 20
16.5403608535
 30
0.0
 10
16.8927452892
 20
16.5343915752
 30
0.0
  0
SPLINE
  5
2A2
100
AcDbEntity
  8
RACCORDO
100
AcDbSpline
 62
250
  6
CONTINUOUS
 70
0
 71
3
 72
12
 73
8
 74
0
 42
0.0000001
 43
0.0000001
 44
0.0000000001
 40
0.0
 40
0.0
 40
0.0
 40
0.0
 40
0.0905052995
 40
0.1857510992
 40
0.4043000241
 40
0.6746153016
 40
1.0
 40
1.0
 40
1.0
 40
1.0
 10
7.765233757
 20
11.7973320279
 30
0.0
 10
7.7535096536
 20
11.803748599
 30
0.0
 10
7.7310833222
 20
11.8201451997
 30
0.0
 10
7.6926732242
 20
11.8665149762
 30
0.0
 10
7.6611762669
 20
11.9489557323
 30
0.0
 10
7.6495891168
 20
12.0693409357
 30
0.0
 10
7.656629764
 20
12.1574439591
 30
0.0
 10
7.6633236962
 20
12.2050257665
 30
0.0
  0
SPLINE
  5
2A3
100
AcDbEntity
  8
0
100
AcDbSpline
 62
7
  6
CONTINUOUS
 70
0
 71
3
 72
11
 73
7
 74
0
 42
0.0000001
 43
0.0000001
 44
0.0000000001
 40
0.0
 40
0.0
 40
0.0
 40
0.0
 40
0.2277123015
 40
0.4759660347
 40
0.7366269121
 40
1.0
 40
1.0
 40
1.0
 40
1.0
 10
12.3691261077
 20
14.4511147731
 30
0.0
 10
12.2197302655
 20
14.53737406
 30
0.0
 10
11.8876041729
 20
14.6840611771
 30
0.0
 10
11.3450112325
 20
14.8227727727
 30
0.0
 10
10.7613352653
 20
14.884582649
 30
0.0
 10
10.3630484557
 20
14.8720302875
 30
0.0
 10
10.1645614007
 20
14.8516939839
 30
0.0
  0
SPLINE
  5
2A4
100
AcDbEntity
  8
RACCORDO
100
AcDbSpline
 62
250
  6
CONTINUOUS
 70
0
 71
3
 72
9
 73
5
 74
0
 42
0.0000001
 43
0.0000001
 44
0.0000000001
 40
0.0
 40
0.0
 40
0.0
 40
0.0
 40
0.2297758555
 40
1.0
 40
1.0
 40
1.0
 40
1.0
 10
7.8185525819
 20
11.7641626903
 30
0.0
 10
7.8194899382
 20
11.7621348523
 30
0.0
 10
7.8229595102
 20
11.7530262687
 30
0.0
 10
7.8241008519
 20
11.7431519387
 30
0.0
 10
7.8241008211
 20
11.7356634142
 30
0.0
  0
SPLINE
  5
2A5
100
AcDbEntity
  8
RACCORDO
100
AcDbSpline
 62
250
  6
CONTINUOUS
 70
0
 71
3
 72
11
 73
7
 74
0
 42
0.0000001
 43
0.0000001
 44
0.0000000001
 40
0.0
 40
0.0
 40
0.0
 40
0.0
 40
0.19101075
 40
0.4124656086
 40
0.6809297641
 40
1.0
 40
1.0
 40
1.0
 40
1.0
 10
7.0473303037
 20
12.1761772895
 30
0.0
 10
7.0208004662
 20
12.1897445366
 30
0.0
 10
6.9708154493
 20
12.2343857399
 30
0.0
 10
6.9261480995
 20
12.3328754603
 30
0.0
 10
6.9061191235
 20
12.458438631
 30
0.0
 10
6.9086932952
 20
12.5505073984
 30
0.0
 10
6.9132354993
 20
12.6000746989
 30
0.0
  0
SPLINE
  5
2A6
100
AcDbEntity
  8
0
100
AcDbSpline
 62
7
  6
CONTINUOUS
 70
0
 71
3
 72
11
 73
7
 74
0
 42
0.0000001
 43
0.0000001
 44
0.0000000001
 40
0.0
 40
0.0
 40
0.0
 40
0.0
 40
0.2372193404
 40
0.5
 40
0.7627806596
 40
1.0
 40
1.0
 40
1.0
 40
1.0
 10
13.3748890528
 20
14.2786744471
 30
0.0
 10
13.3246993901
 20
14.2496955649
 30
0.0
 10
13.2079740774
 20
14.2074010545
 30
0.0
 10
13.0213356622
 20
14.1871369559
 30
0.0
 10
12.8346972469
 20
14.2074010545
 30
0.0
 10
12.7179719343
 20
14.2496955649
 30
0.0
 10
12.6677822716
 20
14.2786744471
 30
0.0
  0
SPLINE
  5
2A7
100
AcDbEntity
  8
0
100
AcDbSpline
 62
7
  6
CONTINUOUS
 70
0
 71
3
 72
11
 73
7
 74
0
 42
0.0000001
 43
0.0000001
 44
0.0000000001
 40
0.0
 40
0.0
 40
0.0
 40
0.0
 40
0.2897937154
 40
0.5490416136
 40
0.782223008
 40
1.0
 40
1.0
 40
1.0
 40
1.0
 10
-18.3742054225
 20
32.2019290942
 30
0.0
 10
-18.3961527065
 20
32.2146011809
 30
0.0
 10
-18.4359637683
 20
32.2420071543
 30
0.0
 10
-18.4835195765
 20
32.2920213895
 30
0.0
 10
-18.5136231594
 20
32.3473178731
 30
0.0
 10
-18.5206520319
 20
32.3870214259
 30
0.0
 10
-18.5206520319
 20
32.4060663908
 30
0.0
  0
SPLINE
  5
2A8
100
AcDbEntity
  8
0
100
AcDbSpline
 62
7
  6
CONTINUOUS
 70
0
 71
3
 72
11
 73
7
 74
0
 42
0.0000001
 43
0.0000001
 44
0.0000000001
 40
0.0
 40
0.0
 40
0.0
 40
0.0
 40
0.2317776966
 40
0.4760226911
 40
0.7323483805
 40
1.0
 40
1.0
 40
1.0
 40
1.0
 10
-17.3624130059
 20
30.7037090957
 30
0.0
 10
-15.4970100887
 20
29.1024446328
 30
0.0
 10
-11.4900555003
 20
26.0146929782
 30
0.0
 10
-4.918581142
 20
21.8554041446
 30
0.0
 10
2.3129084268
 20
18.0819605884
 30
0.0
 10
7.4266094355
 20
15.8906291634
 30
0.0
 10
10.0729562944
 20
14.8628707077
 30
0.0
  0
SPLINE
  5
2A9
100
AcDbEntity
  8
0
100
AcDbSpline
 62
7
  6
CONTINUOUS
 70
0
 71
3
 72
11
 73
7
 74
0
 42
0.0000001
 43
0.0000001
 44
0.0000000001
 40
0.0
 40
0.0
 40
0.0
 40
0.0
 40
0.2897667745
 40
0.5490573594
 40
0.7822185358
 40
1.0
 40
1.0
 40
1.0
 40
1.0
 10
-16.7125044867
 20
32.8347547138
 30
0.0
 10
-16.7015319509
 20
32.8410901185
 30
0.0
 10
-16.6816273848
 20
32.8547947682
 30
0.0
 10
-16.6578465858
 20
32.87979917
 30
0.0
 10
-16.642798833
 20
32.9074504806
 30
0.0
 10
-16.6392823499
 20
32.9273007587
 30
0.0
 10
-16.6392823499
 20
32.9368233622
 30
0.0
  0
SPLINE
  5
2AA
100
AcDbEntity
  8
RACCORDO
100
AcDbSpline
 62
250
  6
CONTINUOUS
 70
0
 71
3
 72
10
 73
6
 74
0
 42
0.0000001
 43
0.0000001
 44
0.0000000001
 40
0.0
 40
0.0
 40
0.0
 40
0.0
 40
0.2337317406
 40
0.4751970372
 40
1.0
 40
1.0
 40
1.0
 40
1.0
 10
-14.8958093392
 20
24.8468277332
 30
0.0
 10
-14.9327279043
 20
24.8714852626
 30
0.0
 10
-15.0013500201
 20
24.9320621609
 30
0.0
 10
-15.1077952555
 20
25.0913227688
 30
0.0
 10
-15.1421777017
 20
25.2386165931
 30
0.0
 10
-15.1482722173
 20
25.3381126422
 30
0.0
  0
SPLINE
  5
2AB
100
AcDbEntity
  8
0
100
AcDbSpline
 62
7
  6
CONTINUOUS
 70
0
 71
3
 72
10
 73
6
 74
0
 42
0.0000001
 43
0.0000001
 44
0.0000000001
 40
0.0
 40
0.0
 40
0.0
 40
0.0
 40
0.2333036369
 40
0.4741088844
 40
1.0
 40
1.0
 40
1.0
 40
1.0
 10
-18.7842546567
 20
33.4675803341
 30
0.0
 10
-18.7842542112
 20
33.4326105953
 30
0.0
 10
-18.7761149284
 20
33.3612910195
 30
0.0
 10
-18.7268719502
 20
33.2187483536
 30
0.0
 10
-18.656382465
 20
33.1239448567
 30
0.0
 10
-18.6010522955
 20
33.0678019036
 30
0.0
  0
SPLINE
  5
2AC
100
AcDbEntity
  8
0
100
AcDbSpline
 62
7
  6
CONTINUOUS
 70
0
 71
3
 72
11
 73
7
 74
0
 42
0.0000001
 43
0.0000001
 44
0.0000000001
 40
0.0
 40
0.0
 40
0.0
 40
0.0
 40
0.2372383085
 40
0.5
 40
0.7627616915
 40
1.0
 40
1.0
 40
1.0
 40
1.0
 10
-14.2906637612
 20
34.6413697893
 30
0.0
 10
-14.3032121768
 20
34.6341244914
 30
0.0
 10
-14.3323937438
 20
34.6235513541
 30
0.0
 10
-14.3790521088
 20
34.6184855883
 30
0.0
 10
-14.4257104738
 20
34.6235513541
 30
0.0
 10
-14.4548920408
 20
34.6341244914
 30
0.0
 10
-14.4674404565
 20
34.6413697893
 30
0.0
  0
SPLINE
  5
2AD
100
AcDbEntity
  8
RACCORDO
100
AcDbSpline
 62
250
  6
CONTINUOUS
 70
0
 71
3
 72
9
 73
5
 74
0
 42
0.0000001
 43
0.0000001
 44
0.0000000001
 40
0.0
 40
0.0
 40
0.0
 40
0.0
 40
0.5033140169
 40
1.0
 40
1.0
 40
1.0
 40
1.0
 10
-4.974531625
 20
-20.3230766298
 30
0.0
 10
-6.8075762745
 20
-19.2646983989
 30
0.0
 10
-10.3418806577
 20
-16.9689488644
 30
0.0
 10
-13.6062261496
 20
-14.3024781465
 30
0.0
 10
-15.1482799377
 20
-12.8935543735
 30
0.0
  0
SPLINE
  5
2AE
100
AcDbEntity
  8
0
100
AcDbSpline
 62
7
  6
CONTINUOUS
 70
0
 71
3
 72
9
 73
5
 74
0
 42
0.0000001
 43
0.0000001
 44
0.0000000001
 40
0.0
 40
0.0
 40
0.0
 40
0.0
 40
0.257705489
 40
1.0
 40
1.0
 40
1.0
 40
1.0
 10
10.1645614007
 20
14.8516939839
 30
0.0
 10
10.156636879
 20
14.8508820645
 30
0.0
 10
10.1257647043
 20
14.8494923475
 30
0.0
 10
10.0943451519
 20
14.8545639435
 30
0.0
 10
10.0729562944
 20
14.8628707077
 30
0.0
  0
SPLINE
  5
2AF
100
AcDbEntity
  8
RACCORDO
100
AcDbSpline
 62
250
  6
CONTINUOUS
 70
0
 71
3
 72
9
 73
5
 74
0
 42
0.0000001
 43
0.0000001
 44
0.0000000001
 40
0.0
 40
0.0
 40
0.0
 40
0.0
 40
0.504746404
 40
1.0
 40
1.0
 40
1.0
 40
1.0
 10
6.9132396309
 20
-25.6316008977
 30
0.0
 10
4.8316879393
 20
-24.9404573659
 30
0.0
 10
0.77065786
 20
-23.3723327874
 30
0.0
 10
-3.1108362371
 20
-21.3991498181
 30
0.0
 10
-4.974531625
 20
-20.3230766298
 30
0.0
  0
SPLINE
  5
2B0
100
AcDbEntity
  8
0
100
AcDbSpline
 62
7
  6
CONTINUOUS
 70
0
 71
3
 72
9
 73
5
 74
0
 42
0.0000001
 43
0.0000001
 44
0.0000000001
 40
0.0
 40
0.0
 40
0.0
 40
0.0
 40
0.5338743508
 40
1.0
 40
1.0
 40
1.0
 40
1.0
 10
-17.3624130059
 20
30.7037090957
 30
0.0
 10
-17.3687133549
 20
30.709117324
 30
0.0
 10
-17.3793061522
 20
30.7210549704
 30
0.0
 10
-17.3836926544
 20
30.7367411221
 30
0.0
 10
-17.3836899815
 20
30.7439906553
 30
0.0
  0
SPLINE
  5
2B1
100
AcDbEntity
  8
0
100
AcDbSpline
 62
7
  6
CONTINUOUS
 70
0
 71
3
 72
9
 73
5
 74
0
 42
0.0000001
 43
0.0000001
 44
0.0000000001
 40
0.0
 40
0.0
 40
0.0
 40
0.0
 40
0.5508178911
 40
1.0
 40
1.0
 40
1.0
 40
1.0
 10
14.1527065121
 20
14.1561920691
 30
0.0
 10
14.1485709306
 20
14.158579902
 30
0.0
 10
14.1414645263
 20
14.1640193885
 30
0.0
 10
14.138064174
 20
14.1727115171
 30
0.0
 10
14.138064174
 20
14.1766057988
 30
0.0
  0
SPLINE
  5
2B2
100
AcDbEntity
  8
RACCORDO
100
AcDbSpline
 62
250
  6
CONTINUOUS
 70
0
 71
3
 72
9
 73
5
 74
0
 42
0.0000001
 43
0.0000001
 44
0.0000000001
 40
0.0
 40
0.0
 40
0.0
 40
0.0
 40
0.4873729157
 40
1.0
 40
1.0
 40
1.0
 40
1.0
 10
-4.974531625
 20
19.0399319096
 30
0.0
 10
-3.0722397684
 20
17.9415723508
 30
0.0
 10
0.8642757929
 20
15.7454173538
 30
0.0
 10
4.8554472588
 20
13.6505801746
 30
0.0
 10
6.9132457912
 20
12.6000692547
 30
0.0
  0
SPLINE
  5
2B3
100
AcDbEntity
  8
0
100
AcDbSpline
 62
7
  6
CONTINUOUS
 70
0
 71
3
 72
9
 73
5
 74
0
 42
0.0000001
 43
0.0000001
 44
0.0000000001
 40
0.0
 40
0.0
 40
0.0
 40
0.0
 40
0.5
 40
1.0
 40
1.0
 40
1.0
 40
1.0
 10
-18.5156267787
 20
33.0593057402
 30
0.0
 10
-18.5261205573
 20
33.0532467639
 30
0.0
 10
-18.5509821178
 20
33.0484561114
 30
0.0
 10
-18.5758436783
 20
33.0532467639
 30
0.0
 10
-18.5863374569
 20
33.0593057402
 30
0.0
  0
SPLINE
  5
2B4
100
AcDbEntity
  8
RACCORDO
100
AcDbSpline
 62
250
  6
CONTINUOUS
 70
0
 71
3
 72
9
 73
5
 74
0
 42
0.0000001
 43
0.0000001
 44
0.0000000001
 40
0.0
 40
0.0
 40
0.0
 40
0.0
 40
0.4819338522
 40
1.0
 40
1.0
 40
1.0
 40
1.0
 10
-15.1482754431
 20
25.3381148173
 30
0.0
 10
-13.5504711195
 20
24.2690883693
 30
0.0
 10
-10.191341887
 20
22.1158974882
 30
0.0
 10
-6.7642118268
 20
20.0732707497
 30
0.0
 10
-4.974531625
 20
19.0399319096
 30
0.0
  0
SPLINE
  5
2B5
100
AcDbEntity
  8
0
100
AcDbSpline
 62
7
  6
CONTINUOUS
 70
0
 71
3
 72
11
 73
7
 74
0
 42
0.0000001
 43
0.0000001
 44
0.0000000001
 40
0.0
 40
0.0
 40
0.0
 40
0.0
 40
0.217774499
 40
0.4509563541
 40
0.7102018643
 40
1.0
 40
1.0
 40
1.0
 40
1.0
 10
-17.3433161757
 20
31.0088022847
 30
0.0
 10
-17.3433167275
 20
31.104026008
 30
0.0
 10
-17.3784596211
 20
31.3025429197
 30
0.0
 10
-17.5289771024
 20
31.5790234959
 30
0.0
 10
-17.766754976
 20
31.8290969442
 30
0.0
 10
-17.9658111782
 20
31.9661273759
 30
0.0
 10
-18.0755492586
 20
32.0294887682
 30
0.0
  0
SPLINE
  5
2B6
100
AcDbEntity
  8
RACCORDO
100
AcDbSpline
 62
250
  6
CONTINUOUS
 70
0
 71
3
 72
15
 73
11
 74
0
 42
0.0000001
 43
0.0000001
 44
0.0000000001
 40
0.0
 40
0.0
 40
0.0
 40
0.0
 40
0.1635973718
 40
0.3056471708
 40
0.42678099
 40
0.532259607
 40
0.6326429213
 40
0.7401223783
 40
0.8622896969
 40
1.0
 40
1.0
 40
1.0
 40
1.0
 10
-16.1519593292
 20
25.3843796554
 30
0.0
 10
-16.151961503
 20
25.424948558
 30
0.0
 10
-16.1472432024
 20
25.5009228019
 30
0.0
 10
-16.1226259618
 20
25.6045346963
 30
0.0
 10
-16.0808964872
 20
25.6871849922
 30
0.0
 10
-16.0212853241
 20
25.7450944639
 30
0.0
 10
-15.9460574976
 20
25.7723849793
 30
0.0
 10
-15.8626992771
 20
25.7682712418
 30
0.0
 10
-15.7758383681
 20
25.7385247383
 30
0.0
 10
-15.7193042568
 20
25.7071324182
 30
0.0
 10
-15.6902959048
 20
25.6891130225
 30
0.0
  0
SPLINE
  5
2B7
100
AcDbEntity
  8
RACCORDO
100
AcDbSpline
 62
250
  6
CONTINUOUS
 70
0
 71
3
 72
9
 73
5
 74
0
 42
0.0000001
 43
0.0000001
 44
0.0000000001
 40
0.0
 40
0.0
 40
0.0
 40
0.0
 40
0.2462346361
 40
1.0
 40
1.0
 40
1.0
 40
1.0
 10
-15.6902959048
 20
25.6891130225
 30
0.0
 10
-15.6452761454
 20
25.6611389678
 30
0.0
 10
-15.4630937828
 20
25.5464845803
 30
0.0
 10
-15.2831273182
 20
25.4283392643
 30
0.0
 10
-15.1482754431
 20
25.3381148173
 30
0.0
  0
SPLINE
  5
2B8
100
AcDbEntity
  8
RACCORDO
100
AcDbSpline
 62
250
  6
CONTINUOUS
 70
0
 71
3
 72
9
 73
5
 74
0
 42
0.0000001
 43
0.0000001
 44
0.0000000001
 40
0.0
 40
0.0
 40
0.0
 40
0.0
 40
0.2547450313
 40
1.0
 40
1.0
 40
1.0
 40
1.0
 10
-15.3889676037
 20
25.1658855667
 30
0.0
 10
-15.3920736986
 20
25.1671240943
 30
0.0
 10
-15.4043178805
 20
25.1718267247
 30
0.0
 10
-15.4168474079
 20
25.1760239811
 30
0.0
 10
-15.4264517162
 20
25.1778831846
 30
0.0
  0
SPLINE
  5
2B9
100
AcDbEntity
  8
RACCORDO
100
AcDbSpline
 62
250
  6
CONTINUOUS
 70
0
 71
3
 72
14
 73
10
 74
0
 42
0.0000001
 43
0.0000001
 44
0.0000000001
 40
0.0
 40
0.0
 40
0.0
 40
0.0
 40
0.1499245114
 40
0.2807231153
 40
0.3879560741
 40
0.484300732
 40
0.5898449981
 40
0.7120542312
 40
1.0
 40
1.0
 40
1.0
 40
1.0
 10
-15.4264517162
 20
25.1778831846
 30
0.0
 10
-15.4292789421
 20
25.1784304794
 30
0.0
 10
-15.4346313423
 20
25.1792103867
 30
0.0
 10
-15.4421258149
 20
25.1790934902
 30
0.0
 10
-15.4484051429
 20
25.1767906349
 30
0.0
 10
-15.4520946425
 20
25.1717401597
 30
0.0
 10
-15.4529866178
 20
25.1654329117
 30
0.0
 10
-15.4518402056
 20
25.1555515593
 30
0.0
 10
-15.449091999
 20
25.148061811
 30
0.0
 10
-15.4468834644
 20
25.1429911115
 30
0.0
  0
SPLINE
  5
2BA
100
AcDbEntity
  8
RACCORDO
100
AcDbSpline
 62
250
  6
CONTINUOUS
 70
0
 71
3
 72
9
 73
5
 74
0
 42
0.0000001
 43
0.0000001
 44
0.0000000001
 40
0.0
 40
0.0
 40
0.0
 40
0.0
 40
0.2484972557
 40
1.0
 40
1.0
 40
1.0
 40
1.0
 10
6.9132457912
 20
12.6000692547
 30
0.0
 10
6.9757894408
 20
12.5681405671
 30
0.0
 10
7.227126333
 20
12.4389711291
 30
0.0
 10
7.4769250666
 20
12.306782661
 30
0.0
 10
7.6633236962
 20
12.2050257666
 30
0.0
  0
SPLINE
  5
2BB
100
AcDbEntity
  8
RACCORDO
100
AcDbSpline
 62
250
  6
CONTINUOUS
 70
0
 71
3
 72
11
 73
7
 74
0
 42
0.0000001
 43
0.0000001
 44
0.0000000001
 40
0.0
 40
0.0
 40
0.0
 40
0.0
 40
0.2506864479
 40
0.5129948357
 40
0.7690432675
 40
1.0
 40
1.0
 40
1.0
 40
1.0
 10
7.6633236962
 20
12.2050257666
 30
0.0
 10
7.7512344614
 20
12.1570320302
 30
0.0
 10
7.9230285818
 20
12.0420184293
 30
0.0
 10
8.132122505
 20
11.8124147548
 30
0.0
 10
8.2742716605
 20
11.5454170072
 30
0.0
 10
8.3138208767
 20
11.3504390021
 30
0.0
 10
8.3138206469
 20
11.2581633618
 30
0.0
  0
SPLINE
  5
2BC
100
AcDbEntity
  8
RACCORDO
100
AcDbSpline
 62
250
  6
CONTINUOUS
 70
0
 71
3
 72
9
 73
5
 74
0
 42
0.0000001
 43
0.0000001
 44
0.0000000001
 40
0.0
 40
0.0
 40
0.0
 40
0.0
 40
0.2302825256
 40
1.0
 40
1.0
 40
1.0
 40
1.0
 10
7.8957312351
 20
11.665257295
 30
0.0
 10
7.8957896482
 20
11.6661100944
 30
0.0
 10
7.8959142328
 20
11.6698220684
 30
0.0
 10
7.8955355514
 20
11.6735423293
 30
0.0
 10
7.8950379583
 20
11.6763558202
 30
0.0
  0
SPLINE
  5
2BD
100
AcDbEntity
  8
RACCORDO
100
AcDbSpline
 62
250
  6
CONTINUOUS
 70
0
 71
3
 72
18
 73
14
 74
0
 42
0.0000001
 43
0.0000001
 44
0.0000000001
 40
0.0
 40
0.0
 40
0.0
 40
0.0
 40
0.1351166569
 40
0.2667572967
 40
0.3947165065
 40
0.5172980903
 40
0.574621383
 40
0.6270565425
 40
0.6738026021
 40
0.7207865339
 40
0.7780040133
 40
0.845947728
 40
1.0
 40
1.0
 40
1.0
 40
1.0
 10
7.7981069449
 20
-25.0186792472
 30
0.0
 10
7.8043242316
 20
-25.0218621098
 30
0.0
 10
7.8160967339
 20
-25.0291767718
 30
0.0
 10
7.8316921205
 20
-25.0424189298
 30
0.0
 10
7.8452235822
 20
-25.0568558324
 30
0.0
 10
7.8552747964
 20
-25.0691916578
 30
0.0
 10
7.8635766167
 20
-25.0779068817
 30
0.0
 10
7.8699308244
 20
-25.0829406279
 30
0.0
 10
7.8774630913
 20
-25.0855387314
 30
0.0
 10
7.8852804273
 20
-25.0824271779
 30
0.0
 10
7.8905839259
 20
-25.0749435203
 30
0.0
 10
7.8954132998
 20
-25.0612703421
 30
0.0
 10
7.8960518181
 20
-25.0495688927
 30
0.0
 10
7.8957303533
 20
-25.0416118914
 30
0.0
  0
SPLINE
  5
2BE
100
AcDbEntity
  8
RACCORDO
100
AcDbSpline
 62
250
  6
CONTINUOUS
 70
0
 71
3
 72
10
 73
6
 74
0
 42
0.0000001
 43
0.0000001
 44
0.0000000001
 40
0.0
 40
0.0
 40
0.0
 40
0.0
 40
0.5155883628
 40
0.7659900104
 40
1.0
 40
1.0
 40
1.0
 40
1.0
 10
7.7981069449
 20
-25.0186792472
 30
0.0
 10
7.7394435129
 20
-25.1548190125
 30
0.0
 10
7.6773213437
 20
-25.3692472894
 30
0.0
 10
7.649308464
 20
-25.6558720651
 30
0.0
 10
7.654912289
 20
-25.7957116934
 30
0.0
 10
7.663323164
 20
-25.8624660807
 30
0.0
  0
SPLINE
  5
2BF
100
AcDbEntity
  8
RACCORDO
100
AcDbSpline
 62
250
  6
CONTINUOUS
 70
0
 71
3
 72
15
 73
11
 74
0
 42
0.0000001
 43
0.0000001
 44
0.0000000001
 40
0.0
 40
0.0
 40
0.0
 40
0.0
 40
0.134163948
 40
0.2582837615
 40
0.3751014069
 40
0.4891085063
 40
0.605496836
 40
0.7285227132
 40
0.8602017757
 40
1.0
 40
1.0
 40
1.0
 40
1.0
 10
8.3138206469
 20
-25.4487023073
 30
0.0
 10
8.3138218606
 20
-25.490082356
 30
0.0
 10
8.3064961955
 20
-25.5700765263
 30
0.0
 10
8.26992368
 20
-25.681037914
 30
0.0
 10
8.208667947
 20
-25.7735466553
 30
0.0
 10
8.1249284363
 20
-25.842819179
 30
0.0
 10
8.0231399663
 20
-25.8856418066
 30
0.0
 10
7.9087197924
 20
-25.901550244
 30
0.0
 10
7.7867018704
 20
-25.8928327791
 30
0.0
 10
7.70484223
 20
-25.8740985854
 30
0.0
 10
7.6633231795
 20
-25.8624660842
 30
0.0
  0
SPLINE
  5
2C0
100
AcDbEntity
  8
RACCORDO
100
AcDbSpline
 62
250
  6
CONTINUOUS
 70
0
 71
3
 72
9
 73
5
 74
0
 42
0.0000001
 43
0.0000001
 44
0.0000000001
 40
0.0
 40
0.0
 40
0.0
 40
0.0
 40
0.2487799017
 40
1.0
 40
1.0
 40
1.0
 40
1.0
 10
7.6633231795
 20
-25.8624660842
 30
0.0
 10
7.6006571073
 20
-25.8448868154
 30
0.0
 10
7.3492703448
 20
-25.7724197925
 30
0.0
 10
7.0997585501
 20
-25.6935325548
 30
0.0
 10
6.9132396309
 20
-25.6316008977
 30
0.0
  0
SPLINE
  5
2C1
100
AcDbEntity
  8
RACCORDO
100
AcDbSpline
 62
250
  6
CONTINUOUS
 70
0
 71
3
 72
9
 73
5
 74
0
 42
0.0000001
 43
0.0000001
 44
0.0000000001
 40
0.0
 40
0.0
 40
0.0
 40
0.0
 40
0.5047034226
 40
1.0
 40
1.0
 40
1.0
 40
1.0
 10
7.1490878456
 20
-24.6622177481
 30
0.0
 10
5.0881161098
 20
-23.9797467667
 30
0.0
 10
1.0669718133
 20
-22.4298038134
 30
0.0
 10
-2.7758833393
 20
-20.4771882771
 30
0.0
 10
-4.6209782373
 20
-19.4118553303
 30
0.0
  0
SPLINE
  5
2C2
100
AcDbEntity
  8
RACCORDO
100
AcDbSpline
 62
250
  6
CONTINUOUS
 70
0
 71
3
 72
9
 73
5
 74
0
 42
0.0000001
 43
0.0000001
 44
0.0000000001
 40
0.0
 40
0.0
 40
0.0
 40
0.0
 40
0.5032473317
 40
1.0
 40
1.0
 40
1.0
 40
1.0
 10
-4.6209782373
 20
-19.4118553303
 30
0.0
 10
-6.436128684
 20
-18.3638083953
 30
0.0
 10
-9.9359969013
 20
-16.089438185
 30
0.0
 10
-13.1675083841
 20
-13.4468587473
 30
0.0
 10
-14.6939869744
 20
-12.0503001051
 30
0.0
  0
SPLINE
  5
2C3
100
AcDbEntity
  8
RACCORDO
100
AcDbSpline
 62
250
  6
CONTINUOUS
 70
0
 71
3
 72
10
 73
6
 74
0
 42
0.0000001
 43
0.0000001
 44
0.0000000001
 40
0.0
 40
0.0
 40
0.0
 40
0.0
 40
0.5353734056
 40
0.779660572
 40
1.0
 40
1.0
 40
1.0
 40
1.0
 10
-15.3242835178
 20
-11.6680988341
 30
0.0
 10
-15.4232211199
 20
-11.7735805375
 30
0.0
 10
-15.5497733357
 20
-11.9465016164
 30
0.0
 10
-15.6561802272
 20
-12.1957083284
 30
0.0
 10
-15.6841943406
 20
-12.3191720986
 30
0.0
 10
-15.6902962747
 20
-12.3783787435
 30
0.0
  0
SPLINE
  5
2C4
100
AcDbEntity
  8
RACCORDO
100
AcDbSpline
 62
250
  6
CONTINUOUS
 70
0
 71
3
 72
9
 73
5
 74
0
 42
0.0000001
 43
0.0000001
 44
0.0000000001
 40
0.0
 40
0.0
 40
0.0
 40
0.0
 40
0.5133579225
 40
1.0
 40
1.0
 40
1.0
 40
1.0
 10
7.8241008205
 20
-24.9404259205
 30
0.0
 10
7.8429681793
 20
-24.9513198259
 30
0.0
 10
7.8763471439
 20
-24.9800374351
 30
0.0
 10
7.8926617753
 20
-25.021194984
 30
0.0
 10
7.8957312163
 20
-25.0416183804
 30
0.0
  0
SPLINE
  5
2C5
100
AcDbEntity
  8
RACCORDO
100
AcDbSpline
 62
250
  6
CONTINUOUS
 70
0
 71
3
 72
9
 73
5
 74
0
 42
0.0000001
 43
0.0000001
 44
0.0000000001
 40
0.0
 40
0.0
 40
0.0
 40
0.0
 40
0.2153142387
 40
1.0
 40
1.0
 40
1.0
 40
1.0
 10
7.8957312163
 20
11.6652566896
 30
0.0
 10
7.8949580489
 20
11.6679841742
 30
0.0
 10
7.8901957384
 20
11.6803256302
 30
0.0
 10
7.8817138793
 20
11.6908869489
 30
0.0
 10
7.8744862648
 20
11.6982696452
 30
0.0
  0
SPLINE
  5
2C6
100
AcDbEntity
  8
RACCORDO
100
AcDbSpline
 62
250
  6
CONTINUOUS
 70
0
 71
3
 72
9
 73
5
 74
0
 42
0.0000001
 43
0.0000001
 44
0.0000000001
 40
0.0
 40
0.0
 40
0.0
 40
0.0
 40
0.2334212413
 40
1.0
 40
1.0
 40
1.0
 40
1.0
 10
7.8744862648
 20
11.6982696452
 30
0.0
 10
7.8729510698
 20
11.6998377805
 30
0.0
 10
7.8662167211
 20
11.7064015168
 30
0.0
 10
7.8589258557
 20
11.7123800505
 30
0.0
 10
7.8531526876
 20
11.7166941234
 30
0.0
  0
SPLINE
  5
2C7
100
AcDbEntity
  8
RACCORDO
100
AcDbSpline
 62
250
  6
CONTINUOUS
 70
0
 71
3
 72
9
 73
5
 74
0
 42
0.0000001
 43
0.0000001
 44
0.0000000001
 40
0.0
 40
0.0
 40
0.0
 40
0.0
 40
0.2365710921
 40
1.0
 40
1.0
 40
1.0
 40
1.0
 10
7.8531526876
 20
11.7166941234
 30
0.0
 10
7.8509602291
 20
11.7183324657
 30
0.0
 10
7.8415708509
 20
11.7250946335
 30
0.0
 10
7.8317496933
 20
11.7312468815
 30
0.0
 10
7.8241008205
 20
11.7356634146
 30
0.0
  0
SPLINE
  5
2C8
100
AcDbEntity
  8
RACCORDO
100
AcDbSpline
 62
250
  6
CONTINUOUS
 70
0
 71
3
 72
9
 73
5
 74
0
 42
0.0000001
 43
0.0000001
 44
0.0000000001
 40
0.0
 40
0.0
 40
0.0
 40
0.0
 40
0.2680830331
 40
1.0
 40
1.0
 40
1.0
 40
1.0
 10
-15.4468910857
 20
-11.5638813716
 30
0.0
 10
-15.4333768958
 20
-11.5623710269
 30
0.0
 10
-15.3828178756
 20
-11.5598600484
 30
0.0
 10
-15.3304423593
 20
-11.5712826762
 30
0.0
 10
-15.2982909243
 20
-11.5898467186
 30
0.0
  0
SPLINE
  5
2C9
100
AcDbEntity
  8
RACCORDO
100
AcDbSpline
 62
250
  6
CONTINUOUS
 70
0
 71
3
 72
9
 73
5
 74
0
 42
0.0000001
 43
0.0000001
 44
0.0000000001
 40
0.0
 40
0.0
 40
0.0
 40
0.0
 40
0.2384466236
 40
1.0
 40
1.0
 40
1.0
 40
1.0
 10
-15.2982909243
 20
25.0862426164
 30
0.0
 10
-15.3015849195
 20
25.0881444863
 30
0.0
 10
-15.3155256001
 20
25.0959012196
 30
0.0
 10
-15.3299177971
 20
25.1028344222
 30
0.0
 10
-15.3410385511
 20
25.1077235567
 30
0.0
  0
SPLINE
  5
2CA
100
AcDbEntity
  8
RACCORDO
100
AcDbSpline
 62
250
  6
CONTINUOUS
 70
0
 71
3
 72
9
 73
5
 74
0
 42
0.0000001
 43
0.0000001
 44
0.0000000001
 40
0.0
 40
0.0
 40
0.0
 40
0.0
 40
0.2408739057
 40
1.0
 40
1.0
 40
1.0
 40
1.0
 10
-15.3410385511
 20
25.1077235567
 30
0.0
 10
-15.3492454043
 20
25.1113316221
 30
0.0
 10
-15.3837023083
 20
25.1254258659
 30
0.0
 10
-15.41943508
 20
25.13632814
 30
0.0
 10
-15.4468910857
 20
25.1429936984
 30
0.0
  0
SPLINE
  5
2CB
100
AcDbEntity
  8
RACCORDO
100
AcDbSpline
 62
250
  6
CONTINUOUS
 70
0
 71
3
 72
11
 73
7
 74
0
 42
0.0000001
 43
0.0000001
 44
0.0000000001
 40
0.0
 40
0.0
 40
0.0
 40
0.0
 40
0.2335009036
 40
0.4943175002
 40
0.7597960697
 40
1.0
 40
1.0
 40
1.0
 40
1.0
 10
-15.6902962746
 20
-12.3783787434
 30
0.0
 10
-15.755382222
 20
-12.3137966041
 30
0.0
 10
-15.8812565073
 20
-12.1643484475
 30
0.0
 10
-16.0263956016
 20
-11.9016014193
 30
0.0
 10
-16.1239944491
 20
-11.6154650634
 30
0.0
 10
-16.1519597928
 20
-11.4168079975
 30
0.0
 10
-16.1519593292
 20
-11.3224860136
 30
0.0
  0
SPLINE
  5
2CC
100
AcDbEntity
  8
RACCORDO
100
AcDbSpline
 62
250
  6
CONTINUOUS
 70
0
 71
3
 72
14
 73
10
 74
0
 42
0.0000001
 43
0.0000001
 44
0.0000000001
 40
0.0
 40
0.0
 40
0.0
 40
0.0
 40
0.2488778364
 40
0.3182504003
 40
0.3860314242
 40
0.5164373015
 40
0.6429518808
 40
0.7659025757
 40
1.0
 40
1.0
 40
1.0
 40
1.0
 10
-15.4468893339
 20
-11.5638809547
 30
0.0
 10
-15.4533556174
 20
-11.5778986172
 30
0.0
 10
-15.455379675
 20
-11.601173449
 30
0.0
 10
-15.4415775206
 20
-11.6212118053
 30
0.0
 10
-15.4282689428
 20
-11.6314865492
 30
0.0
 10
-15.4090277969
 20
-11.6382966944
 30
0.0
 10
-15.3861522391
 20
-11.6437368056
 30
0.0
 10
-15.3571734669
 20
-11.6514315166
 30
0.0
 10
-15.3364747626
 20
-11.6602180042
 30
0.0
 10
-15.3242802652
 20
-11.668100712
 30
0.0
  0
SPLINE
  5
2CD
100
AcDbEntity
  8
RACCORDO
100
AcDbSpline
 62
250
  6
CONTINUOUS
 70
0
 71
3
 72
9
 73
5
 74
0
 42
0.0000001
 43
0.0000001
 44
0.0000000001
 40
0.0
 40
0.0
 40
0.0
 40
0.0
 40
0.2662249874
 40
1.0
 40
1.0
 40
1.0
 40
1.0
 10
-15.3242824877
 20
-11.6680994612
 30
0.0
 10
-15.3202325622
 20
-11.6619431778
 30
0.0
 10
-15.306572036
 20
-11.6379290044
 30
0.0
 10
-15.2982910085
 20
-11.6101572319
 30
0.0
 10
-15.298290925
 20
-11.5898467183
 30
0.0
  0
SPLINE
  5
2CE
100
AcDbEntity
  8
RACCORDO
100
AcDbSpline
 62
250
  6
CONTINUOUS
 70
0
 71
3
 72
9
 73
5
 74
0
 42
0.0000001
 43
0.0000001
 44
0.0000000001
 40
0.0
 40
0.0
 40
0.0
 40
0.0
 40
0.2288272874
 40
1.0
 40
1.0
 40
1.0
 40
1.0
 10
7.8241008211
 20
-24.9404259208
 30
0.0
 10
7.8241008472
 20
-24.9467646068
 30
0.0
 10
7.821319151
 20
-24.9744403488
 30
0.0
 10
7.8098498525
 20
-25.0008322082
 30
0.0
 10
7.7981093423
 20
-25.0186787181
 30
0.0
  0
SPLINE
  5
2CF
100
AcDbEntity
  8
RACCORDO
100
AcDbSpline
 62
250
  6
CONTINUOUS
 70
0
 71
3
 72
9
 73
5
 74
0
 42
0.0000001
 43
0.0000001
 44
0.0000000001
 40
0.0
 40
0.0
 40
0.0
 40
0.0
 40
0.268814791
 40
1.0
 40
1.0
 40
1.0
 40
1.0
 10
-15.298290925
 20
25.0862426168
 30
0.0
 10
-15.2982909346
 20
25.0885695447
 30
0.0
 10
-15.2986117006
 20
25.0972140876
 30
0.0
 10
-15.3002983938
 20
25.1058728171
 30
0.0
 10
-15.3025827403
 20
25.1117755345
 30
0.0
  0
SPLINE
  5
2D0
100
AcDbEntity
  8
RACCORDO
100
AcDbSpline
 62
250
  6
CONTINUOUS
 70
0
 71
3
 72
10
 73
6
 74
0
 42
0.0000001
 43
0.0000001
 44
0.0000000001
 40
0.0
 40
0.0
 40
0.0
 40
0.0
 40
0.5361123226
 40
0.7797484785
 40
1.0
 40
1.0
 40
1.0
 40
1.0
 10
-15.4468910857
 20
-11.5638809655
 30
0.0
 10
-15.5815176814
 20
-11.5550639643
 30
0.0
 10
-15.7776631407
 20
-11.5195005408
 30
0.0
 10
-16.0102078047
 20
-11.4213883918
 30
0.0
 10
-16.1091076277
 20
-11.3576371367
 30
0.0
 10
-16.1519593292
 20
-11.3224815877
 30
0.0
  0
SPLINE
  5
2D1
100
AcDbEntity
  8
RACCORDO
100
AcDbSpline
 62
250
  6
CONTINUOUS
 70
0
 71
3
 72
10
 73
6
 74
0
 42
0.0000001
 43
0.0000001
 44
0.0000000001
 40
0.0
 40
0.0
 40
0.0
 40
0.0
 40
0.5361123808
 40
0.7797485816
 40
1.0
 40
1.0
 40
1.0
 40
1.0
 10
-15.4468910857
 20
25.1429916098
 30
0.0
 10
-15.5815177215
 20
25.1518090651
 30
0.0
 10
-15.7776631468
 20
25.1873730918
 30
0.0
 10
-16.0102077513
 20
25.2854856073
 30
0.0
 10
-16.1091075997
 20
25.349236858
 30
0.0
 10
-16.1519593292
 20
25.3843923677
 30
0.0
  0
SPLINE
  5
2D2
100
AcDbEntity
  8
RACCORDO
100
AcDbSpline
 62
250
  6
CONTINUOUS
 70
0
 71
3
 72
11
 73
7
 74
0
 42
0.0000001
 43
0.0000001
 44
0.0000000001
 40
0.0
 40
0.0
 40
0.0
 40
0.0
 40
0.2687991609
 40
0.5318002587
 40
0.7782107183
 40
1.0
 40
1.0
 40
1.0
 40
1.0
 10
-14.6939884861
 20
-12.0502987624
 30
0.0
 10
-14.7581323694
 20
-12.1099437172
 30
0.0
 10
-14.8757721022
 20
-12.2383414563
 30
0.0
 10
-15.0160132756
 20
-12.4509615953
 30
0.0
 10
-15.1117324868
 20
-12.6704886651
 30
0.0
 10
-15.1433810651
 20
-12.8214555615
 30
0.0
 10
-15.1482719717
 20
-12.8935611604
 30
0.0
  0
SPLINE
  5
2D3
100
AcDbEntity
  8
RACCORDO
100
AcDbSpline
 62
250
  6
CONTINUOUS
 70
0
 71
3
 72
11
 73
7
 74
0
 42
0.0000001
 43
0.0000001
 44
0.0000000001
 40
0.0
 40
0.0
 40
0.0
 40
0.0
 40
0.2544249731
 40
0.5142802742
 40
0.7667493694
 40
1.0
 40
1.0
 40
1.0
 40
1.0
 10
7.1490879767
 20
-24.662217793
 30
0.0
 10
7.1060594792
 20
-24.7363844239
 30
0.0
 10
7.0307574695
 20
-24.8932929731
 30
0.0
 10
6.9518811233
 20
-25.1401873865
 30
0.0
 10
6.9091835063
 20
-25.3886151839
 30
0.0
 10
6.9065721488
 20
-25.5532737024
 30
0.0
 10
6.9132352512
 20
-25.6315993888
 30
0.0
  0
SPLINE
  5
2D4
100
AcDbEntity
  8
RACCORDO
100
AcDbSpline
 62
250
  6
CONTINUOUS
 70
0
 71
3
 72
11
 73
7
 74
0
 42
0.0000001
 43
0.0000001
 44
0.0000000001
 40
0.0
 40
0.0
 40
0.0
 40
0.0
 40
0.2101900349
 40
0.4434096104
 40
0.7065362911
 40
1.0
 40
1.0
 40
1.0
 40
1.0
 10
7.8957312163
 20
11.6652562835
 30
0.0
 10
7.9039097642
 20
11.6236249932
 30
0.0
 10
7.9379066616
 20
11.5386645777
 30
0.0
 10
8.0295220451
 20
11.4272652677
 30
0.0
 10
8.1576843958
 20
11.3305355392
 30
0.0
 10
8.2589426279
 20
11.2804590207
 30
0.0
 10
8.3138206469
 20
11.2581589358
 30
0.0
  0
SPLINE
  5
2D5
100
AcDbEntity
  8
RACCORDO
100
AcDbSpline
 62
250
  6
CONTINUOUS
 70
0
 71
3
 72
11
 73
7
 74
0
 42
0.0000001
 43
0.0000001
 44
0.0000000001
 40
0.0
 40
0.0
 40
0.0
 40
0.0
 40
0.210190613
 40
0.4434103975
 40
0.7065368559
 40
1.0
 40
1.0
 40
1.0
 40
1.0
 10
7.8957312163
 20
-25.0416162918
 30
0.0
 10
7.9039097563
 20
-25.083247784
 30
0.0
 10
7.93790659
 20
-25.1682085708
 30
0.0
 10
8.0295219415
 20
-25.2796084175
 30
0.0
 10
8.1576843137
 20
-25.3763384509
 30
0.0
 10
8.2589426106
 20
-25.4264149839
 30
0.0
 10
8.3138206469
 20
-25.4487150196
 30
0.0
  0
ENDSEC
  0
SECTION
  2
OBJECTS
  0
DICTIONARY
  5
C
100
AcDbDictionary
280
0
281
1
  3
ACAD_GROUP
350
D
  3
ACAD_MLINESTYLE
350
17
  3
ACAD_LAYOUT
350
1A
  3
ACAD_PLOTSETTINGS
350
19
  3
ACAD_PLOTSTYLENAME
350
E
  0
DICTIONARY
  5
D
102
{ACAD_REACTORS
330
C
102
}
100
AcDbDictionary
280
0
281
1
  0
ACDBDICTIONARYWDFLT
  5
E
102
{ACAD_REACTORS
330
C
102
}
100
AcDbDictionary
281
1
  3
Normal
350
F
100
AcDbDictionaryWithDefault
340
F
  0
DICTIONARY
  5
17
102
{ACAD_REACTORS
330
C
102
}
100
AcDbDictionary
280
0
281
1
  3
Standard
350
18
  0
DICTIONARY
  5
19
102
{ACAD_REACTORS
330
C
102
}
100
AcDbDictionary
281
1
  0
DICTIONARY
  5
1A
102
{ACAD_REACTORS
330
C
102
}
100
AcDbDictionary
281
1
  3
Model
350
2D6
  3
Layout1
350
2D7
  0
ACDBPLACEHOLDER
  5
F
102
{ACAD_REACTORS
330
E
102
}
  0
MLINESTYLE
  5
18
102
{ACAD_REACTORS
330
17
102
}
100
AcDbMlineStyle
  2
STANDARD
 70
0
  3

 62
256
 51
90.0
 52
90.0
 71
2
 49
0.5
 62
256
  6
BYLAYER
 49
-0.5
 62
256
  6
BYLAYER
  0
LAYOUT
  5
2D6
102
{ACAD_REACTORS
330
1A
102
}
100
AcDbPlotSettings
  1

  2
none_device
  4
ISO_A4_(297.00_x_210.00_MM)
  6

 40
0.0
 41
0.0
 42
0.0
 43
0.0
 44
297.0
 45
210.0
 46
0.0
 47
0.0
 48
0.0
 49
0.0
140
0.0
141
0.0
142
1.0
143
1.0
 70
1024
 72
1
 73
0
 74
0
  7

 75
0
147
1.0
148
0.0
149
0.0
100
AcDbLayout
  1
Model
 70
0
 71
0
 10
0.0
 20
0.0
 11
297.0
 21
210.0
 12
0.0
 22
0.0
 32
0.0
 14
0.0
 24
0.0
 34
0.0
 15
0.0
 25
0.0
 35
0.0
146
0.0
 13
0.0
 23
0.0
 33
0.0
 16
1.0
 26
0.0
 36
0.0
 17
0.0
 27
1.0
 37
0.0
 76
0
330
210
345
0
346
0
  0
LAYOUT
  5
2D7
102
{ACAD_REACTORS
330
1A
102
}
100
AcDbPlotSettings
  1

  2
none_device
  4
ISO_A4_(297.00_x_210.00_MM)
  6

 40
0.0
 41
0.0
 42
0.0
 43
0.0
 44
297.0
 45
210.0
 46
0.0
 47
0.0
 48
0.0
 49
0.0
140
0.0
141
0.0
142
1.0
143
1.0
 70
0
 72
1
 73
0
 74
0
  7

 75
0
147
1.0
148
0.0
149
0.0
100
AcDbLayout
  1
Layout1
 70
0
 71
1
 10
0.0
 20
0.0
 11
297.0
 21
210.0
 12
0.0
 22
0.0
 32
0.0
 14
0.0
 24
0.0
 34
0.0
 15
0.0
 25
0.0
 35
0.0
146
0.0
 13
0.0
 23
0.0
 33
0.0
 16
1.0
 26
0.0
 36
0.0
 17
0.0
 27
1.0
 37
0.0
 76
0
330
211
345
0
346
0
  0
ENDSEC
  0
EOF
