  0
SECTION
  2
HEADER
  9
$ACADVER
  1
AC1021
  9
$DWGCODEPAGE
  3
ANSI_1252
  9
$EXTMAX
 10
215.9
 20
279.4
 30
0.0
  9
$EXTMIN
 10
0.0
 20
0.0
 30
0.0
  9
$LIMMIN
 10
0.0
 20
0.0
  9
$LIMMAX
 10
215.9
 20
279.4
  9
$VIEWCTR
 10
107.95
 20
139.7
  9
$VIEWSIZE
 40
279.4
  9
$CLAYER
  8
0
  9
$LTSCALE
 40
18.2127407407
  9
$CELTYPE
  6
BYLAYER
  9
$DIMSCALE
 40
1.0
  9
$DIMASZ
 40
3.0
  9
$DIMEXO
 40
0.5
  9
$DIMDLI
 40
12.5833481481
  9
$DIMEXE
 40
1.5
  9
$DIMCEN
 40
2.9802666667
  9
$DIMLFAC
 40
1.0
  9
$DIMBLK
  1
_FILLED
  9
$DIMALT
 70
0
  9
$DIMALTF
 40
0.0393700787
  9
$DIMTXT
 40
3.0
  9
$DIMTOL
 70
1
  9
$DIMLIM
 70
0
  9
$DIMTFAC
 40
1.0
  9
$DIMTP
 40
0.01
  9
$DIMTM
 40
0.01
  9
$DIMGAP
 40
0.625
  9
$DIMDSEP
 70
44
  9
$AUNITS
 70
0
  9
$PDMODE
 70
3
  9
$PDSIZE
 40
3.0
  9
$HANDSEED
  5
54D
  9
$TILEMODE
 70
1
  9
$MEASUREMENT
 70
1
  9
$INSUNITS
 70
4
  0
ENDSEC
  0
SECTION
  2
CLASSES
  0
CLASS
  1
ACDBDICTIONARYWDFLT
  2
AcDbDictionaryWithDefault
  3
AutoCAD 2000
 90
0
 91
1
280
0
281
0
  0
CLASS
  1
ACDBPLACEHOLDER
  2
AcDbPlaceHolder
  3
AutoCAD 2000
 90
0
 91
1
280
0
281
0
  0
CLASS
  1
LAYOUT
  2
AcDbLayout
  3
AutoCAD 2000
 90
0
 91
0
280
0
281
0
  0
ENDSEC
  0
SECTION
  2
TABLES
  0
TABLE
  2
VPORT
  5
8
100
AcDbSymbolTable
 70
2
  0
VPORT
  5
1F4
100
AcDbSymbolTableRecord
100
AcDbViewportTableRecord
  2
*ACTIVE
 70
0
 10
0.0
 20
0.0
 11
1.0
 21
1.0
 12
107.95
 22
139.7
 13
0.0
 23
0.0
 14
1.0
 24
1.0
 15
0.0
 25
0.0
 16
0.0
 26
0.0
 36
1.0
 17
0.0
 27
0.0
 37
0.0
 40
279.4
 41
0.7727272727
 42
50.0
 43
0.0
 44
0.0
 50
0.0
 51
0.0
 71
0
 72
100
 73
1
 74
1
 75
0
 76
0
 77
0
 78
0
  0
ENDTAB
  0
TABLE
  2
LTYPE
  5
5
100
AcDbSymbolTable
 70
6
  0
LTYPE
  5
14
100
AcDbSymbolTableRecord
100
AcDbLinetypeTableRecord
  2
BYBLOCK
 70
0
  3

 72
65
 73
0
 40
0.0
  0
LTYPE
  5
15
100
AcDbSymbolTableRecord
100
AcDbLinetypeTableRecord
  2
BYLAYER
 70
0
  3

 72
65
 73
0
 40
0.0
  0
LTYPE
  5
16
100
AcDbSymbolTableRecord
100
AcDbLinetypeTableRecord
  2
CONTINUOUS
 70
64
  3
Solid line
 72
65
 73
0
 40
0.0
  0
LTYPE
  5
1F5
100
AcDbSymbolTableRecord
100
AcDbLinetypeTableRecord
  2
CENTER
 70
64
  3
____ _ ____ _ ____ _ ____ _ ____ _ ____ _ ____
 72
65
 73
4
 40
0.6
 49
0.375
 74
0
 49
-0.075
 74
0
 49
0.075
 74
0
 49
-0.075
 74
0
  0
LTYPE
  5
1F6
100
AcDbSymbolTableRecord
100
AcDbLinetypeTableRecord
  2
HIDDEN
 70
64
  3
- - - - - - - - - - - - - - - - - - - -
 72
65
 73
2
 40
0.2
 49
0.1
 74
0
 49
-0.1
 74
0
  0
LTYPE
  5
1F7
100
AcDbSymbolTableRecord
100
AcDbLinetypeTableRecord
  2
PHANTOM
 70
64
  3
_____ _ _ _____ _ _ _____ _ _ _____
 72
65
 73
6
 40
0.8
 49
0.45
 74
0
 49
-0.05
 74
0
 49
0.1
 74
0
 49
-0.05
 74
0
 49
0.1
 74
0
 49
-0.05
 74
0
  0
LTYPE
  5
1F8
100
AcDbSymbolTableRecord
100
AcDbLinetypeTableRecord
  2
DOT
 70
64
  3
. . . . . . . . . . . . . . . . . . . .
 72
65
 73
2
 40
0.2
 49
0.1
 74
0
 49
-0.1
 74
0
  0
LTYPE
  5
1F9
100
AcDbSymbolTableRecord
100
AcDbLinetypeTableRecord
  2
DASHED
 70
64
  3
- - - - - - - - - - - - - - - - - - - -
 72
65
 73
2
 40
0.2
 49
0.1
 74
0
 49
-0.1
 74
0
  0
ENDTAB
  0
TABLE
  2
LAYER
  5
2
100
AcDbSymbolTable
 70
36
  0
LAYER
  5
10
100
AcDbSymbolTableRecord
100
AcDbLayerTableRecord
  2
0
 70
0
 62
7
  6
CONTINUOUS
370
-3
390
F
  0
LAYER
  5
1FA
100
AcDbSymbolTableRecord
100
AcDbLayerTableRecord
  2
DEFAULT_1
 70
0
 62
7
  6
CENTER
370
-3
390
F
  0
LAYER
  5
1FB
100
AcDbSymbolTableRecord
100
AcDbLayerTableRecord
  2
DEFAULT_2
 70
0
 62
7
  6
HIDDEN
370
-3
390
F
  0
LAYER
  5
1FC
100
AcDbSymbolTableRecord
100
AcDbLayerTableRecord
  2
DEFAULT_3
 70
0
 62
7
  6
PHANTOM
370
-3
390
F
  0
LAYER
  5
1FD
100
AcDbSymbolTableRecord
100
AcDbLayerTableRecord
  2
ASSI
 70
0
 62
7
  6
CONTINUOUS
370
-3
390
F
  0
LAYER
  5
1FE
100
AcDbSymbolTableRecord
100
AcDbLayerTableRecord
  2
COLOR15
 70
0
 62
7
  6
CONTINUOUS
370
-3
390
F
  0
LAYER
  5
1FF
100
AcDbSymbolTableRecord
100
AcDbLayerTableRecord
  2
COLORE_MATERIALE
 70
0
 62
7
  6
CONTINUOUS
370
-3
390
F
  0
LAYER
  5
200
100
AcDbSymbolTableRecord
100
AcDbLayerTableRecord
  2
COORDINATE
 70
0
 62
7
  6
CONTINUOUS
370
-3
390
F
  0
LAYER
  5
201
100
AcDbSymbolTableRecord
100
AcDbLayerTableRecord
  2
COORD_ORIGINE
 70
0
 62
7
  6
CONTINUOUS
370
-3
390
F
  0
LAYER
  5
202
100
AcDbSymbolTableRecord
100
AcDbLayerTableRecord
  2
CURVE
 70
0
 62
7
  6
CONTINUOUS
370
-3
390
F
  0
LAYER
  5
203
100
AcDbSymbolTableRecord
100
AcDbLayerTableRecord
  2
CURVE_COSTRUZIO
 70
0
 62
7
  6
CONTINUOUS
370
-3
390
F
  0
LAYER
  5
204
100
AcDbSymbolTableRecord
100
AcDbLayerTableRecord
  2
DRAFT
 70
0
 62
7
  6
CONTINUOUS
370
-3
390
F
  0
LAYER
  5
205
100
AcDbSymbolTableRecord
100
AcDbLayerTableRecord
  2
IMPORT
 70
0
 62
7
  6
CONTINUOUS
370
-3
390
F
  0
LAYER
  5
206
100
AcDbSymbolTableRecord
100
AcDbLayerTableRecord
  2
INTF_1
 70
0
 62
7
  6
CONTINUOUS
370
-3
390
F
  0
LAYER
  5
207
100
AcDbSymbolTableRecord
100
AcDbLayerTableRecord
  2
INTF_10
 70
0
 62
7
  6
CONTINUOUS
370
-3
390
F
  0
LAYER
  5
208
100
AcDbSymbolTableRecord
100
AcDbLayerTableRecord
  2
INTF_2
 70
0
 62
7
  6
CONTINUOUS
370
-3
390
F
  0
LAYER
  5
209
100
AcDbSymbolTableRecord
100
AcDbLayerTableRecord
  2
INTF_31
 70
0
 62
7
  6
CONTINUOUS
370
-3
390
F
  0
LAYER
  5
20A
100
AcDbSymbolTableRecord
100
AcDbLayerTableRecord
  2
INTF_5
 70
0
 62
7
  6
CONTINUOUS
370
-3
390
F
  0
LAYER
  5
20B
100
AcDbSymbolTableRecord
100
AcDbLayerTableRecord
  2
INTF_CYAN
 70
0
 62
7
  6
CONTINUOUS
370
-3
390
F
  0
LAYER
  5
20C
100
AcDbSymbolTableRecord
100
AcDbLayerTableRecord
  2
INTF_GREEN
 70
0
 62
7
  6
CONTINUOUS
370
-3
390
F
  0
LAYER
  5
20D
100
AcDbSymbolTableRecord
100
AcDbLayerTableRecord
  2
INTF_YELLOW
 70
0
 62
7
  6
CONTINUOUS
370
-3
390
F
  0
LAYER
  5
20E
100
AcDbSymbolTableRecord
100
AcDbLayerTableRecord
  2
NOTE
 70
0
 62
7
  6
CONTINUOUS
370
-3
390
F
  0
LAYER
  5
20F
100
AcDbSymbolTableRecord
100
AcDbLayerTableRecord
  2
PIANI
 70
0
 62
7
  6
CONTINUOUS
370
-3
390
F
  0
LAYER
  5
210
100
AcDbSymbolTableRecord
100
AcDbLayerTableRecord
  2
PIANI_ORIGINE
 70
0
 62
7
  6
CONTINUOUS
370
-3
390
F
  0
LAYER
  5
211
100
AcDbSymbolTableRecord
100
AcDbLayerTableRecord
  2
PIANI_RIFERIMENTO
 70
0
 62
7
  6
CONTINUOUS
370
-3
390
F
  0
LAYER
  5
212
100
AcDbSymbolTableRecord
100
AcDbLayerTableRecord
  2
PUNTI
 70
0
 62
7
  6
CONTINUOUS
370
-3
390
F
  0
LAYER
  5
213
100
AcDbSymbolTableRecord
100
AcDbLayerTableRecord
  2
RACCORDO
 70
0
 62
7
  6
CONTINUOUS
370
-3
390
F
  0
LAYER
  5
214
100
AcDbSymbolTableRecord
100
AcDbLayerTableRecord
  2
RGB__191__191__255__
 70
0
 62
7
  6
CONTINUOUS
370
-3
390
F
  0
LAYER
  5
215
100
AcDbSymbolTableRecord
100
AcDbLayerTableRecord
  2
RGB__255__255__255__
 70
0
 62
7
  6
CONTINUOUS
370
-3
390
F
  0
LAYER
  5
216
100
AcDbSymbolTableRecord
100
AcDbLayerTableRecord
  2
RGB____0____0__255__
 70
0
 62
7
  6
CONTINUOUS
370
-3
390
F
  0
LAYER
  5
217
100
AcDbSymbolTableRecord
100
AcDbLayerTableRecord
  2
RGB____0____0____0__
 70
0
 62
7
  6
CONTINUOUS
370
-3
390
F
  0
LAYER
  5
218
100
AcDbSymbolTableRecord
100
AcDbLayerTableRecord
  2
SKEL
 70
0
 62
7
  6
CONTINUOUS
370
-3
390
F
  0
LAYER
  5
219
100
AcDbSymbolTableRecord
100
AcDbLayerTableRecord
  2
SMUSSO
 70
0
 62
7
  6
CONTINUOUS
370
-3
390
F
  0
LAYER
  5
21A
100
AcDbSymbolTableRecord
100
AcDbLayerTableRecord
  2
SUPERFICI
 70
0
 62
7
  6
CONTINUOUS
370
-3
390
F
  0
LAYER
  5
21B
100
AcDbSymbolTableRecord
100
AcDbLayerTableRecord
  2
TRASH
 70
0
 62
7
  6
CONTINUOUS
370
-3
390
F
  0
LAYER
  5
21C
100
AcDbSymbolTableRecord
100
AcDbLayerTableRecord
  2
XSEC_DATUMS
 70
0
 62
7
  6
CONTINUOUS
370
-3
390
F
  0
ENDTAB
  0
TABLE
  2
STYLE
  5
3
100
AcDbSymbolTable
 70
1
  0
STYLE
  5
11
100
AcDbSymbolTableRecord
100
AcDbTextStyleTableRecord
  2
STANDARD
 70
0
 40
0.0
 41
0.8
 50
0.0
 71
0
 42
0.2
  3
txt
  4

  0
STYLE
  5
21D
100
AcDbSymbolTableRecord
100
AcDbTextStyleTableRecord
  2
TEXTSTYLE_1
 70
0
 40
0.0
 41
0.8
 50
0.0
 71
0
 42
0.2
  3
gdt
  4

  0
ENDTAB
  0
TABLE
  2
VIEW
  5
6
100
AcDbSymbolTable
 70
0
  0
ENDTAB
  0
TABLE
  2
UCS
  5
7
100
AcDbSymbolTable
 70
0
  0
ENDTAB
  0
TABLE
  2
APPID
  5
9
100
AcDbSymbolTable
 70
1
  0
APPID
  5
21E
100
AcDbSymbolTableRecord
100
AcDbRegAppTableRecord
  2
ACAD
 70
0
  0
ENDTAB
  0
TABLE
  2
BLOCK_RECORD
  5
1
100
AcDbSymbolTable
 70
0
  0
BLOCK_RECORD
  5
21F
100
AcDbSymbolTableRecord
100
AcDbBlockTableRecord
  2
*Model_Space
  0
BLOCK_RECORD
  5
220
100
AcDbSymbolTableRecord
100
AcDbBlockTableRecord
  2
*Paper_Space
  0
ENDTAB
  0
TABLE
  2
DIMSTYLE
  5
A
100
AcDbSymbolTable
 70
1
100
AcDbDimStyleTable
 71
0
  0
DIMSTYLE
105
221
100
AcDbSymbolTableRecord
100
AcDbDimStyleTableRecord
  2
STANDARD
 70
0
  3

  4

 40
1.0
 41
3.0
 42
0.5
 43
0.38
 44
1.5
 45
0.0
 46
0.0
 47
0.01
 48
0.01
140
3.0
141
0.09
142
0.0
143
25.4
144
1.0
145
0.0
146
1.0
147
0.625
 71
1.0
 72
0.0
 73
0
 74
0
 75
0
 76
0
 77
1
 78
8
170
0
171
2
172
0
173
0
174
0
175
0
176
0
177
0
178
0
270
2
271
2
272
2
273
2
274
2
275
0
280
0
281
0
282
0
283
1
284
8
285
0
286
0
287
3
288
0
340
11
278
44
  0
ENDTAB
  0
ENDSEC
  0
SECTION
  2
BLOCKS
  0
BLOCK
  5
20
100
AcDbEntity
  8
0
100
AcDbBlockBegin
  2
*Model_Space
 70
0
 10
0.0
 20
0.0
 30
0.0
  3
*Model_Space
  1

  0
ENDBLK
  5
21
100
AcDbEntity
  8
0
100
AcDbBlockEnd
  0
BLOCK
  5
1C
100
AcDbEntity
  8
0
100
AcDbBlockBegin
  2
*Paper_Space
 70
0
 10
0.0
 20
0.0
 30
0.0
  3
*Paper_Space
  1

  0
ENDBLK
  5
1D
100
AcDbEntity
  8
0
100
AcDbBlockEnd
  0
ENDSEC
  0
SECTION
  2
ENTITIES
  0
LWPOLYLINE
  5
222
100
AcDbEntity
  8
RACCORDO
100
AcDbPolyline
 62
253
  6
CONTINUOUS
 90
9
 70
0
 10
-34.3051075385
 20
-17.1914605786
 10
-34.3036962312
 20
-17.2196973936
 10
-34.2943927329
 20
-17.2591582057
 10
-34.2766359643
 20
-17.2981385385
 10
-34.2506161798
 20
-17.3362207385
 10
-34.2166121675
 20
-17.3729967755
 10
-34.1749882621
 20
-17.408072614
 10
-34.1261904417
 20
-17.4410724348
 10
-34.070741549
 20
-17.4716426626
  0
LWPOLYLINE
  5
223
100
AcDbEntity
  8
RACCORDO
100
AcDbPolyline
 62
7
  6
CONTINUOUS
 90
15
 70
0
 10
-34.3050938292
 20
-17.1914609611
 10
-34.3057007317
 20
-17.2251225928
 10
-34.3017432787
 20
-17.3472915447
 10
-34.2882593355
 20
-17.4649412498
 10
-34.2656402243
 20
-17.5776476372
 10
-34.2342168011
 20
-17.6852412394
 10
-34.1942549194
 20
-17.7874822634
 10
-34.1462568197
 20
-17.8836907195
 10
-34.0906400867
 20
-17.9735157801
 10
-34.0276141667
 20
-18.0568301306
 10
-33.9578120941
 20
-18.1329645568
 10
-33.8818962681
 20
-18.2014280015
 10
-33.800132518
 20
-18.2620878172
 10
-33.7131185341
 20
-18.3144906212
 10
-33.6837818216
 20
-18.3296945617
  0
LINE
  5
224
100
AcDbEntity
  8
RACCORDO
100
AcDbLine
 62
7
  6
CONTINUOUS
 10
-34.3051001777
 20
-17.1911994366
 11
-34.3051075385
 21
-17.1914605786
  0
LWPOLYLINE
  5
225
100
AcDbEntity
  8
RACCORDO
100
AcDbPolyline
 62
253
  6
CONTINUOUS
 90
13
 70
0
 10
-34.0707415864
 20
-17.4716426797
 10
-33.9707796748
 20
-14.4719230944
 10
-33.8439638013
 20
-11.4599061631
 10
-33.6903106004
 20
-8.4359802205
 10
-33.5098407056
 20
-5.4005349093
 10
-33.3025773191
 20
-2.3539617238
 10
-33.0685462061
 20
0.703346042
 10
-32.8077782546
 20
3.7709944273
 10
-32.5203074963
 20
6.8485879815
 10
-32.2061696697
 20
9.935729223
 10
-31.8654053311
 20
13.032020051
 10
-31.4980598532
 20
16.1370617955
 10
-31.1041814376
 20
19.2504543973
  0
LWPOLYLINE
  5
226
100
AcDbEntity
  8
RACCORDO
100
AcDbPolyline
 62
253
  6
CONTINUOUS
 90
10
 70
0
 10
-31.3401981733
 20
19.5133730601
 10
-31.3406843072
 20
19.5089682419
 10
-31.3393382776
 20
19.4766746414
 10
-31.3294993121
 20
19.4436656853
 10
-31.3112728618
 20
19.410295154
 10
-31.2848542727
 20
19.3769207035
 10
-31.2505266914
 20
19.3439000318
 10
-31.2086580313
 20
19.3115870451
 10
-31.1596970285
 20
19.2803280645
 10
-31.104168433
 20
19.250458115
  0
LWPOLYLINE
  5
227
100
AcDbEntity
  8
RACCORDO
100
AcDbPolyline
 62
7
  6
CONTINUOUS
 90
13
 70
0
 10
-31.3401894165
 20
19.5135207932
 10
-31.7250185851
 20
16.4737737093
 10
-32.0944722068
 20
13.3552303821
 10
-32.4371119427
 20
10.245430851
 10
-32.7528843676
 20
7.1448263764
 10
-33.0417503179
 20
4.0538133804
 10
-33.303674558
 20
0.9727668861
 10
-33.5386215499
 20
-2.0979232218
 10
-33.7465612867
 20
-5.1578690237
 10
-33.927465966
 20
-8.2066982529
 10
-34.0813083629
 20
-11.2440194464
 10
-34.2080672866
 20
-14.2693941266
 10
-34.3051001777
 20
-17.1911994366
  0
LWPOLYLINE
  5
228
100
AcDbEntity
  8
RACCORDO
100
AcDbPolyline
 62
253
  6
CONTINUOUS
 90
19
 70
0
 10
-31.1041814376
 20
19.2504543973
 10
-31.0877751551
 20
19.3537487974
 10
-31.0656689222
 20
19.4581583804
 10
-31.0379873541
 20
19.5631003826
 10
-31.0048878018
 20
19.6679911535
 10
-30.966555328
 20
19.7722435749
 10
-30.9232022007
 20
19.875270428
 10
-30.8750750026
 20
19.9764954478
 10
-30.8224435978
 20
20.0753566709
 10
-30.7655952728
 20
20.1713034607
 10
-30.7048506505
 20
20.2638015112
 10
-30.6405511936
 20
20.3523354283
 10
-30.5730473289
 20
20.4364110528
 10
-30.5027175654
 20
20.5155616128
 10
-30.4299587537
 20
20.589343958
 10
-30.3551724834
 20
20.6573403693
 10
-30.278777245
 20
20.7191703077
 10
-30.2012058895
 20
20.7744920605
 10
-30.1228952836
 20
20.8229980483
  0
LWPOLYLINE
  5
229
100
AcDbEntity
  8
RACCORDO
100
AcDbPolyline
 62
253
  6
CONTINUOUS
 90
27
 70
0
 10
-24.9053850467
 20
23.6629004579
 10
-24.9102690638
 20
23.6509317997
 10
-24.9156196672
 20
23.6392385957
 10
-24.9214222456
 20
23.6278527774
 10
-24.9276609532
 20
23.6168054372
 10
-24.9343187536
 20
23.606126743
 10
-24.9413774655
 20
23.5958458563
 10
-24.9488178133
 20
23.5859908518
 10
-24.9566194787
 20
23.5765886415
 10
-24.9647611572
 20
23.567664901
 10
-24.9732206155
 20
23.5592439991
 10
-24.9819747525
 20
23.5513489314
 10
-24.9909996627
 20
23.5440012579
 10
-25.0002707007
 20
23.5372210434
 10
-25.0097625494
 20
23.5310268032
 10
-25.0194492886
 20
23.5254354526
 10
-25.0293044657
 20
23.5204622604
 10
-25.0393011683
 20
23.5161208073
 10
-25.0494120976
 20
23.5124229489
 10
-25.0596096427
 20
23.5093787833
 10
-25.0698659562
 20
23.5069966235
 10
-25.0801530303
 20
23.5052829746
 10
-25.0904427731
 20
23.5042425163
 10
-25.1007070856
 20
23.5038780898
 10
-25.110917938
 20
23.5041906904
 10
-25.1210474466
 20
23.5051794642
 10
-25.1310679499
 20
23.5068417114
  0
LINE
  5
22A
100
AcDbEntity
  8
RACCORDO
100
AcDbLine
 62
253
  6
CONTINUOUS
 10
-23.3041042558
 20
24.0785515431
 11
-22.7758370841
 21
24.7215036989
  0
LINE
  5
22B
100
AcDbEntity
  8
RACCORDO
100
AcDbLine
 62
7
  6
CONTINUOUS
 10
-23.3041042558
 20
23.9890210768
 11
-22.7604765117
 21
24.6506685323
  0
LWPOLYLINE
  5
22C
100
AcDbEntity
  8
RACCORDO
100
AcDbPolyline
 62
7
  6
CONTINUOUS
 90
36
 70
0
 10
-24.1941644386
 20
23.5143969351
 10
-24.2008050404
 20
23.5066582529
 10
-24.2076926477
 20
23.4990160146
 10
-24.2148252301
 20
23.4914832041
 10
-24.2222047289
 20
23.4840742772
 10
-24.2298238319
 20
23.4768009817
 10
-24.2376660809
 20
23.4696724256
 10
-24.2457279306
 20
23.4627020765
 10
-24.2540051066
 20
23.4559030974
 10
-24.2624795982
 20
23.4492843678
 10
-24.2711465453
 20
23.4428594505
 10
-24.2800004321
 20
23.4366415632
 10
-24.289021809
 20
23.4306393009
 10
-24.2982044691
 20
23.424866174
 10
-24.307541599
 20
23.4193353248
 10
-24.3170123737
 20
23.4140550444
 10
-24.3266092106
 20
23.4090386292
 10
-24.3363239334
 20
23.404299004
 10
-24.3461343315
 20
23.3998441574
 10
-24.3560314
 20
23.3956869945
 10
-24.3660055424
 20
23.3918400437
 10
-24.3760331158
 20
23.3883109657
 10
-24.3861036358
 20
23.3851120602
 10
-24.3962060388
 20
23.3822552358
 10
-24.4063152018
 20
23.3797477356
 10
-24.4164190947
 20
23.3776009923
 10
-24.4265051693
 20
23.3758260078
 10
-24.4365468451
 20
23.374429419
 10
-24.4465304711
 20
23.373421468
 10
-24.4564420591
 20
23.3728118936
 10
-24.4662537867
 20
23.3726064195
 10
-24.4759503414
 20
23.3728137078
 10
-24.485516397
 20
23.3734418253
 10
-24.4949233522
 20
23.3744952004
 10
-24.5041438846
 20
23.3759785619
 10
-24.508033704
 20
23.3767468362
  0
LWPOLYLINE
  5
22D
100
AcDbEntity
  8
RACCORDO
100
AcDbPolyline
 62
7
  6
CONTINUOUS
 90
16
 70
0
 10
-30.4961431167
 20
20.8370741997
 10
-30.5106051206
 20
20.8285253526
 10
-30.6082752134
 20
20.7645092246
 10
-30.7012689126
 20
20.6925701017
 10
-30.7897791751
 20
20.6128447186
 10
-30.8734828307
 20
20.5258276848
 10
-30.9515043178
 20
20.4326425208
 10
-31.0238633553
 20
20.333534507
 10
-31.090361141
 20
20.2287781199
 10
-31.150014622
 20
20.1199964882
 10
-31.2027432884
 20
20.0075200042
 10
-31.2483355959
 20
19.8915809087
 10
-31.2860754499
 20
19.7738936989
 10
-31.3157194616
 20
19.655154996
 10
-31.3372116326
 20
19.5351483023
 10
-31.3401981733
 20
19.5133730601
  0
LINE
  5
22E
100
AcDbEntity
  8
RACCORDO
100
AcDbLine
 62
7
  6
CONTINUOUS
 10
-29.0203165628
 20
21.7926342729
 11
-25.9531220366
 21
23.5810896152
  0
LINE
  5
22F
100
AcDbEntity
  8
RACCORDO
100
AcDbLine
 62
7
  6
CONTINUOUS
 10
-30.496261759
 20
20.8370258778
 11
-28.9820801544
 21
21.7199324416
  0
LINE
  5
230
100
AcDbEntity
  8
RACCORDO
100
AcDbLine
 62
253
  6
CONTINUOUS
 10
-28.7396332326
 20
21.7824973513
 11
-25.9412595094
 21
23.4142055433
  0
LINE
  5
231
100
AcDbEntity
  8
RACCORDO
100
AcDbLine
 62
253
  6
CONTINUOUS
 10
-30.1228952836
 20
20.8229980483
 11
-28.6078357142
 21
21.7064165461
  0
LINE
  5
232
100
AcDbEntity
  8
RACCORDO
100
AcDbLine
 62
7
  6
CONTINUOUS
 10
-23.1264074839
 20
23.3026059915
 11
-24.1941644386
 21
22.7067648133
  0
LWPOLYLINE
  5
233
100
AcDbEntity
  8
RACCORDO
100
AcDbPolyline
 62
7
  6
CONTINUOUS
 90
22
 70
0
 10
-26.5202290963
 20
24.9767042459
 10
-26.5317561005
 20
24.9704027379
 10
-26.5429812872
 20
24.9634749158
 10
-26.5538619582
 20
24.9559379144
 10
-26.56436121
 20
24.9478088432
 10
-26.5744345303
 20
24.9391151258
 10
-26.5840323169
 20
24.9298964603
 10
-26.5930822605
 20
24.9202293655
 10
-26.6015980693
 20
24.9101086385
 10
-26.6096455883
 20
24.899441134
 10
-26.6172229737
 20
24.8881835211
 10
-26.6242343406
 20
24.8764314199
 10
-26.6306009451
 20
24.8642953289
 10
-26.6362868844
 20
24.8518428993
 10
-26.641283994
 20
24.8390943313
 10
-26.6455749815
 20
24.8260933759
 10
-26.6491450099
 20
24.8128887019
 10
-26.6519852244
 20
24.7995207388
 10
-26.6540910828
 20
24.7860145803
 10
-26.655456667
 20
24.7723986716
 10
-26.6560752408
 20
24.7587257593
 10
-26.6561149905
 20
24.7542742002
  0
LINE
  5
234
100
AcDbEntity
  8
RACCORDO
100
AcDbLine
 62
7
  6
CONTINUOUS
 10
-24.9370554309
 20
25.7889023041
 11
-26.5202290963
 21
24.9767042459
  0
LINE
  5
235
100
AcDbEntity
  8
RACCORDO
100
AcDbLine
 62
253
  6
CONTINUOUS
 10
-24.824386827
 20
25.7822403681
 11
-26.4071434302
 21
24.9702562708
  0
LINE
  5
236
100
AcDbEntity
  8
RACCORDO
100
AcDbLine
 62
253
  6
CONTINUOUS
 10
-23.4808779595
 20
25.1104859344
 11
-25.0821587503
 21
24.3077639309
  0
LINE
  5
237
100
AcDbEntity
  8
RACCORDO
100
AcDbLine
 62
253
  6
CONTINUOUS
 10
-23.3041042558
 20
24.8055963956
 11
-24.9053850467
 21
24.0028743921
  0
LINE
  5
238
100
AcDbEntity
  8
RACCORDO
100
AcDbLine
 62
7
  6
CONTINUOUS
 10
-24.9353190405
 20
25.7897705134
 11
-24.9370554541
 21
25.7889022922
  0
LINE
  5
239
100
AcDbEntity
  8
RACCORDO
100
AcDbLine
 62
253
  6
CONTINUOUS
 10
-22.9526107878
 20
25.3739247544
 11
-23.4808779595
 21
25.1104859344
  0
LINE
  5
23A
100
AcDbEntity
  8
RACCORDO
100
AcDbLine
 62
253
  6
CONTINUOUS
 10
-22.7758370841
 20
25.0690352156
 11
-23.3041042558
 21
24.8055963956
  0
LINE
  5
23B
100
AcDbEntity
  8
RACCORDO
100
AcDbLine
 62
7
  6
CONTINUOUS
 10
-24.4004490594
 20
26.0503226258
 11
-24.9353190171
 21
25.7897705254
  0
LINE
  5
23C
100
AcDbEntity
  8
RACCORDO
100
AcDbLine
 62
253
  6
CONTINUOUS
 10
-24.2899369483
 20
26.0425878347
 11
-24.824386827
 21
25.7822403681
  0
LWPOLYLINE
  5
23D
100
AcDbEntity
  8
RACCORDO
100
AcDbPolyline
 62
253
  6
CONTINUOUS
 90
8
 70
0
 10
-30.496152164
 20
20.8370897489
 10
-30.4553154513
 20
20.8567135185
 10
-30.4065041554
 20
20.8709405924
 10
-30.3542652012
 20
20.8772335258
 10
-30.2991702651
 20
20.8755234521
 10
-30.2418222776
 20
20.8658290853
 10
-30.1828488255
 20
20.8482565157
 10
-30.1228952836
 20
20.8229980483
  0
LWPOLYLINE
  5
23E
100
AcDbEntity
  8
RACCORDO
100
AcDbPolyline
 62
253
  6
CONTINUOUS
 90
14
 70
0
 10
-33.6847795101
 20
-18.3292082419
 10
-33.7278541963
 20
-18.3052192423
 10
-33.7822284033
 20
-18.2670966172
 10
-33.8325972766
 20
-18.2222752006
 10
-33.8787231368
 20
-18.1709684558
 10
-33.9203698305
 20
-18.1134272964
 10
-33.9573025085
 20
-18.049962082
 10
-33.9893193727
 20
-17.9809209101
 10
-34.0162497925
 20
-17.906678079
 10
-34.0379571149
 20
-17.8276151549
 10
-34.054332721
 20
-17.7441345866
 10
-34.0652905767
 20
-17.65666865
 10
-34.0707701417
 20
-17.5656792785
 10
-34.0707415864
 20
-17.4716426797
  0
LINE
  5
23F
100
AcDbEntity
  8
RACCORDO
100
AcDbLine
 62
7
  6
CONTINUOUS
 10
-20.9352845375
 20
22.8733273213
 11
-20.5817431483
 21
23.0547007461
  0
LINE
  5
240
100
AcDbEntity
  8
ASSI
100
AcDbLine
 62
7
  6
CONTINUOUS
 10
-14.6399893077
 20
25.3513789943
 11
-19.238240264
 21
23.0850176968
  0
LINE
  5
241
100
AcDbEntity
  8
ASSI
100
AcDbLine
 62
7
  6
CONTINUOUS
 10
-20.5817431483
 20
23.0547007461
 11
-15.2455197423
 21
25.6541442116
  0
LWPOLYLINE
  5
242
100
AcDbEntity
  8
RACCORDO
100
AcDbPolyline
 62
7
  6
CONTINUOUS
 90
22
 70
0
 10
-21.8898906935
 20
23.2034457346
 10
-15.5257810142
 20
26.2813868899
 10
-15.5059951591
 20
26.2907338873
 10
-15.4868360286
 20
26.2996273359
 10
-15.4682918387
 20
26.3080746648
 10
-15.4503743733
 20
26.3160684449
 10
-15.4331189848
 20
26.3235863895
 10
-15.4165272303
 20
26.3306297296
 10
-15.4005975526
 20
26.3371972342
 10
-15.3853606324
 20
26.3432629231
 10
-15.3707964184
 20
26.348836834
 10
-15.3569249619
 20
26.3539089293
 10
-15.3438370972
 20
26.3584231167
 10
-15.3315277546
 20
26.3623833523
 10
-15.3200020038
 20
26.36578568
 10
-15.3093658885
 20
26.3685621393
 10
-15.2996062839
 20
26.3707192953
 10
-15.2907363148
 20
26.3722505828
 10
-15.2829013994
 20
26.373068346
 10
-15.2760915142
 20
26.3731765302
 10
-15.2703166827
 20
26.3725711902
 10
-15.2657523935
 20
26.3711528345
  0
LWPOLYLINE
  5
243
100
AcDbEntity
  8
ASSI
100
AcDbPolyline
 62
7
  6
CONTINUOUS
 90
7
 70
0
 10
-14.6399893077
 20
25.3513789943
 10
-14.6317795086
 20
25.3553066993
 10
-14.6235952271
 20
25.3589918935
 10
-14.6154364631
 20
25.3624345768
 10
-14.6073032166
 20
25.3656347492
 10
-14.5991954876
 20
25.3685924107
 10
-14.5911132761
 20
25.3713075614
  0
LINE
  5
244
100
AcDbEntity
  8
DRAFT
100
AcDbLine
 62
7
  6
CONTINUOUS
 10
-23.3041042558
 20
23.2185622643
 11
-23.1264074839
 21
23.3026059915
  0
LINE
  5
245
100
AcDbEntity
  8
0
100
AcDbLine
 62
253
  6
CONTINUOUS
 10
-0.2701954765
 20
32.6312546894
 11
-14.4303939768
 21
25.9534863051
  0
LINE
  5
246
100
AcDbEntity
  8
0
100
AcDbLine
 62
7
  6
CONTINUOUS
 10
0.4625544224
 20
33.2155571369
 11
-14.6767715499
 21
26.0766750916
  0
LINE
  5
247
100
AcDbEntity
  8
0
100
AcDbLine
 62
7
  6
CONTINUOUS
 10
0.9969657235
 20
33.4671270631
 11
0.4625544224
 21
33.2155571369
  0
LINE
  5
248
100
AcDbEntity
  8
0
100
AcDbLine
 62
253
  6
CONTINUOUS
 10
1.4351483315
 20
33.4343933307
 11
-0.2701954765
 21
32.6312546894
  0
LINE
  5
249
100
AcDbEntity
  8
0
100
AcDbLine
 62
253
  6
CONTINUOUS
 10
0.9964978131
 20
33.4669063208
 11
0.9961512885
 21
33.4667428904
  0
LINE
  5
24A
100
AcDbEntity
  8
RACCORDO
100
AcDbLine
 62
253
  6
CONTINUOUS
 10
6.498383657
 20
-31.2152108111
 11
5.9701164853
 21
-31.106708534
  0
LINE
  5
24B
100
AcDbEntity
  8
RACCORDO
100
AcDbLine
 62
253
  6
CONTINUOUS
 10
6.4089698617
 20
-30.8956440051
 11
5.9701164853
 21
-30.8055066784
  0
LWPOLYLINE
  5
24C
100
AcDbEntity
  8
RACCORDO
100
AcDbPolyline
 62
7
  6
CONTINUOUS
 90
40
 70
0
 10
5.0800563026
 20
-31.4223175749
 10
5.0734000938
 20
-31.420881508
 10
5.066489505
 20
-31.4193342112
 10
5.0593314721
 20
-31.4176701189
 10
5.0519340165
 20
-31.4158771665
 10
5.0443045344
 20
-31.4139565693
 10
5.0364496403
 20
-31.4119227243
 10
5.0283782805
 20
-31.4097700722
 10
5.0200996692
 20
-31.4074937622
 10
5.0116213107
 20
-31.405109213
 10
5.0029535712
 20
-31.4026111776
 10
4.9941070496
 20
-31.3999950723
 10
4.9850900995
 20
-31.3972772523
 10
4.9759145101
 20
-31.3944528415
 10
4.9665923004
 20
-31.3915175931
 10
4.9571327045
 20
-31.3884887319
 10
4.9475489416
 20
-31.3853618211
 10
4.937854495
 20
-31.3821330264
 10
4.9280595913
 20
-31.3788203933
 10
4.918178891
 20
-31.3754200138
 10
4.9082273903
 20
-31.3719285508
 10
4.8982164989
 20
-31.3683648313
 10
4.8881623296
 20
-31.3647255985
 10
4.8780814308
 20
-31.3610081079
 10
4.8679866381
 20
-31.3572319181
 10
4.8578955169
 20
-31.3533945878
 10
4.847826174
 20
-31.3494940747
 10
4.8377931132
 20
-31.3455505738
 10
4.8278153323
 20
-31.3415626716
 10
4.8179124325
 20
-31.3375291509
 10
4.8081007286
 20
-31.3334706505
 10
4.7984005837
 20
-31.329387036
 10
4.7888329332
 20
-31.3252780528
 10
4.7794158493
 20
-31.3211644444
 10
4.7701595722
 20
-31.3170440208
 10
4.7610980988
 20
-31.3129207554
 10
4.752283045
 20
-31.3088272575
 10
4.7437431844
 20
-31.3047784133
 10
4.7354873871
 20
-31.3007691495
 10
4.7275343429
 20
-31.296804851
  0
LWPOLYLINE
  5
24D
100
AcDbEntity
  8
RACCORDO
100
AcDbPolyline
 62
7
  6
CONTINUOUS
 90
11
 70
0
 10
-3.4482283112
 20
-33.4474721157
 10
-3.4316295673
 20
-33.4556162382
 10
-3.3417970456
 20
-33.4938143148
 10
-3.2485560382
 20
-33.5238107058
 10
-3.1524688976
 20
-33.5453600806
 10
-3.0536422714
 20
-33.5582867565
 10
-2.9527587463
 20
-33.5623161524
 10
-2.850644206
 20
-33.5572611859
 10
-2.747453906
 20
-33.5429195883
 10
-2.6436413758
 20
-33.5190689922
 10
-2.5327173407
 20
-33.482924138
  0
LINE
  5
24E
100
AcDbEntity
  8
RACCORDO
100
AcDbLine
 62
7
  6
CONTINUOUS
 10
-3.4470542072
 20
-33.4480708933
 11
-33.6847794412
 21
-18.3292082764
  0
LINE
  5
24F
100
AcDbEntity
  8
RACCORDO
100
AcDbLine
 62
253
  6
CONTINUOUS
 10
-3.8393539075
 20
-32.5873365191
 11
-34.0707415864
 21
-17.4716426797
  0
LWPOLYLINE
  5
250
100
AcDbEntity
  8
RACCORDO
100
AcDbPolyline
 62
253
  6
CONTINUOUS
 90
19
 70
0
 10
-26.5828916861
 20
24.3259055217
 10
-26.5826718315
 20
24.3152208652
 10
-26.5820128142
 20
24.3047826387
 10
-26.5809162734
 20
24.2946168063
 10
-26.5793849425
 20
24.2847486877
 10
-26.5774226273
 20
24.275202793
 10
-26.5750341814
 20
24.2660027726
 10
-26.5722255113
 20
24.2571714607
 10
-26.5690036058
 20
24.2487309037
 10
-26.5653765082
 20
24.2407021953
 10
-26.5613532286
 20
24.2331052844
 10
-26.5569437861
 20
24.2259590936
 10
-26.5521592495
 20
24.2192815283
 10
-26.5470116161
 20
24.213089251
 10
-26.5415136481
 20
24.2073975386
 10
-26.5356789144
 20
24.2022204124
 10
-26.529520698
 20
24.1975698973
 10
-26.5230554238
 20
24.1934586237
 10
-26.5179183897
 20
24.1906870716
  0
LINE
  5
251
100
AcDbEntity
  8
RACCORDO
100
AcDbLine
 62
7
  6
CONTINUOUS
 10
-26.6561149908
 20
24.7542678035
 11
-26.6561149908
 21
24.4142938694
  0
LINE
  5
252
100
AcDbEntity
  8
RACCORDO
100
AcDbLine
 62
253
  6
CONTINUOUS
 10
-26.5828916861
 20
24.6658794558
 11
-26.5828916861
 21
24.3259055217
  0
LINE
  5
253
100
AcDbEntity
  8
RACCORDO
100
AcDbLine
 62
7
  6
CONTINUOUS
 10
-25.9531220366
 20
23.4515834625
 11
-25.9531220366
 21
23.908288895
  0
LINE
  5
254
100
AcDbEntity
  8
RACCORDO
100
AcDbLine
 62
253
  6
CONTINUOUS
 10
-25.8798987319
 20
23.3626030985
 11
-25.8798987319
 21
23.8716772427
  0
LINE
  5
255
100
AcDbEntity
  8
RACCORDO
100
AcDbLine
 62
253
  6
CONTINUOUS
 10
-25.2579070063
 20
23.6634131818
 11
-25.2579070063
 21
24.0033871159
  0
LWPOLYLINE
  5
256
100
AcDbEntity
  8
RACCORDO
100
AcDbPolyline
 62
253
  6
CONTINUOUS
 90
31
 70
0
 10
-26.5828916861
 20
24.6658794558
 10
-26.5826511049
 20
24.6772913652
 10
-26.5819300137
 20
24.6889128219
 10
-26.5807303719
 20
24.700712195
 10
-26.5790554394
 20
24.7126573816
 10
-26.5769097729
 20
24.7247158567
 10
-26.5742992183
 20
24.7368547605
 10
-26.5712308848
 20
24.7490410426
 10
-26.5677131235
 20
24.761241542
 10
-26.5637555143
 20
24.7734230389
 10
-26.5593688324
 20
24.7855523746
 10
-26.5545650194
 20
24.7975965367
 10
-26.5493571547
 20
24.8095227387
 10
-26.5437594094
 20
24.8212985334
 10
-26.5377870278
 20
24.8328918558
 10
-26.5314562935
 20
24.844271108
 10
-26.5247844725
 20
24.8554052757
 10
-26.5177897042
 20
24.8662641073
 10
-26.5104909673
 20
24.8768181433
 10
-26.5029080247
 20
24.8870387861
 10
-26.4950616064
 20
24.896898075
 10
-26.4869733151
 20
24.9063688912
 10
-26.4786653473
 20
24.9154253192
 10
-26.470160175
 20
24.9240429358
 10
-26.4614807122
 20
24.9321985497
 10
-26.4526486217
 20
24.9398715982
 10
-26.4436898387
 20
24.9470393458
 10
-26.4346345019
 20
24.9536782524
 10
-26.4255093331
 20
24.9597700497
 10
-26.4163373285
 20
24.9653006971
 10
-26.4071434302
 20
24.9702562708
  0
LWPOLYLINE
  5
257
100
AcDbEntity
  8
RACCORDO
100
AcDbPolyline
 62
253
  6
CONTINUOUS
 90
31
 70
0
 10
-25.2579070063
 20
24.0033871159
 10
-25.2576665308
 20
24.0147964918
 10
-25.2569457586
 20
24.026415302
 10
-25.2557466507
 20
24.0382119357
 10
-25.2540724695
 20
24.0501542979
 10
-25.2519277697
 20
24.0622098976
 10
-25.2493183866
 20
24.0743459355
 10
-25.2462514193
 20
24.0865293933
 10
-25.242735212
 20
24.098727124
 10
-25.2387793312
 20
24.1109059415
 10
-25.2343945395
 20
24.1230327112
 10
-25.2295927665
 20
24.1350744404
 10
-25.2243870762
 20
24.1469983673
 10
-25.2187916316
 20
24.158772051
 10
-25.2128216561
 20
24.170363459
 10
-25.2064933919
 20
24.1817410552
 10
-25.1998240562
 20
24.1928738847
 10
-25.1928317941
 20
24.2037316588
 10
-25.1855356292
 20
24.214284837
 10
-25.1779554119
 20
24.2245047078
 10
-25.1701117654
 20
24.2343634662
 10
-25.1620260299
 20
24.2438342897
 10
-25.1537202039
 20
24.2528914115
 10
-25.1452168847
 20
24.2615101899
 10
-25.1365392071
 20
24.2696671763
 10
-25.1277107803
 20
24.2773401782
 10
-25.1187556234
 20
24.2845083198
 10
-25.1096981005
 20
24.2911520989
 10
-25.100562854
 20
24.2972534402
 10
-25.091374738
 20
24.3027957438
 10
-25.0821587503
 20
24.3077639309
  0
LWPOLYLINE
  5
258
100
AcDbEntity
  8
RACCORDO
100
AcDbPolyline
 62
7
  6
CONTINUOUS
 90
5
 70
0
 10
-21.0748588123
 20
22.7307138286
 10
-21.0768953556
 20
22.7215924306
 10
-21.0784097145
 20
22.7117588331
 10
-21.0793660982
 20
22.7013006732
 10
-21.0796980844
 20
22.6897548549
  0
LINE
  5
259
100
AcDbEntity
  8
0
100
AcDbLine
 62
253
  6
CONTINUOUS
 10
-15.5612850018
 20
22.5513381725
 11
-16.4588136436
 21
21.6953043866
  0
LINE
  5
25A
100
AcDbEntity
  8
0
100
AcDbLine
 62
7
  6
CONTINUOUS
 10
-15.6585684184
 20
22.5507613484
 11
-16.5514991806
 21
21.741647155
  0
LWPOLYLINE
  5
25B
100
AcDbEntity
  8
0
100
AcDbPolyline
 62
7
  6
CONTINUOUS
 90
5
 70
0
 10
-15.6585690204
 20
22.5507608029
 10
-15.6578930746
 20
22.551363592
 10
-15.6539974703
 20
22.5544885256
 10
-15.6497056828
 20
22.5573325999
 10
-15.6456988029
 20
22.5595144865
  0
LINE
  5
25C
100
AcDbEntity
  8
0
100
AcDbLine
 62
7
  6
CONTINUOUS
 10
-15.63199568
 20
23.0745250293
 11
-14.9248888988
 21
23.4280784199
  0
LINE
  5
25D
100
AcDbEntity
  8
0
100
AcDbLine
 62
7
  6
CONTINUOUS
 10
-13.1735510017
 20
23.9501939778
 11
-14.5713355082
 21
23.2513017246
  0
LWPOLYLINE
  5
25E
100
AcDbEntity
  8
0
100
AcDbPolyline
 62
7
  6
CONTINUOUS
 90
10
 70
0
 10
-15.6456988029
 20
22.5595144865
 10
-15.6449825464
 20
22.5598620869
 10
-15.6398154957
 20
22.5620277706
 10
-15.634197208
 20
22.5637698888
 10
-15.6281114327
 20
22.5650442656
 10
-15.6215391727
 20
22.5658042852
 10
-15.6144674003
 20
22.5659780491
 10
-15.6068776875
 20
22.5655159807
 10
-15.5987673285
 20
22.5643625008
 10
-15.5901464966
 20
22.5624262789
  0
LINE
  5
25F
100
AcDbEntity
  8
DRAFT
100
AcDbLine
 62
7
  6
CONTINUOUS
 10
-14.9248888988
 20
23.9420853716
 11
-14.5911132761
 21
24.1018377273
  0
LINE
  5
260
100
AcDbEntity
  8
RACCORDO
100
AcDbLine
 62
7
  6
CONTINUOUS
 10
-12.5083851278
 20
24.7526821107
 11
-14.5713355082
 21
23.7653086763
  0
LINE
  5
261
100
AcDbEntity
  8
0
100
AcDbLine
 62
253
  6
CONTINUOUS
 10
-10.7208567413
 20
23.4775610051
 11
-6.5066159882
 21
25.4945893376
  0
LINE
  5
262
100
AcDbEntity
  8
0
100
AcDbLine
 62
253
  6
CONTINUOUS
 10
-10.2432011468
 20
23.2387332079
 11
-6.2981861683
 21
25.126904162
  0
LWPOLYLINE
  5
263
100
AcDbEntity
  8
0
100
AcDbPolyline
 62
253
  6
CONTINUOUS
 90
34
 70
0
 10
-6.5066159882
 20
25.4945893376
 10
-6.4830918383
 20
25.5055316448
 10
-6.4578094746
 20
25.5161592884
 10
-6.430768897
 20
25.5264722684
 10
-6.4019095595
 20
25.5365627456
 10
-6.3712920081
 20
25.5463385592
 10
-6.3390978814
 20
25.5555232265
 10
-6.3052696683
 20
25.5641032114
 10
-6.2698648799
 20
25.57209205
 10
-6.2332376881
 20
25.579253868
 10
-6.1953438184
 20
25.5855641698
 10
-6.1562275454
 20
25.591047451
 10
-6.1163758647
 20
25.5955413233
 10
-6.0757738215
 20
25.5990153532
 10
-6.0344363706
 20
25.6014999742
 10
-5.9928953725
 20
25.6029240992
 10
-5.9511391539
 20
25.6032567976
 10
-5.9091793881
 20
25.602529
 10
-5.8675829549
 20
25.6007624113
 10
-5.8263509042
 20
25.5979234362
 10
-5.785482186
 20
25.5940456701
 10
-5.7455405302
 20
25.5892516031
 10
-5.7065583521
 20
25.5835105334
 10
-5.6685032363
 20
25.5768531629
 10
-5.6318416669
 20
25.5694940877
 10
-5.5966285059
 20
25.561412776
 10
-5.5628088912
 20
25.5526297595
 10
-5.5306847203
 20
25.5434212298
 10
-5.5003159839
 20
25.5337789004
 10
-5.4716426914
 20
25.5237110577
 10
-5.444786768
 20
25.5135187526
 10
-5.4197888556
 20
25.5033023354
 10
-5.3966083123
 20
25.4929614558
 10
-5.3752451383
 20
25.4824961139
  0
LWPOLYLINE
  5
264
100
AcDbEntity
  8
0
100
AcDbPolyline
 62
7
  6
CONTINUOUS
 90
3
 70
0
 10
-15.6456970538
 20
22.5595161124
 10
-15.5729066644
 20
22.592017692
 10
-15.4906265819
 20
22.6217746682
  0
LWPOLYLINE
  5
265
100
AcDbEntity
  8
0
100
AcDbPolyline
 62
253
  6
CONTINUOUS
 90
34
 70
0
 10
-6.2981861683
 20
25.126904162
 10
-6.2834466808
 20
25.1334826869
 10
-6.2676513158
 20
25.1399495775
 10
-6.2507744283
 20
25.1462619998
 10
-6.2327545765
 20
25.152386198
 10
-6.213614675
 20
25.158260676
 10
-6.1934754816
 20
25.1638058067
 10
-6.1723424618
 20
25.1689787708
 10
-6.1502336094
 20
25.1737344443
 10
-6.1273196456
 20
25.1780071504
 10
-6.1036387356
 20
25.1817619938
 10
-6.0792330974
 20
25.1849644819
 10
-6.0543050906
 20
25.1875720204
 10
-6.0289215318
 20
25.189563029
 10
-6.0031377595
 20
25.190917952
 10
-5.9771541611
 20
25.1916211332
 10
-5.9510375071
 20
25.1916666967
 10
-5.9248622889
 20
25.1910492982
 10
-5.8988445308
 20
25.18977856
 10
-5.8730452077
 20
25.1878650061
 10
-5.8475408739
 20
25.1853202052
 10
-5.8225631538
 20
25.1821823456
 10
-5.798165736
 20
25.1784800026
 10
-5.7744026435
 20
25.1742412464
 10
-5.7514857745
 20
25.1695306816
 10
-5.7294486979
 20
25.164391961
 10
-5.7083134545
 20
25.1588650809
 10
-5.6882453488
 20
25.1530320067
 10
-5.669248042
 20
25.1469444725
 10
-5.6513113477
 20
25.1406482803
 10
-5.6345472371
 20
25.1342327848
 10
-5.6189658567
 20
25.1277640853
 10
-5.6044895362
 20
25.1212755427
 10
-5.5910793871
 20
25.1148109383
  0
LINE
  5
266
100
AcDbEntity
  8
0
100
AcDbLine
 62
7
  6
CONTINUOUS
 10
-15.4906265819
 20
22.6217746682
 11
-15.4047746667
 21
22.6463623172
  0
LWPOLYLINE
  5
267
100
AcDbEntity
  8
RACCORDO
100
AcDbPolyline
 62
253
  6
CONTINUOUS
 90
31
 70
0
 10
4.0163137348
 20
-32.6132752623
 10
4.025771753
 20
-32.6177637959
 10
4.03568499
 20
-32.6219996422
 10
4.0460264752
 20
-32.6259712769
 10
4.0567680727
 20
-32.6296678944
 10
4.0678805584
 20
-32.6330794375
 10
4.0793336988
 20
-32.6361966245
 10
4.0910963336
 20
-32.6390109746
 10
4.1031364606
 20
-32.6415148308
 10
4.1154213227
 20
-32.6437013811
 10
4.1279174967
 20
-32.6455646764
 10
4.1405909848
 20
-32.6470996474
 10
4.1534073065
 20
-32.648302118
 10
4.1663315928
 20
-32.6491688166
 10
4.1793286811
 20
-32.6496973852
 10
4.1923632106
 20
-32.6498863858
 10
4.2053997186
 20
-32.6497353041
 10
4.2184027371
 20
-32.6492445512
 10
4.2313368892
 20
-32.6484154623
 10
4.2441669853
 20
-32.647250293
 10
4.2568581189
 20
-32.6457522135
 10
4.2693757618
 20
-32.6439252994
 10
4.2816858575
 20
-32.6417745212
 10
4.2937549143
 20
-32.6393057304
 10
4.3055500963
 20
-32.6365256439
 10
4.3170393128
 20
-32.6334418252
 10
4.3281913053
 20
-32.6300626646
 10
4.3389757329
 20
-32.6263973555
 10
4.3493632549
 20
-32.62245587
 10
4.3593256102
 20
-32.6182489317
 10
4.3688356945
 20
-32.6137879861
  0
LWPOLYLINE
  5
268
100
AcDbEntity
  8
RACCORDO
100
AcDbPolyline
 62
253
  6
CONTINUOUS
 90
31
 70
0
 10
4.0163137348
 20
-32.2733013281
 10
4.025771753
 20
-32.2777898617
 10
4.03568499
 20
-32.2820257081
 10
4.0460264752
 20
-32.2859973427
 10
4.0567680727
 20
-32.2896939603
 10
4.0678805584
 20
-32.2931055034
 10
4.0793336988
 20
-32.2962226904
 10
4.0910963336
 20
-32.2990370405
 10
4.1031364606
 20
-32.3015408967
 10
4.1154213227
 20
-32.3037274469
 10
4.1279174967
 20
-32.3055907423
 10
4.1405909848
 20
-32.3071257133
 10
4.1534073065
 20
-32.3083281839
 10
4.1663315928
 20
-32.3091948825
 10
4.1793286811
 20
-32.3097234511
 10
4.1923632106
 20
-32.3099124516
 10
4.2053997186
 20
-32.30976137
 10
4.2184027371
 20
-32.3092706171
 10
4.2313368892
 20
-32.3084415282
 10
4.2441669853
 20
-32.3072763589
 10
4.2568581189
 20
-32.3057782793
 10
4.2693757618
 20
-32.3039513652
 10
4.2816858575
 20
-32.301800587
 10
4.2937549143
 20
-32.2993317963
 10
4.3055500963
 20
-32.2965517097
 10
4.3170393128
 20
-32.2934678911
 10
4.3281913053
 20
-32.2900887305
 10
4.3389757329
 20
-32.2864234214
 10
4.3493632549
 20
-32.2824819359
 10
4.3593256102
 20
-32.2782749975
 10
4.3688356945
 20
-32.273814052
  0
LWPOLYLINE
  5
269
100
AcDbEntity
  8
RACCORDO
100
AcDbPolyline
 62
7
  6
CONTINUOUS
 90
19
 70
0
 10
4.0812871038
 20
-32.7484937486
 10
4.0899390903
 20
-32.7526143857
 10
4.1017753547
 20
-32.7576132711
 10
4.1138738088
 20
-32.7620044528
 10
4.1262053003
 20
-32.7657735672
 10
4.1387363325
 20
-32.7689066517
 10
4.1514379241
 20
-32.7713926321
 10
4.1642777909
 20
-32.7732210279
 10
4.177220971
 20
-32.7743827267
 10
4.1902335549
 20
-32.7748705906
 10
4.2032803532
 20
-32.7746791592
 10
4.2163258041
 20
-32.7738048075
 10
4.2293347646
 20
-32.7722456586
 10
4.2422729966
 20
-32.770001327
 10
4.2551020319
 20
-32.7670739523
 10
4.267780303
 20
-32.7634690239
 10
4.2802712338
 20
-32.7591933539
 10
4.2925392515
 20
-32.754255465
 10
4.3025741592
 20
-32.7496385844
  0
LINE
  5
26A
100
AcDbEntity
  8
RACCORDO
100
AcDbLine
 62
253
  6
CONTINUOUS
 10
2.691329055
 20
-31.9507829224
 11
4.0163137348
 21
-32.6132752623
  0
LINE
  5
26B
100
AcDbEntity
  8
RACCORDO
100
AcDbLine
 62
253
  6
CONTINUOUS
 10
4.0163137348
 20
-32.2733013281
 11
2.691329055
 21
-31.6108089882
  0
LINE
  5
26C
100
AcDbEntity
  8
RACCORDO
100
AcDbLine
 62
253
  6
CONTINUOUS
 10
4.1047020825
 20
-32.0416071543
 11
2.9365374639
 21
-31.457524845
  0
LINE
  5
26D
100
AcDbEntity
  8
RACCORDO
100
AcDbLine
 62
7
  6
CONTINUOUS
 10
4.1258273282
 20
-30.9959513436
 11
4.7270201145
 21
-31.2965477368
  0
LWPOLYLINE
  5
26E
100
AcDbEntity
  8
RACCORDO
100
AcDbPolyline
 62
253
  6
CONTINUOUS
 90
16
 70
0
 10
2.691329055
 20
-31.9507829224
 10
2.6823519878
 20
-31.9460539133
 10
2.6738802952
 20
-31.9410972948
 10
2.6659370258
 20
-31.9359265522
 10
2.6585437908
 20
-31.9305557534
 10
2.6517207045
 20
-31.9249995106
 10
2.6454863305
 20
-31.9192729404
 10
2.6398576303
 20
-31.913391623
 10
2.6348499178
 20
-31.9073715594
 10
2.6304768174
 20
-31.9012291284
 10
2.6267502267
 20
-31.8949810414
 10
2.6236802847
 20
-31.8886442974
 10
2.6212753435
 20
-31.8822361365
 10
2.6195419463
 20
-31.8757739933
 10
2.6184848091
 20
-31.8692754492
 10
2.6181057503
 20
-31.8623945747
  0
LWPOLYLINE
  5
26F
100
AcDbEntity
  8
RACCORDO
100
AcDbPolyline
 62
253
  6
CONTINUOUS
 90
9
 70
0
 10
2.691329055
 20
-31.6108089882
 10
2.6823519878
 20
-31.6060799791
 10
2.6738802952
 20
-31.6011233606
 10
2.6659370258
 20
-31.5959526181
 10
2.6585437908
 20
-31.5905818193
 10
2.6517207045
 20
-31.5850255764
 10
2.6454863305
 20
-31.5792990063
 10
2.6398576303
 20
-31.5734176888
 10
2.6393867159
 20
-31.5728515752
  0
LWPOLYLINE
  5
270
100
AcDbEntity
  8
RACCORDO
100
AcDbPolyline
 62
7
  6
CONTINUOUS
 90
7
 70
0
 10
-25.9531220565
 20
23.4515834606
 10
-25.9527871219
 20
23.4455196811
 10
-25.9517783939
 20
23.4393179055
 10
-25.9501181723
 20
23.4330932087
 10
-25.9478146431
 20
23.4268541643
 10
-25.9448612816
 20
23.4205634022
 10
-25.9412595094
 20
23.4142055433
  0
LWPOLYLINE
  5
271
100
AcDbEntity
  8
RACCORDO
100
AcDbPolyline
 62
253
  6
CONTINUOUS
 90
31
 70
0
 10
-24.9053850467
 20
24.0028743921
 10
-24.905680136
 20
24.014302521
 10
-24.9064563051
 20
24.0259431001
 10
-24.9077114284
 20
24.0377642124
 10
-24.9094420689
 20
24.0497334562
 10
-24.9116434831
 20
24.0618180023
 10
-24.9143096294
 20
24.0739846824
 10
-24.917433194
 20
24.0862001274
 10
-24.9210056126
 20
24.0984308504
 10
-24.9250170854
 20
24.1106433052
 10
-24.929456611
 20
24.1228040058
 10
-24.9343120142
 20
24.1348796081
 10
-24.9395699752
 20
24.1468369918
 10
-24.9452160787
 20
24.1586433801
 10
-24.9512348366
 20
24.1702663927
 10
-24.9576097234
 20
24.1816741269
 10
-24.9643232271
 20
24.1928352646
 10
-24.9713569591
 20
24.2037192528
 10
-24.978691694
 20
24.2142963447
 10
-24.9863074285
 20
24.2245376723
 10
-24.9941831864
 20
24.2344150063
 10
-25.0022971135
 20
24.2439009648
 10
-25.0106267735
 20
24.2529693952
 10
-25.0191494743
 20
24.2615956685
 10
-25.0278420889
 20
24.2697564039
 10
-25.0366826289
 20
24.2774307641
 10
-25.0456450683
 20
24.2845959655
 10
-25.0546994453
 20
24.291228592
 10
-25.0638190011
 20
24.2973102824
 10
-25.0729804656
 20
24.3028267482
 10
-25.0821587503
 20
24.3077639309
  0
LWPOLYLINE
  5
272
100
AcDbEntity
  8
RACCORDO
100
AcDbPolyline
 62
7
  6
CONTINUOUS
 90
31
 70
0
 10
-23.3041042558
 20
24.8055963956
 10
-23.3043462978
 20
24.8170485111
 10
-23.3050724452
 20
24.8287113662
 10
-23.3062805742
 20
24.8405530653
 10
-23.3079671399
 20
24.8525412735
 10
-23.3101275128
 20
24.8646431381
 10
-23.3127559919
 20
24.8768253785
 10
-23.3158453047
 20
24.8890546421
 10
-23.3193868665
 20
24.9012974702
 10
-23.3233711306
 20
24.913520222
 10
-23.3277871399
 20
24.925689417
 10
-23.3326227014
 20
24.9377717461
 10
-23.3378646575
 20
24.9497340379
 10
-23.3434986359
 20
24.9615435085
 10
-23.3495091355
 20
24.9731678194
 10
-23.355879712
 20
24.9845750863
 10
-23.3625929318
 20
24.9957340298
 10
-23.3696303676
 20
25.0066140788
 10
-23.3769726936
 20
25.0171854227
 10
-23.3845998446
 20
25.0274190574
 10
-23.3924909213
 20
25.037286932
 10
-23.4006241929
 20
25.046762045
 10
-23.4089774572
 20
25.055818382
 10
-23.4175278576
 20
25.0644311038
 10
-23.4262517949
 20
25.0725766827
 10
-23.4351254767
 20
25.0802327353
 10
-23.4441246525
 20
25.0873782451
 10
-23.4532244364
 20
25.0939937381
 10
-23.4623998961
 20
25.1000610804
 10
-23.4716261208
 20
25.1055635279
 10
-23.4808779595
 20
25.1104859344
  0
LWPOLYLINE
  5
273
100
AcDbEntity
  8
RACCORDO
100
AcDbPolyline
 62
253
  6
CONTINUOUS
 90
19
 70
0
 10
-25.2579070063
 20
23.6634131818
 10
-25.2576871516
 20
23.6527285253
 10
-25.2570281344
 20
23.6422902988
 10
-25.2559315936
 20
23.6321244663
 10
-25.2544002627
 20
23.6222563478
 10
-25.2524379474
 20
23.6127104531
 10
-25.2500495016
 20
23.6035104327
 10
-25.2472408315
 20
23.5946791208
 10
-25.244018926
 20
23.5862385637
 10
-25.2403918284
 20
23.5782098554
 10
-25.2363685488
 20
23.5706129445
 10
-25.2319591063
 20
23.5634667537
 10
-25.2271745697
 20
23.5567891884
 10
-25.2220269363
 20
23.5505969111
 10
-25.2165289683
 20
23.5449051987
 10
-25.2106942346
 20
23.5397280725
 10
-25.2045360181
 20
23.5350775574
 10
-25.1980707439
 20
23.5309662837
 10
-25.1929445362
 20
23.5282001457
  0
LWPOLYLINE
  5
274
100
AcDbEntity
  8
RACCORDO
100
AcDbPolyline
 62
253
  6
CONTINUOUS
 90
31
 70
0
 10
-22.7758370841
 20
25.0690352156
 10
-22.776027328
 20
25.0805157672
 10
-22.7767045789
 20
25.0922058054
 10
-22.7778669825
 20
25.1040732775
 10
-22.779511356
 20
25.116085655
 10
-22.7816331923
 20
25.1282099899
 10
-22.7842266686
 20
25.140413005
 10
-22.7872846702
 20
25.1526612316
 10
-22.7907988125
 20
25.1649210927
 10
-22.7947594556
 20
25.1771589623
 10
-22.7991557373
 20
25.1893412849
 10
-22.8039756011
 20
25.2014346568
 10
-22.8092058246
 20
25.2134059093
 10
-22.8148320683
 20
25.2252222275
 10
-22.8208388988
 20
25.2368512038
 10
-22.827209823
 20
25.2482609194
 10
-22.8339273398
 20
25.2594200505
 10
-22.8409730494
 20
25.2702980499
 10
-22.8483276935
 20
25.2808651872
 10
-22.8559712148
 20
25.2910926214
 10
-22.8638825608
 20
25.3009521614
 10
-22.8720397782
 20
25.3104164747
 10
-22.8804203104
 20
25.319459469
 10
-22.8890013259
 20
25.328056585
 10
-22.8977595391
 20
25.336184521
 10
-22.9066727977
 20
25.3438225219
 10
-22.9157148634
 20
25.3509479102
 10
-22.924855503
 20
25.3575374053
 10
-22.934067691
 20
25.3635727798
 10
-22.9433279088
 20
25.3690398689
 10
-22.9526107878
 20
25.3739247544
  0
LINE
  5
275
100
AcDbEntity
  8
RACCORDO
100
AcDbLine
 62
253
  6
CONTINUOUS
 10
-24.9053850467
 20
23.6629004579
 11
-24.9053850467
 21
24.0028743921
  0
LINE
  5
276
100
AcDbEntity
  8
RACCORDO
100
AcDbLine
 62
253
  6
CONTINUOUS
 10
-24.5466863982
 20
23.3848175546
 11
-24.5466863982
 21
22.6959969317
  0
LINE
  5
277
100
AcDbEntity
  8
RACCORDO
100
AcDbLine
 62
253
  6
CONTINUOUS
 10
-24.1941644386
 20
23.5143969351
 11
-24.1941644386
 21
22.7067648133
  0
LINE
  5
278
100
AcDbEntity
  8
RACCORDO
100
AcDbLine
 62
7
  6
CONTINUOUS
 10
-23.3041042558
 20
23.2185622643
 11
-23.3041042558
 21
24.8055963956
  0
LINE
  5
279
100
AcDbEntity
  8
RACCORDO
100
AcDbLine
 62
253
  6
CONTINUOUS
 10
-22.7758370841
 20
25.0690352156
 11
-22.7758370841
 21
24.7215036989
  0
LINE
  5
27A
100
AcDbEntity
  8
RACCORDO
100
AcDbLine
 62
7
  6
CONTINUOUS
 10
-22.7036392271
 20
25.1569078478
 11
-22.7036392271
 21
24.809376331
  0
LWPOLYLINE
  5
27B
100
AcDbEntity
  8
RACCORDO
100
AcDbPolyline
 62
7
  6
CONTINUOUS
 90
15
 70
0
 10
-22.7036392271
 20
24.8093740188
 10
-22.7037990356
 20
24.8004388424
 10
-22.7045572493
 20
24.7879714639
 10
-22.7059390873
 20
24.7755437914
 10
-22.7079433818
 20
24.7631859466
 10
-22.7105667741
 20
24.7509316342
 10
-22.7138051555
 20
24.7388099217
 10
-22.7176525135
 20
24.7268519649
 10
-22.7221008902
 20
24.7150895421
 10
-22.7271413374
 20
24.7035523925
 10
-22.7327628772
 20
24.6922710875
 10
-22.7389528517
 20
24.6812757447
 10
-22.7456976713
 20
24.6705948143
 10
-22.7529819995
 20
24.6602566576
 10
-22.7604775847
 20
24.6506672265
  0
LWPOLYLINE
  5
27C
100
AcDbEntity
  8
RACCORDO
100
AcDbPolyline
 62
253
  6
CONTINUOUS
 90
16
 70
0
 10
-22.7036392271
 20
25.1569078478
 10
-22.7039404976
 20
25.1507730189
 10
-22.7049202162
 20
25.1442700707
 10
-22.7065769052
 20
25.1378015065
 10
-22.7089060567
 20
25.1313849398
 10
-22.711901337
 20
25.1250378287
 10
-22.7155545959
 20
25.1187774519
 10
-22.719855894
 20
25.1126208487
 10
-22.7247935265
 20
25.1065847782
 10
-22.7303540518
 20
25.1006856758
 10
-22.7365223409
 20
25.0949395944
 10
-22.7432816022
 20
25.0893621787
 10
-22.750613416
 20
25.0839686264
 10
-22.7584978142
 20
25.078773622
 10
-22.7669133399
 20
25.0737912985
 10
-22.7758370841
 20
25.0690352156
  0
LWPOLYLINE
  5
27D
100
AcDbEntity
  8
RACCORDO
100
AcDbPolyline
 62
253
  6
CONTINUOUS
 90
16
 70
0
 10
-22.7036392271
 20
24.8093740188
 10
-22.7039421503
 20
24.8032247081
 10
-22.7049233874
 20
24.7967229612
 10
-22.7065813451
 20
24.7902556422
 10
-22.7089115115
 20
24.7838403503
 10
-22.7119075471
 20
24.7774945381
 10
-22.7155613036
 20
24.771235466
 10
-22.7198628482
 20
24.7650801554
 10
-22.7248004739
 20
24.7590453638
 10
-22.730360727
 20
24.753147532
 10
-22.7365284605
 20
24.7474027177
 10
-22.7432868991
 20
24.7418265381
 10
-22.7506176697
 20
24.7364341497
 10
-22.7585008338
 20
24.7312402199
 10
-22.7669149364
 20
24.7262588851
 10
-22.7758370841
 20
24.7215036989
  0
LWPOLYLINE
  5
27E
100
AcDbEntity
  8
0
100
AcDbPolyline
 62
7
  6
CONTINUOUS
 90
23
 70
0
 10
-21.2702393479
 20
10.505658313
 10
-21.3041036074
 20
10.3683090436
 10
-21.3285511215
 20
10.2270456082
 10
-21.3440029803
 20
10.0819116023
 10
-21.3503943557
 20
9.9319017903
 10
-21.3475631481
 20
9.7768100638
 10
-21.3353730485
 20
9.6185405791
 10
-21.3136828001
 20
9.4591856085
 10
-21.282680404
 20
9.2996805738
 10
-21.2426928351
 20
9.14110316
 10
-21.1942307832
 20
8.9857695628
 10
-21.1382252871
 20
8.8355681056
 10
-21.0750066109
 20
8.6903496024
 10
-21.0041890553
 20
8.549393956
 10
-20.9259167627
 20
8.4130998856
 10
-20.8409347473
 20
8.2829359177
 10
-20.7496074125
 20
8.1598998208
 10
-20.6520889133
 20
8.0444393387
 10
-20.549425697
 20
7.9378697874
 10
-20.4435043411
 20
7.8421125138
 10
-20.3355180101
 20
7.7578816272
 10
-20.2258301276
 20
7.6850469389
 10
-20.1151687557
 20
7.6238051563
  0
LINE
  5
27F
100
AcDbEntity
  8
0
100
AcDbLine
 62
7
  6
CONTINUOUS
 10
-20.6107160527
 20
11.2576680921
 11
-20.5297685159
 21
11.3406384262
  0
LINE
  5
280
100
AcDbEntity
  8
DRAFT
100
AcDbLine
 62
7
  6
CONTINUOUS
 10
-14.1835623616
 20
18.8311834303
 11
-14.3592034738
 21
18.7309953436
  0
LWPOLYLINE
  5
281
100
AcDbEntity
  8
0
100
AcDbPolyline
 62
253
  6
CONTINUOUS
 90
13
 70
0
 10
-5.3752451383
 20
25.4824961139
 10
-5.4032679055
 20
25.4668111697
 10
-5.4308652562
 20
25.4468243295
 10
-5.4575544558
 20
25.4228852043
 10
-5.4828686553
 20
25.3954125388
 10
-5.5063650571
 20
25.3648868865
 10
-5.5276326609
 20
25.3318422038
 10
-5.5462994524
 20
25.2968565104
 10
-5.5620389109
 20
25.2605417781
 10
-5.574575721
 20
25.2235332264
 10
-5.5836905879
 20
25.1864782109
 10
-5.589224074
 20
25.1500249004
 10
-5.5910793871
 20
25.1148109383
  0
LINE
  5
282
100
AcDbEntity
  8
RACCORDO
100
AcDbLine
 62
7
  6
CONTINUOUS
 10
-14.3592034738
 20
18.7309953436
 11
-14.7168826231
 21
18.5313993917
  0
LINE
  5
283
100
AcDbEntity
  8
RACCORDO
100
AcDbLine
 62
7
  6
CONTINUOUS
 10
-11.5727372665
 20
19.1067432219
 11
-13.1559109319
 21
18.2945451637
  0
LINE
  5
284
100
AcDbEntity
  8
RACCORDO
100
AcDbLine
 62
253
  6
CONTINUOUS
 10
-11.4600686626
 20
19.1000812859
 11
-13.0428252657
 21
18.2880971886
  0
LINE
  5
285
100
AcDbEntity
  8
RACCORDO
100
AcDbLine
 62
7
  6
CONTINUOUS
 10
-14.7168826231
 20
19.7641263641
 11
-14.3592034738
 21
19.9434309089
  0
LINE
  5
286
100
AcDbEntity
  8
0
100
AcDbLine
 62
7
  6
CONTINUOUS
 10
-4.5304192153
 20
24.1728675569
 11
-4.8168461416
 21
24.0296540937
  0
LINE
  5
287
100
AcDbEntity
  8
RACCORDO
100
AcDbLine
 62
7
  6
CONTINUOUS
 10
-11.571000876
 20
19.1076114312
 11
-11.5727372897
 21
19.10674321
  0
LINE
  5
288
100
AcDbEntity
  8
ASSI
100
AcDbLine
 62
7
  6
CONTINUOUS
 10
-14.3592034738
 20
19.9434309089
 11
-9.0847114047
 21
22.5737400428
  0
LINE
  5
289
100
AcDbEntity
  8
ASSI
100
AcDbLine
 62
7
  6
CONTINUOUS
 10
-9.6902418393
 20
22.8765052601
 11
-14.2884927957
 21
20.6101439626
  0
LINE
  5
28A
100
AcDbEntity
  8
RACCORDO
100
AcDbLine
 62
7
  6
CONTINUOUS
 10
-11.036130895
 20
19.3681635435
 11
-11.5710008527
 21
19.1076114432
  0
LINE
  5
28B
100
AcDbEntity
  8
RACCORDO
100
AcDbLine
 62
253
  6
CONTINUOUS
 10
-10.9256187839
 20
19.3604287525
 11
-11.4600686626
 21
19.1000812859
  0
LINE
  5
28C
100
AcDbEntity
  8
DRAFT
100
AcDbLine
 62
7
  6
CONTINUOUS
 10
-14.1835623616
 20
18.8311834303
 11
-9.0343694036
 21
21.3251887183
  0
LINE
  5
28D
100
AcDbEntity
  8
0
100
AcDbLine
 62
7
  6
CONTINUOUS
 10
-6.0831818331
 20
24.6628141482
 11
-9.6638193027
 21
22.9490422858
  0
LINE
  5
28E
100
AcDbEntity
  8
0
100
AcDbLine
 62
253
  6
CONTINUOUS
 10
-6.0823519195
 20
24.5904670517
 11
-9.5894858914
 21
22.9118755802
  0
LINE
  5
28F
100
AcDbEntity
  8
RACCORDO
100
AcDbLine
 62
7
  6
CONTINUOUS
 10
-8.2657444407
 20
22.6313617671
 11
-8.9107753397
 21
22.322635789
  0
LWPOLYLINE
  5
290
100
AcDbEntity
  8
ASSI
100
AcDbPolyline
 62
7
  6
CONTINUOUS
 90
7
 70
0
 10
-9.6902418393
 20
22.8765052601
 10
-9.6820320403
 20
22.8804329652
 10
-9.6738477588
 20
22.8841181593
 10
-9.6656889948
 20
22.8875608426
 10
-9.6575557483
 20
22.890761015
 10
-9.6494480193
 20
22.8937186766
 10
-9.6413658078
 20
22.8964338272
  0
LWPOLYLINE
  5
291
100
AcDbEntity
  8
RACCORDO
100
AcDbPolyline
 62
7
  6
CONTINUOUS
 90
19
 70
0
 10
-8.2657444407
 20
22.6313617671
 10
-8.2395517102
 20
22.6432991328
 10
-8.2134826968
 20
22.6540010057
 10
-8.1875374004
 20
22.6634673859
 10
-8.1616806733
 20
22.6717078355
 10
-8.1359476633
 20
22.6787127924
 10
-8.1104438133
 20
22.68445357
 10
-8.0851700963
 20
22.6889249685
 10
-8.0601255393
 20
22.6921321878
 10
-8.0354126669
 20
22.6940621401
 10
-8.011032962
 20
22.6947096222
 10
-7.9869849416
 20
22.6940798374
 10
-7.9633666812
 20
22.692175307
 10
-7.9401796698
 20
22.6889907673
 10
-7.9174224183
 20
22.6845314821
 10
-7.8951885356
 20
22.6788157643
 10
-7.8734804197
 20
22.671838524
 10
-7.8522956726
 20
22.6636048512
 10
-7.8308715658
 20
22.6537250854
  0
LWPOLYLINE
  5
292
100
AcDbEntity
  8
RACCORDO
100
AcDbPolyline
 62
7
  6
CONTINUOUS
 90
18
 70
0
 10
-11.036130895
 20
19.3681635435
 10
-11.0239099352
 20
19.3737159097
 10
-11.0112808116
 20
19.3786503498
 10
-10.9982820124
 20
19.3829289788
 10
-10.9849367619
 20
19.3865215527
 10
-10.9713110326
 20
19.3893897799
 10
-10.9575120738
 20
19.3914992518
 10
-10.9436130917
 20
19.3928354999
 10
-10.9296436704
 20
19.3933938875
 10
-10.9156428189
 20
19.3931695346
 10
-10.9016693546
 20
19.3921609282
 10
-10.8877635993
 20
19.3903694608
 10
-10.8739301595
 20
19.3877904685
 10
-10.860162098
 20
19.3844092063
 10
-10.846561049
 20
19.3802371078
 10
-10.8332752185
 20
19.3753205967
 10
-10.8203410632
 20
19.3696838065
 10
-10.8148378194
 20
19.3670156409
  0
LINE
  5
293
100
AcDbEntity
  8
RACCORDO
100
AcDbLine
 62
7
  6
CONTINUOUS
 10
-15.2805499258
 20
19.6318486998
 11
-15.3681335067
 21
19.6058734944
  0
LWPOLYLINE
  5
294
100
AcDbEntity
  8
ASSI
100
AcDbPolyline
 62
7
  6
CONTINUOUS
 90
17
 70
0
 10
-9.6413658078
 20
22.8964338272
 10
-9.6303330831
 20
22.899650725
 10
-9.6187359354
 20
22.9022345402
 10
-9.6065713949
 20
22.9041681484
 10
-9.5938126158
 20
22.9054526684
 10
-9.5804844792
 20
22.9060501552
 10
-9.5666707967
 20
22.9058886028
 10
-9.5523830445
 20
22.9049397167
 10
-9.5376327833
 20
22.9032031782
 10
-9.5225180229
 20
22.9006581673
 10
-9.5070938172
 20
22.8972951035
 10
-9.4913476904
 20
22.8931068639
 10
-9.4752821736
 20
22.8880804841
 10
-9.4589558799
 20
22.8822246402
 10
-9.4423564639
 20
22.8755139403
 10
-9.4253764942
 20
22.8678759068
 10
-9.4145936524
 20
22.8626343525
  0
LWPOLYLINE
  5
295
100
AcDbEntity
  8
RACCORDO
100
AcDbPolyline
 62
7
  6
CONTINUOUS
 90
4
 70
0
 10
-15.3681335067
 20
19.6058734944
 10
-15.4013278461
 20
19.5962096905
 10
-15.4117772785
 20
19.5932495552
 10
-15.4219265424
 20
19.5904469393
  0
LWPOLYLINE
  5
296
100
AcDbEntity
  8
RACCORDO
100
AcDbPolyline
 62
253
  6
CONTINUOUS
 90
5
 70
0
 10
6.432378587
 20
-30.9037282185
 10
6.4308048875
 20
-30.9029598035
 10
6.4237771876
 20
-30.8999535979
 10
6.4164928061
 20
-30.897512975
 10
6.4089698617
 20
-30.8956440051
  0
LINE
  5
297
100
AcDbEntity
  8
RACCORDO
100
AcDbLine
 62
253
  6
CONTINUOUS
 10
5.9701164853
 20
-30.6762173169
 11
6.4089698617
 21
-30.8956440051
  0
LINE
  5
298
100
AcDbEntity
  8
RACCORDO
100
AcDbLine
 62
7
  6
CONTINUOUS
 10
5.9701164853
 20
-30.6725971673
 11
6.4323849129
 21
-30.9037313811
  0
LWPOLYLINE
  5
299
100
AcDbEntity
  8
RACCORDO
100
AcDbPolyline
 62
7
  6
CONTINUOUS
 90
27
 70
0
 10
-21.0796980844
 20
22.6897548549
 10
-21.0794218481
 20
22.6788630338
 10
-21.078630664
 20
22.6670031838
 10
-21.0773188936
 20
22.6547903672
 10
-21.0754661358
 20
22.6422845621
 10
-21.0731433061
 20
22.6295076144
 10
-21.0703487698
 20
22.6165026581
 10
-21.0670710718
 20
22.6033156795
 10
-21.063363322
 20
22.5899581669
 10
-21.0592253069
 20
22.5764626033
 10
-21.0546511031
 20
22.5628651524
 10
-21.049681611
 20
22.5491739645
 10
-21.044317143
 20
22.5354147934
 10
-21.0385550983
 20
22.5216167891
 10
-21.0324285442
 20
22.507788009
 10
-21.0259379991
 20
22.493949689
 10
-21.0190829534
 20
22.480126155
 10
-21.0118919419
 20
22.4663271949
 10
-21.0043656436
 20
22.4525709087
 10
-20.9965050042
 20
22.4388782814
 10
-20.9883365648
 20
22.4252619167
 10
-20.9798610365
 20
22.4117372592
 10
-20.9710807653
 20
22.3983232798
 10
-20.9620230804
 20
22.3850371288
 10
-20.9526982387
 20
22.3718948868
 10
-20.9431006414
 20
22.3589112367
 10
-20.9332336421
 20
22.3461004891
  0
LINE
  5
29A
100
AcDbEntity
  8
RACCORDO
100
AcDbLine
 62
7
  6
CONTINUOUS
 10
-21.0796802515
 20
22.6897574582
 11
-21.0796802515
 21
21.448940568
  0
LINE
  5
29B
100
AcDbEntity
  8
RACCORDO
100
AcDbLine
 62
253
  6
CONTINUOUS
 10
-20.9332336421
 20
22.3461004891
 11
-20.9332336421
 21
21.2655171783
  0
LWPOLYLINE
  5
29C
100
AcDbEntity
  8
0
100
AcDbPolyline
 62
253
  6
CONTINUOUS
 90
7
 70
0
 10
-20.1151687571
 20
7.623805157
 10
-20.2022587064
 20
7.3864218152
 10
-20.2960070889
 20
7.1504255374
 10
-20.3962439412
 20
6.9162441787
 10
-20.5027875365
 20
6.6843023038
 10
-20.6154447139
 20
6.4550204174
 10
-20.7340112289
 20
6.2288142016
  0
LWPOLYLINE
  5
29D
100
AcDbEntity
  8
RACCORDO
100
AcDbPolyline
 62
7
  6
CONTINUOUS
 90
36
 70
0
 10
-10.8298462741
 20
16.8322378529
 10
-10.8364868759
 20
16.8244991707
 10
-10.8433744832
 20
16.8168569324
 10
-10.8505070656
 20
16.8093241219
 10
-10.8578865645
 20
16.801915195
 10
-10.8655056675
 20
16.7946418995
 10
-10.8733479165
 20
16.7875133434
 10
-10.8814097662
 20
16.7805429943
 10
-10.8896869421
 20
16.7737440152
 10
-10.8981614338
 20
16.7671252856
 10
-10.9068283809
 20
16.7607003683
 10
-10.9156822677
 20
16.754482481
 10
-10.9247036445
 20
16.7484802187
 10
-10.9338863047
 20
16.7427070918
 10
-10.9432234346
 20
16.7371762426
 10
-10.9526942092
 20
16.7318959621
 10
-10.9622910462
 20
16.726879547
 10
-10.972005769
 20
16.7221399218
 10
-10.9818161671
 20
16.7176850752
 10
-10.9917132356
 20
16.7135279123
 10
-11.001687378
 20
16.7096809615
 10
-11.0117149513
 20
16.7061518835
 10
-11.0217854714
 20
16.702952978
 10
-11.0318878744
 20
16.7000961536
 10
-11.0419970374
 20
16.6975886534
 10
-11.0521009303
 20
16.6954419101
 10
-11.0621870049
 20
16.6936669256
 10
-11.0722286807
 20
16.6922703368
 10
-11.0822123067
 20
16.6912623858
 10
-11.0921238947
 20
16.6906528114
 10
-11.1019356223
 20
16.6904473373
 10
-11.111632177
 20
16.6906546256
 10
-11.1211982326
 20
16.6912827431
 10
-11.1306051877
 20
16.6923361182
 10
-11.1398257201
 20
16.6938194797
 10
-11.1437155396
 20
16.694587754
  0
LINE
  5
29E
100
AcDbEntity
  8
0
100
AcDbLine
 62
7
  6
CONTINUOUS
 10
-20.5297685159
 20
11.3406384262
 11
-20.4734311084
 21
11.3871220529
  0
LWPOLYLINE
  5
29F
100
AcDbEntity
  8
0
100
AcDbPolyline
 62
253
  6
CONTINUOUS
 90
13
 70
0
 10
-0.42549767
 20
23.0076223797
 10
-0.4535204677
 20
22.991937416
 10
-0.4811178413
 20
22.9719505521
 10
-0.5078070555
 20
22.9480114029
 10
-0.5331212609
 20
22.9205387169
 10
-0.5566176608
 20
22.8900130501
 10
-0.5778852568
 20
22.8569683603
 10
-0.5965520361
 20
22.8219826685
 10
-0.61229148
 20
22.785667947
 10
-0.6248282759
 20
22.7486594128
 10
-0.633943131
 20
22.7116044198
 10
-0.6394766088
 20
22.6751511364
 10
-0.6413319188
 20
22.6399372041
  0
LINE
  5
2A0
100
AcDbEntity
  8
RACCORDO
100
AcDbLine
 62
7
  6
CONTINUOUS
 10
-10.5254644847
 20
16.1944601191
 11
-10.8298462741
 21
16.0246057311
  0
LWPOLYLINE
  5
2A1
100
AcDbEntity
  8
RACCORDO
100
AcDbPolyline
 62
7
  6
CONTINUOUS
 90
22
 70
0
 10
-10.6103265196
 20
17.0217529576
 10
-10.6218535238
 20
17.0154514495
 10
-10.6330787105
 20
17.0085236274
 10
-10.6439593815
 20
17.0009866261
 10
-10.6544586333
 20
16.9928575549
 10
-10.6645319536
 20
16.9841638374
 10
-10.6741297402
 20
16.9749451719
 10
-10.6831796838
 20
16.9652780771
 10
-10.6916954926
 20
16.9551573501
 10
-10.6997430116
 20
16.9444898456
 10
-10.707320397
 20
16.9332322327
 10
-10.7143317639
 20
16.9214801315
 10
-10.7206983684
 20
16.9093440405
 10
-10.7263843077
 20
16.8968916109
 10
-10.7313814174
 20
16.884143043
 10
-10.7356724048
 20
16.8711420876
 10
-10.7392424332
 20
16.8579374135
 10
-10.7420826477
 20
16.8445694505
 10
-10.7441885061
 20
16.8310632919
 10
-10.7455540903
 20
16.8174473832
 10
-10.7461726641
 20
16.803774471
 10
-10.7462124138
 20
16.7993229119
  0
LWPOLYLINE
  5
2A2
100
AcDbEntity
  8
0
100
AcDbPolyline
 62
7
  6
CONTINUOUS
 90
10
 70
0
 10
-20.6609681096
 20
11.3190242644
 10
-20.7121153349
 20
11.2914480864
 10
-20.8043768743
 20
11.2307357388
 10
-20.8907107966
 20
11.1591390194
 10
-20.9715113825
 20
11.076198037
 10
-21.0466767264
 20
10.9814368207
 10
-21.1150039384
 20
10.8757589912
 10
-21.1752179031
 20
10.7607217289
 10
-21.2270386066
 20
10.6371104206
 10
-21.2702393479
 20
10.505658313
  0
LINE
  5
2A3
100
AcDbEntity
  8
RACCORDO
100
AcDbLine
 62
7
  6
CONTINUOUS
 10
-9.0271528542
 20
17.8339510157
 11
-10.6103265196
 21
17.0217529576
  0
LINE
  5
2A4
100
AcDbEntity
  8
RACCORDO
100
AcDbLine
 62
253
  6
CONTINUOUS
 10
-8.9144842503
 20
17.8272890798
 11
-10.4972408535
 21
17.0153049825
  0
LINE
  5
2A5
100
AcDbEntity
  8
0
100
AcDbLine
 62
7
  6
CONTINUOUS
 10
-0.5365780269
 20
22.4743636166
 11
-0.5585550745
 21
22.4630901464
  0
LINE
  5
2A6
100
AcDbEntity
  8
RACCORDO
100
AcDbLine
 62
253
  6
CONTINUOUS
 10
-10.1165597951
 20
18.4283268522
 11
-11.7178405859
 21
17.6256048487
  0
LINE
  5
2A7
100
AcDbEntity
  8
RACCORDO
100
AcDbLine
 62
253
  6
CONTINUOUS
 10
-9.9397860914
 20
18.1234373134
 11
-11.5410668822
 21
17.3207153099
  0
LINE
  5
2A8
100
AcDbEntity
  8
0
100
AcDbLine
 62
7
  6
CONTINUOUS
 10
-0.9241746313
 20
22.3697452649
 11
-1.6312814125
 21
22.0161918743
  0
LINE
  5
2A9
100
AcDbEntity
  8
RACCORDO
100
AcDbLine
 62
7
  6
CONTINUOUS
 10
-9.0254164638
 20
17.8348192251
 11
-9.0271528774
 21
17.8339510039
  0
LINE
  5
2AA
100
AcDbEntity
  8
RACCORDO
100
AcDbLine
 62
253
  6
CONTINUOUS
 10
-9.5882926233
 20
18.6917656722
 11
-10.1165597951
 21
18.4283268522
  0
LINE
  5
2AB
100
AcDbEntity
  8
RACCORDO
100
AcDbLine
 62
253
  6
CONTINUOUS
 10
-9.4115189197
 20
18.3868761334
 11
-9.9397860914
 21
18.1234373134
  0
LINE
  5
2AC
100
AcDbEntity
  8
RACCORDO
100
AcDbLine
 62
7
  6
CONTINUOUS
 10
-8.4905464827
 20
18.0953713374
 11
-9.0254164404
 21
17.834819237
  0
LINE
  5
2AD
100
AcDbEntity
  8
RACCORDO
100
AcDbLine
 62
253
  6
CONTINUOUS
 10
-8.3800343716
 20
18.0876365464
 11
-8.9144842503
 21
17.8272890798
  0
LINE
  5
2AE
100
AcDbEntity
  8
0
100
AcDbLine
 62
7
  6
CONTINUOUS
 10
-9.3393210627
 20
18.3175469234
 11
-3.5584651301
 21
21.1088007648
  0
LINE
  5
2AF
100
AcDbEntity
  8
0
100
AcDbLine
 62
253
  6
CONTINUOUS
 10
-5.1363834207
 20
21.306481027
 11
-2.2639753011
 21
22.6812787425
  0
LINE
  5
2B0
100
AcDbEntity
  8
0
100
AcDbLine
 62
253
  6
CONTINUOUS
 10
-4.6587278262
 20
21.0676532298
 11
-1.8434134468
 21
22.4151246252
  0
LINE
  5
2B1
100
AcDbEntity
  8
0
100
AcDbLine
 62
7
  6
CONTINUOUS
 10
-0.558716059
 20
22.4630132383
 11
-3.4751506096
 21
21.0671435045
  0
LINE
  5
2B2
100
AcDbEntity
  8
0
100
AcDbLine
 62
253
  6
CONTINUOUS
 10
-0.42549767
 20
22.4540301785
 11
-3.4008171983
 21
21.0299767989
  0
LINE
  5
2B3
100
AcDbEntity
  8
RACCORDO
100
AcDbLine
 62
7
  6
CONTINUOUS
 10
-5.1492418597
 20
21.0731104766
 11
-9.8682441814
 21
18.8937188221
  0
LINE
  5
2B4
100
AcDbEntity
  8
DRAFT
100
AcDbLine
 62
253
  6
CONTINUOUS
 10
-15.63199568
 20
22.5656339021
 11
-15.63199568
 21
23.0745250293
  0
LWPOLYLINE
  5
2B5
100
AcDbEntity
  8
RACCORDO
100
AcDbPolyline
 62
253
  6
CONTINUOUS
 90
27
 70
0
 10
-11.5410668822
 20
16.9807413757
 10
-11.5459508994
 20
16.9687727175
 10
-11.5513015028
 20
16.9570795134
 10
-11.5571040812
 20
16.9456936952
 10
-11.5633427888
 20
16.934646355
 10
-11.5700005892
 20
16.9239676608
 10
-11.5770593011
 20
16.9136867741
 10
-11.5844996488
 20
16.9038317696
 10
-11.5923013143
 20
16.8944295593
 10
-11.6004429928
 20
16.8855058188
 10
-11.608902451
 20
16.8770849169
 10
-11.6176565881
 20
16.8691898492
 10
-11.6266814982
 20
16.8618421757
 10
-11.6359525363
 20
16.8550619611
 10
-11.645444385
 20
16.848867721
 10
-11.6551311242
 20
16.8432763704
 10
-11.6649863013
 20
16.8383031782
 10
-11.6749830039
 20
16.8339617251
 10
-11.6850939332
 20
16.8302638667
 10
-11.6952914782
 20
16.8272197011
 10
-11.7055477918
 20
16.8248375413
 10
-11.7158348659
 20
16.8231238924
 10
-11.7261246087
 20
16.8220834341
 10
-11.7363889212
 20
16.8217190076
 10
-11.7465997736
 20
16.8220316081
 10
-11.7567292822
 20
16.823020382
 10
-11.7667497855
 20
16.8246826292
  0
LINE
  5
2B6
100
AcDbEntity
  8
RACCORDO
100
AcDbLine
 62
253
  6
CONTINUOUS
 10
-9.9397860914
 20
17.3963924609
 11
-9.4115189197
 21
18.0393446167
  0
LINE
  5
2B7
100
AcDbEntity
  8
RACCORDO
100
AcDbLine
 62
7
  6
CONTINUOUS
 10
-9.8561434745
 20
17.4086631356
 11
-9.3961583473
 21
17.9685094501
  0
LINE
  5
2B8
100
AcDbEntity
  8
RACCORDO
100
AcDbLine
 62
253
  6
CONTINUOUS
 10
-7.3942016791
 20
16.1236002548
 11
-6.8659345074
 21
16.7665524105
  0
LINE
  5
2B9
100
AcDbEntity
  8
RACCORDO
100
AcDbLine
 62
7
  6
CONTINUOUS
 10
-7.3942016791
 20
16.0340697884
 11
-6.850573935
 21
16.6957172439
  0
LWPOLYLINE
  5
2BA
100
AcDbEntity
  8
RACCORDO
100
AcDbPolyline
 62
7
  6
CONTINUOUS
 90
36
 70
0
 10
-8.2842618619
 20
15.5594456467
 10
-8.2909024637
 20
15.5517069646
 10
-8.297790071
 20
15.5440647262
 10
-8.3049226534
 20
15.5365319157
 10
-8.3123021522
 20
15.5291229889
 10
-8.3199212552
 20
15.5218496933
 10
-8.3277635043
 20
15.5147211373
 10
-8.3358253539
 20
15.5077507881
 10
-8.3441025299
 20
15.5009518091
 10
-8.3525770215
 20
15.4943330795
 10
-8.3612439686
 20
15.4879081622
 10
-8.3700978554
 20
15.4816902748
 10
-8.3791192323
 20
15.4756880125
 10
-8.3883018924
 20
15.4699148857
 10
-8.3976390223
 20
15.4643840365
 10
-8.407109797
 20
15.459103756
 10
-8.4167066339
 20
15.4540873408
 10
-8.4264213567
 20
15.4493477156
 10
-8.4362317548
 20
15.4448928691
 10
-8.4461288233
 20
15.4407357061
 10
-8.4561029657
 20
15.4368887554
 10
-8.4661305391
 20
15.4333596773
 10
-8.4762010591
 20
15.4301607719
 10
-8.4863034621
 20
15.4273039475
 10
-8.4964126251
 20
15.4247964473
 10
-8.506516518
 20
15.4226497039
 10
-8.5166025926
 20
15.4208747195
 10
-8.5266442684
 20
15.4194781306
 10
-8.5366278944
 20
15.4184701796
 10
-8.5465394824
 20
15.4178606053
 10
-8.55635121
 20
15.4176551311
 10
-8.5660477647
 20
15.4178624195
 10
-8.5756138203
 20
15.4184905369
 10
-8.5850207755
 20
15.419543912
 10
-8.5942413079
 20
15.4210272735
 10
-8.5981311273
 20
15.4217955479
  0
LWPOLYLINE
  5
2BB
100
AcDbEntity
  8
0
100
AcDbPolyline
 62
7
  6
CONTINUOUS
 90
3
 70
0
 10
-0.4989752295
 20
22.4986548534
 10
-0.514817707
 20
22.4873826715
 10
-0.5365780269
 20
22.4743636166
  0
LINE
  5
2BC
100
AcDbEntity
  8
RACCORDO
100
AcDbLine
 62
7
  6
CONTINUOUS
 10
-7.2165049072
 20
15.3476547032
 11
-8.2842618619
 21
14.751813525
  0
LWPOLYLINE
  5
2BD
100
AcDbEntity
  8
RACCORDO
100
AcDbPolyline
 62
7
  6
CONTINUOUS
 90
33
 70
0
 10
-17.948948015
 20
9.4962714457
 10
-18.0124786978
 20
9.4611864849
 10
-18.1032811527
 20
9.4020848474
 10
-18.1904240346
 20
9.334240718
 10
-18.2730924083
 20
9.2580985352
 10
-18.3506898673
 20
9.1739810041
 10
-18.4226143514
 20
9.0822512979
 10
-18.4881324725
 20
8.9835717068
 10
-18.546743299
 20
8.8783788952
 10
-18.5979643513
 20
8.7671600282
 10
-18.6412633865
 20
8.6508138167
 10
-18.6763163533
 20
8.5299197209
 10
-18.7028555757
 20
8.4050857936
 10
-18.7206870597
 20
8.2773746453
 10
-18.7297538073
 20
8.1476081358
 10
-18.7301053452
 20
8.0163178536
 10
-18.7219002037
 20
7.8841536397
 10
-18.7053110354
 20
7.7518209717
 10
-18.6805789575
 20
7.6199270729
 10
-18.6480222506
 20
7.4889377852
 10
-18.6079582512
 20
7.3594112383
 10
-18.5608021037
 20
7.2319963855
 10
-18.5070446538
 20
7.1072532574
 10
-18.4471744512
 20
6.9857339016
 10
-18.3817179269
 20
6.8679504346
 10
-18.3112301396
 20
6.7543593226
 10
-18.236307009
 20
6.6454921732
 10
-18.1575003683
 20
6.5417577452
 10
-18.0752431003
 20
6.4434101613
 10
-17.9901278337
 20
6.3509526274
 10
-17.9026618647
 20
6.2647917581
 10
-17.8130188707
 20
6.1850694894
 10
-17.7215263226
 20
6.1121905854
  0
LINE
  5
2BE
100
AcDbEntity
  8
0
100
AcDbLine
 62
7
  6
CONTINUOUS
 10
-6.8638715932
 20
15.6904361845
 11
0.0837702709
 21
19.2876830643
  0
LINE
  5
2BF
100
AcDbEntity
  8
RACCORDO
100
AcDbLine
 62
7
  6
CONTINUOUS
 10
-17.0576108297
 20
9.9543096624
 11
-17.9487849144
 21
9.4963573219
  0
LINE
  5
2C0
100
AcDbEntity
  8
DRAFT
100
AcDbLine
 62
7
  6
CONTINUOUS
 10
-18.7430061781
 20
9.2956716241
 11
-19.0968189078
 21
9.1149836428
  0
LINE
  5
2C1
100
AcDbEntity
  8
RACCORDO
100
AcDbLine
 62
253
  6
CONTINUOUS
 10
-16.5780238208
 20
9.7145161579
 11
-17.0449007888
 21
9.4760876057
  0
LINE
  5
2C2
100
AcDbEntity
  8
RACCORDO
100
AcDbLine
 62
253
  6
CONTINUOUS
 10
-19.8062518847
 20
9.8810384124
 11
-20.884087915
 21
9.3317832028
  0
LINE
  5
2C3
100
AcDbEntity
  8
RACCORDO
100
AcDbLine
 62
253
  6
CONTINUOUS
 10
-19.2044590895
 20
9.1688037336
 11
-20.4277940991
 21
8.5500389991
  0
LINE
  5
2C4
100
AcDbEntity
  8
RACCORDO
100
AcDbLine
 62
253
  6
CONTINUOUS
 10
-7.5709753828
 20
17.155534646
 11
-9.1722561736
 21
16.3528126425
  0
LINE
  5
2C5
100
AcDbEntity
  8
RACCORDO
100
AcDbLine
 62
253
  6
CONTINUOUS
 10
-7.3942016791
 20
16.8506451072
 11
-8.99548247
 21
16.0479231037
  0
LINE
  5
2C6
100
AcDbEntity
  8
0
100
AcDbLine
 62
253
  6
CONTINUOUS
 10
-19.7563104169
 20
7.8032343257
 11
-20.1151687557
 21
7.6238051563
  0
LINE
  5
2C7
100
AcDbEntity
  8
RACCORDO
100
AcDbLine
 62
253
  6
CONTINUOUS
 10
-7.0427082111
 20
17.4189734661
 11
-7.5709753828
 21
17.155534646
  0
LINE
  5
2C8
100
AcDbEntity
  8
RACCORDO
100
AcDbLine
 62
253
  6
CONTINUOUS
 10
-6.8659345074
 20
17.1140839273
 11
-7.3942016791
 21
16.8506451072
  0
LINE
  5
2C9
100
AcDbEntity
  8
RACCORDO
100
AcDbLine
 62
7
  6
CONTINUOUS
 10
0.2850148679
 20
18.3559821129
 11
-5.9799881168
 21
15.2484944463
  0
LINE
  5
2CA
100
AcDbEntity
  8
ASSI
100
AcDbLine
 62
7
  6
CONTINUOUS
 10
-4.6718405716
 20
15.0997494578
 11
0.6643828344
 21
17.6991929233
  0
LWPOLYLINE
  5
2CB
100
AcDbEntity
  8
RACCORDO
100
AcDbPolyline
 62
253
  6
CONTINUOUS
 90
12
 70
0
 10
-17.9488503963
 20
9.4963236722
 10
-17.8997883265
 20
9.5199813975
 10
-17.8093223414
 20
9.5557495346
 10
-17.7189403085
 20
9.5818135097
 10
-17.6287237893
 20
9.5986479216
 10
-17.5394020919
 20
9.6063427202
 10
-17.4515610905
 20
9.6051436004
 10
-17.3654999178
 20
9.5954261875
 10
-17.2814524486
 20
9.5773839796
 10
-17.1997364484
 20
9.5512476461
 10
-17.1207711375
 20
9.5173719791
 10
-17.0449007888
 20
9.4760876057
  0
LWPOLYLINE
  5
2CC
100
AcDbEntity
  8
RACCORDO
100
AcDbPolyline
 62
253
  6
CONTINUOUS
 90
10
 70
0
 10
-17.0449007888
 20
9.4760876057
 10
-17.0624509904
 20
9.4676846396
 10
-17.079760193
 20
9.4571758262
 10
-17.0966063764
 20
9.4446959589
 10
-17.1127734592
 20
9.4304051138
 10
-17.1280540708
 20
9.4144865954
 10
-17.142252211
 20
9.3971445861
 10
-17.1551857642
 20
9.3786015268
 10
-17.1666888352
 20
9.3590952643
 10
-17.1766138775
 20
9.3388760001
  0
LINE
  5
2CD
100
AcDbEntity
  8
DRAFT
100
AcDbLine
 62
7
  6
CONTINUOUS
 10
-7.3942016791
 20
15.2636109759
 11
-7.2165049072
 21
15.3476547032
  0
LWPOLYLINE
  5
2CE
100
AcDbEntity
  8
0
100
AcDbPolyline
 62
253
  6
CONTINUOUS
 90
7
 70
0
 10
-19.7199869017
 20
11.2854976984
 10
-19.754222194
 20
11.4537581916
 10
-19.7939700118
 20
11.6176050059
 10
-19.8391771767
 20
11.7768189314
 10
-19.8897832064
 20
11.931186957
 10
-19.9457203952
 20
12.0805025544
 10
-20.0069139053
 20
12.2245659554
  0
LWPOLYLINE
  5
2CF
100
AcDbEntity
  8
RACCORDO
100
AcDbPolyline
 62
253
  6
CONTINUOUS
 90
19
 70
0
 10
-13.2185735217
 20
17.6437464395
 10
-13.218353667
 20
17.633061783
 10
-13.2176946498
 20
17.6226235565
 10
-13.216598109
 20
17.612457724
 10
-13.2150667781
 20
17.6025896055
 10
-13.2131044628
 20
17.5930437108
 10
-13.210716017
 20
17.5838436904
 10
-13.2079073469
 20
17.5750123785
 10
-13.2046854414
 20
17.5665718214
 10
-13.2010583438
 20
17.5585431131
 10
-13.1970350642
 20
17.5509462022
 10
-13.1926256216
 20
17.5438000114
 10
-13.1878410851
 20
17.5371224461
 10
-13.1826934517
 20
17.5309301688
 10
-13.1771954837
 20
17.5252384564
 10
-13.17136075
 20
17.5200613302
 10
-13.1652025335
 20
17.5154108151
 10
-13.1587372593
 20
17.5112995414
 10
-13.1536002253
 20
17.5085279894
  0
LINE
  5
2D0
100
AcDbEntity
  8
RACCORDO
100
AcDbLine
 62
253
  6
CONTINUOUS
 10
-15.4219265424
 20
18.5098636285
 11
-15.4219265424
 21
19.5904469393
  0
LINE
  5
2D1
100
AcDbEntity
  8
DRAFT
100
AcDbLine
 62
7
  6
CONTINUOUS
 10
-14.9248888988
 20
23.4280784199
 11
-14.9248888988
 21
23.9420853716
  0
LINE
  5
2D2
100
AcDbEntity
  8
RACCORDO
100
AcDbLine
 62
253
  6
CONTINUOUS
 10
-14.7168826231
 20
18.5313993917
 11
-14.7168826231
 21
19.7641263641
  0
LINE
  5
2D3
100
AcDbEntity
  8
ASSI
100
AcDbLine
 62
253
  6
CONTINUOUS
 10
-14.5911132761
 20
24.1018377273
 11
-14.5911132761
 21
25.3713075614
  0
LINE
  5
2D4
100
AcDbEntity
  8
DRAFT
100
AcDbLine
 62
7
  6
CONTINUOUS
 10
-14.5713355082
 20
23.2513017246
 11
-14.5713355082
 21
23.7653086763
  0
LINE
  5
2D5
100
AcDbEntity
  8
ASSI
100
AcDbLine
 62
7
  6
CONTINUOUS
 10
-14.4657637689
 20
24.248573396
 11
-14.4657637689
 21
25.3808757014
  0
LINE
  5
2D6
100
AcDbEntity
  8
DRAFT
100
AcDbLine
 62
7
  6
CONTINUOUS
 10
-14.3592034738
 20
19.9434309089
 11
-14.3592034738
 21
18.7309953436
  0
LINE
  5
2D7
100
AcDbEntity
  8
DRAFT
100
AcDbLine
 62
253
  6
CONTINUOUS
 10
-14.2177821176
 20
22.4956738723
 11
-14.2177821176
 21
23.0745250293
  0
LINE
  5
2D8
100
AcDbEntity
  8
RACCORDO
100
AcDbLine
 62
7
  6
CONTINUOUS
 10
-13.2917968264
 20
18.0721087213
 11
-13.2917968264
 21
17.7321347871
  0
LINE
  5
2D9
100
AcDbEntity
  8
RACCORDO
100
AcDbLine
 62
253
  6
CONTINUOUS
 10
-13.2185735217
 20
17.9837203736
 11
-13.2185735217
 21
17.6437464395
  0
LINE
  5
2DA
100
AcDbEntity
  8
RACCORDO
100
AcDbLine
 62
7
  6
CONTINUOUS
 10
-12.5888038721
 20
16.7721557111
 11
-12.5888038721
 21
17.2261298128
  0
LINE
  5
2DB
100
AcDbEntity
  8
RACCORDO
100
AcDbLine
 62
253
  6
CONTINUOUS
 10
-12.5155805674
 20
16.6804440163
 11
-12.5155805674
 21
17.1895181605
  0
LWPOLYLINE
  5
2DC
100
AcDbEntity
  8
RACCORDO
100
AcDbPolyline
 62
253
  6
CONTINUOUS
 90
31
 70
0
 10
-13.2185735217
 20
17.9837203736
 10
-13.2183341668
 20
17.9951028738
 10
-13.2176161616
 20
18.0067010995
 10
-13.2164205715
 20
18.0184839604
 10
-13.214749374
 20
18.0304222278
 10
-13.2126064391
 20
18.0424812788
 10
-13.2099984836
 20
18.0546209827
 10
-13.2069333116
 20
18.0668056835
 10
-13.2034187573
 20
18.0790048089
 10
-13.1994642761
 20
18.0911854809
 10
-13.1950805123
 20
18.1033147687
 10
-13.1902794327
 20
18.1153594326
 10
-13.1850742272
 20
18.1272863434
 10
-13.1794791382
 20
18.1390628949
 10
-13.1735093353
 20
18.1506571846
 10
-13.1671810134
 20
18.1620377551
 10
-13.1605113623
 20
18.1731736727
 10
-13.1535185548
 20
18.1840345762
 10
-13.1462216461
 20
18.1945908608
 10
-13.1386405036
 20
18.204813781
 10
-13.1307957523
 20
18.2146755214
 10
-13.1227087461
 20
18.2241492338
 10
-13.1144014939
 20
18.2332091316
 10
-13.1058966072
 20
18.2418305513
 10
-13.0972172421
 20
18.2499900169
 10
-13.0883870161
 20
18.2576653234
 10
-13.0794299698
 20
18.2648355725
 10
-13.0703705106
 20
18.2714812269
 10
-13.0612333071
 20
18.2775841956
 10
-13.0520432207
 20
18.2831278779
 10
-13.0428252657
 20
18.2880971886
  0
LWPOLYLINE
  5
2DD
100
AcDbEntity
  8
RACCORDO
100
AcDbPolyline
 62
7
  6
CONTINUOUS
 90
22
 70
0
 10
-13.2917968264
 20
18.0721087213
 10
-13.2914692049
 20
18.0849033457
 10
-13.29048149
 20
18.0977199973
 10
-13.2888286788
 20
18.1105178855
 10
-13.286507562
 20
18.1232619796
 10
-13.2835201281
 20
18.135904061
 10
-13.2798766277
 20
18.1483845906
 10
-13.2755959812
 20
18.1606409483
 10
-13.2706848868
 20
18.1726584888
 10
-13.2651340024
 20
18.1844497459
 10
-13.258943371
 20
18.1959932568
 10
-13.2521350107
 20
18.2072303265
 10
-13.2447284487
 20
18.2181181617
 10
-13.2367348658
 20
18.2286307987
 10
-13.2281812142
 20
18.2387246268
 10
-13.2191164184
 20
18.2483408474
 10
-13.2095713276
 20
18.2574508824
 10
-13.1995681827
 20
18.2660370563
 10
-13.1891461101
 20
18.2740695803
 10
-13.1783262055
 20
18.2815358652
 10
-13.1671385108
 20
18.2884174408
 10
-13.1559111829
 20
18.2945450349
  0
LWPOLYLINE
  5
2DE
100
AcDbEntity
  8
0
100
AcDbPolyline
 62
253
  6
CONTINUOUS
 90
7
 70
0
 10
-12.3744489737
 20
3.6326262969
 10
-12.4240841051
 20
3.4973345146
 10
-12.5178324878
 20
3.2613382369
 10
-12.6180693476
 20
3.0271568819
 10
-12.7246129576
 20
2.7952150144
 10
-12.837270157
 20
2.565933139
 10
-12.9558367013
 20
2.3397269377
  0
LWPOLYLINE
  5
2DF
100
AcDbEntity
  8
RACCORDO
100
AcDbPolyline
 62
253
  6
CONTINUOUS
 90
27
 70
0
 10
-8.99548247
 20
15.7079491696
 10
-9.0003664871
 20
15.6959805114
 10
-9.0057170905
 20
15.6842873073
 10
-9.0115196689
 20
15.672901489
 10
-9.0177583765
 20
15.6618541488
 10
-9.0244161769
 20
15.6511754547
 10
-9.0314748888
 20
15.6408945679
 10
-9.0389152366
 20
15.6310395634
 10
-9.046716902
 20
15.6216373532
 10
-9.0548585805
 20
15.6127136127
 10
-9.0633180388
 20
15.6042927107
 10
-9.0720721758
 20
15.5963976431
 10
-9.081097086
 20
15.5890499695
 10
-9.090368124
 20
15.582269755
 10
-9.0998599727
 20
15.5760755149
 10
-9.1095467119
 20
15.5704841643
 10
-9.119401889
 20
15.5655109721
 10
-9.1293985916
 20
15.561169519
 10
-9.1395095209
 20
15.5574716606
 10
-9.149707066
 20
15.554427495
 10
-9.1599633795
 20
15.5520453352
 10
-9.1702504536
 20
15.5503316863
 10
-9.1805401964
 20
15.549291228
 10
-9.1908045089
 20
15.5489268015
 10
-9.2010153613
 20
15.549239402
 10
-9.2111448699
 20
15.5502281759
 10
-9.2211653732
 20
15.551890423
  0
LWPOLYLINE
  5
2E0
100
AcDbEntity
  8
RACCORDO
100
AcDbPolyline
 62
253
  6
CONTINUOUS
 90
10
 70
0
 10
-12.5194173187
 20
7.2133357016
 10
-12.5336605716
 20
7.2032809497
 10
-12.5477053768
 20
7.1911414929
 10
-12.5613715852
 20
7.1770730406
 10
-12.574483904
 20
7.1612560445
 10
-12.5868741449
 20
7.1438933847
 10
-12.5983833816
 20
7.1252077668
 10
-12.6088639881
 20
7.1054388658
 10
-12.6181815323
 20
7.0848402515
 10
-12.6262165001
 20
7.0636761363
  0
LINE
  5
2E1
100
AcDbEntity
  8
RACCORDO
100
AcDbLine
 62
7
  6
CONTINUOUS
 10
-5.0253819608
 20
14.9183760329
 11
-4.6718405716
 21
15.0997494578
  0
LINE
  5
2E2
100
AcDbEntity
  8
0
100
AcDbLine
 62
7
  6
CONTINUOUS
 10
0.2779068967
 20
15.1195737409
 11
0.9850136779
 21
15.4731271315
  0
LINE
  5
2E3
100
AcDbEntity
  8
0
100
AcDbLine
 62
7
  6
CONTINUOUS
 10
1.3385670685
 20
15.2963504362
 11
2.736351575
 21
15.9952426895
  0
LINE
  5
2E4
100
AcDbEntity
  8
ASSI
100
AcDbLine
 62
7
  6
CONTINUOUS
 10
1.269913269
 20
17.3964277059
 11
-3.3283376873
 21
15.1300664084
  0
LWPOLYLINE
  5
2E5
100
AcDbEntity
  8
0
100
AcDbPolyline
 62
7
  6
CONTINUOUS
 90
10
 70
0
 10
0.2642037738
 20
14.6045631981
 10
0.2649200303
 20
14.6049107986
 10
0.270087081
 20
14.6070764822
 10
0.2757053687
 20
14.6088186005
 10
0.281791144
 20
14.6100929773
 10
0.288363404
 20
14.6108529968
 10
0.2954351764
 20
14.6110267608
 10
0.3030248892
 20
14.6105646924
 10
0.3111352482
 20
14.6094112124
 10
0.3197560801
 20
14.6074749906
  0
LINE
  5
2E6
100
AcDbEntity
  8
DRAFT
100
AcDbLine
 62
7
  6
CONTINUOUS
 10
0.9850136779
 20
15.9871340833
 11
1.3187893006
 21
16.1468864389
  0
LINE
  5
2E7
100
AcDbEntity
  8
RACCORDO
100
AcDbLine
 62
7
  6
CONTINUOUS
 10
3.4015174489
 20
16.7977308224
 11
1.3385670685
 21
15.810357388
  0
LINE
  5
2E8
100
AcDbEntity
  8
0
100
AcDbLine
 62
253
  6
CONTINUOUS
 10
4.0910240644
 20
16.3810528451
 11
7.9890730262
 21
18.2467448304
  0
LINE
  5
2E9
100
AcDbEntity
  8
0
100
AcDbLine
 62
253
  6
CONTINUOUS
 10
4.2524878675
 20
15.9908887007
 11
8.197502846
 21
17.8790596548
  0
LWPOLYLINE
  5
2EA
100
AcDbEntity
  8
ASSI
100
AcDbPolyline
 62
7
  6
CONTINUOUS
 90
7
 70
0
 10
1.269913269
 20
17.3964277059
 10
1.2781230681
 20
17.400355411
 10
1.2863073496
 20
17.4040406051
 10
1.2944661136
 20
17.4074832884
 10
1.3025993601
 20
17.4106834608
 10
1.3107070891
 20
17.4136411224
 10
1.3187893006
 20
17.416356273
  0
LWPOLYLINE
  5
2EB
100
AcDbEntity
  8
0
100
AcDbPolyline
 62
253
  6
CONTINUOUS
 90
34
 70
0
 10
7.9890730262
 20
18.2467448304
 10
8.012597176
 20
18.2576871376
 10
8.0378795397
 20
18.2683147812
 10
8.0649201173
 20
18.2786277612
 10
8.0937794548
 20
18.2887182384
 10
8.1243970062
 20
18.298494052
 10
8.1565911329
 20
18.3076787194
 10
8.190419346
 20
18.3162587043
 10
8.2258241344
 20
18.3242475429
 10
8.2624513262
 20
18.3314093608
 10
8.3003451959
 20
18.3377196627
 10
8.3394614689
 20
18.3432029438
 10
8.3793131496
 20
18.3476968162
 10
8.4199151928
 20
18.351170846
 10
8.4612526437
 20
18.353655467
 10
8.5027936418
 20
18.3550795921
 10
8.5445498604
 20
18.3554122904
 10
8.5865096262
 20
18.3546844928
 10
8.6281060594
 20
18.3529179041
 10
8.6693381102
 20
18.3500789291
 10
8.7102068283
 20
18.3462011629
 10
8.7501484841
 20
18.341407096
 10
8.7891306622
 20
18.3356660263
 10
8.827185778
 20
18.3290086558
 10
8.8638473474
 20
18.3216495806
 10
8.8990605084
 20
18.3135682688
 10
8.9328801231
 20
18.3047852523
 10
8.965004294
 20
18.2955767226
 10
8.9953730304
 20
18.2859343932
 10
9.0240463229
 20
18.2758665505
 10
9.0509022463
 20
18.2656742455
 10
9.0759001587
 20
18.2554578283
 10
9.099080702
 20
18.2451169487
 10
9.1204438761
 20
18.2346516067
  0
LWPOLYLINE
  5
2EC
100
AcDbEntity
  8
0
100
AcDbPolyline
 62
7
  6
CONTINUOUS
 90
3
 70
0
 10
0.2642055229
 20
14.6045648241
 10
0.3369959123
 20
14.6370664037
 10
0.4192759948
 20
14.6668233798
  0
LWPOLYLINE
  5
2ED
100
AcDbEntity
  8
0
100
AcDbPolyline
 62
253
  6
CONTINUOUS
 90
34
 70
0
 10
8.197502846
 20
17.8790596548
 10
8.2122423336
 20
17.8856381797
 10
8.2280376985
 20
17.8921050703
 10
8.244914586
 20
17.8984174927
 10
8.2629344378
 20
17.9045416908
 10
8.2820743393
 20
17.9104161688
 10
8.3022135328
 20
17.9159612995
 10
8.3233465525
 20
17.9211342637
 10
8.3454554049
 20
17.9258899371
 10
8.3683693687
 20
17.9301626433
 10
8.3920502787
 20
17.9339174866
 10
8.4164559169
 20
17.9371199747
 10
8.4413839237
 20
17.9397275133
 10
8.4667674825
 20
17.9417185219
 10
8.4925512549
 20
17.9430734449
 10
8.5185348532
 20
17.943776626
 10
8.5446515072
 20
17.9438221896
 10
8.5708267254
 20
17.9432047911
 10
8.5968444835
 20
17.9419340528
 10
8.6226438066
 20
17.940020499
 10
8.6481481404
 20
17.9374756981
 10
8.6731258605
 20
17.9343378385
 10
8.6975232783
 20
17.9306354954
 10
8.7212863708
 20
17.9263967393
 10
8.7442032398
 20
17.9216861745
 10
8.7662403164
 20
17.9165474538
 10
8.7873755598
 20
17.9110205738
 10
8.8074436656
 20
17.9051874995
 10
8.8264409723
 20
17.8990999653
 10
8.8443776666
 20
17.8928037731
 10
8.8611417773
 20
17.8863882776
 10
8.8767231576
 20
17.8799195781
 10
8.8911994781
 20
17.8734310355
 10
8.9046096272
 20
17.8669664311
  0
LWPOLYLINE
  5
2EE
100
AcDbEntity
  8
ASSI
100
AcDbPolyline
 62
7
  6
CONTINUOUS
 90
17
 70
0
 10
6.2685367689
 20
14.9414825389
 10
6.2795694936
 20
14.9446994366
 10
6.2911666413
 20
14.9472832519
 10
6.3033311818
 20
14.9492168601
 10
6.3160899609
 20
14.95050138
 10
6.3294180975
 20
14.9510988668
 10
6.34323178
 20
14.9509373145
 10
6.3575195322
 20
14.9499884283
 10
6.3722697934
 20
14.9482518898
 10
6.3873845538
 20
14.9457068789
 10
6.4028087595
 20
14.9423438151
 10
6.4185548863
 20
14.9381555756
 10
6.4346204031
 20
14.9331291957
 10
6.4509466968
 20
14.9272733519
 10
6.4675461128
 20
14.920562652
 10
6.4845260825
 20
14.9129246185
 10
6.4953089242
 20
14.9076830642
  0
LINE
  5
2EF
100
AcDbEntity
  8
0
100
AcDbLine
 62
7
  6
CONTINUOUS
 10
0.4192759948
 20
14.6668233798
 11
0.50512791
 21
14.6914110289
  0
LWPOLYLINE
  5
2F0
100
AcDbEntity
  8
RACCORDO
100
AcDbPolyline
 62
253
  6
CONTINUOUS
 90
31
 70
0
 10
4.3688356945
 20
-32.273814052
 10
4.3639571803
 20
-32.2662012699
 10
4.3586115273
 20
-32.2583647898
 10
4.3528129301
 20
-32.2503258025
 10
4.346576246
 20
-32.2421053168
 10
4.3399186603
 20
-32.2337263671
 10
4.3328600207
 20
-32.2252140866
 10
4.3254203737
 20
-32.2165925971
 10
4.317619347
 20
-32.2078845944
 10
4.3094780352
 20
-32.1991136373
 10
4.301018503
 20
-32.1903035277
 10
4.2922639666
 20
-32.1814784732
 10
4.2832385471
 20
-32.1726627999
 10
4.2739669832
 20
-32.1638806678
 10
4.2644745169
 20
-32.1551559826
 10
4.2547870507
 20
-32.1465125528
 10
4.2449310267
 20
-32.1379739734
 10
4.2349333806
 20
-32.1295635819
 10
4.2248214444
 20
-32.1213043721
 10
4.2146228465
 20
-32.11321891
 10
4.2043654349
 20
-32.1053292732
 10
4.1940772268
 20
-32.0976570115
 10
4.1837863076
 20
-32.0902230696
 10
4.1735208018
 20
-32.0830477647
 10
4.1633087951
 20
-32.0761507263
 10
4.1531782104
 20
-32.0695508086
 10
4.1431566852
 20
-32.0632660125
 10
4.1332715449
 20
-32.0573134731
 10
4.1235497743
 20
-32.0517094402
 10
4.114017942
 20
-32.0464692297
 10
4.1047020825
 20
-32.0416071543
  0
LWPOLYLINE
  5
2F1
100
AcDbEntity
  8
RACCORDO
100
AcDbPolyline
 62
7
  6
CONTINUOUS
 90
28
 70
0
 10
-19.8062518847
 20
9.8810384124
 10
-19.7918464157
 20
9.8463972834
 10
-19.7766290435
 20
9.8120755568
 10
-19.7605997681
 20
9.7780732326
 10
-19.7437201044
 20
9.7443166707
 10
-19.7260285375
 20
9.7108795111
 10
-19.7076405222
 20
9.6779826747
 10
-19.6885730981
 20
9.6456675319
 10
-19.6688092257
 20
9.6138927123
 10
-19.6484132411
 20
9.5827550251
 10
-19.6273842974
 20
9.552253121
 10
-19.6057232416
 20
9.5223883493
 10
-19.58349695
 20
9.4932615675
 10
-19.5606767482
 20
9.4648460875
 10
-19.5372913106
 20
9.4371685972
 10
-19.513493537
 20
9.410410018
 10
-19.4893072765
 20
9.3846057411
 10
-19.46470868
 20
9.3597203751
 10
-19.4397791002
 20
9.3358286675
 10
-19.4145193913
 20
9.3129312911
 10
-19.3889286989
 20
9.291027573
 10
-19.3630858123
 20
9.270190242
 10
-19.3369588797
 20
9.2504028781
 10
-19.3105797529
 20
9.2316819013
 10
-19.284122776
 20
9.2141492997
 10
-19.2576460639
 20
9.1978457359
 10
-19.2310915017
 20
9.1827305472
 10
-19.2044590895
 20
9.1688037336
  0
LWPOLYLINE
  5
2F2
100
AcDbEntity
  8
RACCORDO
100
AcDbPolyline
 62
7
  6
CONTINUOUS
 90
23
 70
0
 10
-19.8062518847
 20
9.8810384124
 10
-19.8349654913
 20
9.9541281771
 10
-19.862372229
 20
10.0273853448
 10
-19.888472098
 20
10.1008099154
 10
-19.9132813643
 20
10.1744529357
 10
-19.9367837617
 20
10.248263359
 10
-19.9589304919
 20
10.3220880453
 10
-19.9797187443
 20
10.3959270269
 10
-19.9991513294
 20
10.4697802715
 10
-20.0171878804
 20
10.5434945427
 10
-20.033825503
 20
10.6170695555
 10
-20.0490670915
 20
10.6905055948
 10
-20.0628809622
 20
10.763650279
 10
-20.0752641549
 20
10.8365030077
 10
-20.0862196297
 20
10.9090643813
 10
-20.0957245835
 20
10.9811838191
 10
-20.1037760086
 20
11.0528604092
 10
-20.1103769127
 20
11.1240950635
 10
-20.115513516
 20
11.1947399379
 10
-20.1191827705
 20
11.2647939802
 10
-20.1213877242
 20
11.3342582425
 10
-20.1221237405
 20
11.4029880373
 10
-20.1220674644
 20
11.4081869003
  0
LWPOLYLINE
  5
2F3
100
AcDbEntity
  8
ASSI
100
AcDbPolyline
 62
7
  6
CONTINUOUS
 90
6
 70
0
 10
-14.4657637689
 20
25.3808757147
 10
-14.4660209291
 20
25.3835841013
 10
-14.4670619079
 20
25.386547737
 10
-14.4688611747
 20
25.389004083
 10
-14.4713759644
 20
25.3909678325
 10
-14.4725386243
 20
25.3916068072
  0
LWPOLYLINE
  5
2F4
100
AcDbEntity
  8
RACCORDO
100
AcDbPolyline
 62
253
  6
CONTINUOUS
 90
31
 70
0
 10
-11.5410668822
 20
17.3207153099
 10
-11.5413618591
 20
17.3321410176
 10
-11.5421377124
 20
17.3437790707
 10
-11.5433923154
 20
17.3555975715
 10
-11.5451222297
 20
17.3675641278
 10
-11.5473227139
 20
17.3796459414
 10
-11.5499877368
 20
17.3918098984
 10
-11.5531099941
 20
17.4040226595
 10
-11.5566809283
 20
17.4162507521
 10
-11.5606907521
 20
17.428460661
 10
-11.5651284754
 20
17.4406189214
 10
-11.5699819352
 20
17.4526922096
 10
-11.575237829
 20
17.464647435
 10
-11.5808817515
 20
17.4764518306
 10
-11.5868982336
 20
17.4880730428
 10
-11.5932707855
 20
17.49947922
 10
-11.599981941
 20
17.5106391
 10
-11.6070133063
 20
17.5215220957
 10
-11.6143456095
 20
17.5320983789
 10
-11.6219587543
 20
17.5423389618
 10
-11.6298318745
 20
17.5522157771
 10
-11.6379433912
 20
17.5617017542
 10
-11.6462710725
 20
17.5707708938
 10
-11.6547920935
 20
17.5793983391
 10
-11.6634830999
 20
17.5875604439
 10
-11.6723202713
 20
17.5952348374
 10
-11.6812793865
 20
17.6024004856
 10
-11.6903358903
 20
17.6090377486
 10
-11.6994649606
 20
17.6151284352
 10
-11.7086415762
 20
17.6206558517
 10
-11.7178405859
 20
17.6256048487
  0
LWPOLYLINE
  5
2F5
100
AcDbEntity
  8
RACCORDO
100
AcDbPolyline
 62
7
  6
CONTINUOUS
 90
31
 70
0
 10
-9.9397860914
 20
18.1234373134
 10
-9.9400281334
 20
18.1348894289
 10
-9.9407542807
 20
18.146552284
 10
-9.9419624098
 20
18.1583939831
 10
-9.9436489755
 20
18.1703821913
 10
-9.9458093483
 20
18.1824840559
 10
-9.9484378275
 20
18.1946662963
 10
-9.9515271403
 20
18.2068955599
 10
-9.955068702
 20
18.219138388
 10
-9.9590529662
 20
18.2313611398
 10
-9.9634689755
 20
18.2435303348
 10
-9.968304537
 20
18.2556126639
 10
-9.9735464931
 20
18.2675749557
 10
-9.9791804715
 20
18.2793844263
 10
-9.9851909711
 20
18.2910087372
 10
-9.9915615476
 20
18.302416004
 10
-9.9982747673
 20
18.3135749476
 10
-10.0053122032
 20
18.3244549966
 10
-10.0126545292
 20
18.3350263405
 10
-10.0202816802
 20
18.3452599751
 10
-10.0281727569
 20
18.3551278498
 10
-10.0363060285
 20
18.3646029628
 10
-10.0446592927
 20
18.3736592998
 10
-10.0532096932
 20
18.3822720216
 10
-10.0619336305
 20
18.3904176005
 10
-10.0708073122
 20
18.3980736531
 10
-10.0798064881
 20
18.4052191629
 10
-10.088906272
 20
18.4118346558
 10
-10.0980817317
 20
18.4179019982
 10
-10.1073079563
 20
18.4234044456
 10
-10.1165597951
 20
18.4283268522
  0
LWPOLYLINE
  5
2F6
100
AcDbEntity
  8
RACCORDO
100
AcDbPolyline
 62
253
  6
CONTINUOUS
 90
19
 70
0
 10
-11.8935888419
 20
16.9812540996
 10
-11.8933689872
 20
16.970569443
 10
-11.89270997
 20
16.9601312166
 10
-11.8916134292
 20
16.9499653841
 10
-11.8900820983
 20
16.9400972656
 10
-11.888119783
 20
16.9305513709
 10
-11.8857313372
 20
16.9213513505
 10
-11.8829226671
 20
16.9125200386
 10
-11.8797007616
 20
16.9040794815
 10
-11.876073664
 20
16.8960507732
 10
-11.8720503844
 20
16.8884538623
 10
-11.8676409418
 20
16.8813076715
 10
-11.8628564053
 20
16.8746301062
 10
-11.8577087718
 20
16.8684378289
 10
-11.8522108039
 20
16.8627461164
 10
-11.8463760702
 20
16.8575689902
 10
-11.8402178537
 20
16.8529184752
 10
-11.8337525795
 20
16.8488072015
 10
-11.8286263717
 20
16.8460410635
  0
LWPOLYLINE
  5
2F7
100
AcDbEntity
  8
RACCORDO
100
AcDbPolyline
 62
253
  6
CONTINUOUS
 90
19
 70
0
 10
-10.6729891094
 20
16.3709542334
 10
-10.6727692548
 20
16.3602695768
 10
-10.6721102375
 20
16.3498313504
 10
-10.6710136967
 20
16.3396655179
 10
-10.6694823658
 20
16.3297973994
 10
-10.6675200506
 20
16.3202515047
 10
-10.6651316047
 20
16.3110514843
 10
-10.6623229346
 20
16.3022201724
 10
-10.6591010291
 20
16.2937796153
 10
-10.6554739315
 20
16.285750907
 10
-10.6514506519
 20
16.2781539961
 10
-10.6470412094
 20
16.2710078053
 10
-10.6422566728
 20
16.2643302399
 10
-10.6371090394
 20
16.2581379627
 10
-10.6316110714
 20
16.2524462502
 10
-10.6257763377
 20
16.247269124
 10
-10.6196181213
 20
16.242618609
 10
-10.6131528471
 20
16.2385073353
 10
-10.608015813
 20
16.2357357833
  0
LWPOLYLINE
  5
2F8
100
AcDbEntity
  8
RACCORDO
100
AcDbPolyline
 62
7
  6
CONTINUOUS
 90
25
 70
0
 10
-11.8136190616
 20
24.2341716399
 10
-11.8141081104
 20
24.2660218692
 10
-11.8155574409
 20
24.2972609418
 10
-11.8179670528
 20
24.3278888577
 10
-11.8213428734
 20
24.3579458335
 10
-11.8256789756
 20
24.3873916525
 10
-11.830957578
 20
24.4161056647
 10
-11.8371825455
 20
24.4440848288
 10
-11.8443500134
 20
24.4713321861
 10
-11.8524306062
 20
24.4977362109
 10
-11.8614279922
 20
24.523293331
 10
-11.8713385031
 20
24.5480071185
 10
-11.8821217592
 20
24.5717767644
 10
-11.8937814759
 20
24.5945986667
 10
-11.9063139377
 20
24.6164764275
 10
-11.9196676183
 20
24.6373200441
 10
-11.9338457361
 20
24.6571250385
 10
-11.9488450726
 20
24.6758958887
 10
-11.9646044468
 20
24.6935560261
 10
-11.9811270841
 20
24.7101010415
 10
-11.9984097591
 20
24.7255353441
 10
-12.0163816135
 20
24.7397955926
 10
-12.0350454935
 20
24.7528769384
 10
-12.0543985531
 20
24.7647842301
 10
-12.0735122529
 20
24.7750454289
  0
LINE
  5
2F9
100
AcDbEntity
  8
RACCORDO
100
AcDbLine
 62
253
  6
CONTINUOUS
 10
-11.8935888419
 20
16.9812540996
 11
-11.8935888419
 21
17.3212280337
  0
LINE
  5
2FA
100
AcDbEntity
  8
RACCORDO
100
AcDbLine
 62
7
  6
CONTINUOUS
 10
-11.8136190616
 20
24.2341716399
 11
-11.8136190616
 21
24.0239421652
  0
LINE
  5
2FB
100
AcDbEntity
  8
RACCORDO
100
AcDbLine
 62
253
  6
CONTINUOUS
 10
-11.5410668822
 20
16.9807413757
 11
-11.5410668822
 21
17.3207153099
  0
LINE
  5
2FC
100
AcDbEntity
  8
RACCORDO
100
AcDbLine
 62
253
  6
CONTINUOUS
 10
-11.1823682338
 20
16.7026584724
 11
-11.1823682338
 21
16.0138378495
  0
LINE
  5
2FD
100
AcDbEntity
  8
RACCORDO
100
AcDbLine
 62
253
  6
CONTINUOUS
 10
-10.8298462741
 20
16.8322378529
 11
-10.8298462741
 21
16.0246057311
  0
LINE
  5
2FE
100
AcDbEntity
  8
RACCORDO
100
AcDbLine
 62
7
  6
CONTINUOUS
 10
-10.7462124141
 20
16.7993165151
 11
-10.7462124141
 21
16.459342581
  0
LINE
  5
2FF
100
AcDbEntity
  8
RACCORDO
100
AcDbLine
 62
253
  6
CONTINUOUS
 10
-10.6729891094
 20
16.7109281675
 11
-10.6729891094
 21
16.3709542334
  0
LINE
  5
300
100
AcDbEntity
  8
RACCORDO
100
AcDbLine
 62
7
  6
CONTINUOUS
 10
-10.0432194599
 20
15.499363505
 11
-10.0432194599
 21
15.9533376067
  0
LINE
  5
301
100
AcDbEntity
  8
RACCORDO
100
AcDbLine
 62
253
  6
CONTINUOUS
 10
-9.9699961552
 20
15.4076518102
 11
-9.9699961552
 21
15.9167259543
  0
LINE
  5
302
100
AcDbEntity
  8
RACCORDO
100
AcDbLine
 62
7
  6
CONTINUOUS
 10
-9.9397860914
 20
17.3657528899
 11
-9.9397860914
 21
18.1234373134
  0
LINE
  5
303
100
AcDbEntity
  8
RACCORDO
100
AcDbLine
 62
253
  6
CONTINUOUS
 10
-9.4115189197
 20
18.3868761334
 11
-9.4115189197
 21
18.0393446167
  0
LINE
  5
304
100
AcDbEntity
  8
RACCORDO
100
AcDbLine
 62
253
  6
CONTINUOUS
 10
-9.3480044296
 20
15.7084618935
 11
-9.3480044296
 21
16.0484358276
  0
LINE
  5
305
100
AcDbEntity
  8
RACCORDO
100
AcDbLine
 62
7
  6
CONTINUOUS
 10
-9.3393210627
 20
18.4747487656
 11
-9.3393210627
 21
18.1272172488
  0
LWPOLYLINE
  5
306
100
AcDbEntity
  8
RACCORDO
100
AcDbPolyline
 62
253
  6
CONTINUOUS
 90
31
 70
0
 10
-11.8935888419
 20
17.3212280337
 10
-11.8933482606
 20
17.3326399431
 10
-11.8926271695
 20
17.3442613998
 10
-11.8914275277
 20
17.3560607729
 10
-11.8897525952
 20
17.3680059595
 10
-11.8876069286
 20
17.3800644346
 10
-11.884996374
 20
17.3922033383
 10
-11.8819280406
 20
17.4043896205
 10
-11.8784102793
 20
17.4165901199
 10
-11.87445267
 20
17.4287716168
 10
-11.8700659881
 20
17.4409009524
 10
-11.8652621751
 20
17.4529451146
 10
-11.8600543105
 20
17.4648713165
 10
-11.8544565651
 20
17.4766471113
 10
-11.8484841835
 20
17.4882404337
 10
-11.8421534492
 20
17.4996196859
 10
-11.8354816283
 20
17.5107538536
 10
-11.8284868599
 20
17.5216126852
 10
-11.8211881231
 20
17.5321667212
 10
-11.8136051805
 20
17.542387364
 10
-11.8057587622
 20
17.5522466528
 10
-11.7976704709
 20
17.5617174691
 10
-11.7893625031
 20
17.5707738971
 10
-11.7808573307
 20
17.5793915137
 10
-11.772177868
 20
17.5875471276
 10
-11.7633457775
 20
17.5952201761
 10
-11.7543869945
 20
17.6023879237
 10
-11.7453316576
 20
17.6090268302
 10
-11.7362064888
 20
17.6151186276
 10
-11.7270344843
 20
17.6206492749
 10
-11.7178405859
 20
17.6256048487
  0
LWPOLYLINE
  5
307
100
AcDbEntity
  8
RACCORDO
100
AcDbPolyline
 62
253
  6
CONTINUOUS
 90
31
 70
0
 10
-10.6729891094
 20
16.7109281675
 10
-10.6727485282
 20
16.7223400769
 10
-10.672027437
 20
16.7339615335
 10
-10.6708277952
 20
16.7457609066
 10
-10.6691528627
 20
16.7577060933
 10
-10.6670071962
 20
16.7697645684
 10
-10.6643966416
 20
16.7819034721
 10
-10.6613283081
 20
16.7940897543
 10
-10.6578105468
 20
16.8062902537
 10
-10.6538529376
 20
16.8184717506
 10
-10.6494662557
 20
16.8306010862
 10
-10.6446624427
 20
16.8426452484
 10
-10.639454578
 20
16.8545714503
 10
-10.6338568327
 20
16.866347245
 10
-10.6278844511
 20
16.8779405674
 10
-10.6215537168
 20
16.8893198196
 10
-10.6148818958
 20
16.9004539874
 10
-10.6078871275
 20
16.911312819
 10
-10.6005883906
 20
16.921866855
 10
-10.593005448
 20
16.9320874977
 10
-10.5851590297
 20
16.9419467866
 10
-10.5770707384
 20
16.9514176028
 10
-10.5687627706
 20
16.9604740309
 10
-10.5602575983
 20
16.9690916475
 10
-10.5515781355
 20
16.9772472613
 10
-10.542746045
 20
16.9849203099
 10
-10.533787262
 20
16.9920880575
 10
-10.5247319252
 20
16.998726964
 10
-10.5156067564
 20
17.0048187614
 10
-10.5064347518
 20
17.0103494087
 10
-10.4972408535
 20
17.0153049825
  0
LWPOLYLINE
  5
308
100
AcDbEntity
  8
RACCORDO
100
AcDbPolyline
 62
253
  6
CONTINUOUS
 90
31
 70
0
 10
-9.3480044296
 20
16.0484358276
 10
-9.3477639541
 20
16.0598452035
 10
-9.3470431819
 20
16.0714640137
 10
-9.345844074
 20
16.0832606473
 10
-9.3441698928
 20
16.0952030096
 10
-9.342025193
 20
16.1072586093
 10
-9.3394158099
 20
16.1193946471
 10
-9.3363488426
 20
16.131578105
 10
-9.3328326353
 20
16.1437758356
 10
-9.3288767545
 20
16.1559546531
 10
-9.3244919628
 20
16.1680814229
 10
-9.3196901898
 20
16.180123152
 10
-9.3144844995
 20
16.1920470789
 10
-9.3088890549
 20
16.2038207626
 10
-9.3029190794
 20
16.2154121707
 10
-9.2965908152
 20
16.2267897668
 10
-9.2899214795
 20
16.2379225963
 10
-9.2829292174
 20
16.2487803704
 10
-9.2756330525
 20
16.2593335487
 10
-9.2680528352
 20
16.2695534195
 10
-9.2602091887
 20
16.2794121778
 10
-9.2521234532
 20
16.2888830014
 10
-9.2438176272
 20
16.2979401231
 10
-9.235314308
 20
16.3065589016
 10
-9.2266366304
 20
16.314715888
 10
-9.2178082036
 20
16.3223888898
 10
-9.2088530467
 20
16.3295570314
 10
-9.1997955238
 20
16.3362008106
 10
-9.1906602773
 20
16.3423021518
 10
-9.1814721613
 20
16.3478444554
 10
-9.1722561736
 20
16.3528126425
  0
LWPOLYLINE
  5
309
100
AcDbEntity
  8
RACCORDO
100
AcDbPolyline
 62
7
  6
CONTINUOUS
 90
15
 70
0
 10
-9.3393210627
 20
18.1272172488
 10
-9.3396379916
 20
18.1146330085
 10
-9.3405923381
 20
18.102037475
 10
-9.3421873228
 20
18.0894692075
 10
-9.344422628
 20
18.0769702923
 10
-9.3472959838
 20
18.0645765179
 10
-9.3508049312
 20
18.0523169482
 10
-9.3549430638
 20
18.0402290106
 10
-9.3597005284
 20
18.028351632
 10
-9.3650685809
 20
18.0167146496
 10
-9.3710348643
 20
18.0053520136
 10
-9.3775826293
 20
17.994300599
 10
-9.3846955151
 20
17.9835913971
 10
-9.3923567067
 20
17.9732528295
 10
-9.3961586022
 20
17.9685091398
  0
LWPOLYLINE
  5
30A
100
AcDbEntity
  8
RACCORDO
100
AcDbPolyline
 62
253
  6
CONTINUOUS
 90
16
 70
0
 10
-9.3393210627
 20
18.1272172488
 10
-9.3396242837
 20
18.1210626046
 10
-9.3406057895
 20
18.1145610953
 10
-9.3422639673
 20
18.1080940193
 10
-9.3445943058
 20
18.1016789712
 10
-9.347590465
 20
18.0953334044
 10
-9.3512442932
 20
18.089074583
 10
-9.3555458496
 20
18.0829195351
 10
-9.3604834311
 20
18.0768850067
 10
-9.3660436042
 20
18.0709874157
 10
-9.3722112414
 20
18.0652428075
 10
-9.3789695627
 20
18.0596668112
 10
-9.3863001809
 20
18.0542745974
 10
-9.3941831519
 20
18.0490808364
 10
-9.4025970286
 20
18.0440996588
 10
-9.4115189197
 20
18.0393446167
  0
LWPOLYLINE
  5
30B
100
AcDbEntity
  8
RACCORDO
100
AcDbPolyline
 62
253
  6
CONTINUOUS
 90
16
 70
0
 10
-9.3393210627
 20
18.4747484164
 10
-9.3396265677
 20
18.4685709998
 10
-9.3406107394
 20
18.4620683173
 10
-9.3422718387
 20
18.4556001301
 10
-9.3446053848
 20
18.4491839606
 10
-9.3476050144
 20
18.442837357
 10
-9.3512624477
 20
18.4365777824
 10
-9.3555675866
 20
18.430422384
 10
-9.3605087265
 20
18.4243877816
 10
-9.3660725342
 20
18.4184902228
 10
-9.3722452927
 20
18.4127445115
 10
-9.3790090421
 20
18.4071676032
 10
-9.3863405603
 20
18.4017780254
 10
-9.3942171319
 20
18.3965911424
 10
-9.402617837
 20
18.3916194904
 10
-9.4115189197
 20
18.3868761334
  0
LWPOLYLINE
  5
30C
100
AcDbEntity
  8
0
100
AcDbPolyline
 62
7
  6
CONTINUOUS
 90
6
 70
0
 10
-0.4894147343
 20
22.5001640093
 10
-0.4856412632
 20
22.5090600586
 10
-0.4835329044
 20
22.5127552054
 10
-0.4841768457
 20
22.5120699362
 10
-0.4889283818
 20
22.507209225
 10
-0.4989752295
 20
22.4986548534
  0
LINE
  5
30D
100
AcDbEntity
  8
0
100
AcDbLine
 62
253
  6
CONTINUOUS
 10
0.3486175749
 20
14.5963868841
 11
-0.5489110669
 21
13.7403530982
  0
LINE
  5
30E
100
AcDbEntity
  8
0
100
AcDbLine
 62
7
  6
CONTINUOUS
 10
0.2513341583
 20
14.59581006
 11
-0.6415966039
 21
13.7866958667
  0
LWPOLYLINE
  5
30F
100
AcDbEntity
  8
0
100
AcDbPolyline
 62
7
  6
CONTINUOUS
 90
5
 70
0
 10
0.2513335563
 20
14.5958095146
 10
0.2520095021
 20
14.5964123036
 10
0.2559051063
 20
14.5995372372
 10
0.2601968939
 20
14.6023813116
 10
0.2642037738
 20
14.6045631981
  0
LWPOLYLINE
  5
310
100
AcDbEntity
  8
0
100
AcDbPolyline
 62
253
  6
CONTINUOUS
 90
13
 70
0
 10
9.1204438761
 20
18.2346516067
 10
9.0924211088
 20
18.2189666625
 10
9.0648237581
 20
18.1989798223
 10
9.0381345585
 20
18.1750406972
 10
9.012820359
 20
18.1475680317
 10
8.9893239572
 20
18.1170423793
 10
8.9680563534
 20
18.0839976967
 10
8.949389562
 20
18.0490120033
 10
8.9336501034
 20
18.012697271
 10
8.9211132934
 20
17.9756887192
 10
8.9119984264
 20
17.9386337038
 10
8.9064649403
 20
17.9021803933
 10
8.9046096272
 20
17.8669664311
  0
LINE
  5
311
100
AcDbEntity
  8
RACCORDO
100
AcDbLine
 62
253
  6
CONTINUOUS
 10
-12.5194173892
 20
7.2133459059
 11
-12.0525404212
 21
7.4517744581
  0
LINE
  5
312
100
AcDbEntity
  8
RACCORDO
100
AcDbLine
 62
7
  6
CONTINUOUS
 10
1.1930199536
 20
11.8091750757
 11
1.5506991029
 21
11.9884796206
  0
LINE
  5
313
100
AcDbEntity
  8
0
100
AcDbLine
 62
7
  6
CONTINUOUS
 10
9.1874523397
 20
17.3139317794
 11
8.9010254134
 21
17.1707183162
  0
LINE
  5
314
100
AcDbEntity
  8
ASSI
100
AcDbLine
 62
7
  6
CONTINUOUS
 10
1.5506991029
 20
11.9884796206
 11
6.825191172
 21
14.6187887544
  0
LINE
  5
315
100
AcDbEntity
  8
ASSI
100
AcDbLine
 62
7
  6
CONTINUOUS
 10
6.2196607374
 20
14.9215539718
 11
1.621409781
 21
12.6551926743
  0
LINE
  5
316
100
AcDbEntity
  8
0
100
AcDbLine
 62
7
  6
CONTINUOUS
 10
8.4125071812
 20
17.4149696411
 11
4.8318697117
 21
15.7011977786
  0
LINE
  5
317
100
AcDbEntity
  8
0
100
AcDbLine
 62
253
  6
CONTINUOUS
 10
8.4133370949
 20
17.3426225445
 11
4.9062031229
 21
15.664031073
  0
LINE
  5
318
100
AcDbEntity
  8
RACCORDO
100
AcDbLine
 62
7
  6
CONTINUOUS
 10
7.644158136
 20
14.6764104788
 11
6.999127237
 21
14.3676845006
  0
LWPOLYLINE
  5
319
100
AcDbEntity
  8
ASSI
100
AcDbPolyline
 62
7
  6
CONTINUOUS
 90
7
 70
0
 10
6.2196607374
 20
14.9215539718
 10
6.2278705364
 20
14.9254816768
 10
6.2360548179
 20
14.929166871
 10
6.2442135819
 20
14.9326095543
 10
6.2523468284
 20
14.9358097267
 10
6.2604545574
 20
14.9387673882
 10
6.2685367689
 20
14.9414825389
  0
LWPOLYLINE
  5
31A
100
AcDbEntity
  8
RACCORDO
100
AcDbPolyline
 62
7
  6
CONTINUOUS
 90
19
 70
0
 10
7.644158136
 20
14.6764104788
 10
7.6703508665
 20
14.6883478445
 10
7.6964198799
 20
14.6990497174
 10
7.7223651763
 20
14.7085160975
 10
7.7482219034
 20
14.7167565472
 10
7.7739549134
 20
14.7237615041
 10
7.7994587634
 20
14.7295022816
 10
7.8247324804
 20
14.7339736802
 10
7.8497770374
 20
14.7371808995
 10
7.8744899098
 20
14.7391108517
 10
7.8988696147
 20
14.7397583339
 10
7.9229176351
 20
14.739128549
 10
7.9465358955
 20
14.7372240187
 10
7.9697229069
 20
14.734039479
 10
7.9924801584
 20
14.7295801937
 10
8.0147140411
 20
14.723864476
 10
8.036422157
 20
14.7168872357
 10
8.0576069041
 20
14.7086535628
 10
8.0790310109
 20
14.698773797
  0
LWPOLYLINE
  5
31B
100
AcDbEntity
  8
0
100
AcDbPolyline
 62
253
  6
CONTINUOUS
 90
43
 70
0
 10
18.7370961002
 20
20.5192255729
 10
18.8709621387
 20
20.5783527002
 10
19.011928359
 20
20.6317780198
 10
19.1599947609
 20
20.6795015317
 10
19.316145703
 20
20.7217207473
 10
19.4793968268
 20
20.7582381552
 10
19.6467950568
 20
20.7884612212
 10
19.818307072
 20
20.8122627927
 10
19.9939661933
 20
20.8297700223
 10
20.1709193086
 20
20.8407718333
 10
20.3491552159
 20
20.8451765264
 10
20.528685117
 20
20.843075801
 10
20.7066895056
 20
20.8345336789
 10
20.8831635461
 20
20.8194599181
 10
21.0581120739
 20
20.7979447605
 10
21.2287300889
 20
20.7703229534
 10
21.3949785185
 20
20.7364957424
 10
21.5568964352
 20
20.696561882
 10
21.711796056
 20
20.6511523829
 10
21.8595922371
 20
20.6001592164
 10
22.0003701223
 20
20.5436904113
 10
22.1316973605
 20
20.482701064
 10
22.2533957167
 20
20.4171056632
 10
22.365643426
 20
20.3469897201
 10
22.4665428426
 20
20.2735648655
 10
22.5558709988
 20
20.196791604
 10
22.6338508624
 20
20.1167094309
 10
22.6992536901
 20
20.0346484625
 10
22.751875721
 20
19.9505913682
 10
22.791920716
 20
19.8645554786
 10
22.818771215
 20
19.7779229013
 10
22.8322415016
 20
19.6906940925
 10
22.8325172922
 20
19.602868596
 10
22.8195382758
 20
19.5158271503
 10
22.7931174416
 20
19.4295684271
 10
22.7534418004
 20
19.3440937547
 10
22.7010120736
 20
19.2607878567
 10
22.6355651946
 20
19.1796344144
 10
22.5573642301
 20
19.1006497465
 10
22.4676991012
 20
19.0252675329
 10
22.3669997818
 20
18.953965667
 10
22.254836298
 20
18.8862662553
 10
22.1312086499
 20
18.822169298
  0
LWPOLYLINE
  5
31C
100
AcDbEntity
  8
0
100
AcDbPolyline
 62
253
  6
CONTINUOUS
 90
33
 70
0
 10
18.9455259201
 20
20.1515403973
 10
19.0619755042
 20
20.20275352
 10
19.1860210204
 20
20.2493792469
 10
19.3169157644
 20
20.2911615742
 10
19.4538697824
 20
20.3278579653
 10
19.5960865146
 20
20.3592912289
 10
19.7427717135
 20
20.3853460904
 10
19.8930631234
 20
20.4058876354
 10
20.0461202671
 20
20.4208157099
 10
20.2011690727
 20
20.430101908
 10
20.3573265359
 20
20.4337013508
 10
20.5137362458
 20
20.431599046
 10
20.6696655068
 20
20.4238348248
 10
20.8242669282
 20
20.4104444629
 10
20.9766663224
 20
20.3914937374
 10
21.1260984591
 20
20.3670911558
 10
21.2717479403
 20
20.3373568391
 10
21.4127812008
 20
20.3024432361
 10
21.5484282568
 20
20.2625420054
 10
21.6779533997
 20
20.2178551631
 10
21.800591051
 20
20.1686260892
 10
21.9155840567
 20
20.1151558931
 10
22.0222907981
 20
20.0577454268
 10
22.1201139396
 20
19.9967120719
 10
22.2084592377
 20
19.932430032
 10
22.2868334567
 20
19.8652846355
 10
22.3548373882
 20
19.7956410726
 10
22.4121150417
 20
19.7238729433
 10
22.458357172
 20
19.6504005657
 10
22.4933303027
 20
19.5756288726
 10
22.5168644876
 20
19.4999200822
 10
22.5288266205
 20
19.4237139586
 10
22.5304094258
 20
19.3898062744
  0
LINE
  5
31D
100
AcDbEntity
  8
0
100
AcDbLine
 62
253
  6
CONTINUOUS
 10
21.9973426135
 20
18.7630421683
 11
21.8563763939
 21
18.7096168482
  0
LWPOLYLINE
  5
31E
100
AcDbEntity
  8
0
100
AcDbPolyline
 62
253
  6
CONTINUOUS
 90
41
 70
0
 10
21.8563763939
 20
18.7096168482
 10
21.7083099911
 20
18.6618933377
 10
21.5521590452
 20
18.6196741271
 10
21.3889079161
 20
18.583156726
 10
21.2215096831
 20
18.552933664
 10
21.0499976697
 20
18.5291320907
 10
20.8743385525
 20
18.5116248564
 10
20.6973854405
 20
18.5006230418
 10
20.5191495346
 20
18.4962183482
 10
20.339619634
 20
18.4983190743
 10
20.1616152457
 20
18.5068611967
 10
19.9851412052
 20
18.5219349564
 10
19.810192677
 20
18.5434501124
 10
19.6395746618
 20
18.5710719182
 10
19.4733262319
 20
18.6048991286
 10
19.3114083148
 20
18.6448329889
 10
19.1565086941
 20
18.6902424881
 10
19.0087125138
 20
18.7412356549
 10
18.8679346297
 20
18.7977044606
 10
18.7366073933
 20
18.8586938086
 10
18.6149090398
 20
18.9242892103
 10
18.5026613339
 20
18.9944051542
 10
18.401761921
 20
19.0678300094
 10
18.3124337683
 20
19.1446032712
 10
18.2344539086
 20
19.2246854443
 10
18.1690510851
 20
19.3067464125
 10
18.1164290599
 20
19.3908035063
 10
18.076384071
 20
19.4768393951
 10
18.0495335754
 20
19.5634719715
 10
18.0360632867
 20
19.6507007792
 10
18.0357874914
 20
19.7385262745
 10
18.0487665064
 20
19.8255677185
 10
18.0751873483
 20
19.9118264388
 10
18.1148630004
 20
19.9973011079
 10
18.16729273
 20
20.0806070045
 10
18.2327395951
 20
20.1617604489
 10
18.3109405376
 20
20.2407451208
 10
18.4006056501
 20
20.3161273374
 10
18.5013049634
 20
20.3874292045
 10
18.6134684468
 20
20.4551286163
 10
18.7370961002
 20
20.5192255729
  0
LINE
  5
31F
100
AcDbEntity
  8
RACCORDO
100
AcDbLine
 62
7
  6
CONTINUOUS
 10
0.6293526509
 20
11.6768974115
 11
0.5303942874
 21
11.6475857534
  0
LWPOLYLINE
  5
320
100
AcDbEntity
  8
RACCORDO
100
AcDbPolyline
 62
7
  6
CONTINUOUS
 90
4
 70
0
 10
0.5303942874
 20
11.6475857534
 10
0.5085747306
 20
11.6412584022
 10
0.4981252982
 20
11.6382982669
 10
0.4879760343
 20
11.6354956509
  0
LWPOLYLINE
  5
321
100
AcDbEntity
  8
0
100
AcDbPolyline
 62
253
  6
CONTINUOUS
 90
7
 70
0
 10
-11.9418123074
 20
7.3964104012
 10
-11.9760475918
 20
7.5646708905
 10
-12.0157954098
 20
7.7285177048
 10
-12.0610025832
 20
7.8877316346
 10
-12.1116086295
 20
8.0420996685
 10
-12.1675458433
 20
8.1914152784
 10
-12.2287393865
 20
8.335478696
  0
LWPOLYLINE
  5
322
100
AcDbEntity
  8
ASSI
100
AcDbPolyline
 62
7
  6
CONTINUOUS
 90
6
 70
0
 10
-8.9107753397
 20
22.6033811299
 10
-8.9109965796
 20
22.6059034822
 10
-8.9119865619
 20
22.6088852831
 10
-8.9137310857
 20
22.6113625554
 10
-8.9161880012
 20
22.6133501932
 10
-8.9175502139
 20
22.6141124038
  0
LWPOLYLINE
  5
323
100
AcDbEntity
  8
RACCORDO
100
AcDbPolyline
 62
253
  6
CONTINUOUS
 90
31
 70
0
 10
-8.99548247
 20
16.0479231037
 10
-8.9957775593
 20
16.0593512326
 10
-8.9965537284
 20
16.0709918117
 10
-8.9978088517
 20
16.082812924
 10
-8.9995394922
 20
16.0947821679
 10
-9.0017409064
 20
16.106866714
 10
-9.0044070527
 20
16.119033394
 10
-9.0075306173
 20
16.1312488391
 10
-9.0111030359
 20
16.143479562
 10
-9.0151145087
 20
16.1556920168
 10
-9.0195540343
 20
16.1678527174
 10
-9.0244094375
 20
16.1799283197
 10
-9.0296673985
 20
16.1918857034
 10
-9.035313502
 20
16.2036920917
 10
-9.0413322599
 20
16.2153151043
 10
-9.0477071467
 20
16.2267228386
 10
-9.0544206504
 20
16.2378839762
 10
-9.0614543824
 20
16.2487679645
 10
-9.0687891173
 20
16.2593450564
 10
-9.0764048518
 20
16.2695863839
 10
-9.0842806097
 20
16.2794637179
 10
-9.0923945368
 20
16.2889496765
 10
-9.1007241968
 20
16.2980181068
 10
-9.1092468976
 20
16.3066443802
 10
-9.1179395122
 20
16.3148051155
 10
-9.1267800522
 20
16.3224794757
 10
-9.1357424916
 20
16.3296446771
 10
-9.1447968686
 20
16.3362773036
 10
-9.1539164244
 20
16.3423589941
 10
-9.1630778889
 20
16.3478754599
 10
-9.1722561736
 20
16.3528126425
  0
LWPOLYLINE
  5
324
100
AcDbEntity
  8
RACCORDO
100
AcDbPolyline
 62
7
  6
CONTINUOUS
 90
31
 70
0
 10
-7.3942016791
 20
16.8506451072
 10
-7.3944437211
 20
16.8620972227
 10
-7.3951698685
 20
16.8737600779
 10
-7.3963779975
 20
16.885601777
 10
-7.3980645632
 20
16.8975899852
 10
-7.4002249361
 20
16.9096918498
 10
-7.4028534152
 20
16.9218740902
 10
-7.405942728
 20
16.9341033538
 10
-7.4094842898
 20
16.9463461819
 10
-7.4134685539
 20
16.9585689337
 10
-7.4178845632
 20
16.9707381286
 10
-7.4227201247
 20
16.9828204578
 10
-7.4279620808
 20
16.9947827496
 10
-7.4335960592
 20
17.0065922202
 10
-7.4396065588
 20
17.018216531
 10
-7.4459771353
 20
17.0296237979
 10
-7.4526903551
 20
17.0407827415
 10
-7.4597277909
 20
17.0516627905
 10
-7.4670701169
 20
17.0622341343
 10
-7.4746972679
 20
17.072467769
 10
-7.4825883446
 20
17.0823356437
 10
-7.4907216162
 20
17.0918107566
 10
-7.4990748805
 20
17.1008670937
 10
-7.5076252809
 20
17.1094798154
 10
-7.5163492182
 20
17.1176253944
 10
-7.5252229
 20
17.1252814469
 10
-7.5342220758
 20
17.1324269567
 10
-7.5433218598
 20
17.1390424497
 10
-7.5524973194
 20
17.145109792
 10
-7.5617235441
 20
17.1506122395
 10
-7.5709753828
 20
17.155534646
  0
LWPOLYLINE
  5
325
100
AcDbEntity
  8
RACCORDO
100
AcDbPolyline
 62
253
  6
CONTINUOUS
 90
19
 70
0
 10
-9.3480044296
 20
15.7084618935
 10
-9.3477845749
 20
15.6977772369
 10
-9.3471255577
 20
15.6873390105
 10
-9.3460290169
 20
15.677173178
 10
-9.344497686
 20
15.6673050595
 10
-9.3425353707
 20
15.6577591648
 10
-9.3401469249
 20
15.6485591444
 10
-9.3373382548
 20
15.6397278325
 10
-9.3341163493
 20
15.6312872754
 10
-9.3304892517
 20
15.6232585671
 10
-9.3264659721
 20
15.6156616562
 10
-9.3220565296
 20
15.6085154654
 10
-9.317271993
 20
15.6018379
 10
-9.3121243596
 20
15.5956456227
 10
-9.3066263916
 20
15.5899539103
 10
-9.3007916579
 20
15.5847767841
 10
-9.2946334414
 20
15.5801262691
 10
-9.2881681672
 20
15.5760149954
 10
-9.2830419595
 20
15.5732488574
  0
LWPOLYLINE
  5
326
100
AcDbEntity
  8
RACCORDO
100
AcDbPolyline
 62
253
  6
CONTINUOUS
 90
31
 70
0
 10
-9.4115189197
 20
18.3868761334
 10
-9.4117090726
 20
18.3983542531
 10
-9.4123860266
 20
18.4100417558
 10
-9.4135479264
 20
18.4219066083
 10
-9.4151915874
 20
18.4339162912
 10
-9.4173125046
 20
18.4460378883
 10
-9.419904865
 20
18.4582381765
 10
-9.4229615634
 20
18.4704837171
 10
-9.426474222
 20
18.4827409475
 10
-9.4304332133
 20
18.4949762727
 10
-9.4348276863
 20
18.5071561582
 10
-9.4396455967
 20
18.5192472211
 10
-9.4448737394
 20
18.531216322
 10
-9.4504977852
 20
18.543030656
 10
-9.4565023195
 20
18.5546578421
 10
-9.4628708851
 20
18.5660660125
 10
-9.4695860269
 20
18.5772238993
 10
-9.47662934
 20
18.5881009211
 10
-9.4839815199
 20
18.5986672659
 10
-9.4916224158
 20
18.6088939733
 10
-9.4995310854
 20
18.6187530139
 10
-9.5076858524
 20
18.6282173658
 10
-9.5160643662
 20
18.6372610891
 10
-9.5246436629
 20
18.6458593967
 10
-9.5334002282
 20
18.653988722
 10
-9.542310062
 20
18.6616267843
 10
-9.5513487441
 20
18.668752649
 10
-9.5604915013
 20
18.6753467854
 10
-9.5697132748
 20
18.6813911203
 10
-9.5789887897
 20
18.6868690873
 10
-9.5882926233
 20
18.6917656722
  0
LWPOLYLINE
  5
327
100
AcDbEntity
  8
RACCORDO
100
AcDbPolyline
 62
253
  6
CONTINUOUS
 90
31
 70
0
 10
-6.8659345074
 20
17.1140839273
 10
-6.8661247513
 20
17.1255644788
 10
-6.8668020022
 20
17.137254517
 10
-6.8679644058
 20
17.1491219892
 10
-6.8696087793
 20
17.1611343666
 10
-6.8717306156
 20
17.1732587016
 10
-6.8743240919
 20
17.1854617167
 10
-6.8773820935
 20
17.1977099432
 10
-6.8808962359
 20
17.2099698043
 10
-6.8848568789
 20
17.222207674
 10
-6.8892531606
 20
17.2343899965
 10
-6.8940730244
 20
17.2464833685
 10
-6.8993032479
 20
17.258454621
 10
-6.9049294916
 20
17.2702709391
 10
-6.9109363221
 20
17.2818999155
 10
-6.9173072463
 20
17.293309631
 10
-6.9240247631
 20
17.3044687621
 10
-6.9310704727
 20
17.3153467616
 10
-6.9384251168
 20
17.3259138989
 10
-6.9460686381
 20
17.336141333
 10
-6.9539799841
 20
17.346000873
 10
-6.9621372015
 20
17.3554651863
 10
-6.9705177337
 20
17.3645081806
 10
-6.9790987492
 20
17.3731052966
 10
-6.9878569624
 20
17.3812332326
 10
-6.996770221
 20
17.3888712336
 10
-7.0058122867
 20
17.3959966218
 10
-7.0149529263
 20
17.402586117
 10
-7.0241651143
 20
17.4086214914
 10
-7.0334253321
 20
17.4140885805
 10
-7.0427082111
 20
17.4189734661
  0
LINE
  5
328
100
AcDbEntity
  8
ASSI
100
AcDbLine
 62
253
  6
CONTINUOUS
 10
-9.0343694036
 20
21.3251887183
 11
-9.0343694036
 21
22.5943767428
  0
LINE
  5
329
100
AcDbEntity
  8
RACCORDO
100
AcDbLine
 62
253
  6
CONTINUOUS
 10
-8.99548247
 20
15.7079491696
 11
-8.99548247
 21
16.0479231037
  0
LINE
  5
32A
100
AcDbEntity
  8
ASSI
100
AcDbLine
 62
7
  6
CONTINUOUS
 10
-8.9107753397
 20
21.4710791814
 11
-8.9107753397
 21
22.6033814868
  0
LINE
  5
32B
100
AcDbEntity
  8
RACCORDO
100
AcDbLine
 62
253
  6
CONTINUOUS
 10
-8.6367838215
 20
15.4298662663
 11
-8.6367838215
 21
14.7410456433
  0
LINE
  5
32C
100
AcDbEntity
  8
RACCORDO
100
AcDbLine
 62
253
  6
CONTINUOUS
 10
-8.2842618619
 20
15.5594456467
 11
-8.2842618619
 21
14.751813525
  0
LINE
  5
32D
100
AcDbEntity
  8
RACCORDO
100
AcDbLine
 62
7
  6
CONTINUOUS
 10
-7.3942016791
 20
15.2636109759
 11
-7.3942016791
 21
16.8506451072
  0
LINE
  5
32E
100
AcDbEntity
  8
RACCORDO
100
AcDbLine
 62
253
  6
CONTINUOUS
 10
-6.8659345074
 20
17.1140839273
 11
-6.8659345074
 21
16.7665524105
  0
LINE
  5
32F
100
AcDbEntity
  8
RACCORDO
100
AcDbLine
 62
7
  6
CONTINUOUS
 10
-6.7937366504
 20
17.2019565594
 11
-6.7937366504
 21
16.8544250427
  0
LINE
  5
330
100
AcDbEntity
  8
0
100
AcDbLine
 62
253
  6
CONTINUOUS
 10
-6.2981861683
 20
24.5599083436
 11
-6.2981861683
 21
25.126904162
  0
LWPOLYLINE
  5
331
100
AcDbEntity
  8
0
100
AcDbPolyline
 62
7
  6
CONTINUOUS
 90
10
 70
0
 10
-6.0823519195
 20
24.5904670517
 10
-6.0822031217
 20
24.6046002428
 10
-6.0822631745
 20
24.617501117
 10
-6.0824458735
 20
24.6290544856
 10
-6.0825421848
 20
24.6392017072
 10
-6.0825612739
 20
24.6477817901
 10
-6.082730509
 20
24.6545317777
 10
-6.0828959787
 20
24.6593650545
 10
-6.0829627858
 20
24.6621963631
 10
-6.0831122196
 20
24.6628394625
  0
LWPOLYLINE
  5
332
100
AcDbEntity
  8
RACCORDO
100
AcDbPolyline
 62
7
  6
CONTINUOUS
 90
15
 70
0
 10
-6.7937366504
 20
16.8544227304
 10
-6.7938964589
 20
16.845487554
 10
-6.7946546726
 20
16.8330201755
 10
-6.7960365106
 20
16.8205925031
 10
-6.7980408051
 20
16.8082346583
 10
-6.8006641974
 20
16.7959803458
 10
-6.8039025788
 20
16.7838586334
 10
-6.8077499368
 20
16.7719006765
 10
-6.8121983135
 20
16.7601382538
 10
-6.8172387607
 20
16.7486011041
 10
-6.8228603005
 20
16.7373197992
 10
-6.829050275
 20
16.7263244564
 10
-6.8357950946
 20
16.715643526
 10
-6.8430794228
 20
16.7053053693
 10
-6.850575008
 20
16.6957159382
  0
LWPOLYLINE
  5
333
100
AcDbEntity
  8
RACCORDO
100
AcDbPolyline
 62
253
  6
CONTINUOUS
 90
16
 70
0
 10
-6.7937366504
 20
17.2019565594
 10
-6.7940379209
 20
17.1958217306
 10
-6.7950176395
 20
17.1893187824
 10
-6.7966743285
 20
17.1828502182
 10
-6.79900348
 20
17.1764336514
 10
-6.8019987603
 20
17.1700865403
 10
-6.8056520192
 20
17.1638261635
 10
-6.8099533173
 20
17.1576695604
 10
-6.8148909498
 20
17.1516334899
 10
-6.8204514751
 20
17.1457343875
 10
-6.8266197642
 20
17.139988306
 10
-6.8333790255
 20
17.1344108904
 10
-6.8407108393
 20
17.1290173381
 10
-6.8485952375
 20
17.1238223336
 10
-6.8570107632
 20
17.1188400101
 10
-6.8659345074
 20
17.1140839273
  0
LWPOLYLINE
  5
334
100
AcDbEntity
  8
RACCORDO
100
AcDbPolyline
 62
253
  6
CONTINUOUS
 90
16
 70
0
 10
-6.7937366504
 20
16.8544227304
 10
-6.7940395736
 20
16.8482734197
 10
-6.7950208107
 20
16.8417716728
 10
-6.7966787684
 20
16.8353043539
 10
-6.7990089348
 20
16.828889062
 10
-6.8020049704
 20
16.8225432498
 10
-6.8056587269
 20
16.8162841777
 10
-6.8099602715
 20
16.8101288671
 10
-6.8148978972
 20
16.8040940755
 10
-6.8204581503
 20
16.7981962436
 10
-6.8266258838
 20
16.7924514293
 10
-6.8333843224
 20
16.7868752498
 10
-6.840715093
 20
16.7814828614
 10
-6.8485982571
 20
16.7762889315
 10
-6.8570123597
 20
16.7713075968
 10
-6.8659345074
 20
16.7665524105
  0
LWPOLYLINE
  5
335
100
AcDbEntity
  8
RACCORDO
100
AcDbPolyline
 62
7
  6
CONTINUOUS
 90
5
 70
0
 10
-5.1649562356
 20
14.7757625403
 10
-5.1669927789
 20
14.7666411423
 10
-5.1685071378
 20
14.7568075448
 10
-5.1694635215
 20
14.7463493848
 10
-5.1697955077
 20
14.7348035665
  0
LINE
  5
336
100
AcDbEntity
  8
DRAFT
100
AcDbLine
 62
7
  6
CONTINUOUS
 10
1.7263402151
 20
10.876232142
 11
1.5506991029
 21
10.7760440553
  0
LWPOLYLINE
  5
337
100
AcDbEntity
  8
0
100
AcDbPolyline
 62
253
  6
CONTINUOUS
 90
13
 70
0
 10
14.0701913444
 20
15.7597778726
 10
14.0421685466
 20
15.7440929088
 10
14.014571173
 20
15.7241060449
 10
13.9878819588
 20
15.7001668958
 10
13.9625677534
 20
15.6726942097
 10
13.9390713535
 20
15.642168543
 10
13.9178037575
 20
15.6091238531
 10
13.8991369783
 20
15.5741381613
 10
13.8833975344
 20
15.5378234399
 10
13.8708607384
 20
15.5008149056
 10
13.8617458833
 20
15.4637599127
 10
13.8562124055
 20
15.4273066292
 10
13.8543570955
 20
15.392092697
  0
LINE
  5
338
100
AcDbEntity
  8
RACCORDO
100
AcDbLine
 62
7
  6
CONTINUOUS
 10
1.5506991029
 20
10.7760440553
 11
1.1930199536
 21
10.5764481034
  0
LWPOLYLINE
  5
339
100
AcDbEntity
  8
0
100
AcDbPolyline
 62
7
  6
CONTINUOUS
 90
32
 70
0
 10
-11.4001078843
 20
3.699143829
 10
-11.354328268
 20
3.7236602057
 10
-11.2626684408
 20
3.7833186651
 10
-11.176717785
 20
3.8540571318
 10
-11.0963238051
 20
3.9361383131
 10
-11.02164063
 20
4.0298778335
 10
-10.9537527467
 20
4.134448247
 10
-10.8938575418
 20
4.2483539012
 10
-10.8422534725
 20
4.3707481476
 10
-10.7991172976
 20
4.5009491134
 10
-10.765051085
 20
4.6373029807
 10
-10.7401440502
 20
4.7780063934
 10
-10.7240645613
 20
4.9229075523
 10
-10.7169108834
 20
5.072888382
 10
-10.7188397382
 20
5.228167159
 10
-10.730025547
 20
5.386835804
 10
-10.7506590206
 20
5.5466342254
 10
-10.7805466985
 20
5.7065803424
 10
-10.8193461465
 20
5.8656358292
 10
-10.8665515647
 20
6.021442099
 10
-10.9211295402
 20
6.1719580091
 10
-10.9828147164
 20
6.3175019502
 10
-11.0523095859
 20
6.4592039005
 10
-11.1296775342
 20
6.5968665749
 10
-11.2140782986
 20
6.7287084771
 10
-11.3050260209
 20
6.8533606811
 10
-11.4022576246
 20
6.9702360442
 10
-11.5048111715
 20
7.078129761
 10
-11.6109367287
 20
7.17514683
 10
-11.7194823221
 20
7.2605407666
 10
-11.830022873
 20
7.3343764063
 10
-11.9418123087
 20
7.3964104019
  0
LINE
  5
33A
100
AcDbEntity
  8
RACCORDO
100
AcDbLine
 62
7
  6
CONTINUOUS
 10
4.3371653102
 20
11.1517919335
 11
2.7539916448
 21
10.3395938754
  0
LINE
  5
33B
100
AcDbEntity
  8
RACCORDO
100
AcDbLine
 62
253
  6
CONTINUOUS
 10
4.4498339141
 20
11.1451299976
 11
2.867077311
 21
10.3331459002
  0
LINE
  5
33C
100
AcDbEntity
  8
0
100
AcDbLine
 62
7
  6
CONTINUOUS
 10
13.9591109874
 20
15.2265191094
 11
13.9371339398
 21
15.2152456392
  0
LINE
  5
33D
100
AcDbEntity
  8
RACCORDO
100
AcDbLine
 62
253
  6
CONTINUOUS
 10
5.7933427816
 20
10.4733755638
 11
4.1920619908
 21
9.6706535603
  0
LINE
  5
33E
100
AcDbEntity
  8
RACCORDO
100
AcDbLine
 62
253
  6
CONTINUOUS
 10
5.9701164853
 20
10.168486025
 11
4.3688356945
 21
9.3657640215
  0
LINE
  5
33F
100
AcDbEntity
  8
ASSI
100
AcDbLine
 62
7
  6
CONTINUOUS
 10
18.761016861
 20
18.9234686476
 11
19.6961731727
 21
19.3910468034
  0
LINE
  5
340
100
AcDbEntity
  8
0
100
AcDbLine
 62
7
  6
CONTINUOUS
 10
12.7936969237
 20
15.5108094873
 11
12.5067782464
 21
15.3673501487
  0
LINE
  5
341
100
AcDbEntity
  8
RACCORDO
100
AcDbLine
 62
7
  6
CONTINUOUS
 10
4.3389017007
 20
11.1526601429
 11
4.337165287
 21
11.1517919216
  0
LINE
  5
342
100
AcDbEntity
  8
RACCORDO
100
AcDbLine
 62
253
  6
CONTINUOUS
 10
6.3216099534
 20
10.7368143839
 11
5.7933427816
 21
10.4733755638
  0
LINE
  5
343
100
AcDbEntity
  8
RACCORDO
100
AcDbLine
 62
253
  6
CONTINUOUS
 10
6.498383657
 20
10.4319248451
 11
5.9701164853
 21
10.168486025
  0
LINE
  5
344
100
AcDbEntity
  8
0
100
AcDbLine
 62
7
  6
CONTINUOUS
 10
22.0305591308
 20
18.8471183654
 11
21.998514537
 21
18.8314188655
  0
LINE
  5
345
100
AcDbEntity
  8
RACCORDO
100
AcDbLine
 62
7
  6
CONTINUOUS
 10
4.8737716817
 20
11.4132122552
 11
4.338901724
 21
11.1526601548
  0
LINE
  5
346
100
AcDbEntity
  8
RACCORDO
100
AcDbLine
 62
253
  6
CONTINUOUS
 10
4.9842837928
 20
11.4054774641
 11
4.4498339141
 21
11.1451299976
  0
LINE
  5
347
100
AcDbEntity
  8
RACCORDO
100
AcDbLine
 62
7
  6
CONTINUOUS
 10
-12.0720624812
 20
3.7179861205
 11
-10.8712821852
 21
4.3018980072
  0
LINE
  5
348
100
AcDbEntity
  8
DRAFT
100
AcDbLine
 62
7
  6
CONTINUOUS
 10
1.7263402151
 20
10.876232142
 11
6.8755331731
 21
13.37023743
  0
LINE
  5
349
100
AcDbEntity
  8
0
100
AcDbLine
 62
253
  6
CONTINUOUS
 10
9.3593055936
 20
14.0586365199
 11
12.2317137133
 21
15.4334342353
  0
LINE
  5
34A
100
AcDbEntity
  8
0
100
AcDbLine
 62
253
  6
CONTINUOUS
 10
9.8369611881
 20
13.8198087226
 11
12.6522755675
 21
15.167280118
  0
LINE
  5
34B
100
AcDbEntity
  8
0
100
AcDbLine
 62
7
  6
CONTINUOUS
 10
13.9369729553
 20
15.2151687312
 11
10.4163430323
 21
13.5301178006
  0
LINE
  5
34C
100
AcDbEntity
  8
0
100
AcDbLine
 62
253
  6
CONTINUOUS
 10
14.0701913444
 20
15.2061856713
 11
10.4906764435
 21
13.4929510949
  0
LINE
  5
34D
100
AcDbEntity
  8
RACCORDO
100
AcDbLine
 62
7
  6
CONTINUOUS
 10
10.6819666021
 20
13.1575062458
 11
6.02020543
 21
10.9494940164
  0
LWPOLYLINE
  5
34E
100
AcDbEntity
  8
0
100
AcDbPolyline
 62
7
  6
CONTINUOUS
 90
32
 70
0
 10
21.9978316337
 20
18.8310884103
 10
21.9712297248
 20
18.8185919928
 10
21.8533554166
 20
18.7682195308
 10
21.7251889298
 20
18.7213593663
 10
21.5872325576
 20
18.6785926947
 10
21.44043381
 20
18.6405279175
 10
21.2861676503
 20
18.6077481705
 10
21.1253798173
 20
18.580640321
 10
20.9590839517
 20
18.5595248059
 10
20.7888335742
 20
18.5447080617
 10
20.6157471855
 20
18.5363768324
 10
20.4410380488
 20
18.5346460327
 10
20.2664310015
 20
18.5395434544
 10
20.0931445925
 20
18.5510226233
 10
19.922346918
 20
18.5689645647
 10
19.7556668837
 20
18.593115667
 10
19.5942080862
 20
18.623211365
 10
19.4390173462
 20
18.6589165948
 10
19.2915647074
 20
18.6996960904
 10
19.1530519496
 20
18.7449580646
 10
19.0238623197
 20
18.7942688109
 10
18.9043064197
 20
18.8472189353
 10
18.7959060024
 20
18.9027723652
 10
18.6982583422
 20
18.9606970797
 10
18.6098591446
 20
19.021759188
 10
18.5312569629
 20
19.0858859468
 10
18.4645975112
 20
19.151530058
 10
18.4114920894
 20
19.2166622011
 10
18.3727852533
 20
19.2788271952
 10
18.3471983194
 20
19.3377211074
 10
18.3332978883
 20
19.3950616442
 10
18.3304947162
 20
19.4403770562
  0
LWPOLYLINE
  5
34F
100
AcDbEntity
  8
RACCORDO
100
AcDbPolyline
 62
7
  6
CONTINUOUS
 90
18
 70
0
 10
4.8737716817
 20
11.4132122552
 10
4.8859926414
 20
11.4187646214
 10
4.8986217651
 20
11.4236990615
 10
4.9116205643
 20
11.4279776905
 10
4.9249658148
 20
11.4315702643
 10
4.9385915441
 20
11.4344384915
 10
4.9523905029
 20
11.4365479635
 10
4.966289485
 20
11.4378842115
 10
4.9802589062
 20
11.4384425992
 10
4.9942597578
 20
11.4382182462
 10
5.0082332221
 20
11.4372096399
 10
5.0221389774
 20
11.4354181725
 10
5.0359724172
 20
11.4328391801
 10
5.0497404787
 20
11.4294579179
 10
5.0633415276
 20
11.4252858195
 10
5.0766273582
 20
11.4203693084
 10
5.0895615135
 20
11.4147325181
 10
5.0950647573
 20
11.4120643525
  0
LINE
  5
350
100
AcDbEntity
  8
0
100
AcDbLine
 62
253
  6
CONTINUOUS
 10
22.1312086499
 20
18.822169298
 11
21.9973426135
 21
18.7630421683
  0
LWPOLYLINE
  5
351
100
AcDbEntity
  8
0
100
AcDbPolyline
 62
253
  6
CONTINUOUS
 90
43
 70
0
 10
22.2726300061
 20
18.7514586199
 10
22.4064960447
 20
18.8105857472
 10
22.5474622649
 20
18.8640110668
 10
22.6955286668
 20
18.9117345787
 10
22.851679609
 20
18.9539537943
 10
23.0149307328
 20
18.9904712023
 10
23.1823289628
 20
19.0206942682
 10
23.3538409779
 20
19.0444958397
 10
23.5295000993
 20
19.0620030693
 10
23.7064532145
 20
19.0730048804
 10
23.8846891218
 20
19.0774095735
 10
24.064219023
 20
19.0753088481
 10
24.2422234115
 20
19.0667667259
 10
24.418697452
 20
19.0516929651
 10
24.5936459799
 20
19.0301778075
 10
24.7642639948
 20
19.0025560004
 10
24.9305124244
 20
18.9687287895
 10
25.0924303411
 20
18.928794929
 10
25.2473299619
 20
18.8833854299
 10
25.395126143
 20
18.8323922635
 10
25.5359040282
 20
18.7759234584
 10
25.6672312665
 20
18.7149341111
 10
25.7889296227
 20
18.6493387102
 10
25.9011773319
 20
18.5792227672
 10
26.0020767485
 20
18.5057979125
 10
26.0914049048
 20
18.429024651
 10
26.1693847683
 20
18.3489424779
 10
26.2347875961
 20
18.2668815095
 10
26.2874096269
 20
18.1828244153
 10
26.3274546219
 20
18.0967885257
 10
26.354305121
 20
18.0101559483
 10
26.3677754076
 20
17.9229271396
 10
26.3680511982
 20
17.835101643
 10
26.3550721818
 20
17.7480601973
 10
26.3286513475
 20
17.6618014741
 10
26.2889757063
 20
17.5763268017
 10
26.2365459795
 20
17.4930209038
 10
26.1710991005
 20
17.4118674614
 10
26.092898136
 20
17.3328827935
 10
26.0032330071
 20
17.25750058
 10
25.9025336877
 20
17.186198714
 10
25.7903702039
 20
17.1184993024
 10
25.6667425558
 20
17.054402345
  0
LWPOLYLINE
  5
352
100
AcDbEntity
  8
0
100
AcDbPolyline
 62
253
  6
CONTINUOUS
 90
33
 70
0
 10
22.481059826
 20
18.3837734443
 10
22.5975094101
 20
18.434986567
 10
22.7215549264
 20
18.4816122939
 10
22.8524496704
 20
18.5233946213
 10
22.9894036884
 20
18.5600910124
 10
23.1316204205
 20
18.5915242759
 10
23.2783056195
 20
18.6175791375
 10
23.4285970294
 20
18.6381206825
 10
23.581654173
 20
18.6530487569
 10
23.7367029786
 20
18.662334955
 10
23.8928604418
 20
18.6659343978
 10
24.0492701518
 20
18.663832093
 10
24.2051994127
 20
18.6560678718
 10
24.3598008341
 20
18.6426775099
 10
24.5122002284
 20
18.6237267845
 10
24.6616323651
 20
18.5993242028
 10
24.8072818463
 20
18.5695898861
 10
24.9483151068
 20
18.5346762831
 10
25.0839621627
 20
18.4947750524
 10
25.2134873057
 20
18.4500882101
 10
25.3361249569
 20
18.4008591363
 10
25.4511179626
 20
18.3473889401
 10
25.557824704
 20
18.2899784738
 10
25.6556478456
 20
18.228945119
 10
25.7439931436
 20
18.164663079
 10
25.8223673626
 20
18.0975176825
 10
25.8903712941
 20
18.0278741197
 10
25.9476489477
 20
17.9561059903
 10
25.9938910779
 20
17.8826336127
 10
26.0288642086
 20
17.8078619196
 10
26.0523983936
 20
17.7321531292
 10
26.0643605265
 20
17.6559470056
 10
26.0659433318
 20
17.6220393215
  0
LINE
  5
353
100
AcDbEntity
  8
0
100
AcDbLine
 62
253
  6
CONTINUOUS
 10
25.5328765194
 20
16.9952752153
 11
25.3919102998
 21
16.9418498952
  0
LWPOLYLINE
  5
354
100
AcDbEntity
  8
0
100
AcDbPolyline
 62
253
  6
CONTINUOUS
 90
41
 70
0
 10
25.3919102998
 20
16.9418498952
 10
25.243843897
 20
16.8941263848
 10
25.0876929511
 20
16.8519071741
 10
24.924441822
 20
16.815389773
 10
24.7570435891
 20
16.785166711
 10
24.5855315757
 20
16.7613651377
 10
24.4098724584
 20
16.7438579034
 10
24.2329193465
 20
16.7328560889
 10
24.0546834405
 20
16.7284513953
 10
23.8751535399
 20
16.7305521214
 10
23.6971491516
 20
16.7390942438
 10
23.5206751111
 20
16.7541680035
 10
23.345726583
 20
16.7756831595
 10
23.1751085677
 20
16.8033049653
 10
23.0088601378
 20
16.8371321757
 10
22.8469422208
 20
16.8770660359
 10
22.6920426001
 20
16.9224755351
 10
22.5442464197
 20
16.9734687019
 10
22.4034685356
 20
17.0299375077
 10
22.2721412992
 20
17.0909268557
 10
22.1504429457
 20
17.1565222573
 10
22.0381952398
 20
17.2266382012
 10
21.9372958269
 20
17.3000630565
 10
21.8479676742
 20
17.3768363182
 10
21.7699878145
 20
17.4569184913
 10
21.704584991
 20
17.5389794596
 10
21.6519629658
 20
17.6230365533
 10
21.6119179769
 20
17.7090724421
 10
21.5850674814
 20
17.7957050185
 10
21.5715971926
 20
17.8829338262
 10
21.5713213973
 20
17.9707593215
 10
21.5843004123
 20
18.0578007655
 10
21.6107212542
 20
18.1440594859
 10
21.6503969064
 20
18.229534155
 10
21.7028266359
 20
18.3128400515
 10
21.768273501
 20
18.393993496
 10
21.8464744435
 20
18.4729781679
 10
21.936139556
 20
18.5483603845
 10
22.0368388694
 20
18.6196622516
 10
22.1490023527
 20
18.6873616634
 10
22.2726300061
 20
18.7514586199
  0
LWPOLYLINE
  5
355
100
AcDbEntity
  8
RACCORDO
100
AcDbPolyline
 62
253
  6
CONTINUOUS
 90
14
 70
0
 10
-22.7758370841
 20
24.7215036989
 10
-22.7714893994
 20
24.7141506119
 10
-22.7676391577
 20
24.707057582
 10
-22.7642968738
 20
24.7002439801
 10
-22.7614716776
 20
24.6937284189
 10
-22.7591712815
 20
24.6875286865
 10
-22.7574019642
 20
24.6816617003
 10
-22.7561685596
 20
24.6761434749
 10
-22.755474444
 20
24.6709890948
 10
-22.7553215165
 20
24.6662126545
 10
-22.7557101924
 20
24.6618272031
 10
-22.7566394083
 20
24.6578447093
 10
-22.7581066263
 20
24.6542760455
 10
-22.7600760173
 20
24.6511809693
  0
LWPOLYLINE
  5
356
100
AcDbEntity
  8
RACCORDO
100
AcDbPolyline
 62
7
  6
CONTINUOUS
 90
27
 70
0
 10
-5.1697955077
 20
14.7348035665
 10
-5.1695192714
 20
14.7239117455
 10
-5.1687280873
 20
14.7120518954
 10
-5.1674163169
 20
14.6998390789
 10
-5.1655635591
 20
14.6873332738
 10
-5.1632407294
 20
14.674556326
 10
-5.1604461931
 20
14.6615513698
 10
-5.1571684951
 20
14.6483643912
 10
-5.1534607453
 20
14.6350068786
 10
-5.1493227302
 20
14.6215113149
 10
-5.1447485264
 20
14.6079138641
 10
-5.1397790343
 20
14.5942226761
 10
-5.1344145663
 20
14.5804635051
 10
-5.1286525216
 20
14.5666655008
 10
-5.1225259675
 20
14.5528367206
 10
-5.1160354224
 20
14.5389984007
 10
-5.1091803767
 20
14.5251748666
 10
-5.1019893652
 20
14.5113759066
 10
-5.0944630669
 20
14.4976196204
 10
-5.0866024275
 20
14.483926993
 10
-5.0784339881
 20
14.4703106284
 10
-5.0699584598
 20
14.4567859709
 10
-5.0611781886
 20
14.4433719915
 10
-5.0521205037
 20
14.4300858405
 10
-5.042795662
 20
14.4169435985
 10
-5.0331980647
 20
14.4039599483
 10
-5.0233310654
 20
14.3911492008
  0
LINE
  5
357
100
AcDbEntity
  8
0
100
AcDbLine
 62
253
  6
CONTINUOUS
 10
-5.5910793871
 20
24.4167707165
 11
-5.5910793871
 21
25.1148109383
  0
LINE
  5
358
100
AcDbEntity
  8
RACCORDO
100
AcDbLine
 62
7
  6
CONTINUOUS
 10
-5.1697776748
 20
14.7348061698
 11
-5.1697776748
 21
13.4939892797
  0
LINE
  5
359
100
AcDbEntity
  8
RACCORDO
100
AcDbLine
 62
253
  6
CONTINUOUS
 10
-5.0233310654
 20
14.3911492008
 11
-5.0233310654
 21
13.31056589
  0
LWPOLYLINE
  5
35A
100
AcDbEntity
  8
RACCORDO
100
AcDbPolyline
 62
253
  6
CONTINUOUS
 90
14
 70
0
 10
-3.8393539075
 20
-32.5873365191
 10
-3.8393813439
 20
-32.6813736774
 10
-3.8338119684
 20
-32.7724079541
 10
-3.8226756106
 20
-32.8599631418
 10
-3.8060309819
 20
-32.9435782214
 10
-3.7839659453
 20
-33.0228200026
 10
-3.7565946062
 20
-33.0972832934
 10
-3.7240522135
 20
-33.1665872295
 10
-3.6865108019
 20
-33.2303568108
 10
-3.6441818671
 20
-33.2882390906
 10
-3.597299351
 20
-33.3399241633
 10
-3.5461003145
 20
-33.3851606616
 10
-3.4908348579
 20
-33.4237289115
 10
-3.4481144381
 20
-33.4475394024
  0
LWPOLYLINE
  5
35B
100
AcDbEntity
  8
0
100
AcDbPolyline
 62
7
  6
CONTINUOUS
 90
3
 70
0
 10
13.9967137848
 20
15.2508103462
 10
13.9808713073
 20
15.2395381643
 10
13.9591109874
 20
15.2265191094
  0
LWPOLYLINE
  5
35C
100
AcDbEntity
  8
0
100
AcDbPolyline
 62
7
  6
CONTINUOUS
 90
3
 70
0
 10
22.2292395317
 20
18.9636176091
 10
22.1346083063
 20
18.9034551408
 10
22.0305591308
 20
18.8471183654
  0
LWPOLYLINE
  5
35D
100
AcDbEntity
  8
RACCORDO
100
AcDbPolyline
 62
253
  6
CONTINUOUS
 90
19
 70
0
 10
0.2297269644
 20
5.6466869243
 10
0.1501185541
 20
5.5988298388
 10
0.0712756963
 20
5.544143837
 10
-0.006364742
 20
5.4829364986
 10
-0.0823764826
 20
5.4155528225
 10
-0.1563344624
 20
5.3423700614
 10
-0.2278173738
 20
5.2637960753
 10
-0.2964277016
 20
5.1802736822
 10
-0.3617876013
 20
5.0922699866
 10
-0.423528922
 20
5.0002702853
 10
-0.4813091544
 20
4.9047894491
 10
-0.5348087222
 20
4.8063623076
 10
-0.5837257556
 20
4.7055322054
 10
-0.627788972
 20
4.6028603969
 10
-0.6667532072
 20
4.4989238562
 10
-0.7003958649
 20
4.394304638
 10
-0.7285284394
 20
4.289588139
 10
-0.7509970228
 20
4.1853597312
 10
-0.7676769997
 20
4.0822021783
  0
LWPOLYLINE
  5
35E
100
AcDbEntity
  8
RACCORDO
100
AcDbPolyline
 62
253
  6
CONTINUOUS
 90
19
 70
0
 10
0.8150593484
 20
4.6818830111
 10
0.7774466736
 20
4.6596265788
 10
0.7405309579
 20
4.6344466968
 10
0.7043122015
 20
4.606343365
 10
0.6685746871
 20
4.5751164095
 10
0.6335341319
 20
4.5409660042
 10
0.5998376871
 20
4.5044926718
 10
0.5675285608
 20
4.4656696067
 10
0.536563545
 20
4.4245236144
 10
0.5074601672
 20
4.3817356344
 10
0.4802476585
 20
4.3372721441
 10
0.4548967877
 20
4.291166666
 10
0.431837389
 20
4.2442007072
 10
0.4111073882
 20
4.1963369442
 10
0.3926688594
 20
4.1476127006
 10
0.3768378588
 20
4.0989214536
 10
0.3637197385
 20
4.0505610293
 10
0.3532091464
 20
4.0022336018
 10
0.3453060825
 20
3.953939171
  0
LINE
  5
35F
100
AcDbEntity
  8
RACCORDO
100
AcDbLine
 62
253
  6
CONTINUOUS
 10
1.7986170757
 20
6.5031901512
 11
0.2297269644
 21
5.6466869243
  0
LINE
  5
360
100
AcDbEntity
  8
RACCORDO
100
AcDbLine
 62
253
  6
CONTINUOUS
 10
4.8282154139
 20
8.0294680817
 11
1.9304145942
 21
6.4474734379
  0
LINE
  5
361
100
AcDbEntity
  8
RACCORDO
100
AcDbLine
 62
253
  6
CONTINUOUS
 10
6.4910845831
 20
7.9740116887
 11
2.3543557133
 21
5.715649806
  0
LINE
  5
362
100
AcDbEntity
  8
RACCORDO
100
AcDbLine
 62
253
  6
CONTINUOUS
 10
2.3638719012
 20
5.5274253087
 11
0.8150593484
 21
4.6818830111
  0
LWPOLYLINE
  5
363
100
AcDbEntity
  8
RACCORDO
100
AcDbPolyline
 62
7
  6
CONTINUOUS
 90
33
 70
0
 10
11.6313563813
 20
12.25683591
 10
11.6398594736
 20
12.2612567816
 10
11.6483359139
 20
12.2662470526
 10
11.6567857021
 20
12.271806723
 10
11.665253263
 20
12.2779065267
 10
11.6736941719
 20
12.2845757297
 10
11.6819751546
 20
12.2919021306
 10
11.6901017141
 20
12.2998949936
 10
11.6980683475
 20
12.3085450544
 10
11.7057252724
 20
12.3179123188
 10
11.7130784644
 20
12.3280217891
 10
11.720121948
 20
12.3388484629
 10
11.7266880144
 20
12.3503773388
 10
11.7327726625
 20
12.3626598209
 10
11.7383798935
 20
12.3756445052
 10
11.7433540016
 20
12.3891621777
 10
11.74766132
 20
12.4031935932
 10
11.7513355155
 20
12.4177579971
 10
11.7543218841
 20
12.4327439106
 10
11.7566117717
 20
12.448127213
 10
11.7582138324
 20
12.4639320252
 10
11.7590993233
 20
12.4801192309
 10
11.759269395
 20
12.4967019116
 10
11.758722897
 20
12.5136669859
 10
11.7574276351
 20
12.5309360932
 10
11.7553888148
 20
12.5484888515
 10
11.7526012307
 20
12.5663456429
 10
11.7490170718
 20
12.5844892522
 10
11.7446257242
 20
12.6029635649
 10
11.7394378019
 20
12.6217246956
 10
11.7334373362
 20
12.6406237734
 10
11.7266190548
 20
12.6596521489
 10
11.7204938091
 20
12.6751885389
  0
LINE
  5
364
100
AcDbEntity
  8
RACCORDO
100
AcDbLine
 62
7
  6
CONTINUOUS
 10
11.6421169239
 20
11.9308345614
 11
6.2542509168
 21
9.1313749295
  0
LINE
  5
365
100
AcDbEntity
  8
RACCORDO
100
AcDbLine
 62
7
  6
CONTINUOUS
 10
11.6313563813
 20
12.25683591
 11
6.0399149187
 21
9.4368621392
  0
LINE
  5
366
100
AcDbEntity
  8
0
100
AcDbLine
 62
7
  6
CONTINUOUS
 10
25.5660930367
 20
17.0793514124
 11
25.5340484429
 21
17.0636519126
  0
LINE
  5
367
100
AcDbEntity
  8
0
100
AcDbLine
 62
7
  6
CONTINUOUS
 10
12.3890188316
 20
11.6415541115
 11
6.713623643
 21
8.8847360774
  0
LINE
  5
368
100
AcDbEntity
  8
0
100
AcDbLine
 62
253
  6
CONTINUOUS
 10
13.071598534
 20
10.4642782706
 11
27.9588685254
 21
17.6957560843
  0
LINE
  5
369
100
AcDbEntity
  8
0
100
AcDbLine
 62
253
  6
CONTINUOUS
 10
27.9588685254
 20
17.6957560843
 11
30.4701772985
 21
18.9168788472
  0
LINE
  5
36A
100
AcDbEntity
  8
0
100
AcDbLine
 62
253
  6
CONTINUOUS
 10
13.4092668678
 20
9.8818865436
 11
28.458792373
 21
17.192179825
  0
LWPOLYLINE
  5
36B
100
AcDbEntity
  8
0
100
AcDbPolyline
 62
7
  6
CONTINUOUS
 90
32
 70
0
 10
25.5333655396
 20
17.0633214573
 10
25.5067636307
 20
17.0508250398
 10
25.3888893225
 20
17.0004525779
 10
25.2607228357
 20
16.9535924134
 10
25.1227664635
 20
16.9108257417
 10
24.9759677159
 20
16.8727609645
 10
24.8217015562
 20
16.8399812175
 10
24.6609137232
 20
16.812873368
 10
24.4946178576
 20
16.7917578529
 10
24.3243674802
 20
16.7769411087
 10
24.1512810914
 20
16.7686098794
 10
23.9765719547
 20
16.7668790797
 10
23.8019649075
 20
16.7717765014
 10
23.6286784984
 20
16.7832556703
 10
23.4578808239
 20
16.8011976117
 10
23.2912007896
 20
16.825348714
 10
23.1297419921
 20
16.8554444121
 10
22.9745512521
 20
16.8911496418
 10
22.8270986133
 20
16.9319291374
 10
22.6885858556
 20
16.9771911117
 10
22.5593962257
 20
17.0265018579
 10
22.4398403256
 20
17.0794519823
 10
22.3314399084
 20
17.1350054122
 10
22.2337922481
 20
17.1929301267
 10
22.1453930505
 20
17.2539922351
 10
22.0667908688
 20
17.3181189938
 10
22.0001314172
 20
17.3837631051
 10
21.9470259953
 20
17.4488952481
 10
21.9083191592
 20
17.5110602422
 10
21.8827322253
 20
17.5699541545
 10
21.8688317942
 20
17.6272946913
 10
21.8660286222
 20
17.6726101032
  0
LINE
  5
36C
100
AcDbEntity
  8
0
100
AcDbLine
 62
253
  6
CONTINUOUS
 10
29.7221616481
 20
17.7780200705
 11
30.9949425926
 21
18.3694281301
  0
LINE
  5
36D
100
AcDbEntity
  8
0
100
AcDbLine
 62
253
  6
CONTINUOUS
 10
28.458792373
 20
17.192179825
 11
29.7221616481
 21
17.7780200705
  0
LINE
  5
36E
100
AcDbEntity
  8
RACCORDO
100
AcDbLine
 62
253
  6
CONTINUOUS
 10
6.6063187163
 20
8.9553410298
 11
5.9701164853
 21
8.6615217565
  0
LINE
  5
36F
100
AcDbEntity
  8
RACCORDO
100
AcDbLine
 62
253
  6
CONTINUOUS
 10
7.0307766571
 20
8.2232593732
 11
6.4910845831
 21
7.9740116887
  0
LINE
  5
370
100
AcDbEntity
  8
0
100
AcDbLine
 62
253
  6
CONTINUOUS
 10
25.6667425558
 20
17.054402345
 11
25.5328765194
 21
16.9952752153
  0
LINE
  5
371
100
AcDbEntity
  8
0
100
AcDbLine
 62
7
  6
CONTINUOUS
 10
-20.7340111107
 20
6.2288141425
 11
-12.95583661
 21
2.3397268921
  0
LWPOLYLINE
  5
372
100
AcDbEntity
  8
0
100
AcDbPolyline
 62
7
  6
CONTINUOUS
 90
46
 70
0
 10
-20.7340111107
 20
6.2288141425
 10
-20.8858012867
 20
6.3117508169
 10
-21.0341815969
 20
6.4061942563
 10
-21.1791500086
 20
6.512145111
 10
-21.3212672002
 20
6.6301420291
 10
-21.4599643723
 20
6.7596489579
 10
-21.5935436367
 20
6.899055019
 10
-21.721969828
 20
7.0485168502
 10
-21.845263129
 20
7.2078825822
 10
-21.9618082007
 20
7.3750787186
 10
-22.0714729552
 20
7.5501469681
 10
-22.1743700012
 20
7.7330517782
 10
-22.2692521294
 20
7.9216034025
 10
-22.3560525795
 20
8.1159353047
 10
-22.4348167529
 20
8.3159207031
 10
-22.5044686841
 20
8.5189785155
 10
-22.5648665067
 20
8.725204551
 10
-22.6161322776
 20
8.9345091087
 10
-22.6575912499
 20
9.1440311458
 10
-22.6890966586
 20
9.3536696408
 10
-22.7107807636
 20
9.5635299826
 10
-22.7223941987
 20
9.7710585941
 10
-22.7238076337
 20
9.9762558371
 10
-22.7151423577
 20
10.1791236529
 10
-22.6965325563
 20
10.3771084676
 10
-22.6678741177
 20
10.5701417808
 10
-22.6292711868
 20
10.7582918901
 10
-22.5811783875
 20
10.9392079506
 10
-22.5234727346
 20
11.1128094691
 10
-22.4562850866
 20
11.2791743656
 10
-22.380458513
 20
11.4361870926
 10
-22.2958874396
 20
11.5837522679
 10
-22.2026921426
 20
11.7219606937
 10
-22.1020612666
 20
11.8489740684
 10
-21.9938825502
 20
11.9646308492
 10
-21.8782878029
 20
12.0690866271
 10
-21.7568370301
 20
12.1609772528
 10
-21.6295373968
 20
12.2401174074
 10
-21.4964030908
 20
12.3066860063
 10
-21.3590077424
 20
12.3598643549
 10
-21.2172395974
 20
12.3995036636
 10
-21.0712298815
 20
12.4257469454
 10
-20.9229178327
 20
12.438212887
 10
-20.7722893408
 20
12.4367079864
 10
-20.6193735771
 20
12.4214213116
 10
-20.4661742748
 20
12.3925455378
  0
LWPOLYLINE
  5
373
100
AcDbEntity
  8
RACCORDO
100
AcDbPolyline
 62
253
  6
CONTINUOUS
 90
6
 70
0
 10
-13.0265928605
 20
3.7390067461
 10
-13.0394365807
 20
3.7462025389
 10
-13.0521705532
 20
3.7583349337
 10
-13.0625296916
 20
3.7743544769
 10
-13.0702711106
 20
3.7938855665
 10
-13.0752133011
 20
3.8164702669
  0
LINE
  5
374
100
AcDbEntity
  8
RACCORDO
100
AcDbLine
 62
253
  6
CONTINUOUS
 10
-17.1696399273
 20
5.8186529045
 11
-17.6287590189
 21
6.0932388708
  0
LWPOLYLINE
  5
375
100
AcDbEntity
  8
RACCORDO
100
AcDbPolyline
 62
7
  6
CONTINUOUS
 90
9
 70
0
 10
-17.5807471569
 20
6.0162640375
 10
-17.1525595262
 20
5.7597660137
 10
-16.6716062663
 20
5.4840893996
 10
-16.1782685223
 20
5.2139678876
 10
-15.6727993045
 20
4.9495295354
 10
-15.1554593032
 20
4.6909065975
 10
-14.6265268244
 20
4.4382317281
 10
-14.0862810931
 20
4.1916292365
 10
-13.534992082
 20
3.951219055
  0
LINE
  5
376
100
AcDbEntity
  8
RACCORDO
100
AcDbLine
 62
7
  6
CONTINUOUS
 10
-17.5806075114
 20
6.0161788234
 11
-17.5807471501
 21
6.0162640712
  0
LINE
  5
377
100
AcDbEntity
  8
RACCORDO
100
AcDbLine
 62
7
  6
CONTINUOUS
 10
-17.6287574834
 20
6.0467840615
 11
-17.5806075114
 21
6.0161788234
  0
LWPOLYLINE
  5
378
100
AcDbEntity
  8
RACCORDO
100
AcDbPolyline
 62
253
  6
CONTINUOUS
 90
6
 70
0
 10
-17.5807471501
 20
6.0162640712
 10
-17.5847427983
 20
6.0188556813
 10
-17.6003887261
 20
6.0324424464
 10
-17.6131269179
 20
6.0496499443
 10
-17.6226587093
 20
6.0700747215
 10
-17.6287606142
 20
6.0932378906
  0
LWPOLYLINE
  5
379
100
AcDbEntity
  8
RACCORDO
100
AcDbPolyline
 62
253
  6
CONTINUOUS
 90
46
 70
0
 10
-17.6287590189
 20
6.0932388708
 10
-17.7041905002
 20
6.1426278945
 10
-17.7796236015
 20
6.1984986107
 10
-17.8550283036
 20
6.2608828589
 10
-17.9307738407
 20
6.3302322351
 10
-18.006317954
 20
6.4062195832
 10
-18.080233872
 20
6.4877233049
 10
-18.1523351569
 20
6.5749486062
 10
-18.2224738841
 20
6.6678808397
 10
-18.2892983575
 20
6.7650498547
 10
-18.3525121056
 20
6.866544983
 10
-18.4119786429
 20
6.9724656658
 10
-18.4666487132
 20
7.0813095031
 10
-18.516250641
 20
7.1931793415
 10
-18.560599762
 20
7.3081046264
 10
-18.598890127
 20
7.4244059164
 10
-18.6308543077
 20
7.5420218436
 10
-18.6563812958
 20
7.6610514806
 10
-18.675049871
 20
7.7799865113
 10
-18.6866963496
 20
7.8987170724
 10
-18.6912325758
 20
8.0173054808
 10
-18.6885051309
 20
8.1344482649
 10
-18.6784274255
 20
8.2501491512
 10
-18.6609679442
 20
8.3643040782
 10
-18.6362222419
 20
8.4754115018
 10
-18.6041557897
 20
8.5834576043
 10
-18.5648624911
 20
8.6883337247
 10
-18.5188247653
 20
8.7883764602
 10
-18.4660173422
 20
8.8835981211
 10
-18.4067144933
 20
8.9738849739
 10
-18.3420675841
 20
9.0573846363
 10
-18.2721548482
 20
9.1339585065
 10
-18.1973387668
 20
9.2037045274
 10
-18.1194042437
 20
9.2651410142
 10
-18.0384852014
 20
9.3180149677
 10
-17.9549754089
 20
9.3626134345
 10
-17.8711886651
 20
9.3982791833
 10
-17.7877451141
 20
9.4246629928
 10
-17.70450913
 20
9.4421856181
 10
-17.6226917748
 20
9.451341952
 10
-17.5425634732
 20
9.4520873246
 10
-17.4641376407
 20
9.4445226068
 10
-17.3882072954
 20
9.4293451979
 10
-17.3150737824
 20
9.4067902074
 10
-17.2445408955
 20
9.3766352728
 10
-17.1766171735
 20
9.3388768769
  0
LINE
  5
37A
100
AcDbEntity
  8
RACCORDO
100
AcDbLine
 62
7
  6
CONTINUOUS
 10
-17.7215263226
 20
6.1121905854
 11
-17.6287574834
 21
6.0467840615
  0
LWPOLYLINE
  5
37B
100
AcDbEntity
  8
RACCORDO
100
AcDbPolyline
 62
253
  6
CONTINUOUS
 90
22
 70
0
 10
-2.7183198426
 20
-32.617744012
 10
-2.7183156003
 20
-32.6617595239
 10
-2.7157224517
 20
-32.7040262493
 10
-2.7105403967
 20
-32.7445441881
 10
-2.7027170369
 20
-32.7835279458
 10
-2.6923047708
 20
-32.820762917
 10
-2.6794607935
 20
-32.8556052855
 10
-2.6641444365
 20
-32.887999895
 10
-2.6463963683
 20
-32.9180019018
 10
-2.6264957896
 20
-32.9451329588
 10
-2.6044125372
 20
-32.9693434676
 10
-2.5801767744
 20
-32.9906830265
 10
-2.5541581913
 20
-33.0088220835
 10
-2.5263206782
 20
-33.0237134525
 10
-2.4967003449
 20
-33.0354043195
 10
-2.4657752115
 20
-33.0437066906
 10
-2.4335136882
 20
-33.0485572887
 10
-2.399947365
 20
-33.0500193908
 10
-2.365649031
 20
-33.0480948335
 10
-2.3308096161
 20
-33.0427842289
 10
-2.2952381905
 20
-33.0340869649
 10
-2.2589347542
 20
-33.0220030413
  0
LINE
  5
37C
100
AcDbEntity
  8
0
100
AcDbLine
 62
7
  6
CONTINUOUS
 10
-1.8434134468
 20
21.8481288068
 11
-1.8434134468
 21
22.4196595841
  0
LINE
  5
37D
100
AcDbEntity
  8
0
100
AcDbLine
 62
7
  6
CONTINUOUS
 10
-1.6312814125
 20
21.9496598651
 11
-1.6312814125
 21
22.0161918743
  0
LINE
  5
37E
100
AcDbEntity
  8
0
100
AcDbLine
 62
7
  6
CONTINUOUS
 10
-0.9241746313
 20
22.3697452649
 11
-0.9241746313
 21
22.288096726
  0
LINE
  5
37F
100
AcDbEntity
  8
0
100
AcDbLine
 62
253
  6
CONTINUOUS
 10
-0.6413319188
 20
22.4234714704
 11
-0.6413319188
 21
22.6399372041
  0
LINE
  5
380
100
AcDbEntity
  8
0
100
AcDbLine
 62
7
  6
CONTINUOUS
 10
0.0837702709
 20
19.2876830643
 11
0.0837702709
 21
18.2561633091
  0
LINE
  5
381
100
AcDbEntity
  8
DRAFT
100
AcDbLine
 62
253
  6
CONTINUOUS
 10
0.2779068967
 20
14.6106826137
 11
0.2779068967
 21
15.1195737409
  0
LWPOLYLINE
  5
382
100
AcDbEntity
  8
RACCORDO
100
AcDbPolyline
 62
253
  6
CONTINUOUS
 90
13
 70
0
 10
-0.7676769997
 20
4.0822021783
 10
-1.1755146994
 20
0.9757892186
 10
-1.5558760865
 20
-2.1227445713
 10
-1.9087129593
 20
-5.2129991322
 10
-2.2339812581
 20
-8.2945751376
 10
-2.5316391136
 20
-11.3670751432
 10
-2.8016468487
 20
-14.4301036367
 10
-3.0439700654
 20
-17.4832653507
 10
-3.258578242
 20
-20.5261661411
 10
-3.4454427734
 20
-23.558414134
 10
-3.6045395105
 20
-26.5796183084
 10
-3.7358487668
 20
-29.5893885485
 10
-3.8393539075
 20
-32.5873365191
  0
LWPOLYLINE
  5
383
100
AcDbEntity
  8
RACCORDO
100
AcDbPolyline
 62
253
  6
CONTINUOUS
 90
13
 70
0
 10
0.3453060825
 20
3.953939171
 10
-0.0615356344
 20
0.8551687368
 10
-0.4408833064
 20
-2.2349537851
 10
-0.7927369336
 20
-5.3164283947
 10
-1.117135043
 20
-8.389652171
 10
-1.4140391076
 20
-11.4542280349
 10
-1.6833335464
 20
-14.5089647492
 10
-1.9250075003
 20
-17.5538591754
 10
-2.1390718285
 20
-20.588914452
 10
-2.3254435271
 20
-23.6129487562
 10
-2.4840949284
 20
-26.6255681472
 10
-2.6150537002
 20
-29.6271665658
 10
-2.7183198426
 20
-32.617744012
  0
LINE
  5
384
100
AcDbEntity
  8
RACCORDO
100
AcDbLine
 62
253
  6
CONTINUOUS
 10
5.9701164853
 20
9.4414411725
 11
6.498383657
 21
10.0843933283
  0
LINE
  5
385
100
AcDbEntity
  8
RACCORDO
100
AcDbLine
 62
7
  6
CONTINUOUS
 10
5.9701164853
 20
9.3519107062
 11
6.5137442294
 21
10.0135581617
  0
LWPOLYLINE
  5
386
100
AcDbEntity
  8
RACCORDO
100
AcDbPolyline
 62
7
  6
CONTINUOUS
 90
36
 70
0
 10
5.0800563026
 20
8.8772865645
 10
5.0734157008
 20
8.8695478824
 10
5.0665280935
 20
8.861905644
 10
5.0593955111
 20
8.8543728335
 10
5.0520160122
 20
8.8469639067
 10
5.0443969092
 20
8.8396906111
 10
5.0365546602
 20
8.8325620551
 10
5.0284928105
 20
8.8255917059
 10
5.0202156346
 20
8.8187927269
 10
5.0117411429
 20
8.8121739972
 10
5.0030741958
 20
8.80574908
 10
4.994220309
 20
8.7995311926
 10
4.9851989322
 20
8.7935289303
 10
4.976016272
 20
8.7877558035
 10
4.9666791421
 20
8.7822249543
 10
4.9572083675
 20
8.7769446738
 10
4.9476115305
 20
8.7719282586
 10
4.9378968077
 20
8.7671886334
 10
4.9280864096
 20
8.7627337869
 10
4.9181893411
 20
8.7585766239
 10
4.9082151987
 20
8.7547296732
 10
4.8981876254
 20
8.7512005951
 10
4.8881171053
 20
8.7480016897
 10
4.8780147023
 20
8.7451448652
 10
4.8679055393
 20
8.7426373651
 10
4.8578016464
 20
8.7404906217
 10
4.8477155718
 20
8.7387156373
 10
4.837673896
 20
8.7373190484
 10
4.82769027
 20
8.7363110974
 10
4.817778682
 20
8.7357015231
 10
4.8079669544
 20
8.7354960489
 10
4.7982703997
 20
8.7357033373
 10
4.7887043441
 20
8.7363314547
 10
4.779297389
 20
8.7373848298
 10
4.7700768566
 20
8.7388681913
 10
4.7661870371
 20
8.7396364657
  0
LWPOLYLINE
  5
387
100
AcDbEntity
  8
0
100
AcDbPolyline
 62
7
  6
CONTINUOUS
 90
3
 70
0
 10
25.7647734376
 20
17.1958506561
 10
25.6701422122
 20
17.1356881878
 10
25.5660930367
 20
17.0793514124
  0
LINE
  5
388
100
AcDbEntity
  8
0
100
AcDbLine
 62
253
  6
CONTINUOUS
 10
28.458792373
 20
17.192179825
 11
7.0307766571
 21
6.2906171023
  0
LINE
  5
389
100
AcDbEntity
  8
0
100
AcDbLine
 62
253
  6
CONTINUOUS
 10
31.3596484884
 20
17.0256646759
 11
7.0307766571
 21
4.6482833188
  0
LINE
  5
38A
100
AcDbEntity
  8
0
100
AcDbLine
 62
7
  6
CONTINUOUS
 10
-12.1888099603
 20
3.6723265832
 11
-12.1116391483
 21
3.6460287424
  0
LINE
  5
38B
100
AcDbEntity
  8
RACCORDO
100
AcDbLine
 62
253
  6
CONTINUOUS
 10
-12.983414963
 20
3.782283039
 11
-13.0752164163
 21
3.8164675695
  0
LWPOLYLINE
  5
38C
100
AcDbEntity
  8
RACCORDO
100
AcDbPolyline
 62
7
  6
CONTINUOUS
 90
11
 70
0
 10
-13.0265923182
 20
3.7390080959
 10
-12.9632743621
 20
3.7145122549
 10
-12.8507360928
 20
3.6778745239
 10
-12.7397442737
 20
3.6506781135
 10
-12.6307200844
 20
3.6330937428
 10
-12.5240126218
 20
3.6252360829
 10
-12.4200968437
 20
3.6272258109
 10
-12.3192462133
 20
3.6391571983
 10
-12.2219896517
 20
3.6610287423
 10
-12.1293125303
 20
3.6925857379
 10
-12.0707152409
 20
3.7186495734
  0
LINE
  5
38D
100
AcDbEntity
  8
RACCORDO
100
AcDbLine
 62
7
  6
CONTINUOUS
 10
-13.0265603463
 20
3.7389934443
 11
-13.0265928605
 21
3.7390067461
  0
LINE
  5
38E
100
AcDbEntity
  8
RACCORDO
100
AcDbLine
 62
7
  6
CONTINUOUS
 10
-13.534992082
 20
3.951219055
 11
-13.0265603463
 21
3.7389934443
  0
LWPOLYLINE
  5
38F
100
AcDbEntity
  8
RACCORDO
100
AcDbPolyline
 62
253
  6
CONTINUOUS
 90
9
 70
0
 10
-13.0752164163
 20
3.8164675695
 10
-13.6254043248
 20
4.046534509
 10
-14.1651808716
 20
4.2826271854
 10
-14.6942694924
 20
4.5246279042
 10
-15.2124321478
 20
4.772432097
 10
-15.719368306
 20
5.0259003873
 10
-16.2147224614
 20
5.28485496
 10
-16.6982159976
 20
5.5491454905
 10
-17.1696399273
 20
5.8186529045
  0
LINE
  5
390
100
AcDbEntity
  8
0
100
AcDbLine
 62
7
  6
CONTINUOUS
 10
-18.2771045099
 20
6.7047730334
 11
-20.1151687557
 21
7.6238051563
  0
LINE
  5
391
100
AcDbEntity
  8
0
100
AcDbLine
 62
7
  6
CONTINUOUS
 10
-18.5462366016
 20
7.198197418
 11
-19.7563104169
 21
7.8032343257
  0
LINE
  5
392
100
AcDbEntity
  8
RACCORDO
100
AcDbLine
 62
7
  6
CONTINUOUS
 10
-11.1304033025
 20
3.9013436008
 11
-11.4087731174
 21
4.0405285082
  0
LINE
  5
393
100
AcDbEntity
  8
RACCORDO
100
AcDbLine
 62
7
  6
CONTINUOUS
 10
-18.6922705424
 20
7.6822772207
 11
-20.4277940991
 21
8.5500389991
  0
LINE
  5
394
100
AcDbEntity
  8
RACCORDO
100
AcDbLine
 62
7
  6
CONTINUOUS
 10
-19.2044590895
 20
9.1688037336
 11
-19.0968189078
 21
9.1149836428
  0
LINE
  5
395
100
AcDbEntity
  8
RACCORDO
100
AcDbLine
 62
7
  6
CONTINUOUS
 10
-19.7768611803
 20
9.8125991252
 11
-18.3926348696
 21
9.1204859699
  0
LINE
  5
396
100
AcDbEntity
  8
RACCORDO
100
AcDbLine
 62
253
  6
CONTINUOUS
 10
-19.8201564828
 20
9.916432218
 11
-18.3458175266
 21
9.1792627399
  0
LWPOLYLINE
  5
397
100
AcDbEntity
  8
RACCORDO
100
AcDbPolyline
 62
7
  6
CONTINUOUS
 90
10
 70
0
 10
-20.4277940991
 20
8.5500389991
 10
-20.4515122176
 20
8.5624429807
 10
-20.4750657935
 20
8.5758692399
 10
-20.4984548133
 20
8.5903177808
 10
-20.5217208001
 20
8.6058162072
 10
-20.5448221756
 20
8.6223369328
 10
-20.5676342606
 20
8.6397971813
 10
-20.5901431305
 20
8.6581954343
 10
-20.612362602
 20
8.6775332442
 10
-20.6161777636
 20
8.6810606495
  0
LWPOLYLINE
  5
398
100
AcDbEntity
  8
0
100
AcDbPolyline
 62
7
  6
CONTINUOUS
 90
28
 70
0
 10
-19.7563104169
 20
7.8032343257
 10
-19.8693353952
 20
7.8659925489
 10
-19.9808200097
 20
7.940487859
 10
-20.0900117648
 20
8.0263659792
 10
-20.196459787
 20
8.1235540092
 10
-20.2990694777
 20
8.2312379076
 10
-20.3962205311
 20
8.3475590499
 10
-20.4867728656
 20
8.4709113897
 10
-20.5707479643
 20
8.6009971711
 10
-20.6483418539
 20
8.7377452263
 10
-20.7190707283
 20
8.8805445913
 10
-20.7822946464
 20
9.0283098955
 10
-20.8378783889
 20
9.180363634
 10
-20.8854370754
 20
9.3362041371
 10
-20.9243459988
 20
9.4944683785
 10
-20.9542678637
 20
9.6531454396
 10
-20.9749002863
 20
9.8108006307
 10
-20.9862257111
 20
9.9669126682
 10
-20.988485406
 20
10.1208339266
 10
-20.9815689813
 20
10.2717336426
 10
-20.9653967163
 20
10.4185723032
 10
-20.9402448966
 20
10.5603942494
 10
-20.9061383357
 20
10.6963711221
 10
-20.8631876118
 20
10.825605787
 10
-20.8118799367
 20
10.9470916224
 10
-20.752419128
 20
11.0601293152
 10
-20.6851067987
 20
11.1639693596
 10
-20.6107160527
 20
11.2576680921
  0
LWPOLYLINE
  5
399
100
AcDbEntity
  8
RACCORDO
100
AcDbPolyline
 62
253
  6
CONTINUOUS
 90
10
 70
0
 10
-17.0449007888
 20
9.4760876057
 10
-16.5892696919
 20
9.2014452661
 10
-16.1216228556
 20
8.9325016768
 10
-15.6419602796
 20
8.6692568377
 10
-15.1499944421
 20
8.4115668844
 10
-14.646012865
 20
8.1595756814
 10
-14.1308781146
 20
7.9137148226
 10
-13.6048777128
 20
7.6741281728
 10
-13.0677241377
 20
7.4406718672
 10
-12.5194173892
 20
7.2133459059
  0
LWPOLYLINE
  5
39A
100
AcDbEntity
  8
RACCORDO
100
AcDbPolyline
 62
253
  6
CONTINUOUS
 90
10
 70
0
 10
-17.1766171735
 20
9.3388768769
 10
-16.7189546676
 20
9.0629624235
 10
-16.2486800056
 20
8.7924847182
 10
-15.7660395214
 20
8.5275895064
 10
-15.2712506983
 20
8.2684014399
 10
-14.7646072874
 20
8.0150795164
 10
-14.2464874283
 20
7.7678128734
 10
-13.7172089756
 20
7.5267484466
 10
-13.1770210875
 20
7.29199503
 10
-12.6262150969
 20
7.0636758385
  0
LWPOLYLINE
  5
39B
100
AcDbEntity
  8
ASSI
100
AcDbPolyline
 62
7
  6
CONTINUOUS
 90
6
 70
0
 10
1.4441388078
 20
17.4259244263
 10
1.4438816476
 20
17.4286328129
 10
1.4428406688
 20
17.4315964487
 10
1.441041402
 20
17.4340527947
 10
1.4385266123
 20
17.4360165441
 10
1.4373639524
 20
17.4366555188
  0
LWPOLYLINE
  5
39C
100
AcDbEntity
  8
RACCORDO
100
AcDbPolyline
 62
253
  6
CONTINUOUS
 90
16
 70
0
 10
0.8150593484
 20
4.6818830111
 10
0.8088728523
 20
4.7542154575
 10
0.7966726464
 20
4.8289052968
 10
0.7785921889
 20
4.9051352035
 10
0.7548292877
 20
4.9820709913
 10
0.7256439405
 20
5.0588707291
 10
0.6913554938
 20
5.1346939545
 10
0.6523391368
 20
5.2087108991
 10
0.6090218098
 20
5.2801115377
 10
0.5618775449
 20
5.3481144443
 10
0.5114222406
 20
5.411975404
 10
0.4582080432
 20
5.470995512
 10
0.4028173302
 20
5.5245288046
 10
0.3458562843
 20
5.5719893928
 10
0.2879482538
 20
5.6128578624
 10
0.2297269675
 20
5.646686926
  0
LWPOLYLINE
  5
39D
100
AcDbEntity
  8
RACCORDO
100
AcDbPolyline
 62
7
  6
CONTINUOUS
 90
23
 70
0
 10
2.6181057503
 20
-31.8623945747
 10
2.6184346405
 20
-31.8752139316
 10
2.6194260277
 20
-31.8880537824
 10
2.6210846955
 20
-31.9008731208
 10
2.6234135097
 20
-31.913636231
 10
2.6264102724
 20
-31.9262952473
 10
2.6300648997
 20
-31.9387919139
 10
2.6343584607
 20
-31.9510636482
 10
2.6392840726
 20
-31.9630953183
 10
2.6448512455
 20
-31.9748998016
 10
2.6510597146
 20
-31.9864551177
 10
2.6578874231
 20
-31.9977025747
 10
2.6653154875
 20
-32.0086002836
 10
2.6733328691
 20
-32.0191221239
 10
2.6819122748
 20
-32.0292237978
 10
2.6910047989
 20
-32.038846418
 10
2.7005792335
 20
-32.0479609136
 10
2.7106131047
 20
-32.0565493237
 10
2.7210675035
 20
-32.0645819976
 10
2.7319209368
 20
-32.0720459438
 10
2.743142943
 20
-32.0789223946
 10
2.7546825489
 20
-32.0851841108
 10
4.0812870312
 20
-32.7484937124
  0
LWPOLYLINE
  5
39E
100
AcDbEntity
  8
RACCORDO
100
AcDbPolyline
 62
253
  6
CONTINUOUS
 90
18
 70
0
 10
2.691329055
 20
-31.9507829224
 10
2.6915684099
 20
-31.9619260676
 10
2.6922864151
 20
-31.9728062881
 10
2.6934820052
 20
-31.9833935589
 10
2.6951532027
 20
-31.9936606288
 10
2.6972961376
 20
-32.0035767449
 10
2.6999040931
 20
-32.0131084933
 10
2.7029692651
 20
-32.0222280222
 10
2.7064838194
 20
-32.0309125933
 10
2.7104383006
 20
-32.039138784
 10
2.7148220644
 20
-32.0468843081
 10
2.719623144
 20
-32.0541278923
 10
2.7248283495
 20
-32.0608495976
 10
2.7304234385
 20
-32.0670310601
 10
2.7363932414
 20
-32.0726555469
 10
2.7427215633
 20
-32.0777077955
 10
2.7493912144
 20
-32.082174062
 10
2.7563023514
 20
-32.0860013725
  0
LWPOLYLINE
  5
39F
100
AcDbEntity
  8
RACCORDO
100
AcDbPolyline
 62
253
  6
CONTINUOUS
 90
18
 70
0
 10
4.0163137348
 20
-32.6132752623
 10
4.0165530897
 20
-32.6244184075
 10
4.0172710949
 20
-32.635298628
 10
4.018466685
 20
-32.6458858988
 10
4.0201378825
 20
-32.6561529687
 10
4.0222808174
 20
-32.6660690848
 10
4.0248887729
 20
-32.6756008332
 10
4.0279539449
 20
-32.6847203621
 10
4.0314684992
 20
-32.6934049332
 10
4.0354229804
 20
-32.7016311239
 10
4.0398067442
 20
-32.709376648
 10
4.0446078239
 20
-32.7166202322
 10
4.0498130293
 20
-32.7233419375
 10
4.0554081183
 20
-32.7295234
 10
4.0613779212
 20
-32.7351478868
 10
4.0677062431
 20
-32.7402001354
 10
4.0743758942
 20
-32.7446664019
 10
4.0812870312
 20
-32.7484937124
  0
LWPOLYLINE
  5
3A0
100
AcDbEntity
  8
RACCORDO
100
AcDbPolyline
 62
253
  6
CONTINUOUS
 90
19
 70
0
 10
2.691329055
 20
9.6887951512
 10
2.6915489097
 20
9.6781104946
 10
2.6922079269
 20
9.6676722682
 10
2.6933044677
 20
9.6575064357
 10
2.6948357986
 20
9.6476383172
 10
2.6967981139
 20
9.6380924225
 10
2.6991865597
 20
9.6288924021
 10
2.7019952298
 20
9.6200610902
 10
2.7052171353
 20
9.6116205331
 10
2.7088442329
 20
9.6035918248
 10
2.7128675125
 20
9.5959949139
 10
2.7172769551
 20
9.5888487231
 10
2.7220614916
 20
9.5821711577
 10
2.727209125
 20
9.5759788804
 10
2.732707093
 20
9.570287168
 10
2.7385418267
 20
9.5651100418
 10
2.7447000432
 20
9.5604595268
 10
2.7511653174
 20
9.5563482531
 10
2.7563023514
 20
9.553576701
  0
LINE
  5
3A1
100
AcDbEntity
  8
RACCORDO
100
AcDbLine
 62
253
  6
CONTINUOUS
 10
0.4879760343
 20
10.5549123401
 11
0.4879760343
 21
11.6354956509
  0
LINE
  5
3A2
100
AcDbEntity
  8
DRAFT
100
AcDbLine
 62
7
  6
CONTINUOUS
 10
0.9850136779
 20
15.4731271315
 11
0.9850136779
 21
15.9871340833
  0
LINE
  5
3A3
100
AcDbEntity
  8
RACCORDO
100
AcDbLine
 62
253
  6
CONTINUOUS
 10
1.1930199536
 20
10.5764481034
 11
1.1930199536
 21
11.8091750757
  0
LINE
  5
3A4
100
AcDbEntity
  8
ASSI
100
AcDbLine
 62
253
  6
CONTINUOUS
 10
1.3187893006
 20
16.1468864389
 11
1.3187893006
 21
17.416356273
  0
LINE
  5
3A5
100
AcDbEntity
  8
DRAFT
100
AcDbLine
 62
7
  6
CONTINUOUS
 10
1.3385670685
 20
15.2963504362
 11
1.3385670685
 21
15.810357388
  0
LINE
  5
3A6
100
AcDbEntity
  8
ASSI
100
AcDbLine
 62
7
  6
CONTINUOUS
 10
1.4441388078
 20
16.2936221077
 11
1.4441388078
 21
17.425924413
  0
LINE
  5
3A7
100
AcDbEntity
  8
DRAFT
100
AcDbLine
 62
7
  6
CONTINUOUS
 10
1.5506991029
 20
11.9884796206
 11
1.5506991029
 21
10.7760440553
  0
LINE
  5
3A8
100
AcDbEntity
  8
DRAFT
100
AcDbLine
 62
253
  6
CONTINUOUS
 10
1.6921204591
 20
14.5407225839
 11
1.6921204591
 21
15.1195737409
  0
LINE
  5
3A9
100
AcDbEntity
  8
RACCORDO
100
AcDbLine
 62
7
  6
CONTINUOUS
 10
2.3543557133
 20
5.715649806
 11
2.3543557133
 21
5.657475862
  0
LINE
  5
3AA
100
AcDbEntity
  8
RACCORDO
100
AcDbLine
 62
7
  6
CONTINUOUS
 10
2.3543557133
 20
-31.3976119138
 11
2.3543557133
 21
-31.4174341237
  0
LINE
  5
3AB
100
AcDbEntity
  8
RACCORDO
100
AcDbLine
 62
7
  6
CONTINUOUS
 10
2.3638719012
 20
-31.2767486432
 11
2.3638719012
 21
5.5274253087
  0
LINE
  5
3AC
100
AcDbEntity
  8
RACCORDO
100
AcDbLine
 62
7
  6
CONTINUOUS
 10
2.6181057503
 20
10.1171574329
 11
2.6181057503
 21
9.7771834988
  0
LINE
  5
3AD
100
AcDbEntity
  8
RACCORDO
100
AcDbLine
 62
7
  6
CONTINUOUS
 10
2.6181057503
 20
-31.5811108987
 11
2.6181057503
 21
-31.8623945747
  0
LINE
  5
3AE
100
AcDbEntity
  8
RACCORDO
100
AcDbLine
 62
253
  6
CONTINUOUS
 10
2.691329055
 20
10.0287690853
 11
2.691329055
 21
9.6887951512
  0
LINE
  5
3AF
100
AcDbEntity
  8
RACCORDO
100
AcDbLine
 62
253
  6
CONTINUOUS
 10
2.691329055
 20
-31.6108089882
 11
2.691329055
 21
-31.9507829224
  0
LINE
  5
3B0
100
AcDbEntity
  8
RACCORDO
100
AcDbLine
 62
7
  6
CONTINUOUS
 10
3.3210987046
 20
8.8172044228
 11
3.3210987046
 21
9.2711785245
  0
LINE
  5
3B1
100
AcDbEntity
  8
RACCORDO
100
AcDbLine
 62
253
  6
CONTINUOUS
 10
3.3943220093
 20
8.725492728
 11
3.3943220093
 21
9.2345668721
  0
LWPOLYLINE
  5
3B2
100
AcDbEntity
  8
RACCORDO
100
AcDbPolyline
 62
253
  6
CONTINUOUS
 90
7
 70
0
 10
2.691329055
 20
-31.6108089882
 10
2.6915479262
 20
-31.5999291248
 10
2.6922044819
 20
-31.5888511526
 10
2.6932978195
 20
-31.5776022376
 10
2.6948262694
 20
-31.5662079336
 10
2.696786588
 20
-31.5546984184
 10
2.6977096185
 20
-31.5502159611
  0
LWPOLYLINE
  5
3B3
100
AcDbEntity
  8
RACCORDO
100
AcDbPolyline
 62
253
  6
CONTINUOUS
 90
31
 70
0
 10
2.691329055
 20
10.0287690853
 10
2.6915684099
 20
10.0401515854
 10
2.6922864151
 20
10.0517498111
 10
2.6934820052
 20
10.063532672
 10
2.6951532027
 20
10.0754709394
 10
2.6972961376
 20
10.0875299904
 10
2.6999040931
 20
10.0996696943
 10
2.7029692651
 20
10.1118543952
 10
2.7064838194
 20
10.1240535205
 10
2.7104383006
 20
10.1362341925
 10
2.7148220644
 20
10.1483634804
 10
2.719623144
 20
10.1604081443
 10
2.7248283495
 20
10.172335055
 10
2.7304234385
 20
10.1841116065
 10
2.7363932414
 20
10.1957058962
 10
2.7427215633
 20
10.2070864667
 10
2.7493912144
 20
10.2182223843
 10
2.7563840219
 20
10.2290832878
 10
2.7636809306
 20
10.2396395724
 10
2.7712620731
 20
10.2498624926
 10
2.7791068244
 20
10.259724233
 10
2.7871938306
 20
10.2691979454
 10
2.7955010828
 20
10.2782578433
 10
2.8040059695
 20
10.286879263
 10
2.8126853346
 20
10.2950387285
 10
2.8215155606
 20
10.3027140351
 10
2.8304726069
 20
10.3098842841
 10
2.8395320661
 20
10.3165299385
 10
2.8486692696
 20
10.3226329073
 10
2.857859356
 20
10.3281765896
 10
2.867077311
 20
10.3331459002
  0
LWPOLYLINE
  5
3B4
100
AcDbEntity
  8
RACCORDO
100
AcDbPolyline
 62
7
  6
CONTINUOUS
 90
22
 70
0
 10
2.6181057503
 20
10.1171574329
 10
2.6184333718
 20
10.1299520574
 10
2.6194210867
 20
10.1427687089
 10
2.6210738979
 20
10.1555665972
 10
2.6233950147
 20
10.1683106913
 10
2.6263824486
 20
10.1809527727
 10
2.630025949
 20
10.1934333022
 10
2.6343065955
 20
10.2056896599
 10
2.6392176899
 20
10.2177072004
 10
2.6447685743
 20
10.2294984575
 10
2.6509592057
 20
10.2410419684
 10
2.657767566
 20
10.2522790382
 10
2.665174128
 20
10.2631668733
 10
2.6731677109
 20
10.2736795103
 10
2.6817213625
 20
10.2837733384
 10
2.6907861583
 20
10.2933895591
 10
2.7003312491
 20
10.3024995941
 10
2.710334394
 20
10.3110857679
 10
2.7207564666
 20
10.319118292
 10
2.7315763712
 20
10.3265845768
 10
2.7427640659
 20
10.3334661525
 10
2.7539913938
 20
10.3395937466
  0
LWPOLYLINE
  5
3B5
100
AcDbEntity
  8
RACCORDO
100
AcDbPolyline
 62
253
  6
CONTINUOUS
 90
10
 70
0
 10
-2.2589347542
 20
-33.0220030413
 10
-2.2672100413
 20
-33.0950327679
 10
-2.2814717205
 20
-33.1641175149
 10
-2.3015638401
 20
-33.2285018393
 10
-2.3272666923
 20
-33.2874816971
 10
-2.3582992159
 20
-33.3404121424
 10
-2.3943220697
 20
-33.3867143797
 10
-2.434941343
 20
-33.4258820933
 10
-2.4797128632
 20
-33.4574869832
 10
-2.5321024085
 20
-33.4827057545
  0
LWPOLYLINE
  5
3B6
100
AcDbEntity
  8
RACCORDO
100
AcDbPolyline
 62
253
  6
CONTINUOUS
 90
27
 70
0
 10
4.3688356945
 20
9.0257900874
 10
4.3639516773
 20
9.0138214292
 10
4.3586010739
 20
9.0021282251
 10
4.3527984955
 20
8.9907424068
 10
4.3465597879
 20
8.9796950666
 10
4.3399019875
 20
8.9690163725
 10
4.3328432756
 20
8.9587354857
 10
4.3254029279
 20
8.9488804812
 10
4.3176012624
 20
8.939478271
 10
4.3094595839
 20
8.9305545305
 10
4.3010001257
 20
8.9221336285
 10
4.2922459886
 20
8.9142385609
 10
4.2832210785
 20
8.9068908873
 10
4.2739500404
 20
8.9001106728
 10
4.2644581917
 20
8.8939164327
 10
4.2547714525
 20
8.8883250821
 10
4.2449162754
 20
8.8833518899
 10
4.2349195728
 20
8.8790104368
 10
4.2248086435
 20
8.8753125784
 10
4.2146110985
 20
8.8722684128
 10
4.2043547849
 20
8.8698862529
 10
4.1940677108
 20
8.8681726041
 10
4.183777968
 20
8.8671321457
 10
4.1735136555
 20
8.8667677193
 10
4.1633028031
 20
8.8670803198
 10
4.1531732945
 20
8.8680690937
 10
4.1431527912
 20
8.8697313408
  0
LWPOLYLINE
  5
3B7
100
AcDbEntity
  8
0
100
AcDbPolyline
 62
7
  6
CONTINUOUS
 90
8
 70
0
 10
-12.1116391483
 20
3.6460287424
 10
-11.9976625211
 20
3.619341544
 10
-11.8833318783
 20
3.6050222319
 10
-11.7699267786
 20
3.6035649712
 10
-11.6595999838
 20
3.6150293327
 10
-11.553427388
 20
3.6390714785
 10
-11.4514978748
 20
3.6753985458
 10
-11.4001078843
 20
3.699143829
  0
LWPOLYLINE
  5
3B8
100
AcDbEntity
  8
0
100
AcDbPolyline
 62
7
  6
CONTINUOUS
 90
10
 70
0
 10
-19.7199869018
 20
11.2854976984
 10
-19.8327290608
 20
11.335768974
 10
-19.9469123974
 20
11.3744068755
 10
-20.0617968512
 20
11.4009058812
 10
-20.1770812135
 20
11.4148328615
 10
-20.2914996959
 20
11.4157166064
 10
-20.4029504584
 20
11.403514002
 10
-20.5104935095
 20
11.3785023113
 10
-20.6138519972
 20
11.3409659235
 10
-20.6609681096
 20
11.3190242644
  0
LWPOLYLINE
  5
3B9
100
AcDbEntity
  8
RACCORDO
100
AcDbPolyline
 62
253
  6
CONTINUOUS
 90
45
 70
0
 10
-12.6262150969
 20
7.0636758385
 10
-12.5456655458
 20
7.0272196414
 10
-12.46801038
 20
6.9833534761
 10
-12.3931906697
 20
6.9320559344
 10
-12.3207724344
 20
6.8732453238
 10
-12.2510077623
 20
6.8069524554
 10
-12.1848413662
 20
6.733316284
 10
-12.1220997283
 20
6.6521757552
 10
-12.0626591403
 20
6.5636287263
 10
-12.0075266636
 20
6.4681977631
 10
-11.9564179147
 20
6.3651952559
 10
-11.9092066154
 20
6.2552767862
 10
-11.8671971104
 20
6.1409907974
 10
-11.8305458298
 20
6.0223666439
 10
-11.7987426757
 20
5.8994257222
 10
-11.7722395668
 20
5.7747222164
 10
-11.7511168729
 20
5.6483574228
 10
-11.7350472265
 20
5.5203690073
 10
-11.7240459019
 20
5.3932162594
 10
-11.7182013366
 20
5.2672020304
 10
-11.7173277137
 20
5.1422008881
 10
-11.7211947553
 20
5.020002373
 10
-11.7298685519
 20
4.9007942866
 10
-11.7432979513
 20
4.7845492712
 10
-11.761211593
 20
4.6726848296
 10
-11.7836883632
 20
4.565328626
 10
-11.8107578763
 20
4.4624492772
 10
-11.8421870758
 20
4.3651619498
 10
-11.8781269169
 20
4.2734388307
 10
-11.9186009046
 20
4.1873168441
 10
-11.9632907745
 20
4.1079305565
 10
-12.0124396453
 20
4.0352430883
 10
-12.066052318
 20
3.9691891936
 10
-12.1235625488
 20
3.9107707512
 10
-12.1852086931
 20
3.8599886473
 10
-12.2510610075
 20
3.8166353185
 10
-12.3203915947
 20
3.7813214912
 10
-12.3934970942
 20
3.7540276674
 10
-12.4703933997
 20
3.734524067
 10
-12.5499906407
 20
3.7230571511
 10
-12.6325342737
 20
3.7196840358
 10
-12.7180484882
 20
3.724124709
 10
-12.8051379653
 20
3.7361054034
 10
-12.893403216
 20
3.755487224
 10
-12.983414963
 20
3.782283039
  0
LWPOLYLINE
  5
3BA
100
AcDbEntity
  8
RACCORDO
100
AcDbPolyline
 62
253
  6
CONTINUOUS
 90
37
 70
0
 10
-12.5194173892
 20
7.2133459059
 10
-12.4311227562
 20
7.1725589615
 10
-12.344796095
 20
7.1238685895
 10
-12.2607781379
 20
7.0672792156
 10
-12.1795711918
 20
7.002892243
 10
-12.1014050869
 20
6.930738838
 10
-12.0262543837
 20
6.8507119503
 10
-11.9546298581
 20
6.7628478037
 10
-11.8869033329
 20
6.6673604089
 10
-11.8229121965
 20
6.5643751559
 10
-11.7630403746
 20
6.4535755335
 10
-11.7079939373
 20
6.3357446318
 10
-11.6580240282
 20
6.2128264702
 10
-11.6136764713
 20
6.0855279293
 10
-11.5752289231
 20
5.954215229
 10
-11.5423143203
 20
5.8205271796
 10
-11.5151812409
 20
5.6851673417
 10
-11.4941434173
 20
5.5487070375
 10
-11.4787499346
 20
5.4126415711
 10
-11.469048442
 20
5.277826259
 10
-11.4652171295
 20
5.1446899612
 10
-11.4668819835
 20
5.014075197
 10
-11.4739760532
 20
4.8866748409
 10
-11.4865923096
 20
4.762981578
 10
-11.504564279
 20
4.6435157142
 10
-11.5277521919
 20
4.5289106566
 10
-11.5561595257
 20
4.4196007547
 10
-11.5898487477
 20
4.3158123506
 10
-11.628674687
 20
4.2180310444
 10
-11.6725516587
 20
4.1267657395
 10
-11.72163618
 20
4.042283104
 10
-11.77572012
 20
3.9650028319
 10
-11.8346086055
 20
3.895356022
 10
-11.8984213326
 20
3.8335647833
 10
-11.9668166272
 20
3.7799637282
 10
-12.0395100618
 20
3.7347901951
 10
-12.0705632661
 20
3.7187171675
  0
LINE
  5
3BB
100
AcDbEntity
  8
0
100
AcDbLine
 62
7
  6
CONTINUOUS
 10
-19.7199869018
 20
11.2854976984
 11
-11.9418123087
 21
7.3964104019
  0
LINE
  5
3BC
100
AcDbEntity
  8
0
100
AcDbLine
 62
7
  6
CONTINUOUS
 10
-20.006914001
 20
12.2245660032
 11
-12.2287395178
 21
8.3354787616
  0
LINE
  5
3BD
100
AcDbEntity
  8
RACCORDO
100
AcDbLine
 62
253
  6
CONTINUOUS
 10
-0.7676769997
 20
4.0822021783
 11
-31.1041814376
 21
19.2504543973
  0
LWPOLYLINE
  5
3BE
100
AcDbEntity
  8
0
100
AcDbPolyline
 62
7
  6
CONTINUOUS
 90
49
 70
0
 10
-12.2287395178
 20
8.3354787616
 10
-12.0770402783
 20
8.2524742297
 10
-11.9289825408
 20
8.1579055518
 10
-11.7845642761
 20
8.0517733219
 10
-11.6432275531
 20
7.9335382442
 10
-11.5055221986
 20
7.8037419897
 10
-11.3731061905
 20
7.6640070817
 10
-11.2460037275
 20
7.5141859138
 10
-11.12417568
 20
7.3544304882
 10
-11.0091845657
 20
7.1868128861
 10
-10.9011414888
 20
7.0112969999
 10
-10.7999159222
 20
6.827924699
 10
-10.7067090042
 20
6.6388847303
 10
-10.6215652188
 20
6.4440463217
 10
-10.5444187447
 20
6.2435466434
 10
-10.4763082329
 20
6.0399754938
 10
-10.4173560646
 20
5.8332378933
 10
-10.3674200224
 20
5.6234348587
 10
-10.3271471774
 20
5.4134486151
 10
-10.2966713009
 20
5.2033800411
 10
-10.2758440708
 20
4.9931327922
 10
-10.2648962895
 20
4.7852912071
 10
-10.263952552
 20
4.5798615074
 10
-10.2728802313
 20
4.3768400927
 10
-10.2915319693
 20
4.178794249
 10
-10.3200102618
 20
3.9858026387
 10
-10.3582127012
 20
3.7977867648
 10
-10.4056926182
 20
3.6170757098
 10
-10.4625765933
 20
3.4437474598
 10
-10.5287459088
 20
3.2777217805
 10
-10.6033935639
 20
3.1210880604
 10
-10.6866403366
 20
2.9739297653
 10
-10.7783800742
 20
2.8361590249
 10
-10.8774721475
 20
2.7096060961
 10
-10.9840535409
 20
2.5944228046
 10
-11.0980067711
 20
2.490451314
 10
-11.2178147892
 20
2.3990557087
 10
-11.3434969869
 20
2.3204159716
 10
-11.4750553486
 20
2.254345433
 10
-11.6109498445
 20
2.2016571904
 10
-11.7513171808
 20
2.1624966907
 10
-11.8960401802
 20
2.1367123156
 10
-12.0431991453
 20
2.1246711828
 10
-12.1928259895
 20
2.1265652359
 10
-12.3449039173
 20
2.1421977198
 10
-12.4974397398
 20
2.1713528335
 10
-12.6497719254
 20
2.2139577271
 10
-12.8025702001
 20
2.2700826316
 10
-12.95583661
 20
2.3397268921
  0
LWPOLYLINE
  5
3BF
100
AcDbEntity
  8
RACCORDO
100
AcDbPolyline
 62
253
  6
CONTINUOUS
 90
14
 70
0
 10
-9.4115189197
 20
18.0393446167
 10
-9.4071757668
 20
18.0319995152
 10
-9.4033279527
 20
18.0249119545
 10
-9.3999863839
 20
18.0181014814
 10
-9.3971603637
 20
18.0115863277
 10
-9.3948583695
 20
18.0053851737
 10
-9.3930875411
 20
17.9995167989
 10
-9.3918528124
 20
17.9939977685
 10
-9.3911573504
 20
17.9888425481
 10
-9.3910030571
 20
17.9840651003
 10
-9.391390406
 20
17.9796784312
 10
-9.3923183869
 20
17.9756946354
 10
-9.3937844621
 20
17.9721247095
 10
-9.3957846063
 20
17.9689784314
  0
LWPOLYLINE
  5
3C0
100
AcDbEntity
  8
RACCORDO
100
AcDbPolyline
 62
253
  6
CONTINUOUS
 90
14
 70
0
 10
-6.8659345074
 20
16.7665524105
 10
-6.8615868227
 20
16.7591993235
 10
-6.857736581
 20
16.7521062937
 10
-6.8543942971
 20
16.7452926918
 10
-6.8515691009
 20
16.7387771306
 10
-6.8492687048
 20
16.7325773982
 10
-6.8474993875
 20
16.7267104119
 10
-6.8462659829
 20
16.7211921866
 10
-6.8455718673
 20
16.7160378065
 10
-6.8454189398
 20
16.7112613662
 10
-6.8458076157
 20
16.7068759147
 10
-6.8467368316
 20
16.7028934209
 10
-6.8482040496
 20
16.6993247571
 10
-6.8501734406
 20
16.6962296809
  0
LWPOLYLINE
  5
3C1
100
AcDbEntity
  8
RACCORDO
100
AcDbPolyline
 62
7
  6
CONTINUOUS
 90
37
 70
0
 10
6.4910845831
 20
7.9740116887
 10
6.4904960445
 20
7.993840983
 10
6.4893008061
 20
8.0139594835
 10
6.4875009535
 20
8.0343386195
 10
6.4851002528
 20
8.0549500398
 10
6.4821017346
 20
8.0757637404
 10
6.4785077444
 20
8.09674809
 10
6.4743243632
 20
8.1178708697
 10
6.46955775
 20
8.1391040174
 10
6.4642112141
 20
8.1604218347
 10
6.4582918805
 20
8.1817956686
 10
6.4518087865
 20
8.2031928569
 10
6.4447688709
 20
8.2245815193
 10
6.4371827362
 20
8.2459295244
 10
6.4290610614
 20
8.267207087
 10
6.4204118291
 20
8.2883857487
 10
6.4112430236
 20
8.3094440628
 10
6.4015717185
 20
8.330341411
 10
6.391422142
 20
8.3510212973
 10
6.3808168223
 20
8.3714420243
 10
6.3697669217
 20
8.3915864467
 10
6.3582815356
 20
8.4114357333
 10
6.3463754125
 20
8.4309650683
 10
6.334068993
 20
8.4501417639
 10
6.3213801775
 20
8.4689354844
 10
6.3083251021
 20
8.487322873
 10
6.2949263603
 20
8.5052730007
 10
6.2812130945
 20
8.5227461254
 10
6.2672159473
 20
8.5397066382
 10
6.25294743
 20
8.5561429028
 10
6.2384097237
 20
8.5720513923
 10
6.2236237301
 20
8.5874085905
 10
6.2086114896
 20
8.6021908758
 10
6.1933758539
 20
8.616391648
 10
6.1779322275
 20
8.6299920988
 10
6.1623092787
 20
8.6429635561
 10
6.1465297772
 20
8.6552836028
  0
LWPOLYLINE
  5
3C2
100
AcDbEntity
  8
RACCORDO
100
AcDbPolyline
 62
253
  6
CONTINUOUS
 90
31
 70
0
 10
4.3688356945
 20
9.3657640215
 10
4.3685407176
 20
9.3771897292
 10
4.3677648643
 20
9.3888277823
 10
4.3665102613
 20
9.4006462832
 10
4.364780347
 20
9.4126128394
 10
4.3625798628
 20
9.4246946531
 10
4.3599148399
 20
9.43685861
 10
4.3567925826
 20
9.4490713712
 10
4.3532216484
 20
9.4612994637
 10
4.3492118246
 20
9.4735093727
 10
4.3447741013
 20
9.485667633
 10
4.3399206415
 20
9.4977409212
 10
4.3346647477
 20
9.5096961466
 10
4.3290208252
 20
9.5215005423
 10
4.3230043431
 20
9.5331217545
 10
4.3166317912
 20
9.5445279317
 10
4.3099206357
 20
9.5556878117
 10
4.3028892704
 20
9.5665708074
 10
4.2955569672
 20
9.5771470905
 10
4.2879438224
 20
9.5873876735
 10
4.2800707022
 20
9.5972644887
 10
4.2719591855
 20
9.6067504658
 10
4.2636315042
 20
9.6158196054
 10
4.2551104832
 20
9.6244470507
 10
4.2464194768
 20
9.6326091555
 10
4.2375823054
 20
9.6402835491
 10
4.2286231902
 20
9.6474491972
 10
4.2195666864
 20
9.6540864603
 10
4.2104376161
 20
9.6601771468
 10
4.2012610004
 20
9.6657045634
 10
4.1920619908
 20
9.6706535603
  0
LWPOLYLINE
  5
3C3
100
AcDbEntity
  8
RACCORDO
100
AcDbPolyline
 62
7
  6
CONTINUOUS
 90
23
 70
0
 10
6.570581514
 20
-31.1273381789
 10
6.5702631061
 20
-31.1147246266
 10
6.5693044894
 20
-31.1021016784
 10
6.5677027151
 20
-31.0895081382
 10
6.5654585552
 20
-31.0769870648
 10
6.5625745151
 20
-31.0645736398
 10
6.5590526909
 20
-31.0522948729
 10
6.5548993257
 20
-31.0401879461
 10
6.5501244709
 20
-31.0282925788
 10
6.544736676
 20
-31.0166382993
 10
6.5387483155
 20
-31.0052593245
 10
6.5321762743
 20
-30.9941929297
 10
6.5250368405
 20
-30.9834701162
 10
6.5173470475
 20
-30.9731197468
 10
6.5091297277
 20
-30.9631749336
 10
6.5004106939
 20
-30.9536676113
 10
6.4912094779
 20
-30.9446195485
 10
6.4815530284
 20
-30.9360578309
 10
6.4714786266
 20
-30.9280141677
 10
6.4610060768
 20
-30.9205026352
 10
6.4501633868
 20
-30.9135426264
 10
6.438999637
 20
-30.907162912
 10
6.432378587
 20
-30.9037282185
  0
LWPOLYLINE
  5
3C4
100
AcDbEntity
  8
RACCORDO
100
AcDbPolyline
 62
7
  6
CONTINUOUS
 90
31
 70
0
 10
5.9701164853
 20
10.168486025
 10
5.9698744433
 20
10.1799381405
 10
5.969148296
 20
10.1916009957
 10
5.9679401669
 20
10.2034426948
 10
5.9662536012
 20
10.2154309029
 10
5.9640932283
 20
10.2275327676
 10
5.9614647492
 20
10.239715008
 10
5.9583754364
 20
10.2519442716
 10
5.9548338746
 20
10.2641870996
 10
5.9508496105
 20
10.2764098515
 10
5.9464336012
 20
10.2885790464
 10
5.9415980397
 20
10.3006613756
 10
5.9363560836
 20
10.3126236673
 10
5.9307221052
 20
10.324433138
 10
5.9247116056
 20
10.3360574488
 10
5.9183410291
 20
10.3474647157
 10
5.9116278094
 20
10.3586236593
 10
5.9045903735
 20
10.3695037083
 10
5.8972480475
 20
10.3800750521
 10
5.8896208965
 20
10.3903086868
 10
5.8817298198
 20
10.4001765615
 10
5.8735965482
 20
10.4096516744
 10
5.865243284
 20
10.4187080115
 10
5.8566928835
 20
10.4273207332
 10
5.8479689462
 20
10.4354663122
 10
5.8390952645
 20
10.4431223647
 10
5.8300960886
 20
10.4502678745
 10
5.8209963047
 20
10.4568833675
 10
5.811820845
 20
10.4629507098
 10
5.8025946204
 20
10.4684531573
 10
5.7933427816
 20
10.4733755638
  0
LWPOLYLINE
  5
3C5
100
AcDbEntity
  8
RACCORDO
100
AcDbPolyline
 62
253
  6
CONTINUOUS
 90
19
 70
0
 10
4.0163137348
 20
9.0263028112
 10
4.0165335895
 20
9.0156181547
 10
4.0171926067
 20
9.0051799283
 10
4.0182891475
 20
8.9950140958
 10
4.0198204784
 20
8.9851459773
 10
4.0217827937
 20
8.9756000826
 10
4.0241712395
 20
8.9664000622
 10
4.0269799096
 20
8.9575687503
 10
4.0302018151
 20
8.9491281932
 10
4.0338289127
 20
8.9410994849
 10
4.0378521923
 20
8.933502574
 10
4.0422616349
 20
8.9263563832
 10
4.0470461714
 20
8.9196788178
 10
4.0521938048
 20
8.9134865405
 10
4.0576917728
 20
8.9077948281
 10
4.0635265065
 20
8.9026177019
 10
4.069684723
 20
8.8979671868
 10
4.0761499972
 20
8.8938559132
 10
4.0812762049
 20
8.8910897752
  0
LWPOLYLINE
  5
3C6
100
AcDbEntity
  8
RACCORDO
100
AcDbPolyline
 62
253
  6
CONTINUOUS
 90
31
 70
0
 10
6.498383657
 20
10.4319248451
 10
6.4981935041
 20
10.4434029647
 10
6.4975165501
 20
10.4550904674
 10
6.4963546503
 20
10.4669553199
 10
6.4947109893
 20
10.4789650029
 10
6.4925900721
 20
10.4910865999
 10
6.4899977117
 20
10.5032868881
 10
6.4869410133
 20
10.5155324288
 10
6.4834283547
 20
10.5277896591
 10
6.4794693634
 20
10.5400249844
 10
6.4750748904
 20
10.5522048698
 10
6.47025698
 20
10.5642959327
 10
6.4650288373
 20
10.5762650337
 10
6.4594047915
 20
10.5880793676
 10
6.4534002572
 20
10.5997065538
 10
6.4470316916
 20
10.6111147241
 10
6.4403165498
 20
10.622272611
 10
6.4332732367
 20
10.6331496328
 10
6.4259210567
 20
10.6437159776
 10
6.4182801609
 20
10.653942685
 10
6.4103714913
 20
10.6638017256
 10
6.4022167243
 20
10.6732660775
 10
6.3938382105
 20
10.6823098008
 10
6.3852589138
 20
10.6909081083
 10
6.3765023485
 20
10.6990374337
 10
6.3675925147
 20
10.7066754959
 10
6.3585538326
 20
10.7138013606
 10
6.3494110754
 20
10.7203954971
 10
6.3401893018
 20
10.726439832
 10
6.330913787
 20
10.7319177989
 10
6.3216099534
 20
10.7368143839
  0
LWPOLYLINE
  5
3C7
100
AcDbEntity
  8
RACCORDO
100
AcDbPolyline
 62
7
  6
CONTINUOUS
 90
25
 70
0
 10
4.0962835151
 20
16.2792203516
 10
4.0957944663
 20
16.3110705809
 10
4.0943451358
 20
16.3423096535
 10
4.0919355239
 20
16.3729375693
 10
4.0885597033
 20
16.4029945451
 10
4.0842236011
 20
16.4324403641
 10
4.0789449987
 20
16.4611543764
 10
4.0727200312
 20
16.4891335405
 10
4.0655525633
 20
16.5163808978
 10
4.0574719705
 20
16.5427849226
 10
4.0484745845
 20
16.5683420426
 10
4.0385640736
 20
16.5930558301
 10
4.0277808175
 20
16.6168254761
 10
4.0161211008
 20
16.6396473784
 10
4.003588639
 20
16.6615251391
 10
3.9902349584
 20
16.6823687557
 10
3.9760568406
 20
16.7021737501
 10
3.9610575041
 20
16.7209446004
 10
3.9452981299
 20
16.7386047377
 10
3.9287754926
 20
16.7551497532
 10
3.9114928176
 20
16.7705840557
 10
3.8935209632
 20
16.7848443042
 10
3.8748570832
 20
16.79792565
 10
3.8555040236
 20
16.8098329418
 10
3.8363903238
 20
16.8200941406
  0
LINE
  5
3C8
100
AcDbEntity
  8
RACCORDO
100
AcDbLine
 62
253
  6
CONTINUOUS
 10
4.0163137348
 20
-32.6132752623
 11
4.0163137348
 21
-32.2733013281
  0
LINE
  5
3C9
100
AcDbEntity
  8
RACCORDO
100
AcDbLine
 62
253
  6
CONTINUOUS
 10
4.0163137348
 20
9.0263028112
 11
4.0163137348
 21
9.3662767454
  0
LINE
  5
3CA
100
AcDbEntity
  8
RACCORDO
100
AcDbLine
 62
7
  6
CONTINUOUS
 10
4.0962835151
 20
16.2792203516
 11
4.0962835151
 21
16.0689908769
  0
LINE
  5
3CB
100
AcDbEntity
  8
RACCORDO
100
AcDbLine
 62
253
  6
CONTINUOUS
 10
4.3688356945
 20
-32.6137879861
 11
4.3688356945
 21
-32.273814052
  0
LINE
  5
3CC
100
AcDbEntity
  8
RACCORDO
100
AcDbLine
 62
253
  6
CONTINUOUS
 10
4.3688356945
 20
9.0257900874
 11
4.3688356945
 21
9.3657640215
  0
LINE
  5
3CD
100
AcDbEntity
  8
RACCORDO
100
AcDbLine
 62
253
  6
CONTINUOUS
 10
4.7275343429
 20
8.7477071841
 11
4.7275343429
 21
8.0588865611
  0
LINE
  5
3CE
100
AcDbEntity
  8
RACCORDO
100
AcDbLine
 62
253
  6
CONTINUOUS
 10
4.7275343429
 20
-30.7624237387
 11
4.7275343429
 21
-31.296804851
  0
LINE
  5
3CF
100
AcDbEntity
  8
RACCORDO
100
AcDbLine
 62
253
  6
CONTINUOUS
 10
5.0800563026
 20
8.0569931777
 11
5.0800563026
 21
8.8772865645
  0
LINE
  5
3D0
100
AcDbEntity
  8
RACCORDO
100
AcDbLine
 62
253
  6
CONTINUOUS
 10
5.0800563026
 20
-30.6256069709
 11
5.0800563026
 21
-31.4223175749
  0
LINE
  5
3D1
100
AcDbEntity
  8
RACCORDO
100
AcDbLine
 62
7
  6
CONTINUOUS
 10
5.9701164853
 20
8.5713531813
 11
5.9701164853
 21
10.168486025
  0
LINE
  5
3D2
100
AcDbEntity
  8
RACCORDO
100
AcDbLine
 62
7
  6
CONTINUOUS
 10
5.9701164853
 20
-30.2801670514
 11
5.9701164853
 21
-31.8337533865
  0
LINE
  5
3D3
100
AcDbEntity
  8
RACCORDO
100
AcDbLine
 62
253
  6
CONTINUOUS
 10
6.498383657
 20
10.4319248451
 11
6.498383657
 21
10.0843933283
  0
LINE
  5
3D4
100
AcDbEntity
  8
RACCORDO
100
AcDbLine
 62
253
  6
CONTINUOUS
 10
6.498383657
 20
-31.2152108111
 11
6.498383657
 21
-31.5627423278
  0
LINE
  5
3D5
100
AcDbEntity
  8
RACCORDO
100
AcDbLine
 62
7
  6
CONTINUOUS
 10
6.570581514
 20
10.5197974772
 11
6.570581514
 21
10.1722659605
  0
LINE
  5
3D6
100
AcDbEntity
  8
RACCORDO
100
AcDbLine
 62
7
  6
CONTINUOUS
 10
6.570581514
 20
-31.1273381789
 11
6.570581514
 21
-31.4748696956
  0
LWPOLYLINE
  5
3D7
100
AcDbEntity
  8
RACCORDO
100
AcDbPolyline
 62
253
  6
CONTINUOUS
 90
22
 70
0
 10
4.0163137348
 20
-32.2733013281
 10
4.016532606
 20
-32.2624214647
 10
4.0171891617
 20
-32.2513434925
 10
4.0182824994
 20
-32.2400945775
 10
4.0198109492
 20
-32.2287002735
 10
4.0217712678
 20
-32.2171907583
 10
4.0241578509
 20
-32.2056009391
 10
4.0269641836
 20
-32.1939618797
 10
4.0301837007
 20
-32.1823003219
 10
4.0338084699
 20
-32.1706450381
 10
4.037829553
 20
-32.1590248697
 10
4.0422369261
 20
-32.1474688748
 10
4.047019554
 20
-32.1360060194
 10
4.0521655269
 20
-32.1246648454
 10
4.0576620558
 20
-32.1134735362
 10
4.0634953991
 20
-32.1024600566
 10
4.0696509879
 20
-32.0916518765
 10
4.0761135431
 20
-32.0810757887
 10
4.0828670566
 20
-32.0707579786
 10
4.0898947565
 20
-32.0607240731
 10
4.097179138
 20
-32.0509990686
 10
4.1047020825
 20
-32.0416071543
  0
LWPOLYLINE
  5
3D8
100
AcDbEntity
  8
RACCORDO
100
AcDbPolyline
 62
253
  6
CONTINUOUS
 90
31
 70
0
 10
4.0163137348
 20
9.3662767454
 10
4.0165543161
 20
9.3776886548
 10
4.0172754072
 20
9.3893101114
 10
4.018475049
 20
9.4011094845
 10
4.0201499815
 20
9.4130546711
 10
4.0222956481
 20
9.4251131462
 10
4.0249062027
 20
9.43725205
 10
4.0279745361
 20
9.4494383321
 10
4.0314922974
 20
9.4616388316
 10
4.0354499067
 20
9.4738203285
 10
4.0398365885
 20
9.4859496641
 10
4.0446404016
 20
9.4979938263
 10
4.0498482662
 20
9.5099200282
 10
4.0554460116
 20
9.5216958229
 10
4.0614183932
 20
9.5332891453
 10
4.0677491275
 20
9.5446683975
 10
4.0744209484
 20
9.5558025653
 10
4.0814157168
 20
9.5666613968
 10
4.0887144536
 20
9.5772154328
 10
4.0962973962
 20
9.5874360756
 10
4.1041438145
 20
9.5972953645
 10
4.1122321058
 20
9.6067661807
 10
4.1205400736
 20
9.6158226088
 10
4.129045246
 20
9.6244402254
 10
4.1377247087
 20
9.6325958392
 10
4.1465567992
 20
9.6402688877
 10
4.1555155822
 20
9.6474366353
 10
4.1645709191
 20
9.6540755419
 10
4.1736960879
 20
9.6601673393
 10
4.1828680924
 20
9.6656979866
 10
4.1920619908
 20
9.6706535603
  0
LWPOLYLINE
  5
3D9
100
AcDbEntity
  8
RACCORDO
100
AcDbPolyline
 62
7
  6
CONTINUOUS
 90
15
 70
0
 10
6.570581514
 20
10.1722659605
 10
6.5702645851
 20
10.1596817201
 10
6.5693102386
 20
10.1470861866
 10
6.5677152539
 20
10.1345179192
 10
6.5654799487
 20
10.1220190039
 10
6.5626065929
 20
10.1096252295
 10
6.5590976455
 20
10.0973656598
 10
6.5549595129
 20
10.0852777222
 10
6.5502020483
 20
10.0734003436
 10
6.5448339958
 20
10.0617633612
 10
6.5388677124
 20
10.0504007253
 10
6.5323199474
 20
10.0393493106
 10
6.5252070616
 20
10.0286401087
 10
6.51754587
 20
10.0183015411
 10
6.5137439745
 20
10.0135578514
  0
LWPOLYLINE
  5
3DA
100
AcDbEntity
  8
RACCORDO
100
AcDbPolyline
 62
253
  6
CONTINUOUS
 90
16
 70
0
 10
6.570581514
 20
10.1722659605
 10
6.570278293
 20
10.1661113162
 10
6.5692967872
 20
10.159609807
 10
6.5676386094
 20
10.153142731
 10
6.5653082709
 20
10.1467276829
 10
6.5623121117
 20
10.1403821161
 10
6.5586582835
 20
10.1341232946
 10
6.5543567271
 20
10.1279682468
 10
6.5494191456
 20
10.1219337184
 10
6.5438589725
 20
10.1160361274
 10
6.5376913353
 20
10.1102915191
 10
6.530933014
 20
10.1047155229
 10
6.5236023958
 20
10.0993233091
 10
6.5157194248
 20
10.0941295481
 10
6.5073055481
 20
10.0891483704
 10
6.498383657
 20
10.0843933283
  0
LWPOLYLINE
  5
3DB
100
AcDbEntity
  8
RACCORDO
100
AcDbPolyline
 62
253
  6
CONTINUOUS
 90
16
 70
0
 10
6.570581514
 20
10.5197971281
 10
6.570276009
 20
10.5136197114
 10
6.5692918373
 20
10.5071170289
 10
6.567630738
 20
10.5006488418
 10
6.5652971919
 20
10.4942326722
 10
6.5622975623
 20
10.4878860686
 10
6.558640129
 20
10.481626494
 10
6.5543349901
 20
10.4754710957
 10
6.5493938502
 20
10.4694364933
 10
6.5438300425
 20
10.4635389344
 10
6.537657284
 20
10.4577932231
 10
6.5308935346
 20
10.4522163149
 10
6.5235620164
 20
10.4468267371
 10
6.5156854448
 20
10.4416398541
 10
6.5072847397
 20
10.4366682021
 10
6.498383657
 20
10.4319248451
  0
LWPOLYLINE
  5
3DC
100
AcDbEntity
  8
RACCORDO
100
AcDbPolyline
 62
253
  6
CONTINUOUS
 90
16
 70
0
 10
0.3453060825
 20
3.953939171
 10
0.2837176308
 20
3.9395025615
 10
0.2168330594
 20
3.9283046045
 10
0.1453692297
 20
3.9204653183
 10
0.0700920834
 20
3.9160687236
 10
-0.0081915672
 20
3.9151619427
 10
-0.0886426865
 20
3.9177546943
 10
-0.1703990082
 20
3.9238191895
 10
-0.2525842769
 20
3.9332904299
 10
-0.3343176397
 20
3.9460669037
 10
-0.4147230873
 20
3.9620116739
 10
-0.492938843
 20
3.9809538463
 10
-0.5681265987
 20
4.002690401
 10
-0.6394805001
 20
4.0269883682
 10
-0.706235784
 20
4.0535873246
 10
-0.7676769743
 20
4.0822021856
  0
LWPOLYLINE
  5
3DD
100
AcDbEntity
  8
0
100
AcDbPolyline
 62
7
  6
CONTINUOUS
 90
7
 70
0
 10
-11.2289851023
 20
3.8110404747
 10
-11.2937331893
 20
3.7958751032
 10
-11.4042408505
 20
3.7835616033
 10
-11.5180349849
 20
3.7842208411
 10
-11.6332119488
 20
3.7979289229
 10
-11.748588137
 20
3.8243695259
 10
-11.8104085432
 20
3.8452224227
  0
LWPOLYLINE
  5
3DE
100
AcDbEntity
  8
0
100
AcDbPolyline
 62
7
  6
CONTINUOUS
 90
4
 70
0
 10
-20.4661742748
 20
12.3925455378
 10
-20.3133622034
 20
12.3501440527
 10
-20.1602747651
 20
12.2941510736
 10
-20.006914001
 20
12.2245660032
  0
LINE
  5
3DF
100
AcDbEntity
  8
RACCORDO
100
AcDbLine
 62
253
  6
CONTINUOUS
 10
0.2297269644
 20
5.6466869243
 11
-30.1228952836
 21
20.8229980483
  0
LINE
  5
3E0
100
AcDbEntity
  8
RACCORDO
100
AcDbLine
 62
7
  6
CONTINUOUS
 10
-28.6078357142
 20
21.7064165461
 11
1.7986170757
 21
6.5031901512
  0
LINE
  5
3E1
100
AcDbEntity
  8
RACCORDO
100
AcDbLine
 62
7
  6
CONTINUOUS
 10
1.9304145942
 20
6.4474734379
 11
-28.7396332326
 21
21.7824973513
  0
LWPOLYLINE
  5
3E2
100
AcDbEntity
  8
ASSI
100
AcDbPolyline
 62
7
  6
CONTINUOUS
 90
6
 70
0
 10
6.999127237
 20
14.6484298415
 10
6.9989059971
 20
14.6509521938
 10
6.9979160148
 20
14.6539339947
 10
6.996171491
 20
14.6564112671
 10
6.9937145755
 20
14.6583989049
 10
6.9923523628
 20
14.6591611155
  0
LINE
  5
3E3
100
AcDbEntity
  8
ASSI
100
AcDbLine
 62
253
  6
CONTINUOUS
 10
6.8755331731
 20
13.37023743
 11
6.8755331731
 21
14.6394254544
  0
LINE
  5
3E4
100
AcDbEntity
  8
ASSI
100
AcDbLine
 62
7
  6
CONTINUOUS
 10
6.999127237
 20
13.5161278931
 11
6.999127237
 21
14.6484301985
  0
LINE
  5
3E5
100
AcDbEntity
  8
RACCORDO
100
AcDbLine
 62
7
  6
CONTINUOUS
 10
7.0307766571
 20
8.2232593732
 11
7.0307766571
 21
-11.6084957549
  0
LINE
  5
3E6
100
AcDbEntity
  8
DRAFT
100
AcDbLine
 62
7
  6
CONTINUOUS
 10
7.0307766571
 20
-11.6084957549
 11
7.0307766571
 21
-14.3797553964
  0
LINE
  5
3E7
100
AcDbEntity
  8
RACCORDO
100
AcDbLine
 62
7
  6
CONTINUOUS
 10
7.0307766571
 20
-14.3797553964
 11
7.0307766571
 21
-29.5349733441
  0
LINE
  5
3E8
100
AcDbEntity
  8
0
100
AcDbLine
 62
7
  6
CONTINUOUS
 10
7.0307766571
 20
4.6482833188
 11
7.0307766571
 21
-25.9599972897
  0
LINE
  5
3E9
100
AcDbEntity
  8
0
100
AcDbLine
 62
253
  6
CONTINUOUS
 10
8.197502846
 20
17.3120638364
 11
8.197502846
 21
17.8790596548
  0
LINE
  5
3EA
100
AcDbEntity
  8
0
100
AcDbLine
 62
253
  6
CONTINUOUS
 10
8.9046096272
 20
17.1689262093
 11
8.9046096272
 21
17.8669664311
  0
LWPOLYLINE
  5
3EB
100
AcDbEntity
  8
0
100
AcDbPolyline
 62
7
  6
CONTINUOUS
 90
10
 70
0
 10
8.4133370949
 20
17.3426225445
 10
8.4134858926
 20
17.3567557356
 10
8.4134258399
 20
17.3696566098
 10
8.4132431409
 20
17.3812099784
 10
8.4131468296
 20
17.3913572
 10
8.4131277405
 20
17.399937283
 10
8.4129585053
 20
17.4066872705
 10
8.4127930356
 20
17.4115205473
 10
8.4127262286
 20
17.414351856
 10
8.4125767947
 20
17.4149949553
  0
LWPOLYLINE
  5
3EC
100
AcDbEntity
  8
RACCORDO
100
AcDbPolyline
 62
7
  6
CONTINUOUS
 90
25
 70
0
 10
6.4475909509
 20
-29.8288147489
 10
6.4468008844
 20
-29.848407046
 10
6.4454255992
 20
-29.8676885846
 10
6.4434639406
 20
-29.8866315429
 10
6.4409153568
 20
-29.9052032541
 10
6.4377809711
 20
-29.9233820244
 10
6.4340617633
 20
-29.9411558495
 10
6.4297584898
 20
-29.9584964471
 10
6.4248725276
 20
-29.9753773389
 10
6.4194036364
 20
-29.991786969
 10
6.4133493176
 20
-30.0077069997
 10
6.4067152677
 20
-30.0230991475
 10
6.3995145363
 20
-30.0379223069
 10
6.3917495147
 20
-30.0521570243
 10
6.3834297999
 20
-30.0657720226
 10
6.3745855218
 20
-30.0787149817
 10
6.3652298454
 20
-30.0909655092
 10
6.3553743693
 20
-30.1025071378
 10
6.3450542285
 20
-30.1133028764
 10
6.3343001359
 20
-30.1233286022
 10
6.3231167316
 20
-30.132587642
 10
6.3115008851
 20
-30.1410853767
 10
6.2994644858
 20
-30.1488113598
 10
6.2870277085
 20
-30.1557510386
 10
6.2847439953
 20
-30.1569177994
  0
LWPOLYLINE
  5
3ED
100
AcDbEntity
  8
RACCORDO
100
AcDbPolyline
 62
253
  6
CONTINUOUS
 90
16
 70
0
 10
6.570581514
 20
-31.4748696956
 10
6.5702802435
 20
-31.4810045245
 10
6.5693005249
 20
-31.4875074727
 10
6.5676438359
 20
-31.4939760369
 10
6.5653146844
 20
-31.5003926036
 10
6.5623194042
 20
-31.5067397148
 10
6.5586661453
 20
-31.5130000916
 10
6.5543648472
 20
-31.5191566947
 10
6.5494272146
 20
-31.5251927652
 10
6.5438666893
 20
-31.5310918676
 10
6.5376984002
 20
-31.536837949
 10
6.5309391389
 20
-31.5424153647
 10
6.5236073251
 20
-31.547808917
 10
6.5157229269
 20
-31.5530039214
 10
6.5073074012
 20
-31.5579862449
 10
6.498383657
 20
-31.5627423278
  0
LWPOLYLINE
  5
3EE
100
AcDbEntity
  8
RACCORDO
100
AcDbPolyline
 62
253
  6
CONTINUOUS
 90
16
 70
0
 10
6.570581514
 20
-31.1273381789
 10
6.570278293
 20
-31.1334928231
 10
6.5692967872
 20
-31.1399943324
 10
6.5676386094
 20
-31.1464614084
 10
6.5653082709
 20
-31.1528764565
 10
6.5623121117
 20
-31.1592220233
 10
6.5586582835
 20
-31.1654808448
 10
6.5543567271
 20
-31.1716358926
 10
6.5494191456
 20
-31.177670421
 10
6.5438589725
 20
-31.183568012
 10
6.5376913353
 20
-31.1893126202
 10
6.530933014
 20
-31.1948886165
 10
6.5236023958
 20
-31.2002808303
 10
6.5157194248
 20
-31.2054745913
 10
6.5073055481
 20
-31.2104557689
 10
6.498383657
 20
-31.2152108111
  0
LWPOLYLINE
  5
3EF
100
AcDbEntity
  8
0
100
AcDbPolyline
 62
7
  6
CONTINUOUS
 90
6
 70
0
 10
14.0062742801
 20
15.2523195021
 10
14.0100477511
 20
15.2612155515
 10
14.0121561099
 20
15.2649106982
 10
14.0115121686
 20
15.2642254291
 10
14.0067606325
 20
15.2593647178
 10
13.9967137848
 20
15.2508103462
  0
LWPOLYLINE
  5
3F0
100
AcDbEntity
  8
RACCORDO
100
AcDbPolyline
 62
7
  6
CONTINUOUS
 90
22
 70
0
 10
4.8282154139
 20
8.0294680817
 10
4.8405505877
 20
8.0278574675
 10
4.8530373303
 20
8.0264281776
 10
4.8656728583
 20
8.0251976935
 10
4.8785015563
 20
8.0241779304
 10
4.8914748363
 20
8.023388702
 10
4.9044512114
 20
8.0228627529
 10
4.9174098794
 20
8.0226229268
 10
4.9303702332
 20
8.022682997
 10
4.9432519152
 20
8.0230668803
 10
4.9560802398
 20
8.0237970037
 10
4.9688307278
 20
8.0248833973
 10
4.9813490731
 20
8.0263336776
 10
4.9936108165
 20
8.0281650758
 10
5.0056427763
 20
8.0303889164
 10
5.0173679855
 20
8.0330044216
 10
5.0288033084
 20
8.036032235
 10
5.0399342608
 20
8.0394711765
 10
5.0506368258
 20
8.0432861148
 10
5.0608701665
 20
8.0474686873
 10
5.0706765464
 20
8.0520369759
 10
5.0800563026
 20
8.0569931777
  0
LINE
  5
3F1
100
AcDbEntity
  8
RACCORDO
100
AcDbLine
 62
7
  6
CONTINUOUS
 10
4.1419922009
 20
8.8699689266
 11
4.766187798
 21
8.7396363068
  0
LINE
  5
3F2
100
AcDbEntity
  8
RACCORDO
100
AcDbLine
 62
253
  6
CONTINUOUS
 10
4.3688356945
 20
9.0257900874
 11
5.0800563026
 21
8.8772865645
  0
LWPOLYLINE
  5
3F3
100
AcDbEntity
  8
RACCORDO
100
AcDbPolyline
 62
7
  6
CONTINUOUS
 90
10
 70
0
 10
4.1419922009
 20
8.8699689266
 10
4.1344509335
 20
8.8716656277
 10
4.1269487276
 20
8.87359932
 10
4.1194962346
 20
8.8757687983
 10
4.1120889451
 20
8.8781773974
 10
4.1047539879
 20
8.8808179604
 10
4.0975461067
 20
8.883668904
 10
4.090486617
 20
8.8867164732
 10
4.083567414
 20
8.8899586321
 10
4.0812762049
 20
8.8910897752
  0
LWPOLYLINE
  5
3F4
100
AcDbEntity
  8
RACCORDO
100
AcDbPolyline
 62
253
  6
CONTINUOUS
 90
31
 70
0
 10
4.0163137348
 20
9.0263028112
 10
4.0257727051
 20
9.0218138488
 10
4.0356869815
 20
9.0175776243
 10
4.0460295853
 20
9.0136056655
 10
4.0567723557
 20
9.0099087861
 10
4.0678860749
 20
9.00649704
 10
4.0793405523
 20
9.003379698
 10
4.0911046576
 20
9.0005652392
 10
4.103146348
 20
8.9980613363
 10
4.1154328023
 20
8.9958748165
 10
4.1279305667
 20
8.9940116327
 10
4.1406056495
 20
8.9924768514
 10
4.1534235579
 20
8.9912746494
 10
4.1663494213
 20
8.9904082976
 10
4.1793480544
 20
8.9898801547
 10
4.1923840527
 20
8.9896916579
 10
4.2054219206
 20
8.9898433172
 10
4.2184261998
 20
8.9903347168
 10
4.2313615343
 20
8.9911645195
 10
4.2441928399
 20
8.9923304792
 10
4.2568850811
 20
8.9938294171
 10
4.2694034102
 20
8.9956572046
 10
4.2817135745
 20
8.9978088054
 10
4.2937823053
 20
9.0002783687
 10
4.3055770762
 20
9.0030592252
 10
4.3170669387
 20
9.0061441353
 10
4.3282194205
 20
9.0095244389
 10
4.3390012304
 20
9.0131898801
 10
4.3493824195
 20
9.0171298781
 10
4.3593361316
 20
9.0213338256
 10
4.3688356945
 20
9.0257900874
  0
LINE
  5
3F5
100
AcDbEntity
  8
RACCORDO
100
AcDbLine
 62
7
  6
CONTINUOUS
 10
-25.8798987319
 20
23.3626030985
 11
-24.5466863982
 21
22.6959969317
  0
LINE
  5
3F6
100
AcDbEntity
  8
RACCORDO
100
AcDbLine
 62
7
  6
CONTINUOUS
 10
-12.5155805674
 20
16.6804440163
 11
-11.1823682338
 21
16.0138378495
  0
LINE
  5
3F7
100
AcDbEntity
  8
RACCORDO
100
AcDbLine
 62
7
  6
CONTINUOUS
 10
-9.9699961552
 20
15.4076518102
 11
-8.6367838215
 21
14.7410456433
  0
LINE
  5
3F8
100
AcDbEntity
  8
RACCORDO
100
AcDbLine
 62
7
  6
CONTINUOUS
 10
3.3943220093
 20
8.725492728
 11
4.7275343429
 21
8.0588865611
  0
LINE
  5
3F9
100
AcDbEntity
  8
RACCORDO
100
AcDbLine
 62
7
  6
CONTINUOUS
 10
0.4879760343
 20
10.5549123401
 11
-5.0233310654
 21
13.31056589
  0
LINE
  5
3FA
100
AcDbEntity
  8
RACCORDO
100
AcDbLine
 62
7
  6
CONTINUOUS
 10
-15.4219265424
 20
18.5098636285
 11
-20.9332336421
 21
21.2655171783
  0
LINE
  5
3FB
100
AcDbEntity
  8
RACCORDO
100
AcDbLine
 62
7
  6
CONTINUOUS
 10
-26.5179183897
 20
24.1906870716
 11
-25.1929337099
 21
23.5281947317
  0
LINE
  5
3FC
100
AcDbEntity
  8
RACCORDO
100
AcDbLine
 62
7
  6
CONTINUOUS
 10
-13.1536002253
 20
17.5085279894
 11
-11.8286155455
 21
16.8460356495
  0
LINE
  5
3FD
100
AcDbEntity
  8
RACCORDO
100
AcDbLine
 62
7
  6
CONTINUOUS
 10
-10.608015813
 20
16.2357357833
 11
-9.2830311332
 21
15.5732434434
  0
LINE
  5
3FE
100
AcDbEntity
  8
RACCORDO
100
AcDbLine
 62
7
  6
CONTINUOUS
 10
2.7563023514
 20
9.553576701
 11
4.0812870312
 21
8.8910843611
  0
LINE
  5
3FF
100
AcDbEntity
  8
RACCORDO
100
AcDbLine
 62
253
  6
CONTINUOUS
 10
-26.5828916861
 20
24.3259055217
 11
-25.2579070063
 21
23.6634131818
  0
LINE
  5
400
100
AcDbEntity
  8
RACCORDO
100
AcDbLine
 62
253
  6
CONTINUOUS
 10
-13.2185735217
 20
17.6437464395
 11
-11.8935888419
 21
16.9812540996
  0
LINE
  5
401
100
AcDbEntity
  8
RACCORDO
100
AcDbLine
 62
253
  6
CONTINUOUS
 10
-10.6729891094
 20
16.3709542334
 11
-9.3480044296
 21
15.7084618935
  0
LINE
  5
402
100
AcDbEntity
  8
RACCORDO
100
AcDbLine
 62
253
  6
CONTINUOUS
 10
2.691329055
 20
9.6887951512
 11
4.0163137348
 21
9.0263028112
  0
LWPOLYLINE
  5
403
100
AcDbEntity
  8
RACCORDO
100
AcDbPolyline
 62
7
  6
CONTINUOUS
 90
24
 70
0
 10
-26.5178861161
 20
24.1906709426
 10
-26.5254785373
 20
24.1946297298
 10
-26.536247598
 20
24.2008331036
 10
-26.5466998604
 20
24.2075672517
 10
-26.5567854738
 20
24.2147984942
 10
-26.5664866039
 20
24.2225102785
 10
-26.5758115855
 20
24.230709922
 10
-26.5847360479
 20
24.2393809834
 10
-26.593224646
 20
24.2484928533
 10
-26.6012657502
 20
24.25803709
 10
-26.6088285358
 20
24.2679818106
 10
-26.6158941551
 20
24.2783059941
 10
-26.6224638989
 20
24.289021566
 10
-26.6285174341
 20
24.3001135157
 10
-26.6340238201
 20
24.3115438546
 10
-26.6389640273
 20
24.323292077
 10
-26.64331584
 20
24.3353270593
 10
-26.6470594771
 20
24.3476173783
 10
-26.6501794116
 20
24.3601407666
 10
-26.6526578704
 20
24.3728618947
 10
-26.6544795739
 20
24.3857450735
 10
-26.6556322956
 20
24.3987660034
 10
-26.6561034382
 20
24.4118905079
 10
-26.6561149908
 20
24.4142930844
  0
LWPOLYLINE
  5
404
100
AcDbEntity
  8
RACCORDO
100
AcDbPolyline
 62
7
  6
CONTINUOUS
 90
24
 70
0
 10
-13.1535679517
 20
17.5085118604
 10
-13.1611603729
 20
17.5124706476
 10
-13.1719294336
 20
17.5186740214
 10
-13.182381696
 20
17.5254081695
 10
-13.1924673094
 20
17.532639412
 10
-13.2021684394
 20
17.5403511963
 10
-13.2114934211
 20
17.5485508397
 10
-13.2204178834
 20
17.5572219012
 10
-13.2289064816
 20
17.5663337711
 10
-13.2369475858
 20
17.5758780078
 10
-13.2445103713
 20
17.5858227284
 10
-13.2515759907
 20
17.5961469119
 10
-13.2581457344
 20
17.6068624837
 10
-13.2641992697
 20
17.6179544335
 10
-13.2697056556
 20
17.6293847724
 10
-13.2746458629
 20
17.6411329948
 10
-13.2789976756
 20
17.6531679771
 10
-13.2827413127
 20
17.6654582961
 10
-13.2858612471
 20
17.6779816844
 10
-13.2883397059
 20
17.6907028125
 10
-13.2901614095
 20
17.7035859913
 10
-13.2913141312
 20
17.7166069212
 10
-13.2917852738
 20
17.7297314257
 10
-13.2917968264
 20
17.7321340022
  0
LWPOLYLINE
  5
405
100
AcDbEntity
  8
RACCORDO
100
AcDbPolyline
 62
7
  6
CONTINUOUS
 90
24
 70
0
 10
-10.6079835395
 20
16.2357196542
 10
-10.6155759606
 20
16.2396784414
 10
-10.6263450213
 20
16.2458818153
 10
-10.6367972837
 20
16.2526159634
 10
-10.6468828971
 20
16.2598472059
 10
-10.6565840272
 20
16.2675589901
 10
-10.6659090088
 20
16.2757586336
 10
-10.6748334712
 20
16.2844296951
 10
-10.6833220693
 20
16.293541565
 10
-10.6913631735
 20
16.3030858016
 10
-10.6989259591
 20
16.3130305222
 10
-10.7059915784
 20
16.3233547057
 10
-10.7125613222
 20
16.3340702776
 10
-10.7186148574
 20
16.3451622274
 10
-10.7241212434
 20
16.3565925663
 10
-10.7290614506
 20
16.3683407887
 10
-10.7334132633
 20
16.3803757709
 10
-10.7371569004
 20
16.3926660899
 10
-10.7402768349
 20
16.4051894782
 10
-10.7427552937
 20
16.4179106063
 10
-10.7445769972
 20
16.4307937852
 10
-10.7457297189
 20
16.4438147151
 10
-10.7462008615
 20
16.4569392196
 10
-10.7462124141
 20
16.459341796
  0
LWPOLYLINE
  5
406
100
AcDbEntity
  8
RACCORDO
100
AcDbPolyline
 62
7
  6
CONTINUOUS
 90
24
 70
0
 10
2.756334625
 20
9.553560572
 10
2.7487422038
 20
9.5575193592
 10
2.7379731431
 20
9.5637227331
 10
2.7275208807
 20
9.5704568811
 10
2.7174352673
 20
9.5776881236
 10
2.7077341373
 20
9.5853999079
 10
2.6984091556
 20
9.5935995514
 10
2.6894846933
 20
9.6022706129
 10
2.6809960951
 20
9.6113824827
 10
2.6729549909
 20
9.6209267194
 10
2.6653922054
 20
9.63087144
 10
2.658326586
 20
9.6411956235
 10
2.6517568423
 20
9.6519111954
 10
2.645703307
 20
9.6630031451
 10
2.6401969211
 20
9.6744334841
 10
2.6352567138
 20
9.6861817065
 10
2.6309049011
 20
9.6982166887
 10
2.627161264
 20
9.7105070077
 10
2.6240413296
 20
9.723030396
 10
2.6215628708
 20
9.7357515241
 10
2.6197411672
 20
9.748634703
 10
2.6185884455
 20
9.7616556329
 10
2.6181173029
 20
9.7747801374
 10
2.6181057503
 20
9.7771827138
  0
LWPOLYLINE
  5
407
100
AcDbEntity
  8
RACCORDO
100
AcDbPolyline
 62
253
  6
CONTINUOUS
 90
16
 70
0
 10
-26.5828916861
 20
24.3259055217
 10
-26.591869611
 20
24.3306350069
 10
-26.6003420599
 20
24.3355921451
 10
-26.6082859777
 20
24.3407634469
 10
-26.6156797364
 20
24.3461348322
 10
-26.6225032286
 20
24.3516916918
 10
-26.6287379126
 20
24.3574189304
 10
-26.6343668303
 20
24.3633009831
 10
-26.6393746361
 20
24.3693218283
 10
-26.6437476756
 20
24.3754650555
 10
-26.6474740433
 20
24.3817139377
 10
-26.6505436058
 20
24.388051479
 10
-26.6529480098
 20
24.3944604333
 10
-26.6546807134
 20
24.4009233649
 10
-26.6557369993
 20
24.4074226815
 10
-26.6561149908
 20
24.4142930844
  0
LWPOLYLINE
  5
408
100
AcDbEntity
  8
RACCORDO
100
AcDbPolyline
 62
253
  6
CONTINUOUS
 90
16
 70
0
 10
-26.5828916861
 20
24.6658794558
 10
-26.591870673
 20
24.6706095305
 10
-26.6003440772
 20
24.6755673238
 10
-26.6082888315
 20
24.6807393427
 10
-26.6156833147
 20
24.6861115168
 10
-26.6225073872
 20
24.6916692196
 10
-26.6287424515
 20
24.6973973064
 10
-26.6343715338
 20
24.703280181
 10
-26.6393793186
 20
24.7093018347
 10
-26.6437521728
 20
24.715445871
 10
-26.6474781965
 20
24.7216955648
 10
-26.6505472523
 20
24.7280339057
 10
-26.6529509889
 20
24.7344436386
 10
-26.6546828697
 20
24.7409073244
 10
-26.6557381816
 20
24.747407362
 10
-26.6561149908
 20
24.7542678035
  0
LWPOLYLINE
  5
409
100
AcDbEntity
  8
RACCORDO
100
AcDbPolyline
 62
253
  6
CONTINUOUS
 90
16
 70
0
 10
-13.2185735217
 20
17.6437464395
 10
-13.2275514466
 20
17.6484759247
 10
-13.2360238955
 20
17.6534330629
 10
-13.2439678132
 20
17.6586043647
 10
-13.251361572
 20
17.66397575
 10
-13.2581850642
 20
17.6695326096
 10
-13.2644197482
 20
17.6752598482
 10
-13.2700486659
 20
17.6811419009
 10
-13.2750564717
 20
17.6871627461
 10
-13.2794295111
 20
17.6933059732
 10
-13.2831558789
 20
17.6995548554
 10
-13.2862254414
 20
17.7058923968
 10
-13.2886298454
 20
17.712301351
 10
-13.290362549
 20
17.7187642827
 10
-13.2914188349
 20
17.7252635993
 10
-13.2917968264
 20
17.7321340022
  0
LWPOLYLINE
  5
40A
100
AcDbEntity
  8
RACCORDO
100
AcDbPolyline
 62
253
  6
CONTINUOUS
 90
16
 70
0
 10
-10.6729891094
 20
16.3709542334
 10
-10.6819670343
 20
16.3756837185
 10
-10.6904394832
 20
16.3806408567
 10
-10.698383401
 20
16.3858121586
 10
-10.7057771597
 20
16.3911835438
 10
-10.7126006519
 20
16.3967404034
 10
-10.7188353359
 20
16.4024676421
 10
-10.7244642536
 20
16.4083496948
 10
-10.7294720594
 20
16.41437054
 10
-10.7338450989
 20
16.4205137671
 10
-10.7375714666
 20
16.4267626493
 10
-10.7406410291
 20
16.4331001907
 10
-10.7430454331
 20
16.4395091449
 10
-10.7447781367
 20
16.4459720766
 10
-10.7458344226
 20
16.4524713932
 10
-10.7462124141
 20
16.459341796
  0
LWPOLYLINE
  5
40B
100
AcDbEntity
  8
RACCORDO
100
AcDbPolyline
 62
253
  6
CONTINUOUS
 90
16
 70
0
 10
-13.2185735217
 20
17.9837203736
 10
-13.2275505889
 20
17.9884493827
 10
-13.2360222815
 20
17.9934060012
 10
-13.2439655509
 20
17.9985767438
 10
-13.2513587859
 20
18.0039475426
 10
-13.2581818722
 20
18.0095037854
 10
-13.2644162462
 20
18.0152303556
 10
-13.2700449464
 20
18.021111673
 10
-13.2750526589
 20
18.0271317365
 10
-13.2794257593
 20
18.0332741676
 10
-13.28315235
 20
18.0395222546
 10
-13.286222292
 20
18.0458589986
 10
-13.2886272332
 20
18.0522671595
 10
-13.2903606303
 20
18.0587293026
 10
-13.2914177676
 20
18.0652278468
 10
-13.2917968264
 20
18.0721087213
  0
LWPOLYLINE
  5
40C
100
AcDbEntity
  8
RACCORDO
100
AcDbPolyline
 62
253
  6
CONTINUOUS
 90
16
 70
0
 10
-10.6729891094
 20
16.7109281675
 10
-10.6819680963
 20
16.7156582422
 10
-10.6904415005
 20
16.7206160355
 10
-10.6983862548
 20
16.7257880544
 10
-10.705780738
 20
16.7311602285
 10
-10.7126048105
 20
16.7367179313
 10
-10.7188398748
 20
16.742446018
 10
-10.7244689571
 20
16.7483288927
 10
-10.7294767419
 20
16.7543505463
 10
-10.7338495961
 20
16.7604945826
 10
-10.7375756198
 20
16.7667442764
 10
-10.7406446756
 20
16.7730826173
 10
-10.7430484122
 20
16.7794923503
 10
-10.744780293
 20
16.785956036
 10
-10.7458356049
 20
16.7924560736
 10
-10.7462124141
 20
16.7993165151
  0
LWPOLYLINE
  5
40D
100
AcDbEntity
  8
RACCORDO
100
AcDbPolyline
 62
253
  6
CONTINUOUS
 90
16
 70
0
 10
2.691329055
 20
9.6887951512
 10
2.6823511301
 20
9.6935246363
 10
2.6738786812
 20
9.6984817745
 10
2.6659347635
 20
9.7036530764
 10
2.6585410047
 20
9.7090244616
 10
2.6517175125
 20
9.7145813212
 10
2.6454828285
 20
9.7203085599
 10
2.6398539108
 20
9.7261906126
 10
2.634846105
 20
9.7322114578
 10
2.6304730656
 20
9.7383546849
 10
2.6267466978
 20
9.7446035671
 10
2.6236771353
 20
9.7509411085
 10
2.6212727313
 20
9.7573500627
 10
2.6195400277
 20
9.7638129944
 10
2.6184837418
 20
9.770312311
 10
2.6181057503
 20
9.7771827138
  0
LWPOLYLINE
  5
40E
100
AcDbEntity
  8
RACCORDO
100
AcDbPolyline
 62
7
  6
CONTINUOUS
 90
10
 70
0
 10
-4.2382587613
 20
20.7805662254
 10
-4.2393611854
 20
20.7819329041
 10
-4.2549791486
 20
20.8000335988
 10
-4.2714082621
 20
20.8177906958
 10
-4.2886727949
 20
20.8352270506
 10
-4.306748478
 20
20.8523198078
 10
-4.3255659401
 20
20.8689164207
 10
-4.3451020572
 20
20.8849660405
 10
-4.3653799533
 20
20.9005195162
 10
-4.3863996282
 20
20.9155768475
  0
LWPOLYLINE
  5
40F
100
AcDbEntity
  8
RACCORDO
100
AcDbPolyline
 62
7
  6
CONTINUOUS
 90
12
 70
0
 10
11.7854915392
 20
12.3310698221
 10
11.7852773428
 20
12.3520468053
 10
11.7839568178
 20
12.3869979351
 10
11.7814490766
 20
12.4213890964
 10
11.7777724912
 20
12.4552055904
 10
11.7729465509
 20
12.4884286968
 10
11.766992336
 20
12.5210253363
 10
11.7599299131
 20
12.5529758877
 10
11.751779603
 20
12.584263148
 10
11.742567091
 20
12.6148493381
 10
11.7323171688
 20
12.6447082213
 10
11.72049344
 20
12.6751884444
  0
LINE
  5
410
100
AcDbEntity
  8
RACCORDO
100
AcDbLine
 62
253
  6
CONTINUOUS
 10
11.6421169239
 20
12.1558355528
 11
11.6421169239
 21
11.9308345614
  0
LINE
  5
411
100
AcDbEntity
  8
RACCORDO
100
AcDbLine
 62
253
  6
CONTINUOUS
 10
11.6421169239
 20
-24.5643486654
 11
11.6421169239
 21
-24.6376903555
  0
LINE
  5
412
100
AcDbEntity
  8
RACCORDO
100
AcDbLine
 62
7
  6
CONTINUOUS
 10
11.7854916993
 20
12.3310628689
 11
11.7854916993
 21
12.1087009479
  0
LINE
  5
413
100
AcDbEntity
  8
0
100
AcDbLine
 62
7
  6
CONTINUOUS
 10
12.6522755675
 20
14.6002842996
 11
12.6522755675
 21
15.1718150769
  0
LINE
  5
414
100
AcDbEntity
  8
0
100
AcDbLine
 62
7
  6
CONTINUOUS
 10
12.7936969237
 20
15.5108094873
 11
12.7936969237
 21
14.6679716718
  0
LWPOLYLINE
  5
415
100
AcDbEntity
  8
RACCORDO
100
AcDbPolyline
 62
253
  6
CONTINUOUS
 90
10
 70
0
 10
11.6421169239
 20
-24.6376903555
 10
11.6419819674
 20
-24.6497329395
 10
11.6415813193
 20
-24.6618800556
 10
11.6409149797
 20
-24.6741317039
 10
11.6399822463
 20
-24.6864951456
 10
11.6387838214
 20
-24.6989631194
 10
11.6373218117
 20
-24.7115138422
 10
11.6355969196
 20
-24.7241400527
 10
11.6336084428
 20
-24.7368490121
 10
11.6313563813
 20
-24.7496407204
  0
LWPOLYLINE
  5
416
100
AcDbEntity
  8
RACCORDO
100
AcDbPolyline
 62
253
  6
CONTINUOUS
 90
18
 70
0
 10
11.7854916993
 20
12.3310628689
 10
11.7853985373
 20
12.3262370688
 10
11.7843818929
 20
12.3144152359
 10
11.7822476218
 20
12.3026306974
 10
11.7790005051
 20
12.2909098535
 10
11.7746478172
 20
12.2792789613
 10
11.7691993091
 20
12.2677640768
 10
11.7626671865
 20
12.256390996
 10
11.7550660831
 20
12.245185197
 10
11.7464130269
 20
12.2341717833
 10
11.7367274027
 20
12.2233754277
 10
11.7260309086
 20
12.2128203162
 10
11.7143475071
 20
12.2025300947
 10
11.7017033717
 20
12.1925278158
 10
11.6881268281
 20
12.1828358866
 10
11.6736482908
 20
12.1734760194
 10
11.658300195
 20
12.1644691823
 10
11.6421169239
 20
12.1558355528
  0
LWPOLYLINE
  5
417
100
AcDbEntity
  8
RACCORDO
100
AcDbPolyline
 62
7
  6
CONTINUOUS
 90
18
 70
0
 10
0.9107984141
 20
11.7378852154
 10
0.8935037462
 20
11.7363928797
 10
0.8763093479
 20
11.7343993019
 10
0.8592510102
 20
11.731992119
 10
0.8423601767
 20
11.7292811654
 10
0.825655914
 20
11.7263241528
 10
0.809149094
 20
11.7231133047
 10
0.7928556871
 20
11.7197030769
 10
0.7767858942
 20
11.7161585472
 10
0.7609427403
 20
11.7124645912
 10
0.7453339286
 20
11.7086613089
 10
0.729964846
 20
11.7047977206
 10
0.714838118
 20
11.7008574469
 10
0.6999571004
 20
11.6968713996
 10
0.6853245744
 20
11.6928773137
 10
0.6709459495
 20
11.6888601843
 10
0.6568223965
 20
11.6848450237
 10
0.6293526509
 20
11.6768974115
  0
LWPOLYLINE
  5
418
100
AcDbEntity
  8
RACCORDO
100
AcDbPolyline
 62
7
  6
CONTINUOUS
 90
10
 70
0
 10
-9.2223259635
 20
15.5521280088
 10
-9.229867231
 20
15.5538247099
 10
-9.2373694368
 20
15.5557584022
 10
-9.2448219298
 20
15.5579278805
 10
-9.2522292193
 20
15.5603364796
 10
-9.2595641765
 20
15.5629770426
 10
-9.2667720577
 20
15.5658279862
 10
-9.2738315475
 20
15.5688755555
 10
-9.2807507505
 20
15.5721177144
 10
-9.2830419595
 20
15.5732488574
  0
LWPOLYLINE
  5
419
100
AcDbEntity
  8
RACCORDO
100
AcDbPolyline
 62
253
  6
CONTINUOUS
 90
14
 70
0
 10
6.4323849129
 20
10.743404275
 10
6.4249574905
 20
10.7467237935
 10
6.4173745479
 20
10.7493614937
 10
6.4095281296
 20
10.7513743643
 10
6.4014398383
 20
10.7527568892
 10
6.3931318705
 20
10.7535053495
 10
6.3846266982
 20
10.7536177937
 10
6.3759472354
 20
10.7530939448
 10
6.3671151449
 20
10.7519349028
 10
6.3581563619
 20
10.7501438674
 10
6.349101025
 20
10.7477274371
 10
6.3399758563
 20
10.7446940657
 10
6.3308038517
 20
10.7410527085
 10
6.3216099534
 20
10.7368143839
  0
LWPOLYLINE
  5
41A
100
AcDbEntity
  8
RACCORDO
100
AcDbPolyline
 62
253
  6
CONTINUOUS
 90
14
 70
0
 10
5.0950587524
 20
11.4120673553
 10
5.08763133
 20
11.4153868738
 10
5.0800483874
 20
11.418024574
 10
5.072201969
 20
11.4200374445
 10
5.0641136777
 20
11.4214199695
 10
5.05580571
 20
11.4221684297
 10
5.0473005376
 20
11.422280874
 10
5.0386210749
 20
11.4217570251
 10
5.0297889844
 20
11.4205979831
 10
5.0208302014
 20
11.4188069477
 10
5.0117748645
 20
11.4163905174
 10
5.0026496957
 20
11.413357146
 10
4.9934776912
 20
11.4097157888
 10
4.9842837928
 20
11.4054774641
  0
LWPOLYLINE
  5
41B
100
AcDbEntity
  8
RACCORDO
100
AcDbPolyline
 62
253
  6
CONTINUOUS
 90
14
 70
0
 10
-9.4775176638
 20
18.6983555633
 10
-9.4849450862
 20
18.7016750819
 10
-9.4925280288
 20
18.7043127821
 10
-9.5003744471
 20
18.7063256526
 10
-9.5084627384
 20
18.7077081775
 10
-9.5167707062
 20
18.7084566378
 10
-9.5252758785
 20
18.7085690821
 10
-9.5339553413
 20
18.7080452332
 10
-9.5427874318
 20
18.7068861912
 10
-9.5517462148
 20
18.7050951558
 10
-9.5608015517
 20
18.7026787255
 10
-9.5699267204
 20
18.6996453541
 10
-9.579098725
 20
18.6960039968
 10
-9.5882926233
 20
18.6917656722
  0
LWPOLYLINE
  5
41C
100
AcDbEntity
  8
RACCORDO
100
AcDbPolyline
 62
253
  6
CONTINUOUS
 90
14
 70
0
 10
-6.9319332515
 20
17.4255633572
 10
-6.9393313322
 20
17.4288712511
 10
-6.9469115496
 20
17.4315109045
 10
-6.954755196
 20
17.4335260165
 10
-6.9628409315
 20
17.4349111045
 10
-6.9711467576
 20
17.4356624002
 10
-6.9796500767
 20
17.4357778595
 10
-6.9883277543
 20
17.4352571683
 10
-6.9971561811
 20
17.4341017433
 10
-7.006111338
 20
17.432314728
 10
-7.015168861
 20
17.4299009842
 10
-7.0243041074
 20
17.426867079
 10
-7.0334922234
 20
17.4232212666
 10
-7.0427082111
 20
17.4189734661
  0
LWPOLYLINE
  5
41D
100
AcDbEntity
  8
RACCORDO
100
AcDbPolyline
 62
253
  6
CONTINUOUS
 90
14
 70
0
 10
-8.2692594121
 20
18.0942264375
 10
-8.2766574928
 20
18.0975343313
 10
-8.2842377101
 20
18.1001739848
 10
-8.2920813565
 20
18.1021890968
 10
-8.3001670921
 20
18.1035741848
 10
-8.3084729181
 20
18.1043254804
 10
-8.3169762373
 20
18.1044409398
 10
-8.3256539148
 20
18.1039202486
 10
-8.3344823417
 20
18.1027648236
 10
-8.3434374986
 20
18.1009778083
 10
-8.3524950215
 20
18.0985640645
 10
-8.361630268
 20
18.0955301593
 10
-8.3708183839
 20
18.0918843469
 10
-8.3800343716
 20
18.0876365464
  0
LWPOLYLINE
  5
41E
100
AcDbEntity
  8
RACCORDO
100
AcDbPolyline
 62
253
  6
CONTINUOUS
 90
15
 70
0
 10
2.867077311
 20
10.3331459002
 10
2.8577715269
 20
10.3374491649
 10
2.8484940613
 20
10.3411484043
 10
2.8392703529
 20
10.3442334717
 10
2.8301256853
 20
10.3466959064
 10
2.8210851419
 20
10.3485289498
 10
2.8121735365
 20
10.3497275697
 10
2.8034153098
 20
10.3502884807
 10
2.7948344708
 20
10.3502101474
 10
2.7864545541
 20
10.3494927869
 10
2.7782985362
 20
10.3481383692
 10
2.7703887797
 20
10.3461506109
 10
2.7627469778
 20
10.3435349679
 10
2.7553940766
 20
10.340298614
 10
2.7539916448
 20
10.3395938754
  0
LWPOLYLINE
  5
41F
100
AcDbEntity
  8
RACCORDO
100
AcDbPolyline
 62
253
  6
CONTINUOUS
 90
15
 70
0
 10
-10.4972408535
 20
17.0153049825
 10
-10.5065446871
 20
17.0196074072
 10
-10.515820202
 20
17.0233060559
 10
-10.5250419755
 20
17.0263907913
 10
-10.5341847327
 20
17.0288531587
 10
-10.5432234148
 20
17.0306864092
 10
-10.5521332486
 20
17.0318855182
 10
-10.5608898139
 20
17.0324471993
 10
-10.5694691106
 20
17.0323699128
 10
-10.5778476244
 20
17.0316538708
 10
-10.5860023914
 20
17.0303010356
 10
-10.593911061
 20
17.0283151152
 10
-10.6015519569
 20
17.0257015526
 10
-10.6089041368
 20
17.022467511
 10
-10.6103265196
 20
17.0217529576
  0
LWPOLYLINE
  5
420
100
AcDbEntity
  8
RACCORDO
100
AcDbPolyline
 62
253
  6
CONTINUOUS
 90
15
 70
0
 10
-13.0428252657
 20
18.2880971886
 10
-13.0521310498
 20
18.2924004532
 10
-13.0614085154
 20
18.2960996926
 10
-13.0706322238
 20
18.2991847601
 10
-13.0797768914
 20
18.3016471948
 10
-13.0888174348
 20
18.3034802382
 10
-13.0977290402
 20
18.304678858
 10
-13.1064872669
 20
18.3052397691
 10
-13.1150681059
 20
18.3051614358
 10
-13.1234480226
 20
18.3044440753
 10
-13.1316040405
 20
18.3030896575
 10
-13.139513797
 20
18.3011018993
 10
-13.1471555989
 20
18.2984862563
 10
-13.1545085001
 20
18.2952499023
 10
-13.1559109319
 20
18.2945451637
  0
LWPOLYLINE
  5
421
100
AcDbEntity
  8
RACCORDO
100
AcDbPolyline
 62
253
  6
CONTINUOUS
 90
15
 70
0
 10
-26.4071434302
 20
24.9702562708
 10
-26.4164472638
 20
24.9745586955
 10
-26.4257227787
 20
24.9782573442
 10
-26.4349445522
 20
24.9813420796
 10
-26.4440873094
 20
24.983804447
 10
-26.4531259915
 20
24.9856376975
 10
-26.4620358253
 20
24.9868368066
 10
-26.4707923906
 20
24.9873984876
 10
-26.4793716873
 20
24.9873212012
 10
-26.4877502011
 20
24.9866051591
 10
-26.4959049681
 20
24.9852523239
 10
-26.5038136377
 20
24.9832664035
 10
-26.5114545336
 20
24.9806528409
 10
-26.5188067135
 20
24.9774187994
 10
-26.5202290963
 20
24.9767042459
  0
LWPOLYLINE
  5
422
100
AcDbEntity
  8
RACCORDO
100
AcDbPolyline
 62
7
  6
CONTINUOUS
 90
18
 70
0
 10
-8.2692594121
 20
18.0942264375
 10
-8.2814652243
 20
18.099923625
 10
-8.294087503
 20
18.1050024331
 10
-8.3070876929
 20
18.1094243338
 10
-8.3204422741
 20
18.1131586064
 10
-8.3340852619
 20
18.1161661929
 10
-8.3479095514
 20
18.1184116117
 10
-8.3618406854
 20
18.1198795639
 10
-8.3758493742
 20
18.1205652737
 10
-8.3898988706
 20
18.120463439
 10
-8.4039311829
 20
18.1195715175
 10
-8.417903729
 20
18.1178902335
 10
-8.4318095882
 20
18.1154149922
 10
-8.4456544943
 20
18.1121313663
 10
-8.4593367529
 20
18.1080500295
 10
-8.4727076826
 20
18.1032163239
 10
-8.4857304037
 20
18.0976542072
 10
-8.4905531221
 20
18.0953681028
  0
LWPOLYLINE
  5
423
100
AcDbEntity
  8
RACCORDO
100
AcDbPolyline
 62
7
  6
CONTINUOUS
 90
14
 70
0
 10
4.4498339141
 20
11.1451299976
 10
4.4405824984
 20
11.1494592182
 10
4.4313561834
 20
11.1531830406
 10
4.4221803911
 20
11.1562913243
 10
4.4130805037
 20
11.158775667
 10
4.4040814727
 20
11.1606292606
 10
4.3952077495
 20
11.1618469105
 10
4.3864837256
 20
11.1624253122
 10
4.3779334312
 20
11.1623629378
 10
4.3695801475
 20
11.1616598748
 10
4.3614468082
 20
11.1603180673
 10
4.3535557962
 20
11.1583412369
 10
4.3459286482
 20
11.1557347518
 10
4.3389017007
 20
11.1526601429
  0
LWPOLYLINE
  5
424
100
AcDbEntity
  8
RACCORDO
100
AcDbPolyline
 62
7
  6
CONTINUOUS
 90
14
 70
0
 10
-8.9144842503
 20
17.8272890798
 10
-8.923735666
 20
17.8316183005
 10
-8.932961981
 20
17.8353421228
 10
-8.9421377734
 20
17.8384504065
 10
-8.9512376607
 20
17.8409347492
 10
-8.9602366918
 20
17.8427883428
 10
-8.9691104149
 20
17.8440059927
 10
-8.9778344388
 20
17.8445843944
 10
-8.9863847332
 20
17.8445220201
 10
-8.9947380169
 20
17.843818957
 10
-9.0028713562
 20
17.8424771495
 10
-9.0107623682
 20
17.8405003191
 10
-9.0183895162
 20
17.837893834
 10
-9.0254164638
 20
17.8348192251
  0
LWPOLYLINE
  5
425
100
AcDbEntity
  8
RACCORDO
100
AcDbPolyline
 62
7
  6
CONTINUOUS
 90
14
 70
0
 10
-11.4600686626
 20
19.1000812859
 10
-11.4693200783
 20
19.1044105066
 10
-11.4785463933
 20
19.108134329
 10
-11.4877221856
 20
19.1112426126
 10
-11.496822073
 20
19.1137269553
 10
-11.505821104
 20
19.115580549
 10
-11.5146948272
 20
19.1167981988
 10
-11.5234188511
 20
19.1173766005
 10
-11.5319691455
 20
19.1173142262
 10
-11.5403224292
 20
19.1166111631
 10
-11.5484557685
 20
19.1152693557
 10
-11.5563467805
 20
19.1132925253
 10
-11.5639739285
 20
19.1106860401
 10
-11.571000876
 20
19.1076114312
  0
LWPOLYLINE
  5
426
100
AcDbEntity
  8
RACCORDO
100
AcDbPolyline
 62
7
  6
CONTINUOUS
 90
14
 70
0
 10
-24.824386827
 20
25.7822403681
 10
-24.8336382427
 20
25.7865695888
 10
-24.8428645577
 20
25.7902934112
 10
-24.8520403501
 20
25.7934016949
 10
-24.8611402374
 20
25.7958860375
 10
-24.8701392685
 20
25.7977396312
 10
-24.8790129916
 20
25.798957281
 10
-24.8877370155
 20
25.7995356827
 10
-24.8962873099
 20
25.7994733084
 10
-24.9046405936
 20
25.7987702453
 10
-24.9127739329
 20
25.7974284379
 10
-24.9206649449
 20
25.7954516075
 10
-24.9282920929
 20
25.7928451223
 10
-24.9353190405
 20
25.7897705134
  0
LWPOLYLINE
  5
427
100
AcDbEntity
  8
RACCORDO
100
AcDbPolyline
 62
253
  6
CONTINUOUS
 90
14
 70
0
 10
4.9842837928
 20
11.4054774641
 10
4.9750847831
 20
11.4098323009
 10
4.9659081675
 20
11.4135803991
 10
4.9567790972
 20
11.4167114862
 10
4.9477225933
 20
11.4192169802
 10
4.9387634781
 20
11.4210900142
 10
4.9299263068
 20
11.4223254545
 10
4.9212353004
 20
11.422919915
 10
4.9127142793
 20
11.4228717664
 10
4.9043865981
 20
11.4221811406
 10
4.8962750814
 20
11.4208499305
 10
4.8884019612
 20
11.4188817848
 10
4.8807888164
 20
11.4162820977
 10
4.8737716817
 20
11.4132122552
  0
LWPOLYLINE
  5
428
100
AcDbEntity
  8
RACCORDO
100
AcDbPolyline
 62
253
  6
CONTINUOUS
 90
14
 70
0
 10
-8.3800343716
 20
18.0876365464
 10
-8.3892126564
 20
18.0919822427
 10
-8.3983741208
 20
18.0957259947
 10
-8.4074936767
 20
18.0988564922
 10
-8.4165480537
 20
18.1013645053
 10
-8.4255104931
 20
18.1032413696
 10
-8.4343510331
 20
18.104480268
 10
-8.4430436476
 20
18.1050777459
 10
-8.4515663485
 20
18.105032488
 10
-8.4598960084
 20
18.1043445898
 10
-8.4680099356
 20
18.1030158488
 10
-8.4758856934
 20
18.1010498607
 10
-8.4835014279
 20
18.0984520544
 10
-8.4905464827
 20
18.0953713374
  0
LWPOLYLINE
  5
429
100
AcDbEntity
  8
RACCORDO
100
AcDbPolyline
 62
253
  6
CONTINUOUS
 90
14
 70
0
 10
-10.9256187839
 20
19.3604287525
 10
-10.9348177936
 20
19.3647835892
 10
-10.9439944092
 20
19.3685316875
 10
-10.9531234795
 20
19.3716627745
 10
-10.9621799833
 20
19.3741682686
 10
-10.9711390986
 20
19.3760413026
 10
-10.9799762699
 20
19.3772767429
 10
-10.9886672763
 20
19.3778712034
 10
-10.9971882974
 20
19.3778230547
 10
-11.0055159786
 20
19.3771324289
 10
-11.0136274953
 20
19.3758012189
 10
-11.0215006155
 20
19.3738330732
 10
-11.0291137603
 20
19.3712333861
 10
-11.036130895
 20
19.3681635435
  0
LWPOLYLINE
  5
42A
100
AcDbEntity
  8
RACCORDO
100
AcDbPolyline
 62
253
  6
CONTINUOUS
 90
14
 70
0
 10
-24.2899369483
 20
26.0425878347
 10
-24.2991152331
 20
26.046933531
 10
-24.3082766975
 20
26.050677283
 10
-24.3173962534
 20
26.0538077805
 10
-24.3264506304
 20
26.0563157937
 10
-24.3354130698
 20
26.058192658
 10
-24.3442536098
 20
26.0594315563
 10
-24.3529462243
 20
26.0600290342
 10
-24.3614689252
 20
26.0599837764
 10
-24.3697985851
 20
26.0592958781
 10
-24.3779125123
 20
26.0579671371
 10
-24.3857882701
 20
26.0560011491
 10
-24.3934040046
 20
26.0534033428
 10
-24.4004490594
 20
26.0503226258
  0
LWPOLYLINE
  5
42B
100
AcDbEntity
  8
RACCORDO
100
AcDbPolyline
 62
253
  6
CONTINUOUS
 90
31
 70
0
 10
-9.3480044296
 20
15.7084618935
 10
-9.3385454593
 20
15.703972931
 10
-9.3286311829
 20
15.6997367065
 10
-9.3182885792
 20
15.6957647477
 10
-9.3075458087
 20
15.6920678683
 10
-9.2964320895
 20
15.6886561222
 10
-9.2849776122
 20
15.6855387802
 10
-9.2732135068
 20
15.6827243214
 10
-9.2611718164
 20
15.6802204185
 10
-9.2488853621
 20
15.6780338987
 10
-9.2363875977
 20
15.6761707149
 10
-9.223712515
 20
15.6746359336
 10
-9.2108946065
 20
15.6734337316
 10
-9.1979687432
 20
15.6725673798
 10
-9.18497011
 20
15.6720392369
 10
-9.1719341117
 20
15.6718507401
 10
-9.1588962438
 20
15.6720023994
 10
-9.1458919646
 20
15.672493799
 10
-9.1329566301
 20
15.6733236017
 10
-9.1201253245
 20
15.6744895614
 10
-9.1074330833
 20
15.6759884993
 10
-9.0949147542
 20
15.6778162868
 10
-9.0826045899
 20
15.6799678876
 10
-9.0705358591
 20
15.6824374509
 10
-9.0587410883
 20
15.6852183074
 10
-9.0472512257
 20
15.6883032175
 10
-9.0360987439
 20
15.6916835211
 10
-9.0253169341
 20
15.6953489623
 10
-9.014935745
 20
15.6992889603
 10
-9.0049820328
 20
15.7034929078
 10
-8.99548247
 20
15.7079491696
  0
LWPOLYLINE
  5
42C
100
AcDbEntity
  8
RACCORDO
100
AcDbPolyline
 62
253
  6
CONTINUOUS
 90
31
 70
0
 10
4.0163137348
 20
9.3662767454
 10
4.0257738842
 20
9.3617872519
 10
4.0356894707
 20
9.3575505498
 10
4.0460335086
 20
9.3535781727
 10
4.0567778568
 20
9.3498809311
 10
4.0678932623
 20
9.3464688949
 10
4.0793494359
 20
9.3433513627
 10
4.0911151852
 20
9.3405368215
 10
4.1031584925
 20
9.3380329291
 10
4.1154465651
 20
9.3358465021
 10
4.1279459527
 20
9.3339834902
 10
4.1406226345
 20
9.3324489623
 10
4.1534421004
 20
9.331247094
 10
4.1663694719
 20
9.3303811536
 10
4.179369547
 20
9.3298534976
 10
4.1924068904
 20
9.3296655602
 10
4.2054459617
 20
9.3298178455
 10
4.2184513267
 20
9.3303099314
 10
4.231387701
 20
9.3311404811
 10
4.2442200402
 20
9.3323072541
 10
4.2569132473
 20
9.3338070689
 10
4.2694323965
 20
9.3356357855
 10
4.2817431932
 20
9.337788355
 10
4.293812398
 20
9.3402589249
 10
4.3056075157
 20
9.3430408288
 10
4.3170989383
 20
9.346127208
 10
4.3282527548
 20
9.3495090828
 10
4.3390319104
 20
9.3531748419
 10
4.3494056764
 20
9.3571131277
 10
4.3593489804
 20
9.3613134802
 10
4.3688356945
 20
9.3657640215
  0
LWPOLYLINE
  5
42D
100
AcDbEntity
  8
RACCORDO
100
AcDbPolyline
 62
253
  6
CONTINUOUS
 90
31
 70
0
 10
-11.8935888419
 20
16.9812540996
 10
-11.8841298716
 20
16.9767651372
 10
-11.8742155952
 20
16.9725289127
 10
-11.8638729914
 20
16.9685569538
 10
-11.853130221
 20
16.9648600744
 10
-11.8420165018
 20
16.9614483284
 10
-11.8305620244
 20
16.9583309864
 10
-11.818797919
 20
16.9555165275
 10
-11.8067562287
 20
16.9530126246
 10
-11.7944697744
 20
16.9508261049
 10
-11.78197201
 20
16.948962921
 10
-11.7692969272
 20
16.9474281398
 10
-11.7564790188
 20
16.9462259378
 10
-11.7435531554
 20
16.9453595859
 10
-11.7305545223
 20
16.944831443
 10
-11.717518524
 20
16.9446429462
 10
-11.7044806561
 20
16.9447946055
 10
-11.6914763769
 20
16.9452860051
 10
-11.6785410424
 20
16.9461158078
 10
-11.6657097368
 20
16.9472817676
 10
-11.6530174956
 20
16.9487807055
 10
-11.6404991665
 20
16.950608493
 10
-11.6281890022
 20
16.9527600937
 10
-11.6161202714
 20
16.955229657
 10
-11.6043255005
 20
16.9580105136
 10
-11.592835638
 20
16.9610954237
 10
-11.5816831562
 20
16.9644757273
 10
-11.5709013463
 20
16.9681411685
 10
-11.5605201572
 20
16.9720811664
 10
-11.5505664451
 20
16.9762851139
 10
-11.5410668822
 20
16.9807413757
  0
LWPOLYLINE
  5
42E
100
AcDbEntity
  8
RACCORDO
100
AcDbPolyline
 62
253
  6
CONTINUOUS
 90
31
 70
0
 10
-9.3480044296
 20
16.0484358276
 10
-9.3385690185
 20
16.0439574769
 10
-9.3286742261
 20
16.0397280859
 10
-9.3183460679
 20
16.035759597
 10
-9.3076095794
 20
16.0320625502
 10
-9.2964953202
 20
16.0286483555
 10
-9.2850400313
 20
16.0255286665
 10
-9.273277444
 20
16.0227125448
 10
-9.2612371563
 20
16.0202069553
 10
-9.2489516082
 20
16.0180186625
 10
-9.2364539864
 20
16.0161536154
 10
-9.2237785125
 20
16.0146169581
 10
-9.2109600414
 20
16.013412928
 10
-9.1980336239
 20
16.0125448082
 10
-9.1850342849
 20
16.0120149416
 10
-9.1719972927
 20
16.0118247675
 10
-9.1589580766
 20
16.0119748105
 10
-9.1459521802
 20
16.0124646698
 10
-9.1330150517
 20
16.0132930143
 10
-9.1201819183
 20
16.0144575901
 10
-9.107487696
 20
16.0159552302
 10
-9.0949669425
 20
16.0177818596
 10
-9.0826537362
 20
16.0199325087
 10
-9.0705815952
 20
16.0224013249
 10
-9.0587833904
 20
16.0251815876
 10
-9.0472912275
 20
16.0282657321
 10
-9.0361363962
 20
16.0316453628
 10
-9.0253492916
 20
16.0353112697
 10
-9.0149592827
 20
16.0392534688
 10
-9.0049946357
 20
16.0434612317
 10
-8.99548247
 20
16.0479231037
  0
LWPOLYLINE
  5
42F
100
AcDbEntity
  8
RACCORDO
100
AcDbPolyline
 62
253
  6
CONTINUOUS
 90
31
 70
0
 10
-25.2579070063
 20
23.6634131818
 10
-25.248448036
 20
23.6589242194
 10
-25.2385337596
 20
23.6546879949
 10
-25.2281911559
 20
23.650716036
 10
-25.2174483854
 20
23.6470191567
 10
-25.2063346662
 20
23.6436074106
 10
-25.1948801889
 20
23.6404900686
 10
-25.1831160835
 20
23.6376756097
 10
-25.1710743931
 20
23.6351717068
 10
-25.1587879388
 20
23.6329851871
 10
-25.1462901744
 20
23.6311220032
 10
-25.1336150917
 20
23.629587222
 10
-25.1207971832
 20
23.62838502
 10
-25.1078713199
 20
23.6275186682
 10
-25.0948726867
 20
23.6269905252
 10
-25.0818366884
 20
23.6268020284
 10
-25.0687988205
 20
23.6269536877
 10
-25.0557945413
 20
23.6274450873
 10
-25.0428592068
 20
23.62827489
 10
-25.0300279012
 20
23.6294408498
 10
-25.01733566
 20
23.6309397877
 10
-25.0048173309
 20
23.6327675752
 10
-24.9925071666
 20
23.6349191759
 10
-24.9804384358
 20
23.6373887392
 10
-24.968643665
 20
23.6401695958
 10
-24.9571538024
 20
23.6432545059
 10
-24.9460013206
 20
23.6466348095
 10
-24.9352195108
 20
23.6503002507
 10
-24.9248383217
 20
23.6542402486
 10
-24.9148846095
 20
23.6584441961
 10
-24.9053850467
 20
23.6629004579
  0
LWPOLYLINE
  5
430
100
AcDbEntity
  8
RACCORDO
100
AcDbPolyline
 62
253
  6
CONTINUOUS
 90
31
 70
0
 10
-11.8935888419
 20
17.3212280337
 10
-11.8841286925
 20
17.3167385403
 10
-11.874213106
 20
17.3125018382
 10
-11.8638690681
 20
17.308529461
 10
-11.8531247199
 20
17.3048322194
 10
-11.8420093144
 20
17.3014201832
 10
-11.8305531408
 20
17.298302651
 10
-11.8187873915
 20
17.2954881099
 10
-11.8067440842
 20
17.2929842175
 10
-11.7944560116
 20
17.2907977904
 10
-11.781956624
 20
17.2889347785
 10
-11.7692799422
 20
17.2874002507
 10
-11.7564604763
 20
17.2861983823
 10
-11.7435331048
 20
17.2853324419
 10
-11.7305330297
 20
17.284804786
 10
-11.7174956863
 20
17.2846168486
 10
-11.7044566149
 20
17.2847691339
 10
-11.69145125
 20
17.2852612197
 10
-11.6785148757
 20
17.2860917694
 10
-11.6656825365
 20
17.2872585424
 10
-11.6529893294
 20
17.2887583572
 10
-11.6404701802
 20
17.2905870739
 10
-11.6281593835
 20
17.2927396433
 10
-11.6160901787
 20
17.2952102133
 10
-11.604295061
 20
17.2979921172
 10
-11.5928036384
 20
17.3010784964
 10
-11.5816498219
 20
17.3044603711
 10
-11.5708706663
 20
17.3081261302
 10
-11.5604969003
 20
17.312064416
 10
-11.5505535963
 20
17.3162647685
 10
-11.5410668822
 20
17.3207153099
  0
LWPOLYLINE
  5
431
100
AcDbEntity
  8
RACCORDO
100
AcDbPolyline
 62
253
  6
CONTINUOUS
 90
31
 70
0
 10
-25.2579070063
 20
24.0033871159
 10
-25.2484715952
 20
23.9989087653
 10
-25.2385768028
 20
23.9946793743
 10
-25.2282486446
 20
23.9907108853
 10
-25.2175121561
 20
23.9870138385
 10
-25.2063978969
 20
23.9835996438
 10
-25.194942608
 20
23.9804799548
 10
-25.1831800207
 20
23.9776638332
 10
-25.171139733
 20
23.9751582436
 10
-25.1588541849
 20
23.9729699508
 10
-25.1463565631
 20
23.9711049037
 10
-25.1336810892
 20
23.9695682464
 10
-25.1208626181
 20
23.9683642163
 10
-25.1079362006
 20
23.9674960965
 10
-25.0949368616
 20
23.96696623
 10
-25.0818998694
 20
23.9667760558
 10
-25.0688606533
 20
23.9669260988
 10
-25.0558547569
 20
23.9674159581
 10
-25.0429176284
 20
23.9682443026
 10
-25.030084495
 20
23.9694088784
 10
-25.0173902727
 20
23.9709065185
 10
-25.0048695192
 20
23.972733148
 10
-24.9925563129
 20
23.974883797
 10
-24.9804841719
 20
23.9773526133
 10
-24.9686859671
 20
23.9801328759
 10
-24.9571938042
 20
23.9832170205
 10
-24.9460389729
 20
23.9865966511
 10
-24.9352518683
 20
23.9902625581
 10
-24.9248618594
 20
23.9942047571
 10
-24.9148972124
 20
23.99841252
 10
-24.9053850467
 20
24.0028743921
  0
LINE
  5
432
100
AcDbEntity
  8
RACCORDO
100
AcDbLine
 62
253
  6
CONTINUOUS
 10
4.0163137348
 20
9.3662767454
 11
2.691329055
 21
10.0287690853
  0
LINE
  5
433
100
AcDbEntity
  8
RACCORDO
100
AcDbLine
 62
253
  6
CONTINUOUS
 10
-9.3480044296
 20
16.0484358276
 11
-10.6729891094
 21
16.7109281675
  0
LINE
  5
434
100
AcDbEntity
  8
RACCORDO
100
AcDbLine
 62
253
  6
CONTINUOUS
 10
-11.8935888419
 20
17.3212280337
 11
-13.2185735217
 21
17.9837203736
  0
LINE
  5
435
100
AcDbEntity
  8
RACCORDO
100
AcDbLine
 62
253
  6
CONTINUOUS
 10
-25.2579070063
 20
24.0033871159
 11
-26.5828916861
 21
24.6658794558
  0
LINE
  5
436
100
AcDbEntity
  8
DRAFT
100
AcDbLine
 62
7
  6
CONTINUOUS
 10
2.7765110185
 20
10.3511467403
 11
1.7263402151
 21
10.876232142
  0
LINE
  5
437
100
AcDbEntity
  8
DRAFT
100
AcDbLine
 62
7
  6
CONTINUOUS
 10
-5.1697776748
 20
14.3242910869
 11
-7.2165049072
 21
15.3476547032
  0
LINE
  5
438
100
AcDbEntity
  8
DRAFT
100
AcDbLine
 62
7
  6
CONTINUOUS
 10
-13.1333915582
 20
18.3060980287
 11
-14.1835623616
 21
18.8311834303
  0
LINE
  5
439
100
AcDbEntity
  8
DRAFT
100
AcDbLine
 62
7
  6
CONTINUOUS
 10
-21.0796802515
 20
22.2792423753
 11
-23.1264074839
 21
23.3026059915
  0
LINE
  5
43A
100
AcDbEntity
  8
RACCORDO
100
AcDbLine
 62
253
  6
CONTINUOUS
 10
4.1920619908
 20
9.6706535603
 11
2.867077311
 21
10.3331459002
  0
LINE
  5
43B
100
AcDbEntity
  8
RACCORDO
100
AcDbLine
 62
253
  6
CONTINUOUS
 10
-9.1722561736
 20
16.3528126425
 11
-10.4972408535
 21
17.0153049825
  0
LINE
  5
43C
100
AcDbEntity
  8
RACCORDO
100
AcDbLine
 62
253
  6
CONTINUOUS
 10
-11.7178405859
 20
17.6256048487
 11
-13.0428252657
 21
18.2880971886
  0
LINE
  5
43D
100
AcDbEntity
  8
RACCORDO
100
AcDbLine
 62
253
  6
CONTINUOUS
 10
-25.0821587503
 20
24.3077639309
 11
-26.4071434302
 21
24.9702562708
  0
LINE
  5
43E
100
AcDbEntity
  8
RACCORDO
100
AcDbLine
 62
253
  6
CONTINUOUS
 10
0.4879760343
 20
11.6354956509
 11
-5.0233310654
 21
14.3911492008
  0
LINE
  5
43F
100
AcDbEntity
  8
RACCORDO
100
AcDbLine
 62
253
  6
CONTINUOUS
 10
-15.4219265424
 20
19.5904469393
 11
-20.9332336421
 21
22.3461004891
  0
LINE
  5
440
100
AcDbEntity
  8
RACCORDO
100
AcDbLine
 62
253
  6
CONTINUOUS
 10
0.9107984141
 20
11.7378852154
 11
-5.1649562356
 21
14.7757625403
  0
LINE
  5
441
100
AcDbEntity
  8
RACCORDO
100
AcDbLine
 62
253
  6
CONTINUOUS
 10
-14.9991041626
 20
19.6928365037
 11
-21.0748588123
 21
22.7307138286
  0
LINE
  5
442
100
AcDbEntity
  8
RACCORDO
100
AcDbLine
 62
7
  6
CONTINUOUS
 10
-23.3041042558
 20
23.9105525158
 11
-21.8898906935
 21
23.2034457346
  0
LINE
  5
443
100
AcDbEntity
  8
DRAFT
100
AcDbLine
 62
7
  6
CONTINUOUS
 10
-7.3942016791
 20
15.9556012274
 11
-5.9799881168
 21
15.2484944463
  0
LINE
  5
444
100
AcDbEntity
  8
0
100
AcDbLine
 62
7
  6
CONTINUOUS
 10
-7.3942016791
 20
15.9556012274
 11
-6.8638715932
 21
15.6904361845
  0
LINE
  5
445
100
AcDbEntity
  8
RACCORDO
100
AcDbLine
 62
7
  6
CONTINUOUS
 10
5.9701164853
 20
9.2734421452
 11
6.6063187163
 21
8.9553410298
  0
LINE
  5
446
100
AcDbEntity
  8
DRAFT
100
AcDbLine
 62
7
  6
CONTINUOUS
 10
-20.5817431483
 20
23.0547007461
 11
-14.3592034738
 21
19.9434309089
  0
LINE
  5
447
100
AcDbEntity
  8
DRAFT
100
AcDbLine
 62
7
  6
CONTINUOUS
 10
-4.6718405716
 20
15.0997494578
 11
1.5506991029
 21
11.9884796206
  0
LINE
  5
448
100
AcDbEntity
  8
RACCORDO
100
AcDbLine
 62
7
  6
CONTINUOUS
 10
-24.824386827
 20
25.7822403681
 11
-23.4808779595
 21
25.1104859344
  0
LINE
  5
449
100
AcDbEntity
  8
RACCORDO
100
AcDbLine
 62
7
  6
CONTINUOUS
 10
-11.4600686626
 20
19.1000812859
 11
-10.1165597951
 21
18.4283268522
  0
LINE
  5
44A
100
AcDbEntity
  8
RACCORDO
100
AcDbLine
 62
7
  6
CONTINUOUS
 10
-8.9144842503
 20
17.8272890798
 11
-7.5709753828
 21
17.155534646
  0
LINE
  5
44B
100
AcDbEntity
  8
RACCORDO
100
AcDbLine
 62
7
  6
CONTINUOUS
 10
4.4498339141
 20
11.1451299976
 11
5.7933427816
 21
10.4733755638
  0
LINE
  5
44C
100
AcDbEntity
  8
DRAFT
100
AcDbLine
 62
7
  6
CONTINUOUS
 10
1.621409781
 20
12.6551926743
 11
-3.3283376873
 21
15.1300664084
  0
LINE
  5
44D
100
AcDbEntity
  8
DRAFT
100
AcDbLine
 62
7
  6
CONTINUOUS
 10
-14.2884927957
 20
20.6101439626
 11
-19.238240264
 21
23.0850176968
  0
LINE
  5
44E
100
AcDbEntity
  8
RACCORDO
100
AcDbLine
 62
253
  6
CONTINUOUS
 10
-24.2899369483
 20
26.0425878347
 11
-22.9526107878
 21
25.3739247544
  0
LINE
  5
44F
100
AcDbEntity
  8
RACCORDO
100
AcDbLine
 62
253
  6
CONTINUOUS
 10
-10.9256187839
 20
19.3604287525
 11
-9.5882926233
 21
18.6917656722
  0
LINE
  5
450
100
AcDbEntity
  8
RACCORDO
100
AcDbLine
 62
253
  6
CONTINUOUS
 10
-8.3800343716
 20
18.0876365464
 11
-7.0427082111
 21
17.4189734661
  0
LINE
  5
451
100
AcDbEntity
  8
RACCORDO
100
AcDbLine
 62
253
  6
CONTINUOUS
 10
4.9842837928
 20
11.4054774641
 11
6.3216099534
 21
10.7368143839
  0
LINE
  5
452
100
AcDbEntity
  8
RACCORDO
100
AcDbLine
 62
7
  6
CONTINUOUS
 10
-24.1791619888
 20
26.0491777258
 11
-22.8418358282
 21
25.3805146455
  0
LINE
  5
453
100
AcDbEntity
  8
RACCORDO
100
AcDbLine
 62
7
  6
CONTINUOUS
 10
-10.8148438243
 20
19.3670186436
 11
-9.4775176638
 21
18.6983555633
  0
LINE
  5
454
100
AcDbEntity
  8
RACCORDO
100
AcDbLine
 62
7
  6
CONTINUOUS
 10
-8.2692594121
 20
18.0942264375
 11
-6.9319332515
 21
17.4255633572
  0
LINE
  5
455
100
AcDbEntity
  8
RACCORDO
100
AcDbLine
 62
7
  6
CONTINUOUS
 10
5.0950587524
 20
11.4120673553
 11
6.4323849129
 21
10.743404275
  0
LINE
  5
456
100
AcDbEntity
  8
0
100
AcDbLine
 62
7
  6
CONTINUOUS
 10
-12.9743308154
 20
21.2578610792
 11
-15.5612850018
 21
22.5513381725
  0
LINE
  5
457
100
AcDbEntity
  8
0
100
AcDbLine
 62
7
  6
CONTINUOUS
 10
0.3486175749
 20
14.5963868841
 11
2.9355717613
 21
13.3029097909
  0
LWPOLYLINE
  5
458
100
AcDbEntity
  8
RACCORDO
100
AcDbPolyline
 62
253
  6
CONTINUOUS
 90
16
 70
0
 10
2.691329055
 20
10.0287690853
 10
2.6823519878
 20
10.0334980944
 10
2.6738802952
 20
10.0384547129
 10
2.6659370258
 20
10.0436254555
 10
2.6585437908
 20
10.0489962542
 10
2.6517207045
 20
10.0545524971
 10
2.6454863305
 20
10.0602790673
 10
2.6398576303
 20
10.0661603847
 10
2.6348499178
 20
10.0721804482
 10
2.6304768174
 20
10.0783228792
 10
2.6267502267
 20
10.0845709662
 10
2.6236802847
 20
10.0909077103
 10
2.6212753435
 20
10.0973158711
 10
2.6195419463
 20
10.1037780143
 10
2.6184848091
 20
10.1102765584
 10
2.6181057503
 20
10.1171574329
  0
LWPOLYLINE
  5
459
100
AcDbEntity
  8
RACCORDO
100
AcDbPolyline
 62
7
  6
CONTINUOUS
 90
22
 70
0
 10
-9.4775113177
 20
18.69835239
 10
-9.4662409905
 20
18.6923522946
 10
-9.4551621747
 20
18.6857022979
 10
-9.4444324334
 20
18.6784821332
 10
-9.4340808875
 20
18.6707091902
 10
-9.4241282401
 20
18.6623955918
 10
-9.4146021507
 20
18.6535595644
 10
-9.4055327864
 20
18.6442240425
 10
-9.3969446563
 20
18.6344087739
 10
-9.388863825
 20
18.6241371716
 10
-9.3813163958
 20
18.6134356739
 10
-9.374325804
 20
18.6023302641
 10
-9.3679150665
 20
18.5908495185
 10
-9.3621056907
 20
18.5790232817
 10
-9.3569170965
 20
18.5668812598
 10
-9.3523673122
 20
18.5544539733
 10
-9.3484741203
 20
18.5417767473
 10
-9.3452536441
 20
18.5288883553
 10
-9.3427186158
 20
18.5158247098
 10
-9.3408798024
 20
18.5026224121
 10
-9.3397462318
 20
18.4893228456
 10
-9.3393210627
 20
18.4747484164
  0
LWPOLYLINE
  5
45A
100
AcDbEntity
  8
RACCORDO
100
AcDbPolyline
 62
7
  6
CONTINUOUS
 90
22
 70
0
 10
6.432391259
 20
10.7434011016
 10
6.4436615862
 20
10.7374010062
 10
6.454740402
 20
10.7307510095
 10
6.4654701433
 20
10.7235308448
 10
6.4758216892
 20
10.7157579019
 10
6.4857743366
 20
10.7074443034
 10
6.495300426
 20
10.6986082761
 10
6.5043697903
 20
10.6892727542
 10
6.5129579204
 20
10.6794574856
 10
6.5210387517
 20
10.6691858833
 10
6.5285861809
 20
10.6584843856
 10
6.5355767727
 20
10.6473789758
 10
6.5419875102
 20
10.6358982302
 10
6.547796886
 20
10.6240719934
 10
6.5529854802
 20
10.6119299715
 10
6.5575352645
 20
10.599502685
 10
6.5614284564
 20
10.5868254589
 10
6.5646489326
 20
10.5739370669
 10
6.5671839609
 20
10.5608734214
 10
6.5690227743
 20
10.5476711237
 10
6.5701563449
 20
10.5343715573
 10
6.570581514
 20
10.5197971281
  0
LWPOLYLINE
  5
45B
100
AcDbEntity
  8
RACCORDO
100
AcDbPolyline
 62
7
  6
CONTINUOUS
 90
22
 70
0
 10
-22.8418358282
 20
25.3805146455
 10
-22.8301792623
 20
25.3742960612
 10
-22.8188238796
 20
25.3674424553
 10
-22.8078130341
 20
25.3599711912
 10
-22.797184472
 20
25.3518999234
 10
-22.7869829835
 20
25.3432561678
 10
-22.7772580597
 20
25.334079188
 10
-22.7680835411
 20
25.3244461639
 10
-22.759445272
 20
25.3143521479
 10
-22.7512747774
 20
25.3037023623
 10
-22.7435739814
 20
25.2924533842
 10
-22.7364404575
 20
25.2807007975
 10
-22.7299534534
 20
25.2685531552
 10
-22.7241498215
 20
25.2560774632
 10
-22.7190391779
 20
25.2432954443
 10
-22.7146401397
 20
25.2302524878
 10
-22.7109685483
 20
25.2169989585
 10
-22.7080335629
 20
25.2035753697
 10
-22.705839913
 20
25.1900061849
 10
-22.704394141
 20
25.176321424
 10
-22.7037034565
 20
25.162574462
 10
-22.7036392275
 20
25.1569146338
  0
LWPOLYLINE
  5
45C
100
AcDbEntity
  8
RACCORDO
100
AcDbPolyline
 62
7
  6
CONTINUOUS
 90
22
 70
0
 10
-6.9319332515
 20
17.4255633572
 10
-6.9202766856
 20
17.4193447729
 10
-6.9089213029
 20
17.4124911669
 10
-6.8979104574
 20
17.4050199029
 10
-6.8872818953
 20
17.396948635
 10
-6.8770804068
 20
17.3883048795
 10
-6.867355483
 20
17.3791278996
 10
-6.8581809644
 20
17.3694948756
 10
-6.8495426953
 20
17.3594008595
 10
-6.8413722007
 20
17.348751074
 10
-6.8336714048
 20
17.3375020958
 10
-6.8265378808
 20
17.3257495091
 10
-6.8200508767
 20
17.3136018669
 10
-6.8142472448
 20
17.3011261748
 10
-6.8091366012
 20
17.288344156
 10
-6.804737563
 20
17.2753011995
 10
-6.8010659716
 20
17.2620476701
 10
-6.7981309862
 20
17.2486240814
 10
-6.7959373363
 20
17.2350548965
 10
-6.7944915643
 20
17.2213701356
 10
-6.7938008798
 20
17.2076231736
 10
-6.7937366508
 20
17.2019633454
  0
LWPOLYLINE
  5
45D
100
AcDbEntity
  8
RACCORDO
100
AcDbPolyline
 62
253
  6
CONTINUOUS
 90
14
 70
0
 10
6.498383657
 20
10.0843933283
 10
6.5027268099
 20
10.0770482269
 10
6.506574624
 20
10.0699606662
 10
6.5099161928
 20
10.0631501931
 10
6.512742213
 20
10.0566350394
 10
6.5150442072
 20
10.0504338854
 10
6.5168150356
 20
10.0445655105
 10
6.5180497643
 20
10.0390464801
 10
6.5187452263
 20
10.0338912597
 10
6.5188995196
 20
10.029113812
 10
6.5185121707
 20
10.0247271429
 10
6.5175841898
 20
10.020743347
 10
6.5161181146
 20
10.0171734211
 10
6.5141179703
 20
10.0140271431
  0
LINE
  5
45E
100
AcDbEntity
  8
0
100
AcDbLine
 62
253
  6
CONTINUOUS
 10
13.8543570955
 20
15.1756269632
 11
13.8543570955
 21
15.392092697
  0
LWPOLYLINE
  5
45F
100
AcDbEntity
  8
RACCORDO
100
AcDbPolyline
 62
7
  6
CONTINUOUS
 90
24
 70
0
 10
11.7591919908
 20
-24.7011211311
 10
11.7592898099
 20
-24.7004018841
 10
11.759021231
 20
-24.6989809591
 10
11.7580378408
 20
-24.6979981166
 10
11.7563354757
 20
-24.6974550548
 10
11.7539384033
 20
-24.6973411437
 10
11.7508339145
 20
-24.6976601563
 10
11.7470347185
 20
-24.6984083196
 10
11.7426032101
 20
-24.699563684
 10
11.7375017174
 20
-24.7011460478
 10
11.7317679123
 20
-24.7031356128
 10
11.725577206
 20
-24.7054510347
 10
11.7189271505
 20
-24.7080992289
 10
11.7118201937
 20
-24.7110732801
 10
11.7044390902
 20
-24.7142710973
 10
11.6967946995
 20
-24.7176892554
 10
11.6888761622
 20
-24.7213311796
 10
11.6808336541
 20
-24.7251050543
 10
11.6726772041
 20
-24.7290060115
 10
11.6643967834
 20
-24.7330389192
 10
11.6561124818
 20
-24.7371265652
 10
11.6478643292
 20
-24.741243212
 10
11.6396122957
 20
-24.7454145971
 10
7.0307766571
 20
-27.1109796496
  0
LWPOLYLINE
  5
460
100
AcDbEntity
  8
RACCORDO
100
AcDbPolyline
 62
253
  6
CONTINUOUS
 90
16
 70
0
 10
11.782377803
 20
-24.4901764021
 10
11.7822476185
 20
-24.4908952252
 10
11.7790005006
 20
-24.5026160689
 10
11.7746478115
 20
-24.5142469606
 10
11.7691993023
 20
-24.5257618445
 10
11.7626671788
 20
-24.5371349247
 10
11.7550660747
 20
-24.5483407228
 10
11.7464130181
 20
-24.5593541355
 10
11.7367273938
 20
-24.5701504901
 10
11.7260308998
 20
-24.5807056004
 10
11.7143474988
 20
-24.5909958205
 10
11.7017033643
 20
-24.6009980982
 10
11.6881268219
 20
-24.6106900259
 10
11.6736482862
 20
-24.6200498917
 10
11.6583001925
 20
-24.6290567274
 10
11.6421169239
 20
-24.6376903555
  0
LWPOLYLINE
  5
461
100
AcDbEntity
  8
0
100
AcDbPolyline
 62
7
  6
CONTINUOUS
 90
10
 70
0
 10
0.50512791
 20
14.6914110289
 10
0.5936180252
 20
14.710893192
 10
0.6841330221
 20
14.7253959464
 10
0.776270902
 20
14.7350178101
 10
0.8692180567
 20
14.7397741273
 10
0.9622591974
 20
14.7396998296
 10
1.0550776714
 20
14.7348030355
 10
1.1469590662
 20
14.7250662119
 10
1.2371058341
 20
14.7104904647
 10
1.3251409698
 20
14.6909906238
  0
LINE
  5
462
100
AcDbEntity
  8
0
100
AcDbLine
 62
7
  6
CONTINUOUS
 10
4.0962835151
 20
16.0689908769
 11
2.736351575
 21
15.9952426895
  0
LWPOLYLINE
  5
463
100
AcDbEntity
  8
0
100
AcDbPolyline
 62
7
  6
CONTINUOUS
 90
10
 70
0
 10
12.2317137133
 20
15.4334342353
 10
12.2619366974
 20
15.4325303332
 10
12.2924116977
 20
15.4301636809
 10
12.3230504841
 20
15.4263063068
 10
12.3538668576
 20
15.420997186
 10
12.3846437847
 20
15.4141792608
 10
12.4149334117
 20
15.4056998173
 10
12.4445885439
 20
15.3956227932
 10
12.4735062332
 20
15.3839618536
 10
12.4934646757
 20
15.3745510148
  0
LINE
  5
464
100
AcDbEntity
  8
RACCORDO
100
AcDbLine
 62
7
  6
CONTINUOUS
 10
-9.2223259635
 20
15.5521280088
 11
-8.5981303664
 21
15.421795389
  0
LINE
  5
465
100
AcDbEntity
  8
RACCORDO
100
AcDbLine
 62
253
  6
CONTINUOUS
 10
-8.99548247
 20
15.7079491696
 11
-8.2842618619
 21
15.5594456467
  0
LINE
  5
466
100
AcDbEntity
  8
RACCORDO
100
AcDbLine
 62
7
  6
CONTINUOUS
 10
-11.7679103758
 20
16.8249202149
 11
-11.1437147787
 21
16.6945875951
  0
LINE
  5
467
100
AcDbEntity
  8
RACCORDO
100
AcDbLine
 62
253
  6
CONTINUOUS
 10
-11.5410668822
 20
16.9807413757
 11
-10.8298462741
 21
16.8322378529
  0
LWPOLYLINE
  5
468
100
AcDbEntity
  8
RACCORDO
100
AcDbPolyline
 62
7
  6
CONTINUOUS
 90
10
 70
0
 10
-11.7679103758
 20
16.8249202149
 10
-11.7754516432
 20
16.826616916
 10
-11.7829538491
 20
16.8285506083
 10
-11.7904063421
 20
16.8307200867
 10
-11.7978136316
 20
16.8331286857
 10
-11.8051485888
 20
16.8357692488
 10
-11.81235647
 20
16.8386201923
 10
-11.8194159597
 20
16.8416677616
 10
-11.8263351627
 20
16.8449099205
 10
-11.8286263717
 20
16.8460410635
  0
LWPOLYLINE
  5
469
100
AcDbEntity
  8
0
100
AcDbPolyline
 62
7
  6
CONTINUOUS
 90
3
 70
0
 10
1.3251409698
 20
14.6909906238
 10
1.4104719012
 20
14.666454537
 10
1.4921871461
 20
14.6368333702
  0
LWPOLYLINE
  5
46A
100
AcDbEntity
  8
0
100
AcDbPolyline
 62
7
  6
CONTINUOUS
 90
4
 70
0
 10
0.3197560801
 20
14.6074749906
 10
0.3288822551
 20
14.6046870484
 10
0.3385088375
 20
14.601007431
 10
0.3486175749
 20
14.5963868841
  0
LWPOLYLINE
  5
46B
100
AcDbEntity
  8
ASSI
100
AcDbPolyline
 62
7
  6
CONTINUOUS
 90
17
 70
0
 10
6.9923523628
 20
14.6591611155
 10
6.9905695462
 20
14.659941526
 10
6.9867711423
 20
14.6610577451
 10
6.9823496298
 20
14.6617520885
 10
6.9772966372
 20
14.6620491144
 10
6.9716180966
 20
14.6619657523
 10
6.9653425984
 20
14.6615077211
 10
6.9584789652
 20
14.660684486
 10
6.9510273415
 20
14.6594975106
 10
6.943020649
 20
14.6579663211
 10
6.9345241047
 20
14.6561248575
 10
6.9255644978
 20
14.65396559
 10
6.9161707327
 20
14.6515077597
 10
6.9064289378
 20
14.6488187447
 10
6.8963951154
 20
14.6459196898
 10
6.8860853373
 20
14.6427889947
 10
6.8755331731
 20
14.6394254544
  0
LWPOLYLINE
  5
46C
100
AcDbEntity
  8
RACCORDO
100
AcDbPolyline
 62
253
  6
CONTINUOUS
 90
14
 70
0
 10
-10.8148438243
 20
19.3670186436
 10
-10.8222712467
 20
19.3703381622
 10
-10.8298541893
 20
19.3729758623
 10
-10.8377006077
 20
19.3749887329
 10
-10.845788899
 20
19.3763712578
 10
-10.8540968667
 20
19.3771197181
 10
-10.8626020391
 20
19.3772321623
 10
-10.8712815018
 20
19.3767083134
 10
-10.8801135923
 20
19.3755492715
 10
-10.8890723753
 20
19.3737582361
 10
-10.8981277122
 20
19.3713418057
 10
-10.907252881
 20
19.3683084343
 10
-10.9164248855
 20
19.3646670771
 10
-10.9256187839
 20
19.3604287525
  0
LWPOLYLINE
  5
46D
100
AcDbEntity
  8
RACCORDO
100
AcDbPolyline
 62
253
  6
CONTINUOUS
 90
14
 70
0
 10
-22.8418358282
 20
25.3805146455
 10
-22.8492339089
 20
25.3838225394
 10
-22.8568141263
 20
25.3864621929
 10
-22.8646577727
 20
25.3884773048
 10
-22.8727435082
 20
25.3898623928
 10
-22.8810493343
 20
25.3906136885
 10
-22.8895526534
 20
25.3907291478
 10
-22.898230331
 20
25.3902084567
 10
-22.9070587578
 20
25.3890530317
 10
-22.9160139147
 20
25.3872660163
 10
-22.9250714376
 20
25.3848522726
 10
-22.9342066841
 20
25.3818183674
 10
-22.9433948001
 20
25.378172555
 10
-22.9526107878
 20
25.3739247544
  0
LWPOLYLINE
  5
46E
100
AcDbEntity
  8
RACCORDO
100
AcDbPolyline
 62
253
  6
CONTINUOUS
 90
14
 70
0
 10
-24.1791619888
 20
26.0491777258
 10
-24.1865600695
 20
26.0524856197
 10
-24.1941402868
 20
26.0551252731
 10
-24.2019839332
 20
26.0571403851
 10
-24.2100696688
 20
26.0585254731
 10
-24.2183754948
 20
26.0592767688
 10
-24.226878814
 20
26.0593922281
 10
-24.2355564915
 20
26.058871537
 10
-24.2443849184
 20
26.0577161119
 10
-24.2533400753
 20
26.0559290966
 10
-24.2623975982
 20
26.0535153529
 10
-24.2715328447
 20
26.0504814476
 10
-24.2807209606
 20
26.0468356352
 10
-24.2899369483
 20
26.0425878347
  0
LINE
  5
46F
100
AcDbEntity
  8
0
100
AcDbLine
 62
7
  6
CONTINUOUS
 10
1.4921871461
 20
14.6368333702
 11
1.5694309263
 21
14.6020673503
  0
LINE
  5
470
100
AcDbEntity
  8
0
100
AcDbLine
 62
7
  6
CONTINUOUS
 10
-14.4177154306
 20
22.5917846585
 11
-14.3404716504
 21
22.5570186387
  0
LWPOLYLINE
  5
471
100
AcDbEntity
  8
RACCORDO
100
AcDbPolyline
 62
7
  6
CONTINUOUS
 90
18
 70
0
 10
-24.1791619888
 20
26.0491777258
 10
-24.191367801
 20
26.0548749134
 10
-24.2039900797
 20
26.0599537214
 10
-24.2169902696
 20
26.0643756221
 10
-24.2303448508
 20
26.0681098948
 10
-24.2439878386
 20
26.0711174812
 10
-24.2578121281
 20
26.0733629001
 10
-24.2717432621
 20
26.0748308522
 10
-24.2857519509
 20
26.075516562
 10
-24.2998014473
 20
26.0754147274
 10
-24.3138337596
 20
26.0745228059
 10
-24.3278063057
 20
26.0728415218
 10
-24.3417121649
 20
26.0703662805
 10
-24.355557071
 20
26.0670826546
 10
-24.3692393296
 20
26.0630013179
 10
-24.3826102593
 20
26.0581676123
 10
-24.3956329804
 20
26.0526054956
 10
-24.4004556988
 20
26.0503193912
  0
LWPOLYLINE
  5
472
100
AcDbEntity
  8
0
100
AcDbPolyline
 62
253
  6
CONTINUOUS
 90
7
 70
0
 10
1.5694309261
 20
14.6020673504
 10
1.5660800919
 20
14.603640666
 10
1.5506989224
 20
14.6085372327
 10
1.534107884
 20
14.6102623128
 10
1.5165908541
 20
14.6087863898
 10
1.4984475551
 20
14.6041347166
 10
1.4799884248
 20
14.5963868841
  0
LWPOLYLINE
  5
473
100
AcDbEntity
  8
0
100
AcDbPolyline
 62
253
  6
CONTINUOUS
 90
7
 70
0
 10
-14.3404716506
 20
22.5570186387
 10
-14.3438224848
 20
22.5585919544
 10
-14.3592036543
 20
22.563488521
 10
-14.3757946927
 20
22.5652136011
 10
-14.3933117226
 20
22.5637376781
 10
-14.4114550216
 20
22.5590860049
 10
-14.4299141519
 20
22.5513381725
  0
LWPOLYLINE
  5
474
100
AcDbEntity
  8
0
100
AcDbPolyline
 62
7
  6
CONTINUOUS
 90
43
 70
0
 10
1.6921204591
 20
15.1195737409
 10
1.6651201104
 20
15.1325737334
 10
1.6372484899
 20
15.1450275688
 10
1.6085055976
 20
15.1569352471
 10
1.5788488402
 20
15.1683118879
 10
1.5483208109
 20
15.1791423715
 10
1.5170492901
 20
15.1893813391
 10
1.4850311571
 20
15.1990263105
 10
1.4522695327
 20
15.2080797659
 10
1.4189015594
 20
15.2165037868
 10
1.3849246924
 20
15.2242957337
 10
1.3503414766
 20
15.2314582461
 10
1.3152966893
 20
15.2379613245
 10
1.2797883931
 20
15.2438022033
 10
1.2438185255
 20
15.2489836483
 10
1.2075376758
 20
15.2534839568
 10
1.1709445385
 20
15.257300272
 10
1.1340404192
 20
15.2604354508
 10
1.0969798238
 20
15.2628763612
 10
1.0597620955
 20
15.2646200912
 10
1.0223878912
 20
15.2656695528
 10
0.9850136869
 20
15.2660203503
 10
0.9476394826
 20
15.2656695532
 10
0.9102652784
 20
15.2646200919
 10
0.8730475503
 20
15.2628763622
 10
0.8359869552
 20
15.2604354522
 10
0.7990828362
 20
15.2573002738
 10
0.762489699
 20
15.2534839589
 10
0.726208849
 20
15.2489836507
 10
0.6902389808
 20
15.2438022061
 10
0.6547306839
 20
15.2379613275
 10
0.6196858958
 20
15.2314582493
 10
0.5851026791
 20
15.2242957371
 10
0.5511258111
 20
15.2165037904
 10
0.5177578368
 20
15.2080797695
 10
0.4849962111
 20
15.1990263141
 10
0.4529780768
 20
15.1893813426
 10
0.4217065548
 20
15.1791423749
 10
0.3911785242
 20
15.168311891
 10
0.361521765
 20
15.1569352498
 10
0.3327788708
 20
15.1450275708
 10
0.304907248
 20
15.1325737346
 10
0.2779068967
 20
15.1195737409
  0
LWPOLYLINE
  5
475
100
AcDbEntity
  8
0
100
AcDbPolyline
 62
7
  6
CONTINUOUS
 90
43
 70
0
 10
-14.2177821176
 20
23.0745250293
 10
-14.2447824663
 20
23.0875250218
 10
-14.2726540868
 20
23.0999788572
 10
-14.3013969791
 20
23.1118865354
 10
-14.3310537365
 20
23.1232631762
 10
-14.3615817658
 20
23.1340936599
 10
-14.3928532866
 20
23.1443326275
 10
-14.4248714196
 20
23.1539775989
 10
-14.457633044
 20
23.1630310543
 10
-14.4910010173
 20
23.1714550752
 10
-14.5249778843
 20
23.179247022
 10
-14.5595611001
 20
23.1864095344
 10
-14.5946058874
 20
23.1929126128
 10
-14.6301141836
 20
23.1987534917
 10
-14.6660840512
 20
23.2039349366
 10
-14.7023649009
 20
23.2084352451
 10
-14.7389580382
 20
23.2122515603
 10
-14.7758621575
 20
23.2153867391
 10
-14.8129227529
 20
23.2178276495
 10
-14.8501404812
 20
23.2195713795
 10
-14.8875146855
 20
23.2206208412
 10
-14.9248888898
 20
23.2209716387
 10
-14.9622630941
 20
23.2206208415
 10
-14.9996372983
 20
23.2195713802
 10
-15.0368550264
 20
23.2178276506
 10
-15.0739156215
 20
23.2153867405
 10
-15.1108197405
 20
23.2122515621
 10
-15.1474128777
 20
23.2084352473
 10
-15.1836937277
 20
23.2039349391
 10
-15.2196635959
 20
23.1987534945
 10
-15.2551718928
 20
23.1929126159
 10
-15.2902166809
 20
23.1864095376
 10
-15.3247998976
 20
23.1792470254
 10
-15.3587767656
 20
23.1714550787
 10
-15.3921447399
 20
23.1630310578
 10
-15.4249063656
 20
23.1539776025
 10
-15.4569244999
 20
23.144332631
 10
-15.4881960219
 20
23.1340936632
 10
-15.5187240525
 20
23.1232631794
 10
-15.5483808117
 20
23.1118865382
 10
-15.5771237059
 20
23.0999788592
 10
-15.6049953287
 20
23.0875250229
 10
-15.63199568
 20
23.0745250293
  0
LWPOLYLINE
  5
476
100
AcDbEntity
  8
0
100
AcDbPolyline
 62
253
  6
CONTINUOUS
 90
55
 70
0
 10
1.4799884248
 20
14.5963868841
 10
1.4632711492
 20
14.6045045098
 10
1.4461190458
 20
14.6123630008
 10
1.4285321147
 20
14.619962357
 10
1.4104947547
 20
14.6273085628
 10
1.392022567
 20
14.6343956339
 10
1.3731623547
 20
14.6412056175
 10
1.3539131237
 20
14.6477378149
 10
1.3342758682
 20
14.6539929249
 10
1.3143003739
 20
14.6599550912
 10
1.2939857854
 20
14.6656235694
 10
1.2733329581
 20
14.6709991039
 10
1.2523942437
 20
14.6760680711
 10
1.2311689171
 20
14.6808296932
 10
1.2096577034
 20
14.685284748
 10
1.1879151294
 20
14.6894219452
 10
1.1659406085
 20
14.6932404782
 10
1.1437347272
 20
14.6967411536
 10
1.1213537728
 20
14.6999151001
 10
1.0987973011
 20
14.7027614888
 10
1.0760657561
 20
14.7052811485
 10
1.0532167566
 20
14.7074676947
 10
1.0302500049
 20
14.7093202823
 10
1.0071657987
 20
14.7108397563
 10
0.98402265
 20
14.7120222671
 10
0.9608204096
 20
14.7128669601
 10
0.9375592267
 20
14.71337469
 10
0.9142980616
 20
14.7135441716
 10
0.8910369143
 20
14.713374547
 10
0.8677757846
 20
14.7128666741
 10
0.8445736322
 20
14.712021842
 10
0.8214306066
 20
14.710839196
 10
0.7983465581
 20
14.7093195907
 10
0.7753799969
 20
14.7074668796
 10
0.7525312212
 20
14.7052802175
 10
0.7297999327
 20
14.7027604496
 10
0.7072437471
 20
14.699913964
 10
0.6848631086
 20
14.6967399321
 10
0.662657573
 20
14.6932391825
 10
0.6406834229
 20
14.6894205899
 10
0.6189412453
 20
14.685283348
 10
0.5974304532
 20
14.680828263
 10
0.5762055679
 20
14.6760666284
 10
0.5552673148
 20
14.6709976664
 10
0.5346149685
 20
14.6656221548
 10
0.5143008743
 20
14.6599537195
 10
0.4943258902
 20
14.6539916177
 10
0.4746891583
 20
14.6477365924
 10
0.4554404491
 20
14.6412044986
 10
0.4365807472
 20
14.6343946338
 10
0.4181090682
 20
14.6273077005
 10
0.4000722297
 20
14.6199616626
 10
0.3824858376
 20
14.6123625078
 10
0.365334286
 20
14.6045042483
 10
0.3486175749
 20
14.5963868841
  0
LWPOLYLINE
  5
477
100
AcDbEntity
  8
0
100
AcDbPolyline
 62
253
  6
CONTINUOUS
 90
55
 70
0
 10
-14.4299141519
 20
22.5513381725
 10
-14.4466314275
 20
22.5594557981
 10
-14.4637835308
 20
22.5673142891
 10
-14.481370462
 20
22.5749136454
 10
-14.499407822
 20
22.5822598512
 10
-14.5178800097
 20
22.5893469222
 10
-14.536740222
 20
22.5961569059
 10
-14.555989453
 20
22.6026891033
 10
-14.5756267085
 20
22.6089442133
 10
-14.5956022028
 20
22.6149063795
 10
-14.6159167913
 20
22.6205748578
 10
-14.6365696186
 20
22.6259503923
 10
-14.657508333
 20
22.6310193595
 10
-14.6787336596
 20
22.6357809816
 10
-14.7002448733
 20
22.6402360364
 10
-14.7219874473
 20
22.6443732335
 10
-14.7439619682
 20
22.6481917666
 10
-14.7661678495
 20
22.651692442
 10
-14.7885488039
 20
22.6548663884
 10
-14.8111052756
 20
22.6577127771
 10
-14.8338368206
 20
22.6602324369
 10
-14.8566858201
 20
22.6624189831
 10
-14.8796525718
 20
22.6642715706
 10
-14.902736778
 20
22.6657910446
 10
-14.9258799267
 20
22.6669735555
 10
-14.9490821671
 20
22.6678182485
 10
-14.97234335
 20
22.6683259783
 10
-14.9956045151
 20
22.66849546
 10
-15.0188656624
 20
22.6683258353
 10
-15.042126792
 20
22.6678179625
 10
-15.0653289445
 20
22.6669731304
 10
-15.0884719701
 20
22.6657904843
 10
-15.1115560186
 20
22.6642708791
 10
-15.1345225798
 20
22.6624181679
 10
-15.1573713555
 20
22.6602315059
 10
-15.180102644
 20
22.6577117379
 10
-15.2026588296
 20
22.6548652524
 10
-15.2250394681
 20
22.6516912204
 10
-15.2472450037
 20
22.6481904708
 10
-15.2692191538
 20
22.6443718782
 10
-15.2909613314
 20
22.6402346363
 10
-15.3124721235
 20
22.6357795514
 10
-15.3336970088
 20
22.6310179167
 10
-15.3546352619
 20
22.6259489548
 10
-15.3752876082
 20
22.6205734431
 10
-15.3956017024
 20
22.6149050079
 10
-15.4155766865
 20
22.6089429061
 10
-15.4352134184
 20
22.6026878807
 10
-15.4544621276
 20
22.596155787
 10
-15.4733218295
 20
22.5893459221
 10
-15.4917935085
 20
22.5822589889
 10
-15.509830347
 20
22.5749129509
 10
-15.5274167391
 20
22.5673137962
 10
-15.5445682907
 20
22.5594555367
 10
-15.5612850018
 20
22.5513381725
  0
LINE
  5
478
100
AcDbEntity
  8
0
100
AcDbLine
 62
253
  6
CONTINUOUS
 10
3.5053168234
 20
13.5837226848
 11
1.4799884248
 21
14.5963868841
  0
LINE
  5
479
100
AcDbEntity
  8
0
100
AcDbLine
 62
253
  6
CONTINUOUS
 10
-12.4045857533
 20
21.5386739731
 11
-14.4299141519
 21
22.5513381725
  0
LINE
  5
47A
100
AcDbEntity
  8
0
100
AcDbLine
 62
7
  6
CONTINUOUS
 10
3.5560802479
 20
13.6087426895
 11
1.5694309413
 21
14.6020673428
  0
LINE
  5
47B
100
AcDbEntity
  8
0
100
AcDbLine
 62
7
  6
CONTINUOUS
 10
-12.3538223288
 20
21.5636939779
 11
-14.3404716354
 21
22.5570186312
  0
LINE
  5
47C
100
AcDbEntity
  8
0
100
AcDbLine
 62
7
  6
CONTINUOUS
 10
1.3385670685
 20
15.2963504362
 11
0.9850136779
 21
15.4731271315
  0
LINE
  5
47D
100
AcDbEntity
  8
0
100
AcDbLine
 62
7
  6
CONTINUOUS
 10
-14.5713355082
 20
23.2513017246
 11
-14.9248888988
 21
23.4280784199
  0
LINE
  5
47E
100
AcDbEntity
  8
ASSI
100
AcDbLine
 62
7
  6
CONTINUOUS
 10
-14.2177821176
 20
23.0745250293
 11
-11.7708170509
 21
21.8510424959
  0
LINE
  5
47F
100
AcDbEntity
  8
ASSI
100
AcDbLine
 62
7
  6
CONTINUOUS
 10
1.6921204591
 20
15.1195737409
 11
4.1390855257
 21
13.8960912076
  0
LINE
  5
480
100
AcDbEntity
  8
DRAFT
100
AcDbLine
 62
7
  6
CONTINUOUS
 10
-14.9248888988
 20
23.9420853716
 11
-14.5713355082
 21
23.7653086763
  0
LINE
  5
481
100
AcDbEntity
  8
DRAFT
100
AcDbLine
 62
7
  6
CONTINUOUS
 10
0.9850136779
 20
15.9871340833
 11
1.3385670685
 21
15.810357388
  0
LINE
  5
482
100
AcDbEntity
  8
0
100
AcDbLine
 62
7
  6
CONTINUOUS
 10
5.546901222
 20
14.589967866
 11
2.736351575
 21
15.9952426895
  0
LINE
  5
483
100
AcDbEntity
  8
0
100
AcDbLine
 62
7
  6
CONTINUOUS
 10
-10.3630013547
 20
22.5449191543
 11
-13.1735510017
 21
23.9501939778
  0
LINE
  5
484
100
AcDbEntity
  8
0
100
AcDbLine
 62
7
  6
CONTINUOUS
 10
12.3890188316
 20
11.6415541115
 11
11.714613231
 21
11.9787569119
  0
LINE
  5
485
100
AcDbEntity
  8
ASSI
100
AcDbLine
 62
253
  6
CONTINUOUS
 10
6.825191172
 20
14.6187887544
 11
6.2196607374
 21
14.9215539718
  0
LINE
  5
486
100
AcDbEntity
  8
ASSI
100
AcDbLine
 62
253
  6
CONTINUOUS
 10
1.269913269
 20
17.3964277059
 11
0.6643828344
 21
17.6991929233
  0
LINE
  5
487
100
AcDbEntity
  8
ASSI
100
AcDbLine
 62
253
  6
CONTINUOUS
 10
-9.0847114047
 20
22.5737400428
 11
-9.6902418393
 21
22.8765052601
  0
LINE
  5
488
100
AcDbEntity
  8
ASSI
100
AcDbLine
 62
253
  6
CONTINUOUS
 10
-14.6399893077
 20
25.3513789943
 11
-15.2455197423
 21
25.6541442116
  0
LINE
  5
489
100
AcDbEntity
  8
0
100
AcDbLine
 62
7
  6
CONTINUOUS
 10
7.2544704805
 20
14.4898973942
 11
6.999127237
 21
14.617569016
  0
LINE
  5
48A
100
AcDbEntity
  8
0
100
AcDbLine
 62
7
  6
CONTINUOUS
 10
6.3321309904
 20
14.9510671393
 11
4.0962835151
 21
16.0689908769
  0
LINE
  5
48B
100
AcDbEntity
  8
0
100
AcDbLine
 62
7
  6
CONTINUOUS
 10
-8.6554320962
 20
22.4448486826
 11
-8.9107753397
 21
22.5725203043
  0
LINE
  5
48C
100
AcDbEntity
  8
0
100
AcDbLine
 62
7
  6
CONTINUOUS
 10
-9.5777715863
 20
22.9060184276
 11
-11.8136190616
 21
24.0239421652
  0
LINE
  5
48D
100
AcDbEntity
  8
ASSI
100
AcDbLine
 62
7
  6
CONTINUOUS
 10
6.9923525318
 20
14.6591628163
 11
6.495309742
 21
14.9076842112
  0
LINE
  5
48E
100
AcDbEntity
  8
ASSI
100
AcDbLine
 62
7
  6
CONTINUOUS
 10
1.4373641026
 20
17.4366570309
 11
0.9403213128
 21
17.6851784258
  0
LINE
  5
48F
100
AcDbEntity
  8
ASSI
100
AcDbLine
 62
7
  6
CONTINUOUS
 10
-8.9175500449
 20
22.6141141047
 11
-9.4145928347
 21
22.8626354996
  0
LINE
  5
490
100
AcDbEntity
  8
ASSI
100
AcDbLine
 62
7
  6
CONTINUOUS
 10
-14.4725384741
 20
25.3916083193
 11
-14.9695812639
 21
25.6401297142
  0
LWPOLYLINE
  5
491
100
AcDbEntity
  8
RACCORDO
100
AcDbPolyline
 62
7
  6
CONTINUOUS
 90
18
 70
0
 10
11.7204938091
 20
12.6751885389
 10
11.71898823
 20
12.6788184715
 10
11.7105447105
 20
12.6979998186
 10
11.7012923744
 20
12.7171833949
 10
11.6912273435
 20
12.7363819957
 10
11.6803378325
 20
12.7555110847
 10
11.6686063519
 20
12.7745932535
 10
11.6560503912
 20
12.7936059105
 10
11.6427106336
 20
12.8123967455
 10
11.6285977385
 20
12.8309454986
 10
11.6137010465
 20
12.8492724296
 10
11.5980292623
 20
12.8672860078
 10
11.5815662078
 20
12.8850007888
 10
11.5643280611
 20
12.9024022168
 10
11.5463720619
 20
12.9193550942
 10
11.5277172901
 20
12.935814355
 10
11.5083446658
 20
12.9518250651
 10
11.4882541889
 20
12.9673872246
  0
LWPOLYLINE
  5
492
100
AcDbEntity
  8
RACCORDO
100
AcDbPolyline
 62
253
  6
CONTINUOUS
 90
10
 70
0
 10
11.6313563813
 20
12.25683591
 10
11.6336084428
 20
12.2463359161
 10
11.6355969196
 20
12.2356504454
 10
11.6373218117
 20
12.2247794978
 10
11.6387838214
 20
12.2137165269
 10
11.6399822463
 20
12.2024680792
 10
11.6409149797
 20
12.191053794
 10
11.6415813193
 20
12.1794802177
 10
11.6419819674
 20
12.167740804
 10
11.6421169239
 20
12.1558355528
  0
LINE
  5
493
100
AcDbEntity
  8
0
100
AcDbLine
 62
253
  6
CONTINUOUS
 10
18.3304501606
 20
19.4347302932
 11
18.3304828782
 21
19.440447298
  0
LWPOLYLINE
  5
494
100
AcDbEntity
  8
0
100
AcDbPolyline
 62
253
  6
CONTINUOUS
 90
12
 70
0
 10
18.3304828782
 20
19.440447298
 10
18.3317484112
 20
19.4707247807
 10
18.3430782046
 20
19.5467448369
 10
18.3660337039
 20
19.6220714639
 10
18.4005179584
 20
19.6962672688
 10
18.44640178
 20
19.7689843635
 10
18.5034873606
 20
19.8398014416
 10
18.5714996375
 20
19.9082901695
 10
18.6501266674
 20
19.9740981278
 10
18.7389875716
 20
20.0368423293
 10
18.837624495
 20
20.0961139549
 10
18.9455259201
 20
20.1515403973
  0
LWPOLYLINE
  5
495
100
AcDbEntity
  8
RACCORDO
100
AcDbPolyline
 62
7
  6
CONTINUOUS
 90
8
 70
0
 10
11.7591914038
 20
-24.7011214729
 10
11.7636943457
 20
-24.6794205919
 10
11.7703567481
 20
-24.6427619599
 10
11.7758441728
 20
-24.6059724573
 10
11.7801252946
 20
-24.569129478
 10
11.7831759812
 20
-24.5322657225
 10
11.7849719054
 20
-24.4953807022
 10
11.7850765835
 20
-24.4887492425
  0
LWPOLYLINE
  5
496
100
AcDbEntity
  8
RACCORDO
100
AcDbPolyline
 62
253
  6
CONTINUOUS
 90
31
 70
0
 10
6.498383657
 20
-31.2152108111
 10
6.5027268099
 20
-31.2029871954
 10
6.506574624
 20
-31.1905539818
 10
6.5099161928
 20
-31.1779449115
 10
6.512742213
 20
-31.1651930737
 10
6.5150442072
 20
-31.152334334
 10
6.5168150356
 20
-31.1394073195
 10
6.5180497643
 20
-31.1264486421
 10
6.5187452263
 20
-31.1134923951
 10
6.5188995196
 20
-31.1005736355
 10
6.5185121707
 20
-31.0877274342
 10
6.5175841898
 20
-31.074989102
 10
6.5161181146
 20
-31.0623937565
 10
6.5141179703
 20
-31.0499759146
 10
6.5115892092
 20
-31.0377693768
 10
6.5085387298
 20
-31.0258074536
 10
6.5049748537
 20
-31.0141228002
 10
6.5009073164
 20
-31.0027473544
 10
6.496347236
 20
-30.9917122167
 10
6.4913070725
 20
-30.9810475374
 10
6.485800589
 20
-30.9707824366
 10
6.4798428259
 20
-30.9609449523
 10
6.4734500461
 20
-30.9515619408
 10
6.4666397196
 20
-30.9426590462
 10
6.4594304822
 20
-30.9342606231
 10
6.451842054
 20
-30.9263896271
 10
6.4438951453
 20
-30.9190675228
 10
6.4356114279
 20
-30.9123142719
 10
6.4270135138
 20
-30.9061483108
 10
6.4181248992
 20
-30.9005864915
 10
6.4089698617
 20
-30.8956440051
  0
LWPOLYLINE
  5
497
100
AcDbEntity
  8
ASSI
100
AcDbPolyline
 62
7
  6
CONTINUOUS
 90
17
 70
0
 10
0.7153140257
 20
17.7195350281
 10
0.7263608114
 20
17.7226382302
 10
0.7379626723
 20
17.7251112802
 10
0.7501220559
 20
17.7269374444
 10
0.7628640947
 20
17.7281174628
 10
0.7761646204
 20
17.7286146956
 10
0.7899434173
 20
17.7283598587
 10
0.8041888338
 20
17.7273256733
 10
0.8188896429
 20
17.7255113166
 10
0.8339530459
 20
17.7228958611
 10
0.8493249791
 20
17.7194703755
 10
0.8650179798
 20
17.7152268926
 10
0.8810338701
 20
17.7101495415
 10
0.8973184957
 20
17.7042451567
 10
0.9138809577
 20
17.6974892942
 10
0.9308212467
 20
17.6898109915
 10
0.9403203854
 20
17.6851771251
  0
LINE
  5
498
100
AcDbEntity
  8
RACCORDO
100
AcDbLine
 62
7
  6
CONTINUOUS
 10
-25.1322285402
 20
23.5070792972
 11
-24.5080329431
 21
23.3767466774
  0
LINE
  5
499
100
AcDbEntity
  8
RACCORDO
100
AcDbLine
 62
253
  6
CONTINUOUS
 10
-24.9053850467
 20
23.6629004579
 11
-24.1941644386
 21
23.5143969351
  0
LWPOLYLINE
  5
49A
100
AcDbEntity
  8
RACCORDO
100
AcDbPolyline
 62
7
  6
CONTINUOUS
 90
10
 70
0
 10
-25.1322285402
 20
23.5070792972
 10
-25.1397698077
 20
23.5087759982
 10
-25.1472720135
 20
23.5107096905
 10
-25.1547245065
 20
23.5128791689
 10
-25.162131796
 20
23.5152877679
 10
-25.1694667532
 20
23.517928331
 10
-25.1766746344
 20
23.5207792745
 10
-25.1837341242
 20
23.5238268438
 10
-25.1906533272
 20
23.5270690027
 10
-25.1929445362
 20
23.5282001457
  0
LWPOLYLINE
  5
49B
100
AcDbEntity
  8
0
100
AcDbPolyline
 62
7
  6
CONTINUOUS
 90
3
 70
0
 10
-14.5847616069
 20
22.6459419121
 10
-14.4994306755
 20
22.6214058254
 10
-14.4177154306
 20
22.5917846585
  0
LWPOLYLINE
  5
49C
100
AcDbEntity
  8
0
100
AcDbPolyline
 62
7
  6
CONTINUOUS
 90
4
 70
0
 10
-15.5901464966
 20
22.5624262789
 10
-15.5810203216
 20
22.5596383367
 10
-15.5713937392
 20
22.5559587194
 10
-15.5612850018
 20
22.5513381725
  0
LWPOLYLINE
  5
49D
100
AcDbEntity
  8
0
100
AcDbPolyline
 62
253
  6
CONTINUOUS
 90
7
 70
0
 10
14.0701913444
 20
15.2061856713
 10
14.0424708847
 20
15.2177918765
 10
14.0151613839
 20
15.22472312
 10
13.988730115
 20
15.2268608062
 10
13.9636293245
 20
15.2241683588
 10
13.9402884937
 20
15.2166918463
 10
13.937133944
 20
15.2152456314
  0
LWPOLYLINE
  5
49E
100
AcDbEntity
  8
ASSI
100
AcDbPolyline
 62
7
  6
CONTINUOUS
 90
17
 70
0
 10
1.4373639524
 20
17.4366555188
 10
1.4353202158
 20
17.4375331153
 10
1.4314575382
 20
17.4386217927
 10
1.4269687313
 20
17.4392865741
 10
1.4218425487
 20
17.4395512195
 10
1.4160825844
 20
17.4394331684
 10
1.4097179547
 20
17.4389382421
 10
1.4027583962
 20
17.4380746244
 10
1.3952033759
 20
17.4368432609
 10
1.3870860408
 20
17.4352647416
 10
1.3784750011
 20
17.4333738286
 10
1.3693977062
 20
17.4311623044
 10
1.3598834228
 20
17.4286501864
 10
1.350022362
 20
17.4259074336
 10
1.3398727014
 20
17.4229558023
 10
1.3294502256
 20
17.4197725721
 10
1.3187893006
 20
17.416356273
  0
LWPOLYLINE
  5
49F
100
AcDbEntity
  8
ASSI
100
AcDbPolyline
 62
7
  6
CONTINUOUS
 90
17
 70
0
 10
-14.4725386243
 20
25.3916068072
 10
-14.4745823608
 20
25.3924844036
 10
-14.4784450385
 20
25.3935730811
 10
-14.4829338454
 20
25.3942378624
 10
-14.488060028
 20
25.3945025079
 10
-14.4938199923
 20
25.3943844567
 10
-14.500184622
 20
25.3938895304
 10
-14.5071441805
 20
25.3930259128
 10
-14.5146992008
 20
25.3917945493
 10
-14.5228165359
 20
25.3902160299
 10
-14.5314275756
 20
25.388325117
 10
-14.5405048705
 20
25.3861135927
 10
-14.5500191539
 20
25.3836014748
 10
-14.5598802147
 20
25.3808587219
 10
-14.5700298753
 20
25.3779070906
 10
-14.5804523511
 20
25.3747238605
 10
-14.5911132761
 20
25.3713075614
  0
LWPOLYLINE
  5
4A0
100
AcDbEntity
  8
ASSI
100
AcDbPolyline
 62
7
  6
CONTINUOUS
 90
17
 70
0
 10
-8.9175502139
 20
22.6141124038
 10
-8.9193330305
 20
22.6148928144
 10
-8.9231314344
 20
22.6160090334
 10
-8.9275529469
 20
22.6167033768
 10
-8.9326059395
 20
22.6170004027
 10
-8.9382844801
 20
22.6169170407
 10
-8.9445599783
 20
22.6164590094
 10
-8.9514236115
 20
22.6156357744
 10
-8.9588752352
 20
22.614448799
 10
-8.9668819277
 20
22.6129176094
 10
-8.9753784719
 20
22.6110761458
 10
-8.9843380789
 20
22.6089168784
 10
-8.993731844
 20
22.606459048
 10
-9.0034736389
 20
22.6037700331
 10
-9.0135074613
 20
22.6008709781
 10
-9.0238172394
 20
22.5977402831
 10
-9.0343694036
 20
22.5943767428
  0
LWPOLYLINE
  5
4A1
100
AcDbEntity
  8
RACCORDO
100
AcDbPolyline
 62
7
  6
CONTINUOUS
 90
19
 70
0
 10
3.8363903238
 20
16.8200941406
 10
3.814966217
 20
16.8299739064
 10
3.7937814698
 20
16.8382075792
 10
3.772073354
 20
16.8451848195
 10
3.7498394713
 20
16.8509005373
 10
3.7270822198
 20
16.8553598225
 10
3.7038952084
 20
16.8585443622
 10
3.680276948
 20
16.8604488926
 10
3.6562289276
 20
16.8610786774
 10
3.6318492227
 20
16.8604311953
 10
3.6071363503
 20
16.858501243
 10
3.5820917933
 20
16.8552940238
 10
3.5568180763
 20
16.8508226252
 10
3.5313142263
 20
16.8450818476
 10
3.5055812163
 20
16.8380768907
 10
3.4797244892
 20
16.8298364411
 10
3.4537791928
 20
16.8203700609
 10
3.4277101794
 20
16.809668188
 10
3.4015174489
 20
16.7977308224
  0
LWPOLYLINE
  5
4A2
100
AcDbEntity
  8
RACCORDO
100
AcDbPolyline
 62
7
  6
CONTINUOUS
 90
19
 70
0
 10
-12.0735122529
 20
24.7750454289
 10
-12.0949363597
 20
24.7849251947
 10
-12.1161211069
 20
24.7931588676
 10
-12.1378292227
 20
24.8001361079
 10
-12.1600631054
 20
24.8058518256
 10
-12.1828203569
 20
24.8103111109
 10
-12.2060073683
 20
24.8134956506
 10
-12.2296256287
 20
24.8154001809
 10
-12.2536736491
 20
24.8160299658
 10
-12.278053354
 20
24.8153824836
 10
-12.3027662264
 20
24.8134525314
 10
-12.3278107834
 20
24.8102453121
 10
-12.3530845004
 20
24.8057739135
 10
-12.3785883504
 20
24.800033136
 10
-12.4043213604
 20
24.7930281791
 10
-12.4301780875
 20
24.7847877295
 10
-12.4561233839
 20
24.7753213493
 10
-12.4821923973
 20
24.7646194764
 10
-12.5083851278
 20
24.7526821107
  0
LWPOLYLINE
  5
4A3
100
AcDbEntity
  8
RACCORDO
100
AcDbPolyline
 62
7
  6
CONTINUOUS
 90
22
 70
0
 10
11.2660440618
 20
13.1052546069
 10
11.2311995633
 20
13.1218130672
 10
11.1970293053
 20
13.1366161205
 10
11.1635887098
 20
13.1498232915
 10
11.1308954301
 20
13.1614347103
 10
11.0989318129
 20
13.1714502468
 10
11.0677003201
 20
13.180029035
 10
11.0372124001
 20
13.1871784781
 10
11.0074566044
 20
13.1928911728
 10
10.9784010496
 20
13.1973040433
 10
10.9500383162
 20
13.2004272902
 10
10.9223758236
 20
13.202250713
 10
10.8954039468
 20
13.2028806336
 10
10.8691401114
 20
13.2023284021
 10
10.8435668918
 20
13.2005826686
 10
10.818622386
 20
13.1977157041
 10
10.7942884761
 20
13.1937370203
 10
10.7705832799
 20
13.1886371055
 10
10.7474992492
 20
13.182459697
 10
10.725033868
 20
13.1752193737
 10
10.7031896523
 20
13.1669015567
 10
10.6819666021
 20
13.1575062458
  0
LINE
  5
4A4
100
AcDbEntity
  8
RACCORDO
100
AcDbLine
 62
253
  6
CONTINUOUS
 10
-15.5461935939
 20
26.2715863437
 11
-12.5083851278
 21
24.7526821107
  0
LINE
  5
4A5
100
AcDbEntity
  8
RACCORDO
100
AcDbLine
 62
253
  6
CONTINUOUS
 10
-8.2657444407
 20
22.6313617671
 11
-5.1492418597
 21
21.0731104766
  0
LINE
  5
4A6
100
AcDbEntity
  8
RACCORDO
100
AcDbLine
 62
253
  6
CONTINUOUS
 10
0.2850148679
 20
18.3559821129
 11
3.4015174489
 21
16.7977308224
  0
LINE
  5
4A7
100
AcDbEntity
  8
RACCORDO
100
AcDbLine
 62
253
  6
CONTINUOUS
 10
7.644158136
 20
14.6764104788
 11
10.6819666021
 21
13.1575062458
  0
LINE
  5
4A8
100
AcDbEntity
  8
RACCORDO
100
AcDbLine
 62
7
  6
CONTINUOUS
 10
-15.2657523935
 20
26.3711528345
 11
-12.0735122472
 21
24.7750454403
  0
LINE
  5
4A9
100
AcDbEntity
  8
RACCORDO
100
AcDbLine
 62
7
  6
CONTINUOUS
 10
-7.8308715601
 20
22.6537250968
 11
-4.5550924512
 21
21.0158355423
  0
LINE
  5
4AA
100
AcDbEntity
  8
RACCORDO
100
AcDbLine
 62
7
  6
CONTINUOUS
 10
0.5606112206
 20
18.4579837064
 11
3.8363903295
 21
16.820094152
  0
LINE
  5
4AB
100
AcDbEntity
  8
RACCORDO
100
AcDbLine
 62
7
  6
CONTINUOUS
 10
8.0790310166
 20
14.6987738084
 11
11.2707489596
 21
13.1029148369
  0
LINE
  5
4AC
100
AcDbEntity
  8
0
100
AcDbLine
 62
7
  6
CONTINUOUS
 10
-3.5584651301
 20
21.1088007648
 11
0.0837702709
 21
19.2876830643
  0
LINE
  5
4AD
100
AcDbEntity
  8
RACCORDO
100
AcDbLine
 62
253
  6
CONTINUOUS
 10
12.7936969237
 20
14.6915758789
 11
12.8178167648
 21
14.6795159584
  0
LINE
  5
4AE
100
AcDbEntity
  8
RACCORDO
100
AcDbLine
 62
7
  6
CONTINUOUS
 10
12.7936969237
 20
14.7671784544
 11
12.8950708789
 21
14.7164914768
  0
LINE
  5
4AF
100
AcDbEntity
  8
0
100
AcDbLine
 62
7
  6
CONTINUOUS
 10
-1.8434134468
 20
22.1222578914
 11
-1.6312814125
 21
22.0161918743
  0
LINE
  5
4B0
100
AcDbEntity
  8
0
100
AcDbLine
 62
7
  6
CONTINUOUS
 10
12.7936969237
 20
14.8528885327
 11
12.9826532941
 21
14.7584103475
  0
LINE
  5
4B1
100
AcDbEntity
  8
0
100
AcDbLine
 62
253
  6
CONTINUOUS
 10
12.2317137133
 20
15.4334342353
 11
8.4133370949
 21
17.3426225445
  0
LINE
  5
4B2
100
AcDbEntity
  8
0
100
AcDbLine
 62
253
  6
CONTINUOUS
 10
-2.2639753011
 20
22.6812787425
 11
-6.0823519195
 21
24.5904670517
  0
LINE
  5
4B3
100
AcDbEntity
  8
0
100
AcDbLine
 62
7
  6
CONTINUOUS
 10
12.4934514992
 20
15.3745052733
 11
8.4125230372
 21
17.4149695043
  0
LINE
  5
4B4
100
AcDbEntity
  8
0
100
AcDbLine
 62
7
  6
CONTINUOUS
 10
-2.0022375151
 20
22.6223497805
 11
-6.0831659771
 21
24.6628140115
  0
LINE
  5
4B5
100
AcDbEntity
  8
0
100
AcDbLine
 62
7
  6
CONTINUOUS
 10
-4.5304192153
 20
24.1728675569
 11
-0.9241746313
 21
22.3697452649
  0
LINE
  5
4B6
100
AcDbEntity
  8
0
100
AcDbLine
 62
7
  6
CONTINUOUS
 10
9.1874523397
 20
17.3139317794
 11
12.7936969237
 21
15.5108094873
  0
LWPOLYLINE
  5
4B7
100
AcDbEntity
  8
0
100
AcDbPolyline
 62
7
  6
CONTINUOUS
 90
11
 70
0
 10
-2.0022243386
 20
22.622395522
 10
-1.9944088809
 20
22.6183397845
 10
-1.967921202
 20
22.6031878298
 10
-1.9428998865
 20
22.5863956873
 10
-1.9198691475
 20
22.5676253295
 10
-1.8990156438
 20
22.5471713082
 10
-1.880587236
 20
22.5250560011
 10
-1.8653661394
 20
22.5005558886
 10
-1.8539222964
 20
22.4736424081
 10
-1.8464747232
 20
22.4450077982
 10
-1.8434134468
 20
22.4151246252
  0
LWPOLYLINE
  5
4B8
100
AcDbEntity
  8
0
100
AcDbPolyline
 62
7
  6
CONTINUOUS
 90
11
 70
0
 10
12.4934646757
 20
15.3745510148
 10
12.5012801334
 20
15.3704952773
 10
12.5277678123
 20
15.3553433226
 10
12.5527891278
 20
15.3385511801
 10
12.5758198668
 20
15.3197808224
 10
12.5966733706
 20
15.2993268011
 10
12.6151017783
 20
15.277211494
 10
12.630322875
 20
15.2527113814
 10
12.641766718
 20
15.225797901
 10
12.6492142911
 20
15.197163291
 10
12.6522755675
 20
15.167280118
  0
LWPOLYLINE
  5
4B9
100
AcDbEntity
  8
0
100
AcDbPolyline
 62
253
  6
CONTINUOUS
 90
13
 70
0
 10
-6.5066159882
 20
25.4945893376
 10
-6.4789588453
 20
25.4785067368
 10
-6.4518382767
 20
25.4582229333
 10
-6.425718323
 20
25.4340849918
 10
-6.401045904
 20
25.4065059225
 10
-6.3782431704
 20
25.3759576131
 10
-6.3577002816
 20
25.3429627542
 10
-6.3397687309
 20
25.3080858986
 10
-6.3247553302
 20
25.2719237993
 10
-6.3129169606
 20
25.2350951975
 10
-6.3044561784
 20
25.1982302396
 10
-6.2995177488
 20
25.1619596951
 10
-6.2981861683
 20
25.126904162
  0
LWPOLYLINE
  5
4BA
100
AcDbEntity
  8
RACCORDO
100
AcDbPolyline
 62
7
  6
CONTINUOUS
 90
7
 70
0
 10
11.4882541889
 20
12.9673872246
 10
11.4497849751
 20
12.9951242012
 10
11.4118894384
 20
13.020957546
 10
11.3745675786
 20
13.044887259
 10
11.3377858748
 20
13.0668639318
 10
11.3015778481
 20
13.0869369729
 10
11.2707465019
 20
13.1029047491
  0
LINE
  5
4BB
100
AcDbEntity
  8
0
100
AcDbLine
 62
7
  6
CONTINUOUS
 10
13.4092668678
 20
9.8818865436
 11
12.3890188316
 21
11.6415541115
  0
LINE
  5
4BC
100
AcDbEntity
  8
0
100
AcDbLine
 62
253
  6
CONTINUOUS
 10
22.5304094258
 20
19.3898062744
 11
22.5304501606
 21
19.3834262608
  0
LINE
  5
4BD
100
AcDbEntity
  8
0
100
AcDbLine
 62
253
  6
CONTINUOUS
 10
21.8659840665
 20
17.6669633402
 11
21.8660167841
 21
17.672680345
  0
LWPOLYLINE
  5
4BE
100
AcDbEntity
  8
0
100
AcDbPolyline
 62
253
  6
CONTINUOUS
 90
12
 70
0
 10
21.8660167841
 20
17.672680345
 10
21.8672823171
 20
17.7029578277
 10
21.8786121105
 20
17.778977884
 10
21.9015676098
 20
17.854304511
 10
21.9360518643
 20
17.9285003158
 10
21.9819356859
 20
18.0012174106
 10
22.0390212665
 20
18.0720344887
 10
22.1070335434
 20
18.1405232165
 10
22.1856605733
 20
18.2063311748
 10
22.2745214776
 20
18.2690753763
 10
22.3731584009
 20
18.3283470019
 10
22.481059826
 20
18.3837734443
  0
LWPOLYLINE
  5
4BF
100
AcDbEntity
  8
0
100
AcDbPolyline
 62
7
  6
CONTINUOUS
 90
8
 70
0
 10
22.5303994048
 20
19.3898956417
 10
22.5269291662
 20
19.3395148879
 10
22.5115072279
 20
19.2808833249
 10
22.4837011124
 20
19.2211807263
 10
22.44196972
 20
19.1583917703
 10
22.3848005664
 20
19.0927872036
 10
22.3131939012
 20
19.0271027731
 10
22.2292395317
 20
18.9636176091
  0
LWPOLYLINE
  5
4C0
100
AcDbEntity
  8
RACCORDO
100
AcDbPolyline
 62
7
  6
CONTINUOUS
 90
18
 70
0
 10
-14.9991041626
 20
19.6928365037
 10
-15.0163988305
 20
19.6913441681
 10
-15.0335932288
 20
19.6893505902
 10
-15.0506515665
 20
19.6869434073
 10
-15.0675424
 20
19.6842324537
 10
-15.0842466627
 20
19.6812754412
 10
-15.1007534827
 20
19.6780645931
 10
-15.1170468896
 20
19.6746543652
 10
-15.1331166825
 20
19.6711098355
 10
-15.1489598364
 20
19.6674158795
 10
-15.164568648
 20
19.6636125972
 10
-15.1799377307
 20
19.659749009
 10
-15.1950644587
 20
19.6558087353
 10
-15.2099454763
 20
19.651822688
 10
-15.2245780023
 20
19.647828602
 10
-15.2389566272
 20
19.6438114726
 10
-15.2530801802
 20
19.639796312
 10
-15.2805499258
 20
19.6318486998
  0
LWPOLYLINE
  5
4C1
100
AcDbEntity
  8
0
100
AcDbPolyline
 62
7
  6
CONTINUOUS
 90
10
 70
0
 10
-2.2639753011
 20
22.6812787425
 10
-2.2337523169
 20
22.6803748404
 10
-2.2032773166
 20
22.678008188
 10
-2.1726385302
 20
22.674150814
 10
-2.1418221567
 20
22.6688416932
 10
-2.1110452296
 20
22.662023768
 10
-2.0807556026
 20
22.6535443244
 10
-2.0511004704
 20
22.6434673003
 10
-2.0221827811
 20
22.6318063608
 10
-2.0022243386
 20
22.622395522
  0
LWPOLYLINE
  5
4C2
100
AcDbEntity
  8
0
100
AcDbPolyline
 62
253
  6
CONTINUOUS
 90
7
 70
0
 10
-0.42549767
 20
22.4540301785
 10
-0.4532181296
 20
22.4656363837
 10
-0.4805276304
 20
22.4725676271
 10
-0.5069588993
 20
22.4747053134
 10
-0.5320596898
 20
22.472012866
 10
-0.5554005206
 20
22.4645363535
 10
-0.5585550703
 20
22.4630901385
  0
LINE
  5
4C3
100
AcDbEntity
  8
0
100
AcDbLine
 62
253
  6
CONTINUOUS
 10
-5.5910793871
 20
25.1148109383
 11
-0.6413319188
 21
22.6399372041
  0
LINE
  5
4C4
100
AcDbEntity
  8
0
100
AcDbLine
 62
253
  6
CONTINUOUS
 10
8.9046096272
 20
17.8669664311
 11
13.8543570955
 21
15.392092697
  0
LINE
  5
4C5
100
AcDbEntity
  8
0
100
AcDbLine
 62
253
  6
CONTINUOUS
 10
-5.3752451383
 20
25.4824961139
 11
-0.42549767
 21
23.0076223797
  0
LINE
  5
4C6
100
AcDbEntity
  8
0
100
AcDbLine
 62
253
  6
CONTINUOUS
 10
9.1204438761
 20
18.2346516067
 11
14.0701913444
 21
15.7597778726
  0
LWPOLYLINE
  5
4C7
100
AcDbEntity
  8
0
100
AcDbPolyline
 62
253
  6
CONTINUOUS
 90
34
 70
0
 10
-0.42549767
 20
23.0076223797
 10
-0.4027651051
 20
22.9959436495
 10
-0.3806233391
 20
22.983418186
 10
-0.3590723722
 20
22.9700459891
 10
-0.3379256134
 20
22.9557972578
 10
-0.3173696535
 20
22.9407017931
 10
-0.2979642652
 20
22.9248489984
 10
-0.2797337151
 20
22.9082116919
 10
-0.2626537367
 20
22.8908170555
 10
-0.2472113025
 20
22.8728360381
 10
-0.2334527123
 20
22.8542477517
 10
-0.2213316664
 20
22.8350730843
 10
-0.2111962382
 20
22.8155456492
 10
-0.2031055397
 20
22.7956575075
 10
-0.1970004589
 20
22.7754165981
 10
-0.1930517326
 20
22.7550803509
 10
-0.1913216112
 20
22.7346416326
 10
-0.1917478443
 20
22.7141075764
 10
-0.1943144177
 20
22.6937570118
 10
-0.1990915791
 20
22.6735897623
 10
-0.2060090808
 20
22.6536060045
 10
-0.2148401644
 20
22.6340850971
 10
-0.2256507688
 20
22.6150432255
 10
-0.238374955
 20
22.5964642044
 10
-0.2525881488
 20
22.578578837
 10
-0.268335883
 20
22.5614147166
 10
-0.2855726247
 20
22.5449442499
 10
-0.3037372007
 20
22.5293154594
 10
-0.3228495594
 20
22.514558567
 10
-0.3428897525
 20
22.5006433508
 10
-0.3632367619
 20
22.4876271681
 10
-0.3836835816
 20
22.475529138
 10
-0.4044372176
 20
22.4643301415
 10
-0.42549767
 20
22.4540301785
  0
LWPOLYLINE
  5
4C8
100
AcDbEntity
  8
0
100
AcDbPolyline
 62
253
  6
CONTINUOUS
 90
34
 70
0
 10
14.0701913444
 20
15.7597778726
 10
14.0929239093
 20
15.7480991424
 10
14.1150656752
 20
15.7355736789
 10
14.1366166421
 20
15.722201482
 10
14.157763401
 20
15.7079527506
 10
14.1783193608
 20
15.6928572859
 10
14.1977247491
 20
15.6770044912
 10
14.2159552992
 20
15.6603671847
 10
14.2330352776
 20
15.6429725483
 10
14.2484777118
 20
15.6249915309
 10
14.262236302
 20
15.6064032445
 10
14.2743573479
 20
15.5872285771
 10
14.2844927761
 20
15.5677011421
 10
14.2925834746
 20
15.5478130004
 10
14.2986885554
 20
15.527572091
 10
14.3026372818
 20
15.5072358437
 10
14.3043674031
 20
15.4867971254
 10
14.30394117
 20
15.4662630692
 10
14.3013745967
 20
15.4459125046
 10
14.2965974352
 20
15.4257452552
 10
14.2896799335
 20
15.4057614973
 10
14.2808488499
 20
15.38624059
 10
14.2700382456
 20
15.3671987184
 10
14.2573140593
 20
15.3486196973
 10
14.2431008655
 20
15.3307343298
 10
14.2273531313
 20
15.3135702095
 10
14.2101163896
 20
15.2970997427
 10
14.1919518136
 20
15.2814709523
 10
14.1728394549
 20
15.2667140598
 10
14.1527992618
 20
15.2527988436
 10
14.1324522524
 20
15.2397826609
 10
14.1120054327
 20
15.2276846309
 10
14.0912517967
 20
15.2164856343
 10
14.0701913444
 20
15.2061856713
  0
LWPOLYLINE
  5
4C9
100
AcDbEntity
  8
0
100
AcDbPolyline
 62
253
  6
CONTINUOUS
 90
15
 70
0
 10
-0.6413319188
 20
22.6399372041
 10
-0.6272708373
 20
22.632622051
 10
-0.6134019779
 20
22.6248085778
 10
-0.5998098911
 20
22.616483965
 10
-0.5865567062
 20
22.6076169229
 10
-0.5737682113
 20
22.5982193781
 10
-0.5616155663
 20
22.5883529176
 10
-0.5501833738
 20
22.5780206795
 10
-0.5395621754
 20
22.5672302634
 10
-0.5298991239
 20
22.5560650104
 10
-0.5212649726
 20
22.5445441812
 10
-0.5137296037
 20
22.5326872648
 10
-0.5073960946
 20
22.5205904379
 10
-0.5023107825
 20
22.5082868553
 10
-0.4993093348
 20
22.498417132
  0
LWPOLYLINE
  5
4CA
100
AcDbEntity
  8
0
100
AcDbPolyline
 62
253
  6
CONTINUOUS
 90
15
 70
0
 10
13.8543570955
 20
15.392092697
 10
13.868418177
 20
15.3847775439
 10
13.8822870364
 20
15.3769640706
 10
13.8958791232
 20
15.3686394578
 10
13.9091323081
 20
15.3597724158
 10
13.9219208031
 20
15.350374871
 10
13.934073448
 20
15.3405084104
 10
13.9455056405
 20
15.3301761723
 10
13.9561268389
 20
15.3193857563
 10
13.9657898904
 20
15.3082205032
 10
13.9744240417
 20
15.2966996741
 10
13.9819594106
 20
15.2848427576
 10
13.9882929198
 20
15.2727459307
 10
13.9933782318
 20
15.2604423481
 10
13.9963796795
 20
15.2505726248
  0
LWPOLYLINE
  5
4CB
100
AcDbEntity
  8
0
100
AcDbPolyline
 62
253
  6
CONTINUOUS
 90
13
 70
0
 10
7.9890730262
 20
18.2467448304
 10
8.016730169
 20
18.2306622296
 10
8.0438507376
 20
18.2103784261
 10
8.0699706913
 20
18.1862404847
 10
8.0946431103
 20
18.1586614154
 10
8.1174458439
 20
18.1281131059
 10
8.1379887327
 20
18.095118247
 10
8.1559202834
 20
18.0602413914
 10
8.1709336841
 20
18.0240792921
 10
8.1827720537
 20
17.9872506903
 10
8.1912328359
 20
17.9503857324
 10
8.1961712656
 20
17.9141151879
 10
8.197502846
 20
17.8790596548
  0
LWPOLYLINE
  5
4CC
100
AcDbEntity
  8
0
100
AcDbPolyline
 62
7
  6
CONTINUOUS
 90
8
 70
0
 10
26.0659333108
 20
17.6221286887
 10
26.0624630721
 20
17.5717479349
 10
26.0470411338
 20
17.513116372
 10
26.0192350184
 20
17.4534137733
 10
25.9775036259
 20
17.3906248173
 10
25.9203344723
 20
17.3250202507
 10
25.8487278071
 20
17.2593358201
 10
25.7647734376
 20
17.1958506561
  0
LINE
  5
4CD
100
AcDbEntity
  8
RACCORDO
100
AcDbLine
 62
253
  6
CONTINUOUS
 10
4.7270201145
 20
-31.2965477368
 11
4.1047020825
 21
-32.0416071543
  0
LINE
  5
4CE
100
AcDbEntity
  8
RACCORDO
100
AcDbLine
 62
253
  6
CONTINUOUS
 10
5.0800563026
 20
-31.4223175749
 11
4.3688356945
 21
-32.273814052
  0
LWPOLYLINE
  5
4CF
100
AcDbEntity
  8
0
100
AcDbPolyline
 62
7
  6
CONTINUOUS
 90
10
 70
0
 10
-15.4047746667
 20
22.6463623172
 10
-15.3162845515
 20
22.6658444804
 10
-15.2257695546
 20
22.6803472347
 10
-15.1336316747
 20
22.6899690985
 10
-15.04068452
 20
22.6947254156
 10
-14.9476433793
 20
22.6946511179
 10
-14.8548249053
 20
22.6897543238
 10
-14.7629435105
 20
22.6800175002
 10
-14.6727967426
 20
22.665441753
 10
-14.5847616069
 20
22.6459419121
  0
LINE
  5
4D0
100
AcDbEntity
  8
0
100
AcDbLine
 62
7
  6
CONTINUOUS
 10
-11.8136190616
 20
24.0239421652
 11
-13.1735510017
 21
23.9501939778
  0
LWPOLYLINE
  5
4D1
100
AcDbEntity
  8
ASSI
100
AcDbPolyline
 62
7
  6
CONTINUOUS
 90
20
 70
0
 10
24.9805497993
 20
16.8739490944
 10
24.9358373929
 20
16.8922963563
 10
24.8296371591
 20
16.9303773171
 10
24.7186316487
 20
16.9648624754
 10
24.6028816376
 20
16.9957973104
 10
24.4838635578
 20
17.0227872373
 10
24.3615355458
 20
17.0457817226
 10
24.235939465
 20
17.0648312999
 10
24.1086773371
 20
17.0796929852
 10
23.9797278205
 20
17.0903131323
 10
23.8491122568
 20
17.0967453874
 10
23.7184966931
 20
17.0989077047
 10
23.5878811294
 20
17.0967453874
 10
23.4572655657
 20
17.0903131323
 10
23.328316049
 20
17.0796929852
 10
23.2010539212
 20
17.0648312999
 10
23.0754578403
 20
17.0457817226
 10
22.9531298283
 20
17.0227872373
 10
22.8341117485
 20
16.9957973104
 10
22.7227365185
 20
16.96603166
  0
LWPOLYLINE
  5
4D2
100
AcDbEntity
  8
ASSI
100
AcDbPolyline
 62
7
  6
CONTINUOUS
 90
20
 70
0
 10
21.4450158934
 20
18.6417160474
 10
21.4003034869
 20
18.6600633092
 10
21.2941032532
 20
18.69814427
 10
21.1830977427
 20
18.7326294284
 10
21.0673477317
 20
18.7635642633
 10
20.9483296519
 20
18.7905541902
 10
20.8260016399
 20
18.8135486756
 10
20.700405559
 20
18.8325982529
 10
20.5731434312
 20
18.8474599381
 10
20.4441939145
 20
18.8580800852
 10
20.3135783508
 20
18.8645123403
 10
20.1829627871
 20
18.8666746577
 10
20.0523472234
 20
18.8645123403
 10
19.9217316598
 20
18.8580800852
 10
19.7927821431
 20
18.8474599381
 10
19.6655200152
 20
18.8325982529
 10
19.5399239344
 20
18.8135486756
 10
19.4175959224
 20
18.7905541902
 10
19.2985778426
 20
18.7635642633
 10
19.1872026125
 20
18.733798613
  0
LINE
  5
4D3
100
AcDbEntity
  8
0
100
AcDbLine
 62
253
  6
CONTINUOUS
 10
26.0659433318
 20
17.6220393215
 11
26.0659840665
 21
17.6156593079
  0
LINE
  5
4D4
100
AcDbEntity
  8
0
100
AcDbLine
 62
7
  6
CONTINUOUS
 10
12.3890188316
 20
-24.1693746332
 11
13.4092668678
 21
-23.4299551015
  0
LWPOLYLINE
  5
4D5
100
AcDbEntity
  8
RACCORDO
100
AcDbPolyline
 62
7
  6
CONTINUOUS
 90
23
 70
0
 10
11.5647162526
 20
-24.8482430005
 10
11.5820378898
 20
-24.8368618819
 10
11.5985700056
 20
-24.8258944892
 10
11.6142900429
 20
-24.8153555878
 10
11.6292205587
 20
-24.8052304123
 10
11.6433637974
 20
-24.7955252422
 10
11.6567351876
 20
-24.7862290302
 10
11.6693193008
 20
-24.7773528234
 10
11.6810720953
 20
-24.7689360434
 10
11.691979516
 20
-24.7609876567
 10
11.7020556181
 20
-24.7534986967
 10
11.7112985242
 20
-24.7464816851
 10
11.7197006217
 20
-24.739942254
 10
11.7272695234
 20
-24.7338747712
 10
11.7340261901
 20
-24.7282748621
 10
11.7399745678
 20
-24.7231376205
 10
11.7451107105
 20
-24.7184679526
 10
11.7494437413
 20
-24.7142762024
 10
11.7529609082
 20
-24.7105732883
 10
11.7556749631
 20
-24.7073482919
 10
11.757633285
 20
-24.704578802
 10
11.758839414
 20
-24.7022625898
 10
11.7591919908
 20
-24.7011211311
  0
LINE
  5
4D6
100
AcDbEntity
  8
RACCORDO
100
AcDbLine
 62
7
  6
CONTINUOUS
 10
11.5279225032
 20
-24.8720778284
 11
11.5647162526
 21
-24.8482430005
  0
LINE
  5
4D7
100
AcDbEntity
  8
RACCORDO
100
AcDbLine
 62
7
  6
CONTINUOUS
 10
11.4882541843
 20
-24.8973483968
 11
11.5279225032
 21
-24.8720778284
  0
LINE
  5
4D8
100
AcDbEntity
  8
RACCORDO
100
AcDbLine
 62
7
  6
CONTINUOUS
 10
11.4118894373
 20
-24.9452802032
 11
11.4882541843
 21
-24.8973483968
  0
LINE
  5
4D9
100
AcDbEntity
  8
0
100
AcDbLine
 62
253
  6
CONTINUOUS
 10
28.4140046014
 20
-15.4994527203
 11
28.458792373
 21
-15.4715181101
  0
LINE
  5
4DA
100
AcDbEntity
  8
RACCORDO
100
AcDbLine
 62
7
  6
CONTINUOUS
 10
11.3377858752
 20
-24.9912161367
 11
11.4118894373
 21
-24.9452802032
  0
LINE
  5
4DB
100
AcDbEntity
  8
RACCORDO
100
AcDbLine
 62
7
  6
CONTINUOUS
 10
11.2660440618
 20
-25.0351138311
 11
11.3377858752
 21
-24.9912161367
  0
LINE
  5
4DC
100
AcDbEntity
  8
RACCORDO
100
AcDbLine
 62
7
  6
CONTINUOUS
 10
11.1970293053
 20
-25.0768144655
 11
11.2660440618
 21
-25.0351138311
  0
LINE
  5
4DD
100
AcDbEntity
  8
RACCORDO
100
AcDbLine
 62
7
  6
CONTINUOUS
 10
11.1308954301
 20
-25.1162778559
 11
11.1970293053
 21
-25.0768144655
  0
LINE
  5
4DE
100
AcDbEntity
  8
0
100
AcDbLine
 62
7
  6
CONTINUOUS
 10
30.9257434441
 20
-14.169891754
 11
31.0037594318
 21
-14.1239494988
  0
LINE
  5
4DF
100
AcDbEntity
  8
RACCORDO
100
AcDbLine
 62
7
  6
CONTINUOUS
 10
11.0677003201
 20
-25.1535017543
 11
11.1308954301
 21
-25.1162778559
  0
LINE
  5
4E0
100
AcDbEntity
  8
RACCORDO
100
AcDbLine
 62
7
  6
CONTINUOUS
 10
11.0074566044
 20
-25.1885257581
 11
11.0677003201
 21
-25.1535017543
  0
LINE
  5
4E1
100
AcDbEntity
  8
0
100
AcDbLine
 62
253
  6
CONTINUOUS
 10
30.9251160532
 20
-14.170223385
 11
30.9481099258
 21
-14.1569661743
  0
LINE
  5
4E2
100
AcDbEntity
  8
RACCORDO
100
AcDbLine
 62
7
  6
CONTINUOUS
 10
10.9500383162
 20
-25.2214590829
 11
11.0074566044
 21
-25.1885257581
  0
LINE
  5
4E3
100
AcDbEntity
  8
RACCORDO
100
AcDbLine
 62
7
  6
CONTINUOUS
 10
10.8954039468
 20
-25.2523480967
 11
10.9500383162
 21
-25.2214590829
  0
LINE
  5
4E4
100
AcDbEntity
  8
RACCORDO
100
AcDbLine
 62
7
  6
CONTINUOUS
 10
10.8435668918
 20
-25.2812167296
 11
10.8954039468
 21
-25.2523480967
  0
LINE
  5
4E5
100
AcDbEntity
  8
RACCORDO
100
AcDbLine
 62
7
  6
CONTINUOUS
 10
10.7942884761
 20
-25.3082182243
 11
10.8435668918
 21
-25.2812167296
  0
LINE
  5
4E6
100
AcDbEntity
  8
RACCORDO
100
AcDbLine
 62
7
  6
CONTINUOUS
 10
10.7474992492
 20
-25.3334025564
 11
10.7942884761
 21
-25.3082182243
  0
LINE
  5
4E7
100
AcDbEntity
  8
0
100
AcDbLine
 62
253
  6
CONTINUOUS
 10
30.9949425942
 20
-14.1226665514
 11
30.1453757886
 21
-14.575075805
  0
LINE
  5
4E8
100
AcDbEntity
  8
0
100
AcDbLine
 62
253
  6
CONTINUOUS
 10
30.1453757886
 20
-14.575075805
 11
29.2999939091
 21
-15.0246992072
  0
LINE
  5
4E9
100
AcDbEntity
  8
0
100
AcDbLine
 62
7
  6
CONTINUOUS
 10
28.9115689119
 20
-15.2362791249
 11
30.9260180516
 21
-14.1697465425
  0
LINE
  5
4EA
100
AcDbEntity
  8
0
100
AcDbLine
 62
253
  6
CONTINUOUS
 10
29.2999939091
 20
-15.0246992072
 11
28.41224824
 21
-15.4961314143
  0
LINE
  5
4EB
100
AcDbEntity
  8
0
100
AcDbLine
 62
253
  6
CONTINUOUS
 10
28.41224824
 20
-15.4961314143
 11
13.4092668678
 21
-23.4299551015
  0
LINE
  5
4EC
100
AcDbEntity
  8
0
100
AcDbLine
 62
7
  6
CONTINUOUS
 10
13.3875747656
 20
-23.4456763413
 11
28.9115689119
 21
-15.2362791249
  0
LINE
  5
4ED
100
AcDbEntity
  8
0
100
AcDbLine
 62
7
  6
CONTINUOUS
 10
12.3890188316
 20
-24.1693746332
 11
7.0307766571
 21
-27.0029013591
  0
LINE
  5
4EE
100
AcDbEntity
  8
0
100
AcDbLine
 62
253
  6
CONTINUOUS
 10
7.0307766571
 20
-25.9599972897
 11
31.3596484884
 21
-13.1440943652
  0
LINE
  5
4EF
100
AcDbEntity
  8
0
100
AcDbLine
 62
253
  6
CONTINUOUS
 10
7.0307766571
 20
-26.7593152255
 11
28.4122144086
 21
-15.4960543349
  0
LINE
  5
4F0
100
AcDbEntity
  8
RACCORDO
100
AcDbLine
 62
7
  6
CONTINUOUS
 10
10.7031896523
 20
-25.3567894016
 11
10.7474992492
 21
-25.3334025564
  0
LINE
  5
4F1
100
AcDbEntity
  8
RACCORDO
100
AcDbLine
 62
7
  6
CONTINUOUS
 10
10.7031896523
 20
-25.3567894016
 11
7.0307766571
 21
-27.2524846388
  0
LWPOLYLINE
  5
4F2
100
AcDbEntity
  8
ASSI
100
AcDbPolyline
 62
7
  6
CONTINUOUS
 90
17
 70
0
 10
-15.194588551
 20
25.6744863165
 10
-15.1835417653
 20
25.6775895186
 10
-15.1719399044
 20
25.6800625685
 10
-15.1597805208
 20
25.6818887327
 10
-15.147038482
 20
25.6830687512
 10
-15.1337379563
 20
25.683565984
 10
-15.1199591594
 20
25.683311147
 10
-15.1057137429
 20
25.6822769617
 10
-15.0910129338
 20
25.680462605
 10
-15.0759495308
 20
25.6778471494
 10
-15.0605775976
 20
25.6744216639
 10
-15.0448845969
 20
25.670178181
 10
-15.0288687066
 20
25.6651008298
 10
-15.012584081
 20
25.659196445
 10
-14.996021619
 20
25.6524405825
 10
-14.97908133
 20
25.6447622798
 10
-14.9695821913
 20
25.6401284134
  0
LWPOLYLINE
  5
4F3
100
AcDbEntity
  8
0
100
AcDbPolyline
 62
253
  6
CONTINUOUS
 90
9
 70
0
 10
-1.1153076067
 20
32.2328441504
 10
-1.1765261208
 20
32.2605483755
 10
-1.2373727648
 20
32.2814070208
 10
-1.2973846076
 20
32.2952613903
 10
-1.3561050696
 20
32.3020060777
 10
-1.4130873959
 20
32.3015897685
 10
-1.4678980561
 20
32.2940156299
 10
-1.5201200417
 20
32.2793412872
 10
-1.5541923571
 20
32.2652470854
  0
LINE
  5
4F4
100
AcDbEntity
  8
ASSI
100
AcDbLine
 62
7
  6
CONTINUOUS
 10
25.6387394068
 20
17.1186853352
 11
24.6146917871
 21
17.630709145
  0
LINE
  5
4F5
100
AcDbEntity
  8
ASSI
100
AcDbLine
 62
7
  6
CONTINUOUS
 10
22.1032055008
 20
18.8864522882
 11
21.0791578812
 21
19.398476098
  0
LWPOLYLINE
  5
4F6
100
AcDbEntity
  8
0
100
AcDbPolyline
 62
253
  6
CONTINUOUS
 90
10
 70
0
 10
27.9588685254
 20
17.6957560843
 10
28.0208838808
 20
17.6618433743
 10
28.0823335216
 20
17.6215538757
 10
28.1427499289
 20
17.5751941181
 10
28.2016734451
 20
17.5231168145
 10
28.2586557708
 20
17.4657181779
 10
28.3132633756
 20
17.4034349063
 10
28.3650807963
 20
17.3367408613
 10
28.4137137979
 20
17.266143462
 10
28.458792373
 20
17.192179825
  0
LWPOLYLINE
  5
4F7
100
AcDbEntity
  8
0
100
AcDbPolyline
 62
7
  6
CONTINUOUS
 90
10
 70
0
 10
31.6403065197
 20
17.3726734992
 10
31.6398476503
 20
17.4166872488
 10
31.6308108997
 20
17.5729337402
 10
31.6106872497
 20
17.7286521015
 10
31.5798196883
 20
17.8839258077
 10
31.5385456869
 20
18.0380546216
 10
31.4875897522
 20
18.1893435182
 10
31.4274814667
 20
18.336950037
 10
31.3583320772
 20
18.4809994785
 10
31.3381218408
 20
18.5192517312
  0
LINE
  5
4F8
100
AcDbEntity
  8
0
100
AcDbLine
 62
253
  6
CONTINUOUS
 10
31.3596484884
 20
17.0256646759
 11
31.3596484884
 21
-13.1440943652
  0
LINE
  5
4F9
100
AcDbEntity
  8
0
100
AcDbLine
 62
7
  6
CONTINUOUS
 10
31.640308688
 20
17.3729938612
 11
31.640308688
 21
-12.7967651726
  0
LWPOLYLINE
  5
4FA
100
AcDbEntity
  8
0
100
AcDbPolyline
 62
253
  6
CONTINUOUS
 90
7
 70
0
 10
31.3596484884
 20
-13.1440943652
 10
31.3553139968
 20
-13.282648118
 10
31.3415199396
 20
-13.4156851209
 10
31.3183418206
 20
-13.5423121392
 10
31.2859070325
 20
-13.6617114378
 10
31.244423028
 20
-13.7730355152
 10
31.1942036107
 20
-13.8754384931
  0
LWPOLYLINE
  5
4FB
100
AcDbEntity
  8
0
100
AcDbPolyline
 62
253
  6
CONTINUOUS
 90
9
 70
0
 10
31.6403086859
 20
-12.7967974683
 10
31.639382262
 20
-12.8182825708
 10
31.6295814846
 20
-12.8698051171
 10
31.6091812667
 20
-12.9205451453
 10
31.5784001497
 20
-12.9699590024
 10
31.5375679159
 20
-13.0175172284
 10
31.4871220424
 20
-13.0627102552
 10
31.4276030022
 20
-13.105053865
 10
31.3596484884
 20
-13.1440943625
  0
LWPOLYLINE
  5
4FC
100
AcDbEntity
  8
0
100
AcDbPolyline
 62
253
  6
CONTINUOUS
 90
9
 70
0
 10
31.6403084828
 20
17.372673497
 10
31.6393821173
 20
17.3514747826
 10
31.629581021
 20
17.299952347
 10
31.6091805573
 20
17.2492125006
 10
31.5783993029
 20
17.1997988857
 10
31.5375670577
 20
17.1522409349
 10
31.4871213109
 20
17.1070481987
 10
31.4276025537
 20
17.064704886
 10
31.3596484884
 20
17.0256646759
  0
LINE
  5
4FD
100
AcDbEntity
  8
0
100
AcDbLine
 62
253
  6
CONTINUOUS
 10
31.0690424902
 20
-14.0508098816
 11
30.9949425942
 21
-14.1226665514
  0
LWPOLYLINE
  5
4FE
100
AcDbEntity
  8
0
100
AcDbPolyline
 62
7
  6
CONTINUOUS
 90
12
 70
0
 10
31.1086627369
 20
-14.0453306123
 10
31.1739193072
 20
-13.9857468129
 10
31.257104224
 20
-13.8976389975
 10
31.3335731293
 20
-13.8014415636
 10
31.4026849434
 20
-13.6975509397
 10
31.4640067592
 20
-13.5861084814
 10
31.5170179281
 20
-13.4674722697
 10
31.5611349077
 20
-13.3422543976
 10
31.5959328444
 20
-13.2107168256
 10
31.6210027551
 20
-13.0731126239
 10
31.6359237067
 20
-12.9299083746
 10
31.640306725
 20
-12.7967974667
  0
LINE
  5
4FF
100
AcDbEntity
  8
0
100
AcDbLine
 62
7
  6
CONTINUOUS
 10
31.1089207741
 20
-14.0451195232
 11
31.1086400182
 21
-14.0453602697
  0
LINE
  5
500
100
AcDbEntity
  8
0
100
AcDbLine
 62
7
  6
CONTINUOUS
 10
31.0865597436
 20
-14.0637432156
 11
31.1086400182
 21
-14.0453602697
  0
LWPOLYLINE
  5
501
100
AcDbEntity
  8
0
100
AcDbPolyline
 62
253
  6
CONTINUOUS
 90
3
 70
0
 10
31.1086400182
 20
-14.0453602697
 10
31.0534066004
 20
-14.087478026
 10
30.994942044
 20
-14.1226668841
  0
LINE
  5
502
100
AcDbEntity
  8
0
100
AcDbLine
 62
253
  6
CONTINUOUS
 10
30.9481099258
 20
-14.1569661743
 11
30.994942044
 21
-14.1226668841
  0
LINE
  5
503
100
AcDbEntity
  8
0
100
AcDbLine
 62
7
  6
CONTINUOUS
 10
31.0037594318
 20
-14.1239494988
 11
31.0865597436
 21
-14.0637432156
  0
LWPOLYLINE
  5
504
100
AcDbEntity
  8
RACCORDO
100
AcDbPolyline
 62
7
  6
CONTINUOUS
 90
17
 70
0
 10
5.9116278094
 20
-31.9654023702
 10
5.9183410291
 20
-31.960956621
 10
5.9247116056
 20
-31.955919956
 10
5.9307221052
 20
-31.9503061665
 10
5.9363560836
 20
-31.9441306272
 10
5.9415980397
 20
-31.9374102945
 10
5.9464336012
 20
-31.9301635915
 10
5.9508496105
 20
-31.9224103381
 10
5.9548338746
 20
-31.914171831
 10
5.9583754364
 20
-31.9054706708
 10
5.9614647492
 20
-31.8963306333
 10
5.9640932283
 20
-31.8867768307
 10
5.9662536012
 20
-31.8768354837
 10
5.9679401669
 20
-31.8665337378
 10
5.969148296
 20
-31.8558998351
 10
5.9698744433
 20
-31.8449630369
 10
5.9701164853
 20
-31.8337533865
  0
LINE
  5
505
100
AcDbEntity
  8
RACCORDO
100
AcDbLine
 62
7
  6
CONTINUOUS
 10
5.9060113622
 20
-31.9685311689
 11
5.9116278094
 21
-31.9654023702
  0
LWPOLYLINE
  5
506
100
AcDbEntity
  8
RACCORDO
100
AcDbPolyline
 62
253
  6
CONTINUOUS
 90
18
 70
0
 10
6.4347011717
 20
-31.6973032895
 10
6.4402934013
 20
-31.6941889823
 10
6.4470109181
 20
-31.6897433549
 10
6.4533818423
 20
-31.6847085261
 10
6.4593886728
 20
-31.6790983077
 10
6.4650149165
 20
-31.672928093
 10
6.47024514
 20
-31.6662148016
 10
6.4750650038
 20
-31.6589768328
 10
6.4794612855
 20
-31.6512340358
 10
6.4834219286
 20
-31.6430076389
 10
6.4869360709
 20
-31.6343201965
 10
6.4899940726
 20
-31.6251955346
 10
6.4925875488
 20
-31.6156586657
 10
6.4947093852
 20
-31.6057357449
 10
6.4963537586
 20
-31.595454008
 10
6.4975161622
 20
-31.5848416592
 10
6.4981934131
 20
-31.5739277901
 10
6.498383657
 20
-31.5627423278
  0
LWPOLYLINE
  5
507
100
AcDbEntity
  8
RACCORDO
100
AcDbPolyline
 62
253
  6
CONTINUOUS
 90
18
 70
0
 10
4.3025741592
 20
-32.7496385844
 10
4.3099410854
 20
-32.7456323377
 10
4.3166525612
 20
-32.7411848736
 10
4.3230251838
 20
-32.7361443916
 10
4.3290415128
 20
-32.7305247054
 10
4.3346851059
 20
-32.7243411766
 10
4.3399405537
 20
-32.7176106594
 10
4.3447933638
 20
-32.7103516832
 10
4.3492300915
 20
-32.7025844014
 10
4.3532385321
 20
-32.6943303246
 10
4.3568078272
 20
-32.6856119704
 10
4.3599283135
 20
-32.6764530082
 10
4.3625919391
 20
-32.6668765249
 10
4.3647907068
 20
-32.6569106329
 10
4.3665177045
 20
-32.6465888738
 10
4.36776884
 20
-32.6359422709
 10
4.3685419241
 20
-32.6249985058
 10
4.3688356945
 20
-32.6137879861
  0
LWPOLYLINE
  5
508
100
AcDbEntity
  8
RACCORDO
100
AcDbPolyline
 62
7
  6
CONTINUOUS
 90
22
 70
0
 10
6.4347011717
 20
-31.6973032895
 10
6.4445095555
 20
-31.6919914139
 10
6.4555210039
 20
-31.6853247599
 10
6.4661845539
 20
-31.6780931066
 10
6.4764711361
 20
-31.6703138711
 10
6.486359711
 20
-31.6619995687
 10
6.495822799
 20
-31.6531685796
 10
6.5048309605
 20
-31.6438434849
 10
6.5133602204
 20
-31.634043721
 10
6.5213849498
 20
-31.6237924279
 10
6.528879371
 20
-31.613115863
 10
6.5358203797
 20
-31.6020397815
 10
6.5421853134
 20
-31.590592451
 10
6.5479529753
 20
-31.5788034178
 10
6.5531042021
 20
-31.5667021492
 10
6.557621276
 20
-31.5543187438
 10
6.5614866554
 20
-31.5416882023
 10
6.5646843904
 20
-31.5288491892
 10
6.5672019306
 20
-31.5158376112
 10
6.5690288415
 20
-31.502689211
 10
6.5701563355
 20
-31.4894439371
 10
6.570581514
 20
-31.4748693597
  0
LINE
  5
509
100
AcDbEntity
  8
RACCORDO
100
AcDbLine
 62
253
  6
CONTINUOUS
 10
6.498383657
 20
-31.5627423278
 11
5.9701164853
 21
-31.8337533865
  0
LINE
  5
50A
100
AcDbEntity
  8
RACCORDO
100
AcDbLine
 62
7
  6
CONTINUOUS
 10
6.4346956195
 20
-31.6973061381
 11
5.9060113856
 21
-31.9685311575
  0
LINE
  5
50B
100
AcDbEntity
  8
RACCORDO
100
AcDbLine
 62
253
  6
CONTINUOUS
 10
6.4475909509
 20
-29.8288147489
 11
7.0307766571
 21
-29.5349733441
  0
LINE
  5
50C
100
AcDbEntity
  8
RACCORDO
100
AcDbLine
 62
7
  6
CONTINUOUS
 10
6.2847439953
 20
-30.1569177994
 11
6.8753766017
 21
-29.8593242318
  0
LINE
  5
50D
100
AcDbEntity
  8
RACCORDO
100
AcDbLine
 62
7
  6
CONTINUOUS
 10
5.9042749482
 20
-31.9693993903
 11
5.9060113622
 21
-31.9685311689
  0
LINE
  5
50E
100
AcDbEntity
  8
RACCORDO
100
AcDbLine
 62
253
  6
CONTINUOUS
 10
5.9701164853
 20
-31.8337533865
 11
4.3688356945
 21
-32.6137879861
  0
LINE
  5
50F
100
AcDbEntity
  8
RACCORDO
100
AcDbLine
 62
7
  6
CONTINUOUS
 10
5.9042749717
 20
-31.9693993789
 11
4.3025741019
 21
-32.7496386123
  0
LWPOLYLINE
  5
510
100
AcDbEntity
  8
RACCORDO
100
AcDbPolyline
 62
7
  6
CONTINUOUS
 90
3
 70
0
 10
6.2847439953
 20
-30.1569177994
 10
6.27419688
 20
-30.1618984595
 10
6.2646199177
 20
-30.1658677167
  0
LWPOLYLINE
  5
511
100
AcDbEntity
  8
RACCORDO
100
AcDbPolyline
 62
253
  6
CONTINUOUS
 90
16
 70
0
 10
-2.7183198427
 20
-32.617744012
 10
-2.7807443227
 20
-32.6422872347
 10
-2.8484540704
 20
-32.663484576
 10
-2.9207236264
 20
-32.6811089221
 10
-2.9967786762
 20
-32.6949714412
 10
-3.0758043465
 20
-32.7049236068
 10
-3.1569539362
 20
-32.7108587889
 10
-3.2393579878
 20
-32.7127133963
 10
-3.3221336033
 20
-32.7104675584
 10
-3.4043939036
 20
-32.7041453377
 10
-3.4852575308
 20
-32.6938144719
 10
-3.5638580914
 20
-32.6795856487
 10
-3.639353439
 20
-32.6616113194
 10
-3.7109346971
 20
-32.6400840657
 10
-3.7778349257
 20
-32.6152345359
 10
-3.8393373389
 20
-32.5873289745
  0
LINE
  5
512
100
AcDbEntity
  8
RACCORDO
100
AcDbLine
 62
253
  6
CONTINUOUS
 10
2.3543557133
 20
-31.4174341237
 11
6.4475909509
 21
-29.8288147489
  0
LINE
  5
513
100
AcDbEntity
  8
RACCORDO
100
AcDbLine
 62
7
  6
CONTINUOUS
 10
2.1789550443
 20
-31.7515490191
 11
6.264619051
 21
-30.1658681033
  0
LINE
  5
514
100
AcDbEntity
  8
RACCORDO
100
AcDbLine
 62
253
  6
CONTINUOUS
 10
-2.2589347542
 20
-33.0220030413
 11
2.3638719012
 21
-31.2767486432
  0
LINE
  5
515
100
AcDbEntity
  8
RACCORDO
100
AcDbLine
 62
7
  6
CONTINUOUS
 10
2.1272894536
 20
-31.7236392942
 11
-2.5327130259
 21
-33.4829355936
  0
LWPOLYLINE
  5
516
100
AcDbEntity
  8
0
100
AcDbPolyline
 62
7
  6
CONTINUOUS
 90
5
 70
0
 10
1.8700213446
 20
33.4567565941
 10
1.7923691658
 20
33.4915353363
 10
1.711331344
 20
33.5198019542
 10
1.6275752005
 20
33.5411400542
 10
1.541796828
 20
33.5552249523
  0
LWPOLYLINE
  5
517
100
AcDbEntity
  8
0
100
AcDbPolyline
 62
253
  6
CONTINUOUS
 90
8
 70
0
 10
30.9050500464
 20
18.9392422431
 10
30.8794311031
 20
18.9508727064
 10
30.8184910248
 20
18.9700533522
 10
30.7536867827
 20
18.9793207109
 10
30.6857127094
 20
18.9785754891
 10
30.6152970998
 20
18.9678256713
 10
30.5431944085
 20
18.9471864344
 10
30.4701771659
 20
18.9168789135
  0
LINE
  5
518
100
AcDbEntity
  8
0
100
AcDbLine
 62
253
  6
CONTINUOUS
 10
1.8700213446
 20
33.4567565941
 11
1.8444024013
 21
33.4683870573
  0
LWPOLYLINE
  5
519
100
AcDbEntity
  8
0
100
AcDbPolyline
 62
253
  6
CONTINUOUS
 90
8
 70
0
 10
1.4351484641
 20
33.4343932644
 10
1.3694791269
 20
33.4644031924
 10
1.3049716299
 20
33.4856397303
 10
1.2418217197
 20
33.4987582712
 10
1.1802451637
 20
33.5042589375
 10
1.1202992722
 20
33.5017989359
 10
1.0624510929
 20
33.4909139258
 10
1.0077217103
 20
33.4719507533
  0
LINE
  5
51A
100
AcDbEntity
  8
0
100
AcDbLine
 62
253
  6
CONTINUOUS
 10
1.4351483315
 20
33.4343933307
 11
30.4701772985
 21
18.9168788472
  0
LINE
  5
51B
100
AcDbEntity
  8
0
100
AcDbLine
 62
7
  6
CONTINUOUS
 10
1.8700213446
 20
33.4567565941
 11
30.9050500464
 21
18.9392422431
  0
LWPOLYLINE
  5
51C
100
AcDbEntity
  8
0
100
AcDbPolyline
 62
7
  6
CONTINUOUS
 90
8
 70
0
 10
30.9050500464
 20
18.9392422431
 10
30.9865781602
 20
18.8935972861
 10
31.0641120344
 20
18.8400692976
 10
31.1366925213
 20
18.7790864159
 10
31.2032996095
 20
18.7113618653
 10
31.2632850246
 20
18.6374806647
 10
31.3162653935
 20
18.557747553
 10
31.3381444392
 20
18.5192175989
  0
LWPOLYLINE
  5
51D
100
AcDbEntity
  8
0
100
AcDbPolyline
 62
253
  6
CONTINUOUS
 90
3
 70
0
 10
31.1942036107
 20
-13.8754384931
 10
31.1356143092
 20
-13.9682212482
 10
31.0690424902
 20
-14.0508098816
  0
LWPOLYLINE
  5
51E
100
AcDbEntity
  8
0
100
AcDbPolyline
 62
7
  6
CONTINUOUS
 90
5
 70
0
 10
1.2804069268
 20
33.5521384559
 10
1.1944498914
 20
33.5359066626
 10
1.1105856734
 20
33.512338548
 10
1.0293799466
 20
33.4816847617
 10
0.9964978131
 20
33.4669063208
  0
LWPOLYLINE
  5
51F
100
AcDbEntity
  8
0
100
AcDbPolyline
 62
7
  6
CONTINUOUS
 90
4
 70
0
 10
1.541796828
 20
33.5552249523
 10
1.4548172599
 20
33.5618169528
 10
1.3674835933
 20
33.5607978491
 10
1.2804069268
 20
33.5521384559
  0
LWPOLYLINE
  5
520
100
AcDbEntity
  8
0
100
AcDbPolyline
 62
253
  6
CONTINUOUS
 90
7
 70
0
 10
1.8444024013
 20
33.4683870573
 10
1.783462323
 20
33.4875677031
 10
1.7186580809
 20
33.4968350618
 10
1.6506840076
 20
33.49608984
 10
1.580268398
 20
33.4853400222
 10
1.5081657067
 20
33.4647007853
 10
1.4351484641
 20
33.4343932644
  0
LWPOLYLINE
  5
521
100
AcDbEntity
  8
0
100
AcDbPolyline
 62
253
  6
CONTINUOUS
 90
12
 70
0
 10
31.3381444392
 20
18.5192175989
 10
31.3371207272
 20
18.5201896296
 10
31.3299850244
 20
18.5201695123
 10
31.3164049489
 20
18.51647836
 10
31.29619886
 20
18.5097571988
 10
31.2699542677
 20
18.499106393
 10
31.2376380115
 20
18.4850855524
 10
31.199332426
 20
18.468238928
 10
31.1557265195
 20
18.4476576017
 10
31.1070897024
 20
18.4235413315
 10
31.0534066004
 20
18.3971846605
 10
30.994942044
 20
18.3694281562
  0
LWPOLYLINE
  5
522
100
AcDbEntity
  8
0
100
AcDbPolyline
 62
253
  6
CONTINUOUS
 90
10
 70
0
 10
30.994942044
 20
18.3694281562
 10
30.9481099257
 20
18.4496390705
 10
30.8982731496
 20
18.5266001533
 10
30.8452821226
 20
18.5994984111
 10
30.7882363197
 20
18.6678304123
 10
30.7276815815
 20
18.7305407287
 10
30.6657457294
 20
18.7867962664
 10
30.6029327471
 20
18.8366591717
 10
30.5379768606
 20
18.8801543255
 10
30.4701771659
 20
18.9168789135
  0
LWPOLYLINE
  5
523
100
AcDbEntity
  8
0
100
AcDbPolyline
 62
253
  6
CONTINUOUS
 90
10
 70
0
 10
30.9949425926
 20
18.3694281301
 10
31.0690424889
 20
18.224114404
 10
31.1356143082
 20
18.075430058
 10
31.1942036099
 20
17.9243606212
 10
31.2444230274
 20
17.771863333
 10
31.2859070321
 20
17.6190001402
 10
31.3183418204
 20
17.466930449
 10
31.3415199395
 20
17.3167127734
 10
31.3553139968
 20
17.1692985159
 10
31.3596484884
 20
17.0256646759
  0
ELLIPSE
  5
524
100
AcDbEntity
  8
RACCORDO
100
AcDbEllipse
 62
7
  6
CONTINUOUS
 10
-28.607318945
 20
21.0123870493
 30
0.0
 11
-0.3575389099
 21
0.7168491018
 31
0.0
 40
0.6116748051
 41
-0.6831523243
 42
0.0399382621
  0
ELLIPSE
  5
525
100
AcDbEntity
  8
RACCORDO
100
AcDbEllipse
 62
7
  6
CONTINUOUS
 10
1.7981003065
 20
5.8096774235
 30
0.0
 11
-0.3569596856
 21
0.7163376054
 31
0.0
 40
0.6127700112
 41
-2.2535417632
 42
-0.6836588249
  0
ELLIPSE
  5
526
100
AcDbEntity
  8
RACCORDO
100
AcDbEllipse
 62
7
  6
CONTINUOUS
 10
1.7981003065
 20
-30.992804987
 30
0.0
 11
-0.3565825933
 21
0.7189073885
 31
0.0
 40
0.6110058077
 41
-3.202488764
 42
-2.2526829854
  0
ELLIPSE
  5
527
100
AcDbEntity
  8
RACCORDO
100
AcDbEllipse
 62
7
  6
CONTINUOUS
 10
11.2854916993
 20
12.1060289012
 30
0.0
 11
0.499996712
 21
0.0035883639
 31
0.0
 40
0.5053247124
 41
-0.780298103
 42
-0.0036265859
  0
ELLIPSE
  5
528
100
AcDbEntity
  8
RACCORDO
100
AcDbEllipse
 62
7
  6
CONTINUOUS
 10
6.606447961
 20
8.4355820131
 30
0.0
 11
-0.2684410929
 21
0.5368021362
 31
0.0
 40
0.6121897086
 41
-2.2557347926
 42
-0.6846338794
  0
ELLIPSE
  5
529
100
AcDbEntity
  8
RACCORDO
100
AcDbEllipse
 62
7
  6
CONTINUOUS
 10
6.606447961
 20
-29.3229672879
 30
0.0
 11
-0.2682969307
 21
0.5366739921
 31
0.0
 40
0.6125552124
 41
-3.1396695485
 42
-2.255296188
  0
ELLIPSE
  5
52A
100
AcDbEntity
  8
RACCORDO
100
AcDbEllipse
 62
7
  6
CONTINUOUS
 10
-0.4343249325
 20
17.8374177942
 30
0.0
 11
0.9987332359
 21
0.6172510855
 31
0.0
 40
0.0815198604
 41
0.0503394708
 42
0.7176053907
  0
ELLIPSE
  5
52B
100
AcDbEntity
  8
RACCORDO
100
AcDbEllipse
 62
7
  6
CONTINUOUS
 10
-4.6697776748
 20
14.7426454246
 30
0.0
 11
0.4999985559
 21
0.0023864752
 31
0.0
 40
0.5035541159
 41
2.3596088132
 42
3.0002042076
  0
ELLIPSE
  5
52C
100
AcDbEntity
  8
RACCORDO
100
AcDbEllipse
 62
7
  6
CONTINUOUS
 10
-20.5796802515
 20
22.6975967129
 30
0.0
 11
0.4999985559
 21
0.0023864752
 31
0.0
 40
0.5035541159
 41
2.3596088132
 42
3.0002042076
  0
ELLIPSE
  5
52D
100
AcDbEntity
  8
ASSI
100
AcDbEllipse
 62
7
  6
CONTINUOUS
 10
0.6623139892
 20
17.2651650933
 30
0.0
 11
0.2257019663
 21
0.4461636818
 31
0.0
 40
0.6159267166
 41
0.5380090616
 42
0.6817883054
  0
ELLIPSE
  5
52E
100
AcDbEntity
  8
ASSI
100
AcDbEllipse
 62
7
  6
CONTINUOUS
 10
-15.2475885875
 20
25.2201163816
 30
0.0
 11
0.2257019663
 21
0.4461636818
 31
0.0
 40
0.6159267166
 41
0.5380090616
 42
0.6817883054
  0
ELLIPSE
  5
52F
100
AcDbEntity
  8
RACCORDO
100
AcDbEllipse
 62
7
  6
CONTINUOUS
 10
-4.4545834892
 20
19.8475470725
 30
0.0
 11
-0.7417913999
 21
1.2002436976
 31
0.0
 40
0.5587454355
 41
5.3792108602
 42
6.2153925345
  0
ELLIPSE
  5
530
100
AcDbEntity
  8
RACCORDO
100
AcDbEllipse
 62
7
  6
CONTINUOUS
 10
13.1540794427
 20
12.0548790245
 30
0.0
 11
36.6744836533
 21
20.4681546768
 31
0.0
 40
0.0108183174
 41
1.7570115621
 42
1.7867265765
  0
ELLIPSE
  5
531
100
AcDbEntity
  8
RACCORDO
100
AcDbEllipse
 62
7
  6
CONTINUOUS
 10
1.9300270173
 20
5.9273388922
 30
0.0
 11
-0.2677197642
 21
0.537253204
 31
0.0
 40
0.6127700112
 41
-2.2535417632
 42
-0.6836588249
  0
ELLIPSE
  5
532
100
AcDbEntity
  8
RACCORDO
100
AcDbEllipse
 62
7
  6
CONTINUOUS
 10
-28.7392456557
 20
21.2619752287
 30
0.0
 11
-0.2681541824
 21
0.5376368263
 31
0.0
 40
0.6116748051
 41
-0.6831523243
 42
0.5687693159
  0
ELLIPSE
  5
533
100
AcDbEntity
  8
RACCORDO
100
AcDbEllipse
 62
7
  6
CONTINUOUS
 10
0.8415294249
 20
10.7543822695
 30
0.0
 11
0.4998587701
 21
0.0223649649
 31
0.0
 40
0.5313301283
 41
-2.3799630874
 42
-0.8149845248
  0
ELLIPSE
  5
534
100
AcDbEntity
  8
RACCORDO
100
AcDbEllipse
 62
7
  6
CONTINUOUS
 10
0.8415294249
 20
11.9869918747
 30
0.0
 11
0.4999985559
 21
0.0023864752
 31
0.0
 40
0.5035541159
 41
-1.4342147631
 42
-0.7936193687
  0
ELLIPSE
  5
535
100
AcDbEntity
  8
DRAFT
100
AcDbEllipse
 62
7
  6
CONTINUOUS
 10
1.0161688201
 20
16.2981966791
 30
0.0
 11
0.4279598729
 21
-0.006014198
 31
0.0
 40
0.4892375088
 41
-0.778522928
 42
0.0068752355
  0
ELLIPSE
  5
536
100
AcDbEntity
  8
DRAFT
100
AcDbEllipse
 62
7
  6
CONTINUOUS
 10
-9.3387453274
 20
21.4756537529
 30
0.0
 11
0.4279598729
 21
-0.006014198
 31
0.0
 40
0.4892375088
 41
-0.7727051638
 42
0.0068752351
  0
ELLIPSE
  5
537
100
AcDbEntity
  8
DRAFT
100
AcDbEllipse
 62
7
  6
CONTINUOUS
 10
-14.8937337566
 20
24.2531479675
 30
0.0
 11
0.4279598729
 21
-0.006014198
 31
0.0
 40
0.4892375088
 41
-0.778522928
 42
0.0068752355
  0
ELLIPSE
  5
538
100
AcDbEntity
  8
DRAFT
100
AcDbEllipse
 62
7
  6
CONTINUOUS
 10
6.5711572493
 20
13.5207024645
 30
0.0
 11
0.4279598729
 21
-0.006014198
 31
0.0
 40
0.4892375088
 41
-0.7727051638
 42
0.0068752351
  0
ELLIPSE
  5
539
100
AcDbEntity
  8
RACCORDO
100
AcDbEllipse
 62
7
  6
CONTINUOUS
 10
-4.6697776748
 20
13.5100358194
 30
0.0
 11
0.4998587701
 21
0.0223649649
 31
0.0
 40
0.5313301283
 41
3.1178240563
 42
3.9032222197
  0
ELLIPSE
  5
53A
100
AcDbEntity
  8
RACCORDO
100
AcDbEllipse
 62
7
  6
CONTINUOUS
 10
-15.0683731518
 20
18.7093335579
 30
0.0
 11
0.4998587701
 21
0.0223649649
 31
0.0
 40
0.5313301283
 41
-2.3799630874
 42
-0.8149845248
  0
ELLIPSE
  5
53B
100
AcDbEntity
  8
RACCORDO
100
AcDbEllipse
 62
7
  6
CONTINUOUS
 10
-15.0683731518
 20
19.9419431631
 30
0.0
 11
0.4999985559
 21
0.0023864752
 31
0.0
 40
0.5035541159
 41
-1.4342147631
 42
-0.7936193687
  0
ELLIPSE
  5
53C
100
AcDbEntity
  8
RACCORDO
100
AcDbEllipse
 62
7
  6
CONTINUOUS
 10
-20.5796802515
 20
21.4649871077
 30
0.0
 11
0.4998587701
 21
0.0223649649
 31
0.0
 40
0.5313301283
 41
3.1178240563
 42
3.9032222197
  0
ELLIPSE
  5
53D
100
AcDbEntity
  8
ASSI
100
AcDbEllipse
 62
7
  6
CONTINUOUS
 10
6.8231462599
 20
14.1847489579
 30
0.0
 11
0.221538876
 21
0.4482453432
 31
0.0
 40
0.6088015717
 41
0.5323082896
 42
0.6760875334
  0
ELLIPSE
  5
53E
100
AcDbEntity
  8
ASSI
100
AcDbEllipse
 62
7
  6
CONTINUOUS
 10
-9.0867563168
 20
22.1397002462
 30
0.0
 11
0.221538876
 21
0.4482453432
 31
0.0
 40
0.6088015717
 41
0.5323082896
 42
0.6760875334
  0
ELLIPSE
  5
53F
100
AcDbEntity
  8
RACCORDO
100
AcDbEllipse
 62
7
  6
CONTINUOUS
 10
13.1540794427
 20
11.4594952124
 30
0.0
 11
36.6746019285
 21
17.3486787285
 31
0.0
 40
0.0115794863
 41
1.7575716838
 42
1.7624744859
  0
ELLIPSE
  5
540
100
AcDbEntity
  8
RACCORDO
100
AcDbEllipse
 62
7
  6
CONTINUOUS
 10
4.9043110382
 20
8.1586215258
 30
0.0
 11
0.249929385
 21
0.0111824824
 31
0.0
 40
0.5313301283
 41
-2.3799630874
 42
-1.9038550232
  0
ELLIPSE
  5
541
100
AcDbEntity
  8
RACCORDO
100
AcDbEllipse
 62
7
  6
CONTINUOUS
 10
3.5710987046
 20
8.8252276927
 30
0.0
 11
0.249929385
 21
0.0111824824
 31
0.0
 40
0.5313301283
 41
3.1178240564
 42
3.9032222197
  0
ELLIPSE
  5
542
100
AcDbEntity
  8
RACCORDO
100
AcDbEllipse
 62
7
  6
CONTINUOUS
 10
1.9300270173
 20
-31.2045560664
 30
0.0
 11
-0.2676565996
 21
0.5387278814
 31
0.0
 40
0.6111879844
 41
2.693723874
 42
4.0298353945
  0
ELLIPSE
  5
543
100
AcDbEntity
  8
RACCORDO
100
AcDbEllipse
 62
7
  6
CONTINUOUS
 10
-8.4600071262
 20
14.8407806081
 30
0.0
 11
0.249929385
 21
0.0111824824
 31
0.0
 40
0.5313301283
 41
-2.3799630874
 42
-0.8149845248
  0
ELLIPSE
  5
544
100
AcDbEntity
  8
RACCORDO
100
AcDbEllipse
 62
7
  6
CONTINUOUS
 10
-9.7932194599
 20
15.5073867749
 30
0.0
 11
0.249929385
 21
0.0111824824
 31
0.0
 40
0.5313301283
 41
3.1178240564
 42
3.9032222197
  0
ELLIPSE
  5
545
100
AcDbEntity
  8
RACCORDO
100
AcDbEllipse
 62
7
  6
CONTINUOUS
 10
-25.7031220366
 20
23.4623380632
 30
0.0
 11
0.249929385
 21
0.0111824824
 31
0.0
 40
0.5313301283
 41
-2.8560711517
 42
-2.3799630874
  0
ELLIPSE
  5
546
100
AcDbEntity
  8
RACCORDO
100
AcDbEllipse
 62
7
  6
CONTINUOUS
 10
-24.3699097029
 20
22.7957318964
 30
0.0
 11
0.249929385
 21
0.0111824824
 31
0.0
 40
0.5313301283
 41
-2.3799630874
 42
-0.8149845248
  0
ELLIPSE
  5
547
100
AcDbEntity
  8
RACCORDO
100
AcDbEllipse
 62
7
  6
CONTINUOUS
 10
-12.3388038721
 20
16.780178981
 30
0.0
 11
0.249929385
 21
0.0111824824
 31
0.0
 40
0.5313301283
 41
3.1178240564
 42
3.9032222197
  0
ELLIPSE
  5
548
100
AcDbEntity
  8
RACCORDO
100
AcDbEllipse
 62
7
  6
CONTINUOUS
 10
-11.0055915385
 20
16.1135728142
 30
0.0
 11
0.249929385
 21
0.0111824824
 31
0.0
 40
0.5313301283
 41
-2.3799630874
 42
-0.8149845248
  0
ELLIPSE
  5
549
100
AcDbEntity
  8
0
100
AcDbEllipse
 62
7
  6
CONTINUOUS
 10
20.4304501606
 20
18.4147548347
 30
0.0
 11
2.09998714
 21
-0.0148578829
 31
0.0
 40
0.4946372042
 41
6.8426820009
 42
8.8581549362
  0
ELLIPSE
  5
54A
100
AcDbEntity
  8
0
100
AcDbEllipse
 62
7
  6
CONTINUOUS
 10
23.9659840665
 20
16.6469878817
 30
0.0
 11
2.09998714
 21
-0.0148578829
 31
0.0
 40
0.4946372042
 41
6.8426820009
 42
8.8581549362
  0
ENDSEC
  0
SECTION
  2
OBJECTS
  0
DICTIONARY
  5
C
100
AcDbDictionary
280
0
281
1
  3
ACAD_GROUP
350
D
  3
ACAD_MLINESTYLE
350
17
  3
ACAD_LAYOUT
350
1A
  3
ACAD_PLOTSETTINGS
350
19
  3
ACAD_PLOTSTYLENAME
350
E
  0
DICTIONARY
  5
D
102
{ACAD_REACTORS
330
C
102
}
100
AcDbDictionary
280
0
281
1
  0
ACDBDICTIONARYWDFLT
  5
E
102
{ACAD_REACTORS
330
C
102
}
100
AcDbDictionary
281
1
  3
Normal
350
F
100
AcDbDictionaryWithDefault
340
F
  0
DICTIONARY
  5
17
102
{ACAD_REACTORS
330
C
102
}
100
AcDbDictionary
280
0
281
1
  3
Standard
350
18
  0
DICTIONARY
  5
19
102
{ACAD_REACTORS
330
C
102
}
100
AcDbDictionary
281
1
  0
DICTIONARY
  5
1A
102
{ACAD_REACTORS
330
C
102
}
100
AcDbDictionary
281
1
  3
Model
350
54B
  3
Layout1
350
54C
  0
ACDBPLACEHOLDER
  5
F
102
{ACAD_REACTORS
330
E
102
}
  0
MLINESTYLE
  5
18
102
{ACAD_REACTORS
330
17
102
}
100
AcDbMlineStyle
  2
STANDARD
 70
0
  3

 62
256
 51
90.0
 52
90.0
 71
2
 49
0.5
 62
256
  6
BYLAYER
 49
-0.5
 62
256
  6
BYLAYER
  0
LAYOUT
  5
54B
102
{ACAD_REACTORS
330
1A
102
}
100
AcDbPlotSettings
  1

  2
none_device
  4

  6

 40
0.0
 41
0.0
 42
0.0
 43
0.0
 44
215.9
 45
279.4
 46
0.0
 47
0.0
 48
0.0
 49
0.0
140
0.0
141
0.0
142
1.0
143
1.0
 70
1024
 72
1
 73
0
 74
0
  7

 75
0
147
1.0
148
0.0
149
0.0
100
AcDbLayout
  1
Model
 70
0
 71
0
 10
0.0
 20
0.0
 11
215.9
 21
279.4
 12
0.0
 22
0.0
 32
0.0
 14
0.0
 24
0.0
 34
0.0
 15
0.0
 25
0.0
 35
0.0
146
0.0
 13
0.0
 23
0.0
 33
0.0
 16
1.0
 26
0.0
 36
0.0
 17
0.0
 27
1.0
 37
0.0
 76
0
330
21F
345
0
346
0
  0
LAYOUT
  5
54C
102
{ACAD_REACTORS
330
1A
102
}
100
AcDbPlotSettings
  1

  2
none_device
  4

  6

 40
0.0
 41
0.0
 42
0.0
 43
0.0
 44
215.9
 45
279.4
 46
0.0
 47
0.0
 48
0.0
 49
0.0
140
0.0
141
0.0
142
1.0
143
1.0
 70
0
 72
1
 73
0
 74
0
  7

 75
0
147
1.0
148
0.0
149
0.0
100
AcDbLayout
  1
Layout1
 70
0
 71
1
 10
0.0
 20
0.0
 11
215.9
 21
279.4
 12
0.0
 22
0.0
 32
0.0
 14
0.0
 24
0.0
 34
0.0
 15
0.0
 25
0.0
 35
0.0
146
0.0
 13
0.0
 23
0.0
 33
0.0
 16
1.0
 26
0.0
 36
0.0
 17
0.0
 27
1.0
 37
0.0
 76
0
330
220
345
0
346
0
  0
ENDSEC
  0
EOF
