  0
SECTION
  2
HEADER
  9
$ACADVER
  1
AC1021
  9
$DWGCODEPAGE
  3
ANSI_1252
  9
$EXTMAX
 10
297.0
 20
210.0
 30
0.0
  9
$EXTMIN
 10
0.0
 20
0.0
 30
0.0
  9
$LIMMIN
 10
0.0
 20
0.0
  9
$LIMMAX
 10
297.0
 20
210.0
  9
$VIEWCTR
 10
148.5
 20
105.0
  9
$VIEWSIZE
 40
210.0
  9
$CLAYER
  8
0
  9
$LTSCALE
 40
16.335
  9
$CELTYPE
  6
BYLAYER
  9
$DIMSCALE
 40
1.0
  9
$DIMASZ
 40
3.0
  9
$DIMEXO
 40
0.5
  9
$DIMDLI
 40
11.286
  9
$DIMEXE
 40
1.5
  9
$DIMCEN
 40
2.673
  9
$DIMLFAC
 40
1.0
  9
$DIMBLK
  1
_FILLED
  9
$DIMALT
 70
0
  9
$DIMALTF
 40
0.0393700787
  9
$DIMTXT
 40
3.0
  9
$DIMTOL
 70
1
  9
$DIMLIM
 70
0
  9
$DIMTFAC
 40
1.0
  9
$DIMTP
 40
0.01
  9
$DIMTM
 40
0.01
  9
$DIMGAP
 40
0.625
  9
$DIMDSEP
 70
44
  9
$AUNITS
 70
0
  9
$PDMODE
 70
3
  9
$PDSIZE
 40
3.0
  9
$HANDSEED
  5
2B2
  9
$TILEMODE
 70
1
  9
$MEASUREMENT
 70
1
  9
$INSUNITS
 70
4
  0
ENDSEC
  0
SECTION
  2
CLASSES
  0
CLASS
  1
ACDBDICTIONARYWDFLT
  2
AcDbDictionaryWithDefault
  3
AutoCAD 2000
 90
0
 91
1
280
0
281
0
  0
CLASS
  1
ACDBPLACEHOLDER
  2
AcDbPlaceHolder
  3
AutoCAD 2000
 90
0
 91
1
280
0
281
0
  0
CLASS
  1
LAYOUT
  2
AcDbLayout
  3
AutoCAD 2000
 90
0
 91
0
280
0
281
0
  0
ENDSEC
  0
SECTION
  2
TABLES
  0
TABLE
  2
VPORT
  5
8
100
AcDbSymbolTable
 70
2
  0
VPORT
  5
1F4
100
AcDbSymbolTableRecord
100
AcDbViewportTableRecord
  2
*ACTIVE
 70
0
 10
0.0
 20
0.0
 11
1.0
 21
1.0
 12
148.5
 22
105.0
 13
0.0
 23
0.0
 14
1.0
 24
1.0
 15
0.0
 25
0.0
 16
0.0
 26
0.0
 36
1.0
 17
0.0
 27
0.0
 37
0.0
 40
210.0
 41
1.4142857143
 42
50.0
 43
0.0
 44
0.0
 50
0.0
 51
0.0
 71
0
 72
100
 73
1
 74
1
 75
0
 76
0
 77
0
 78
0
  0
ENDTAB
  0
TABLE
  2
LTYPE
  5
5
100
AcDbSymbolTable
 70
6
  0
LTYPE
  5
14
100
AcDbSymbolTableRecord
100
AcDbLinetypeTableRecord
  2
BYBLOCK
 70
0
  3

 72
65
 73
0
 40
0.0
  0
LTYPE
  5
15
100
AcDbSymbolTableRecord
100
AcDbLinetypeTableRecord
  2
BYLAYER
 70
0
  3

 72
65
 73
0
 40
0.0
  0
LTYPE
  5
16
100
AcDbSymbolTableRecord
100
AcDbLinetypeTableRecord
  2
CONTINUOUS
 70
64
  3
Solid line
 72
65
 73
0
 40
0.0
  0
LTYPE
  5
1F5
100
AcDbSymbolTableRecord
100
AcDbLinetypeTableRecord
  2
CENTER
 70
64
  3
____ _ ____ _ ____ _ ____ _ ____ _ ____ _ ____
 72
65
 73
4
 40
0.6
 49
0.375
 74
0
 49
-0.075
 74
0
 49
0.075
 74
0
 49
-0.075
 74
0
  0
LTYPE
  5
1F6
100
AcDbSymbolTableRecord
100
AcDbLinetypeTableRecord
  2
HIDDEN
 70
64
  3
- - - - - - - - - - - - - - - - - - - -
 72
65
 73
2
 40
0.2
 49
0.1
 74
0
 49
-0.1
 74
0
  0
LTYPE
  5
1F7
100
AcDbSymbolTableRecord
100
AcDbLinetypeTableRecord
  2
PHANTOM
 70
64
  3
_____ _ _ _____ _ _ _____ _ _ _____
 72
65
 73
6
 40
0.8
 49
0.45
 74
0
 49
-0.05
 74
0
 49
0.1
 74
0
 49
-0.05
 74
0
 49
0.1
 74
0
 49
-0.05
 74
0
  0
LTYPE
  5
1F8
100
AcDbSymbolTableRecord
100
AcDbLinetypeTableRecord
  2
DOT
 70
64
  3
. . . . . . . . . . . . . . . . . . . .
 72
65
 73
2
 40
0.2
 49
0.1
 74
0
 49
-0.1
 74
0
  0
LTYPE
  5
1F9
100
AcDbSymbolTableRecord
100
AcDbLinetypeTableRecord
  2
DASHED
 70
64
  3
- - - - - - - - - - - - - - - - - - - -
 72
65
 73
2
 40
0.2
 49
0.1
 74
0
 49
-0.1
 74
0
  0
ENDTAB
  0
TABLE
  2
LAYER
  5
2
100
AcDbSymbolTable
 70
36
  0
LAYER
  5
10
100
AcDbSymbolTableRecord
100
AcDbLayerTableRecord
  2
0
 70
0
 62
7
  6
CONTINUOUS
370
-3
390
F
  0
LAYER
  5
1FA
100
AcDbSymbolTableRecord
100
AcDbLayerTableRecord
  2
DEFAULT_1
 70
0
 62
7
  6
CENTER
370
-3
390
F
  0
LAYER
  5
1FB
100
AcDbSymbolTableRecord
100
AcDbLayerTableRecord
  2
DEFAULT_2
 70
0
 62
7
  6
HIDDEN
370
-3
390
F
  0
LAYER
  5
1FC
100
AcDbSymbolTableRecord
100
AcDbLayerTableRecord
  2
DEFAULT_3
 70
0
 62
7
  6
PHANTOM
370
-3
390
F
  0
LAYER
  5
1FD
100
AcDbSymbolTableRecord
100
AcDbLayerTableRecord
  2
ASSI
 70
0
 62
7
  6
CONTINUOUS
370
-3
390
F
  0
LAYER
  5
1FE
100
AcDbSymbolTableRecord
100
AcDbLayerTableRecord
  2
COORDINATE
 70
0
 62
7
  6
CONTINUOUS
370
-3
390
F
  0
LAYER
  5
1FF
100
AcDbSymbolTableRecord
100
AcDbLayerTableRecord
  2
COPY_PUBLISH
 70
0
 62
7
  6
CONTINUOUS
370
-3
390
F
  0
LAYER
  5
200
100
AcDbSymbolTableRecord
100
AcDbLayerTableRecord
  2
COSMETICI
 70
0
 62
7
  6
CONTINUOUS
370
-3
390
F
  0
LAYER
  5
201
100
AcDbSymbolTableRecord
100
AcDbLayerTableRecord
  2
CURVE
 70
0
 62
7
  6
CONTINUOUS
370
-3
390
F
  0
LAYER
  5
202
100
AcDbSymbolTableRecord
100
AcDbLayerTableRecord
  2
DRAFT
 70
0
 62
7
  6
CONTINUOUS
370
-3
390
F
  0
LAYER
  5
203
100
AcDbSymbolTableRecord
100
AcDbLayerTableRecord
  2
IMPORT_IGES
 70
0
 62
7
  6
CONTINUOUS
370
-3
390
F
  0
LAYER
  5
204
100
AcDbSymbolTableRecord
100
AcDbLayerTableRecord
  2
INTF_1
 70
0
 62
7
  6
CONTINUOUS
370
-3
390
F
  0
LAYER
  5
205
100
AcDbSymbolTableRecord
100
AcDbLayerTableRecord
  2
INTF_RED
 70
0
 62
7
  6
CONTINUOUS
370
-3
390
F
  0
LAYER
  5
206
100
AcDbSymbolTableRecord
100
AcDbLayerTableRecord
  2
NOTE
 70
0
 62
7
  6
CONTINUOUS
370
-3
390
F
  0
LAYER
  5
207
100
AcDbSymbolTableRecord
100
AcDbLayerTableRecord
  2
PIANI
 70
0
 62
7
  6
CONTINUOUS
370
-3
390
F
  0
LAYER
  5
208
100
AcDbSymbolTableRecord
100
AcDbLayerTableRecord
  2
PUNTI
 70
0
 62
7
  6
CONTINUOUS
370
-3
390
F
  0
LAYER
  5
209
100
AcDbSymbolTableRecord
100
AcDbLayerTableRecord
  2
RACCORDO
 70
0
 62
7
  6
CONTINUOUS
370
-3
390
F
  0
LAYER
  5
20A
100
AcDbSymbolTableRecord
100
AcDbLayerTableRecord
  2
SIMBOLI
 70
0
 62
7
  6
CONTINUOUS
370
-3
390
F
  0
LAYER
  5
20B
100
AcDbSymbolTableRecord
100
AcDbLayerTableRecord
  2
SMUSSO
 70
0
 62
7
  6
CONTINUOUS
370
-3
390
F
  0
LAYER
  5
20C
100
AcDbSymbolTableRecord
100
AcDbLayerTableRecord
  2
SNAPLINE
 70
0
 62
7
  6
CONTINUOUS
370
-3
390
F
  0
LAYER
  5
20D
100
AcDbSymbolTableRecord
100
AcDbLayerTableRecord
  2
SUPERFICI
 70
0
 62
7
  6
CONTINUOUS
370
-3
390
F
  0
LAYER
  5
20E
100
AcDbSymbolTableRecord
100
AcDbLayerTableRecord
  2
TRASH
 70
0
 62
7
  6
CONTINUOUS
370
-3
390
F
  0
LAYER
  5
20F
100
AcDbSymbolTableRecord
100
AcDbLayerTableRecord
  2
WHITE
 70
0
 62
7
  6
CONTINUOUS
370
-3
390
F
  0
ENDTAB
  0
TABLE
  2
STYLE
  5
3
100
AcDbSymbolTable
 70
1
  0
STYLE
  5
11
100
AcDbSymbolTableRecord
100
AcDbTextStyleTableRecord
  2
STANDARD
 70
0
 40
0.0
 41
0.8
 50
0.0
 71
0
 42
0.2
  3
txt
  4

  0
STYLE
  5
210
100
AcDbSymbolTableRecord
100
AcDbTextStyleTableRecord
  2
TEXTSTYLE_1
 70
0
 40
0.0
 41
0.8
 50
0.0
 71
0
 42
0.2
  3
gdt
  4

  0
ENDTAB
  0
TABLE
  2
VIEW
  5
6
100
AcDbSymbolTable
 70
0
  0
ENDTAB
  0
TABLE
  2
UCS
  5
7
100
AcDbSymbolTable
 70
0
  0
ENDTAB
  0
TABLE
  2
APPID
  5
9
100
AcDbSymbolTable
 70
1
  0
APPID
  5
211
100
AcDbSymbolTableRecord
100
AcDbRegAppTableRecord
  2
ACAD
 70
0
  0
ENDTAB
  0
TABLE
  2
BLOCK_RECORD
  5
1
100
AcDbSymbolTable
 70
0
  0
BLOCK_RECORD
  5
212
100
AcDbSymbolTableRecord
100
AcDbBlockTableRecord
  2
*Model_Space
  0
BLOCK_RECORD
  5
213
100
AcDbSymbolTableRecord
100
AcDbBlockTableRecord
  2
*Paper_Space
  0
ENDTAB
  0
TABLE
  2
DIMSTYLE
  5
A
100
AcDbSymbolTable
 70
1
100
AcDbDimStyleTable
 71
0
  0
DIMSTYLE
105
214
100
AcDbSymbolTableRecord
100
AcDbDimStyleTableRecord
  2
STANDARD
 70
0
  3

  4

 40
1.0
 41
3.0
 42
0.5
 43
0.38
 44
1.5
 45
0.0
 46
0.0
 47
0.01
 48
0.01
140
3.0
141
0.09
142
0.0
143
25.4
144
1.0
145
0.0
146
1.0
147
0.625
 71
1.0
 72
0.0
 73
0
 74
0
 75
0
 76
0
 77
1
 78
8
170
0
171
2
172
0
173
0
174
0
175
0
176
0
177
0
178
0
270
2
271
2
272
2
273
2
274
2
275
0
280
0
281
0
282
0
283
1
284
8
285
0
286
0
287
3
288
0
340
11
278
44
  0
ENDTAB
  0
ENDSEC
  0
SECTION
  2
BLOCKS
  0
BLOCK
  5
20
100
AcDbEntity
  8
0
100
AcDbBlockBegin
  2
*Model_Space
 70
0
 10
0.0
 20
0.0
 30
0.0
  3
*Model_Space
  1

  0
ENDBLK
  5
21
100
AcDbEntity
  8
0
100
AcDbBlockEnd
  0
BLOCK
  5
1C
100
AcDbEntity
  8
0
100
AcDbBlockBegin
  2
*Paper_Space
 70
0
 10
0.0
 20
0.0
 30
0.0
  3
*Paper_Space
  1

  0
ENDBLK
  5
1D
100
AcDbEntity
  8
0
100
AcDbBlockEnd
  0
ENDSEC
  0
SECTION
  2
ENTITIES
  0
LWPOLYLINE
  5
215
100
AcDbEntity
  8
RACCORDO
100
AcDbPolyline
 62
7
  6
CONTINUOUS
 90
22
 70
0
 10
-18.0617939528
 20
74.3529400755
 10
-18.1062977375
 20
74.322562399
 10
-18.2262550147
 20
74.2334705883
 10
-18.3422145176
 20
74.1363670249
 10
-18.453956879
 20
74.0311809699
 10
-18.5610958605
 20
73.9180210467
 10
-18.6631238992
 20
73.7972117114
 10
-18.7597936025
 20
73.6688578873
 10
-18.8508890363
 20
73.5330486253
 10
-18.9360473302
 20
73.3901625002
 10
-19.015090672
 20
73.2403514933
 10
-19.0878644409
 20
73.0837423848
 10
-19.1541410733
 20
72.9207414931
 10
-19.2138165993
 20
72.751556096
 10
-19.2668056995
 20
72.576338055
 10
-19.3129779789
 20
72.3954665363
 10
-19.3522689787
 20
72.2091611485
 10
-19.3846149528
 20
72.0176197141
 10
-19.4099344191
 20
71.8212275348
 10
-19.4281792056
 20
71.620262915
 10
-19.4393278457
 20
71.4149120432
 10
-19.4428387523
 20
71.2737877776
  0
LWPOLYLINE
  5
216
100
AcDbEntity
  8
RACCORDO
100
AcDbPolyline
 62
253
  6
CONTINUOUS
 90
19
 70
0
 10
-14.717372388
 20
74.114198745
 10
-14.746834113
 20
74.0941079478
 10
-14.7759616898
 20
74.0713947653
 10
-14.804552476
 20
74.0462172143
 10
-14.8324075637
 20
74.0187504567
 10
-14.8593331632
 20
73.9891855806
 10
-14.8851419514
 20
73.9577282706
 10
-14.909654375
 20
73.9245973773
 10
-14.9326998995
 20
73.8900233944
 10
-14.9541181957
 20
73.8542468552
 10
-14.973760255
 20
73.8175166595
 10
-14.9914894266
 20
73.7800883416
 10
-15.0071823673
 20
73.7422222927
 10
-15.0207299005
 20
73.7041819492
 10
-15.032037775
 20
73.6662319602
 10
-15.0410273212
 20
73.6286363464
 10
-15.0476359984
 20
73.5916566626
 10
-15.0518178295
 20
73.555550179
 10
-15.0535437212
 20
73.5205680907
  0
LINE
  5
217
100
AcDbEntity
  8
RACCORDO
100
AcDbLine
 62
7
  6
CONTINUOUS
 10
-18.0615396405
 20
74.3530970441
 11
-18.0603678728
 21
74.3538783679
  0
LINE
  5
218
100
AcDbEntity
  8
DRAFT
100
AcDbLine
 62
7
  6
CONTINUOUS
 10
-17.1529645018
 20
74.9585066238
 11
-18.0603672313
 21
74.3538787953
  0
LWPOLYLINE
  5
219
100
AcDbEntity
  8
DRAFT
100
AcDbPolyline
 62
7
  6
CONTINUOUS
 90
22
 70
0
 10
-17.1529589003
 20
74.9584971411
 10
-17.0975465359
 20
74.9942290925
 10
-16.9653906581
 20
75.0705092968
 10
-16.8282617874
 20
75.1375285959
 10
-16.685975393
 20
75.1953291158
 10
-16.5387159161
 20
75.2438687977
 10
-16.3873970737
 20
75.2828139474
 10
-16.2321253829
 20
75.3120822191
 10
-16.0727943628
 20
75.3317559543
 10
-15.9099984566
 20
75.341748363
 10
-15.7436062726
 20
75.3420179387
 10
-15.5737491447
 20
75.3326062356
 10
-15.401415816
 20
75.3135509342
 10
-15.2266770795
 20
75.2848068647
 10
-15.0494621675
 20
75.2464191949
 10
-14.87054771
 20
75.1985609807
 10
-14.6898275371
 20
75.1411458676
 10
-14.5074077962
 20
75.0742602321
 10
-14.3243838252
 20
74.998336093
 10
-14.1411208332
 20
74.9135174029
 10
-13.9572537058
 20
74.8196601603
 10
-13.7727824001
 20
74.7167643913
  0
LINE
  5
21A
100
AcDbEntity
  8
RACCORDO
100
AcDbLine
 62
253
  6
CONTINUOUS
 10
-14.717372388
 20
74.114198745
 11
-13.7727824062
 21
74.7167645214
  0
LWPOLYLINE
  5
21B
100
AcDbEntity
  8
RACCORDO
100
AcDbPolyline
 62
253
  6
CONTINUOUS
 90
23
 70
0
 10
-18.0603678728
 20
74.3538783679
 10
-17.943985852
 20
74.4262703176
 10
-17.8085686386
 20
74.4984696266
 10
-17.6677496905
 20
74.5613065946
 10
-17.5220405718
 20
74.6145684728
 10
-17.3722216017
 20
74.6580073803
 10
-17.2183056972
 20
74.6916337244
 10
-17.059916503
 20
74.7155270492
 10
-16.8968939756
 20
74.7296504864
 10
-16.73034851
 20
74.7338199188
 10
-16.5615896068
 20
74.7280474241
 10
-16.3895783265
 20
74.7123553579
 10
-16.2153275639
 20
74.6868916858
 10
-16.0434378818
 20
74.6527626783
 10
-15.8753873778
 20
74.6110441849
 10
-15.7106691997
 20
74.5623574235
 10
-15.5512995628
 20
74.5081034092
 10
-15.3988282419
 20
74.4497766477
 10
-15.2526364004
 20
74.3880431567
 10
-15.1114331501
 20
74.3230592545
 10
-14.9748293073
 20
74.2552239342
 10
-14.8434502152
 20
74.1854049796
 10
-14.7173723819
 20
74.1141986148
  0
LINE
  5
21C
100
AcDbEntity
  8
RACCORDO
100
AcDbLine
 62
253
  6
CONTINUOUS
 10
-9.0076148035
 20
75.5259096231
 11
-9.0465276959
 21
75.5038339161
  0
LWPOLYLINE
  5
21D
100
AcDbEntity
  8
RACCORDO
100
AcDbPolyline
 62
253
  6
CONTINUOUS
 90
10
 70
0
 10
-13.3331776174
 20
74.4613573678
 10
-13.3027976031
 20
74.4776956388
 10
-13.0490188322
 20
74.6061593241
 10
-12.7946634833
 20
74.7269755257
 10
-12.5401176454
 20
74.8400106374
 10
-12.2852177025
 20
74.9454208192
 10
-12.0292560921
 20
75.0435793703
 10
-11.7720746991
 20
75.1345476226
 10
-11.5140590181
 20
75.2181475137
 10
-11.255321783
 20
75.2943323911
  0
LINE
  5
21E
100
AcDbEntity
  8
RACCORDO
100
AcDbLine
 62
253
  6
CONTINUOUS
 10
-9.0629209827
 20
75.4953108056
 11
-9.0465276959
 21
75.5038339161
  0
LINE
  5
21F
100
AcDbEntity
  8
RACCORDO
100
AcDbLine
 62
253
  6
CONTINUOUS
 10
-9.0983518949
 20
75.5157681703
 11
-9.0820828244
 21
75.5242062518
  0
LWPOLYLINE
  5
220
100
AcDbEntity
  8
RACCORDO
100
AcDbPolyline
 62
7
  6
CONTINUOUS
 90
22
 70
0
 10
9.8010733067
 20
-76.8352081203
 10
9.9288035375
 20
-76.9064280234
 10
10.1103432031
 20
-77.0007142159
 10
10.2915782288
 20
-77.086685898
 10
10.4723511639
 20
-77.164270156
 10
10.6523955637
 20
-77.2333606375
 10
10.8313237025
 20
-77.2938225449
 10
11.0089399848
 20
-77.3456107182
 10
11.1850300171
 20
-77.3886689162
 10
11.3591915239
 20
-77.4229132116
 10
11.5312615629
 20
-77.4483411702
 10
11.701014038
 20
-77.464936299
 10
11.8679678825
 20
-77.4726877602
 10
12.0319477639
 20
-77.4716674985
 10
12.1927376404
 20
-77.461953474
 10
12.3498032805
 20
-77.4436735211
 10
12.5029694683
 20
-77.4169755598
 10
12.6520245235
 20
-77.38202708
 10
12.7964000828
 20
-77.339122918
 10
12.9358036558
 20
-77.2885620055
 10
13.0702076448
 20
-77.2305805981
 10
13.1186176816
 20
-77.2073135062
  0
LWPOLYLINE
  5
221
100
AcDbEntity
  8
RACCORDO
100
AcDbPolyline
 62
253
  6
CONTINUOUS
 90
10
 70
0
 10
9.6975204222
 20
-76.6130688168
 10
6.9388515289
 20
-75.0301292175
 10
4.182316833
 20
-73.4459515671
 10
1.4279179992
 20
-71.8605368258
 10
-1.3243427505
 20
-70.2738862749
 10
-4.0744643091
 20
-68.6860005542
 10
-6.8224466821
 20
-67.0968796601
 10
-9.5682887619
 20
-65.5065242322
 10
-12.3119883293
 20
-63.9149355531
 10
-15.0535437212
 20
-62.3221145842
  0
LWPOLYLINE
  5
222
100
AcDbEntity
  8
RACCORDO
100
AcDbPolyline
 62
7
  6
CONTINUOUS
 90
10
 70
0
 10
-14.9501297428
 20
-62.544173818
 10
-12.2485837145
 20
-64.1137674519
 10
-9.4927818021
 20
-65.7124073365
 10
-6.7348178302
 20
-67.309803395
 10
-3.9746937053
 20
-68.9059545226
 10
-1.2124110191
 20
-70.5008598
 10
1.5520287599
 20
-72.09451838
 10
4.3186240381
 20
-73.6869293436
 10
7.0873729011
 20
-75.2780915903
 10
9.801084757
 20
-76.8352148824
  0
LWPOLYLINE
  5
223
100
AcDbEntity
  8
RACCORDO
100
AcDbPolyline
 62
253
  6
CONTINUOUS
 90
43
 70
0
 10
-15.0535437212
 20
-62.3221145842
 10
-15.1695189274
 20
-62.2536931658
 10
-15.2901528315
 20
-62.1775933055
 10
-15.4154449394
 20
-62.0938147197
 10
-15.5451470833
 20
-62.0031736
 10
-15.679506364
 20
-61.9048531416
 10
-15.8192650298
 20
-61.7964034735
 10
-15.9655275371
 20
-61.6769839034
 10
-16.1171877565
 20
-61.5474341586
 10
-16.2716721602
 20
-61.407825053
 10
-16.4297139132
 20
-61.2569876575
 10
-16.590578444
 20
-61.0960900815
 10
-16.7494915223
 20
-60.9287092124
 10
-16.9054473037
 20
-60.7553920939
 10
-17.0594514835
 20
-60.5755915789
 10
-17.209748047
 20
-60.3912437875
 10
-17.3558826769
 20
-60.2028086236
 10
-17.4983098117
 20
-60.0098262326
 10
-17.6366368606
 20
-59.8128532633
 10
-17.7709927504
 20
-59.6116873895
 10
-17.9012485025
 20
-59.4065308845
 10
-18.0266248221
 20
-59.1985473846
 10
-18.1470756768
 20
-58.9877063523
 10
-18.2626471019
 20
-58.7740383031
 10
-18.3726981322
 20
-58.5587985866
 10
-18.4771138338
 20
-58.3421989718
 10
-18.5760092006
 20
-58.124027702
 10
-18.6690883141
 20
-57.9049049299
 10
-18.7565230852
 20
-57.684237672
 10
-18.8381414929
 20
-57.462618826
 10
-18.9131320028
 20
-57.2424475333
 10
-18.9814877889
 20
-57.0225738817
 10
-19.0432158161
 20
-56.8041478482
 10
-19.0975261256
 20
-56.5930189377
 10
-19.1437640488
 20
-56.3903534611
 10
-19.1825856358
 20
-56.1949859165
 10
-19.2151679117
 20
-56.0092686305
 10
-19.2413106836
 20
-55.8345839983
 10
-19.2612158153
 20
-55.6695506136
 10
-19.2766635347
 20
-55.512375173
 10
-19.2882475709
 20
-55.3624600989
 10
-19.2953752695
 20
-55.2204036074
 10
-19.2980471273
 20
-55.0862059938
  0
LWPOLYLINE
  5
224
100
AcDbEntity
  8
RACCORDO
100
AcDbPolyline
 62
253
  6
CONTINUOUS
 90
11
 70
0
 10
9.801073222
 20
-76.8352082681
 10
9.7962523405
 20
-76.8323339567
 10
9.7767473085
 20
-76.818206801
 10
9.7591418193
 20
-76.8011802734
 10
9.7435583555
 20
-76.7813728284
 10
9.7301053323
 20
-76.7589222677
 10
9.7188763432
 20
-76.7339847814
 10
9.709949509
 20
-76.706733861
 10
9.7033869343
 20
-76.6773590931
 10
9.6992342752
 20
-76.6460648396
 10
9.6975204222
 20
-76.6130688168
  0
LWPOLYLINE
  5
225
100
AcDbEntity
  8
RACCORDO
100
AcDbPolyline
 62
7
  6
CONTINUOUS
 90
3
 70
0
 10
-15.2939014788
 20
-62.329428074
 10
-15.0933772156
 20
-62.4583092252
 10
-14.9501111577
 20
-62.544184433
  0
LWPOLYLINE
  5
226
100
AcDbEntity
  8
RACCORDO
100
AcDbPolyline
 62
253
  6
CONTINUOUS
 90
10
 70
0
 10
-14.9541179368
 20
-62.5417801672
 10
-14.9737600032
 20
-62.5275739026
 10
-14.991489188
 20
-62.5104759699
 10
-15.0071821482
 20
-62.4906053206
 10
-15.0207297064
 20
-62.4681001961
 10
-15.0320376113
 20
-62.4431171663
 10
-15.0410271926
 20
-62.4158300396
 10
-15.0476359091
 20
-62.3864286544
 10
-15.0518177832
 20
-62.3551175581
 10
-15.0535437209
 20
-62.322114584
  0
LINE
  5
227
100
AcDbEntity
  8
RACCORDO
100
AcDbLine
 62
253
  6
CONTINUOUS
 10
11.0020812851
 20
60.4577237562
 11
10.9631739931
 21
60.4344875295
  0
LINE
  5
228
100
AcDbEntity
  8
RACCORDO
100
AcDbLine
 62
253
  6
CONTINUOUS
 10
14.6097516882
 20
61.8895382059
 11
14.5708388976
 21
61.8674625567
  0
LWPOLYLINE
  5
229
100
AcDbEntity
  8
RACCORDO
100
AcDbPolyline
 62
253
  6
CONTINUOUS
 90
9
 70
0
 10
12.8209585126
 20
61.3929902176
 10
12.6076184195
 20
61.2978961746
 10
12.3906034863
 20
61.1969742057
 10
12.1700032574
 20
61.0901556047
 10
11.9468760922
 20
60.9777928249
 10
11.720358642
 20
60.8594561309
 10
11.4876458515
 20
60.7336879144
 10
11.247862007
 20
60.5997206979
 10
11.0020812851
 20
60.4577237562
  0
LWPOLYLINE
  5
22A
100
AcDbEntity
  8
RACCORDO
100
AcDbPolyline
 62
253
  6
CONTINUOUS
 90
19
 70
0
 10
10.0313465571
 20
59.8245984283
 10
10.0020903284
 20
59.8043889933
 10
9.9731659227
 20
59.7815585167
 10
9.9447745685
 20
59.7562658315
 10
9.9171137858
 20
59.7286869006
 10
9.8903760121
 20
59.6990135925
 10
9.8647472633
 20
59.6674523463
 10
9.8404058399
 20
59.6342227355
 10
9.8175210863
 20
59.5995559409
 10
9.7962522126
 20
59.5636931413
 10
9.7767471875
 20
59.5268838367
 10
9.7591417083
 20
59.4893841118
 10
9.7435582569
 20
59.4514548544
 10
9.7301052481
 20
59.413359941
 10
9.7188762748
 20
59.3753644002
 10
9.7099494575
 20
59.3377325694
 10
9.7033869001
 20
59.3007262558
 10
9.6992342585
 20
59.2646029146
 10
9.6975204224
 20
59.2296138582
  0
LINE
  5
22B
100
AcDbEntity
  8
RACCORDO
100
AcDbLine
 62
253
  6
CONTINUOUS
 10
10.0313465489
 20
59.8245986051
 11
10.975954749
 21
60.4271538723
  0
LINE
  5
22C
100
AcDbEntity
  8
RACCORDO
100
AcDbLine
 62
253
  6
CONTINUOUS
 10
14.5281679616
 20
51.9203579674
 11
15.5171957332
 21
52.4345819008
  0
LWPOLYLINE
  5
22D
100
AcDbEntity
  8
RACCORDO
100
AcDbPolyline
 62
253
  6
CONTINUOUS
 90
13
 70
0
 10
18.7366206737
 20
54.2648243897
 10
18.6116060232
 20
54.2055321959
 10
18.4852090608
 20
54.1442575635
 10
18.3574787469
 20
54.0809998669
 10
18.2287620782
 20
54.0158521234
 10
18.0988177825
 20
53.9487154344
 10
17.9667705994
 20
53.87931599
 10
17.8323359374
 20
53.8075718447
 10
17.6958034698
 20
53.7335950513
 10
17.5571158697
 20
53.6574191662
 10
17.4162561101
 20
53.579065577
 10
17.2732504817
 20
53.4985423063
 10
16.9464019209
 20
53.3113107051
  0
LWPOLYLINE
  5
22E
100
AcDbEntity
  8
RACCORDO
100
AcDbPolyline
 62
253
  6
CONTINUOUS
 90
19
 70
0
 10
14.5281679616
 20
51.9203579674
 10
14.495777668
 20
51.9054200931
 10
14.4612515637
 20
51.8921018719
 10
14.4248336836
 20
51.8804974389
 10
14.3867814339
 20
51.8706888155
 10
14.3473637729
 20
51.8627453305
 10
14.3068593096
 20
51.8567231293
 10
14.2655543347
 20
51.8526647777
 10
14.223740797
 20
51.8505989606
 10
14.18171424
 20
51.8505402795
 10
14.1397717128
 20
51.852489149
 10
14.0982096705
 20
51.8564317945
 10
14.0573218789
 20
51.8623403487
 10
14.0173973382
 20
51.8701730493
 10
13.9787182402
 20
51.8798745337
 10
13.9415579736
 20
51.8913762305
 10
13.9061791919
 20
51.9045968444
 10
13.872831957
 20
51.9194429302
 10
13.8417519713
 20
51.9358095541
  0
LWPOLYLINE
  5
22F
100
AcDbEntity
  8
RACCORDO
100
AcDbPolyline
 62
253
  6
CONTINUOUS
 90
5
 70
0
 10
16.3748169978
 20
52.9739035575
 10
16.1756700372
 20
52.8539708825
 10
15.9686893828
 20
52.7276753287
 10
15.7526357286
 20
52.5943410597
 10
15.5171414756
 20
52.4479243814
  0
LINE
  5
230
100
AcDbEntity
  8
RACCORDO
100
AcDbLine
 62
253
  6
CONTINUOUS
 10
18.8533099219
 20
54.5394797478
 11
18.7995380778
 21
54.5078858989
  0
LWPOLYLINE
  5
231
100
AcDbEntity
  8
RACCORDO
100
AcDbPolyline
 62
253
  6
CONTINUOUS
 90
3
 70
0
 10
16.9464019209
 20
53.3113107051
 10
16.7601506901
 20
53.2026237657
 10
16.3748169978
 20
52.9739035575
  0
LWPOLYLINE
  5
232
100
AcDbEntity
  8
RACCORDO
100
AcDbPolyline
 62
253
  6
CONTINUOUS
 90
3
 70
0
 10
18.7629153105
 20
54.4265001395
 10
18.7801619085
 20
54.4401490157
 10
18.7996294531
 20
54.452762829
  0
LWPOLYLINE
  5
233
100
AcDbEntity
  8
RACCORDO
100
AcDbPolyline
 62
7
  6
CONTINUOUS
 90
35
 70
0
 10
-19.4428374722
 20
-54.8834671533
 10
-19.4381236378
 20
-55.0553410234
 10
-19.4240140788
 20
-55.2923687953
 10
-19.4011216869
 20
-55.5325958785
 10
-19.369582537
 20
-55.7755704731
 10
-19.3295317068
 20
-56.0209193947
 10
-19.2810948771
 20
-56.2683041493
 10
-19.2244073101
 20
-56.5172961475
 10
-19.1596087768
 20
-56.7674600518
 10
-19.0868375613
 20
-57.0184184986
 10
-19.006241407
 20
-57.2697403097
 10
-18.9179923865
 20
-57.5209874829
 10
-18.8222773653
 20
-57.7717565607
 10
-18.7192925148
 20
-58.0216079471
 10
-18.6092441295
 20
-58.270105867
 10
-18.4923319184
 20
-58.5168441329
 10
-18.3687646825
 20
-58.7613899085
 10
-18.2387660199
 20
-59.0033098006
 10
-18.1025520476
 20
-59.2421898049
 10
-17.9603541677
 20
-59.477600086
 10
-17.8124359465
 20
-59.7091293202
 10
-17.6590541681
 20
-59.9363867333
 10
-17.500479042
 20
-60.1589660553
 10
-17.3369876572
 20
-60.3764737427
 10
-17.1688386203
 20
-60.5885365997
 10
-16.9963133158
 20
-60.7947618381
 10
-16.8197010256
 20
-60.9947636537
 10
-16.6392644531
 20
-61.1881817572
 10
-16.4553039652
 20
-61.3746525957
 10
-16.2681255548
 20
-61.5538362165
 10
-16.0779934468
 20
-61.7254270354
 10
-15.8852215329
 20
-61.8890907085
 10
-15.6901201068
 20
-62.044499656
 10
-15.4929261234
 20
-62.1913787536
 10
-15.2939014788
 20
-62.329428074
  0
LWPOLYLINE
  5
234
100
AcDbEntity
  8
RACCORDO
100
AcDbPolyline
 62
253
  6
CONTINUOUS
 90
13
 70
0
 10
-19.2980471273
 20
-55.0862059938
 10
-19.427014096
 20
-44.648290658
 10
-19.5325336888
 20
-34.1964780095
 10
-19.6146053425
 20
-23.7308374491
 10
-19.6732285617
 20
-13.2514348061
 10
-19.7084028251
 20
-2.7583431191
 10
-19.720127666
 20
7.7483573173
 10
-19.7084028221
 20
18.2685969517
 10
-19.6732285561
 20
28.8023058782
 10
-19.6146053354
 20
39.3494031855
 10
-19.5325336818
 20
49.9098152072
 10
-19.4270140912
 20
60.4834755673
 10
-19.2980471273
 20
71.0703142142
  0
LWPOLYLINE
  5
235
100
AcDbEntity
  8
RACCORDO
100
AcDbPolyline
 62
7
  6
CONTINUOUS
 90
13
 70
0
 10
-19.4428392493
 20
71.2738003495
 10
-19.5712505836
 20
60.7370567399
 10
-19.6769757207
 20
50.1526951511
 10
-19.7592058709
 20
39.5816146518
 10
-19.8179404185
 20
29.0238936125
 10
-19.8531789678
 20
18.4796012813
 10
-19.864921167
 20
7.9488032695
 10
-19.8531667648
 20
-2.5684321552
 10
-19.8179159819
 20
-13.0720370011
 10
-19.7591691391
 20
-23.5619460496
 10
-19.6769266012
 20
-34.0380904894
 10
-19.5711889532
 20
-44.500392638
 10
-19.4428378624
 20
-54.8834872555
  0
LWPOLYLINE
  5
236
100
AcDbEntity
  8
RACCORDO
100
AcDbPolyline
 62
253
  6
CONTINUOUS
 90
43
 70
0
 10
-19.2980471273
 20
71.0703142142
 10
-19.2953854463
 20
71.2050399962
 10
-19.288310062
 20
71.3425822605
 10
-19.2768204841
 20
71.4829412812
 10
-19.2615096453
 20
71.626172369
 10
-19.2417835553
 20
71.7722208056
 10
-19.2158611761
 20
71.9209219142
 10
-19.1835571682
 20
72.0734629267
 10
-19.1450552028
 20
72.2286575474
 10
-19.0991278515
 20
72.3827807577
 10
-19.045108608
 20
72.5363205266
 10
-18.9836625591
 20
72.6887896862
 10
-18.9155605622
 20
72.8350000124
 10
-18.8407796848
 20
72.9737544328
 10
-18.7593426977
 20
73.1062501198
 10
-18.6720899244
 20
73.2308897078
 10
-18.5792045337
 20
73.3472341466
 10
-18.480503474
 20
73.4557224322
 10
-18.3762780306
 20
73.5560741042
 10
-18.2664143777
 20
73.6483743614
 10
-18.1510262817
 20
73.7325380518
 10
-18.0307465686
 20
73.8080291034
 10
-17.905524633
 20
73.8747640795
 10
-17.7754110746
 20
73.9328264343
 10
-17.6411907552
 20
73.9819303034
 10
-17.502990937
 20
74.0220169189
 10
-17.3606844103
 20
74.0531450333
 10
-17.2146744851
 20
74.0752049734
 10
-17.0645378236
 20
74.0881397174
 10
-16.9106976498
 20
74.0920063653
 10
-16.7548273958
 20
74.0868662683
 10
-16.5959153191
 20
74.0721092797
 10
-16.4349732891
 20
74.0483454857
 10
-16.2767110407
 20
74.0174660799
 10
-16.1218062589
 20
73.9791095019
 10
-15.9695826267
 20
73.9336365381
 10
-15.8227197895
 20
73.8840213789
 10
-15.6823329594
 20
73.8306884206
 10
-15.5473085993
 20
73.7732123116
 10
-15.4169833581
 20
73.713292545
 10
-15.2911364426
 20
73.6514954331
 10
-15.1699897301
 20
73.5872540439
 10
-15.0535437212
 20
73.5205680907
  0
LWPOLYLINE
  5
237
100
AcDbEntity
  8
RACCORDO
100
AcDbPolyline
 62
253
  6
CONTINUOUS
 90
13
 70
0
 10
20.6578591648
 20
55.9402893714
 10
20.5464796547
 20
55.8210081895
 10
20.4282618851
 20
55.7019104337
 10
20.3040604557
 20
55.5829947664
 10
20.1746109687
 20
55.4637819371
 10
20.0407945005
 20
55.3447031358
 10
19.9036939847
 20
55.2270906725
 10
19.7643551514
 20
55.1111014063
 10
19.6233087631
 20
54.9964258082
 10
19.4808083374
 20
54.8836839019
 10
19.3373298628
 20
54.7730301766
 10
19.1936389066
 20
54.6641395957
 10
19.0503229967
 20
54.5569160658
  0
LINE
  5
238
100
AcDbEntity
  8
RACCORDO
100
AcDbLine
 62
253
  6
CONTINUOUS
 10
18.7480537411
 20
54.4119460544
 11
18.7629153105
 21
54.4265001395
  0
LWPOLYLINE
  5
239
100
AcDbEntity
  8
RACCORDO
100
AcDbPolyline
 62
253
  6
CONTINUOUS
 90
10
 70
0
 10
-19.4427076466
 20
-54.8882008
 10
-19.4399406556
 20
-54.9127402699
 10
-19.4336573444
 20
-54.9370524126
 10
-19.4239051797
 20
-54.9609382875
 10
-19.4107530911
 20
-54.9842290664
 10
-19.3942940393
 20
-55.006760127
 10
-19.3746443589
 20
-55.0283722168
 10
-19.3519429364
 20
-55.048912579
 10
-19.3263502283
 20
-55.0682360315
 10
-19.2980471272
 20
-55.0862059937
  0
LWPOLYLINE
  5
23A
100
AcDbEntity
  8
RACCORDO
100
AcDbPolyline
 62
253
  6
CONTINUOUS
 90
11
 70
0
 10
-19.4428387523
 20
71.2737877776
 10
-19.4427100583
 20
71.2648615036
 10
-19.4399400579
 20
71.2409939281
 10
-19.4336568006
 20
71.2173113035
 10
-19.4239046973
 20
71.1939810209
 10
-19.4107526768
 20
71.1711679808
 10
-19.3942936991
 20
71.1490334279
 10
-19.3746440982
 20
71.1277338115
 10
-19.3519427595
 20
71.107419679
 10
-19.3263501386
 20
71.0882346127
 10
-19.298047127
 20
71.0703142143
  0
LWPOLYLINE
  5
23B
100
AcDbEntity
  8
RACCORDO
100
AcDbPolyline
 62
253
  6
CONTINUOUS
 90
6
 70
0
 10
18.733462004
 20
54.447803724
 10
18.7356700385
 20
54.4514499375
 10
18.7480019189
 20
54.4668403407
 10
18.7628550123
 20
54.4814676389
 10
18.7800882784
 20
54.4951929358
 10
18.7995380756
 20
54.5078859001
  0
LWPOLYLINE
  5
23C
100
AcDbEntity
  8
RACCORDO
100
AcDbPolyline
 62
253
  6
CONTINUOUS
 90
3
 70
0
 10
18.7346718363
 20
54.3949033676
 10
18.7357185917
 20
54.3966252262
 10
18.7480537411
 20
54.4119460544
  0
LWPOLYLINE
  5
23D
100
AcDbEntity
  8
RACCORDO
100
AcDbPolyline
 62
253
  6
CONTINUOUS
 90
12
 70
0
 10
21.184099399
 20
56.776855789
 10
21.1668696268
 20
56.712628582
 10
21.1432655888
 20
56.6457730969
 10
21.1133086417
 20
56.5762776139
 10
21.07707112
 20
56.5042766871
 10
21.0347347541
 20
56.4300478473
 10
20.9864886394
 20
56.3537552899
 10
20.9323813157
 20
56.2753409431
 10
20.8724028769
 20
56.1947460152
 10
20.806586157
 20
56.1119867836
 10
20.7350452664
 20
56.0271512786
 10
20.6578591648
 20
55.9402893714
  0
LWPOLYLINE
  5
23E
100
AcDbEntity
  8
RACCORDO
100
AcDbPolyline
 62
253
  6
CONTINUOUS
 90
43
 70
0
 10
13.8417519712
 20
-74.2207106539
 10
13.8426778405
 20
-74.3533650294
 10
13.8392993217
 20
-74.4887727697
 10
13.8316169049
 20
-74.6269335834
 10
13.8202223791
 20
-74.7679034411
 10
13.8045250122
 20
-74.9116257435
 10
13.7827516751
 20
-75.0579312473
 10
13.754751653
 20
-75.2079871923
 10
13.7206773263
 20
-75.3606253498
 10
13.6792101143
 20
-75.5121733316
 10
13.6297023639
 20
-75.6631082209
 10
13.5728031422
 20
-75.8129520995
 10
13.5091380527
 20
-75.956600611
 10
13.4386517644
 20
-76.0928753894
 10
13.3613997627
 20
-76.2229547183
 10
13.2781729669
 20
-76.3452697575
 10
13.1891410357
 20
-76.459389257
 10
13.0941341854
 20
-76.5657445523
 10
12.9934338785
 20
-76.6640608547
 10
12.886929485
 20
-76.7544215177
 10
12.7747316858
 20
-76.8367431707
 10
12.6574537584
 20
-76.9105010289
 10
12.5350431108
 20
-76.9756128025
 10
12.4075523323
 20
-77.032160797
 10
12.2757522458
 20
-77.0798672539
 10
12.1397673714
 20
-77.1186749887
 10
11.9994731293
 20
-77.1486412352
 10
11.8552665362
 20
-77.169659954
 10
11.7067261643
 20
-77.1816730204
 10
11.5542735482
 20
-77.1847385098
 10
11.3995698715
 20
-77.1789248458
 10
11.2415945299
 20
-77.1636269981
 10
11.081367997
 20
-77.139450085
 10
10.9236121938
 20
-77.108278264
 10
10.7689871916
 20
-77.0697601447
 10
10.6168315584
 20
-77.0242479193
 10
10.4698840553
 20
-76.974681645
 10
10.3292601358
 20
-76.9214855791
 10
10.1938426826
 20
-76.8642364372
 10
10.0630214757
 20
-76.804603035
 10
9.9365927868
 20
-76.7431418318
 10
9.814759268
 20
-76.679296996
 10
9.6975204222
 20
-76.6130688168
  0
LWPOLYLINE
  5
23F
100
AcDbEntity
  8
RACCORDO
100
AcDbPolyline
 62
253
  6
CONTINUOUS
 90
13
 70
0
 10
13.8417519712
 20
51.9358095541
 10
13.7127885403
 20
41.3489688507
 10
13.6072718218
 20
30.7753068186
 10
13.5252023797
 20
20.2148935091
 10
13.466580687
 20
9.6677953109
 10
13.4314072884
 20
-0.8659141219
 10
13.4196827186
 20
-11.3861539167
 10
13.4314072856
 20
-21.8928541926
 10
13.4665806819
 20
-32.3859453731
 10
13.5252023732
 20
-42.8653471253
 10
13.6072718154
 20
-53.3309863979
 10
13.7127885358
 20
-63.7827973744
 10
13.8417519712
 20
-74.2207106539
  0
LWPOLYLINE
  5
240
100
AcDbEntity
  8
RACCORDO
100
AcDbPolyline
 62
253
  6
CONTINUOUS
 90
13
 70
0
 10
14.5281679616
 20
51.9203579674
 10
14.3992163593
 20
41.3345205773
 10
14.2937102716
 20
30.7618610194
 10
14.2116496704
 20
20.2024490679
 10
14.1530341783
 20
9.6563507292
 10
14.1178641225
 20
-0.8763604511
 10
14.1061405389
 20
-11.3956033907
 10
14.1178641199
 20
-21.901307952
 10
14.153034173
 20
-32.3934047506
 10
14.2116496639
 20
-42.8718138392
 10
14.2937102658
 20
-53.3364620735
 10
14.3992163558
 20
-63.7872831101
 10
14.5281679616
 20
-74.2242072107
  0
LINE
  5
241
100
AcDbEntity
  8
RACCORDO
100
AcDbLine
 62
253
  6
CONTINUOUS
 10
21.1949047286
 20
56.8383922045
 11
21.184099399
 21
56.776855789
  0
LINE
  5
242
100
AcDbEntity
  8
RACCORDO
100
AcDbLine
 62
7
  6
CONTINUOUS
 10
18.7311992447
 20
54.546743693
 11
18.7364020015
 21
54.3192512727
  0
LINE
  5
243
100
AcDbEntity
  8
RACCORDO
100
AcDbLine
 62
253
  6
CONTINUOUS
 10
18.8498683873
 20
54.7387651993
 11
18.8533099219
 21
54.5394797478
  0
LWPOLYLINE
  5
244
100
AcDbEntity
  8
RACCORDO
100
AcDbPolyline
 62
7
  6
CONTINUOUS
 90
7
 70
0
 10
19.0503227676
 20
54.5569163305
 10
19.0492002338
 20
54.6366969984
 10
19.0446977385
 20
54.7169141285
 10
19.0368152818
 20
54.7975677208
 10
19.0255528636
 20
54.8786577752
 10
19.0109104839
 20
54.9601842917
 10
18.9928881427
 20
55.0421472705
  0
LWPOLYLINE
  5
245
100
AcDbEntity
  8
DRAFT
100
AcDbPolyline
 62
7
  6
CONTINUOUS
 90
13
 70
0
 10
15.5171957697
 20
-73.7100755617
 10
15.3882071489
 20
-63.2731495939
 10
15.2826707913
 20
-52.8223285917
 10
15.2005866708
 20
-42.3576822952
 10
15.1419544381
 20
-31.879278854
 10
15.1067743963
 20
-21.3871896096
 10
15.0950475025
 20
-10.8814890969
 10
15.1067743976
 20
-0.3622467272
 10
15.1419544408
 20
10.170467389
 10
15.2005866708
 20
20.7165776661
 10
15.2826707832
 20
31.2760123918
 10
15.3882071286
 20
41.8487037279
 10
15.5171957332
 20
52.4345819008
  0
LINE
  5
246
100
AcDbEntity
  8
RACCORDO
100
AcDbLine
 62
7
  6
CONTINUOUS
 10
18.7364020015
 20
54.3192512727
 11
18.7366200294
 21
54.2648247066
  0
LWPOLYLINE
  5
247
100
AcDbEntity
  8
RACCORDO
100
AcDbPolyline
 62
253
  6
CONTINUOUS
 90
23
 70
0
 10
14.5281673871
 20
-74.2242068417
 10
14.5282079949
 20
-74.3674140231
 10
14.5245368558
 20
-74.5144097367
 10
14.5166890789
 20
-74.6648332237
 10
14.5042365434
 20
-74.8176812522
 10
14.4866570079
 20
-74.9731326232
 10
14.4631848824
 20
-75.1323321905
 10
14.4329553245
 20
-75.2954639717
 10
14.3954339537
 20
-75.4604716728
 10
14.3503464274
 20
-75.6250629582
 10
14.2968707816
 20
-75.7894146903
 10
14.234795115
 20
-75.9516261862
 10
14.1654030926
 20
-76.1070997848
 10
14.0890361698
 20
-76.2548891035
 10
14.0051696541
 20
-76.395840729
 10
13.9144748876
 20
-76.5287271252
 10
13.8176757137
 20
-76.6526613878
 10
13.7147059651
 20
-76.7678422517
 10
13.6053053578
 20
-76.8745597289
 10
13.4894715733
 20
-76.9727984037
 10
13.3677920744
 20
-77.0620185147
 10
13.2406919416
 20
-77.1418932753
 10
13.1198692054
 20
-77.2066849694
  0
LINE
  5
248
100
AcDbEntity
  8
RACCORDO
100
AcDbLine
 62
253
  6
CONTINUOUS
 10
18.7995380778
 20
54.5078858989
 11
18.799629374
 21
-69.8179587591
  0
LINE
  5
249
100
AcDbEntity
  8
RACCORDO
100
AcDbLine
 62
253
  6
CONTINUOUS
 10
18.8533099219
 20
54.5394797478
 11
18.8533099219
 21
-69.8416022188
  0
LINE
  5
24A
100
AcDbEntity
  8
RACCORDO
100
AcDbLine
 62
7
  6
CONTINUOUS
 10
18.8963223545
 20
54.6001841816
 11
18.8963223545
 21
-69.7808977851
  0
LINE
  5
24B
100
AcDbEntity
  8
RACCORDO
100
AcDbLine
 62
7
  6
CONTINUOUS
 10
18.9928881427
 20
-70.2626138761
 11
18.9928881427
 21
55.0421472705
  0
LINE
  5
24C
100
AcDbEntity
  8
RACCORDO
100
AcDbLine
 62
7
  6
CONTINUOUS
 10
19.0503230823
 20
-69.7110667338
 11
19.0503227676
 21
54.5569163305
  0
LINE
  5
24D
100
AcDbEntity
  8
RACCORDO
100
AcDbLine
 62
253
  6
CONTINUOUS
 10
18.799629374
 20
-69.8179587591
 11
18.7995378721
 21
-69.8731961886
  0
LINE
  5
24E
100
AcDbEntity
  8
RACCORDO
100
AcDbLine
 62
7
  6
CONTINUOUS
 10
18.7366206737
 20
54.2648243897
 11
18.7365224325
 21
-70.0420747674
  0
LWPOLYLINE
  5
24F
100
AcDbEntity
  8
DRAFT
100
AcDbPolyline
 62
7
  6
CONTINUOUS
 90
22
 70
0
 10
15.5171957697
 20
-73.7100755617
 10
15.5163202978
 20
-73.9199974923
 10
15.5079972533
 20
-74.1248277252
 10
15.4922265928
 20
-74.3245662866
 10
15.4689553468
 20
-74.5195985744
 10
15.4382365774
 20
-74.7095391379
 10
15.4002291836
 20
-74.8932317929
 10
15.3549105017
 20
-75.0705416202
 10
15.302303171
 20
-75.2416035594
 10
15.2426338141
 20
-75.4056663532
 10
15.1758294332
 20
-75.5627681392
 10
15.1019630495
 20
-75.7128707748
 10
15.0214800859
 20
-75.8551087185
 10
14.9344082694
 20
-75.9893483458
 10
14.8407198135
 20
-76.1157233282
 10
14.7407766608
 20
-76.2337691933
 10
14.6344571747
 20
-76.3435351396
 10
14.5218830259
 20
-76.4449719624
 10
14.4037808951
 20
-76.5374677162
 10
14.2802757091
 20
-76.6208859592
 10
14.1512424508
 20
-76.6953632022
 10
14.0974224832
 20
-76.7229705959
  0
LINE
  5
250
100
AcDbEntity
  8
RACCORDO
100
AcDbLine
 62
7
  6
CONTINUOUS
 10
18.7365224325
 20
-70.0420747674
 11
18.7364013378
 21
-70.0600925427
  0
LWPOLYLINE
  5
251
100
AcDbEntity
  8
RACCORDO
100
AcDbPolyline
 62
253
  6
CONTINUOUS
 90
3
 70
0
 10
18.7995378721
 20
-69.8731961886
 10
18.7975723369
 20
-70.0071731238
 10
18.7925532788
 20
-70.1390455274
  0
LWPOLYLINE
  5
252
100
AcDbEntity
  8
RACCORDO
100
AcDbPolyline
 62
7
  6
CONTINUOUS
 90
13
 70
0
 10
18.8963223545
 20
-69.7808977851
 10
18.8932763057
 20
-69.9649481185
 10
18.8841376212
 20
-70.1453890553
 10
18.8689105081
 20
-70.3219793912
 10
18.8476006709
 20
-70.4945187683
 10
18.8202287553
 20
-70.6627344115
 10
18.7868429245
 20
-70.8262944651
 10
18.747480641
 20
-70.9850060282
 10
18.7021951983
 20
-71.1386407324
 10
18.651097179
 20
-71.2868498627
 10
18.5942671521
 20
-71.4294529831
 10
18.5317920506
 20
-71.5662764832
 10
18.4665751685
 20
-71.691755297
  0
LINE
  5
253
100
AcDbEntity
  8
RACCORDO
100
AcDbLine
 62
253
  6
CONTINUOUS
 10
21.1953074419
 20
56.8615647249
 11
21.1949047286
 21
56.8383921906
  0
LWPOLYLINE
  5
254
100
AcDbEntity
  8
RACCORDO
100
AcDbPolyline
 62
253
  6
CONTINUOUS
 90
12
 70
0
 10
18.8533099219
 20
-69.8416022188
 10
18.8498683873
 20
-70.0369134712
 10
18.8395493657
 20
-70.2279337306
 10
18.8223695944
 20
-70.4143531615
 10
18.7983569392
 20
-70.5958693899
 10
18.7675503486
 20
-70.7721879964
 10
18.7299997904
 20
-70.9430229937
 10
18.6857661701
 20
-71.1080972912
 10
18.6349212353
 20
-71.2671431322
 10
18.5775474612
 20
-71.419902532
 10
18.5137379096
 20
-71.5661277148
 10
18.5056970038
 20
-71.5821143923
  0
LWPOLYLINE
  5
255
100
AcDbEntity
  8
RACCORDO
100
AcDbPolyline
 62
7
  6
CONTINUOUS
 90
10
 70
0
 10
18.7364013378
 20
-70.0600925427
 10
18.7311989445
 20
-70.2804765577
 10
18.718178589
 20
-70.4944530099
 10
18.6976868601
 20
-70.7015054891
 10
18.6702840057
 20
-70.900755758
 10
18.6361603693
 20
-71.0921148011
 10
18.5950433615
 20
-71.2763079804
 10
18.5471731036
 20
-71.4530534924
 10
18.4929263518
 20
-71.6218527437
 10
18.4321144739
 20
-71.7831701872
  0
LWPOLYLINE
  5
256
100
AcDbEntity
  8
RACCORDO
100
AcDbPolyline
 62
253
  6
CONTINUOUS
 90
9
 70
0
 10
18.8963223545
 20
54.6001841816
 10
18.8961516996
 20
54.5960540505
 10
18.8945964376
 20
54.5870837663
 10
18.8914346375
 20
54.578255424
 10
18.8867005572
 20
54.5696646782
 10
18.8804454901
 20
54.5614046087
 10
18.8727372093
 20
54.5535647129
 10
18.8636592336
 20
54.5462299354
 10
18.8533099219
 20
54.5394797478
  0
LWPOLYLINE
  5
257
100
AcDbEntity
  8
RACCORDO
100
AcDbPolyline
 62
7
  6
CONTINUOUS
 90
34
 70
0
 10
18.9928881427
 20
55.0421472705
 10
18.9714186731
 20
55.2701759111
 10
18.9427472753
 20
55.4992245666
 10
18.9068739494
 20
55.7292932369
 10
18.8636812448
 20
55.9606703833
 10
18.8132866121
 20
56.1930675445
 10
18.7560424025
 20
56.425619337
 10
18.6919911342
 20
56.6582143243
 10
18.6210902891
 20
56.8909639429
 10
18.5435646637
 20
57.1233371192
 10
18.4593246734
 20
57.3555678632
 10
18.3684599029
 20
57.5874221649
 10
18.2714639031
 20
57.8176669204
 10
18.1682456403
 20
58.046366339
 10
18.0588961481
 20
58.2734562115
 10
17.9441820788
 20
58.4975108058
 10
17.824249295
 20
58.7182129854
 10
17.698951934
 20
58.9358798869
 10
17.5686190598
 20
59.1500371873
 10
17.4332630362
 20
59.3607194119
 10
17.2928714993
 20
59.5678920354
 10
17.1477364215
 20
59.7709771595
 10
16.9976175058
 20
59.9702536218
 10
16.8427550493
 20
60.1654425848
 10
16.6841619149
 20
60.3551296372
 10
16.5218865593
 20
60.5391580651
 10
16.3558805259
 20
60.7176845824
 10
16.1870113083
 20
60.8897649205
 10
16.0154807528
 20
61.0551990405
 10
15.8410870131
 20
61.2141869814
 10
15.6640920436
 20
61.3663845912
 10
15.4845831622
 20
61.5116771526
 10
15.3024730509
 20
61.6501793829
 10
15.1177617098
 20
61.7818912822
  0
LINE
  5
258
100
AcDbEntity
  8
RACCORDO
100
AcDbLine
 62
253
  6
CONTINUOUS
 10
21.1917093482
 20
57.0596737203
 11
21.1935456088
 21
57.0110178944
  0
LINE
  5
259
100
AcDbEntity
  8
RACCORDO
100
AcDbLine
 62
253
  6
CONTINUOUS
 10
21.1953061781
 20
56.8616259696
 11
21.1949038741
 21
56.8383922352
  0
LWPOLYLINE
  5
25A
100
AcDbEntity
  8
RACCORDO
100
AcDbPolyline
 62
7
  6
CONTINUOUS
 90
34
 70
0
 10
21.1953061781
 20
56.8616259696
 10
21.1935456088
 20
57.0110178944
 10
21.184570468
 20
57.2308232466
 10
21.1681434832
 20
57.4491221561
 10
21.1444930966
 20
57.6653062898
 10
21.1138350735
 20
57.879197703
 10
21.0762682893
 20
58.0911869091
 10
21.0319698245
 20
58.300987546
 10
20.9811787946
 20
58.5081995082
 10
20.9239201336
 20
58.7132111444
 10
20.8603547675
 20
58.9157136094
 10
20.7907243333
 20
59.1153224648
 10
20.7149817856
 20
59.312434323
 10
20.6332843868
 20
59.5067152985
 10
20.5458754543
 20
59.6977945356
 10
20.4526318821
 20
59.88606887
 10
20.3537167094
 20
60.0711755317
 10
20.2493770847
 20
60.2527534818
 10
20.1394223709
 20
60.4311701377
 10
20.0240400949
 20
60.6060259849
 10
19.9034652259
 20
60.7769956894
 10
19.7774300091
 20
60.9444241143
 10
19.6461397703
 20
61.1078983122
 10
19.5098098369
 20
61.2671145845
 10
19.3681116418
 20
61.4223650926
 10
19.2212632517
 20
61.5732360632
 10
19.0694595914
 20
61.7194265195
 10
18.9123377697
 20
61.8611469213
 10
18.750136206
 20
61.997982416
 10
18.5830321433
 20
62.1296242221
 10
18.4106269038
 20
62.2562020562
 10
18.2329688909
 20
62.3774421552
 10
18.0504547486
 20
62.4928506436
 10
17.932137977
 20
62.5629593443
  0
LINE
  5
25B
100
AcDbEntity
  8
RACCORDO
100
AcDbLine
 62
253
  6
CONTINUOUS
 10
21.1953074419
 20
-61.53734116
 11
21.194904727
 21
-61.5605138313
  0
LINE
  5
25C
100
AcDbEntity
  8
RACCORDO
100
AcDbLine
 62
7
  6
CONTINUOUS
 10
21.1953074419
 20
56.8615647249
 11
21.1953074419
 21
-61.53734116
  0
LINE
  5
25D
100
AcDbEntity
  8
RACCORDO
100
AcDbLine
 62
7
  6
CONTINUOUS
 10
21.1949549
 20
-61.6038303393
 11
21.1953064501
 21
-61.5373476343
  0
LINE
  5
25E
100
AcDbEntity
  8
RACCORDO
100
AcDbLine
 62
253
  6
CONTINUOUS
 10
21.1949549
 20
-61.6038303393
 11
21.1941586961
 21
-61.657092881
  0
LINE
  5
25F
100
AcDbEntity
  8
RACCORDO
100
AcDbLine
 62
7
  6
CONTINUOUS
 10
21.19415193
 20
-61.6574520214
 11
21.1949549
 21
-61.6038303393
  0
LINE
  5
260
100
AcDbEntity
  8
RACCORDO
100
AcDbLine
 62
253
  6
CONTINUOUS
 10
21.1953074419
 20
-61.5373476341
 11
21.194904731
 21
-61.5605136076
  0
LINE
  5
261
100
AcDbEntity
  8
RACCORDO
100
AcDbLine
 62
7
  6
CONTINUOUS
 10
21.1941586961
 20
-61.657092881
 11
21.1941560974
 21
-61.6572269813
  0
LINE
  5
262
100
AcDbEntity
  8
RACCORDO
100
AcDbLine
 62
253
  6
CONTINUOUS
 10
21.1847678533
 20
-61.9165625669
 11
21.194904727
 21
-61.5605138313
  0
LWPOLYLINE
  5
263
100
AcDbEntity
  8
RACCORDO
100
AcDbPolyline
 62
253
  6
CONTINUOUS
 90
9
 70
0
 10
18.8963223545
 20
-69.7808977851
 10
18.8961516996
 20
-69.7850279161
 10
18.8945964375
 20
-69.7939982004
 10
18.8914346374
 20
-69.8028265427
 10
18.8867005571
 20
-69.8114172886
 10
18.88044549
 20
-69.819677358
 10
18.8727372092
 20
-69.8275172538
 10
18.8636592335
 20
-69.8348520313
 10
18.8533099219
 20
-69.8416022187
  0
LWPOLYLINE
  5
264
100
AcDbEntity
  8
RACCORDO
100
AcDbPolyline
 62
253
  6
CONTINUOUS
 90
11
 70
0
 10
18.7925532788
 20
-70.1390455274
 10
18.7844890696
 20
-70.2687167923
 10
18.7734062673
 20
-70.3960648593
 10
18.7593032073
 20
-70.5210248462
 10
18.7421451749
 20
-70.6435856834
 10
18.7219445717
 20
-70.7636678965
 10
18.6987178058
 20
-70.8811679251
 10
18.6724343088
 20
-70.9960374042
 10
18.6431087925
 20
-71.108201609
 10
18.610767386
 20
-71.2175619583
 10
18.602807711
 20
-71.2415257747
  0
LWPOLYLINE
  5
265
100
AcDbEntity
  8
RACCORDO
100
AcDbPolyline
 62
7
  6
CONTINUOUS
 90
7
 70
0
 10
18.9928881427
 20
-70.2626138761
 10
19.0108076442
 20
-70.1608538503
 10
19.0253883411
 20
-70.0630280254
 10
19.0366302333
 20
-69.9691364013
 10
19.044533321
 20
-69.879178978
 10
19.049097604
 20
-69.7931557555
 10
19.0503230823
 20
-69.7110667338
  0
LWPOLYLINE
  5
266
100
AcDbEntity
  8
RACCORDO
100
AcDbPolyline
 62
7
  6
CONTINUOUS
 90
10
 70
0
 10
20.6709529359
 20
-66.2990567673
 10
20.7576689093
 20
-65.8782731442
 10
20.8506314293
 20
-65.3721621439
 10
20.9333219101
 20
-64.8549564212
 10
21.0054047353
 20
-64.3268665837
 10
21.0665654395
 20
-63.7880755274
 10
21.1165149921
 20
-63.2387144066
 10
21.154971237
 20
-62.678964681
 10
21.1816609377
 20
-62.109066399
 10
21.1941549845
 20
-61.6572849569
  0
LWPOLYLINE
  5
267
100
AcDbEntity
  8
RACCORDO
100
AcDbPolyline
 62
253
  6
CONTINUOUS
 90
12
 70
0
 10
20.6578240005
 20
-65.7502332128
 10
20.73566771
 20
-65.4246655101
 10
20.8079856267
 20
-65.0930741089
 10
20.8746385216
 20
-64.7555040915
 10
20.9356317237
 20
-64.4111336807
 10
20.9906504417
 20
-64.0608794361
 10
21.0392182585
 20
-63.7074097874
 10
21.0813659858
 20
-63.3504592336
 10
21.1170683764
 20
-62.990422201
 10
21.1460902126
 20
-62.6309786668
 10
21.1685595864
 20
-62.2734049073
 10
21.1847678533
 20
-61.9165625669
  0
LWPOLYLINE
  5
268
100
AcDbEntity
  8
RACCORDO
100
AcDbPolyline
 62
7
  6
CONTINUOUS
 90
5
 70
0
 10
18.4321144739
 20
-71.7831701872
 10
18.3649656292
 20
-71.936750891
 10
18.2918055888
 20
-72.0822117931
 10
18.2125134002
 20
-72.2198684159
 10
18.1449974341
 20
-72.3239554018
  0
LWPOLYLINE
  5
269
100
AcDbEntity
  8
RACCORDO
100
AcDbPolyline
 62
7
  6
CONTINUOUS
 90
11
 70
0
 10
18.5449971946
 20
-71.8224910546
 10
18.6153175276
 20
-71.6934225767
 10
18.6801828446
 20
-71.5578294468
 10
18.739582856
 20
-71.415740596
 10
18.7932824257
 20
-71.2675721129
 10
18.8412925139
 20
-71.113059258
 10
18.8836021603
 20
-70.9524667708
 10
18.9199433481
 20
-70.7870049583
 10
18.9502267383
 20
-70.6170772562
 10
18.9745416698
 20
-70.4422802288
 10
18.9928881427
 20
-70.2626138761
  0
LWPOLYLINE
  5
26A
100
AcDbEntity
  8
RACCORDO
100
AcDbPolyline
 62
253
  6
CONTINUOUS
 90
13
 70
0
 10
19.0503231884
 20
-69.7110686979
 10
19.1973255927
 20
-69.458773414
 10
19.3441947448
 20
-69.1925607247
 10
19.4903550144
 20
-68.9123419018
 10
19.6352561251
 20
-68.6182460813
 10
19.7782190091
 20
-68.3099855857
 10
19.9184582793
 20
-67.986862015
 10
20.0556304571
 20
-67.6479755367
 10
20.1887149505
 20
-67.2941235827
 10
20.316081598
 20
-66.9272083937
 10
20.4369155288
 20
-66.5478913471
 10
20.5510119258
 20
-66.1555549509
 10
20.6578240005
 20
-65.7502332128
  0
LWPOLYLINE
  5
26B
100
AcDbEntity
  8
RACCORDO
100
AcDbPolyline
 62
7
  6
CONTINUOUS
 90
13
 70
0
 10
18.5280681705
 20
-71.8512199416
 10
18.6586365218
 20
-71.6287712897
 10
18.8938311958
 20
-71.206415401
 10
19.1204074358
 20
-70.7698624165
 10
19.3377154277
 20
-70.3194103805
 10
19.5452299137
 20
-69.855210837
 10
19.7425111372
 20
-69.3772542201
 10
19.9290511128
 20
-68.8857617581
 10
20.1043513587
 20
-68.3810409186
 10
20.268004125
 20
-67.8632084485
 10
20.4195971815
 20
-67.3324836304
 10
20.5587195632
 20
-66.7892092571
 10
20.6709499911
 20
-66.2990716597
  0
LINE
  5
26C
100
AcDbEntity
  8
RACCORDO
100
AcDbLine
 62
253
  6
CONTINUOUS
 10
18.6063168358
 20
-70.1992250709
 11
18.7366206737
 21
-70.0059206121
  0
LWPOLYLINE
  5
26D
100
AcDbEntity
  8
RACCORDO
100
AcDbPolyline
 62
253
  6
CONTINUOUS
 90
5
 70
0
 10
18.7366206737
 20
-69.8729759059
 10
18.7480537012
 20
-69.8587754924
 10
18.7629152588
 20
-69.844221387
 10
18.7801618437
 20
-69.8305725247
 10
18.799629374
 20
-69.8179587591
  0
LINE
  5
26E
100
AcDbEntity
  8
RACCORDO
100
AcDbLine
 62
253
  6
CONTINUOUS
 10
18.7366206737
 20
-69.9277404812
 11
18.7480012764
 21
-69.9136973012
  0
LWPOLYLINE
  5
26F
100
AcDbEntity
  8
RACCORDO
100
AcDbPolyline
 62
253
  6
CONTINUOUS
 90
10
 70
0
 10
14.3986857837
 20
61.9488731017
 10
14.2295014299
 20
61.9031097724
 10
14.058705792
 20
61.8532267553
 10
13.886377985
 20
61.799289715
 10
13.7127251161
 20
61.7413998887
 10
13.5376963299
 20
61.6795970639
 10
13.360975972
 20
61.6138276573
 10
13.1825021451
 20
61.5440891682
 10
13.0024735002
 20
61.4704620086
 10
12.8209585126
 20
61.3929902176
  0
LWPOLYLINE
  5
270
100
AcDbEntity
  8
RACCORDO
100
AcDbPolyline
 62
253
  6
CONTINUOUS
 90
13
 70
0
 10
16.8400593405
 20
62.6800249163
 10
16.6700837378
 20
62.6555097959
 10
16.496925418
 20
62.6239114656
 10
16.3210807949
 20
62.5860742944
 10
16.1425698947
 20
62.5429879625
 10
15.9622637399
 20
62.4952863197
 10
15.7819045427
 20
62.4432983149
 10
15.6022546852
 20
62.3879411169
 10
15.4233041263
 20
62.3299183117
 10
15.2455823227
 20
62.2691659065
 10
15.0694321186
 20
62.2060553489
 10
14.8950399066
 20
62.1414829786
 10
14.7226413238
 20
62.0760580737
  0
LWPOLYLINE
  5
271
100
AcDbEntity
  8
DRAFT
100
AcDbPolyline
 62
7
  6
CONTINUOUS
 90
10
 70
0
 10
10.975954749
 20
60.4271538723
 10
8.2175449962
 20
62.0099422093
 10
5.4612687799
 20
63.5939693901
 10
2.7071277648
 20
65.1792344534
 10
-0.0448765127
 20
66.7657365123
 10
-2.7947422594
 20
68.3534745309
 10
-5.5424674254
 20
69.9424473245
 10
-8.2880502174
 20
71.5326538575
 10
-11.0314890993
 20
73.1240932435
 10
-13.7727824062
 20
74.7167645214
  0
LINE
  5
272
100
AcDbEntity
  8
RACCORDO
100
AcDbLine
 62
253
  6
CONTINUOUS
 10
-9.0820828244
 20
75.5242062518
 11
-9.058382495
 21
75.5106613277
  0
LINE
  5
273
100
AcDbEntity
  8
RACCORDO
100
AcDbLine
 62
7
  6
CONTINUOUS
 10
-9.2933742009
 20
75.6283716056
 11
14.3986857837
 21
61.9488731017
  0
LINE
  5
274
100
AcDbEntity
  8
RACCORDO
100
AcDbLine
 62
253
  6
CONTINUOUS
 10
-9.058382495
 20
75.5106613277
 11
14.5708388976
 21
61.8674625567
  0
LINE
  5
275
100
AcDbEntity
  8
RACCORDO
100
AcDbLine
 62
253
  6
CONTINUOUS
 10
-9.0076148035
 20
75.5259096231
 11
14.6097516882
 21
61.8895382059
  0
LINE
  5
276
100
AcDbEntity
  8
RACCORDO
100
AcDbLine
 62
7
  6
CONTINUOUS
 10
-8.9335367683
 20
75.5328110396
 11
14.6838297233
 21
61.8964396225
  0
LINE
  5
277
100
AcDbEntity
  8
RACCORDO
100
AcDbLine
 62
7
  6
CONTINUOUS
 10
15.1177617098
 20
61.7818912822
 11
-9.3053260145
 21
75.883476041
  0
LINE
  5
278
100
AcDbEntity
  8
RACCORDO
100
AcDbLine
 62
7
  6
CONTINUOUS
 10
14.7226422592
 20
62.0760573578
 11
-8.7958625762
 21
75.6553461446
  0
LWPOLYLINE
  5
279
100
AcDbEntity
  8
RACCORDO
100
AcDbPolyline
 62
253
  6
CONTINUOUS
 90
10
 70
0
 10
-15.0535437212
 20
73.5205680907
 10
-12.3119883294
 20
71.9277473701
 10
-9.5682887622
 20
70.3361588772
 10
-6.8224466824
 20
68.7458035734
 10
-4.0744643094
 20
67.1566827415
 10
-1.3243427509
 20
65.5687970207
 10
1.4279179989
 20
63.9821464078
 10
4.1823168327
 20
62.3967315423
 10
6.9388515288
 20
60.8125537057
 10
9.6975204221
 20
59.229613858
  0
LWPOLYLINE
  5
27A
100
AcDbEntity
  8
RACCORDO
100
AcDbPolyline
 62
253
  6
CONTINUOUS
 90
10
 70
0
 10
-14.717372388
 20
74.114198745
 10
-11.9760767203
 20
72.5215289299
 10
-9.2326370883
 20
70.9300912301
 10
-6.4870551568
 20
69.3398866066
 10
-3.7393331479
 20
67.7509163425
 10
-0.989472169
 20
66.1631810771
 10
1.7625277877
 20
64.576680806
 10
4.5166656148
 20
62.9914161685
 10
7.2729390901
 20
61.4073884478
 10
10.0313465489
 20
59.8245986051
  0
LWPOLYLINE
  5
27B
100
AcDbEntity
  8
RACCORDO
100
AcDbPolyline
 62
253
  6
CONTINUOUS
 90
43
 70
0
 10
9.6975204221
 20
59.229613858
 10
9.8142852249
 20
59.1616483428
 10
9.9356037253
 20
59.0859437599
 10
10.0614764138
 20
59.0025003941
 10
10.1916741398
 20
58.9121454173
 10
10.326427113
 20
58.8140522721
 10
10.4664250251
 20
58.7057407418
 10
10.6127763899
 20
58.586372477
 10
10.7643743554
 20
58.4567867875
 10
10.9185854627
 20
58.3170198841
 10
11.0761281366
 20
58.1658943267
 10
11.2362853517
 20
58.0045883555
 10
11.3942695788
 20
57.8366711792
 10
11.5490659229
 20
57.6626846162
 10
11.7016894318
 20
57.4820869192
 10
11.8503965919
 20
57.2968214261
 10
11.9947348656
 20
57.1073490687
 10
12.1351566764
 20
56.9132088287
 10
12.2712756637
 20
56.7149609523
 10
12.4032181752
 20
56.5124016242
 10
12.5308579223
 20
56.3057346706
 10
12.6534294381
 20
56.0961317123
 10
12.7708845948
 20
55.8835610014
 10
12.8832715255
 20
55.668054265
 10
12.9899689279
 20
55.4508782058
 10
13.0908648895
 20
55.2322463372
 10
13.1860712714
 20
55.0119450938
 10
13.275302277
 20
54.7906004724
 10
13.3587174501
 20
54.567612349
 10
13.4361573647
 20
54.3435808934
 10
13.5068574872
 20
54.1209323849
 10
13.5707782327
 20
53.8984979963
 10
13.6279590543
 20
53.6774464633
 10
13.6777530869
 20
53.4637099111
 10
13.7195200245
 20
53.2584629434
 10
13.7538987973
 20
53.0605301735
 10
13.7821604876
 20
52.8723182355
 10
13.8041363292
 20
52.69522767
 10
13.8199934202
 20
52.5278569972
 10
13.8315065215
 20
52.3684097575
 10
13.8392669006
 20
52.2162869517
 10
13.842682216
 20
52.0720869766
 10
13.8417519712
 20
51.9358095541
  0
LINE
  5
27C
100
AcDbEntity
  8
RACCORDO
100
AcDbLine
 62
253
  6
CONTINUOUS
 10
14.5708388976
 20
61.8674625567
 11
14.5945524388
 21
61.8537010253
  0
LINE
  5
27D
100
AcDbEntity
  8
RACCORDO
100
AcDbLine
 62
253
  6
CONTINUOUS
 10
14.5945524388
 20
61.8537010253
 11
14.6064134791
 21
61.8467655322
  0
LWPOLYLINE
  5
27E
100
AcDbEntity
  8
RACCORDO
100
AcDbPolyline
 62
253
  6
CONTINUOUS
 90
43
 70
0
 10
10.031346555
 20
59.824598475
 10
10.1576781545
 20
59.7500814624
 10
10.289190756
 20
59.6681623029
 10
10.4257936695
 20
59.5783487499
 10
10.5668191135
 20
59.4805305419
 10
10.71267179
 20
59.3738567877
 10
10.8647114153
 20
59.2566341446
 10
11.0235261719
 20
59.1275042518
 10
11.1875584097
 20
58.9867632144
 10
11.3548868821
 20
58.8352397797
 10
11.526051827
 20
58.6716691412
 10
11.6995015056
 20
58.4967207482
 10
11.870580846
 20
58.3146380329
 10
12.0382868848
 20
58.1264183828
 10
12.2036287882
 20
57.9308538643
 10
12.3652252952
 20
57.7295271474
 10
12.5219503828
 20
57.5239392798
 10
12.673997552
 20
57.3139059102
 10
12.8217452453
 20
57.098902683
 10
12.9651807982
 20
56.8789344452
 10
13.1035398497
 20
56.6551391119
 10
13.2363241001
 20
56.4283078467
 10
13.3636181253
 20
56.1982909017
 10
13.4855011552
 20
55.9649461933
 10
13.6015440185
 20
55.7291115215
 10
13.711157549
 20
55.4920322524
 10
13.8143445777
 20
55.2537217942
 10
13.9113579646
 20
55.013590239
 10
14.0022495396
 20
54.7714049855
 10
14.0863171247
 20
54.5288750107
 10
14.1629240525
 20
54.287926645
 10
14.2325924539
 20
54.0470564864
 10
14.2949645498
 20
53.8076506693
 10
14.3487600451
 20
53.5758552564
 10
14.3941866457
 20
53.3533197775
 10
14.4320337853
 20
53.1389871093
 10
14.4625397211
 20
52.9350431759
 10
14.4862360383
 20
52.7430074087
 10
14.5039916013
 20
52.5616747335
 10
14.5165673885
 20
52.38906761
 10
14.5244915027
 20
52.2244223903
 10
14.5282010831
 20
52.0682432274
 10
14.5281673871
 20
51.9203583353
  0
LWPOLYLINE
  5
27F
100
AcDbEntity
  8
DRAFT
100
AcDbPolyline
 62
7
  6
CONTINUOUS
 90
40
 70
0
 10
10.975954749
 20
60.4271538723
 10
11.1616070274
 20
60.3163448196
 10
11.3464208976
 20
60.1973302333
 10
11.5303963167
 20
60.0701100875
 10
11.71389921
 20
59.9344062536
 10
11.8965637462
 20
59.7904969093
 10
12.0772921431
 20
59.639216426
 10
12.2559763347
 20
59.4806022803
 10
12.432724367
 20
59.3146169722
 10
12.606762396
 20
59.1419822727
 10
12.7781597648
 20
58.9625719272
 10
12.9468471601
 20
58.77651219
 10
13.1118425275
 20
58.5849034632
 10
13.2730142307
 20
58.3878559975
 10
13.4304938551
 20
58.1852594905
 10
13.5836939687
 20
57.977883393
 10
13.7327176552
 20
57.7655245512
 10
13.8774618748
 20
57.5483861186
 10
14.0170297893
 20
57.3278468782
 10
14.1512395498
 20
57.1041602904
 10
14.2802729252
 20
56.8770728221
 10
14.4037783119
 20
56.6472026556
 10
14.5218808019
 20
56.4142631697
 10
14.6344553936
 20
56.1785410102
 10
14.7407751513
 20
55.9415141508
 10
14.8407182462
 20
55.7033751582
 10
14.9344064728
 20
55.4639314209
 10
15.0214781085
 20
55.2240830195
 10
15.1019609675
 20
54.9836597539
 10
15.175827295
 20
54.7428318357
 10
15.2426318055
 20
54.5030098458
 10
15.3023016331
 20
54.2643172765
 10
15.3549096205
 20
54.026630605
 10
15.4002288163
 20
53.7909897635
 10
15.438236459
 20
53.5572822506
 10
15.4689553345
 20
53.3256205695
 10
15.4922265805
 20
53.0973820312
 10
15.5079971474
 20
52.8730256839
 10
15.5163199923
 20
52.652092422
 10
15.5171951585
 20
52.4345822688
  0
LINE
  5
280
100
AcDbEntity
  8
RACCORDO
100
AcDbLine
 62
7
  6
CONTINUOUS
 10
14.398685901
 20
61.9488720214
 11
14.5753176865
 21
61.8428803831
  0
LWPOLYLINE
  5
281
100
AcDbEntity
  8
RACCORDO
100
AcDbPolyline
 62
253
  6
CONTINUOUS
 90
39
 70
0
 10
14.6097516882
 20
61.8895382059
 10
14.7806225773
 20
61.7869056822
 10
14.9512163137
 20
61.6764920009
 10
15.1212561937
 20
61.5584762533
 10
15.290466411
 20
61.4330498619
 10
15.4585725068
 20
61.3004162683
 10
15.6253018144
 20
61.1607906028
 10
15.790383903
 20
61.014399334
 10
15.9535510035
 20
60.861479913
 10
16.114538446
 20
60.7022803878
 10
16.2730851081
 20
60.5370589822
 10
16.4289338274
 20
60.3660836868
 10
16.5818318066
 20
60.1896318375
 10
16.7315310341
 20
60.0079896567
 10
16.877788711
 20
59.8214517564
 10
17.0203676326
 20
59.63032067
 10
17.1590365432
 20
59.4349064004
 10
17.2935705122
 20
59.2355259208
 10
17.423751324
 20
59.0325026274
 10
17.5493678272
 20
58.8261658197
 10
17.6702162679
 20
58.6168501807
 10
17.7861006203
 20
58.4048952367
 10
17.8968329181
 20
58.1906447843
 10
18.0022335561
 20
57.974446334
 10
18.1021315739
 20
57.7566505626
 10
18.196364932
 20
57.537610749
 10
18.2847807904
 20
57.3176821633
 10
18.367235753
 20
57.0972214925
 10
18.4435960809
 20
56.8765863071
 10
18.5137379086
 20
56.6561344954
 10
18.5775474595
 20
56.4362236447
 10
18.6349212333
 20
56.2172104506
 10
18.685766168
 20
55.9994501546
 10
18.7299997886
 20
55.7832959812
 10
18.7675503473
 20
55.5690985393
 10
18.7983569384
 20
55.357205252
 10
18.822369594
 20
55.1479598093
 10
18.8395493655
 20
54.9417016077
 10
18.8498683873
 20
54.7387651993
  0
LWPOLYLINE
  5
282
100
AcDbEntity
  8
RACCORDO
100
AcDbPolyline
 62
7
  6
CONTINUOUS
 90
40
 70
0
 10
14.6838297233
 20
61.8964396225
 10
14.8549472057
 20
61.7936571956
 10
15.0255725069
 20
61.6832148307
 10
15.1954459695
 20
61.5652984728
 10
15.3643209671
 20
61.44009519
 10
15.5319301096
 20
61.3078178103
 10
15.6979835468
 20
61.1687117431
 10
15.8622171585
 20
61.0230171801
 10
16.0243916984
 20
60.8709643265
 10
16.1842558691
 20
60.7128052881
 10
16.3415590923
 20
60.5488043876
 10
16.4960670012
 20
60.3792216025
 10
16.6475553361
 20
60.2043163822
 10
16.7957919193
 20
60.0243682093
 10
16.9405476502
 20
59.8396658828
 10
17.0816073376
 20
59.6504932499
 10
17.2187521759
 20
59.457151549
 10
17.3517702057
 20
59.259946655
 10
17.4804630632
 20
59.0591779557
 10
17.6046306615
 20
58.8551610271
 10
17.7240781812
 20
58.6482185121
 10
17.8386235612
 20
58.438666776
 10
17.9480858775
 20
58.2268360017
 10
18.0522927544
 20
58.0130577805
 10
18.1510848226
 20
57.7976545216
 10
18.2443041541
 20
57.5809632432
 10
18.3318007308
 20
57.3633234936
 10
18.4134378403
 20
57.1450626889
 10
18.4890818665
 20
56.9265212472
 10
18.558607364
 20
56.7080415417
 10
18.6219015834
 20
56.4899523631
 10
18.6788571683
 20
56.2725907586
 10
18.7293738451
 20
56.0563000038
 10
18.773362526
 20
55.8414135684
 10
18.8107428968
 20
55.6282626859
 10
18.841442262
 20
55.4171848493
 10
18.8653977968
 20
55.2085145079
 10
18.8825569455
 20
55.0025774882
 10
18.8928764969
 20
54.7996944375
 10
18.8963223545
 20
54.6001841816
  0
LWPOLYLINE
  5
283
100
AcDbEntity
  8
RACCORDO
100
AcDbPolyline
 62
253
  6
CONTINUOUS
 90
58
 70
0
 10
14.6064134791
 20
61.8467655322
 10
14.7232006846
 20
61.7764484249
 10
14.8398000018
 20
61.7025308699
 10
14.9561236457
 20
61.6250747992
 10
15.0720662479
 20
61.5441574521
 10
15.1875591451
 20
61.4598339731
 10
15.302569789
 20
61.3721320467
 10
15.4170266961
 20
61.2811062386
 10
15.5308288358
 20
61.1868375432
 10
15.6438993047
 20
61.0893915417
 10
15.7561574827
 20
60.988838115
 10
15.8675144879
 20
60.8852566602
 10
15.9778819387
 20
60.7787302557
 10
16.087176402
 20
60.6693411848
 10
16.1953164886
 20
60.557170888
 10
16.3022182952
 20
60.4423048584
 10
16.4077989198
 20
60.3248346225
 10
16.5119821555
 20
60.2048448266
 10
16.6146953309
 20
60.0824129522
 10
16.7158663057
 20
59.9576259361
 10
16.8154136337
 20
59.8305823591
 10
16.9132522347
 20
59.7013794074
 10
17.0093104833
 20
59.5701129478
 10
17.1035143751
 20
59.4368832084
 10
17.1957779291
 20
59.301796925
 10
17.2860256637
 20
59.1649667898
 10
17.3741973137
 20
59.0264857547
 10
17.4602315516
 20
58.8864325526
 10
17.5440715777
 20
58.7448969183
 10
17.6256452765
 20
58.6019998231
 10
17.704870983
 20
58.4578684247
 10
17.781682616
 20
58.3126222194
 10
17.8560307397
 20
58.1663597689
 10
17.92786198
 20
58.0191783859
 10
17.997121774
 20
57.8711846416
 10
18.0637588266
 20
57.7224933094
 10
18.1277268563
 20
57.5732145958
 10
18.1889772747
 20
57.4234530046
 10
18.2474641913
 20
57.2733279445
 10
18.303149039
 20
57.1229725154
 10
18.3559846739
 20
56.9725050256
 10
18.4059382961
 20
56.8220322565
 10
18.4529963477
 20
56.6716701378
 10
18.4971201394
 20
56.5215287235
 10
18.5382801535
 20
56.3717224266
 10
18.5764789175
 20
56.2223735097
 10
18.6116881036
 20
56.0735752371
 10
18.643879602
 20
55.9254572118
 10
18.6730617416
 20
55.7781950799
 10
18.6992090437
 20
55.6319231468
 10
18.7223112892
 20
55.4867244878
 10
18.7424034245
 20
55.3426968714
 10
18.7594670611
 20
55.199990882
 10
18.7734950704
 20
55.0586690073
 10
18.7845295991
 20
54.9187010425
 10
18.7925681443
 20
54.7801521484
 10
18.7975756533
 20
54.6431774832
 10
18.7995380778
 20
54.5078858989
  0
LWPOLYLINE
  5
284
100
AcDbEntity
  8
RACCORDO
100
AcDbPolyline
 62
7
  6
CONTINUOUS
 90
38
 70
0
 10
14.5753176865
 20
61.8428803831
 10
14.7508977329
 20
61.7292892379
 10
14.9252451822
 20
61.6083146617
 10
15.0982038105
 20
61.4801996319
 10
15.269561488
 20
61.3451532556
 10
15.4390458568
 20
61.2033447558
 10
15.6064414919
 20
61.0550064097
 10
15.7715726306
 20
60.9003804509
 10
15.9342156549
 20
60.7396484086
 10
16.094154928
 20
60.5730434956
 10
16.2511954742
 20
60.4008247293
 10
16.4051361274
 20
60.2232108399
 10
16.5557445152
 20
60.0404568269
 10
16.702830189
 20
59.8528201263
 10
16.8462464825
 20
59.6605215152
 10
16.9857597689
 20
59.4638132546
 10
17.1211667464
 20
59.2629673842
 10
17.2523556566
 20
59.0582309825
 10
17.3790808418
 20
58.8498683929
 10
17.501140219
 20
58.6381500073
 10
17.6184733479
 20
58.4233271009
 10
17.7308230814
 20
58.205668306
 10
17.8379850651
 20
57.9854442609
 10
17.9399555794
 20
57.7629007493
 10
18.0364646105
 20
57.5383010978
 10
18.1272999684
 20
57.3119201047
 10
18.2125111642
 20
57.0840086084
 10
18.2918030227
 20
56.8548400681
 10
18.3649627041
 20
56.6246742978
 10
18.4321113674
 20
56.3937247133
 10
18.4929232211
 20
56.1622514485
 10
18.5471700601
 20
55.9305173695
 10
18.595040582
 20
55.6987172173
 10
18.6361579987
 20
55.4671234919
 10
18.6702821366
 20
55.2359738366
 10
18.6976856162
 20
55.0053810762
 10
18.7181781344
 20
54.7755388089
 10
18.7311992447
 20
54.546743693
  0
LWPOLYLINE
  5
285
100
AcDbEntity
  8
RACCORDO
100
AcDbPolyline
 62
7
  6
CONTINUOUS
 90
7
 70
0
 10
15.1177617098
 20
61.7818912822
 10
15.0601715858
 20
61.8350504732
 10
14.9992762146
 20
61.8865570596
 10
14.9350755964
 20
61.9364110412
 10
14.8675697311
 20
61.9846124181
 10
14.7967586187
 20
62.0311611903
 10
14.7226422592
 20
62.0760573578
  0
LWPOLYLINE
  5
286
100
AcDbEntity
  8
RACCORDO
100
AcDbPolyline
 62
7
  6
CONTINUOUS
 90
5
 70
0
 10
18.2101898237
 20
-72.2719104616
 10
18.3018078705
 20
-72.1697735151
 10
18.3881648784
 20
-72.0608115521
 10
18.469211556
 20
-71.9450638116
 10
18.5280709647
 20
-71.8512232103
  0
LWPOLYLINE
  5
287
100
AcDbEntity
  8
RACCORDO
100
AcDbPolyline
 62
7
  6
CONTINUOUS
 90
8
 70
0
 10
16.599377341
 20
-74.2218565887
 10
16.8135462383
 20
-73.9962892212
 10
17.0773037519
 20
-73.7037661084
 10
17.3358933572
 20
-73.4000045816
 10
17.5888115043
 20
-73.0852971524
 10
17.8357891104
 20
-72.7596953724
 10
18.0767627638
 20
-72.4229675354
 10
18.1450389425
 20
-72.3238946582
  0
LINE
  5
288
100
AcDbEntity
  8
RACCORDO
100
AcDbLine
 62
7
  6
CONTINUOUS
 10
18.1193173099
 20
-72.3612183075
 11
18.2101898237
 21
-72.2719104616
  0
LWPOLYLINE
  5
289
100
AcDbEntity
  8
RACCORDO
100
AcDbPolyline
 62
253
  6
CONTINUOUS
 90
12
 70
0
 10
17.1281201124
 20
-71.9513748845
 10
17.268193497
 20
-71.8144689418
 10
17.4068130011
 20
-71.6737161265
 10
17.5439524074
 20
-71.5291207258
 10
17.6792073156
 20
-71.3811961503
 10
17.8129400283
 20
-71.2294423558
 10
17.9462270597
 20
-71.0723249868
 10
18.0792631364
 20
-70.9095795299
 10
18.211694588
 20
-70.7414411261
 10
18.3437133854
 20
-70.5671021603
 10
18.4753158543
 20
-70.3862805513
 10
18.6063168358
 20
-70.1992250709
  0
LINE
  5
28A
100
AcDbEntity
  8
RACCORDO
100
AcDbLine
 62
253
  6
CONTINUOUS
 10
18.7480012764
 20
-69.9136973012
 11
18.7628544005
 21
-69.8992485194
  0
LWPOLYLINE
  5
28B
100
AcDbEntity
  8
RACCORDO
100
AcDbPolyline
 62
253
  6
CONTINUOUS
 90
3
 70
0
 10
18.7628544005
 20
-69.8992485194
 10
18.7800876946
 20
-69.8857052137
 10
18.7995375166
 20
-69.8731959869
  0
LWPOLYLINE
  5
28C
100
AcDbEntity
  8
RACCORDO
100
AcDbPolyline
 62
7
  6
CONTINUOUS
 90
11
 70
0
 10
-9.3053260145
 20
75.883476041
 10
-9.4765193965
 20
75.9595232389
 10
-9.6459568745
 20
76.0271977863
 10
-9.8136384486
 20
76.0864996831
 10
-9.9797779249
 20
76.1374911183
 10
-10.1441614972
 20
76.180109903
 10
-10.3061477475
 20
76.2141694698
 10
-10.4658037782
 20
76.2396295344
 10
-10.623062487
 20
76.2565303811
 10
-10.7770811482
 20
76.2648062961
 10
-10.8698566632
 20
76.2655622058
  0
LWPOLYLINE
  5
28D
100
AcDbEntity
  8
RACCORDO
100
AcDbPolyline
 62
253
  6
CONTINUOUS
 90
3
 70
0
 10
-9.4434490758
 20
75.7116120012
 10
-9.4307279528
 20
75.7057992083
 10
-9.3147745886
 20
75.649105704
  0
LINE
  5
28E
100
AcDbEntity
  8
RACCORDO
100
AcDbLine
 62
7
  6
CONTINUOUS
 10
-9.4158205073
 20
75.7796278559
 11
-9.2552617497
 21
75.7045049139
  0
LINE
  5
28F
100
AcDbEntity
  8
RACCORDO
100
AcDbLine
 62
253
  6
CONTINUOUS
 10
-9.3490794311
 20
75.7071782095
 11
-9.1784856936
 21
75.6205945196
  0
LINE
  5
290
100
AcDbEntity
  8
RACCORDO
100
AcDbLine
 62
7
  6
CONTINUOUS
 10
-9.2552617497
 20
75.7045049139
 11
-9.094430164
 21
75.6221928828
  0
LWPOLYLINE
  5
291
100
AcDbEntity
  8
RACCORDO
100
AcDbPolyline
 62
253
  6
CONTINUOUS
 90
13
 70
0
 10
17.9310664712
 20
62.5635718979
 10
17.8660219221
 20
62.596967327
 10
17.795943948
 20
62.6259013594
 10
17.7209242846
 20
62.6504095398
 10
17.6410209639
 20
62.6705329261
 10
17.5563547099
 20
62.6863016612
 10
17.4671241087
 20
62.697764207
 10
17.3735269452
 20
62.7049888636
 10
17.2755746102
 20
62.7080597538
 10
17.1731851957
 20
62.7070519659
 10
17.0663830912
 20
62.7020117973
 10
16.9553129096
 20
62.6929856119
 10
16.8400593405
 20
62.6800249163
  0
LINE
  5
292
100
AcDbEntity
  8
RACCORDO
100
AcDbLine
 62
253
  6
CONTINUOUS
 10
-9.3147745886
 20
75.649105704
 11
-9.1985304781
 21
75.5885626644
  0
LWPOLYLINE
  5
293
100
AcDbEntity
  8
RACCORDO
100
AcDbPolyline
 62
253
  6
CONTINUOUS
 90
9
 70
0
 10
14.6838297233
 20
61.8964396225
 10
14.6801642039
 20
61.8983585896
 10
14.6716185792
 20
61.9014959684
 10
14.6623926031
 20
61.9031710872
 10
14.652586238
 20
61.9033657961
 10
14.6423057353
 20
61.9020779856
 10
14.6316624834
 20
61.8993216089
 10
14.6207718012
 20
61.8951265312
 10
14.6097516881
 20
61.8895382059
  0
LWPOLYLINE
  5
294
100
AcDbEntity
  8
RACCORDO
100
AcDbPolyline
 62
253
  6
CONTINUOUS
 90
9
 70
0
 10
-8.9335367683
 20
75.5328110396
 10
-8.9372022878
 20
75.5347300068
 10
-8.9457479123
 20
75.5378673856
 10
-8.9549738885
 20
75.5395425043
 10
-8.9647802535
 20
75.5397372133
 10
-8.9750607561
 20
75.5384494028
 10
-8.985704008
 20
75.5356930261
 10
-8.9965946904
 20
75.5314979484
 10
-9.0076148035
 20
75.5259096231
  0
LINE
  5
295
100
AcDbEntity
  8
RACCORDO
100
AcDbLine
 62
253
  6
CONTINUOUS
 10
-1.1191047444
 20
73.5592944928
 11
-1.0873828815
 21
73.5407662613
  0
LINE
  5
296
100
AcDbEntity
  8
RACCORDO
100
AcDbLine
 62
253
  6
CONTINUOUS
 10
-9.1985304781
 20
75.5885626644
 11
-9.0820828244
 21
75.5242062518
  0
LINE
  5
297
100
AcDbEntity
  8
RACCORDO
100
AcDbLine
 62
253
  6
CONTINUOUS
 10
-9.1784856936
 20
75.6205945196
 11
-9.0076148035
 21
75.5259096231
  0
LWPOLYLINE
  5
298
100
AcDbEntity
  8
RACCORDO
100
AcDbPolyline
 62
7
  6
CONTINUOUS
 90
7
 70
0
 10
-8.7958625762
 20
75.6553461446
 10
-8.8706793291
 20
75.6968230393
 10
-8.9495336101
 20
75.7369178359
 10
-9.0324254191
 20
75.7756305344
 10
-9.1193547561
 20
75.8129611347
 10
-9.2103216213
 20
75.8489096369
 10
-9.3053260145
 20
75.883476041
  0
LINE
  5
299
100
AcDbEntity
  8
RACCORDO
100
AcDbLine
 62
7
  6
CONTINUOUS
 10
-9.094430164
 20
75.6221928828
 11
-8.9335367683
 21
75.5328110396
  0
LINE
  5
29A
100
AcDbEntity
  8
RACCORDO
100
AcDbLine
 62
253
  6
CONTINUOUS
 10
-0.7911616218
 20
73.3735535244
 11
-0.7868054433
 21
73.3710365512
  0
LWPOLYLINE
  5
29B
100
AcDbEntity
  8
RACCORDO
100
AcDbPolyline
 62
7
  6
CONTINUOUS
 90
8
 70
0
 10
-0.7911616218
 20
73.3735535244
 10
-1.1191047444
 20
73.5592944928
 10
-1.6196055355
 20
73.83066544
 10
-2.1179767045
 20
74.0864795166
 10
-2.6139007295
 20
74.326879822
 10
-3.1070475486
 20
74.5520208702
 10
-3.5970719454
 20
74.7620690083
 10
-4.083629492
 20
74.9571940901
  0
LINE
  5
29C
100
AcDbEntity
  8
RACCORDO
100
AcDbLine
 62
7
  6
CONTINUOUS
 10
-0.7914822348
 20
73.3737385238
 11
17.9310664712
 21
62.5635718979
  0
LWPOLYLINE
  5
29D
100
AcDbEntity
  8
RACCORDO
100
AcDbPolyline
 62
253
  6
CONTINUOUS
 90
33
 70
0
 10
17.9310683503
 20
62.5635754833
 10
18.1200077555
 20
62.449884705
 10
18.3028172677
 20
62.3307096424
 10
18.4794999755
 20
62.2064285684
 10
18.6499555317
 20
62.0775085999
 10
18.8143290065
 20
61.9442257868
 10
18.9729672861
 20
61.8066186562
 10
19.1258979678
 20
61.6649635001
 10
19.2730973948
 20
61.5195890366
 10
19.4147798065
 20
61.3705360622
 10
19.5509318586
 20
61.218067899
 10
19.6815522312
 20
61.0624427237
 10
19.8068266698
 20
60.9036382194
 10
19.9266464117
 20
60.741994835
 10
20.0410850175
 20
60.5776276682
 10
20.1505224195
 20
60.4101078336
 10
20.2548422808
 20
60.239676773
 10
20.3540221392
 20
60.0664503041
 10
20.4484481055
 20
59.8897243726
 10
20.5379935005
 20
59.7095746728
 10
20.6224834006
 20
59.5261982782
 10
20.7020833536
 20
59.3390028747
 10
20.7766337001
 20
59.1479310827
 10
20.8458378151
 20
58.9532837199
 10
20.9095603595
 20
58.7549778067
 10
20.9675803019
 20
58.5530264805
 10
21.0196033586
 20
58.3476964618
 10
21.0653677927
 20
58.1392916825
 10
21.1046429193
 20
57.9278790972
 10
21.1371587184
 20
57.7137287202
 10
21.1626440151
 20
57.4974667213
 10
21.1808903766
 20
57.2794323329
 10
21.1917093482
 20
57.0596737203
  0
LWPOLYLINE
  5
29E
100
AcDbEntity
  8
RACCORDO
100
AcDbPolyline
 62
7
  6
CONTINUOUS
 90
6
 70
0
 10
15.2238209051
 20
-75.4499080864
 10
15.4145037088
 20
-75.3016713137
 10
15.7321557849
 20
-75.0377901503
 10
16.0439711759
 20
-74.7612924693
 10
16.3493889576
 20
-74.4724683698
 10
16.5992766218
 20
-74.2219626639
  0
LWPOLYLINE
  5
29F
100
AcDbEntity
  8
RACCORDO
100
AcDbPolyline
 62
253
  6
CONTINUOUS
 90
10
 70
0
 10
15.5110135076
 20
-73.2098468489
 10
15.5149818149
 20
-73.2074614854
 10
15.7302011463
 20
-73.0700251302
 10
15.9413291263
 20
-72.9270322223
 10
16.1481624866
 20
-72.7786523888
 10
16.3509314452
 20
-72.624810344
 10
16.5502678185
 20
-72.4651702904
 10
16.7463593215
 20
-72.2996345584
 10
16.9389814176
 20
-72.1283591905
 10
17.1281201124
 20
-71.9513748845
  0
LINE
  5
2A0
100
AcDbEntity
  8
RACCORDO
100
AcDbLine
 62
253
  6
CONTINUOUS
 10
18.8533099219
 20
-69.8416022188
 11
18.7995378721
 21
-69.8731961886
  0
LINE
  5
2A1
100
AcDbEntity
  8
RACCORDO
100
AcDbLine
 62
253
  6
CONTINUOUS
 10
14.5281679616
 20
-74.2242072107
 11
15.5171957697
 21
-73.7100755617
  0
LWPOLYLINE
  5
2A2
100
AcDbEntity
  8
RACCORDO
100
AcDbPolyline
 62
253
  6
CONTINUOUS
 90
19
 70
0
 10
14.5281673448
 20
-74.2242068145
 10
14.4957770934
 20
-74.2402005184
 10
14.4612510357
 20
-74.254562449
 10
14.4248332058
 20
-74.2671910942
 10
14.386781009
 20
-74.2779971932
 10
14.3473634022
 20
-74.2869043667
 10
14.3068589937
 20
-74.2938496576
 10
14.2655540729
 20
-74.2987839754
 10
14.2237405877
 20
-74.3016724435
 10
14.1817140804
 20
-74.3024946454
 10
14.139771599
 20
-74.3012447695
 10
14.0982095976
 20
-74.2979316497
 10
14.057321841
 20
-74.292578703
 10
14.0173973285
 20
-74.2852237642
 10
13.9787182509
 20
-74.2759188187
 10
13.9415579961
 20
-74.2647296342
 10
13.9061792171
 20
-74.2517352969
 10
13.8728319748
 20
-74.2370276518
 10
13.8417519714
 20
-74.2207106537
  0
LWPOLYLINE
  5
2A3
100
AcDbEntity
  8
RACCORDO
100
AcDbPolyline
 62
7
  6
CONTINUOUS
 90
6
 70
0
 10
-10.2050590008
 20
76.0432945257
 10
-10.0509328527
 20
76.0060729679
 10
-9.893748013
 20
75.9607866713
 10
-9.7353520566
 20
75.9078958072
 10
-9.575934428
 20
75.8474658938
 10
-9.4158205073
 20
75.7796278559
  0
LWPOLYLINE
  5
2A4
100
AcDbEntity
  8
RACCORDO
100
AcDbPolyline
 62
253
  6
CONTINUOUS
 90
11
 70
0
 10
-4.5146516561
 20
75.0099607887
 10
-4.2074373809
 20
74.9126245315
 10
-3.898034079
 20
74.8077988383
 10
-3.5865511277
 20
74.6953813135
 10
-3.2723948661
 20
74.5749896678
 10
-2.9563959812
 20
74.4467808263
 10
-2.6407502041
 20
74.3115736937
 10
-2.3252321844
 20
74.1692412031
 10
-2.0101950462
 20
74.0199319523
 10
-1.6985728544
 20
73.8651353958
 10
-1.3912976395
 20
73.7055186697
  0
LWPOLYLINE
  5
2A5
100
AcDbEntity
  8
RACCORDO
100
AcDbPolyline
 62
253
  6
CONTINUOUS
 90
5
 70
0
 10
-9.9184422597
 20
75.9366616094
 10
-9.8564356286
 20
75.9169846925
 10
-9.6883295312
 20
75.8554935801
 10
-9.5191193123
 20
75.7855202535
 10
-9.3490794311
 20
75.7071782095
  0
LWPOLYLINE
  5
2A6
100
AcDbEntity
  8
RACCORDO
100
AcDbPolyline
 62
7
  6
CONTINUOUS
 90
13
 70
0
 10
-4.9733430777
 20
75.2794408396
 10
-5.450287252
 20
75.4337982929
 10
-5.9866142053
 20
75.5920155439
 10
-6.5186579764
 20
75.7328500753
 10
-7.0459481664
 20
75.8565056701
 10
-7.5680590537
 20
75.9632315563
 10
-8.0845919764
 20
76.0533093554
 10
-8.5950670897
 20
76.1270280539
 10
-9.0990509885
 20
76.184721807
 10
-9.5962059464
 20
76.2267679113
 10
-10.0861250757
 20
76.2535508404
 10
-10.5683269947
 20
76.265491273
 10
-10.8698638508
 20
76.2655826787
  0
LWPOLYLINE
  5
2A7
100
AcDbEntity
  8
RACCORDO
100
AcDbPolyline
 62
7
  6
CONTINUOUS
 90
3
 70
0
 10
-4.083629492
 20
74.9571940901
 10
-4.5663973961
 20
75.1375891658
 10
-4.973332029
 20
75.2794358303
  0
LINE
  5
2A8
100
AcDbEntity
  8
DRAFT
100
AcDbLine
 62
7
  6
CONTINUOUS
 10
13.1198693832
 20
-77.2066848814
 11
14.097428388
 21
-76.7229810328
  0
LINE
  5
2A9
100
AcDbEntity
  8
RACCORDO
100
AcDbLine
 62
7
  6
CONTINUOUS
 10
13.1198692054
 20
-77.2066849694
 11
13.1188640991
 21
-77.2071819704
  0
LWPOLYLINE
  5
2AA
100
AcDbEntity
  8
RACCORDO
100
AcDbPolyline
 62
253
  6
CONTINUOUS
 90
10
 70
0
 10
-11.255321783
 20
75.2943323911
 10
-11.0438299392
 20
75.3509978628
 10
-10.8309978758
 20
75.402944633
 10
-10.6168985074
 20
75.4500864449
 10
-10.40223767
 20
75.4922289633
 10
-10.1864546541
 20
75.5294221256
 10
-9.9677504506
 20
75.5618276027
 10
-9.7456109777
 20
75.5893079476
 10
-9.5207789376
 20
75.611559381
 10
-9.2933742009
 20
75.6283716056
  0
LWPOLYLINE
  5
2AB
100
AcDbEntity
  8
RACCORDO
100
AcDbPolyline
 62
7
  6
CONTINUOUS
 90
6
 70
0
 10
-13.6369027506
 20
75.9011095126
 10
-13.9683560469
 20
75.8176868614
 10
-14.3693920985
 20
75.7033706967
 10
-14.7673910614
 20
75.5750413374
 10
-15.1617235777
 20
75.4328266697
 10
-15.4473853709
 20
75.318633896
  0
LWPOLYLINE
  5
2AC
100
AcDbEntity
  8
RACCORDO
100
AcDbPolyline
 62
7
  6
CONTINUOUS
 90
7
 70
0
 10
-11.3328375754
 20
76.218551508
 10
-11.5452677541
 20
76.2078820379
 10
-11.9854306539
 20
76.1739513358
 10
-12.4232214478
 20
76.1242450196
 10
-12.858072927
 20
76.058893583
 10
-13.2893588482
 20
75.9780636727
 10
-13.636725475
 20
75.9011499001
  0
LWPOLYLINE
  5
2AD
100
AcDbEntity
  8
RACCORDO
100
AcDbPolyline
 62
7
  6
CONTINUOUS
 90
14
 70
0
 10
-11.3328374721
 20
76.2185515123
 10
-11.2998298027
 20
76.2197069235
 10
-11.145906586
 20
76.2195640005
 10
-10.9888759841
 20
76.2104420211
 10
-10.8289109016
 20
76.1923382395
 10
-10.6662734407
 20
76.1652575707
 10
-10.5011779287
 20
76.1292150148
 10
-10.3337417502
 20
76.0842258611
 10
-10.1642505033
 20
76.0303141822
 10
-9.9929558645
 20
75.9675175729
 10
-9.8199419584
 20
75.8958727936
 10
-9.6454371743
 20
75.8154249535
 10
-9.4698108709
 20
75.7262343171
 10
-9.2933740919
 20
75.6283686629
  0
LWPOLYLINE
  5
2AE
100
AcDbEntity
  8
RACCORDO
100
AcDbPolyline
 62
7
  6
CONTINUOUS
 90
5
 70
0
 10
-10.8698566632
 20
76.2655622058
 10
-10.9279129182
 20
76.2643464099
 10
-11.0755046407
 20
76.2552615918
 10
-11.2188541213
 20
76.2378187359
 10
-11.3197730751
 20
76.2190088227
  0
LWPOLYLINE
  5
2AF
100
AcDbEntity
  8
RACCORDO
100
AcDbPolyline
 62
253
  6
CONTINUOUS
 90
13
 70
0
 10
-8.7958663973
 20
75.6553489953
 10
-8.502545257
 20
75.6550563177
 10
-8.1968303374
 20
75.6473220546
 10
-7.8789577991
 20
75.6315508314
 10
-7.549496009
 20
75.607292787
 10
-7.2084101521
 20
75.5737474777
 10
-6.8550651898
 20
75.5297586193
 10
-6.4887285686
 20
75.4744535857
 10
-6.110824075
 20
75.4072841205
 10
-5.7239196583
 20
75.3277415008
 10
-5.3290614149
 20
75.2353875493
 10
-4.9258521445
 20
75.1296405254
 10
-4.5146516561
 20
75.0099607887
  0
ENDSEC
  0
SECTION
  2
OBJECTS
  0
DICTIONARY
  5
C
100
AcDbDictionary
280
0
281
1
  3
ACAD_GROUP
350
D
  3
ACAD_MLINESTYLE
350
17
  3
ACAD_LAYOUT
350
1A
  3
ACAD_PLOTSETTINGS
350
19
  3
ACAD_PLOTSTYLENAME
350
E
  0
DICTIONARY
  5
D
102
{ACAD_REACTORS
330
C
102
}
100
AcDbDictionary
280
0
281
1
  0
ACDBDICTIONARYWDFLT
  5
E
102
{ACAD_REACTORS
330
C
102
}
100
AcDbDictionary
281
1
  3
Normal
350
F
100
AcDbDictionaryWithDefault
340
F
  0
DICTIONARY
  5
17
102
{ACAD_REACTORS
330
C
102
}
100
AcDbDictionary
280
0
281
1
  3
Standard
350
18
  0
DICTIONARY
  5
19
102
{ACAD_REACTORS
330
C
102
}
100
AcDbDictionary
281
1
  0
DICTIONARY
  5
1A
102
{ACAD_REACTORS
330
C
102
}
100
AcDbDictionary
281
1
  3
Model
350
2B0
  3
Layout1
350
2B1
  0
ACDBPLACEHOLDER
  5
F
102
{ACAD_REACTORS
330
E
102
}
  0
MLINESTYLE
  5
18
102
{ACAD_REACTORS
330
17
102
}
100
AcDbMlineStyle
  2
STANDARD
 70
0
  3

 62
256
 51
90.0
 52
90.0
 71
2
 49
0.5
 62
256
  6
BYLAYER
 49
-0.5
 62
256
  6
BYLAYER
  0
LAYOUT
  5
2B0
102
{ACAD_REACTORS
330
1A
102
}
100
AcDbPlotSettings
  1

  2
none_device
  4
ISO_A4_(297.00_x_210.00_MM)
  6

 40
0.0
 41
0.0
 42
0.0
 43
0.0
 44
297.0
 45
210.0
 46
0.0
 47
0.0
 48
0.0
 49
0.0
140
0.0
141
0.0
142
1.0
143
1.0
 70
1024
 72
1
 73
0
 74
0
  7

 75
0
147
1.0
148
0.0
149
0.0
100
AcDbLayout
  1
Model
 70
0
 71
0
 10
0.0
 20
0.0
 11
297.0
 21
210.0
 12
0.0
 22
0.0
 32
0.0
 14
0.0
 24
0.0
 34
0.0
 15
0.0
 25
0.0
 35
0.0
146
0.0
 13
0.0
 23
0.0
 33
0.0
 16
1.0
 26
0.0
 36
0.0
 17
0.0
 27
1.0
 37
0.0
 76
0
330
212
345
0
346
0
  0
LAYOUT
  5
2B1
102
{ACAD_REACTORS
330
1A
102
}
100
AcDbPlotSettings
  1

  2
none_device
  4
ISO_A4_(297.00_x_210.00_MM)
  6

 40
0.0
 41
0.0
 42
0.0
 43
0.0
 44
297.0
 45
210.0
 46
0.0
 47
0.0
 48
0.0
 49
0.0
140
0.0
141
0.0
142
1.0
143
1.0
 70
0
 72
1
 73
0
 74
0
  7

 75
0
147
1.0
148
0.0
149
0.0
100
AcDbLayout
  1
Layout1
 70
0
 71
1
 10
0.0
 20
0.0
 11
297.0
 21
210.0
 12
0.0
 22
0.0
 32
0.0
 14
0.0
 24
0.0
 34
0.0
 15
0.0
 25
0.0
 35
0.0
146
0.0
 13
0.0
 23
0.0
 33
0.0
 16
1.0
 26
0.0
 36
0.0
 17
0.0
 27
1.0
 37
0.0
 76
0
330
213
345
0
346
0
  0
ENDSEC
  0
EOF
