  0
SECTION
  2
HEADER
  9
$ACADVER
  1
AC1015
  9
$DWGCODEPAGE
  3
ANSI_1252
  9
$EXTMAX
 10
297.0
 20
210.0
 30
0.0
  9
$EXTMIN
 10
0.0
 20
0.0
 30
0.0
  9
$LIMMIN
 10
0.0
 20
0.0
  9
$LIMMAX
 10
297.0
 20
210.0
  9
$VIEWCTR
 10
148.5
 20
105.0
  9
$VIEWSIZE
 40
210.0
  9
$CLAYER
  8
0
  9
$LTSCALE
 40
16.335
  9
$CELTYPE
  6
BYLAYER
  9
$DIMSCALE
 40
1.0
  9
$DIMASZ
 40
3.0
  9
$DIMEXO
 40
1.85625
  9
$DIMDLI
 40
11.286
  9
$DIMEXE
 40
5.346
  9
$DIMCEN
 40
2.673
  9
$DIMLFAC
 40
1.0
  9
$DIMBLK
  1
_FILLED
  9
$DIMTXT
 40
3.0
  9
$DIMTOL
 70
1
  9
$DIMLIM
 70
0
  9
$DIMTFAC
 40
1.0
  9
$DIMTP
 40
0.01
  9
$DIMTM
 40
0.01
  9
$PDMODE
 70
3
  9
$PDSIZE
 40
3.0
  9
$HANDSEED
  5
53A
  9
$TILEMODE
 70
1
  9
$MEASUREMENT
 70
1
  9
$INSUNITS
 70
4
  0
ENDSEC
  0
SECTION
  2
CLASSES
  0
CLASS
  1
ACDBDICTIONARYWDFLT
  2
AcDbDictionaryWithDefault
  3
AutoCAD 2000
 90
0
280
0
281
0
  0
CLASS
  1
ACDBPLACEHOLDER
  2
AcDbPlaceHolder
  3
AutoCAD 2000
 90
0
280
0
281
0
  0
CLASS
  1
LAYOUT
  2
AcDbLayout
  3
AutoCAD 2000
 90
0
280
0
281
0
  0
ENDSEC
  0
SECTION
  2
TABLES
  0
TABLE
  2
VPORT
  5
8
100
AcDbSymbolTable
 70
2
  0
VPORT
  5
1F4
100
AcDbSymbolTableRecord
100
AcDbViewportTableRecord
  2
*ACTIVE
 70
0
 10
0.0
 20
0.0
 11
1.0
 21
1.0
 12
148.5
 22
105.0
 13
0.0
 23
0.0
 14
1.0
 24
1.0
 15
0.0
 25
0.0
 16
0.0
 26
0.0
 36
1.0
 17
0.0
 27
0.0
 37
0.0
 40
210.0
 41
1.4142857143
 42
50.0
 43
0.0
 44
0.0
 50
0.0
 51
0.0
 71
0
 72
100
 73
1
 74
1
 75
0
 76
0
 77
0
 78
0
  0
ENDTAB
  0
TABLE
  2
LTYPE
  5
5
100
AcDbSymbolTable
 70
6
  0
LTYPE
  5
14
100
AcDbSymbolTableRecord
100
AcDbLinetypeTableRecord
  2
BYBLOCK
 70
0
  3

 72
65
 73
0
 40
0.0
  0
LTYPE
  5
15
100
AcDbSymbolTableRecord
100
AcDbLinetypeTableRecord
  2
BYLAYER
 70
0
  3

 72
65
 73
0
 40
0.0
  0
LTYPE
  5
16
100
AcDbSymbolTableRecord
100
AcDbLinetypeTableRecord
  2
CONTINUOUS
 70
64
  3
Solid line
 72
65
 73
0
 40
0.0
  0
LTYPE
  5
1F5
100
AcDbSymbolTableRecord
100
AcDbLinetypeTableRecord
  2
CENTER
 70
64
  3
____ _ ____ _ ____ _ ____ _ ____ _ ____ _ ____
 72
65
 73
4
 40
0.6
 49
0.375
 74
0
 49
-0.075
 74
0
 49
0.075
 74
0
 49
-0.075
 74
0
  0
LTYPE
  5
1F6
100
AcDbSymbolTableRecord
100
AcDbLinetypeTableRecord
  2
HIDDEN
 70
64
  3
- - - - - - - - - - - - - - - - - - - -
 72
65
 73
2
 40
0.2
 49
0.1
 74
0
 49
-0.1
 74
0
  0
LTYPE
  5
1F7
100
AcDbSymbolTableRecord
100
AcDbLinetypeTableRecord
  2
PHANTOM
 70
64
  3
_____ _ _ _____ _ _ _____ _ _ _____
 72
65
 73
6
 40
0.8
 49
0.45
 74
0
 49
-0.05
 74
0
 49
0.1
 74
0
 49
-0.05
 74
0
 49
0.1
 74
0
 49
-0.05
 74
0
  0
LTYPE
  5
1F8
100
AcDbSymbolTableRecord
100
AcDbLinetypeTableRecord
  2
DOT
 70
64
  3
. . . . . . . . . . . . . . . . . . . .
 72
65
 73
2
 40
0.2
 49
0.1
 74
0
 49
-0.1
 74
0
  0
LTYPE
  5
1F9
100
AcDbSymbolTableRecord
100
AcDbLinetypeTableRecord
  2
DASHED
 70
64
  3
- - - - - - - - - - - - - - - - - - - -
 72
65
 73
2
 40
0.2
 49
0.1
 74
0
 49
-0.1
 74
0
  0
ENDTAB
  0
TABLE
  2
LAYER
  5
2
100
AcDbSymbolTable
 70
36
  0
LAYER
  5
10
100
AcDbSymbolTableRecord
100
AcDbLayerTableRecord
  2
0
 70
0
 62
7
  6
CONTINUOUS
370
-3
390
F
  0
LAYER
  5
1FA
100
AcDbSymbolTableRecord
100
AcDbLayerTableRecord
  2
DEFAULT_1
 70
0
 62
7
  6
CENTER
370
-3
390
F
  0
LAYER
  5
1FB
100
AcDbSymbolTableRecord
100
AcDbLayerTableRecord
  2
DEFAULT_2
 70
0
 62
7
  6
HIDDEN
370
-3
390
F
  0
LAYER
  5
1FC
100
AcDbSymbolTableRecord
100
AcDbLayerTableRecord
  2
DEFAULT_3
 70
0
 62
7
  6
PHANTOM
370
-3
390
F
  0
LAYER
  5
1FD
100
AcDbSymbolTableRecord
100
AcDbLayerTableRecord
  2
ASSI
 70
0
 62
7
  6
CONTINUOUS
370
-3
390
F
  0
LAYER
  5
1FE
100
AcDbSymbolTableRecord
100
AcDbLayerTableRecord
  2
COORDINATE
 70
0
 62
7
  6
CONTINUOUS
370
-3
390
F
  0
LAYER
  5
1FF
100
AcDbSymbolTableRecord
100
AcDbLayerTableRecord
  2
COORD_ORIGINE
 70
0
 62
7
  6
CONTINUOUS
370
-3
390
F
  0
LAYER
  5
200
100
AcDbSymbolTableRecord
100
AcDbLayerTableRecord
  2
COPY-PUBBLISH
 70
0
 62
7
  6
CONTINUOUS
370
-3
390
F
  0
LAYER
  5
201
100
AcDbSymbolTableRecord
100
AcDbLayerTableRecord
  2
COPY_PUBLISH
 70
0
 62
7
  6
CONTINUOUS
370
-3
390
F
  0
LAYER
  5
202
100
AcDbSymbolTableRecord
100
AcDbLayerTableRecord
  2
COSMETIC
 70
0
 62
7
  6
CONTINUOUS
370
-3
390
F
  0
LAYER
  5
203
100
AcDbSymbolTableRecord
100
AcDbLayerTableRecord
  2
CURVE
 70
0
 62
7
  6
CONTINUOUS
370
-3
390
F
  0
LAYER
  5
204
100
AcDbSymbolTableRecord
100
AcDbLayerTableRecord
  2
DRAFT
 70
0
 62
7
  6
CONTINUOUS
370
-3
390
F
  0
LAYER
  5
205
100
AcDbSymbolTableRecord
100
AcDbLayerTableRecord
  2
IGES-SCRITTE
 70
0
 62
7
  6
CONTINUOUS
370
-3
390
F
  0
LAYER
  5
206
100
AcDbSymbolTableRecord
100
AcDbLayerTableRecord
  2
IMPORT_IGES
 70
0
 62
7
  6
CONTINUOUS
370
-3
390
F
  0
LAYER
  5
207
100
AcDbSymbolTableRecord
100
AcDbLayerTableRecord
  2
PIANI
 70
0
 62
7
  6
CONTINUOUS
370
-3
390
F
  0
LAYER
  5
208
100
AcDbSymbolTableRecord
100
AcDbLayerTableRecord
  2
PIANI-RIFERIMENTO
 70
0
 62
7
  6
CONTINUOUS
370
-3
390
F
  0
LAYER
  5
209
100
AcDbSymbolTableRecord
100
AcDbLayerTableRecord
  2
PIANI_ORIGINE
 70
0
 62
7
  6
CONTINUOUS
370
-3
390
F
  0
LAYER
  5
20A
100
AcDbSymbolTableRecord
100
AcDbLayerTableRecord
  2
PUNTI
 70
0
 62
7
  6
CONTINUOUS
370
-3
390
F
  0
LAYER
  5
20B
100
AcDbSymbolTableRecord
100
AcDbLayerTableRecord
  2
RACCORDO
 70
0
 62
7
  6
CONTINUOUS
370
-3
390
F
  0
LAYER
  5
20C
100
AcDbSymbolTableRecord
100
AcDbLayerTableRecord
  2
SMUSSO
 70
0
 62
7
  6
CONTINUOUS
370
-3
390
F
  0
LAYER
  5
20D
100
AcDbSymbolTableRecord
100
AcDbLayerTableRecord
  2
SNAPLINE
 70
0
 62
7
  6
CONTINUOUS
370
-3
390
F
  0
LAYER
  5
20E
100
AcDbSymbolTableRecord
100
AcDbLayerTableRecord
  2
TRASH
 70
0
 62
7
  6
CONTINUOUS
370
-3
390
F
  0
LAYER
  5
20F
100
AcDbSymbolTableRecord
100
AcDbLayerTableRecord
  2
XSEC_DATUMS
 70
0
 62
7
  6
CONTINUOUS
370
-3
390
F
  0
ENDTAB
  0
TABLE
  2
STYLE
  5
3
100
AcDbSymbolTable
 70
1
  0
STYLE
  5
11
100
AcDbSymbolTableRecord
100
AcDbTextStyleTableRecord
  2
STANDARD
 70
0
 40
0.0
 41
0.8
 50
0.0
 71
0
 42
0.2
  3
txt
  4

  0
STYLE
  5
210
100
AcDbSymbolTableRecord
100
AcDbTextStyleTableRecord
  2
TEXTSTYLE_1
 70
0
 40
0.0
 41
0.8
 50
0.0
 71
0
 42
0.2
  3
gdt
  4

  0
ENDTAB
  0
TABLE
  2
VIEW
  5
6
100
AcDbSymbolTable
 70
0
  0
ENDTAB
  0
TABLE
  2
UCS
  5
7
100
AcDbSymbolTable
 70
0
  0
ENDTAB
  0
TABLE
  2
APPID
  5
9
100
AcDbSymbolTable
 70
1
  0
APPID
  5
211
100
AcDbSymbolTableRecord
100
AcDbRegAppTableRecord
  2
ACAD
 70
0
  0
ENDTAB
  0
TABLE
  2
BLOCK_RECORD
  5
1
100
AcDbSymbolTable
 70
0
  0
BLOCK_RECORD
  5
212
100
AcDbSymbolTableRecord
100
AcDbBlockTableRecord
  2
*Model_Space
  0
BLOCK_RECORD
  5
213
100
AcDbSymbolTableRecord
100
AcDbBlockTableRecord
  2
*Paper_Space
  0
ENDTAB
  0
TABLE
  2
DIMSTYLE
  5
A
100
AcDbSymbolTable
 70
1
100
AcDbDimStyleTable
 71
0
  0
DIMSTYLE
105
214
100
AcDbSymbolTableRecord
100
AcDbDimStyleTableRecord
  2
STANDARD
 70
0
  3

  4

 40
1.0
 41
3.0
 42
0.0625
 43
0.38
 44
0.18
 45
0.0
 46
0.0
 47
0.01
 48
0.01
140
3.0
141
0.09
142
0.0
143
25.4
144
1.0
145
0.0
146
1.0
147
0.09
 71
1.0
 72
0.0
 73
0
 74
0
 75
0
 76
0
 77
1
 78
8
170
0
171
2
172
0
173
0
174
0
175
0
176
0
177
0
178
0
270
2
271
2
272
2
273
2
274
2
275
0
280
0
281
0
282
0
283
1
284
8
285
0
286
0
287
3
288
0
340
11
  0
ENDTAB
  0
ENDSEC
  0
SECTION
  2
BLOCKS
  0
BLOCK
  5
20
100
AcDbEntity
  8
0
100
AcDbBlockBegin
  2
*Model_Space
 70
0
 10
0.0
 20
0.0
 30
0.0
  3
*Model_Space
  1

  0
ENDBLK
  5
21
100
AcDbEntity
  8
0
100
AcDbBlockEnd
  0
BLOCK
  5
1C
100
AcDbEntity
  8
0
100
AcDbBlockBegin
  2
*Paper_Space
 70
0
 10
0.0
 20
0.0
 30
0.0
  3
*Paper_Space
  1

  0
ENDBLK
  5
1D
100
AcDbEntity
  8
0
100
AcDbBlockEnd
  0
ENDSEC
  0
SECTION
  2
ENTITIES
  0
LINE
  5
215
100
AcDbEntity
  8
RACCORDO
100
AcDbLine
 62
7
  6
CONTINUOUS
 10
0.4352654755
 20
-44.0520697281
 11
-18.3030642259
 21
-34.6829048774
  0
LINE
  5
216
100
AcDbEntity
  8
RACCORDO
100
AcDbLine
 62
253
  6
CONTINUOUS
 10
0.045425697
 20
-43.2407590275
 11
-18.6929040044
 21
-33.8715941768
  0
LINE
  5
217
100
AcDbEntity
  8
RACCORDO
100
AcDbLine
 62
7
  6
CONTINUOUS
 10
-7.3429091175
 20
-37.1158394774
 11
-26.081238819
 21
-27.7466746266
  0
LINE
  5
218
100
AcDbEntity
  8
RACCORDO
100
AcDbLine
 62
253
  6
CONTINUOUS
 10
0.045425697
 20
-40.5535396382
 11
-6.8044789004
 21
-37.1285873395
  0
LINE
  5
219
100
AcDbEntity
  8
RACCORDO
100
AcDbLine
 62
253
  6
CONTINUOUS
 10
-7.7327488961
 20
-36.3045287768
 11
-26.4710785975
 21
-26.935363926
  0
LINE
  5
21A
100
AcDbEntity
  8
ASSI
100
AcDbLine
 62
253
  6
CONTINUOUS
 10
0.2935730382
 20
-39.5944603688
 11
-1.0197417369
 21
-38.9378029813
  0
LINE
  5
21B
100
AcDbEntity
  8
DRAFT
100
AcDbLine
 62
7
  6
CONTINUOUS
 10
12.061886379
 20
43.5847111945
 11
7.1553347024
 21
40.8765436499
  0
LINE
  5
21C
100
AcDbEntity
  8
RACCORDO
100
AcDbLine
 62
7
  6
CONTINUOUS
 10
11.0055808054
 20
44.1128639813
 11
-25.4474349319
 21
24.3272958672
  0
LINE
  5
21D
100
AcDbEntity
  8
RACCORDO
100
AcDbLine
 62
7
  6
CONTINUOUS
 10
8.4672536707
 20
40.4457019672
 11
8.2421358693
 21
40.3331430665
  0
LINE
  5
21E
100
AcDbEntity
  8
RACCORDO
100
AcDbLine
 62
253
  6
CONTINUOUS
 10
8.6014177494
 20
40.437181431
 11
8.3244968801
 21
40.2987209964
  0
LWPOLYLINE
  5
21F
100
AcDbEntity
  8
COPY-PUBBLISH
100
AcDbPolyline
 62
7
  6
CONTINUOUS
 90
11
 70
0
 10
-10.9810758637
 20
-31.5626491196
 10
-10.9147903433
 20
-31.5926149894
 10
-10.8345475282
 20
-31.620668068
 10
-10.750380787
 20
-31.641359401
 10
-10.6629776518
 20
-31.6541706721
 10
-10.5733189343
 20
-31.6587578813
 10
-10.481985342
 20
-31.6549602961
 10
-10.3895033056
 20
-31.6426581593
 10
-10.2966247297
 20
-31.6218361895
 10
-10.2038640778
 20
-31.5926015491
 10
-10.1452420015
 20
-31.5697383123
  0
LINE
  5
220
100
AcDbEntity
  8
ASSI
100
AcDbLine
 62
253
  6
CONTINUOUS
 10
-0.5117116556
 20
-37.9530805295
 11
-4.3726054237
 21
-36.0226336455
  0
LINE
  5
221
100
AcDbEntity
  8
RACCORDO
100
AcDbLine
 62
7
  6
CONTINUOUS
 10
-10.9795630966
 20
-31.5634435765
 11
-11.9883895775
 21
-31.059030336
  0
LINE
  5
222
100
AcDbEntity
  8
RACCORDO
100
AcDbLine
 62
7
  6
CONTINUOUS
 10
-27.9103681812
 20
-23.0980410342
 11
-28.9191946623
 21
-22.5936277936
  0
LINE
  5
223
100
AcDbEntity
  8
COPY-PUBBLISH
100
AcDbLine
 62
253
  6
CONTINUOUS
 10
-11.3730893022
 20
-30.8028173236
 11
-12.3807595541
 21
-30.2989821977
  0
LINE
  5
224
100
AcDbEntity
  8
COPY-PUBBLISH
100
AcDbLine
 62
253
  6
CONTINUOUS
 10
-28.2958830034
 20
-22.341420473
 11
-29.3035532553
 21
-21.8375853471
  0
LINE
  5
225
100
AcDbEntity
  8
DRAFT
100
AcDbLine
 62
7
  6
CONTINUOUS
 10
-20.2485389231
 20
-26.1049478572
 11
-13.9552885705
 21
-29.2515730335
  0
LINE
  5
226
100
AcDbEntity
  8
ASSI
100
AcDbLine
 62
253
  6
CONTINUOUS
 10
1.7875974368
 20
-36.6667789713
 11
0.4873208151
 21
-36.0166406604
  0
LINE
  5
227
100
AcDbEntity
  8
COPY-PUBBLISH
100
AcDbLine
 62
7
  6
CONTINUOUS
 10
-28.9190794419
 20
-22.5936853996
 11
-28.9196740819
 21
-22.5933877165
  0
LINE
  5
228
100
AcDbEntity
  8
COPY-PUBBLISH
100
AcDbLine
 62
7
  6
CONTINUOUS
 10
-10.9810131661
 20
-31.562716186
 11
-10.9795621968
 21
-31.5634440222
  0
LWPOLYLINE
  5
229
100
AcDbEntity
  8
COPY-PUBBLISH
100
AcDbPolyline
 62
7
  6
CONTINUOUS
 90
12
 70
0
 10
-29.4499821087
 20
-21.6599409304
 10
-29.4419313276
 20
-21.7724506273
 10
-29.4237841173
 20
-21.8894719676
 10
-29.3959812001
 20
-22.0008836456
 10
-29.3587517314
 20
-22.1061538066
 10
-29.3125233938
 20
-22.2043123499
 10
-29.2578399485
 20
-22.2945946368
 10
-29.1951397782
 20
-22.37671319
 10
-29.1249960595
 20
-22.450156629
 10
-29.0482249612
 20
-22.5142554305
 10
-28.9657154529
 20
-22.5685249789
 10
-28.9197334701
 20
-22.5933221007
  0
LWPOLYLINE
  5
22A
100
AcDbEntity
  8
COPY-PUBBLISH
100
AcDbPolyline
 62
7
  6
CONTINUOUS
 90
10
 70
0
 10
-29.4500356755
 20
13.9541517454
 10
-29.5636177502
 20
10.0371212486
 10
-29.6519497169
 20
6.0053643237
 10
-29.7108293975
 20
1.9879692162
 10
-29.7402489149
 20
-2.0146776303
 10
-29.7402065138
 20
-6.0022563833
 10
-29.7107016416
 20
-9.9744725154
 10
-29.6517349004
 20
-13.9310078699
 10
-29.5633130188
 20
-17.871483987
 10
-29.4500170474
 20
-21.659938382
  0
LWPOLYLINE
  5
22B
100
AcDbEntity
  8
COPY-PUBBLISH
100
AcDbPolyline
 62
7
  6
CONTINUOUS
 90
15
 70
0
 10
-28.543977459
 20
15.5398454266
 10
-28.6507233799
 20
15.4710209068
 10
-28.7573494284
 20
15.3881664842
 10
-28.8584535762
 20
15.295071777
 10
-28.9536786952
 20
15.1925488621
 10
-29.0422847951
 20
15.081705053
 10
-29.1238687614
 20
14.9633888516
 10
-29.1979030347
 20
14.8384165773
 10
-29.263473483
 20
14.7083485143
 10
-29.3201546876
 20
14.5741394273
 10
-29.3674047548
 20
14.4366973653
 10
-29.4045441722
 20
14.2976217596
 10
-29.431120743
 20
14.1579218322
 10
-29.4466797306
 20
14.0182256481
 10
-29.4500130408
 20
13.953976618
  0
LINE
  5
22C
100
AcDbEntity
  8
RACCORDO
100
AcDbLine
 62
7
  6
CONTINUOUS
 10
8.34840004
 20
39.7107182261
 11
-8.9389349291
 21
29.6754037112
  0
LINE
  5
22D
100
AcDbEntity
  8
RACCORDO
100
AcDbLine
 62
253
  6
CONTINUOUS
 10
8.34840004
 20
38.6710656942
 11
-8.9387455625
 21
28.6358611067
  0
LINE
  5
22E
100
AcDbEntity
  8
RACCORDO
100
AcDbLine
 62
7
  6
CONTINUOUS
 10
8.164950876
 20
38.2519905605
 11
-9.1223840896
 21
28.2166760476
  0
LINE
  5
22F
100
AcDbEntity
  8
0
100
AcDbLine
 62
7
  6
CONTINUOUS
 10
-17.9857972233
 20
-26.0342371791
 11
-13.9038505732
 21
-28.0752105042
  0
LINE
  5
230
100
AcDbEntity
  8
DRAFT
100
AcDbLine
 62
7
  6
CONTINUOUS
 10
-25.0877191721
 20
-22.3863196271
 11
-20.3041257672
 21
-24.7781163295
  0
LINE
  5
231
100
AcDbEntity
  8
DRAFT
100
AcDbLine
 62
7
  6
CONTINUOUS
 10
-13.8997017263
 20
-27.9803283499
 11
-12.4291833681
 21
-28.7155875291
  0
LINE
  5
232
100
AcDbEntity
  8
ASSI
100
AcDbLine
 62
253
  6
CONTINUOUS
 10
2.5908543788
 20
-35.8011674568
 11
1.2975876743
 21
-35.1545341046
  0
LINE
  5
233
100
AcDbEntity
  8
DRAFT
100
AcDbLine
 62
7
  6
CONTINUOUS
 10
-17.4454739064
 20
-25.1023173095
 11
-17.4908224764
 21
-25.0796430245
  0
LINE
  5
234
100
AcDbEntity
  8
0
100
AcDbLine
 62
7
  6
CONTINUOUS
 10
-17.3494011202
 20
-24.9366162642
 11
-13.1774711112
 21
-27.0225812687
  0
LINE
  5
235
100
AcDbEntity
  8
DRAFT
100
AcDbLine
 62
7
  6
CONTINUOUS
 10
-21.5628572956
 20
-22.7587225661
 11
-22.3990437783
 21
-22.3406293248
  0
LINE
  5
236
100
AcDbEntity
  8
DRAFT
100
AcDbLine
 62
7
  6
CONTINUOUS
 10
-16.7837156952
 20
-24.6537735517
 11
-12.6117856862
 21
-26.7397385562
  0
LINE
  5
237
100
AcDbEntity
  8
DRAFT
100
AcDbLine
 62
7
  6
CONTINUOUS
 10
-22.4759252838
 20
-21.6071745725
 11
-21.6981078245
 21
-21.9960833022
  0
LINE
  5
238
100
AcDbEntity
  8
DRAFT
100
AcDbLine
 62
7
  6
CONTINUOUS
 10
-20.8495796871
 20
-22.4203473709
 11
-20.0364068887
 21
-22.8269337701
  0
LINE
  5
239
100
AcDbEntity
  8
COPY-PUBBLISH
100
AcDbLine
 62
7
  6
CONTINUOUS
 10
-26.4710785975
 20
-26.935363926
 11
-26.4710785975
 21
-22.7104852756
  0
LINE
  5
23A
100
AcDbEntity
  8
COPY-PUBBLISH
100
AcDbLine
 62
7
  6
CONTINUOUS
 10
-26.4710785975
 20
16.7485797038
 11
-26.4710785975
 21
22.5172272676
  0
LINE
  5
23B
100
AcDbEntity
  8
DRAFT
100
AcDbLine
 62
7
  6
CONTINUOUS
 10
-25.0877191721
 20
-22.0962011168
 11
-25.0877191721
 21
-22.3863196271
  0
LINE
  5
23C
100
AcDbEntity
  8
DRAFT
100
AcDbLine
 62
7
  6
CONTINUOUS
 10
-25.0877191721
 20
16.294705033
 11
-25.0877191721
 21
16.5848235432
  0
LWPOLYLINE
  5
23D
100
AcDbEntity
  8
RACCORDO
100
AcDbPolyline
 62
7
  6
CONTINUOUS
 90
6
 70
0
 10
-9.4813341202
 20
27.959118952
 10
-9.4635065579
 20
27.9758974005
 10
-9.3744463956
 20
28.0489934856
 10
-9.2705009861
 20
28.1239008455
 10
-9.1522683324
 20
28.1990483562
 10
-9.1226592992
 20
28.216494185
  0
LINE
  5
23E
100
AcDbEntity
  8
COPY-PUBBLISH
100
AcDbLine
 62
7
  6
CONTINUOUS
 10
-28.5443413652
 20
15.5396776139
 11
-26.3517712798
 21
16.8181467977
  0
LINE
  5
23F
100
AcDbEntity
  8
COPY-PUBBLISH
100
AcDbLine
 62
253
  6
CONTINUOUS
 10
-28.3109873177
 20
15.5309102207
 11
-26.1177943316
 21
16.8097426127
  0
LINE
  5
240
100
AcDbEntity
  8
RACCORDO
100
AcDbLine
 62
7
  6
CONTINUOUS
 10
-25.0877191721
 20
16.294705033
 11
-27.3003948507
 21
15.0256139872
  0
LINE
  5
241
100
AcDbEntity
  8
COPY-PUBBLISH
100
AcDbLine
 62
7
  6
CONTINUOUS
 10
-3.9837706126
 20
-25.9158682225
 11
-4.1701725091
 21
-25.8809341203
  0
LINE
  5
242
100
AcDbEntity
  8
DRAFT
100
AcDbLine
 62
7
  6
CONTINUOUS
 10
-15.0716582512
 20
-23.191527047
 11
-12.5444252283
 21
-24.4551435585
  0
LINE
  5
243
100
AcDbEntity
  8
DRAFT
100
AcDbLine
 62
7
  6
CONTINUOUS
 10
-14.5563293345
 20
-22.9338625887
 11
-13.8845778924
 21
-23.2697383098
  0
LINE
  5
244
100
AcDbEntity
  8
0
100
AcDbLine
 62
7
  6
CONTINUOUS
 10
-12.5563353574
 20
-23.9338595773
 11
-13.8845778924
 21
-23.2697383098
  0
LINE
  5
245
100
AcDbEntity
  8
COPY-PUBBLISH
100
AcDbLine
 62
7
  6
CONTINUOUS
 10
-5.3774278267
 20
-26.8631318701
 11
-5.5188491829
 21
-26.792421192
  0
LINE
  5
246
100
AcDbEntity
  8
COPY-PUBBLISH
100
AcDbLine
 62
7
  6
CONTINUOUS
 10
-5.7235799306
 20
-26.5253213498
 11
-5.8650012869
 21
-26.4546106717
  0
LINE
  5
247
100
AcDbEntity
  8
COPY-PUBBLISH
100
AcDbLine
 62
7
  6
CONTINUOUS
 10
-5.7235799306
 20
-26.2877212181
 11
-5.8650012869
 21
-26.21701054
  0
LINE
  5
248
100
AcDbEntity
  8
COPY-PUBBLISH
100
AcDbLine
 62
7
  6
CONTINUOUS
 10
-5.7235799306
 20
-25.9911759333
 11
-5.8650012869
 21
-25.9204652552
  0
LINE
  5
249
100
AcDbEntity
  8
COPY-PUBBLISH
100
AcDbLine
 62
7
  6
CONTINUOUS
 10
-5.1440811747
 20
-25.9979718401
 11
-5.2855025309
 21
-25.927261162
  0
LINE
  5
24A
100
AcDbEntity
  8
COPY-PUBBLISH
100
AcDbLine
 62
7
  6
CONTINUOUS
 10
-4.8624186235
 20
-25.8571405645
 11
-5.0038399797
 21
-25.7864298864
  0
LINE
  5
24B
100
AcDbEntity
  8
COPY-PUBBLISH
100
AcDbLine
 62
7
  6
CONTINUOUS
 10
-5.3774275189
 20
-25.0733062032
 11
-5.5188491829
 21
-25.0025952316
  0
LINE
  5
24C
100
AcDbEntity
  8
COPY-PUBBLISH
100
AcDbLine
 62
7
  6
CONTINUOUS
 10
-3.8815604017
 20
-25.613401388
 11
-4.0229817579
 21
-25.5426907099
  0
LINE
  5
24D
100
AcDbEntity
  8
COPY-PUBBLISH
100
AcDbLine
 62
7
  6
CONTINUOUS
 10
-4.108843613
 20
-25.4803530593
 11
-4.2502649693
 21
-25.4096423812
  0
LINE
  5
24E
100
AcDbEntity
  8
DRAFT
100
AcDbLine
 62
7
  6
CONTINUOUS
 10
-20.3041257672
 20
-24.7781163295
 11
-20.2485389231
 21
-26.1049478572
  0
LINE
  5
24F
100
AcDbEntity
  8
SMUSSO
100
AcDbLine
 62
7
  6
CONTINUOUS
 10
-21.6981078245
 20
-22.5140612157
 11
-21.6981078245
 21
-21.9960833022
  0
LINE
  5
250
100
AcDbEntity
  8
DRAFT
100
AcDbLine
 62
7
  6
CONTINUOUS
 10
-20.3041257672
 20
14.1930268408
 11
-20.2485389231
 21
15.4642715244
  0
LINE
  5
251
100
AcDbEntity
  8
DRAFT
100
AcDbLine
 62
7
  6
CONTINUOUS
 10
-19.025995328
 20
14.8529997269
 11
-20.3041257672
 21
14.1930268408
  0
LINE
  5
252
100
AcDbEntity
  8
0
100
AcDbLine
 62
7
  6
CONTINUOUS
 10
-12.8239177206
 20
-23.8000683957
 11
-12.5597195207
 21
-23.7857411063
  0
LINE
  5
253
100
AcDbEntity
  8
0
100
AcDbLine
 62
7
  6
CONTINUOUS
 10
-13.8845778924
 20
-23.2697383098
 11
-12.5731338847
 21
-23.1986195901
  0
LINE
  5
254
100
AcDbEntity
  8
DRAFT
100
AcDbLine
 62
7
  6
CONTINUOUS
 10
-14.5563293345
 20
-22.9338625887
 11
-12.5816296485
 21
-22.8267759631
  0
LINE
  5
255
100
AcDbEntity
  8
COPY-PUBBLISH
100
AcDbLine
 62
7
  6
CONTINUOUS
 10
-3.159941668
 20
-23.8513932287
 11
-3.3280796398
 21
-23.7902037736
  0
LINE
  5
256
100
AcDbEntity
  8
ASSI
100
AcDbLine
 62
7
  6
CONTINUOUS
 10
-4.5179587051
 20
-24.5798991082
 11
-4.3765373488
 21
-24.6506097863
  0
LINE
  5
257
100
AcDbEntity
  8
COPY-PUBBLISH
100
AcDbLine
 62
7
  6
CONTINUOUS
 10
-3.4926719266
 20
-24.9209718641
 11
-3.6340934117
 21
-24.8502628043
  0
LINE
  5
258
100
AcDbEntity
  8
COPY-PUBBLISH
100
AcDbLine
 62
7
  6
CONTINUOUS
 10
-3.9837712727
 20
-24.626913993
 11
-4.1251926289
 21
-24.5562033149
  0
LINE
  5
259
100
AcDbEntity
  8
COPY-PUBBLISH
100
AcDbLine
 62
7
  6
CONTINUOUS
 10
-3.5951533404
 20
-24.4179374881
 11
-3.7365745202
 21
-24.3472272542
  0
LINE
  5
25A
100
AcDbEntity
  8
DRAFT
100
AcDbLine
 62
7
  6
CONTINUOUS
 10
-14.2232118883
 20
-18.7282413533
 11
-12.8470316495
 21
-19.4163314727
  0
LINE
  5
25B
100
AcDbEntity
  8
DRAFT
100
AcDbLine
 62
7
  6
CONTINUOUS
 10
-14.2232118883
 20
-17.0458562757
 11
-13.7142258614
 21
-17.3003492892
  0
LINE
  5
25C
100
AcDbEntity
  8
COPY-PUBBLISH
100
AcDbLine
 62
7
  6
CONTINUOUS
 10
-5.6814830875
 20
-25.1890958637
 11
-5.1440811747
 21
-25.7014265554
  0
LINE
  5
25D
100
AcDbEntity
  8
ASSI
100
AcDbLine
 62
7
  6
CONTINUOUS
 10
-5.0063814209
 20
-25.4911553222
 11
-5.5188488677
 21
-25.0025955321
  0
LINE
  5
25E
100
AcDbEntity
  8
COPY-PUBBLISH
100
AcDbLine
 62
7
  6
CONTINUOUS
 10
-4.8649600646
 20
-25.5618660003
 11
-5.3774275189
 21
-25.0733062032
  0
LINE
  5
25F
100
AcDbEntity
  8
DRAFT
100
AcDbLine
 62
253
  6
CONTINUOUS
 10
-17.4908224764
 20
-24.7260896339
 11
-17.4760365118
 21
-25.079023575
  0
LINE
  5
260
100
AcDbEntity
  8
RACCORDO
100
AcDbLine
 62
7
  6
CONTINUOUS
 10
-18.6929040044
 20
-31.4408420339
 11
-18.6929040044
 21
-33.8715941768
  0
LINE
  5
261
100
AcDbEntity
  8
DRAFT
100
AcDbLine
 62
7
  6
CONTINUOUS
 10
28.6876049333
 20
35.2718519173
 11
23.6946616732
 21
32.6068801645
  0
LINE
  5
262
100
AcDbEntity
  8
RACCORDO
100
AcDbLine
 62
7
  6
CONTINUOUS
 10
21.409709759
 20
33.1800633666
 11
2.8713126584
 21
23.7702799174
  0
LINE
  5
263
100
AcDbEntity
  8
DRAFT
100
AcDbLine
 62
253
  6
CONTINUOUS
 10
-12.8239177206
 20
-22.392637256
 11
-12.8052217487
 21
-22.8389012111
  0
LINE
  5
264
100
AcDbEntity
  8
DRAFT
100
AcDbLine
 62
7
  6
CONTINUOUS
 10
-15.1622218864
 20
-6.7706799925
 11
-15.1622218864
 21
11.0694433255
  0
LINE
  5
265
100
AcDbEntity
  8
DRAFT
100
AcDbLine
 62
7
  6
CONTINUOUS
 10
-13.7142258614
 20
-17.3003492892
 11
-13.7142258614
 21
-18.0730968074
  0
LINE
  5
266
100
AcDbEntity
  8
RACCORDO
100
AcDbLine
 62
7
  6
CONTINUOUS
 10
29.7439105068
 20
34.7436991305
 11
-6.7091052304
 21
14.9581310165
  0
LINE
  5
267
100
AcDbEntity
  8
RACCORDO
100
AcDbLine
 62
253
  6
CONTINUOUS
 10
16.5383238327
 20
-27.5045326895
 11
17.6997373134
 21
-28.0852394299
  0
LINE
  5
268
100
AcDbEntity
  8
DRAFT
100
AcDbLine
 62
7
  6
CONTINUOUS
 10
16.6325815001
 20
-27.1680822083
 11
16.8505413696
 21
-27.277062143
  0
LINE
  5
269
100
AcDbEntity
  8
RACCORDO
100
AcDbLine
 62
253
  6
CONTINUOUS
 10
22.4977271668
 20
-27.1126591565
 11
21.4153913606
 21
-26.5714912534
  0
LINE
  5
26A
100
AcDbEntity
  8
RACCORDO
100
AcDbLine
 62
253
  6
CONTINUOUS
 10
4.8789395229
 20
-18.3032653346
 11
4.6053154827
 21
-18.1664533145
  0
LINE
  5
26B
100
AcDbEntity
  8
DRAFT
100
AcDbLine
 62
7
  6
CONTINUOUS
 10
-13.9552885705
 20
12.3176463481
 11
-13.8997017263
 21
10.9908148204
  0
LINE
  5
26C
100
AcDbEntity
  8
DRAFT
100
AcDbLine
 62
7
  6
CONTINUOUS
 10
-12.6117856862
 20
-26.7397385562
 11
-12.6117856862
 21
-27.3574689265
  0
LINE
  5
26D
100
AcDbEntity
  8
DRAFT
100
AcDbLine
 62
7
  6
CONTINUOUS
 10
-13.9552885705
 20
-29.2515730335
 11
-13.8997017263
 21
-27.9803283499
  0
LINE
  5
26E
100
AcDbEntity
  8
DRAFT
100
AcDbLine
 62
7
  6
CONTINUOUS
 10
-15.1706403748
 20
-24.6266587549
 11
-15.0716582512
 21
-23.191527047
  0
LINE
  5
26F
100
AcDbEntity
  8
DRAFT
100
AcDbLine
 62
7
  6
CONTINUOUS
 10
-15.2595155713
 20
-25.4158736137
 11
-15.1706403748
 21
-24.6266587549
  0
LINE
  5
270
100
AcDbEntity
  8
RACCORDO
100
AcDbLine
 62
7
  6
CONTINUOUS
 10
-9.1161083215
 20
8.3088996077
 11
-11.3677434502
 21
7.0592882869
  0
LINE
  5
271
100
AcDbEntity
  8
COPY-PUBBLISH
100
AcDbLine
 62
253
  6
CONTINUOUS
 10
-8.086033162
 20
7.7938620279
 11
-10.3571509832
 21
6.5539920534
  0
LINE
  5
272
100
AcDbEntity
  8
RACCORDO
100
AcDbLine
 62
253
  6
CONTINUOUS
 10
24.0446907116
 20
-26.2730152487
 11
22.9386488004
 21
-25.7199942931
  0
LINE
  5
273
100
AcDbEntity
  8
RACCORDO
100
AcDbLine
 62
253
  6
CONTINUOUS
 10
5.3063610102
 20
-16.903850398
 11
6.4124029214
 21
-17.4568713536
  0
LINE
  5
274
100
AcDbEntity
  8
RACCORDO
100
AcDbLine
 62
253
  6
CONTINUOUS
 10
24.9953353701
 20
-25.2914421018
 11
23.8975896091
 21
-24.7425692213
  0
LINE
  5
275
100
AcDbEntity
  8
RACCORDO
100
AcDbLine
 62
253
  6
CONTINUOUS
 10
6.2570056686
 20
-15.9222772511
 11
7.3547514296
 21
-16.4711501316
  0
LINE
  5
276
100
AcDbEntity
  8
RACCORDO
100
AcDbLine
 62
253
  6
CONTINUOUS
 10
25.0870562573
 20
-25.1332469719
 11
23.9901109324
 21
-24.5847743094
  0
LINE
  5
277
100
AcDbEntity
  8
RACCORDO
100
AcDbLine
 62
253
  6
CONTINUOUS
 10
6.3487265559
 20
-15.7640821212
 11
7.4456718808
 21
-16.3125547836
  0
LINE
  5
278
100
AcDbEntity
  8
COPY-PUBBLISH
100
AcDbLine
 62
253
  6
CONTINUOUS
 10
7.1164935089
 20
-19.1358514629
 11
5.8627214587
 21
-18.3746221429
  0
LINE
  5
279
100
AcDbEntity
  8
RACCORDO
100
AcDbLine
 62
253
  6
CONTINUOUS
 10
-8.9389349291
 20
29.6754037112
 11
-8.9387455625
 21
28.6358611067
  0
LINE
  5
27A
100
AcDbEntity
  8
DRAFT
100
AcDbLine
 62
7
  6
CONTINUOUS
 10
-9.1161083215
 20
8.3088996077
 11
-9.1161083215
 21
8.5990181179
  0
LINE
  5
27B
100
AcDbEntity
  8
COPY-PUBBLISH
100
AcDbLine
 62
7
  6
CONTINUOUS
 10
-7.7327488961
 20
13.1480624169
 11
-7.7327488961
 21
-36.3045287768
  0
LINE
  5
27C
100
AcDbEntity
  8
COPY-PUBBLISH
100
AcDbLine
 62
253
  6
CONTINUOUS
 10
-7.7327488961
 20
7.1840090014
 11
-9.9913182432
 21
5.9509896077
  0
LINE
  5
27D
100
AcDbEntity
  8
COPY-PUBBLISH
100
AcDbLine
 62
7
  6
CONTINUOUS
 10
-3.490110247
 20
7.8593610881
 11
-4.0210202779
 21
7.5939060726
  0
LINE
  5
27E
100
AcDbEntity
  8
COPY-PUBBLISH
100
AcDbLine
 62
7
  6
CONTINUOUS
 10
-6.5626710209
 20
6.3230807011
 11
-7.0935788963
 21
6.0576267634
  0
LINE
  5
27F
100
AcDbEntity
  8
COPY-PUBBLISH
100
AcDbLine
 62
7
  6
CONTINUOUS
 10
-5.0266795287
 20
6.7446662857
 11
-5.5570096146
 21
6.4795012428
  0
LINE
  5
280
100
AcDbEntity
  8
COPY-PUBBLISH
100
AcDbLine
 62
7
  6
CONTINUOUS
 10
-0.6616810842
 20
8.7241258521
 11
-1.145636986
 21
8.4821479012
  0
LINE
  5
281
100
AcDbEntity
  8
ASSI
100
AcDbLine
 62
7
  6
CONTINUOUS
 10
-1.2870583423
 20
8.3539749793
 11
-0.8031024404
 21
8.5959529302
  0
LINE
  5
282
100
AcDbEntity
  8
COPY-PUBBLISH
100
AcDbLine
 62
7
  6
CONTINUOUS
 10
-1.145636986
 20
8.2832643012
 11
-0.6616810842
 21
8.5252422521
  0
LINE
  5
283
100
AcDbEntity
  8
COPY-PUBBLISH
100
AcDbLine
 62
7
  6
CONTINUOUS
 10
-0.6616810842
 20
7.901794028
 11
-0.8056911583
 21
7.8297889909
  0
LINE
  5
284
100
AcDbEntity
  8
COPY-PUBBLISH
100
AcDbLine
 62
7
  6
CONTINUOUS
 10
-0.8056911583
 20
7.0831988826
 11
-1.8640341412
 21
6.5540273912
  0
LINE
  5
285
100
AcDbEntity
  8
COPY-PUBBLISH
100
AcDbLine
 62
7
  6
CONTINUOUS
 10
26.9154833821
 20
20.9013275254
 11
26.2083766009
 21
20.5477741348
  0
LINE
  5
286
100
AcDbEntity
  8
ASSI
100
AcDbLine
 62
7
  6
CONTINUOUS
 10
-1.8640341412
 20
6.4964456359
 11
-0.8031024404
 21
7.0269114863
  0
LINE
  5
287
100
AcDbEntity
  8
RACCORDO
100
AcDbLine
 62
253
  6
CONTINUOUS
 10
25.5012698197
 20
-23.7013953193
 11
24.4079392818
 21
-23.1547300504
  0
LINE
  5
288
100
AcDbEntity
  8
RACCORDO
100
AcDbLine
 62
253
  6
CONTINUOUS
 10
7.7897050745
 20
-14.8456129467
 11
7.8562706562
 21
-14.8788957376
  0
LINE
  5
289
100
AcDbEntity
  8
RACCORDO
100
AcDbLine
 62
7
  6
CONTINUOUS
 10
8.8813902287
 20
-13.6753658199
 11
12.1313554863
 21
-15.3003484487
  0
LINE
  5
28A
100
AcDbEntity
  8
DRAFT
100
AcDbLine
 62
7
  6
CONTINUOUS
 10
6.5161070225
 20
-12.4924695993
 11
6.4543987486
 21
-12.4616154623
  0
LINE
  5
28B
100
AcDbEntity
  8
RACCORDO
100
AcDbLine
 62
253
  6
CONTINUOUS
 10
8.8635144246
 20
-13.5431497556
 11
12.2558258724
 21
-15.2393054795
  0
LINE
  5
28C
100
AcDbEntity
  8
RACCORDO
100
AcDbLine
 62
7
  6
CONTINUOUS
 10
7.2170429763
 20
-12.1660730685
 11
8.3099377439
 21
-12.7125204523
  0
LINE
  5
28D
100
AcDbEntity
  8
COPY-PUBBLISH
100
AcDbLine
 62
7
  6
CONTINUOUS
 10
-5.9521133068
 20
-25.8679377525
 11
-5.9521133068
 21
-26.6395880379
  0
LINE
  5
28E
100
AcDbEntity
  8
ASSI
100
AcDbLine
 62
7
  6
CONTINUOUS
 10
-5.8650012869
 20
-26.4546106717
 11
-5.8650012869
 21
-26.21701054
  0
LINE
  5
28F
100
AcDbEntity
  8
ASSI
100
AcDbLine
 62
7
  6
CONTINUOUS
 10
-5.8650012869
 20
-25.9204652552
 11
-5.8650012869
 21
-25.8243817425
  0
LINE
  5
290
100
AcDbEntity
  8
COPY-PUBBLISH
100
AcDbLine
 62
7
  6
CONTINUOUS
 10
-5.7235799306
 20
-26.5253213498
 11
-5.7235799306
 21
-26.2877212181
  0
LINE
  5
291
100
AcDbEntity
  8
COPY-PUBBLISH
100
AcDbLine
 62
7
  6
CONTINUOUS
 10
-5.7235799306
 20
-25.9911759333
 11
-5.7235799306
 21
-25.7536710644
  0
LINE
  5
292
100
AcDbEntity
  8
COPY-PUBBLISH
100
AcDbLine
 62
7
  6
CONTINUOUS
 10
-5.5570096146
 20
6.4795012428
 11
-5.5570096146
 21
5.2146675795
  0
LINE
  5
293
100
AcDbEntity
  8
ASSI
100
AcDbLine
 62
7
  6
CONTINUOUS
 10
-5.168100885
 20
5.5505459956
 11
-5.168100885
 21
6.6739556076
  0
LINE
  5
294
100
AcDbEntity
  8
COPY-PUBBLISH
100
AcDbLine
 62
7
  6
CONTINUOUS
 10
-5.0266795287
 20
5.4798353175
 11
-5.0266795287
 21
6.7446662857
  0
LINE
  5
295
100
AcDbEntity
  8
COPY-PUBBLISH
100
AcDbLine
 62
7
  6
CONTINUOUS
 10
-4.108843613
 20
-24.9372122369
 11
-4.108843613
 21
-25.1838077745
  0
LINE
  5
296
100
AcDbEntity
  8
COPY-PUBBLISH
100
AcDbLine
 62
7
  6
CONTINUOUS
 10
-4.108843613
 20
-25.4803530593
 11
-4.108843613
 21
-25.7270429936
  0
LINE
  5
297
100
AcDbEntity
  8
ASSI
100
AcDbLine
 62
7
  6
CONTINUOUS
 10
-4.0229817579
 20
-25.5426907099
 11
-4.0229817579
 21
-24.8942813094
  0
LINE
  5
298
100
AcDbEntity
  8
COPY-PUBBLISH
100
AcDbLine
 62
7
  6
CONTINUOUS
 10
-3.8815604017
 20
-25.613401388
 11
-3.8815604017
 21
-24.8235706313
  0
LINE
  5
299
100
AcDbEntity
  8
ASSI
100
AcDbLine
 62
7
  6
CONTINUOUS
 10
-1.3074030547
 20
8.3280624864
 11
-1.2870583423
 21
8.3539749793
  0
LINE
  5
29A
100
AcDbEntity
  8
COPY-PUBBLISH
100
AcDbLine
 62
7
  6
CONTINUOUS
 10
-1.8640341412
 20
7.3682618778
 11
-1.145636986
 21
8.2832643012
  0
LINE
  5
29B
100
AcDbEntity
  8
COPY-PUBBLISH
100
AcDbLine
 62
7
  6
CONTINUOUS
 10
-1.2862437553
 20
8.3114496556
 11
-1.8640341412
 21
7.600015472
  0
LINE
  5
29C
100
AcDbEntity
  8
COPY-PUBBLISH
100
AcDbLine
 62
7
  6
CONTINUOUS
 10
-0.6616810842
 20
6.7737517723
 11
-1.8640341412
 21
5.6392438912
  0
LINE
  5
29D
100
AcDbEntity
  8
ASSI
100
AcDbLine
 62
7
  6
CONTINUOUS
 10
-1.1530637286
 20
6.3064049859
 11
-0.8031024404
 21
6.6270000074
  0
LINE
  5
29E
100
AcDbEntity
  8
COPY-PUBBLISH
100
AcDbLine
 62
7
  6
CONTINUOUS
 10
-1.0116423723
 20
6.2356943078
 11
-0.6616810842
 21
6.5562893293
  0
LINE
  5
29F
100
AcDbEntity
  8
COPY-PUBBLISH
100
AcDbLine
 62
7
  6
CONTINUOUS
 10
-1.6896347389
 20
5.6054936184
 11
-1.1556524465
 21
6.0918888365
  0
LINE
  5
2A0
100
AcDbEntity
  8
COPY-PUBBLISH
100
AcDbLine
 62
7
  6
CONTINUOUS
 10
7.5817121884
 20
10.2574777813
 11
7.3656154885
 21
10.1475269816
  0
LINE
  5
2A1
100
AcDbEntity
  8
COPY-PUBBLISH
100
AcDbLine
 62
7
  6
CONTINUOUS
 10
-1.8640341412
 20
6.3550242797
 11
-0.6616810842
 21
6.9562008082
  0
LINE
  5
2A2
100
AcDbEntity
  8
COPY-PUBBLISH
100
AcDbLine
 62
7
  6
CONTINUOUS
 10
14.8946681019
 20
14.7177148045
 11
7.1164935089
 21
10.828627508
  0
LINE
  5
2A3
100
AcDbEntity
  8
COPY-PUBBLISH
100
AcDbLine
 62
7
  6
CONTINUOUS
 10
27.1766809237
 20
19.6462856501
 11
29.7439105068
 21
20.9299004417
  0
LINE
  5
2A4
100
AcDbEntity
  8
COPY-PUBBLISH
100
AcDbLine
 62
7
  6
CONTINUOUS
 10
-3.490110358
 20
4.0617443742
 11
-4.0210181224
 21
3.796290492
  0
LINE
  5
2A5
100
AcDbEntity
  8
COPY-PUBBLISH
100
AcDbLine
 62
7
  6
CONTINUOUS
 10
-6.5626710209
 20
2.5254640428
 11
-7.0935787853
 21
2.2600101606
  0
LINE
  5
2A6
100
AcDbEntity
  8
COPY-PUBBLISH
100
AcDbLine
 62
7
  6
CONTINUOUS
 10
-1.720024067
 20
4.8744475517
 11
-1.8640341412
 21
4.8024425146
  0
LINE
  5
2A7
100
AcDbEntity
  8
COPY-PUBBLISH
100
AcDbLine
 62
7
  6
CONTINUOUS
 10
-0.6616810842
 20
4.9052170931
 11
-1.720024067
 21
4.3760456017
  0
LINE
  5
2A8
100
AcDbEntity
  8
ASSI
100
AcDbLine
 62
7
  6
CONTINUOUS
 10
-1.8614454233
 20
4.2478371728
 11
-0.8031024404
 21
4.7770086642
  0
LINE
  5
2A9
100
AcDbEntity
  8
ASSI
100
AcDbLine
 62
7
  6
CONTINUOUS
 10
11.8216859756
 20
11.0559535743
 11
11.9631080389
 21
11.1266638989
  0
LINE
  5
2AA
100
AcDbEntity
  8
COPY-PUBBLISH
100
AcDbLine
 62
7
  6
CONTINUOUS
 10
-1.720024067
 20
4.1771264947
 11
-0.6616810842
 21
4.7062979861
  0
LINE
  5
2AB
100
AcDbEntity
  8
COPY-PUBBLISH
100
AcDbLine
 62
7
  6
CONTINUOUS
 10
-1.8640341412
 20
3.6067203736
 11
-1.720024067
 21
3.6787254107
  0
LINE
  5
2AC
100
AcDbEntity
  8
COPY-PUBBLISH
100
AcDbLine
 62
7
  6
CONTINUOUS
 10
-0.6616810842
 20
3.994590515
 11
-1.8640341412
 21
3.3934139865
  0
LINE
  5
2AD
100
AcDbEntity
  8
ASSI
100
AcDbLine
 62
7
  6
CONTINUOUS
 10
-1.8640341412
 20
3.3358434896
 11
-0.8031024404
 21
3.86630934
  0
LINE
  5
2AE
100
AcDbEntity
  8
COPY-PUBBLISH
100
AcDbLine
 62
7
  6
CONTINUOUS
 10
-1.8640341412
 20
3.1944221333
 11
-0.6616810842
 21
3.7955986618
  0
LINE
  5
2AF
100
AcDbEntity
  8
COPY-PUBBLISH
100
AcDbLine
 62
7
  6
CONTINUOUS
 10
-0.6616810842
 20
-4.5499685911
 11
-1.6698491841
 21
-4.6397270353
  0
LINE
  5
2B0
100
AcDbEntity
  8
COPY-PUBBLISH
100
AcDbLine
 62
7
  6
CONTINUOUS
 10
-1.8640341412
 20
-4.8291326257
 11
-0.842613446
 21
-4.7409075752
  0
LINE
  5
2B1
100
AcDbEntity
  8
ASSI
100
AcDbLine
 62
7
  6
CONTINUOUS
 10
-1.8711438123
 20
-4.7468207971
 11
-0.9840348023
 21
-4.6701968971
  0
LINE
  5
2B2
100
AcDbEntity
  8
COPY-PUBBLISH
100
AcDbLine
 62
7
  6
CONTINUOUS
 10
-0.6616810842
 20
-3.5654475293
 11
-1.0116423723
 21
-3.5865848226
  0
LINE
  5
2B3
100
AcDbEntity
  8
COPY-PUBBLISH
100
AcDbLine
 62
7
  6
CONTINUOUS
 10
-1.1556524465
 20
-3.5970431663
 11
-1.6896347389
 21
-3.6260513976
  0
LINE
  5
2B4
100
AcDbEntity
  8
COPY-PUBBLISH
100
AcDbLine
 62
7
  6
CONTINUOUS
 10
-1.8640341412
 20
-3.8179691585
 11
-0.6616810842
 21
-3.770524077
  0
LINE
  5
2B5
100
AcDbEntity
  8
ASSI
100
AcDbLine
 62
7
  6
CONTINUOUS
 10
-1.8670399259
 20
-3.7417965755
 11
-0.8031024404
 21
-3.6998133989
  0
LINE
  5
2B6
100
AcDbEntity
  8
COPY-PUBBLISH
100
AcDbLine
 62
7
  6
CONTINUOUS
 10
-1.6698491841
 20
-5.6693247192
 11
-1.7919704979
 21
-5.6082640623
  0
LINE
  5
2B7
100
AcDbEntity
  8
COPY-PUBBLISH
100
AcDbLine
 62
7
  6
CONTINUOUS
 10
-0.6616810842
 20
-5.3580205223
 11
-0.8031024404
 21
-5.2873098441
  0
LINE
  5
2B8
100
AcDbEntity
  8
COPY-PUBBLISH
100
AcDbLine
 62
7
  6
CONTINUOUS
 10
-1.6698491841
 20
-4.6397270353
 11
-1.8112705403
 21
-4.5690163571
  0
LINE
  5
2B9
100
AcDbEntity
  8
COPY-PUBBLISH
100
AcDbLine
 62
7
  6
CONTINUOUS
 10
-0.842613446
 20
-4.7409075752
 11
-0.9840348023
 21
-4.6701968971
  0
LINE
  5
2BA
100
AcDbEntity
  8
COPY-PUBBLISH
100
AcDbLine
 62
7
  6
CONTINUOUS
 10
-0.6616810842
 20
-4.7509141975
 11
-0.8031024404
 21
-4.6802035194
  0
LINE
  5
2BB
100
AcDbEntity
  8
COPY-PUBBLISH
100
AcDbLine
 62
7
  6
CONTINUOUS
 10
-1.6896347389
 20
-3.6260513976
 11
-1.8310560951
 21
-3.5553407195
  0
LINE
  5
2BC
100
AcDbEntity
  8
COPY-PUBBLISH
100
AcDbLine
 62
7
  6
CONTINUOUS
 10
-0.6616810842
 20
-4.1356429853
 11
-0.8031024404
 21
-4.0649323072
  0
LINE
  5
2BD
100
AcDbEntity
  8
COPY-PUBBLISH
100
AcDbLine
 62
7
  6
CONTINUOUS
 10
-0.6616810842
 20
-3.770524077
 11
-0.8031024404
 21
-3.6998133989
  0
LINE
  5
2BE
100
AcDbEntity
  8
COPY-PUBBLISH
100
AcDbLine
 62
7
  6
CONTINUOUS
 10
-1.0116423723
 20
-3.5865848226
 11
-1.1530637286
 21
-3.5158741445
  0
LINE
  5
2BF
100
AcDbEntity
  8
COPY-PUBBLISH
100
AcDbLine
 62
7
  6
CONTINUOUS
 10
-1.1556524465
 20
-3.1396691698
 11
-1.2970738027
 21
-3.0689584917
  0
LINE
  5
2C0
100
AcDbEntity
  8
COPY-PUBBLISH
100
AcDbLine
 62
7
  6
CONTINUOUS
 10
-1.0116423723
 20
-2.9959347126
 11
-1.1530637286
 21
-2.9252240345
  0
LINE
  5
2C1
100
AcDbEntity
  8
COPY-PUBBLISH
100
AcDbLine
 62
7
  6
CONTINUOUS
 10
-1.7250805876
 20
-2.5978468629
 11
-1.8665019439
 21
-2.5271361848
  0
LINE
  5
2C2
100
AcDbEntity
  8
COPY-PUBBLISH
100
AcDbLine
 62
253
  6
CONTINUOUS
 10
14.8946681019
 20
-15.2467641664
 11
13.7087751531
 21
-14.5267477304
  0
LINE
  5
2C3
100
AcDbEntity
  8
COPY-PUBBLISH
100
AcDbLine
 62
7
  6
CONTINUOUS
 10
-1.8640341412
 20
8.6788718149
 11
-1.8640341412
 21
8.4449748078
  0
LINE
  5
2C4
100
AcDbEntity
  8
COPY-PUBBLISH
100
AcDbLine
 62
7
  6
CONTINUOUS
 10
-1.8640341412
 20
7.600015472
 11
-1.8640341412
 21
7.3682618778
  0
LINE
  5
2C5
100
AcDbEntity
  8
COPY-PUBBLISH
100
AcDbLine
 62
7
  6
CONTINUOUS
 10
-1.8640341412
 20
6.5540273912
 11
-1.8640341412
 21
6.3550242797
  0
LINE
  5
2C6
100
AcDbEntity
  8
COPY-PUBBLISH
100
AcDbLine
 62
7
  6
CONTINUOUS
 10
-1.8640341412
 20
5.6392438912
 11
-1.8640341412
 21
5.4136711203
  0
LINE
  5
2C7
100
AcDbEntity
  8
COPY-PUBBLISH
100
AcDbLine
 62
7
  6
CONTINUOUS
 10
-1.8640341412
 20
4.8024425146
 11
-1.8640341412
 21
3.6067203736
  0
LINE
  5
2C8
100
AcDbEntity
  8
COPY-PUBBLISH
100
AcDbLine
 62
7
  6
CONTINUOUS
 10
-1.8640341412
 20
3.3934139865
 11
-1.8640341412
 21
3.1944221333
  0
LINE
  5
2C9
100
AcDbEntity
  8
COPY-PUBBLISH
100
AcDbLine
 62
7
  6
CONTINUOUS
 10
-1.8640341412
 20
2.2817707878
 11
-1.8640341412
 21
2.088996131
  0
LINE
  5
2CA
100
AcDbEntity
  8
COPY-PUBBLISH
100
AcDbLine
 62
7
  6
CONTINUOUS
 10
-1.8640341412
 20
1.3485400807
 11
-1.8640341412
 21
1.1126295645
  0
LINE
  5
2CB
100
AcDbEntity
  8
COPY-PUBBLISH
100
AcDbLine
 62
7
  6
CONTINUOUS
 10
-1.8640341412
 20
0.7722166289
 11
-1.8640341412
 21
0.5732845315
  0
LINE
  5
2CC
100
AcDbEntity
  8
COPY-PUBBLISH
100
AcDbLine
 62
7
  6
CONTINUOUS
 10
-1.8640341412
 20
-0.3025321555
 11
-1.8640341412
 21
-1.3752319238
  0
LINE
  5
2CD
100
AcDbEntity
  8
COPY-PUBBLISH
100
AcDbLine
 62
7
  6
CONTINUOUS
 10
-1.8640341412
 20
-2.1657863126
 11
-1.8640341412
 21
-2.8663267512
  0
LINE
  5
2CE
100
AcDbEntity
  8
COPY-PUBBLISH
100
AcDbLine
 62
7
  6
CONTINUOUS
 10
-1.8640341412
 20
-3.5923253735
 11
-1.8640341412
 21
-3.8179691585
  0
LINE
  5
2CF
100
AcDbEntity
  8
COPY-PUBBLISH
100
AcDbLine
 62
7
  6
CONTINUOUS
 10
-1.8640341412
 20
-4.5440396609
 11
-1.8640341412
 21
-4.8291326257
  0
LINE
  5
2D0
100
AcDbEntity
  8
COPY-PUBBLISH
100
AcDbLine
 62
7
  6
CONTINUOUS
 10
-1.8640341412
 20
-5.6741032199
 11
-1.8640341412
 21
-5.9591970508
  0
LINE
  5
2D1
100
AcDbEntity
  8
COPY-PUBBLISH
100
AcDbLine
 62
7
  6
CONTINUOUS
 10
-1.7250805876
 20
-2.5978468629
 11
-1.7250805876
 21
-2.2161071951
  0
LINE
  5
2D2
100
AcDbEntity
  8
COPY-PUBBLISH
100
AcDbLine
 62
7
  6
CONTINUOUS
 10
-1.720024067
 20
-1.1042358996
 11
-1.720024067
 21
-0.2305271184
  0
LINE
  5
2D3
100
AcDbEntity
  8
COPY-PUBBLISH
100
AcDbLine
 62
7
  6
CONTINUOUS
 10
-1.720024067
 20
3.6787254107
 11
-1.720024067
 21
4.1771264947
  0
LINE
  5
2D4
100
AcDbEntity
  8
COPY-PUBBLISH
100
AcDbLine
 62
7
  6
CONTINUOUS
 10
-1.720024067
 20
4.3760456017
 11
-1.720024067
 21
4.8744475517
  0
LINE
  5
2D5
100
AcDbEntity
  8
COPY-PUBBLISH
100
AcDbLine
 62
7
  6
CONTINUOUS
 10
-1.3515874929
 20
-0.1139887167
 11
-1.3515874929
 21
-0.9200176125
  0
LINE
  5
2D6
100
AcDbEntity
  8
COPY-PUBBLISH
100
AcDbLine
 62
7
  6
CONTINUOUS
 10
-1.2075774188
 20
-0.8480125754
 11
-1.2075774188
 21
-0.0419836796
  0
LINE
  5
2D7
100
AcDbEntity
  8
COPY-PUBBLISH
100
AcDbLine
 62
7
  6
CONTINUOUS
 10
-1.1556524465
 20
6.0918888365
 11
-1.1556524465
 21
5.63451484
  0
LINE
  5
2D8
100
AcDbEntity
  8
COPY-PUBBLISH
100
AcDbLine
 62
7
  6
CONTINUOUS
 10
-1.1556524465
 20
-3.1396691698
 11
-1.1556524465
 21
-3.5970431663
  0
LINE
  5
2D9
100
AcDbEntity
  8
ASSI
100
AcDbLine
 62
7
  6
CONTINUOUS
 10
-1.1530637286
 20
-3.1396691698
 11
-1.1530637286
 21
-2.9252240345
  0
LINE
  5
2DA
100
AcDbEntity
  8
ASSI
100
AcDbLine
 62
7
  6
CONTINUOUS
 10
-1.1530637286
 20
6.0918888365
 11
-1.1530637286
 21
6.3064049859
  0
LINE
  5
2DB
100
AcDbEntity
  8
COPY-PUBBLISH
100
AcDbLine
 62
7
  6
CONTINUOUS
 10
-1.0116423723
 20
-3.5865848226
 11
-1.0116423723
 21
-2.9959347126
  0
LINE
  5
2DC
100
AcDbEntity
  8
COPY-PUBBLISH
100
AcDbLine
 62
7
  6
CONTINUOUS
 10
-1.0116423723
 20
5.6449844421
 11
-1.0116423723
 21
6.2356943078
  0
LINE
  5
2DD
100
AcDbEntity
  8
COPY-PUBBLISH
100
AcDbLine
 62
7
  6
CONTINUOUS
 10
-0.8056911583
 20
7.8297889909
 11
-0.8056911583
 21
7.0831988826
  0
LINE
  5
2DE
100
AcDbEntity
  8
COPY-PUBBLISH
100
AcDbLine
 62
7
  6
CONTINUOUS
 10
-0.8056911583
 20
0.2410136256
 11
-0.8056911583
 21
-0.6470694452
  0
LINE
  5
2DF
100
AcDbEntity
  8
ASSI
100
AcDbLine
 62
7
  6
CONTINUOUS
 10
-0.8031024404
 20
-5.2873098441
 11
-0.8031024404
 21
-5.2359513474
  0
LINE
  5
2E0
100
AcDbEntity
  8
ASSI
100
AcDbLine
 62
7
  6
CONTINUOUS
 10
-0.8031024404
 20
-4.6802035194
 11
-0.8031024404
 21
-4.5625595081
  0
LINE
  5
2E1
100
AcDbEntity
  8
ASSI
100
AcDbLine
 62
7
  6
CONTINUOUS
 10
-0.8031024404
 20
-4.0649323072
 11
-0.8031024404
 21
-4.0135738105
  0
LINE
  5
2E2
100
AcDbEntity
  8
ASSI
100
AcDbLine
 62
7
  6
CONTINUOUS
 10
-0.8031024404
 20
-3.6998133989
 11
-0.8031024404
 21
-3.5739892303
  0
LINE
  5
2E3
100
AcDbEntity
  8
ASSI
100
AcDbLine
 62
7
  6
CONTINUOUS
 10
-0.8031024404
 20
-2.1944395446
 11
-0.8031024404
 21
-2.135623888
  0
LINE
  5
2E4
100
AcDbEntity
  8
ASSI
100
AcDbLine
 62
7
  6
CONTINUOUS
 10
-0.8031024404
 20
-1.7067440925
 11
-0.8031024404
 21
-1.5884400004
  0
LINE
  5
2E5
100
AcDbEntity
  8
ASSI
100
AcDbLine
 62
7
  6
CONTINUOUS
 10
-0.8031024404
 20
-0.7033447172
 11
-0.8031024404
 21
-0.6470694452
  0
LINE
  5
2E6
100
AcDbEntity
  8
ASSI
100
AcDbLine
 62
7
  6
CONTINUOUS
 10
-0.8031024404
 20
1.2451717381
 11
-0.8031024404
 21
1.3026824793
  0
LINE
  5
2E7
100
AcDbEntity
  8
ASSI
100
AcDbLine
 62
7
  6
CONTINUOUS
 10
-0.8031024404
 20
1.7845167711
 11
-0.8031024404
 21
1.8359653345
  0
LINE
  5
2E8
100
AcDbEntity
  8
ASSI
100
AcDbLine
 62
7
  6
CONTINUOUS
 10
-0.8031024404
 20
2.730109991
 11
-0.8031024404
 21
2.8122366382
  0
LINE
  5
2E9
100
AcDbEntity
  8
ASSI
100
AcDbLine
 62
7
  6
CONTINUOUS
 10
-0.8031024404
 20
3.86630934
 11
-0.8031024404
 21
3.9238798369
  0
LINE
  5
2EA
100
AcDbEntity
  8
ASSI
100
AcDbLine
 62
7
  6
CONTINUOUS
 10
-0.8031024404
 20
4.7770086642
 11
-0.8031024404
 21
4.834506415
  0
LINE
  5
2EB
100
AcDbEntity
  8
ASSI
100
AcDbLine
 62
7
  6
CONTINUOUS
 10
-0.8031024404
 20
5.5317558658
 11
-0.8031024404
 21
5.6575728095
  0
LINE
  5
2EC
100
AcDbEntity
  8
ASSI
100
AcDbLine
 62
7
  6
CONTINUOUS
 10
-0.8031024404
 20
7.0269114863
 11
-0.8031024404
 21
7.0831988826
  0
LINE
  5
2ED
100
AcDbEntity
  8
ASSI
100
AcDbLine
 62
7
  6
CONTINUOUS
 10
-0.8031024404
 20
8.5959529302
 11
-0.8031024404
 21
8.653415174
  0
LINE
  5
2EE
100
AcDbEntity
  8
COPY-PUBBLISH
100
AcDbLine
 62
7
  6
CONTINUOUS
 10
-0.8006346378
 20
-1.7538842201
 11
-0.8006346378
 21
-2.135623888
  0
LINE
  5
2EF
100
AcDbEntity
  8
COPY-PUBBLISH
100
AcDbLine
 62
7
  6
CONTINUOUS
 10
-0.6616810842
 20
-5.3580205223
 11
-0.6616810842
 21
-5.1652406693
  0
LINE
  5
2F0
100
AcDbEntity
  8
COPY-PUBBLISH
100
AcDbLine
 62
7
  6
CONTINUOUS
 10
-0.6616810842
 20
-4.7509141975
 11
-0.6616810842
 21
-4.5499685911
  0
LINE
  5
2F1
100
AcDbEntity
  8
COPY-PUBBLISH
100
AcDbLine
 62
7
  6
CONTINUOUS
 10
-0.6616810842
 20
-4.1356429853
 11
-0.6616810842
 21
-3.9428631324
  0
LINE
  5
2F2
100
AcDbEntity
  8
COPY-PUBBLISH
100
AcDbLine
 62
7
  6
CONTINUOUS
 10
-0.6616810842
 20
-3.770524077
 11
-0.6616810842
 21
-3.5654475293
  0
LINE
  5
2F3
100
AcDbEntity
  8
COPY-PUBBLISH
100
AcDbLine
 62
7
  6
CONTINUOUS
 10
-0.6616810842
 20
-2.6753518155
 11
-0.6616810842
 21
-2.4579248795
  0
LINE
  5
2F4
100
AcDbEntity
  8
COPY-PUBBLISH
100
AcDbLine
 62
7
  6
CONTINUOUS
 10
-0.6616810842
 20
-2.2651502227
 11
-0.6616810842
 21
-1.6591506785
  0
LINE
  5
2F5
100
AcDbEntity
  8
COPY-PUBBLISH
100
AcDbLine
 62
7
  6
CONTINUOUS
 10
-0.6616810842
 20
-0.7740553953
 11
-0.6616810842
 21
0.3130186627
  0
LINE
  5
2F6
100
AcDbEntity
  8
COPY-PUBBLISH
100
AcDbLine
 62
7
  6
CONTINUOUS
 10
-0.6616810842
 20
1.17446106
 11
-0.6616810842
 21
1.3733931574
  0
LINE
  5
2F7
100
AcDbEntity
  8
COPY-PUBBLISH
100
AcDbLine
 62
7
  6
CONTINUOUS
 10
-0.6616810842
 20
1.713806093
 11
-0.6616810842
 21
1.9066760126
  0
LINE
  5
2F8
100
AcDbEntity
  8
COPY-PUBBLISH
100
AcDbLine
 62
7
  6
CONTINUOUS
 10
-0.6616810842
 20
2.6593993128
 11
-0.6616810842
 21
2.8829473163
  0
LINE
  5
2F9
100
AcDbEntity
  8
COPY-PUBBLISH
100
AcDbLine
 62
7
  6
CONTINUOUS
 10
-0.6616810842
 20
3.7955986618
 11
-0.6616810842
 21
3.994590515
  0
LINE
  5
2FA
100
AcDbEntity
  8
COPY-PUBBLISH
100
AcDbLine
 62
7
  6
CONTINUOUS
 10
-0.6616810842
 20
4.7062979861
 11
-0.6616810842
 21
4.9052170931
  0
LINE
  5
2FB
100
AcDbEntity
  8
COPY-PUBBLISH
100
AcDbLine
 62
7
  6
CONTINUOUS
 10
-0.6616810842
 20
5.4610451877
 11
-0.6616810842
 21
5.666109611
  0
LINE
  5
2FC
100
AcDbEntity
  8
COPY-PUBBLISH
100
AcDbLine
 62
7
  6
CONTINUOUS
 10
-0.6616810842
 20
6.5562893293
 11
-0.6616810842
 21
6.7737517723
  0
LINE
  5
2FD
100
AcDbEntity
  8
COPY-PUBBLISH
100
AcDbLine
 62
7
  6
CONTINUOUS
 10
-0.6616810842
 20
6.9562008082
 11
-0.6616810842
 21
7.901794028
  0
LINE
  5
2FE
100
AcDbEntity
  8
COPY-PUBBLISH
100
AcDbLine
 62
7
  6
CONTINUOUS
 10
-0.6616810842
 20
8.5252422521
 11
-0.6616810842
 21
8.7241258521
  0
LINE
  5
2FF
100
AcDbEntity
  8
RACCORDO
100
AcDbLine
 62
7
  6
CONTINUOUS
 10
0.045425697
 20
-40.5535396382
 11
0.045425697
 21
-43.2407590275
  0
LINE
  5
300
100
AcDbEntity
  8
0
100
AcDbLine
 62
7
  6
CONTINUOUS
 10
-17.9857972233
 20
-26.0342371791
 11
-17.3494011202
 21
-24.9366162642
  0
LINE
  5
301
100
AcDbEntity
  8
ASSI
100
AcDbLine
 62
7
  6
CONTINUOUS
 10
-0.9095806258
 20
2.5947896907
 11
-0.8031024404
 21
2.730109991
  0
LINE
  5
302
100
AcDbEntity
  8
COPY-PUBBLISH
100
AcDbLine
 62
7
  6
CONTINUOUS
 10
-1.638136152
 20
1.4184484787
 11
-0.6616810842
 21
2.6593993128
  0
LINE
  5
303
100
AcDbEntity
  8
COPY-PUBBLISH
100
AcDbLine
 62
7
  6
CONTINUOUS
 10
-0.8873817906
 20
2.5773223063
 11
-1.8640341412
 21
1.3485400807
  0
LINE
  5
304
100
AcDbEntity
  8
SMUSSO
100
AcDbLine
 62
7
  6
CONTINUOUS
 10
-21.8009081399
 20
-22.639697144
 11
-21.6981078245
 21
-22.5140612157
  0
LINE
  5
305
100
AcDbEntity
  8
COPY-PUBBLISH
100
AcDbLine
 62
7
  6
CONTINUOUS
 10
-0.6616810842
 20
2.8829473163
 11
-1.8640341412
 21
2.2817707878
  0
LINE
  5
306
100
AcDbEntity
  8
ASSI
100
AcDbLine
 62
7
  6
CONTINUOUS
 10
-1.8640341412
 20
2.2304174873
 11
-1.0288031468
 21
2.6480329845
  0
LINE
  5
307
100
AcDbEntity
  8
COPY-PUBBLISH
100
AcDbLine
 62
7
  6
CONTINUOUS
 10
-1.8640341412
 20
2.088996131
 11
-0.8873817906
 21
2.5773223063
  0
LINE
  5
308
100
AcDbEntity
  8
0
100
AcDbLine
 62
7
  6
CONTINUOUS
 10
17.8146740401
 20
11.1975008606
 11
17.9560953963
 21
11.2682115388
  0
LINE
  5
309
100
AcDbEntity
  8
COPY-PUBBLISH
100
AcDbLine
 62
7
  6
CONTINUOUS
 10
-0.6616810842
 20
1.9066760126
 11
-1.638136152
 21
1.4184484787
  0
LINE
  5
30A
100
AcDbEntity
  8
ASSI
100
AcDbLine
 62
7
  6
CONTINUOUS
 10
-1.8640341412
 20
1.2540509208
 11
-0.8031024404
 21
1.7845167711
  0
LINE
  5
30B
100
AcDbEntity
  8
COPY-PUBBLISH
100
AcDbLine
 62
7
  6
CONTINUOUS
 10
-1.8640341412
 20
1.1126295645
 11
-0.6616810842
 21
1.713806093
  0
LINE
  5
30C
100
AcDbEntity
  8
COPY-PUBBLISH
100
AcDbLine
 62
7
  6
CONTINUOUS
 10
-0.6616810842
 20
1.3733931574
 11
-1.8640341412
 21
0.7722166289
  0
LINE
  5
30D
100
AcDbEntity
  8
ASSI
100
AcDbLine
 62
7
  6
CONTINUOUS
 10
-1.8640341412
 20
0.7147058877
 11
-0.8031024404
 21
1.2451717381
  0
LINE
  5
30E
100
AcDbEntity
  8
COPY-PUBBLISH
100
AcDbLine
 62
7
  6
CONTINUOUS
 10
-1.8640341412
 20
0.5732845315
 11
-0.6616810842
 21
1.17446106
  0
LINE
  5
30F
100
AcDbEntity
  8
0
100
AcDbLine
 62
7
  6
CONTINUOUS
 10
17.6433703513
 20
9.9406193395
 11
17.7847917075
 21
10.0113300176
  0
LINE
  5
310
100
AcDbEntity
  8
0
100
AcDbLine
 62
7
  6
CONTINUOUS
 10
18.2720349488
 20
9.8670706818
 11
18.4134563051
 21
9.9377813599
  0
LINE
  5
311
100
AcDbEntity
  8
COPY-PUBBLISH
100
AcDbLine
 62
7
  6
CONTINUOUS
 10
-0.6616810842
 20
0.3130186627
 11
-0.8056911583
 21
0.2410136256
  0
LINE
  5
312
100
AcDbEntity
  8
COPY-PUBBLISH
100
AcDbLine
 62
7
  6
CONTINUOUS
 10
-1.720024067
 20
-0.2305271184
 11
-1.8640341412
 21
-0.3025321555
  0
LINE
  5
313
100
AcDbEntity
  8
0
100
AcDbLine
 62
7
  6
CONTINUOUS
 10
18.1827811025
 20
9.6709139639
 11
18.3242024587
 21
9.741624642
  0
LINE
  5
314
100
AcDbEntity
  8
COPY-PUBBLISH
100
AcDbLine
 62
7
  6
CONTINUOUS
 10
-1.2075774188
 20
-0.0419836796
 11
-1.3515874929
 21
-0.1139887167
  0
LINE
  5
315
100
AcDbEntity
  8
COPY-PUBBLISH
100
AcDbLine
 62
7
  6
CONTINUOUS
 10
-0.8056911583
 20
-0.6470694452
 11
-1.2075774188
 21
-0.8480125754
  0
LINE
  5
316
100
AcDbEntity
  8
COPY-PUBBLISH
100
AcDbLine
 62
7
  6
CONTINUOUS
 10
-1.3515874929
 20
-0.9200176125
 11
-1.720024067
 21
-1.1042358996
  0
LINE
  5
317
100
AcDbEntity
  8
ASSI
100
AcDbLine
 62
7
  6
CONTINUOUS
 10
-1.8640341412
 20
-1.2338105676
 11
-0.8031024404
 21
-0.7033447172
  0
LINE
  5
318
100
AcDbEntity
  8
COPY-PUBBLISH
100
AcDbLine
 62
7
  6
CONTINUOUS
 10
-1.8640341412
 20
-1.3752319238
 11
-0.6616810842
 21
-0.7740553953
  0
LINE
  5
319
100
AcDbEntity
  8
COPY-PUBBLISH
100
AcDbLine
 62
7
  6
CONTINUOUS
 10
27.9761435539
 20
-7.4935908751
 11
29.7439105068
 21
-7.8597073987
  0
LINE
  5
31A
100
AcDbEntity
  8
DRAFT
100
AcDbLine
 62
7
  6
CONTINUOUS
 10
26.9044109118
 20
-6.9577245541
 11
28.6876049333
 21
-7.3315546119
  0
LINE
  5
31B
100
AcDbEntity
  8
COPY-PUBBLISH
100
AcDbLine
 62
7
  6
CONTINUOUS
 10
-0.8837476912
 20
-1.2674851895
 11
-0.8412040845
 21
-1.2847076123
  0
LINE
  5
31C
100
AcDbEntity
  8
COPY-PUBBLISH
100
AcDbLine
 62
253
  6
CONTINUOUS
 10
-1.7250805876
 20
-2.2161071951
 11
-1.8563717835
 21
-2.1504615972
  0
LINE
  5
31D
100
AcDbEntity
  8
COPY-PUBBLISH
100
AcDbLine
 62
7
  6
CONTINUOUS
 10
-0.6616810842
 20
-2.6753518155
 11
-0.8031024404
 21
-2.6046411374
  0
LINE
  5
31E
100
AcDbEntity
  8
COPY-PUBBLISH
100
AcDbLine
 62
7
  6
CONTINUOUS
 10
-1.6597680858
 20
-1.9357866055
 11
-1.7775613823
 21
-1.8768912708
  0
LINE
  5
31F
100
AcDbEntity
  8
COPY-PUBBLISH
100
AcDbLine
 62
7
  6
CONTINUOUS
 10
-0.6616810842
 20
-2.2651502227
 11
-0.8031024404
 21
-2.1944395446
  0
LINE
  5
320
100
AcDbEntity
  8
COPY-PUBBLISH
100
AcDbLine
 62
7
  6
CONTINUOUS
 10
-1.4962520182
 20
-1.7144495471
 11
-1.6376736978
 21
-1.643739159
  0
LINE
  5
321
100
AcDbEntity
  8
COPY-PUBBLISH
100
AcDbLine
 62
253
  6
CONTINUOUS
 10
-1.2713860276
 20
-1.5585049414
 11
-1.4128073838
 21
-1.4877942633
  0
LINE
  5
322
100
AcDbEntity
  8
COPY-PUBBLISH
100
AcDbLine
 62
253
  6
CONTINUOUS
 10
-1.2543291978
 20
-1.5499765265
 11
-1.395750554
 21
-1.4792658484
  0
LINE
  5
323
100
AcDbEntity
  8
COPY-PUBBLISH
100
AcDbLine
 62
7
  6
CONTINUOUS
 10
-1.0294189872
 20
-1.4808659147
 11
-1.170840577
 21
-1.4101552606
  0
LINE
  5
324
100
AcDbEntity
  8
COPY-PUBBLISH
100
AcDbLine
 62
253
  6
CONTINUOUS
 10
-0.6616810842
 20
-1.6591506785
 11
-0.8031024404
 21
-1.5884400004
  0
LINE
  5
325
100
AcDbEntity
  8
COPY-PUBBLISH
100
AcDbLine
 62
7
  6
CONTINUOUS
 10
-1.720024067
 20
-1.1042358996
 11
-1.8614454233
 21
-1.0335252215
  0
LINE
  5
326
100
AcDbEntity
  8
ASSI
100
AcDbLine
 62
7
  6
CONTINUOUS
 10
-1.0600626828
 20
-1.4287195451
 11
-0.9186413266
 21
-1.4994302232
  0
LINE
  5
327
100
AcDbEntity
  8
COPY-PUBBLISH
100
AcDbLine
 62
7
  6
CONTINUOUS
 10
-1.2075774188
 20
-0.8480125754
 11
-1.348998775
 21
-0.7773018973
  0
LINE
  5
328
100
AcDbEntity
  8
COPY-PUBBLISH
100
AcDbLine
 62
7
  6
CONTINUOUS
 10
-0.6616810842
 20
-0.7740553953
 11
-0.8031024404
 21
-0.7033447172
  0
LINE
  5
329
100
AcDbEntity
  8
COPY-PUBBLISH
100
AcDbLine
 62
253
  6
CONTINUOUS
 10
-11.3730893022
 20
4.813876306
 11
-12.3807595541
 21
5.3177114319
  0
LINE
  5
32A
100
AcDbEntity
  8
COPY-PUBBLISH
100
AcDbLine
 62
253
  6
CONTINUOUS
 10
-28.2958830034
 20
13.2752731566
 11
-29.3035532553
 21
13.7791082825
  0
LINE
  5
32B
100
AcDbEntity
  8
COPY-PUBBLISH
100
AcDbLine
 62
7
  6
CONTINUOUS
 10
2.1667460406
 20
2.2915759474
 11
2.1667460406
 21
-15.5485473706
  0
LINE
  5
32C
100
AcDbEntity
  8
DRAFT
100
AcDbLine
 62
7
  6
CONTINUOUS
 10
3.8936558702
 20
-17.1775412291
 11
3.8936558702
 21
-18.8334316028
  0
LINE
  5
32D
100
AcDbEntity
  8
0
100
AcDbLine
 62
7
  6
CONTINUOUS
 10
-13.6677218355
 20
-27.8681386912
 11
-13.1774711112
 21
-27.0225812687
  0
LINE
  5
32E
100
AcDbEntity
  8
COPY-PUBBLISH
100
AcDbLine
 62
7
  6
CONTINUOUS
 10
-0.6616810842
 20
-2.4579248795
 11
-1.8640341412
 21
-3.5923253735
  0
LINE
  5
32F
100
AcDbEntity
  8
ASSI
100
AcDbLine
 62
7
  6
CONTINUOUS
 10
-1.1530637286
 20
-2.9252240345
 11
-0.8031024404
 21
-2.6046411374
  0
LINE
  5
330
100
AcDbEntity
  8
COPY-PUBBLISH
100
AcDbLine
 62
7
  6
CONTINUOUS
 10
-1.0116423723
 20
-2.9959347126
 11
-0.6616810842
 21
-2.6753518155
  0
LINE
  5
331
100
AcDbEntity
  8
COPY-PUBBLISH
100
AcDbLine
 62
7
  6
CONTINUOUS
 10
-0.842613446
 20
-4.7409075752
 11
-1.8640341412
 21
-5.6741032199
  0
LINE
  5
332
100
AcDbEntity
  8
COPY-PUBBLISH
100
AcDbLine
 62
7
  6
CONTINUOUS
 10
-1.6896347389
 20
-3.6260513976
 11
-1.1556524465
 21
-3.1396691698
  0
LINE
  5
333
100
AcDbEntity
  8
ASSI
100
AcDbLine
 62
7
  6
CONTINUOUS
 10
-0.8549152913
 20
-4.727403453
 11
-0.8031024404
 21
-4.6802035194
  0
LINE
  5
334
100
AcDbEntity
  8
COPY-PUBBLISH
100
AcDbLine
 62
7
  6
CONTINUOUS
 10
-1.6698491841
 20
-5.6693247192
 11
-0.6616810842
 21
-4.7509141975
  0
LINE
  5
335
100
AcDbEntity
  8
COPY-PUBBLISH
100
AcDbLine
 62
7
  6
CONTINUOUS
 10
6.6646795347
 20
-0.5148141277
 11
7.6650216463
 21
-0.0058363636
  0
LINE
  5
336
100
AcDbEntity
  8
COPY-PUBBLISH
100
AcDbLine
 62
7
  6
CONTINUOUS
 10
-1.2541297937
 20
-1.3440944661
 11
-1.2715861388
 21
-1.3528226386
  0
LINE
  5
337
100
AcDbEntity
  8
ASSI
100
AcDbLine
 62
7
  6
CONTINUOUS
 10
-1.4128073838
 20
-1.4877942633
 11
-1.3957543238
 21
-1.4792677333
  0
LINE
  5
338
100
AcDbEntity
  8
COPY-PUBBLISH
100
AcDbLine
 62
7
  6
CONTINUOUS
 10
-1.2713860276
 20
-1.5585049414
 11
-1.2543291978
 21
-1.5499765265
  0
LINE
  5
339
100
AcDbEntity
  8
COPY-PUBBLISH
100
AcDbLine
 62
7
  6
CONTINUOUS
 10
-0.8006346378
 20
-2.135623888
 11
-1.7250805876
 21
-2.5978468629
  0
LINE
  5
33A
100
AcDbEntity
  8
ASSI
100
AcDbLine
 62
7
  6
CONTINUOUS
 10
-1.8640341412
 20
-2.724905395
 11
-0.8031024404
 21
-2.1944395446
  0
LINE
  5
33B
100
AcDbEntity
  8
COPY-PUBBLISH
100
AcDbLine
 62
7
  6
CONTINUOUS
 10
-1.8640341412
 20
-2.8663267512
 11
-0.6616810842
 21
-2.2651502227
  0
LINE
  5
33C
100
AcDbEntity
  8
COPY-PUBBLISH
100
AcDbLine
 62
7
  6
CONTINUOUS
 10
27.4104581289
 20
11.1895227553
 11
26.4205086353
 21
10.6945480084
  0
LINE
  5
33D
100
AcDbEntity
  8
0
100
AcDbLine
 62
7
  6
CONTINUOUS
 10
18.2793839096
 20
6.425671122
 11
18.4208052658
 21
6.4963818001
  0
LINE
  5
33E
100
AcDbEntity
  8
COPY-PUBBLISH
100
AcDbLine
 62
7
  6
CONTINUOUS
 10
-0.6616810842
 20
-3.9428631324
 11
-1.8640341412
 21
-4.5440396609
  0
LINE
  5
33F
100
AcDbEntity
  8
ASSI
100
AcDbLine
 62
7
  6
CONTINUOUS
 10
-1.8112705403
 20
-4.5690163571
 11
-0.8031024404
 21
-4.0649323072
  0
LINE
  5
340
100
AcDbEntity
  8
0
100
AcDbLine
 62
7
  6
CONTINUOUS
 10
17.9129696609
 20
5.1976630041
 11
18.0543910171
 21
5.2683736822
  0
LINE
  5
341
100
AcDbEntity
  8
COPY-PUBBLISH
100
AcDbLine
 62
7
  6
CONTINUOUS
 10
-1.6698491841
 20
-4.6397270353
 11
-0.6616810842
 21
-4.1356429853
  0
LINE
  5
342
100
AcDbEntity
  8
COPY-PUBBLISH
100
AcDbLine
 62
7
  6
CONTINUOUS
 10
7.6650216463
 20
-0.2964627735
 11
6.9750721526
 21
-0.6414375204
  0
LINE
  5
343
100
AcDbEntity
  8
COPY-PUBBLISH
100
AcDbLine
 62
7
  6
CONTINUOUS
 10
25.9962445665
 20
8.7503651665
 11
25.0062950729
 21
8.2553904197
  0
LINE
  5
344
100
AcDbEntity
  8
RACCORDO
100
AcDbLine
 62
253
  6
CONTINUOUS
 10
25.4659144807
 20
8.3624395421
 11
24.8295183776
 21
8.0442414905
  0
LINE
  5
345
100
AcDbEntity
  8
COPY-PUBBLISH
100
AcDbLine
 62
7
  6
CONTINUOUS
 10
26.333788825
 20
11.7278574072
 11
26.2083766009
 21
11.6662362826
  0
LINE
  5
346
100
AcDbEntity
  8
COPY-PUBBLISH
100
AcDbLine
 62
253
  6
CONTINUOUS
 10
19.8444155702
 20
-6.7097126058
 11
18.6007958599
 21
-6.1879521857
  0
LINE
  5
347
100
AcDbEntity
  8
COPY-PUBBLISH
100
AcDbLine
 62
7
  6
CONTINUOUS
 10
-1.638136152
 20
1.4184484787
 11
-1.7600289996
 21
1.4793949025
  0
LINE
  5
348
100
AcDbEntity
  8
COPY-PUBBLISH
100
AcDbLine
 62
7
  6
CONTINUOUS
 10
-0.6616810842
 20
1.17446106
 11
-0.8031024404
 21
1.2451717381
  0
LINE
  5
349
100
AcDbEntity
  8
COPY-PUBBLISH
100
AcDbLine
 62
253
  6
CONTINUOUS
 10
-10.3571509832
 20
6.5539920534
 11
-11.3677434502
 21
7.0592882869
  0
LINE
  5
34A
100
AcDbEntity
  8
COPY-PUBBLISH
100
AcDbLine
 62
253
  6
CONTINUOUS
 10
-27.3003948507
 20
15.0256139872
 11
-28.3109873177
 21
15.5309102207
  0
LINE
  5
34B
100
AcDbEntity
  8
COPY-PUBBLISH
100
AcDbLine
 62
7
  6
CONTINUOUS
 10
-0.6616810842
 20
1.713806093
 11
-0.8031024404
 21
1.7845167711
  0
LINE
  5
34C
100
AcDbEntity
  8
COPY-PUBBLISH
100
AcDbLine
 62
7
  6
CONTINUOUS
 10
-0.8873817906
 20
2.5773223063
 11
-1.0288031468
 21
2.6480329845
  0
LINE
  5
34D
100
AcDbEntity
  8
COPY-PUBBLISH
100
AcDbLine
 62
7
  6
CONTINUOUS
 10
-0.6616810842
 20
2.6593993128
 11
-0.8031024404
 21
2.730109991
  0
LINE
  5
34E
100
AcDbEntity
  8
COPY-PUBBLISH
100
AcDbLine
 62
253
  6
CONTINUOUS
 10
7.6650216463
 20
-1.4583519227
 11
6.7629401183
 21
-1.0073111587
  0
LINE
  5
34F
100
AcDbEntity
  8
COPY-PUBBLISH
100
AcDbLine
 62
253
  6
CONTINUOUS
 10
24.4079392818
 20
-9.8298107404
 11
25.5012698197
 21
-10.3764760094
  0
LINE
  5
350
100
AcDbEntity
  8
COPY-PUBBLISH
100
AcDbLine
 62
7
  6
CONTINUOUS
 10
-1.720024067
 20
3.6787254107
 11
-1.8614454233
 21
3.7494360888
  0
LINE
  5
351
100
AcDbEntity
  8
COPY-PUBBLISH
100
AcDbLine
 62
253
  6
CONTINUOUS
 10
7.6650216463
 20
-0.9864122672
 11
6.9750721526
 21
-0.6414375204
  0
LINE
  5
352
100
AcDbEntity
  8
COPY-PUBBLISH
100
AcDbLine
 62
253
  6
CONTINUOUS
 10
24.6219225644
 20
-9.4648627262
 11
25.7134018541
 21
-10.0106023711
  0
LINE
  5
353
100
AcDbEntity
  8
COPY-PUBBLISH
100
AcDbLine
 62
7
  6
CONTINUOUS
 10
-5.0266795287
 20
5.4798353175
 11
-5.168100885
 21
5.5505468616
  0
LINE
  5
354
100
AcDbEntity
  8
COPY-PUBBLISH
100
AcDbLine
 62
7
  6
CONTINUOUS
 10
-1.720024067
 20
4.1771264947
 11
-1.8614454233
 21
4.2478371728
  0
LINE
  5
355
100
AcDbEntity
  8
COPY-PUBBLISH
100
AcDbLine
 62
7
  6
CONTINUOUS
 10
-0.6616810842
 20
3.7955986618
 11
-0.8031024404
 21
3.86630934
  0
LINE
  5
356
100
AcDbEntity
  8
COPY-PUBBLISH
100
AcDbLine
 62
7
  6
CONTINUOUS
 10
-1.720024067
 20
4.3760456017
 11
-1.8614454233
 21
4.4467562798
  0
LINE
  5
357
100
AcDbEntity
  8
COPY-PUBBLISH
100
AcDbLine
 62
7
  6
CONTINUOUS
 10
-26.1177943316
 20
16.8097426127
 11
-25.0877191721
 21
16.294705033
  0
LINE
  5
358
100
AcDbEntity
  8
COPY-PUBBLISH
100
AcDbLine
 62
7
  6
CONTINUOUS
 10
-9.1161083215
 20
8.3088996077
 11
-8.086033162
 21
7.7938620279
  0
LINE
  5
359
100
AcDbEntity
  8
DRAFT
100
AcDbLine
 62
7
  6
CONTINUOUS
 10
-9.1161083215
 20
8.5990181179
 11
-13.8997017263
 21
10.9908148204
  0
LINE
  5
35A
100
AcDbEntity
  8
DRAFT
100
AcDbLine
 62
7
  6
CONTINUOUS
 10
-20.3041257672
 20
14.1930268408
 11
-25.0877191721
 21
16.5848235432
  0
LINE
  5
35B
100
AcDbEntity
  8
COPY-PUBBLISH
100
AcDbLine
 62
7
  6
CONTINUOUS
 10
26.9154833821
 20
-9.4095616071
 11
25.834494499
 21
-8.8690671655
  0
LINE
  5
35C
100
AcDbEntity
  8
COPY-PUBBLISH
100
AcDbLine
 62
7
  6
CONTINUOUS
 10
-0.6616810842
 20
4.7062979861
 11
-0.8031024404
 21
4.7770086642
  0
LINE
  5
35D
100
AcDbEntity
  8
RACCORDO
100
AcDbLine
 62
253
  6
CONTINUOUS
 10
4.390398444
 20
-18.8175922472
 11
4.390398444
 21
-18.3388958595
  0
LINE
  5
35E
100
AcDbEntity
  8
RACCORDO
100
AcDbLine
 62
7
  6
CONTINUOUS
 10
4.6053154827
 20
-18.7908996229
 11
4.6053154827
 21
-18.06609652
  0
LINE
  5
35F
100
AcDbEntity
  8
COPY-PUBBLISH
100
AcDbLine
 62
7
  6
CONTINUOUS
 10
6.4543987486
 20
-12.4616154623
 11
6.4543987486
 21
-0.8816133902
  0
LINE
  5
360
100
AcDbEntity
  8
COPY-PUBBLISH
100
AcDbLine
 62
7
  6
CONTINUOUS
 10
6.7629401183
 20
-1.0073111587
 11
6.7629401183
 21
-12.3775297596
  0
LINE
  5
361
100
AcDbEntity
  8
COPY-PUBBLISH
100
AcDbLine
 62
7
  6
CONTINUOUS
 10
7.1553347024
 20
10.3003429614
 11
7.1553347024
 21
10.8480481048
  0
LWPOLYLINE
  5
362
100
AcDbEntity
  8
RACCORDO
100
AcDbPolyline
 62
7
  6
CONTINUOUS
 90
23
 70
0
 10
4.6053268996
 20
-18.0659198739
 10
4.6066938441
 20
-17.9963023613
 10
4.6135937668
 20
-17.8910165401
 10
4.6267946181
 20
-17.7789059315
 10
4.6466720985
 20
-17.6611168775
 10
4.6733217675
 20
-17.5393568493
 10
4.7068049088
 20
-17.4146782556
 10
4.7471029255
 20
-17.2881063549
 10
4.7938501254
 20
-17.1613428504
 10
4.8467255729
 20
-17.0355145817
 10
4.9053423367
 20
-16.9116827173
 10
4.9689629654
 20
-16.7913682775
 10
5.0369776768
 20
-16.6755383894
 10
5.1087188146
 20
-16.5650932751
 10
5.1831387957
 20
-16.4612944516
 10
5.2593673987
 20
-16.3648798362
 10
5.3366254589
 20
-16.2763257759
 10
5.4138218059
 20
-16.1963198924
 10
5.490062951
 20
-16.1251505462
 10
5.5644680045
 20
-16.0629592248
 10
5.6357911162
 20
-16.0100257816
 10
5.7029618008
 20
-15.9662739181
 10
5.7526235991
 20
-15.9378845564
  0
LINE
  5
363
100
AcDbEntity
  8
0
100
AcDbLine
 62
7
  6
CONTINUOUS
 10
11.9802567926
 20
28.569711838
 11
11.9266982204
 21
28.366643709
  0
LINE
  5
364
100
AcDbEntity
  8
0
100
AcDbLine
 62
7
  6
CONTINUOUS
 10
12.0950435896
 20
28.5394371859
 11
12.0684461549
 21
28.4385926138
  0
LINE
  5
365
100
AcDbEntity
  8
COPY-PUBBLISH
100
AcDbLine
 62
7
  6
CONTINUOUS
 10
-5.1440811747
 20
-25.9979718401
 11
-5.6828618937
 21
-27.050397255
  0
LINE
  5
366
100
AcDbEntity
  8
ASSI
100
AcDbLine
 62
7
  6
CONTINUOUS
 10
-5.5188491829
 20
-26.792421192
 11
-5.0038399797
 21
-25.7864298864
  0
LINE
  5
367
100
AcDbEntity
  8
COPY-PUBBLISH
100
AcDbLine
 62
7
  6
CONTINUOUS
 10
-5.3774278267
 20
-26.8631318701
 11
-4.8624186235
 21
-25.8571405645
  0
LINE
  5
368
100
AcDbEntity
  8
COPY-PUBBLISH
100
AcDbLine
 62
7
  6
CONTINUOUS
 10
-0.6616810842
 20
-5.1652406693
 11
-1.6698491841
 21
-5.6693247192
  0
LINE
  5
369
100
AcDbEntity
  8
ASSI
100
AcDbLine
 62
7
  6
CONTINUOUS
 10
-1.8640341412
 20
-5.8177756945
 11
-0.8031024404
 21
-5.2873098441
  0
LINE
  5
36A
100
AcDbEntity
  8
COPY-PUBBLISH
100
AcDbLine
 62
7
  6
CONTINUOUS
 10
-1.8640341412
 20
-5.9591970508
 11
-0.6616810842
 21
-5.3580205223
  0
LINE
  5
36B
100
AcDbEntity
  8
COPY-PUBBLISH
100
AcDbLine
 62
7
  6
CONTINUOUS
 10
-0.6616810842
 20
5.666109611
 11
-1.0116423723
 21
5.6449844421
  0
LINE
  5
36C
100
AcDbEntity
  8
COPY-PUBBLISH
100
AcDbLine
 62
7
  6
CONTINUOUS
 10
-1.1556524465
 20
5.63451484
 11
-1.6896347389
 21
5.6054936184
  0
LINE
  5
36D
100
AcDbEntity
  8
COPY-PUBBLISH
100
AcDbLine
 62
7
  6
CONTINUOUS
 10
-1.8640341412
 20
5.4136711203
 11
-0.6616810842
 21
5.4610451877
  0
LINE
  5
36E
100
AcDbEntity
  8
ASSI
100
AcDbLine
 62
7
  6
CONTINUOUS
 10
-1.8670351123
 20
5.4898357178
 11
-0.8031024404
 21
5.5317558658
  0
LINE
  5
36F
100
AcDbEntity
  8
COPY-PUBBLISH
100
AcDbLine
 62
7
  6
CONTINUOUS
 10
-1.6896347389
 20
5.6054936184
 11
-1.8310560951
 21
5.6762042965
  0
LINE
  5
370
100
AcDbEntity
  8
COPY-PUBBLISH
100
AcDbLine
 62
7
  6
CONTINUOUS
 10
-0.6616810842
 20
5.4610451877
 11
-0.8031024404
 21
5.5317558658
  0
LINE
  5
371
100
AcDbEntity
  8
COPY-PUBBLISH
100
AcDbLine
 62
7
  6
CONTINUOUS
 10
-1.0116423723
 20
5.6449844421
 11
-1.1530637286
 21
5.7156951202
  0
LINE
  5
372
100
AcDbEntity
  8
DRAFT
100
AcDbLine
 62
7
  6
CONTINUOUS
 10
-20.2485389231
 20
15.4642715244
 11
-13.9552885705
 21
12.3176463481
  0
LINE
  5
373
100
AcDbEntity
  8
COPY-PUBBLISH
100
AcDbLine
 62
7
  6
CONTINUOUS
 10
-1.1556524465
 20
6.0918888365
 11
-1.2970738027
 21
6.1625995147
  0
LINE
  5
374
100
AcDbEntity
  8
COPY-PUBBLISH
100
AcDbLine
 62
7
  6
CONTINUOUS
 10
26.2083766009
 20
-7.4091700288
 11
27.1766809237
 21
-7.8933221902
  0
LINE
  5
375
100
AcDbEntity
  8
COPY-PUBBLISH
100
AcDbLine
 62
7
  6
CONTINUOUS
 10
-1.0116423723
 20
6.2356943078
 11
-1.1530637286
 21
6.3064049859
  0
LINE
  5
376
100
AcDbEntity
  8
COPY-PUBBLISH
100
AcDbLine
 62
7
  6
CONTINUOUS
 10
-0.6616810842
 20
6.5562893293
 11
-0.8031024404
 21
6.6270000074
  0
LINE
  5
377
100
AcDbEntity
  8
COPY-PUBBLISH
100
AcDbLine
 62
7
  6
CONTINUOUS
 10
26.9044109118
 20
-6.9577245541
 11
27.9761435539
 21
-7.4935908751
  0
LINE
  5
378
100
AcDbEntity
  8
COPY-PUBBLISH
100
AcDbLine
 62
7
  6
CONTINUOUS
 10
-0.6616810842
 20
6.9562008082
 11
-0.8031024404
 21
7.0269114863
  0
LINE
  5
379
100
AcDbEntity
  8
COPY-PUBBLISH
100
AcDbLine
 62
7
  6
CONTINUOUS
 10
28.6876049333
 20
-7.3315546119
 11
29.7439105068
 21
-7.8597073987
  0
LINE
  5
37A
100
AcDbEntity
  8
COPY-PUBBLISH
100
AcDbLine
 62
7
  6
CONTINUOUS
 10
-1.2862437553
 20
8.3114496556
 11
-1.4276651115
 21
8.3821603337
  0
LINE
  5
37B
100
AcDbEntity
  8
COPY-PUBBLISH
100
AcDbLine
 62
7
  6
CONTINUOUS
 10
-1.145636986
 20
8.2832643012
 11
-1.2870583423
 21
8.3539749793
  0
LINE
  5
37C
100
AcDbEntity
  8
COPY-PUBBLISH
100
AcDbLine
 62
7
  6
CONTINUOUS
 10
-0.6616810842
 20
8.5252422521
 11
-0.8031024404
 21
8.5959529302
  0
LINE
  5
37D
100
AcDbEntity
  8
RACCORDO
100
AcDbLine
 62
7
  6
CONTINUOUS
 10
7.6650216463
 20
37.9617811636
 11
7.6650216463
 21
26.2034872357
  0
LINE
  5
37E
100
AcDbEntity
  8
RACCORDO
100
AcDbLine
 62
7
  6
CONTINUOUS
 10
7.6650216463
 20
9.9812993278
 11
7.6650216463
 21
-12.3900624035
  0
LINE
  5
37F
100
AcDbEntity
  8
RACCORDO
100
AcDbLine
 62
253
  6
CONTINUOUS
 10
7.7528896119
 20
38.0127886019
 11
7.7528896119
 21
26.2480875603
  0
LINE
  5
380
100
AcDbEntity
  8
RACCORDO
100
AcDbLine
 62
253
  6
CONTINUOUS
 10
7.7528896119
 20
9.8752333106
 11
7.7528896119
 21
-12.4339963863
  0
LINE
  5
381
100
AcDbEntity
  8
COPY-PUBBLISH
100
AcDbLine
 62
7
  6
CONTINUOUS
 10
7.8562706562
 20
-14.8788957376
 11
7.8562706562
 21
-14.8099215232
  0
LINE
  5
382
100
AcDbEntity
  8
RACCORDO
100
AcDbLine
 62
253
  6
CONTINUOUS
 10
8.34840004
 20
38.6710656942
 11
8.34840004
 21
39.7107182261
  0
LINE
  5
383
100
AcDbEntity
  8
RACCORDO
100
AcDbLine
 62
7
  6
CONTINUOUS
 10
8.5633170787
 20
38.943861018
 11
8.5633170787
 21
39.999756397
  0
LINE
  5
384
100
AcDbEntity
  8
RACCORDO
100
AcDbLine
 62
7
  6
CONTINUOUS
 10
8.8752785686
 20
-13.6875891402
 11
8.8752785686
 21
-13.9423148738
  0
LINE
  5
385
100
AcDbEntity
  8
ASSI
100
AcDbLine
 62
7
  6
CONTINUOUS
 10
10.2150347169
 20
10.1655647426
 11
10.2150347169
 21
10.7507684189
  0
LINE
  5
386
100
AcDbEntity
  8
SMUSSO
100
AcDbLine
 62
7
  6
CONTINUOUS
 10
-13.7142258614
 20
-18.0730968074
 11
-21.6981078245
 21
-22.1353254625
  0
LINE
  5
387
100
AcDbEntity
  8
RACCORDO
100
AcDbLine
 62
253
  6
CONTINUOUS
 10
25.3887160643
 20
2.2249905779
 11
25.387946525
 21
2.2246021158
  0
LINE
  5
388
100
AcDbEntity
  8
RACCORDO
100
AcDbLine
 62
253
  6
CONTINUOUS
 10
25.4659144807
 20
2.386864256
 11
24.8295183776
 21
2.0686662044
  0
LINE
  5
389
100
AcDbEntity
  8
RACCORDO
100
AcDbLine
 62
7
  6
CONTINUOUS
 10
25.387946525
 20
2.2246021158
 11
24.7941630385
 21
1.9277103726
  0
LINE
  5
38A
100
AcDbEntity
  8
COPY-PUBBLISH
100
AcDbLine
 62
7
  6
CONTINUOUS
 10
25.0062950729
 20
1.3271871894
 11
25.9962445665
 21
1.8221619362
  0
LINE
  5
38B
100
AcDbEntity
  8
DRAFT
100
AcDbLine
 62
7
  6
CONTINUOUS
 10
-21.6981078245
 20
-22.4508995997
 11
-14.2232118883
 21
-18.7282413533
  0
LINE
  5
38C
100
AcDbEntity
  8
DRAFT
100
AcDbLine
 62
7
  6
CONTINUOUS
 10
-25.0877191721
 20
-22.3863196271
 11
-14.2232118883
 21
-17.0458562757
  0
LINE
  5
38D
100
AcDbEntity
  8
DRAFT
100
AcDbLine
 62
7
  6
CONTINUOUS
 10
-13.7142258614
 20
-17.3003492892
 11
-22.4759252838
 21
-21.6071745725
  0
LINE
  5
38E
100
AcDbEntity
  8
DRAFT
100
AcDbLine
 62
7
  6
CONTINUOUS
 10
-22.3990437783
 20
-22.3406293248
 11
-21.6981078245
 21
-21.9960833022
  0
LINE
  5
38F
100
AcDbEntity
  8
RACCORDO
100
AcDbLine
 62
7
  6
CONTINUOUS
 10
-27.3003948507
 20
-23.0787451998
 11
-25.0877191721
 21
-22.0962011168
  0
LINE
  5
390
100
AcDbEntity
  8
COPY-PUBBLISH
100
AcDbLine
 62
7
  6
CONTINUOUS
 10
-1.8640341412
 20
8.4449748078
 11
-1.2862437553
 21
8.3114496556
  0
LINE
  5
391
100
AcDbEntity
  8
ASSI
100
AcDbLine
 62
7
  6
CONTINUOUS
 10
-1.8556913922
 20
8.481075573
 11
-1.4276651115
 21
8.3821603337
  0
LINE
  5
392
100
AcDbEntity
  8
COPY-PUBBLISH
100
AcDbLine
 62
7
  6
CONTINUOUS
 10
-1.145636986
 20
8.4821479012
 11
-1.8640341412
 21
8.6788718149
  0
LINE
  5
393
100
AcDbEntity
  8
RACCORDO
100
AcDbLine
 62
253
  6
CONTINUOUS
 10
-7.7327488961
 20
13.1480624169
 11
-26.4710785975
 21
22.5172272676
  0
LINE
  5
394
100
AcDbEntity
  8
RACCORDO
100
AcDbLine
 62
253
  6
CONTINUOUS
 10
-6.7091052304
 20
14.9581310165
 11
-25.4474349319
 21
24.3272958672
  0
LINE
  5
395
100
AcDbEntity
  8
DRAFT
100
AcDbLine
 62
7
  6
CONTINUOUS
 10
12.061886379
 20
43.5847111945
 11
12.061886379
 21
38.7825496917
  0
LINE
  5
396
100
AcDbEntity
  8
ASSI
100
AcDbLine
 62
7
  6
CONTINUOUS
 10
12.7511431912
 20
10.5912249665
 11
12.7511431912
 21
11.1757921141
  0
LINE
  5
397
100
AcDbEntity
  8
ASSI
100
AcDbLine
 62
7
  6
CONTINUOUS
 10
13.0057016324
 20
8.7702312169
 11
13.0057016324
 21
9.3554372523
  0
LINE
  5
398
100
AcDbEntity
  8
ASSI
100
AcDbLine
 62
7
  6
CONTINUOUS
 10
13.0057016324
 20
12.1570236783
 11
13.0057016324
 21
12.7422274225
  0
LINE
  5
399
100
AcDbEntity
  8
0
100
AcDbLine
 62
7
  6
CONTINUOUS
 10
18.3576825506
 20
9.5834632398
 11
18.6007958599
 21
10.3502836797
  0
LINE
  5
39A
100
AcDbEntity
  8
0
100
AcDbLine
 62
7
  6
CONTINUOUS
 10
18.6007958599
 20
10.9004338712
 11
18.2720349488
 21
9.8670706818
  0
LINE
  5
39B
100
AcDbEntity
  8
0
100
AcDbLine
 62
7
  6
CONTINUOUS
 10
18.6007958599
 20
10.5266281278
 11
18.4134563051
 21
9.9377813599
  0
LINE
  5
39C
100
AcDbEntity
  8
RACCORDO
100
AcDbLine
 62
7
  6
CONTINUOUS
 10
7.4456718808
 20
-16.3125547836
 11
7.3547514296
 21
-16.4711501316
  0
LINE
  5
39D
100
AcDbEntity
  8
RACCORDO
100
AcDbLine
 62
7
  6
CONTINUOUS
 10
6.3487265559
 20
-15.7640821212
 11
6.2570056686
 21
-15.9222772511
  0
LINE
  5
39E
100
AcDbEntity
  8
ASSI
100
AcDbLine
 62
7
  6
CONTINUOUS
 10
-4.2681817838
 20
-24.7259904683
 11
-4.1251926289
 21
-24.5562033149
  0
LINE
  5
39F
100
AcDbEntity
  8
COPY-PUBBLISH
100
AcDbLine
 62
7
  6
CONTINUOUS
 10
-4.1701723984
 20
-24.8482490765
 11
-3.9837712727
 21
-24.626913993
  0
LINE
  5
3A0
100
AcDbEntity
  8
COPY-PUBBLISH
100
AcDbLine
 62
7
  6
CONTINUOUS
 10
26.4205086353
 20
0.302243163
 11
27.4104581289
 21
0.7972179099
  0
LINE
  5
3A1
100
AcDbEntity
  8
DRAFT
100
AcDbLine
 62
7
  6
CONTINUOUS
 10
-15.0716582512
 20
-23.191527047
 11
-14.5563293345
 21
-22.9338625887
  0
LINE
  5
3A2
100
AcDbEntity
  8
DRAFT
100
AcDbLine
 62
7
  6
CONTINUOUS
 10
-20.2485389231
 20
-26.1049478572
 11
-17.4908224764
 21
-24.7260896339
  0
LINE
  5
3A3
100
AcDbEntity
  8
DRAFT
100
AcDbLine
 62
7
  6
CONTINUOUS
 10
-12.8239177206
 20
-22.392637256
 11
-12.5925696659
 21
-22.2769632287
  0
LINE
  5
3A4
100
AcDbEntity
  8
DRAFT
100
AcDbLine
 62
7
  6
CONTINUOUS
 10
-17.3494011202
 20
-24.9366162642
 11
-16.7837156952
 21
-24.6537735517
  0
LINE
  5
3A5
100
AcDbEntity
  8
DRAFT
100
AcDbLine
 62
7
  6
CONTINUOUS
 10
-12.6109039897
 20
-21.0686027528
 11
-20.3041257672
 21
-24.7781163295
  0
LINE
  5
3A6
100
AcDbEntity
  8
DRAFT
100
AcDbLine
 62
7
  6
CONTINUOUS
 10
-21.5628572956
 20
-22.7587225661
 11
-20.8495796871
 21
-22.4203473709
  0
LINE
  5
3A7
100
AcDbEntity
  8
DRAFT
100
AcDbLine
 62
7
  6
CONTINUOUS
 10
-12.6374820503
 20
-19.3169222305
 11
-20.0364068887
 21
-22.8269337701
  0
LINE
  5
3A8
100
AcDbEntity
  8
DRAFT
100
AcDbLine
 62
7
  6
CONTINUOUS
 10
2.1667460406
 20
-14.4581958368
 11
6.4543987486
 21
-12.4616154623
  0
LINE
  5
3A9
100
AcDbEntity
  8
DRAFT
100
AcDbLine
 62
7
  6
CONTINUOUS
 10
6.5161070225
 20
-12.4924695993
 11
7.2170429763
 21
-12.1660730685
  0
LINE
  5
3AA
100
AcDbEntity
  8
COPY-PUBBLISH
100
AcDbLine
 62
253
  6
CONTINUOUS
 10
25.0062950729
 20
1.3271871894
 11
24.7991233479
 21
1.4307730519
  0
LINE
  5
3AB
100
AcDbEntity
  8
COPY-PUBBLISH
100
AcDbLine
 62
253
  6
CONTINUOUS
 10
7.1602516098
 20
10.250208921
 11
7.3656154885
 21
10.1475269816
  0
LINE
  5
3AC
100
AcDbEntity
  8
RACCORDO
100
AcDbLine
 62
7
  6
CONTINUOUS
 10
7.1553347024
 20
10.5703478454
 11
7.4065934989
 21
10.4447184471
  0
LINE
  5
3AD
100
AcDbEntity
  8
0
100
AcDbLine
 62
7
  6
CONTINUOUS
 10
17.9129696609
 20
5.1976630041
 11
18.0897753475
 21
5.1092601608
  0
LINE
  5
3AE
100
AcDbEntity
  8
RACCORDO
100
AcDbLine
 62
253
  6
CONTINUOUS
 10
7.1553347024
 20
10.6936260077
 11
7.3286255432
 21
10.6069805873
  0
LINE
  5
3AF
100
AcDbEntity
  8
0
100
AcDbLine
 62
7
  6
CONTINUOUS
 10
18.0543910171
 20
5.2683736822
 11
18.0897753475
 21
5.250681517
  0
LINE
  5
3B0
100
AcDbEntity
  8
COPY-PUBBLISH
100
AcDbLine
 62
253
  6
CONTINUOUS
 10
25.9962445665
 20
1.8221619362
 11
25.2896553661
 21
2.1754565364
  0
LINE
  5
3B1
100
AcDbEntity
  8
COPY-PUBBLISH
100
AcDbLine
 62
253
  6
CONTINUOUS
 10
26.2083766009
 20
2.1880355746
 11
25.5627433978
 21
2.5108521761
  0
LINE
  5
3B2
100
AcDbEntity
  8
0
100
AcDbLine
 62
7
  6
CONTINUOUS
 10
18.2793839096
 20
6.425671122
 11
18.6007958599
 21
6.2649651468
  0
LINE
  5
3B3
100
AcDbEntity
  8
0
100
AcDbLine
 62
7
  6
CONTINUOUS
 10
18.4208052658
 20
6.4963818001
 11
18.6007958599
 21
6.4063865031
  0
LINE
  5
3B4
100
AcDbEntity
  8
0
100
AcDbLine
 62
7
  6
CONTINUOUS
 10
18.6007958599
 20
6.4567559988
 11
18.2793839096
 21
6.617461974
  0
LINE
  5
3B5
100
AcDbEntity
  8
0
100
AcDbLine
 62
7
  6
CONTINUOUS
 10
18.0897753475
 20
6.712266255
 11
17.9129696609
 21
6.8006690983
  0
LINE
  5
3B6
100
AcDbEntity
  8
DRAFT
100
AcDbLine
 62
7
  6
CONTINUOUS
 10
16.6325815001
 20
-26.4184117234
 11
16.6325815001
 21
-27.1680822083
  0
LINE
  5
3B7
100
AcDbEntity
  8
0
100
AcDbLine
 62
7
  6
CONTINUOUS
 10
17.6433703513
 20
11.5423289937
 11
17.6433703513
 21
9.9406193395
  0
LINE
  5
3B8
100
AcDbEntity
  8
0
100
AcDbLine
 62
7
  6
CONTINUOUS
 10
17.7847917075
 20
11.4716183155
 11
17.7847917075
 21
10.0113300176
  0
LINE
  5
3B9
100
AcDbEntity
  8
0
100
AcDbLine
 62
7
  6
CONTINUOUS
 10
17.8146740401
 20
9.8549674951
 11
17.8146740401
 21
11.1975008606
  0
LINE
  5
3BA
100
AcDbEntity
  8
0
100
AcDbLine
 62
7
  6
CONTINUOUS
 10
17.9129696609
 20
6.8006690983
 11
17.9129696609
 21
5.1976630041
  0
LINE
  5
3BB
100
AcDbEntity
  8
0
100
AcDbLine
 62
7
  6
CONTINUOUS
 10
18.0543910171
 20
6.712266255
 11
18.0543910171
 21
5.2683736822
  0
LINE
  5
3BC
100
AcDbEntity
  8
0
100
AcDbLine
 62
7
  6
CONTINUOUS
 10
18.0897753475
 20
5.1092601608
 11
18.0897753475
 21
6.712266255
  0
LINE
  5
3BD
100
AcDbEntity
  8
ASSI
100
AcDbLine
 62
7
  6
CONTINUOUS
 10
0.4873208151
 20
-36.0166406604
 11
-1.019741688
 21
-38.9378028866
  0
LINE
  5
3BE
100
AcDbEntity
  8
RACCORDO
100
AcDbLine
 62
7
  6
CONTINUOUS
 10
5.3063610102
 20
-16.903850398
 11
4.7843142
 21
-17.1872012405
  0
LINE
  5
3BF
100
AcDbEntity
  8
RACCORDO
100
AcDbLine
 62
253
  6
CONTINUOUS
 10
5.959950801
 20
-15.5054680125
 11
8.8752785686
 21
-13.9423148738
  0
LINE
  5
3C0
100
AcDbEntity
  8
RACCORDO
100
AcDbLine
 62
7
  6
CONTINUOUS
 10
5.7529024603
 20
-15.9377146426
 11
8.675088694
 21
-14.3708841017
  0
LINE
  5
3C1
100
AcDbEntity
  8
DRAFT
100
AcDbLine
 62
7
  6
CONTINUOUS
 10
-15.6388959367
 20
-25.226183431
 11
-15.2136778369
 21
-25.0088329263
  0
LINE
  5
3C2
100
AcDbEntity
  8
RACCORDO
100
AcDbLine
 62
253
  6
CONTINUOUS
 10
2.171848519
 20
-15.7316485996
 11
8.3099377439
 21
-12.7125204523
  0
LINE
  5
3C3
100
AcDbEntity
  8
RACCORDO
100
AcDbLine
 62
253
  6
CONTINUOUS
 10
2.3109124425
 20
-16.9163891485
 11
8.8752785686
 21
-13.6875891402
  0
LINE
  5
3C4
100
AcDbEntity
  8
RACCORDO
100
AcDbLine
 62
7
  6
CONTINUOUS
 10
2.6035374422
 20
-17.8121088798
 11
3.8936558702
 21
-17.1775412291
  0
LINE
  5
3C5
100
AcDbEntity
  8
DRAFT
100
AcDbLine
 62
7
  6
CONTINUOUS
 10
26.9044109118
 20
-6.9577245541
 11
26.2083766009
 21
-7.2997200603
  0
LINE
  5
3C6
100
AcDbEntity
  8
COPY-PUBBLISH
100
AcDbLine
 62
253
  6
CONTINUOUS
 10
19.8444155702
 20
11.1304107122
 11
18.6007958599
 21
11.6521711323
  0
LINE
  5
3C7
100
AcDbEntity
  8
ASSI
100
AcDbLine
 62
7
  6
CONTINUOUS
 10
11.8216859756
 20
11.0559535743
 11
12.7511431912
 21
10.5912249665
  0
LINE
  5
3C8
100
AcDbEntity
  8
ASSI
100
AcDbLine
 62
7
  6
CONTINUOUS
 10
11.9631073318
 20
11.1266642525
 11
12.7511431912
 21
10.7326463228
  0
LINE
  5
3C9
100
AcDbEntity
  8
ASSI
100
AcDbLine
 62
7
  6
CONTINUOUS
 10
12.7511431912
 20
11.1757921141
 11
11.8216840658
 21
11.6405216768
  0
LINE
  5
3CA
100
AcDbEntity
  8
0
100
AcDbLine
 62
7
  6
CONTINUOUS
 10
17.6433703513
 20
9.9406193395
 11
17.8146740401
 21
9.8549674951
  0
LINE
  5
3CB
100
AcDbEntity
  8
0
100
AcDbLine
 62
7
  6
CONTINUOUS
 10
18.1827811025
 20
9.6709139639
 11
18.3576825506
 21
9.5834632398
  0
LINE
  5
3CC
100
AcDbEntity
  8
0
100
AcDbLine
 62
7
  6
CONTINUOUS
 10
18.3242024587
 20
9.741624642
 11
18.4142510931
 21
9.6966003248
  0
LINE
  5
3CD
100
AcDbEntity
  8
0
100
AcDbLine
 62
7
  6
CONTINUOUS
 10
10.331132458
 20
29.3942740053
 11
10.7083759514
 21
27.7482434956
  0
LINE
  5
3CE
100
AcDbEntity
  8
0
100
AcDbLine
 62
7
  6
CONTINUOUS
 10
10.5091600759
 20
29.3052601964
 11
10.8495771302
 21
27.8199148763
  0
LINE
  5
3CF
100
AcDbEntity
  8
0
100
AcDbLine
 62
7
  6
CONTINUOUS
 10
11.165698322
 20
27.9803727596
 11
10.9403523261
 21
29.0896640712
  0
LINE
  5
3D0
100
AcDbEntity
  8
0
100
AcDbLine
 62
7
  6
CONTINUOUS
 10
18.2793839096
 20
6.617461974
 11
18.2793839096
 21
6.425671122
  0
LINE
  5
3D1
100
AcDbEntity
  8
0
100
AcDbLine
 62
7
  6
CONTINUOUS
 10
18.4208052658
 20
6.5467512958
 11
18.4208052658
 21
6.4963818001
  0
LINE
  5
3D2
100
AcDbEntity
  8
DRAFT
100
AcDbLine
 62
7
  6
CONTINUOUS
 10
18.6007958599
 20
-6.1879521857
 11
18.6007958599
 21
11.6521711323
  0
LINE
  5
3D3
100
AcDbEntity
  8
COPY-PUBBLISH
100
AcDbLine
 62
7
  6
CONTINUOUS
 10
19.8444155702
 20
-6.7097126058
 11
19.8444155702
 21
11.1304107122
  0
LINE
  5
3D4
100
AcDbEntity
  8
RACCORDO
100
AcDbLine
 62
7
  6
CONTINUOUS
 10
21.4000504888
 20
-25.5906718124
 11
21.4000504888
 21
-26.3632507287
  0
LINE
  5
3D5
100
AcDbEntity
  8
ASSI
100
AcDbLine
 62
7
  6
CONTINUOUS
 10
1.7875974368
 20
-36.6667789713
 11
0.2935730382
 21
-39.5944603688
  0
LINE
  5
3D6
100
AcDbEntity
  8
RACCORDO
100
AcDbLine
 62
7
  6
CONTINUOUS
 10
6.4124029214
 20
-17.4568713536
 11
4.8789395229
 21
-18.3032653346
  0
LINE
  5
3D7
100
AcDbEntity
  8
DRAFT
100
AcDbLine
 62
7
  6
CONTINUOUS
 10
-13.1774711112
 20
-27.0225812687
 11
-12.6117856862
 21
-26.7397385562
  0
LINE
  5
3D8
100
AcDbEntity
  8
COPY-PUBBLISH
100
AcDbLine
 62
7
  6
CONTINUOUS
 10
27.9761435539
 20
-7.4935908751
 11
27.1766809237
 21
-7.8933221902
  0
LINE
  5
3D9
100
AcDbEntity
  8
COPY-PUBBLISH
100
AcDbLine
 62
7
  6
CONTINUOUS
 10
26.2083766009
 20
-8.3774743516
 11
24.2991882917
 21
-9.3320685062
  0
LINE
  5
3DA
100
AcDbEntity
  8
COPY-PUBBLISH
100
AcDbLine
 62
7
  6
CONTINUOUS
 10
7.1164935089
 20
-19.1358514629
 11
14.8946681019
 21
-15.2467641664
  0
LINE
  5
3DB
100
AcDbEntity
  8
COPY-PUBBLISH
100
AcDbLine
 62
7
  6
CONTINUOUS
 10
25.7134018541
 20
-10.0106023711
 11
26.9154833821
 21
-9.4095616071
  0
LINE
  5
3DC
100
AcDbEntity
  8
COPY-PUBBLISH
100
AcDbLine
 62
7
  6
CONTINUOUS
 10
-3.8815604017
 20
-24.8235706313
 11
-4.108843613
 21
-24.9372122369
  0
LINE
  5
3DD
100
AcDbEntity
  8
COPY-PUBBLISH
100
AcDbLine
 62
7
  6
CONTINUOUS
 10
-5.7235799306
 20
-25.7536710644
 11
-5.9521133068
 21
-25.8679377525
  0
LINE
  5
3DE
100
AcDbEntity
  8
COPY-PUBBLISH
100
AcDbLine
 62
7
  6
CONTINUOUS
 10
-4.108843613
 20
-25.1838077745
 11
-4.8649600646
 21
-25.5618660003
  0
LINE
  5
3DF
100
AcDbEntity
  8
COPY-PUBBLISH
100
AcDbLine
 62
7
  6
CONTINUOUS
 10
-5.1440811747
 20
-25.7014265554
 11
-5.7235799306
 21
-25.9911759333
  0
LINE
  5
3E0
100
AcDbEntity
  8
ASSI
100
AcDbLine
 62
7
  6
CONTINUOUS
 10
-5.8650012869
 20
-26.21701054
 11
-5.2855025309
 21
-25.927261162
  0
LINE
  5
3E1
100
AcDbEntity
  8
ASSI
100
AcDbLine
 62
7
  6
CONTINUOUS
 10
-5.0038399797
 20
-25.7864298864
 11
-4.2502649693
 21
-25.4096423812
  0
LINE
  5
3E2
100
AcDbEntity
  8
COPY-PUBBLISH
100
AcDbLine
 62
7
  6
CONTINUOUS
 10
-5.7235799306
 20
-26.2877212181
 11
-5.1440811747
 21
-25.9979718401
  0
LINE
  5
3E3
100
AcDbEntity
  8
COPY-PUBBLISH
100
AcDbLine
 62
7
  6
CONTINUOUS
 10
-4.8624186235
 20
-25.8571405645
 11
-4.108843613
 21
-25.4803530593
  0
LINE
  5
3E4
100
AcDbEntity
  8
ASSI
100
AcDbLine
 62
7
  6
CONTINUOUS
 10
-5.9521133068
 20
-26.4981666816
 11
-5.8650012869
 21
-26.4546106717
  0
LINE
  5
3E5
100
AcDbEntity
  8
ASSI
100
AcDbLine
 62
7
  6
CONTINUOUS
 10
-4.108843613
 20
-25.5856216374
 11
-4.0229817579
 21
-25.5426907099
  0
LINE
  5
3E6
100
AcDbEntity
  8
COPY-PUBBLISH
100
AcDbLine
 62
7
  6
CONTINUOUS
 10
-5.9521133068
 20
-26.6395880379
 11
-5.7235799306
 21
-26.5253213498
  0
LINE
  5
3E7
100
AcDbEntity
  8
COPY-PUBBLISH
100
AcDbLine
 62
7
  6
CONTINUOUS
 10
-4.108843613
 20
-25.7270429936
 11
-3.8815604017
 21
-25.613401388
  0
LINE
  5
3E8
100
AcDbEntity
  8
COPY-PUBBLISH
100
AcDbLine
 62
7
  6
CONTINUOUS
 10
24.6219225644
 20
-9.4648627262
 11
25.834494499
 21
-8.8690671655
  0
LINE
  5
3E9
100
AcDbEntity
  8
DRAFT
100
AcDbLine
 62
7
  6
CONTINUOUS
 10
5.8627214587
 20
-18.3746221429
 11
13.7087751531
 21
-14.5267477304
  0
LINE
  5
3EA
100
AcDbEntity
  8
DRAFT
100
AcDbLine
 62
7
  6
CONTINUOUS
 10
-12.4727737334
 20
-27.2902402392
 11
-13.8997017263
 21
-27.9803283499
  0
LINE
  5
3EB
100
AcDbEntity
  8
0
100
AcDbLine
 62
7
  6
CONTINUOUS
 10
17.8966750922
 20
11.4156766232
 11
17.6433703513
 21
11.5423289937
  0
LINE
  5
3EC
100
AcDbEntity
  8
COPY-PUBBLISH
100
AcDbLine
 62
253
  6
CONTINUOUS
 10
26.2083766009
 20
8.5966235626
 11
25.9485689798
 21
8.7265273731
  0
LINE
  5
3ED
100
AcDbEntity
  8
RACCORDO
100
AcDbLine
 62
7
  6
CONTINUOUS
 10
-8.8661941678
 20
27.5041854992
 11
-1.2960027654
 21
23.7190897979
  0
LINE
  5
3EE
100
AcDbEntity
  8
COPY-PUBBLISH
100
AcDbLine
 62
253
  6
CONTINUOUS
 10
26.2133369103
 20
10.7981338709
 11
26.4205086353
 21
10.6945480084
  0
LINE
  5
3EF
100
AcDbEntity
  8
0
100
AcDbLine
 62
7
  6
CONTINUOUS
 10
18.2720349488
 20
9.8670706818
 11
17.8966750922
 21
11.4156766232
  0
LINE
  5
3F0
100
AcDbEntity
  8
0
100
AcDbLine
 62
7
  6
CONTINUOUS
 10
17.8146740401
 20
11.1975008606
 11
18.1827811025
 21
9.6709139639
  0
LINE
  5
3F1
100
AcDbEntity
  8
0
100
AcDbLine
 62
7
  6
CONTINUOUS
 10
18.2927491519
 20
9.8720655134
 11
18.3242024587
 21
9.741624642
  0
LINE
  5
3F2
100
AcDbEntity
  8
COPY-PUBBLISH
100
AcDbLine
 62
7
  6
CONTINUOUS
 10
24.0870562573
 20
-9.6979421445
 11
24.0870562573
 21
-22.9481308224
  0
LINE
  5
3F3
100
AcDbEntity
  8
COPY-PUBBLISH
100
AcDbLine
 62
7
  6
CONTINUOUS
 10
24.4079392818
 20
-9.8298107404
 11
24.4079392818
 21
-23.1547300504
  0
LINE
  5
3F4
100
AcDbEntity
  8
RACCORDO
100
AcDbLine
 62
253
  6
CONTINUOUS
 10
24.5113203261
 20
-9.226002489
 11
24.5113203261
 21
-9.5570945543
  0
LINE
  5
3F5
100
AcDbEntity
  8
RACCORDO
100
AcDbLine
 62
7
  6
CONTINUOUS
 10
24.5991882917
 20
-9.1820685062
 11
24.5991882917
 21
-9.4648627262
  0
LINE
  5
3F6
100
AcDbEntity
  8
COPY-PUBBLISH
100
AcDbLine
 62
7
  6
CONTINUOUS
 10
24.7941630385
 20
7.8895167814
 11
24.7941630385
 21
1.4809287934
  0
LINE
  5
3F7
100
AcDbEntity
  8
RACCORDO
100
AcDbLine
 62
253
  6
CONTINUOUS
 10
24.8295183776
 20
2.0686662044
 11
24.8295183776
 21
8.0442414905
  0
LINE
  5
3F8
100
AcDbEntity
  8
COPY-PUBBLISH
100
AcDbLine
 62
253
  6
CONTINUOUS
 10
-9.9913182432
 20
-31.2885310332
 11
-7.7327488961
 21
-30.3404753612
  0
LINE
  5
3F9
100
AcDbEntity
  8
COPY-PUBBLISH
100
AcDbLine
 62
7
  6
CONTINUOUS
 10
-10.1451254861
 20
-31.5697267305
 11
-7.8740863563
 21
-30.6164367503
  0
LINE
  5
3FA
100
AcDbEntity
  8
COPY-PUBBLISH
100
AcDbLine
 62
253
  6
CONTINUOUS
 10
27.4104581289
 20
11.1895227553
 11
26.333788825
 21
11.7278574072
  0
LINE
  5
3FB
100
AcDbEntity
  8
COPY-PUBBLISH
100
AcDbLine
 62
7
  6
CONTINUOUS
 10
27.5446222076
 20
11.1980432914
 11
26.4691079563
 21
11.7358004171
  0
LINE
  5
3FC
100
AcDbEntity
  8
RACCORDO
100
AcDbLine
 62
253
  6
CONTINUOUS
 10
25.4659144807
 20
8.3624395421
 11
25.4659144807
 21
2.386864256
  0
LINE
  5
3FD
100
AcDbEntity
  8
COPY-PUBBLISH
100
AcDbLine
 62
7
  6
CONTINUOUS
 10
25.5012698197
 20
-23.7013953193
 11
25.5012698197
 21
-10.3764760094
  0
LINE
  5
3FE
100
AcDbEntity
  8
RACCORDO
100
AcDbLine
 62
7
  6
CONTINUOUS
 10
25.5537813528
 20
8.4689105533
 11
25.5537824463
 21
2.4929302731
  0
LINE
  5
3FF
100
AcDbEntity
  8
COPY-PUBBLISH
100
AcDbLine
 62
7
  6
CONTINUOUS
 10
26.2083766009
 20
-8.3774743516
 11
26.2083766009
 21
-0.0636304753
  0
LINE
  5
400
100
AcDbEntity
  8
COPY-PUBBLISH
100
AcDbLine
 62
7
  6
CONTINUOUS
 10
26.2083766009
 20
2.1880355746
 11
26.2083766009
 21
8.5966235626
  0
LINE
  5
401
100
AcDbEntity
  8
COPY-PUBBLISH
100
AcDbLine
 62
7
  6
CONTINUOUS
 10
26.2083766009
 20
10.8482896124
 11
26.2083766009
 21
20.5477741348
  0
LINE
  5
402
100
AcDbEntity
  8
COPY-PUBBLISH
100
AcDbLine
 62
7
  6
CONTINUOUS
 10
27.6225901633
 20
1.1630915482
 11
27.6225901633
 21
11.0357811513
  0
LINE
  5
403
100
AcDbEntity
  8
RACCORDO
100
AcDbLine
 62
253
  6
CONTINUOUS
 10
25.5537823673
 20
2.4930391227
 11
25.5537822418
 21
2.4927551329
  0
LINE
  5
404
100
AcDbEntity
  8
COPY-PUBBLISH
100
AcDbLine
 62
7
  6
CONTINUOUS
 10
26.9154833821
 20
-9.4095616071
 11
27.1766809237
 21
-7.8933221902
  0
LINE
  5
405
100
AcDbEntity
  8
DRAFT
100
AcDbLine
 62
7
  6
CONTINUOUS
 10
25.834494499
 20
-8.8690671655
 11
25.8925189146
 21
-8.5354031948
  0
LINE
  5
406
100
AcDbEntity
  8
RACCORDO
100
AcDbLine
 62
7
  6
CONTINUOUS
 10
29.7439105068
 20
-23.7323917814
 11
29.7439105068
 21
-7.8597073987
  0
LINE
  5
407
100
AcDbEntity
  8
COPY-PUBBLISH
100
AcDbLine
 62
7
  6
CONTINUOUS
 10
29.7439105068
 20
20.9299004417
 11
29.7439105068
 21
34.7436991305
  0
LINE
  5
408
100
AcDbEntity
  8
RACCORDO
100
AcDbLine
 62
7
  6
CONTINUOUS
 10
16.6325815001
 20
-27.1680822083
 11
2.8713126584
 21
-34.1530744428
  0
LINE
  5
409
100
AcDbEntity
  8
RACCORDO
100
AcDbLine
 62
7
  6
CONTINUOUS
 10
16.5383238327
 20
-27.5045326895
 11
1.2975876743
 21
-35.1545341046
  0
LINE
  5
40A
100
AcDbEntity
  8
RACCORDO
100
AcDbLine
 62
253
  6
CONTINUOUS
 10
24.4079392818
 20
-20.570215091
 11
24.0870562573
 21
-20.7306566033
  0
LINE
  5
40B
100
AcDbEntity
  8
RACCORDO
100
AcDbLine
 62
7
  6
CONTINUOUS
 10
24.4079392818
 20
-20.6934932533
 11
24.0870562573
 21
-20.8539347655
  0
LINE
  5
40C
100
AcDbEntity
  8
RACCORDO
100
AcDbLine
 62
7
  6
CONTINUOUS
 10
24.0870562573
 20
-22.9481308224
 11
22.4607106606
 21
-23.7613036208
  0
LINE
  5
40D
100
AcDbEntity
  8
RACCORDO
100
AcDbLine
 62
7
  6
CONTINUOUS
 10
-6.7091052304
 20
-37.0909537107
 11
17.7227580444
 21
-25.9199492483
  0
LINE
  5
40E
100
AcDbEntity
  8
COPY-PUBBLISH
100
AcDbLine
 62
7
  6
CONTINUOUS
 10
26.2083766009
 20
20.1304378115
 11
27.1766809237
 21
19.6462856501
  0
LINE
  5
40F
100
AcDbEntity
  8
0
100
AcDbLine
 62
7
  6
CONTINUOUS
 10
12.1548157192
 20
28.4824323747
 11
11.9802567926
 21
28.569711838
  0
LINE
  5
410
100
AcDbEntity
  8
0
100
AcDbLine
 62
7
  6
CONTINUOUS
 10
10.9403523261
 20
29.0896640712
 11
10.331132458
 21
29.3942740053
  0
LINE
  5
411
100
AcDbEntity
  8
COPY-PUBBLISH
100
AcDbLine
 62
7
  6
CONTINUOUS
 10
27.1766809237
 20
19.6462856501
 11
26.9154833821
 21
20.9013275254
  0
LINE
  5
412
100
AcDbEntity
  8
RACCORDO
100
AcDbLine
 62
7
  6
CONTINUOUS
 10
24.9953353701
 20
-25.2914421018
 11
25.0870562573
 21
-25.1332469719
  0
LINE
  5
413
100
AcDbEntity
  8
RACCORDO
100
AcDbLine
 62
7
  6
CONTINUOUS
 10
23.8975896091
 20
-24.7425692213
 11
23.9901109324
 21
-24.5847743094
  0
LINE
  5
414
100
AcDbEntity
  8
RACCORDO
100
AcDbLine
 62
7
  6
CONTINUOUS
 10
22.4977271668
 20
-27.1126591565
 11
24.0446907116
 21
-26.2730152487
  0
LINE
  5
415
100
AcDbEntity
  8
RACCORDO
100
AcDbLine
 62
7
  6
CONTINUOUS
 10
21.4111795997
 20
-26.5352773959
 11
22.9386488004
 21
-25.7199942931
  0
LINE
  5
416
100
AcDbEntity
  8
RACCORDO
100
AcDbLine
 62
7
  6
CONTINUOUS
 10
17.6997373134
 20
-28.0852394299
 11
2.5908543788
 21
-35.8011674568
  0
LINE
  5
417
100
AcDbEntity
  8
RACCORDO
100
AcDbLine
 62
7
  6
CONTINUOUS
 10
25.0771394707
 20
-32.4988201271
 11
29.3296969445
 21
-25.164243434
  0
LINE
  5
418
100
AcDbEntity
  8
RACCORDO
100
AcDbLine
 62
253
  6
CONTINUOUS
 10
21.1562680213
 20
33.0514205365
 11
8.5633170787
 21
39.3478960078
  0
LINE
  5
419
100
AcDbEntity
  8
RACCORDO
100
AcDbLine
 62
253
  6
CONTINUOUS
 10
21.664884047
 20
33.2690521791
 11
8.5633170787
 21
39.8198356633
  0
LINE
  5
41A
100
AcDbEntity
  8
RACCORDO
100
AcDbLine
 62
7
  6
CONTINUOUS
 10
1.0690693626
 20
-44.0271839615
 11
24.0277841292
 21
-33.5297486155
  0
LINE
  5
41B
100
AcDbEntity
  8
RACCORDO
100
AcDbLine
 62
253
  6
CONTINUOUS
 10
8.7355367393
 20
40.4457244989
 11
8.7353488291
 21
40.4458181298
  0
LINE
  5
41C
100
AcDbEntity
  8
RACCORDO
100
AcDbLine
 62
7
  6
CONTINUOUS
 10
23.6946616732
 20
32.6068801645
 11
22.520993872
 21
33.1937140652
  0
LINE
  5
41D
100
AcDbEntity
  8
RACCORDO
100
AcDbLine
 62
7
  6
CONTINUOUS
 10
8.3290025036
 20
40.2897097493
 11
7.1553347024
 21
40.8765436499
  0
LINE
  5
41E
100
AcDbEntity
  8
RACCORDO
100
AcDbLine
 62
253
  6
CONTINUOUS
 10
8.6014177494
 20
40.437181431
 11
23.9690800029
 21
32.7533503043
  0
LINE
  5
41F
100
AcDbEntity
  8
RACCORDO
100
AcDbLine
 62
7
  6
CONTINUOUS
 10
8.735581828
 20
40.4457019672
 11
24.0422144619
 21
32.7923856502
  0
LINE
  5
420
100
AcDbEntity
  8
COPY-PUBBLISH
100
AcDbLine
 62
7
  6
CONTINUOUS
 10
11.0055808054
 20
44.1128639813
 11
12.061886379
 21
43.5847111945
  0
LINE
  5
421
100
AcDbEntity
  8
COPY-PUBBLISH
100
AcDbLine
 62
7
  6
CONTINUOUS
 10
28.6876049333
 20
35.2718519173
 11
29.7439105068
 21
34.7436991305
  0
ARC
  5
422
100
AcDbEntity
  8
RACCORDO
100
AcDbCircle
 62
7
  6
CONTINUOUS
 10
3.5340606701
 20
-14.1327987535
 40
3.2532183256
100
AcDbArc
 50
329.9048968549
 51
333.9544677584
  0
ARC
  5
423
100
AcDbEntity
  8
ASSI
100
AcDbCircle
 62
7
  6
CONTINUOUS
 10
-0.7167136086
 20
-25.197225037
 40
2.9473744949
100
AcDbArc
 50
151.6777199924
 51
156.318425811
  0
ARC
  5
424
100
AcDbEntity
  8
ASSI
100
AcDbCircle
 62
7
  6
CONTINUOUS
 10
-0.7930797045
 20
-25.1654114184
 40
2.8646614182
100
AcDbArc
 50
156.2876635978
 51
161.3999252842
  0
ARC
  5
425
100
AcDbEntity
  8
COPY-PUBBLISH
100
AcDbCircle
 62
7
  6
CONTINUOUS
 10
-6.182115364
 20
-25.0604495517
 40
2.4691149382
100
AcDbArc
 50
346.1045260161
 51
346.5480867375
  0
ARC
  5
426
100
AcDbEntity
  8
ASSI
100
AcDbCircle
 62
7
  6
CONTINUOUS
 10
-6.4241347694
 20
-24.9865927491
 40
2.4540450156
100
AcDbArc
 50
335.8349105365
 51
338.488805238
  0
ARC
  5
427
100
AcDbEntity
  8
COPY-PUBBLISH
100
AcDbCircle
 62
7
  6
CONTINUOUS
 10
-3.5825389966
 20
-26.4060768261
 40
2.4262334924
100
AcDbArc
 50
146.7321852012
 51
149.8945730074
  0
ARC
  5
428
100
AcDbEntity
  8
COPY-PUBBLISH
100
AcDbCircle
 62
7
  6
CONTINUOUS
 10
-6.0138560967
 20
-25.192961504
 40
1.9678606384
100
AcDbArc
 50
334.7610294978
 51
339.5368834096
  0
ARC
  5
429
100
AcDbEntity
  8
ASSI
100
AcDbCircle
 62
7
  6
CONTINUOUS
 10
-4.9076155675
 20
6.3051821429
 40
1.7983854404
100
AcDbArc
 50
181.7035404052
 51
183.1571382036
  0
ARC
  5
42A
100
AcDbEntity
  8
COPY-PUBBLISH
100
AcDbCircle
 62
7
  6
CONTINUOUS
 10
-0.5869499939
 20
-2.5723020875
 40
1.4031380643
100
AcDbArc
 50
131.3877930458
 51
133.0056784304
  0
ARC
  5
42B
100
AcDbEntity
  8
COPY-PUBBLISH
100
AcDbCircle
 62
7
  6
CONTINUOUS
 10
-0.6219809399
 20
-2.5325258998
 40
1.3501351209
100
AcDbArc
 50
129.7341529482
 51
131.3884750997
  0
ARC
  5
42C
100
AcDbEntity
  8
COPY-PUBBLISH
100
AcDbCircle
 62
7
  6
CONTINUOUS
 10
-0.6767359509
 20
-2.4659588666
 40
1.2639430634
100
AcDbArc
 50
126.2978897038
 51
129.7542697037
  0
ARC
  5
42D
100
AcDbEntity
  8
COPY-PUBBLISH
100
AcDbCircle
 62
7
  6
CONTINUOUS
 10
-0.7750412159
 20
-2.3326814376
 40
1.1016456745
100
AcDbArc
 50
146.4564882235
 51
150.6328750657
  0
ARC
  5
42E
100
AcDbEntity
  8
ASSI
100
AcDbCircle
 62
7
  6
CONTINUOUS
 10
-6.1365311589
 20
1.744175788
 40
0.9826699524
100
AcDbArc
 50
248.5973018164
 51
257.144629119
  0
ARC
  5
42F
100
AcDbEntity
  8
ASSI
100
AcDbCircle
 62
7
  6
CONTINUOUS
 10
-6.1365313057
 20
5.5417920712
 40
0.9826697074
100
AcDbArc
 50
248.5973254097
 51
257.1445344047
  0
ARC
  5
430
100
AcDbEntity
  8
COPY-PUBBLISH
100
AcDbCircle
 62
7
  6
CONTINUOUS
 10
-6.0032497439
 20
5.4492194966
 40
0.959343057
100
AcDbArc
 50
240.5385283177
 51
243.4309169673
  0
ARC
  5
431
100
AcDbEntity
  8
COPY-PUBBLISH
100
AcDbCircle
 62
7
  6
CONTINUOUS
 10
-6.0032496996
 20
1.6516029274
 40
0.9593429996
100
AcDbArc
 50
240.5385305648
 51
243.4309168937
  0
ARC
  5
432
100
AcDbEntity
  8
COPY-PUBBLISH
100
AcDbCircle
 62
7
  6
CONTINUOUS
 10
-0.9347458223
 20
-2.2955016634
 40
0.9382978481
100
AcDbArc
 50
167.2885334452
 51
172.0536728421
  0
ARC
  5
433
100
AcDbEntity
  8
COPY-PUBBLISH
100
AcDbCircle
 62
7
  6
CONTINUOUS
 10
-0.9275319029
 20
-2.2065979456
 40
0.9034027947
100
AcDbArc
 50
133.0293547298
 51
137.9186635806
  0
ARC
  5
434
100
AcDbEntity
  8
ASSI
100
AcDbCircle
 62
7
  6
CONTINUOUS
 10
-1.0097345222
 20
-2.2903310075
 40
0.8980952802
100
AcDbArc
 50
118.498821024
 51
120.3559215714
  0
ARC
  5
435
100
AcDbEntity
  8
COPY-PUBBLISH
100
AcDbCircle
 62
7
  6
CONTINUOUS
 10
-0.8528133799
 20
-2.1460963734
 40
0.8968065139
100
AcDbArc
 50
113.5581381583
 51
116.5830777582
  0
ARC
  5
436
100
AcDbEntity
  8
ASSI
100
AcDbCircle
 62
7
  6
CONTINUOUS
 10
-1.0309100957
 20
-2.2513059098
 40
0.853695246
100
AcDbArc
 50
116.5735432442
 51
118.499545685
  0
ARC
  5
437
100
AcDbEntity
  8
COPY-PUBBLISH
100
AcDbCircle
 62
7
  6
CONTINUOUS
 10
-4.5709652542
 20
-24.9090008877
 40
0.8112367955
100
AcDbArc
 50
31.5630527763
 51
37.513342679
  0
ARC
  5
438
100
AcDbEntity
  8
COPY-PUBBLISH
100
AcDbCircle
 62
7
  6
CONTINUOUS
 10
-4.5324918599
 20
-24.880230839
 40
0.7632000855
100
AcDbArc
 50
37.5589488892
 51
39.3675757647
  0
ARC
  5
439
100
AcDbEntity
  8
ASSI
100
AcDbCircle
 62
7
  6
CONTINUOUS
 10
-4.7545076864
 20
-24.9298636637
 40
0.7318876265
100
AcDbArc
 50
30.7000277162
 51
36.0004006217
  0
ARC
  5
43A
100
AcDbEntity
  8
ASSI
100
AcDbCircle
 62
7
  6
CONTINUOUS
 10
-4.6524054989
 20
-24.8400926912
 40
0.5954497813
100
AcDbArc
 50
47.8878355409
 51
55.4041235954
  0
ARC
  5
43B
100
AcDbEntity
  8
COPY-PUBBLISH
100
AcDbCircle
 62
7
  6
CONTINUOUS
 10
-5.3441441559
 20
-26.5858068651
 40
0.5749555951
100
AcDbArc
 50
233.9054270542
 51
242.1688885054
  0
ARC
  5
43C
100
AcDbEntity
  8
COPY-PUBBLISH
100
AcDbCircle
 62
7
  6
CONTINUOUS
 10
-5.3453670339
 20
-26.5878494017
 40
0.5725784166
100
AcDbArc
 50
242.1816801769
 51
243.5454306916
  0
ARC
  5
43D
100
AcDbEntity
  8
ASSI
100
AcDbCircle
 62
7
  6
CONTINUOUS
 10
-1.1143659726
 20
-1.9485043481
 40
0.5411819434
100
AcDbArc
 50
95.8968956866
 51
98.5380567176
  0
ARC
  5
43E
100
AcDbEntity
  8
COPY-PUBBLISH
100
AcDbCircle
 62
7
  6
CONTINUOUS
 10
-4.5811063711
 20
-25.0597039999
 40
0.4573915979
100
AcDbArc
 50
59.9207165615
 51
63.4438985817
  0
ARC
  5
43F
100
AcDbEntity
  8
COPY-PUBBLISH
100
AcDbCircle
 62
7
  6
CONTINUOUS
 10
-1.03769997
 20
-1.6819753619
 40
0.2235538939
100
AcDbArc
 50
34.057984977
 51
39.797393163
  0
ARC
  5
440
100
AcDbEntity
  8
ASSI
100
AcDbCircle
 62
7
  6
CONTINUOUS
 10
-1.1412018598
 20
-1.59088604
 40
0.1813349603
100
AcDbArc
 50
63.4111784874
 51
67.3912125717
  0
ARC
  5
441
100
AcDbEntity
  8
ASSI
100
AcDbCircle
 62
7
  6
CONTINUOUS
 10
14.9751551749
 20
11.8249129678
 40
3.5286320025
100
AcDbArc
 50
194.8838339052
 51
201.3561965563
  0
ARC
  5
442
100
AcDbEntity
  8
ASSI
100
AcDbCircle
 62
7
  6
CONTINUOUS
 10
14.3403271596
 20
11.4936524423
 40
2.5577561358
100
AcDbArc
 50
195.5169798805
 51
201.0869671867
  0
ARC
  5
443
100
AcDbEntity
  8
ASSI
100
AcDbCircle
 62
7
  6
CONTINUOUS
 10
13.5955456818
 20
10.6770173184
 40
1.4477990356
100
AcDbArc
 50
237.5428726349
 51
241.8218481912
  0
ARC
  5
444
100
AcDbEntity
  8
ASSI
100
AcDbCircle
 62
7
  6
CONTINUOUS
 10
13.5034100487
 20
10.5044587887
 40
1.2521837559
100
AcDbArc
 50
241.8095569779
 51
246.5797425187
  0
ARC
  5
445
100
AcDbEntity
  8
ASSI
100
AcDbCircle
 62
7
  6
CONTINUOUS
 10
12.3062500147
 20
12.0584675673
 40
0.8743159487
100
AcDbArc
 50
106.195509068
 51
116.5847540733
  0
ARC
  5
446
100
AcDbEntity
  8
ASSI
100
AcDbCircle
 62
7
  6
CONTINUOUS
 10
12.3028784098
 20
12.0664054927
 40
0.8657085757
100
AcDbArc
 50
116.6203114644
 51
120.6552353303
  0
ARC
  5
447
100
AcDbEntity
  8
RACCORDO
100
AcDbCircle
 62
7
  6
CONTINUOUS
 10
7.7639121861
 20
38.9435774363
 40
0.7993478827
100
AcDbArc
 50
324.8202304463
 51
354.2280703423
  0
ARC
  5
448
100
AcDbEntity
  8
RACCORDO
100
AcDbCircle
 62
7
  6
CONTINUOUS
 10
7.7661582717
 20
38.9440284094
 40
0.7971588237
100
AcDbArc
 50
354.1795854099
 51
359.9882576956
  0
ARC
  5
449
100
AcDbEntity
  8
RACCORDO
100
AcDbCircle
 62
253
  6
CONTINUOUS
 10
7.0845432966
 20
9.8747733106
 40
0.6683464737
100
AcDbArc
 50
0.0394347291
 51
4.0223393017
  0
ARC
  5
44A
100
AcDbEntity
  8
ASSI
100
AcDbCircle
 62
7
  6
CONTINUOUS
 10
12.6335369534
 20
11.7578027741
 40
0.614799809
100
AcDbArc
 50
106.1318521406
 51
116.5848686496
  0
ARC
  5
44B
100
AcDbEntity
  8
ASSI
100
AcDbCircle
 62
7
  6
CONTINUOUS
 10
12.4895455716
 20
11.6931412104
 40
0.6082402364
100
AcDbArc
 50
116.6233781565
 51
121.0537084576
  0
ARC
  5
44C
100
AcDbEntity
  8
RACCORDO
100
AcDbCircle
 62
7
  6
CONTINUOUS
 10
25.2470733249
 20
8.4683594571
 40
0.3065466174
100
AcDbArc
 50
0.1028340884
 51
10.8356949873
  0
ARC
  5
44D
100
AcDbEntity
  8
RACCORDO
100
AcDbCircle
 62
7
  6
CONTINUOUS
 10
8.6014479453
 20
40.1770114945
 40
0.3003375991
100
AcDbArc
 50
63.4806016992
 51
116.5392924163
  0
ARC
  5
44E
100
AcDbEntity
  8
RACCORDO
100
AcDbCircle
 62
253
  6
CONTINUOUS
 10
8.3617826487
 20
38.9438298442
 40
0.2015010527
100
AcDbArc
 50
355.6098269536
 51
0.008732191
  0
ARC
  5
44F
100
AcDbEntity
  8
COPY-PUBBLISH
100
AcDbCircle
 62
253
  6
CONTINUOUS
 10
505.5732116929
 20
-4.0300454274
 40
535.1731678974
100
AcDbArc
 50
178.0929952651
 51
181.8873915426
  0
ARC
  5
450
100
AcDbEntity
  8
COPY-PUBBLISH
100
AcDbCircle
 62
253
  6
CONTINUOUS
 10
513.7542392203
 20
-12.9944705088
 40
525.4292039633
100
AcDbArc
 50
178.0577049085
 51
181.9422950915
  0
ARC
  5
451
100
AcDbEntity
  8
COPY-PUBBLISH
100
AcDbCircle
 62
253
  6
CONTINUOUS
 10
513.9206898291
 20
-12.9976783268
 40
524.8947744212
100
AcDbArc
 50
178.0576715913
 51
181.9423284087
  0
SPLINE
  5
452
100
AcDbEntity
  8
ASSI
100
AcDbSpline
 62
7
  6
CONTINUOUS
 70
0
 71
3
 72
9
 73
5
 74
3
 42
0.0000001
 43
0.0000001
 44
0.0000000001
 12
-0.2478757868
 22
0.1358523447
 32
0.0
 13
-0.2667279598
 23
0.0935652751
 33
0.0
 40
0.0
 40
0.0
 40
0.0
 40
0.0
 40
0.2568092668
 40
1.0
 40
1.0
 40
1.0
 40
1.0
 10
13.0057016324
 20
12.7422274225
 30
0.0
 10
12.9844826994
 20
12.7538568028
 30
0.0
 10
12.9010020958
 20
12.7975501585
 30
0.0
 10
12.8140737503
 20
12.8347537908
 30
0.0
 10
12.7479971676
 20
12.8579327393
 30
0.0
 11
13.0057016324
 21
12.7422274225
 31
0.0
 11
12.9413781322
 21
12.7758705163
 31
0.0
 11
12.7479971676
 21
12.8579327393
 31
0.0
  0
SPLINE
  5
453
100
AcDbEntity
  8
ASSI
100
AcDbSpline
 62
7
  6
CONTINUOUS
 70
0
 71
3
 72
9
 73
5
 74
3
 42
0.0000001
 43
0.0000001
 44
0.0000000001
 12
-0.2360109355
 22
0.0827900762
 32
0.0
 13
-0.2469816483
 23
0.0394388612
 33
0.0
 40
0.0
 40
0.0
 40
0.0
 40
0.0
 40
0.2569281842
 40
1.0
 40
1.0
 40
1.0
 40
1.0
 10
12.7479971676
 20
12.8579327393
 30
0.0
 10
12.7277845473
 20
12.8650231072
 30
0.0
 10
12.6485616521
 20
12.890996159
 30
0.0
 10
12.5670893108
 20
12.9102874931
 30
0.0
 10
12.5059142768
 20
12.9200561285
 30
0.0
 11
12.7479971676
 21
12.8579327393
 31
0.0
 11
12.6869268674
 21
12.8779284511
 31
0.0
 11
12.5059142768
 21
12.9200561285
 31
0.0
  0
SPLINE
  5
454
100
AcDbEntity
  8
ASSI
100
AcDbSpline
 62
7
  6
CONTINUOUS
 70
0
 71
3
 72
9
 73
5
 74
3
 42
0.0000001
 43
0.0000001
 44
0.0000000001
 12
-0.2245057593
 22
0.0358498355
 32
0.0
 13
-0.2271036869
 23
-0.0105812127
 33
0.0
 40
0.0
 40
0.0
 40
0.0
 40
0.0
 40
0.2565101461
 40
1.0
 40
1.0
 40
1.0
 40
1.0
 10
12.5059142768
 20
12.9200561285
 30
0.0
 10
12.4867182751
 20
12.9231214107
 30
0.0
 10
12.4116233674
 20
12.9333241826
 30
0.0
 10
12.3354725297
 20
12.9362641379
 30
0.0
 10
12.279189434
 20
12.9336417964
 30
0.0
 11
12.5059142768
 21
12.9200561285
 31
0.0
 11
12.4481235861
 21
12.9278777649
 31
0.0
 11
12.279189434
 21
12.9336417964
 31
0.0
  0
SPLINE
  5
455
100
AcDbEntity
  8
ASSI
100
AcDbSpline
 62
7
  6
CONTINUOUS
 70
0
 71
3
 72
9
 73
5
 74
3
 42
0.0000001
 43
0.0000001
 44
0.0000000001
 12
-0.2197444973
 22
-0.0102383334
 32
0.0
 13
-0.211239691
 23
-0.0614024472
 33
0.0
 40
0.0
 40
0.0
 40
0.0
 40
0.0
 40
0.2547824519
 40
1.0
 40
1.0
 40
1.0
 40
1.0
 10
12.279189434
 20
12.9336417964
 30
0.0
 10
12.2605270868
 20
12.9327722805
 30
0.0
 10
12.1873937288
 20
12.9272976209
 30
0.0
 10
12.1148626259
 20
12.9133394959
 30
0.0
 10
12.062389451
 20
12.8980867688
 30
0.0
 11
12.279189434
 21
12.9336417964
 31
0.0
 11
12.2232999891
 21
12.9294318896
 31
0.0
 11
12.062389451
 21
12.8980867688
 31
0.0
  0
SPLINE
  5
456
100
AcDbEntity
  8
ASSI
100
AcDbSpline
 62
7
  6
CONTINUOUS
 70
0
 71
3
 72
9
 73
5
 74
3
 42
0.0000001
 43
0.0000001
 44
0.0000000001
 12
0.0398947654
 22
-0.2493332099
 32
0.0
 13
0.067403075
 23
-0.2433422843
 33
0.0
 40
0.0
 40
0.0
 40
0.0
 40
0.0
 40
0.2452954031
 40
1.0
 40
1.0
 40
1.0
 40
1.0
 10
11.8216859756
 20
11.0559535743
 30
0.0
 10
11.8249479764
 20
11.0355668109
 30
0.0
 10
11.8394953082
 20
10.9526583913
 30
0.0
 10
11.8588416609
 20
10.8706086213
 30
0.0
 10
11.8757981311
 20
10.8093914411
 30
0.0
 11
11.8216859756
 21
11.0559535743
 31
0.0
 11
11.8323735199
 21
10.9949443673
 31
0.0
 11
11.8757981311
 21
10.8093914411
 31
0.0
  0
SPLINE
  5
457
100
AcDbEntity
  8
ASSI
100
AcDbSpline
 62
7
  6
CONTINUOUS
 70
0
 71
3
 72
9
 73
5
 74
3
 42
0.0000001
 43
0.0000001
 44
0.0000000001
 12
0.5138786585
 22
-1.3348394336
 32
0.0
 13
1.2075409681
 23
-0.7666240275
 33
0.0
 40
0.0
 40
0.0
 40
0.0
 40
0.0
 40
0.522319678
 40
1.0
 40
1.0
 40
1.0
 40
1.0
 10
11.9538501467
 20
10.5734112148
 30
0.0
 10
12.0433197918
 20
10.3410069138
 30
0.0
 10
12.2776159505
 20
9.918356947
 30
0.0
 10
12.6262848737
 20
9.5774413296
 30
0.0
 10
12.8185577265
 20
9.4553742589
 30
0.0
 11
11.9538501467
 21
10.5734112148
 31
0.0
 11
12.3192777114
 21
9.9217887138
 31
0.0
 11
12.8185577265
 21
9.4553742589
 31
0.0
  0
SPLINE
  5
458
100
AcDbEntity
  8
RACCORDO
100
AcDbSpline
 62
7
  6
CONTINUOUS
 70
0
 71
3
 72
9
 73
5
 74
3
 42
0.0000001
 43
0.0000001
 44
0.0000000001
 12
0.0
 22
0.1852315347
 32
0.0
 13
-0.0656594552
 23
0.173203803
 33
0.0
 40
0.0
 40
0.0
 40
0.0
 40
0.0
 40
0.2131641245
 40
1.0
 40
1.0
 40
1.0
 40
1.0
 10
7.6650216463
 20
9.9812993278
 30
0.0
 10
7.6650216463
 20
9.9944609005
 30
0.0
 10
7.6609452664
 20
10.0561612905
 30
0.0
 10
7.6452328626
 20
10.116836471
 30
0.0
 10
7.628011791
 20
10.1622641264
 30
0.0
 11
7.6650216463
 21
9.9812993278
 31
0.0
 11
7.6627550418
 21
10.0207189353
 31
0.0
 11
7.628011791
 21
10.1622641264
 31
0.0
  0
SPLINE
  5
459
100
AcDbEntity
  8
RACCORDO
100
AcDbSpline
 62
7
  6
CONTINUOUS
 70
0
 71
3
 72
9
 73
5
 74
3
 42
0.0000001
 43
0.0000001
 44
0.0000000001
 12
-0.1157392737
 22
0.3053099103
 32
0.0
 13
-0.2652665324
 23
0.1903769617
 33
0.0
 40
0.0
 40
0.0
 40
0.0
 40
0.0
 40
0.2779386463
 40
1.0
 40
1.0
 40
1.0
 40
1.0
 10
7.628011791
 20
10.1622641264
 30
0.0
 10
7.6172889853
 20
10.1905499341
 30
0.0
 10
7.5713815048
 20
10.2890166562
 30
0.0
 10
7.5021178697
 20
10.3793106062
 30
0.0
 10
7.4382716326
 20
10.4251318884
 30
0.0
 11
7.628011791
 21
10.1622641264
 31
0.0
 11
7.5899657989
 21
10.2446540032
 31
0.0
 11
7.4382716326
 21
10.4251318884
 31
0.0
  0
SPLINE
  5
45A
100
AcDbEntity
  8
RACCORDO
100
AcDbSpline
 62
7
  6
CONTINUOUS
 70
0
 71
3
 72
9
 73
5
 74
3
 42
0.0000001
 43
0.0000001
 44
0.0000000001
 12
-0.030274471
 22
0.0217274368
 32
0.0
 13
-0.0333301677
 23
0.0166650839
 33
0.0
 40
0.0
 40
0.0
 40
0.0
 40
0.0
 40
0.2808344803
 40
1.0
 40
1.0
 40
1.0
 40
1.0
 10
7.4382716326
 20
10.4251318884
 30
0.0
 10
7.4354375941
 20
10.4271658262
 30
0.0
 10
7.4252332353
 20
10.4342435804
 30
0.0
 10
7.4145834681
 20
10.4407234626
 30
0.0
 10
7.4065934989
 20
10.4447184471
 30
0.0
 11
7.4382716326
 21
10.4251318884
 31
0.0
 11
7.4296709941
 21
10.4310940281
 31
0.0
 11
7.4065934989
 21
10.4447184471
 31
0.0
  0
SPLINE
  5
45B
100
AcDbEntity
  8
RACCORDO
100
AcDbSpline
 62
7
  6
CONTINUOUS
 70
0
 71
3
 72
9
 73
5
 74
3
 42
0.0000001
 43
0.0000001
 44
0.0000000001
 12
0.293397088
 22
0.146698544
 32
0.0
 13
-0.0011059348
 23
0.3280260523
 33
0.0
 40
0.0
 40
0.0
 40
0.0
 40
0.0
 40
0.4998387749
 40
1.0
 40
1.0
 40
1.0
 40
1.0
 10
25.387946525
 20
2.2246021158
 30
0.0
 10
25.436830272
 20
2.2490439894
 30
0.0
 10
25.5226219534
 20
2.3267680008
 30
0.0
 10
25.5539493961
 20
2.4383518948
 30
0.0
 10
25.5537650142
 20
2.4930405322
 30
0.0
 11
25.387946525
 21
2.2246021158
 31
0.0
 11
25.5089870098
 21
2.3352024511
 31
0.0
 11
25.5537650142
 21
2.4930405322
 31
0.0
  0
SPLINE
  5
45C
100
AcDbEntity
  8
ASSI
100
AcDbSpline
 62
7
  6
CONTINUOUS
 70
0
 71
3
 72
8
 73
4
 74
2
 42
0.0000001
 43
0.0000001
 44
0.0000000001
 12
-0.134256229
 22
-0.0808388686
 32
0.0
 13
-0.1100918782
 23
-0.1115322198
 33
0.0
 40
0.0
 40
0.0
 40
0.0
 40
0.0
 40
1.0
 40
1.0
 40
1.0
 40
1.0
 10
12.1757901081
 20
12.2142109699
 30
0.0
 10
12.1310380317
 20
12.1872646804
 30
0.0
 10
12.0895111758
 20
12.1542466976
 30
0.0
 10
12.0528138831
 20
12.117069291
 30
0.0
 11
12.1757901081
 21
12.2142109699
 31
0.0
 11
12.0528138831
 21
12.117069291
 31
0.0
  0
SPLINE
  5
45D
100
AcDbEntity
  8
ASSI
100
AcDbSpline
 62
7
  6
CONTINUOUS
 70
0
 71
3
 72
9
 73
5
 74
3
 42
0.0000001
 43
0.0000001
 44
0.0000000001
 12
-0.1127717599
 22
-0.1142471627
 32
0.0
 13
-0.0851733253
 23
-0.1360712632
 33
0.0
 40
0.0
 40
0.0
 40
0.0
 40
0.0
 40
0.7439261035
 40
1.0
 40
1.0
 40
1.0
 40
1.0
 10
12.0528138831
 20
12.117069291
 30
0.0
 10
12.0248492644
 20
12.0887388088
 30
0.0
 10
11.9906396276
 20
12.0471469599
 30
0.0
 10
11.9611183166
 20
12.0025149395
 30
0.0
 10
11.9538480948
 20
11.9909001733
 30
0.0
 11
12.0528138831
 21
12.117069291
 31
0.0
 11
11.9765450224
 21
12.0251737745
 31
0.0
 11
11.9538480948
 21
11.9909001733
 31
0.0
  0
SPLINE
  5
45E
100
AcDbEntity
  8
ASSI
100
AcDbSpline
 62
7
  6
CONTINUOUS
 70
0
 71
3
 72
9
 73
5
 74
3
 42
0.0000001
 43
0.0000001
 44
0.0000000001
 12
-0.1993465726
 22
-0.3184722428
 32
0.0
 13
-0.0703041023
 23
-0.3690812358
 33
0.0
 40
0.0
 40
0.0
 40
0.0
 40
0.0
 40
0.2368258414
 40
1.0
 40
1.0
 40
1.0
 40
1.0
 10
11.9538480948
 20
11.9909001733
 30
0.0
 10
11.9381112882
 20
11.9657593543
 30
0.0
 10
11.8774489492
 20
11.8559954826
 30
0.0
 10
11.8395688239
 20
11.734412764
 30
0.0
 10
11.8216840658
 20
11.6405216768
 30
0.0
 11
11.9538480948
 21
11.9909001733
 31
0.0
 11
11.9106562434
 21
11.9131066343
 31
0.0
 11
11.8216840658
 21
11.6405216768
 31
0.0
  0
SPLINE
  5
45F
100
AcDbEntity
  8
ASSI
100
AcDbSpline
 62
7
  6
CONTINUOUS
 70
0
 71
3
 72
9
 73
5
 74
3
 42
0.0000001
 43
0.0000001
 44
0.0000000001
 12
0.3103094465
 22
-0.7171912844
 32
0.0
 13
0.5139579724
 23
-0.5886446242
 33
0.0
 40
0.0
 40
0.0
 40
0.0
 40
0.0
 40
0.2534061798
 40
1.0
 40
1.0
 40
1.0
 40
1.0
 10
9.2023638529
 20
11.8721777563
 30
0.0
 10
9.2285752967
 20
11.8115975218
 30
0.0
 10
9.3410813122
 20
11.5766308836
 30
0.0
 10
9.4878786885
 20
11.3575266186
 30
0.0
 10
9.6157846372
 20
11.2110338057
 30
0.0
 11
9.2023638529
 21
11.8721777563
 31
0.0
 11
9.2877967451
 21
11.6935321229
 31
0.0
 11
9.6157846372
 21
11.2110338057
 31
0.0
  0
SPLINE
  5
460
100
AcDbEntity
  8
ASSI
100
AcDbSpline
 62
7
  6
CONTINUOUS
 70
0
 71
3
 72
9
 73
5
 74
3
 42
0.0000001
 43
0.0000001
 44
0.0000000001
 12
0.1710050677
 22
-0.1958549516
 32
0.0
 13
0.1937910445
 23
-0.1733404924
 33
0.0
 40
0.0
 40
0.0
 40
0.0
 40
0.0
 40
0.254645753
 40
1.0
 40
1.0
 40
1.0
 40
1.0
 10
9.6157846372
 20
11.2110338057
 30
0.0
 10
9.6302998752
 20
11.1944092618
 30
0.0
 10
9.6882760473
 20
11.1299837886
 30
0.0
 10
9.7501147284
 20
11.0690166344
 30
0.0
 10
9.7982623878
 20
11.0259499437
 30
0.0
 11
9.6157846372
 21
11.2110338057
 31
0.0
 11
9.6600771095
 21
11.1618221684
 31
0.0
 11
9.7982623878
 21
11.0259499437
 31
0.0
  0
SPLINE
  5
461
100
AcDbEntity
  8
ASSI
100
AcDbSpline
 62
7
  6
CONTINUOUS
 70
0
 71
3
 72
9
 73
5
 74
3
 42
0.0000001
 43
0.0000001
 44
0.0000000001
 12
0.1887073164
 22
-0.1687932445
 32
0.0
 13
0.2104964093
 23
-0.1406871433
 33
0.0
 40
0.0
 40
0.0
 40
0.0
 40
0.0
 40
0.2568338096
 40
1.0
 40
1.0
 40
1.0
 40
1.0
 10
9.7982623878
 20
11.0259499437
 30
0.0
 10
9.8144178608
 20
11.0114993397
 30
0.0
 10
9.8782351154
 20
10.956272718
 30
0.0
 10
9.9457402016
 20
10.905255696
 30
0.0
 10
9.9978848065
 20
10.8704043865
 30
0.0
 11
9.7982623878
 21
11.0259499437
 31
0.0
 11
9.8474419807
 21
10.9834088928
 31
0.0
 11
9.9978848065
 21
10.8704043865
 31
0.0
  0
SPLINE
  5
462
100
AcDbEntity
  8
ASSI
100
AcDbSpline
 62
7
  6
CONTINUOUS
 70
0
 71
3
 72
9
 73
5
 74
3
 42
0.0000001
 43
0.0000001
 44
0.0000000001
 12
0.2062782307
 22
-0.1378678862
 32
0.0
 13
0.2277769606
 23
-0.0983662479
 33
0.0
 40
0.0
 40
0.0
 40
0.0
 40
0.0
 40
0.2597056357
 40
1.0
 40
1.0
 40
1.0
 40
1.0
 10
9.9978848065
 20
10.8704043865
 30
0.0
 10
10.0157420129
 20
10.8584693642
 30
0.0
 10
10.085406094
 20
10.8139031502
 30
0.0
 10
10.1588273835
 20
10.7750417452
 30
0.0
 10
10.2150347169
 20
10.7507684189
 30
0.0
 11
9.9978848065
 21
10.8704043865
 31
0.0
 11
10.0521797343
 21
10.8357059427
 31
0.0
 11
10.2150347169
 21
10.7507684189
 31
0.0
  0
SPLINE
  5
463
100
AcDbEntity
  8
ASSI
100
AcDbSpline
 62
7
  6
CONTINUOUS
 70
0
 71
3
 72
10
 73
6
 74
4
 42
0.0000001
 43
0.0000001
 44
0.0000000001
 12
-0.7140939729
 22
0.4057100845
 32
0.0
 13
-0.7342314863
 23
-0.3680149443
 33
0.0
 40
0.0
 40
0.0
 40
0.0
 40
0.0
 40
0.5376120349
 40
0.7750942842
 40
1.0
 40
1.0
 40
1.0
 40
1.0
 10
13.0057016324
 20
12.1570236783
 30
0.0
 10
12.8777331278
 20
12.229728553
 30
0.0
 10
12.6714341163
 20
12.3079119657
 30
0.0
 10
12.394777126
 20
12.3039064445
 30
0.0
 10
12.2720228776
 20
12.2644801805
 30
0.0
 10
12.2169785916
 20
12.2368906257
 30
0.0
 11
13.0057016324
 21
12.1570236783
 31
0.0
 11
12.5876373178
 21
12.2990788142
 31
0.0
 11
12.3926611404
 21
12.2939445883
 31
0.0
 11
12.2169785916
 21
12.2368906257
 31
0.0
  0
SPLINE
  5
464
100
AcDbEntity
  8
RACCORDO
100
AcDbSpline
 62
253
  6
CONTINUOUS
 70
0
 71
3
 72
9
 73
5
 74
3
 42
0.0000001
 43
0.0000001
 44
0.0000000001
 12
0.0786057213
 22
0.1060413498
 32
0.0
 13
0.0000000001
 23
0.1319985882
 33
0.0
 40
0.0
 40
0.0
 40
0.0
 40
0.0
 40
0.2247072856
 40
1.0
 40
1.0
 40
1.0
 40
1.0
 10
24.7942449804
 20
1.9428367571
 30
0.0
 10
24.8001327398
 20
1.9507795117
 30
0.0
 10
24.8225313051
 20
1.9889852557
 30
0.0
 10
24.8295183776
 20
2.0345536899
 30
0.0
 10
24.8295183776
 20
2.0686662044
 30
0.0
 11
24.7942449804
 21
1.9428367571
 31
0.0
 11
24.8094208033
 21
1.9683214967
 31
0.0
 11
24.8295183776
 21
2.0686662044
 31
0.0
  0
SPLINE
  5
465
100
AcDbEntity
  8
RACCORDO
100
AcDbSpline
 62
253
  6
CONTINUOUS
 70
0
 71
3
 72
9
 73
5
 74
3
 42
0.0000001
 43
0.0000001
 44
0.0000000001
 12
-0.0003539364
 22
-0.1421098559
 32
0.0
 13
-0.1271073134
 23
-0.0635536567
 33
0.0
 40
0.0
 40
0.0
 40
0.0
 40
0.0
 40
0.2096822443
 40
1.0
 40
1.0
 40
1.0
 40
1.0
 10
25.553810423
 20
2.4927551154
 30
0.0
 10
25.553785685
 20
2.4828224776
 30
0.0
 10
25.5435103066
 20
2.4351253126
 30
0.0
 10
25.4993995362
 20
2.4036067834
 30
0.0
 10
25.4659144807
 20
2.3868642556
 30
0.0
 11
25.553810423
 21
2.4927551154
 31
0.0
 11
25.5479889276
 21
2.4635313007
 31
0.0
 11
25.4659144807
 21
2.3868642556
 31
0.0
  0
SPLINE
  5
466
100
AcDbEntity
  8
RACCORDO
100
AcDbSpline
 62
253
  6
CONTINUOUS
 70
0
 71
3
 72
9
 73
5
 74
3
 42
0.0000001
 43
0.0000001
 44
0.0000000001
 12
-0.0002623783
 22
-0.1053493376
 32
0.0
 13
-0.0859969091
 23
-0.0608529656
 33
0.0
 40
0.0
 40
0.0
 40
0.0
 40
0.0
 40
0.2207509802
 40
1.0
 40
1.0
 40
1.0
 40
1.0
 10
25.553810424
 20
8.4683304033
 30
0.0
 10
25.5537911172
 20
8.4605784134
 30
0.0
 10
25.548087725
 20
8.4252573138
 30
0.0
 10
25.5206907711
 20
8.3975238049
 30
0.0
 10
25.4983531021
 20
8.381717267
 30
0.0
 11
25.553810424
 21
8.4683304033
 31
0.0
 11
25.5502159095
 21
8.4453538295
 31
0.0
 11
25.4983531021
 21
8.381717267
 31
0.0
  0
SPLINE
  5
467
100
AcDbEntity
  8
RACCORDO
100
AcDbSpline
 62
253
  6
CONTINUOUS
 70
0
 71
3
 72
8
 73
4
 74
2
 42
0.0000001
 43
0.0000001
 44
0.0000000001
 12
-0.0308026899
 22
-0.0217965395
 32
0.0
 13
-0.0337507907
 23
-0.0168753953
 33
0.0
 40
0.0
 40
0.0
 40
0.0
 40
0.0
 40
1.0
 40
1.0
 40
1.0
 40
1.0
 10
25.4983531021
 20
8.381717267
 30
0.0
 10
25.4880855388
 20
8.3744517538
 30
0.0
 10
25.4771647442
 20
8.3680646739
 30
0.0
 10
25.4659144807
 20
8.3624395421
 30
0.0
 11
25.4983531021
 21
8.381717267
 31
0.0
 11
25.4659144807
 21
8.3624395421
 31
0.0
  0
SPLINE
  5
468
100
AcDbEntity
  8
RACCORDO
100
AcDbSpline
 62
253
  6
CONTINUOUS
 70
0
 71
3
 72
9
 73
5
 74
3
 42
0.0000001
 43
0.0000001
 44
0.0000000001
 12
0.1229354727
 22
0.0615019965
 32
0.0
 13
0.1229491799
 23
-0.0614745897
 33
0.0
 40
0.0
 40
0.0
 40
0.0
 40
0.0
 40
0.2296713698
 40
1.0
 40
1.0
 40
1.0
 40
1.0
 10
8.4672543959
 20
40.4457005171
 30
0.0
 10
8.4766659821
 20
40.450408933
 30
0.0
 10
8.5207308396
 20
40.4652048503
 30
0.0
 10
8.5698473249
 20
40.4529666432
 30
0.0
 10
8.6014177494
 20
40.437181431
 30
0.0
 11
8.4672543959
 21
40.4457005171
 31
0.0
 11
8.4971733224
 21
40.4557793088
 31
0.0
 11
8.6014177494
 21
40.437181431
 31
0.0
  0
SPLINE
  5
469
100
AcDbEntity
  8
RACCORDO
100
AcDbSpline
 62
253
  6
CONTINUOUS
 70
0
 71
3
 72
9
 73
5
 74
3
 42
0.0000001
 43
0.0000001
 44
0.0000000001
 12
-0.1228688003
 22
0.0610895655
 32
0.0
 13
-0.1227311764
 23
-0.0613655882
 33
0.0
 40
0.0
 40
0.0
 40
0.0
 40
0.0
 40
0.2300479038
 40
1.0
 40
1.0
 40
1.0
 40
1.0
 10
8.7353614927
 20
40.4458435106
 30
0.0
 10
8.7259395894
 20
40.4505280194
 30
0.0
 10
8.6818902715
 20
40.4651011042
 30
0.0
 10
8.6329167916
 20
40.4529309521
 30
0.0
 10
8.6014177494
 20
40.437181431
 30
0.0
 11
8.7353614927
 21
40.4458435106
 31
0.0
 11
8.7054120862
 21
40.455817728
 31
0.0
 11
8.6014177494
 21
40.437181431
 31
0.0
  0
SPLINE
  5
46A
100
AcDbEntity
  8
ASSI
100
AcDbSpline
 62
7
  6
CONTINUOUS
 70
0
 71
3
 72
8
 73
4
 74
2
 42
0.0000001
 43
0.0000001
 44
0.0000000001
 12
-0.1859034778
 22
-0.1101830229
 32
0.0
 13
-0.1539267489
 23
-0.1516804456
 33
0.0
 40
0.0
 40
0.0
 40
0.0
 40
0.0
 40
1.0
 40
1.0
 40
1.0
 40
1.0
 10
11.8614787408
 20
12.8111320669
 30
0.0
 10
11.7995109148
 20
12.7744043926
 30
0.0
 10
11.7417964228
 20
12.7295468432
 30
0.0
 10
11.6904875065
 20
12.6789866947
 30
0.0
 11
11.8614787408
 21
12.8111320669
 31
0.0
 11
11.6904875065
 21
12.6789866947
 31
0.0
  0
SPLINE
  5
46B
100
AcDbEntity
  8
ASSI
100
AcDbSpline
 62
7
  6
CONTINUOUS
 70
0
 71
3
 72
9
 73
5
 74
3
 42
0.0000001
 43
0.0000001
 44
0.0000000001
 12
-0.1612570133
 22
-0.1589037371
 32
0.0
 13
-0.1223785831
 23
-0.1904670691
 33
0.0
 40
0.0
 40
0.0
 40
0.0
 40
0.0
 40
0.2448324781
 40
1.0
 40
1.0
 40
1.0
 40
1.0
 10
11.6904875065
 20
12.6789866947
 30
0.0
 10
11.6773271885
 20
12.6660184294
 30
0.0
 10
11.6251567053
 20
12.6114560524
 30
0.0
 10
11.5794134798
 20
12.5508513788
 30
0.0
 10
11.548608036
 20
12.5029065306
 30
0.0
 11
11.6904875065
 21
12.6789866947
 31
0.0
 11
11.6521663999
 21
12.6389389524
 31
0.0
 11
11.548608036
 21
12.5029065306
 31
0.0
  0
SPLINE
  5
46C
100
AcDbEntity
  8
ASSI
100
AcDbSpline
 62
7
  6
CONTINUOUS
 70
0
 71
3
 72
13
 73
9
 74
7
 42
0.0000001
 43
0.0000001
 44
0.0000000001
 12
-2.3639783811
 22
-3.6792388203
 32
0.0
 13
3.9851587949
 23
-1.8010278906
 33
0.0
 40
0.0
 40
0.0
 40
0.0
 40
0.0
 40
0.2127572012
 40
0.3405943824
 40
0.4776284796
 40
0.7547253541
 40
0.8840264721
 40
1.0
 40
1.0
 40
1.0
 40
1.0
 10
11.548608036
 20
12.5029065306
 30
0.0
 10
11.3809568947
 20
12.241978346
 30
0.0
 10
11.2837120199
 20
11.7197204188
 30
0.0
 10
11.3627862742
 20
11.0291451858
 30
0.0
 10
11.5910651975
 20
10.2684912044
 30
0.0
 10
12.000499377
 20
9.5698910543
 30
0.0
 10
12.5468235494
 20
9.034703945
 30
0.0
 10
12.8516439909
 20
8.8398550697
 30
0.0
 10
13.0057016324
 20
8.7702312169
 30
0.0
 11
11.548608036
 21
12.5029065306
 31
0.0
 11
11.319414263
 21
11.6011393662
 31
0.0
 11
11.3770369203
 21
11.0450547372
 31
0.0
 11
11.5471343992
 21
10.470418957
 31
0.0
 11
12.167102401
 21
9.429206616
 31
0.0
 11
12.5741848959
 21
9.0367353372
 31
0.0
 11
13.0057016324
 21
8.7702312169
 31
0.0
  0
SPLINE
  5
46D
100
AcDbEntity
  8
ASSI
100
AcDbSpline
 62
7
  6
CONTINUOUS
 70
0
 71
3
 72
9
 73
5
 74
3
 42
0.0000001
 43
0.0000001
 44
0.0000000001
 12
-0.1935497849
 22
-0.1768097264
 32
0.0
 13
-0.1413554915
 23
-0.2207755051
 33
0.0
 40
0.0
 40
0.0
 40
0.0
 40
0.0
 40
0.2443983417
 40
1.0
 40
1.0
 40
1.0
 40
1.0
 10
11.8566835647
 20
12.7730804251
 30
0.0
 10
11.8409158159
 20
12.7586764238
 30
0.0
 10
11.7784351761
 20
12.6975303384
 30
0.0
 10
11.7244220424
 20
12.6278826812
 30
0.0
 10
11.6888192278
 20
12.5722765686
 30
0.0
 11
11.8566835647
 21
12.7730804251
 31
0.0
 11
11.8108812552
 21
12.7282806165
 31
0.0
 11
11.6888192278
 21
12.5722765686
 31
0.0
  0
SPLINE
  5
46E
100
AcDbEntity
  8
ASSI
100
AcDbSpline
 62
7
  6
CONTINUOUS
 70
0
 71
3
 72
9
 73
5
 74
3
 42
0.0000001
 43
0.0000001
 44
0.0000000001
 12
-0.1529251553
 22
-0.2388455379
 32
0.0
 13
-0.096392766
 23
-0.2667240686
 33
0.0
 40
0.0
 40
0.0
 40
0.0
 40
0.0
 40
0.2420645147
 40
1.0
 40
1.0
 40
1.0
 40
1.0
 10
11.6888192278
 20
12.5722765686
 30
0.0
 10
11.6764799767
 20
12.5530045589
 30
0.0
 10
11.6279857729
 20
12.4718091947
 30
0.0
 10
11.5892674434
 20
12.3849290968
 30
0.0
 10
11.5649142774
 20
12.3175425513
 30
0.0
 11
11.6888192278
 21
12.5722765686
 31
0.0
 11
11.6535753445
 21
12.5133624278
 31
0.0
 11
11.5649142774
 21
12.3175425513
 31
0.0
  0
SPLINE
  5
46F
100
AcDbEntity
  8
ASSI
100
AcDbSpline
 62
7
  6
CONTINUOUS
 70
0
 71
3
 72
9
 73
5
 74
3
 42
0.0000001
 43
0.0000001
 44
0.0000000001
 12
-0.1089359698
 22
-0.3014318012
 32
0.0
 13
-0.0502575632
 23
-0.3165475535
 33
0.0
 40
0.0
 40
0.0
 40
0.0
 40
0.0
 40
0.2416404644
 40
1.0
 40
1.0
 40
1.0
 40
1.0
 10
11.5649142774
 20
12.3175425513
 30
0.0
 10
11.5561398313
 20
12.2932631779
 30
0.0
 10
11.5224664494
 20
12.1918396619
 30
0.0
 10
11.4990520603
 20
12.0871105996
 30
0.0
 10
11.4863476262
 20
12.0070916477
 30
0.0
 11
11.5649142774
 21
12.3175425513
 31
0.0
 11
11.5404651518
 21
12.2440541156
 31
0.0
 11
11.4863476262
 21
12.0070916477
 31
0.0
  0
SPLINE
  5
470
100
AcDbEntity
  8
ASSI
100
AcDbSpline
 62
7
  6
CONTINUOUS
 70
0
 71
3
 72
9
 73
5
 74
3
 42
0.0000001
 43
0.0000001
 44
0.0000000001
 12
-0.1099173867
 22
-0.6923152985
 32
0.0
 13
0.0951557379
 23
-0.6944981569
 33
0.0
 40
0.0
 40
0.0
 40
0.0
 40
0.0
 40
0.2364172517
 40
1.0
 40
1.0
 40
1.0
 40
1.0
 10
11.4863476262
 20
12.0070916477
 30
0.0
 10
11.477685504
 20
11.952533221
 30
0.0
 10
11.4509025891
 20
11.7202050499
 30
0.0
 10
11.4621276003
 20
11.4843345835
 30
0.0
 10
11.4863473602
 20
11.3075656464
 30
0.0
 11
11.4863476262
 21
12.0070916477
 31
0.0
 11
11.4671459992
 21
11.8424824557
 31
0.0
 11
11.4863473602
 21
11.3075656464
 31
0.0
  0
SPLINE
  5
471
100
AcDbEntity
  8
ASSI
100
AcDbSpline
 62
7
  6
CONTINUOUS
 70
0
 71
3
 72
9
 73
5
 74
3
 42
0.0000001
 43
0.0000001
 44
0.0000000001
 12
0.0538929058
 22
-0.3933396405
 32
0.0
 13
0.101863001
 23
-0.3837244417
 33
0.0
 40
0.0
 40
0.0
 40
0.0
 40
0.0
 40
0.2455649175
 40
1.0
 40
1.0
 40
1.0
 40
1.0
 10
11.4863473602
 20
11.3075656464
 30
0.0
 10
11.4907587625
 20
11.2753688409
 30
0.0
 10
11.5108701422
 20
11.1445556399
 30
0.0
 10
11.5392974064
 20
11.0150465275
 30
0.0
 10
11.5649137469
 20
10.9185481339
 30
0.0
 11
11.4863473602
 21
11.3075656464
 31
0.0
 11
11.5011375266
 21
11.2112012144
 31
0.0
 11
11.5649137469
 21
10.9185481339
 31
0.0
  0
SPLINE
  5
472
100
AcDbEntity
  8
ASSI
100
AcDbSpline
 62
7
  6
CONTINUOUS
 70
0
 71
3
 72
9
 73
5
 74
3
 42
0.0000001
 43
0.0000001
 44
0.0000000001
 12
0.5735339718
 22
-1.4693080959
 32
0.0
 13
1.1656824237
 23
-1.0625403449
 33
0.0
 40
0.0
 40
0.0
 40
0.0
 40
0.0
 40
0.2565320069
 40
1.0
 40
1.0
 40
1.0
 40
1.0
 10
11.6888184628
 20
10.5399091453
 30
0.0
 10
11.7378617364
 20
10.4142676271
 30
0.0
 10
11.9561161707
 20
9.9359977997
 30
0.0
 10
12.2750771166
 20
9.4997855422
 30
0.0
 10
12.5639596407
 20
9.2364639629
 30
0.0
 11
11.6888184628
 21
10.5399091453
 31
0.0
 11
11.8564675941
 21
10.1716523426
 31
0.0
 11
12.5639596407
 21
9.2364639629
 31
0.0
  0
SPLINE
  5
473
100
AcDbEntity
  8
ASSI
100
AcDbSpline
 62
7
  6
CONTINUOUS
 70
0
 71
3
 72
9
 73
5
 74
3
 42
0.0000001
 43
0.0000001
 44
0.0000000001
 12
0.263844185
 22
-0.2404986861
 32
0.0
 13
0.2943765873
 23
-0.201979694
 33
0.0
 40
0.0
 40
0.0
 40
0.0
 40
0.0
 40
0.2566506329
 40
1.0
 40
1.0
 40
1.0
 40
1.0
 10
12.5639596407
 20
9.2364639629
 30
0.0
 10
12.5865315664
 20
9.2158892496
 30
0.0
 10
12.6757602214
 20
9.1371479115
 30
0.0
 10
12.7701479499
 20
9.0641850354
 30
0.0
 10
12.8430894998
 20
9.0141378762
 30
0.0
 11
12.5639596407
 21
9.2364639629
 31
0.0
 11
12.6326725738
 21
9.1758518458
 31
0.0
 11
12.8430894998
 21
9.0141378762
 31
0.0
  0
SPLINE
  5
474
100
AcDbEntity
  8
ASSI
100
AcDbSpline
 62
7
  6
CONTINUOUS
 70
0
 71
3
 72
9
 73
5
 74
3
 42
0.0000001
 43
0.0000001
 44
0.0000000001
 12
0.1576553114
 22
-0.1081715494
 32
0.0
 13
0.1666636222
 23
-0.0936990841
 33
0.0
 40
0.0
 40
0.0
 40
0.0
 40
0.0
 40
0.2547609424
 40
1.0
 40
1.0
 40
1.0
 40
1.0
 10
12.8430894998
 20
9.0141378762
 30
0.0
 10
12.8564776384
 20
9.0049519142
 30
0.0
 10
12.9094056287
 20
8.9694479593
 30
0.0
 10
12.9638565087
 20
8.9361999259
 30
0.0
 10
13.0052579223
 20
8.9129238535
 30
0.0
 11
12.8430894998
 21
9.0141378762
 31
0.0
 11
12.8835444481
 21
8.9870082886
 31
0.0
 11
13.0052579223
 21
8.9129238535
 31
0.0
  0
SPLINE
  5
475
100
AcDbEntity
  8
ASSI
100
AcDbSpline
 62
7
  6
CONTINUOUS
 70
0
 71
3
 72
9
 73
5
 74
3
 42
0.0000001
 43
0.0000001
 44
0.0000000001
 12
0.5311523379
 22
0.1537743837
 32
0.0
 13
0.510924685
 23
-0.2114836481
 33
0.0
 40
0.0
 40
0.0
 40
0.0
 40
0.0
 40
0.4717678476
 40
1.0
 40
1.0
 40
1.0
 40
1.0
 10
12.4627156064
 20
12.348394742
 30
0.0
 10
12.5462424715
 20
12.3725766787
 30
0.0
 10
12.7353158886
 20
12.3852856223
 30
0.0
 10
12.9154659209
 20
12.3344745302
 30
0.0
 10
13.0054282029
 20
12.2972370427
 30
0.0
 11
12.4627156064
 21
12.348394742
 31
0.0
 11
12.7226539573
 21
12.3704306901
 31
0.0
 11
13.0054282029
 21
12.2972370427
 31
0.0
  0
SPLINE
  5
476
100
AcDbEntity
  8
RACCORDO
100
AcDbSpline
 62
253
  6
CONTINUOUS
 70
0
 71
3
 72
9
 73
5
 74
3
 42
0.0000001
 43
0.0000001
 44
0.0000000001
 12
0.5279332636
 22
-0.2639666318
 32
0.0
 13
0.2073563889
 23
-0.5526257698
 33
0.0
 40
0.0
 40
0.0
 40
0.0
 40
0.0
 40
0.4706897064
 40
1.0
 40
1.0
 40
1.0
 40
1.0
 10
7.3286255432
 20
10.6069805873
 30
0.0
 10
7.4114564608
 20
10.5655651285
 30
0.0
 10
7.5629514105
 20
10.4299721287
 30
0.0
 10
7.6613340448
 20
10.2560138333
 30
0.0
 10
7.6979193352
 20
10.1585103304
 30
0.0
 11
7.3286255432
 21
10.6069805873
 31
0.0
 11
7.5423037179
 21
10.4294208848
 31
0.0
 11
7.6979193352
 21
10.1585103304
 31
0.0
  0
SPLINE
  5
477
100
AcDbEntity
  8
RACCORDO
100
AcDbSpline
 62
253
  6
CONTINUOUS
 70
0
 71
3
 72
9
 73
5
 74
3
 42
0.0000001
 43
0.0000001
 44
0.0000000001
 12
0.0854521918
 22
-0.2277387426
 32
0.0
 13
0.0169004539
 23
-0.2426548714
 33
0.0
 40
0.0
 40
0.0
 40
0.0
 40
0.0
 40
0.2588717894
 40
1.0
 40
1.0
 40
1.0
 40
1.0
 10
7.6979193352
 20
10.1585103304
 30
0.0
 10
7.7052930558
 20
10.1388586185
 30
0.0
 10
7.7312485995
 20
10.0620484901
 30
0.0
 10
7.7470683493
 20
9.9816008736
 30
0.0
 10
7.7512434837
 20
9.9216547501
 30
0.0
 11
7.6979193352
 21
10.1585103304
 31
0.0
 11
7.7180521257
 21
10.0988469029
 31
0.0
 11
7.7512434837
 21
9.9216547501
 31
0.0
  0
SPLINE
  5
478
100
AcDbEntity
  8
ASSI
100
AcDbSpline
 62
7
  6
CONTINUOUS
 70
0
 71
3
 72
10
 73
6
 74
4
 42
0.0000001
 43
0.0000001
 44
0.0000000001
 12
0.8605752129
 22
-1.9066522591
 32
0.0
 13
1.9062376587
 23
-0.8614931936
 33
0.0
 40
0.0
 40
0.0
 40
0.0
 40
0.0
 40
0.5312958933
 40
0.7777835555
 40
1.0
 40
1.0
 40
1.0
 40
1.0
 10
8.8317041525
 20
11.6867595942
 30
0.0
 10
8.9841108447
 20
11.3490940891
 30
0.0
 10
9.28193323
 20
10.8813622649
 30
0.0
 10
9.7936683407
 20
10.4041108956
 30
0.0
 10
10.0738355986
 20
10.2293773941
 30
0.0
 10
10.2150347169
 20
10.1655647426
 30
0.0
 11
8.8317041525
 21
11.6867595942
 31
0.0
 11
9.4377425809
 21
10.7551322215
 31
0.0
 11
9.817238356
 21
10.4060668523
 31
0.0
 11
10.2150347169
 21
10.1655647426
 31
0.0
  0
SPLINE
  5
479
100
AcDbEntity
  8
ASSI
100
AcDbSpline
 62
7
  6
CONTINUOUS
 70
0
 71
3
 72
9
 73
5
 74
3
 42
0.0000001
 43
0.0000001
 44
0.0000000001
 12
0.3023004504
 22
-0.6682607719
 32
0.0
 13
0.4281943144
 23
-0.5954894211
 33
0.0
 40
0.0
 40
0.0
 40
0.0
 40
0.0
 40
0.2513445264
 40
1.0
 40
1.0
 40
1.0
 40
1.0
 10
8.9729654449
 20
11.7576131533
 30
0.0
 10
8.9982926327
 20
11.7016252576
 30
0.0
 10
9.1045738259
 20
11.4814174988
 30
0.0
 10
9.2322226194
 20
11.2714430098
 30
0.0
 10
9.3390792918
 20
11.1228375383
 30
0.0
 11
8.9729654449
 21
11.7576131533
 31
0.0
 11
9.0530689033
 21
11.5915757052
 31
0.0
 11
9.3390792918
 21
11.1228375383
 31
0.0
  0
SPLINE
  5
47A
100
AcDbEntity
  8
ASSI
100
AcDbSpline
 62
7
  6
CONTINUOUS
 70
0
 71
3
 72
9
 73
5
 74
3
 42
0.0000001
 43
0.0000001
 44
0.0000000001
 12
0.3830589378
 22
-0.5327196964
 32
0.0
 13
0.4849207736
 23
-0.4420138777
 33
0.0
 40
0.0
 40
0.0
 40
0.0
 40
0.0
 40
0.2566811133
 40
1.0
 40
1.0
 40
1.0
 40
1.0
 10
9.3390792918
 20
11.1228375383
 30
0.0
 10
9.3718539567
 20
11.0772578433
 30
0.0
 10
9.503743971
 20
10.9027712479
 30
0.0
 10
9.6531426444
 20
10.7413164184
 30
0.0
 10
9.7732929009
 20
10.6317973305
 30
0.0
 11
9.3390792918
 21
11.1228375383
 31
0.0
 11
9.4407148695
 21
10.9885416166
 31
0.0
 11
9.7732929009
 21
10.6317973305
 31
0.0
  0
SPLINE
  5
47B
100
AcDbEntity
  8
ASSI
100
AcDbSpline
 62
7
  6
CONTINUOUS
 70
0
 71
3
 72
9
 73
5
 74
3
 42
0.0000001
 43
0.0000001
 44
0.0000000001
 12
0.2638441166
 22
-0.2404985874
 32
0.0
 13
0.2943765007
 23
-0.2019796135
 33
0.0
 40
0.0
 40
0.0
 40
0.0
 40
0.0
 40
0.2566506319
 40
1.0
 40
1.0
 40
1.0
 40
1.0
 10
9.7732929009
 20
10.6317973305
 30
0.0
 10
9.7958648207
 20
10.6112226257
 30
0.0
 10
9.8850934522
 20
10.5324813199
 30
0.0
 10
9.979481154
 20
10.4595184735
 30
0.0
 10
10.0524226826
 20
10.4094713342
 30
0.0
 11
9.7732929009
 21
10.6317973305
 31
0.0
 11
9.8420058156
 21
10.5711852385
 31
0.0
 11
10.0524226826
 21
10.4094713342
 31
0.0
  0
SPLINE
  5
47C
100
AcDbEntity
  8
ASSI
100
AcDbSpline
 62
7
  6
CONTINUOUS
 70
0
 71
3
 72
9
 73
5
 74
3
 42
0.0000001
 43
0.0000001
 44
0.0000000001
 12
0.1576552188
 22
-0.1081714746
 32
0.0
 13
0.1666635187
 23
-0.093699026
 33
0.0
 40
0.0
 40
0.0
 40
0.0
 40
0.0
 40
0.2547609396
 40
1.0
 40
1.0
 40
1.0
 40
1.0
 10
10.0524226826
 20
10.4094713342
 30
0.0
 10
10.0658108132
 20
10.4002853787
 30
0.0
 10
10.1187387721
 20
10.364781448
 30
0.0
 10
10.173189619
 20
10.3315334365
 30
0.0
 10
10.214591007
 20
10.3082573785
 30
0.0
 11
10.0524226826
 21
10.4094713342
 31
0.0
 11
10.0928776065
 21
10.3823417654
 31
0.0
 11
10.214591007
 21
10.3082573785
 31
0.0
  0
SPLINE
  5
47D
100
AcDbEntity
  8
RACCORDO
100
AcDbSpline
 62
253
  6
CONTINUOUS
 70
0
 71
3
 72
9
 73
5
 74
3
 42
0.0000001
 43
0.0000001
 44
0.0000000001
 12
0.0
 22
-0.1870820585
 32
0.0
 13
0.1673410082
 23
-0.0836461811
 33
0.0
 40
0.0
 40
0.0
 40
0.0
 40
0.0
 40
0.5511859024
 40
1.0
 40
1.0
 40
1.0
 40
1.0
 10
7.3286255432
 20
10.6069805873
 30
0.0
 10
7.3286255432
 20
10.5726082562
 30
0.0
 10
7.3375788821
 20
10.5086927255
 30
0.0
 10
7.3815412964
 20
10.4571979024
 30
0.0
 10
7.4065762976
 20
10.4446840407
 30
0.0
 11
7.3286255432
 21
10.6069805873
 31
0.0
 11
7.3491314152
 21
10.5059230615
 31
0.0
 11
7.4065762976
 21
10.4446840407
 31
0.0
  0
SPLINE
  5
47E
100
AcDbEntity
  8
RACCORDO
100
AcDbSpline
 62
253
  6
CONTINUOUS
 70
0
 71
3
 72
9
 73
5
 74
3
 42
0.0000001
 43
0.0000001
 44
0.0000000001
 12
-0.1262235447
 22
0.0631117724
 32
0.0
 13
0.0
 23
0.1411222132
 33
0.0
 40
0.0
 40
0.0
 40
0.0
 40
0.0
 40
0.3076584436
 40
1.0
 40
1.0
 40
1.0
 40
1.0
 10
7.7528896119
 20
9.8752333106
 30
0.0
 10
7.7399450322
 20
9.8817056005
 30
0.0
 10
7.7000271976
 20
9.904772433
 30
0.0
 10
7.6649831051
 20
9.9487310702
 30
0.0
 10
7.6649831051
 20
9.9812993278
 30
0.0
 11
7.7528896119
 21
9.8752333106
 31
0.0
 11
7.7158442323
 21
9.8978764991
 31
0.0
 11
7.6649831051
 21
9.9812993278
 31
0.0
  0
SPLINE
  5
47F
100
AcDbEntity
  8
RACCORDO
100
AcDbSpline
 62
253
  6
CONTINUOUS
 70
0
 71
3
 72
8
 73
4
 74
2
 42
0.0000001
 43
0.0000001
 44
0.0000000001
 12
0.0359848033
 22
0.013082016
 32
0.0
 13
0.0342466957
 23
0.0171233479
 33
0.0
 40
0.0
 40
0.0
 40
0.0
 40
0.0
 40
1.0
 40
1.0
 40
1.0
 40
1.0
 10
24.7942998678
 20
2.0536428299
 30
0.0
 10
24.8062948023
 20
2.0580035019
 30
0.0
 10
24.8181028123
 20
2.0629584218
 30
0.0
 10
24.8295183776
 20
2.0686662044
 30
0.0
 11
24.7942998678
 21
2.0536428299
 31
0.0
 11
24.8295183776
 21
2.0686662044
 31
0.0
  0
SPLINE
  5
480
100
AcDbEntity
  8
RACCORDO
100
AcDbSpline
 62
253
  6
CONTINUOUS
 70
0
 71
3
 72
9
 73
5
 74
3
 42
0.0000001
 43
0.0000001
 44
0.0000000001
 12
-0.0000000001
 22
-0.1862792057
 32
0.0
 13
-0.1659535004
 23
-0.0846131087
 33
0.0
 40
0.0
 40
0.0
 40
0.0
 40
0.0
 40
0.5511998984
 40
1.0
 40
1.0
 40
1.0
 40
1.0
 10
25.4659144807
 20
2.386864256
 30
0.0
 10
25.4659144806
 20
2.3526385629
 30
0.0
 10
25.4571290313
 20
2.2889767858
 30
0.0
 10
25.4135419032
 20
2.2376503107
 30
0.0
 10
25.3887152539
 20
2.2249921868
 30
0.0
 11
25.4659144807
 21
2.386864256
 31
0.0
 11
25.4456559108
 21
2.2862055606
 31
0.0
 11
25.3887152539
 21
2.2249921868
 31
0.0
  0
SPLINE
  5
481
100
AcDbEntity
  8
RACCORDO
100
AcDbSpline
 62
253
  6
CONTINUOUS
 70
0
 71
3
 72
8
 73
4
 74
2
 42
0.0000001
 43
0.0000001
 44
0.0000000001
 12
0.0214815292
 22
-0.0708007358
 32
0.0
 13
0.0088514647
 23
-0.0734564623
 33
0.0
 40
0.0
 40
0.0
 40
0.0
 40
0.0
 40
1.0
 40
1.0
 40
1.0
 40
1.0
 10
25.4479442379
 20
8.4760444571
 30
0.0
 10
25.4551047476
 20
8.4524442119
 30
0.0
 10
25.4603980609
 20
8.4281634642
 30
0.0
 10
25.4633485492
 20
8.4036779768
 30
0.0
 11
25.4479442379
 21
8.4760444571
 31
0.0
 11
25.4633485492
 21
8.4036779768
 31
0.0
  0
SPLINE
  5
482
100
AcDbEntity
  8
RACCORDO
100
AcDbSpline
 62
253
  6
CONTINUOUS
 70
0
 71
3
 72
8
 73
4
 74
2
 42
0.0000001
 43
0.0000001
 44
0.0000000001
 12
0.0049430619
 22
-0.0410214412
 32
0.0
 13
0.0000000001
 23
-0.0413181861
 33
0.0
 40
0.0
 40
0.0
 40
0.0
 40
0.0
 40
1.0
 40
1.0
 40
1.0
 40
1.0
 10
25.4633485492
 20
8.4036779768
 30
0.0
 10
25.4649962365
 20
8.390004163
 30
0.0
 10
25.4659144806
 20
8.3762122708
 30
0.0
 10
25.4659144807
 20
8.3624395421
 30
0.0
 11
25.4633485492
 21
8.4036779768
 31
0.0
 11
25.4659144807
 21
8.3624395421
 31
0.0
  0
SPLINE
  5
483
100
AcDbEntity
  8
RACCORDO
100
AcDbSpline
 62
7
  6
CONTINUOUS
 70
0
 71
3
 72
8
 73
4
 74
2
 42
0.0000001
 43
0.0000001
 44
0.0000000001
 12
-0.1972228756
 22
-0.279732187
 32
0.0
 13
-0.2960461478
 23
-0.1717662292
 33
0.0
 40
0.0
 40
0.0
 40
0.0
 40
0.0
 40
1.0
 40
1.0
 40
1.0
 40
1.0
 10
8.4172578819
 20
38.4830381446
 30
0.0
 10
8.3515169234
 20
38.3897940823
 30
0.0
 10
8.2634977687
 20
38.3091660707
 30
0.0
 10
8.1648157195
 20
38.2519106609
 30
0.0
 11
8.4172578819
 21
38.4830381446
 31
0.0
 11
8.1648157195
 21
38.2519106609
 31
0.0
  0
SPLINE
  5
484
100
AcDbEntity
  8
COPY-PUBBLISH
100
AcDbSpline
 62
7
  6
CONTINUOUS
 70
0
 71
3
 72
10
 73
6
 74
4
 42
0.0000001
 43
0.0000001
 44
0.0000000001
 12
-0.1681526063
 22
0.0843141609
 32
0.0
 13
0.0
 23
0.1881068226
 33
0.0
 40
0.0
 40
0.0
 40
0.0
 40
0.0
 40
0.2177531657
 40
0.4518408253
 40
1.0
 40
1.0
 40
1.0
 40
1.0
 10
24.871978405
 20
1.3187504389
 30
0.0
 10
24.8597731508
 20
1.3248703308
 30
0.0
 10
24.8366787126
 20
1.3425031935
 30
0.0
 10
24.8019772744
 20
1.3957818121
 30
0.0
 10
24.7941630385
 20
1.4465579665
 30
0.0
 10
24.7941630385
 20
1.4809287934
 30
0.0
 11
24.871978405
 21
1.3187504389
 31
0.0
 11
24.8392357218
 21
1.3433615835
 31
0.0
 11
24.8146071009
 21
1.3798633493
 31
0.0
 11
24.7941630385
 21
1.4809287934
 31
0.0
  0
SPLINE
  5
485
100
AcDbEntity
  8
COPY-PUBBLISH
100
AcDbSpline
 62
7
  6
CONTINUOUS
 70
0
 71
3
 72
10
 73
6
 74
4
 42
0.0000001
 43
0.0000001
 44
0.0000000001
 12
-0.1681526063
 22
0.0843141609
 32
0.0
 13
-0.0
 23
0.1881068226
 33
0.0
 40
0.0
 40
0.0
 40
0.0
 40
0.0
 40
0.2177531657
 40
0.4518408253
 40
1.0
 40
1.0
 40
1.0
 40
1.0
 10
26.2861919673
 20
10.686111258
 30
0.0
 10
26.2739867132
 20
10.6922311498
 30
0.0
 10
26.250892275
 20
10.7098640125
 30
0.0
 10
26.2161908368
 20
10.7631426311
 30
0.0
 10
26.2083766009
 20
10.8139187855
 30
0.0
 10
26.2083766009
 20
10.8482896124
 30
0.0
 11
26.2861919673
 21
10.686111258
 31
0.0
 11
26.2534492842
 21
10.7107224025
 31
0.0
 11
26.2288206633
 21
10.7472241684
 31
0.0
 11
26.2083766009
 21
10.8482896124
 31
0.0
  0
SPLINE
  5
486
100
AcDbEntity
  8
RACCORDO
100
AcDbSpline
 62
7
  6
CONTINUOUS
 70
0
 71
3
 72
11
 73
7
 74
5
 42
0.0000001
 43
0.0000001
 44
0.0000000001
 12
-0.8445731682
 22
0.4224448143
 32
0.0
 13
-0.0
 23
0.9443322813
 33
0.0
 40
0.0
 40
0.0
 40
0.0
 40
0.0
 40
0.2171669585
 40
0.4503924284
 40
0.7103257912
 40
1.0
 40
1.0
 40
1.0
 40
1.0
 10
21.7896845387
 20
-27.1744384512
 30
0.0
 10
21.7285467433
 20
-27.1438580994
 30
0.0
 10
21.6129210244
 20
-27.0557657779
 30
0.0
 10
21.4889382697
 20
-26.8656165979
 30
0.0
 10
21.4147952485
 20
-26.6280868683
 30
0.0
 10
21.4000504888
 20
-26.4544336309
 30
0.0
 10
21.4000504888
 20
-26.3632507287
 30
0.0
 11
21.7896845387
 21
-27.1744384512
 31
0.0
 11
21.625648691
 21
-27.0513566404
 31
0.0
 11
21.5024052571
 21
-26.8688251518
 31
0.0
 11
21.4259571983
 21
-26.6355699113
 31
0.0
 11
21.4000504888
 21
-26.3632507287
 31
0.0
  0
SPLINE
  5
487
100
AcDbEntity
  8
RACCORDO
100
AcDbSpline
 62
7
  6
CONTINUOUS
 70
0
 71
3
 72
11
 73
7
 74
5
 42
0.0000001
 43
0.0000001
 44
0.0000000001
 12
-0.8449320865
 22
0.4224127191
 32
0.0
 13
0.0
 23
0.9446389448
 33
0.0
 40
0.0
 40
0.0
 40
0.0
 40
0.0
 40
0.2171524514
 40
0.45041626
 40
0.7102433424
 40
1.0
 40
1.0
 40
1.0
 40
1.0
 10
-18.3030092898
 20
-34.6829276965
 30
0.0
 10
-18.3641689811
 20
-34.6523517107
 30
0.0
 10
-18.4799134427
 20
-34.564323929
 30
0.0
 10
-18.6039198235
 20
-34.3741189822
 30
0.0
 10
-18.6781838053
 20
-34.1365449457
 30
0.0
 10
-18.6929040044
 20
-33.9628326512
 30
0.0
 10
-18.6929040044
 20
-33.8715941768
 30
0.0
 11
-18.3030092898
 21
-34.6829276965
 31
0.0
 11
-18.4671492116
 21
-34.5598965021
 31
0.0
 11
-18.5904834979
 21
-34.3772963632
 31
0.0
 11
-18.6669817587
 21
-34.1440793509
 31
0.0
 11
-18.6929040044
 21
-33.8715941768
 31
0.0
  0
SPLINE
  5
488
100
AcDbEntity
  8
RACCORDO
100
AcDbSpline
 62
7
  6
CONTINUOUS
 70
0
 71
3
 72
10
 73
6
 74
4
 42
0.0000001
 43
0.0000001
 44
0.0000000001
 12
0.5842108378
 22
-0.2920685491
 32
0.0
 13
0.5940044493
 23
0.2715972286
 33
0.0
 40
0.0
 40
0.0
 40
0.0
 40
0.0
 40
0.2294466037
 40
0.4684363355
 40
1.0
 40
1.0
 40
1.0
 40
1.0
 10
0.4353204116
 20
-44.0520925472
 30
0.0
 10
0.4800021425
 20
-44.0744305928
 30
0.0
 10
0.5778988559
 20
-44.1077838749
 30
0.0
 10
0.7969059248
 20
-44.1233267333
 30
0.0
 10
0.9638189687
 20
-44.0753077009
 30
0.0
 10
1.0690693626
 20
-44.0271839615
 30
0.0
 11
0.4353204116
 21
-44.0520925472
 31
0.0
 11
0.5770306846
 21
-44.1008491537
 31
0.0
 11
0.7326528203
 21
-44.1130080113
 31
0.0
 11
1.0690693626
 21
-44.0271839615
 31
0.0
  0
SPLINE
  5
489
100
AcDbEntity
  8
RACCORDO
100
AcDbSpline
 62
7
  6
CONTINUOUS
 70
0
 71
3
 72
11
 73
7
 74
5
 42
0.0000001
 43
0.0000001
 44
0.0000000001
 12
-0.8449320865
 22
0.4224127191
 32
0.0
 13
0.0
 23
0.9446389448
 33
0.0
 40
0.0
 40
0.0
 40
0.0
 40
0.0
 40
0.2171524514
 40
0.45041626
 40
0.7102433424
 40
1.0
 40
1.0
 40
1.0
 40
1.0
 10
-26.0811838829
 20
-27.7466974457
 30
0.0
 10
-26.1423435742
 20
-27.7161214599
 30
0.0
 10
-26.2580880357
 20
-27.6280936783
 30
0.0
 10
-26.3820944165
 20
-27.4378887314
 30
0.0
 10
-26.4563583983
 20
-27.2003146949
 30
0.0
 10
-26.4710785975
 20
-27.0266024005
 30
0.0
 10
-26.4710785975
 20
-26.935363926
 30
0.0
 11
-26.0811838829
 21
-27.7466974457
 31
0.0
 11
-26.2453238047
 21
-27.6236662513
 31
0.0
 11
-26.3686580909
 21
-27.4410661124
 31
0.0
 11
-26.4451563517
 21
-27.2078491002
 31
0.0
 11
-26.4710785975
 21
-26.935363926
 31
0.0
  0
SPLINE
  5
48A
100
AcDbEntity
  8
RACCORDO
100
AcDbSpline
 62
7
  6
CONTINUOUS
 70
0
 71
3
 72
10
 73
6
 74
4
 42
0.0000001
 43
0.0000001
 44
0.0000000001
 12
0.5842108378
 22
-0.2920685491
 32
0.0
 13
0.5940044493
 23
0.2715972286
 33
0.0
 40
0.0
 40
0.0
 40
0.0
 40
0.0
 40
0.2294466037
 40
0.4684363355
 40
1.0
 40
1.0
 40
1.0
 40
1.0
 10
-7.3428541814
 20
-37.1158622964
 30
0.0
 10
-7.2981724506
 20
-37.138200342
 30
0.0
 10
-7.2002757372
 20
-37.1715536242
 30
0.0
 10
-6.9812686682
 20
-37.1870964825
 30
0.0
 10
-6.8143556244
 20
-37.1390774501
 30
0.0
 10
-6.7091052304
 20
-37.0909537107
 30
0.0
 11
-7.3428541814
 21
-37.1158622964
 31
0.0
 11
-7.2011439084
 21
-37.1646189029
 31
0.0
 11
-7.0455217727
 21
-37.1767777605
 31
0.0
 11
-6.7091052304
 21
-37.0909537107
 31
0.0
  0
SPLINE
  5
48B
100
AcDbEntity
  8
COPY-PUBBLISH
100
AcDbSpline
 62
7
  6
CONTINUOUS
 70
0
 71
3
 72
9
 73
5
 74
3
 42
0.0000001
 43
0.0000001
 44
0.0000000001
 12
0.4923955614
 22
-0.2462214391
 32
0.0
 13
0.5354307293
 23
0.1280324959
 33
0.0
 40
0.0
 40
0.0
 40
0.0
 40
0.0
 40
0.4798147988
 40
1.0
 40
1.0
 40
1.0
 40
1.0
 10
-6.0968989523
 20
5.2619629535
 30
0.0
 10
-6.0181460599
 20
5.2225827234
 30
0.0
 10
-5.8359716499
 20
5.1735022003
 30
0.0
 10
-5.6498506618
 20
5.1924673763
 30
0.0
 10
-5.5570096146
 20
5.2146675795
 30
0.0
 11
-6.0968989523
 21
5.2619629535
 31
0.0
 11
-5.8424175141
 21
5.1911492341
 31
0.0
 11
-5.5570096146
 21
5.2146675795
 31
0.0
  0
SPLINE
  5
48C
100
AcDbEntity
  8
COPY-PUBBLISH
100
AcDbSpline
 62
7
  6
CONTINUOUS
 70
0
 71
3
 72
16
 73
12
 74
10
 42
0.0000001
 43
0.0000001
 44
0.0000000001
 12
3.1889777163
 22
-1.5949550506
 32
0.0
 13
-0.1655751914
 23
3.5617475127
 33
0.0
 40
0.0
 40
0.0
 40
0.0
 40
0.0
 40
0.0448101242
 40
0.0911114224
 40
0.1923408777
 40
0.3093435144
 40
0.4412500546
 40
0.5833020864
 40
0.7286210594
 40
0.8697466772
 40
1.0
 40
1.0
 40
1.0
 40
1.0
 10
-6.0969160672
 20
1.4643792673
 30
0.0
 10
-6.049283238
 20
1.4405558893
 30
0.0
 10
-5.9462447113
 20
1.403565646
 30
0.0
 10
-5.7173706588
 20
1.3775565488
 30
0.0
 10
-5.4019693352
 20
1.444178311
 30
0.0
 10
-5.036877509
 20
1.6530490033
 30
0.0
 10
-4.6946197569
 20
1.9724042144
 30
0.0
 10
-4.4004248575
 20
2.3779630879
 30
0.0
 10
-4.1764574183
 20
2.8382872338
 30
0.0
 10
-4.0402465451
 20
3.3170453679
 30
0.0
 10
-4.0138292161
 20
3.6416473425
 30
0.0
 10
-4.0210181224
 20
3.796290492
 30
0.0
 11
-6.0969160672
 21
1.4643792673
 31
0.0
 11
-5.9466301003
 21
1.4101382681
 31
0.0
 11
-5.7826976586
 21
1.3906087779
 31
0.0
 11
-5.4277996423
 21
1.4563913468
 31
0.0
 11
-5.0616180524
 21
1.6562749323
 31
0.0
 11
-4.7145367343
 21
1.9736710904
 31
0.0
 11
-4.4152855324
 21
2.3823162143
 31
0.0
 11
-4.1887006497
 21
2.8482959497
 31
0.0
 11
-4.0535382453
 21
3.3329999803
 31
0.0
 11
-4.0210181224
 21
3.796290492
 31
0.0
  0
SPLINE
  5
48D
100
AcDbEntity
  8
COPY-PUBBLISH
100
AcDbSpline
 62
7
  6
CONTINUOUS
 70
0
 71
3
 72
9
 73
5
 74
3
 42
0.0000001
 43
0.0000001
 44
0.0000000001
 12
-0.2028955457
 22
0.1014607566
 32
0.0
 13
-0.2260757787
 23
0.0187251143
 33
0.0
 40
0.0
 40
0.0
 40
0.0
 40
0.0
 40
0.2469550764
 40
1.0
 40
1.0
 40
1.0
 40
1.0
 10
-4.2412773998
 20
-24.3802656537
 30
0.0
 10
-4.2579794281
 20
-24.3719135708
 30
0.0
 10
-4.3272369997
 20
-24.3413889467
 30
0.0
 10
-4.4024684438
 20
-24.3249151955
 30
0.0
 10
-4.4592168496
 20
-24.3202149114
 30
0.0
 11
-4.2412773998
 21
-24.3802656537
 31
0.0
 11
-4.2925507733
 21
-24.3576940669
 31
0.0
 11
-4.4592168496
 21
-24.3202149114
 31
0.0
  0
SPLINE
  5
48E
100
AcDbEntity
  8
COPY-PUBBLISH
100
AcDbSpline
 62
7
  6
CONTINUOUS
 70
0
 71
3
 72
11
 73
7
 74
5
 42
0.0000001
 43
0.0000001
 44
0.0000000001
 12
-1.0473631351
 22
0.086749649
 32
0.0
 13
-0.7183868111
 23
-0.7670824128
 33
0.0
 40
0.0
 40
0.0
 40
0.0
 40
0.0
 40
0.2123749591
 40
0.4490241789
 40
0.7124349462
 40
1.0
 40
1.0
 40
1.0
 40
1.0
 10
-4.4592168496
 20
-24.3202149114
 30
0.0
 10
-4.5333614173
 20
-24.3140737604
 30
0.0
 10
-4.6928674177
 20
-24.328215686
 30
0.0
 10
-4.9285978235
 20
-24.4166143923
 30
0.0
 10
-5.1621835864
 20
-24.5665904855
 30
0.0
 10
-5.3047105502
 20
-24.6981809544
 30
0.0
 10
-5.3735715309
 20
-24.7717096528
 30
0.0
 11
-4.4592168496
 21
-24.3202149114
 31
0.0
 11
-4.6817988168
 21
-24.3367510459
 31
0.0
 11
-4.9159004935
 21
-24.4207229369
 31
0.0
 11
-5.150248764
 21
-24.5680882415
 31
0.0
 11
-5.3735715309
 21
-24.7717096528
 31
0.0
  0
SPLINE
  5
48F
100
AcDbEntity
  8
COPY-PUBBLISH
100
AcDbSpline
 62
7
  6
CONTINUOUS
 70
0
 71
3
 72
9
 73
5
 74
3
 42
0.0000001
 43
0.0000001
 44
0.0000000001
 12
-0.2636214882
 22
-0.2814909797
 32
0.0
 13
-0.211570454
 23
-0.3224459703
 33
0.0
 40
0.0
 40
0.0
 40
0.0
 40
0.0
 40
0.2448277308
 40
1.0
 40
1.0
 40
1.0
 40
1.0
 10
-5.3735715309
 20
-24.7717096528
 30
0.0
 10
-5.3950854811
 20
-24.7946819188
 30
0.0
 10
-5.4807954368
 20
-24.890525341
 30
0.0
 10
-5.557893377
 20
-24.9939911963
 30
0.0
 10
-5.6111507569
 20
-25.0751586147
 30
0.0
 11
-5.3735715309
 21
-24.7717096528
 31
0.0
 11
-5.4365376195
 21
-24.8420690673
 31
0.0
 11
-5.6111507569
 21
-25.0751586147
 31
0.0
  0
SPLINE
  5
490
100
AcDbEntity
  8
COPY-PUBBLISH
100
AcDbSpline
 62
7
  6
CONTINUOUS
 70
0
 71
3
 72
9
 73
5
 74
3
 42
0.0000001
 43
0.0000001
 44
0.0000000001
 12
-0.1794121026
 22
0.0895685246
 32
0.0
 13
-0.1963794314
 23
0.0405751415
 33
0.0
 40
0.0
 40
0.0
 40
0.0
 40
0.0
 40
0.7473829624
 40
1.0
 40
1.0
 40
1.0
 40
1.0
 10
-4.0166151856
 20
-23.9295770646
 30
0.0
 10
-4.0613117018
 20
-23.9072630682
 30
0.0
 10
-4.1243407751
 20
-23.8833067464
 30
0.0
 10
-4.1893634028
 20
-23.8677554023
 30
0.0
 10
-4.2058996662
 20
-23.864338745
 30
0.0
 11
-4.0166151856
 21
-23.9295770646
 31
0.0
 11
-4.156638975
 21
-23.876148838
 31
0.0
 11
-4.2058996662
 21
-23.864338745
 31
0.0
  0
SPLINE
  5
491
100
AcDbEntity
  8
COPY-PUBBLISH
100
AcDbSpline
 62
7
  6
CONTINUOUS
 70
0
 71
3
 72
9
 73
5
 74
3
 42
0.0000001
 43
0.0000001
 44
0.0000000001
 12
-0.7898822265
 22
0.1632023418
 32
0.0
 13
-0.7054768019
 23
-0.3909621697
 33
0.0
 40
0.0
 40
0.0
 40
0.0
 40
0.0
 40
0.4657604167
 40
1.0
 40
1.0
 40
1.0
 40
1.0
 10
-4.2058996662
 20
-23.864338745
 30
0.0
 10
-4.3285316245
 20
-23.8390010147
 30
0.0
 10
-4.6058338394
 20
-23.847579129
 30
0.0
 10
-4.8587418298
 20
-23.9509325002
 30
0.0
 10
-4.9843730407
 20
-24.020554989
 30
0.0
 11
-4.2058996662
 21
-23.864338745
 31
0.0
 11
-4.5815525082
 21
-23.8675515655
 31
0.0
 11
-4.9843730407
 21
-24.020554989
 31
0.0
  0
SPLINE
  5
492
100
AcDbEntity
  8
COPY-PUBBLISH
100
AcDbSpline
 62
7
  6
CONTINUOUS
 70
0
 71
3
 72
9
 73
5
 74
3
 42
0.0000001
 43
0.0000001
 44
0.0000000001
 12
-0.2812859906
 22
-0.1558834831
 32
0.0
 13
-0.2523179695
 23
-0.199391853
 33
0.0
 40
0.0
 40
0.0
 40
0.0
 40
0.0
 40
0.2423107215
 40
1.0
 40
1.0
 40
1.0
 40
1.0
 10
-4.9843730407
 20
-24.020554989
 30
0.0
 10
-5.0070925778
 20
-24.0331457355
 30
0.0
 10
-5.0996889455
 20
-24.0871978823
 30
0.0
 10
-5.1875887522
 20
-24.1491744992
 30
0.0
 10
-5.2513149589
 20
-24.1995335223
 30
0.0
 11
-4.9843730407
 21
-24.020554989
 31
0.0
 11
-5.0516910069
 21
-24.059805846
 31
0.0
 11
-5.2513149589
 21
-24.1995335223
 31
0.0
  0
SPLINE
  5
493
100
AcDbEntity
  8
COPY-PUBBLISH
100
AcDbSpline
 62
7
  6
CONTINUOUS
 70
0
 71
3
 72
14
 73
10
 74
8
 42
0.0000001
 43
0.0000001
 44
0.0000000001
 12
-2.6930490257
 22
-2.1281561377
 32
0.0
 13
1.922434779
 23
-2.8435551905
 33
0.0
 40
0.0
 40
0.0
 40
0.0
 40
0.0
 40
0.1273609899
 40
0.2627065689
 40
0.4017039943
 40
0.5395508368
 40
0.6715847475
 40
0.793908152
 40
1.0
 40
1.0
 40
1.0
 40
1.0
 10
-5.2513149589
 20
-24.1995335223
 30
0.0
 10
-5.3656447555
 20
-24.2898815464
 30
0.0
 10
-5.5836638387
 20
-24.4993925319
 30
0.0
 10
-5.8615128141
 20
-24.86749621
 30
0.0
 10
-6.0887999807
 20
-25.2826629572
 30
0.0
 10
-6.2533556887
 20
-25.7221136904
 30
0.0
 10
-6.3460156785
 20
-26.1639137166
 30
0.0
 10
-6.367201783
 20
-26.6896937409
 30
0.0
 10
-6.2702631341
 20
-27.0758728635
 30
0.0
 10
-6.1381970887
 20
-27.2712173782
 30
0.0
 11
-5.2513149589
 21
-24.1995335223
 31
0.0
 11
-5.5685030708
 21
-24.5003628964
 31
0.0
 11
-5.8496213406
 21
-24.8702171648
 31
0.0
 11
-6.0790390677
 21
-25.2885359737
 31
0.0
 11
-6.2439931922
 21
-25.7320001189
 31
0.0
 11
-6.3352711184
 21
-26.1759097459
 31
0.0
 11
-6.3478027238
 21
-26.5955889627
 31
0.0
 11
-6.1381970887
 21
-27.2712173782
 31
0.0
  0
SPLINE
  5
494
100
AcDbEntity
  8
COPY-PUBBLISH
100
AcDbSpline
 62
7
  6
CONTINUOUS
 70
0
 71
3
 72
9
 73
5
 74
3
 42
0.0000001
 43
0.0000001
 44
0.0000000001
 12
0.2365183687
 22
-0.3498443965
 32
0.0
 13
0.3777276196
 23
-0.1888223661
 33
0.0
 40
0.0
 40
0.0
 40
0.0
 40
0.0
 40
0.5106217295
 40
1.0
 40
1.0
 40
1.0
 40
1.0
 10
-6.1381970887
 20
-27.2712173782
 30
0.0
 10
-6.0979399492
 20
-27.3307634285
 30
0.0
 10
-6.0055876925
 20
-27.4391092423
 30
0.0
 10
-5.8878761467
 20
-27.5198138465
 30
0.0
 10
-5.8262589169
 20
-27.5506157009
 30
0.0
 11
-6.1381970887
 21
-27.2712173782
 31
0.0
 11
-5.9970137683
 21
-27.4342038638
 31
0.0
 11
-5.8262589169
 21
-27.5506157009
 31
0.0
  0
SPLINE
  5
495
100
AcDbEntity
  8
COPY-PUBBLISH
100
AcDbSpline
 62
7
  6
CONTINUOUS
 70
0
 71
3
 72
11
 73
7
 74
5
 42
0.0000001
 43
0.0000001
 44
0.0000000001
 12
0.7051098822
 22
-0.3524507857
 32
0.0
 13
0.705068225
 23
0.3525341125
 33
0.0
 40
0.0
 40
0.0
 40
0.0
 40
0.0
 40
0.2270701449
 40
0.4646265067
 40
0.7210036456
 40
1.0
 40
1.0
 40
1.0
 40
1.0
 10
-5.6814255359
 20
-27.2607725579
 30
0.0
 10
-5.6280557348
 20
-27.2874495749
 30
0.0
 10
-5.5104481624
 20
-27.3265911756
 30
0.0
 10
-5.3192649781
 20
-27.3361597301
 30
0.0
 10
-5.1181554482
 20
-27.2982065132
 30
0.0
 10
-4.9868840354
 20
-27.2452287188
 30
0.0
 10
-4.9213135473
 20
-27.2124434747
 30
0.0
 11
-5.6814255359
 21
-27.2607725579
 31
0.0
 11
-5.5117663793
 21
-27.3178318313
 31
0.0
 11
-5.3248235374
 21
-27.3287835608
 31
0.0
 11
-5.1258817727
 21
-27.2931967495
 31
0.0
 11
-4.9213135473
 21
-27.2124434747
 31
0.0
  0
SPLINE
  5
496
100
AcDbEntity
  8
COPY-PUBBLISH
100
AcDbSpline
 62
7
  6
CONTINUOUS
 70
0
 71
3
 72
9
 73
5
 74
3
 42
0.0000001
 43
0.0000001
 44
0.0000000001
 12
0.348576682
 22
-0.3690672721
 32
0.0
 13
0.2843270067
 23
-0.4205645109
 33
0.0
 40
0.0
 40
0.0
 40
0.0
 40
0.0
 40
0.246141126
 40
1.0
 40
1.0
 40
1.0
 40
1.0
 10
0.0485250783
 20
23.7159383827
 30
0.0
 10
0.0771247639
 20
23.6856575047
 30
0.0
 10
0.1907058354
 20
23.5601853663
 30
0.0
 10
0.2936986915
 20
23.4252048533
 30
0.0
 10
0.3651461706
 20
23.319522757
 30
0.0
 11
0.0485250783
 21
23.7159383827
 31
0.0
 11
0.1323972177
 21
23.6233137287
 31
0.0
 11
0.3651461706
 21
23.319522757
 31
0.0
  0
SPLINE
  5
497
100
AcDbEntity
  8
COPY-PUBBLISH
100
AcDbSpline
 62
7
  6
CONTINUOUS
 70
0
 71
3
 72
11
 73
7
 74
5
 42
0.0000001
 43
0.0000001
 44
0.0000000001
 12
-2.77473089
 22
1.0225425221
 32
0.0
 13
-2.6449536436
 23
-1.3224768218
 33
0.0
 40
0.0
 40
0.0
 40
0.0
 40
0.0
 40
0.2271589799
 40
0.4660535749
 40
0.7226454061
 40
1.0
 40
1.0
 40
1.0
 40
1.0
 10
17.7576921714
 20
15.0322078342
 30
0.0
 10
17.547590492
 20
15.1096344063
 30
0.0
 10
17.0944785714
 20
15.2133915975
 30
0.0
 10
16.3766872521
 20
15.2060342008
 30
0.0
 10
15.6281488082
 20
15.041835839
 30
0.0
 10
15.1391981165
 20
14.8399798118
 30
0.0
 10
14.8946681019
 20
14.7177148045
 30
0.0
 11
17.7576921714
 21
15.0322078342
 31
0.0
 11
17.1035574952
 21
15.1850022493
 31
0.0
 11
16.3971138857
 21
15.1829156198
 31
0.0
 11
15.6547722874
 21
15.025829341
 31
0.0
 11
14.8946681019
 21
14.7177148045
 31
0.0
  0
SPLINE
  5
498
100
AcDbEntity
  8
COPY-PUBBLISH
100
AcDbSpline
 62
7
  6
CONTINUOUS
 70
0
 71
3
 72
11
 73
7
 74
5
 42
0.0000001
 43
0.0000001
 44
0.0000000001
 12
0.0
 22
0.4404656701
 32
0.0
 13
0.3939644721
 23
0.196982236
 33
0.0
 40
0.0
 40
0.0
 40
0.0
 40
0.0
 40
0.2467931079
 40
0.5117852234
 40
0.7703244106
 40
1.0
 40
1.0
 40
1.0
 40
1.0
 10
6.7629401183
 20
-1.0073111587
 30
0.0
 10
6.7629401183
 20
-0.9710765281
 30
0.0
 10
6.7754444497
 20
-0.8958060746
 30
0.0
 10
6.8207260288
 20
-0.7911239912
 30
0.0
 10
6.887277123
 20
-0.701607034
 30
0.0
 10
6.9449108119
 20
-0.6565181908
 30
0.0
 10
6.9750721526
 20
-0.6414375204
 30
0.0
 11
6.7629401183
 21
-1.0073111587
 31
0.0
 11
6.7790877079
 21
-0.8998132917
 31
0.0
 11
6.8250721526
 21
-0.7925334108
 31
0.0
 11
6.8938927376
 21
-0.7018039055
 31
0.0
 11
6.9750721526
 21
-0.6414375204
 31
0.0
  0
SPLINE
  5
499
100
AcDbEntity
  8
COPY-PUBBLISH
100
AcDbSpline
 62
7
  6
CONTINUOUS
 70
0
 71
3
 72
11
 73
7
 74
5
 42
0.0000001
 43
0.0000001
 44
0.0000000001
 12
0.3939644721
 22
0.196982236
 32
0.0
 13
-0.0
 23
0.4404656701
 33
0.0
 40
0.0
 40
0.0
 40
0.0
 40
0.0
 40
0.2296755894
 40
0.4882147766
 40
0.7532068921
 40
1.0
 40
1.0
 40
1.0
 40
1.0
 10
27.4104581289
 20
0.7972179099
 30
0.0
 10
27.4406194697
 20
0.8122985802
 30
0.0
 10
27.4982531585
 20
0.8573874235
 30
0.0
 10
27.5648042528
 20
0.9469043807
 30
0.0
 10
27.6100858318
 20
1.0515864641
 30
0.0
 10
27.6225901633
 20
1.1268569176
 30
0.0
 10
27.6225901633
 20
1.1630915482
 30
0.0
 11
27.4104581289
 21
0.7972179099
 31
0.0
 11
27.4916375439
 21
0.8575842949
 31
0.0
 11
27.5604581289
 21
0.9483138003
 31
0.0
 11
27.6064425737
 21
1.0555936811
 31
0.0
 11
27.6225901633
 21
1.1630915482
 31
0.0
  0
SPLINE
  5
49A
100
AcDbEntity
  8
COPY-PUBBLISH
100
AcDbSpline
 62
7
  6
CONTINUOUS
 70
0
 71
3
 72
10
 73
6
 74
4
 42
0.0000001
 43
0.0000001
 44
0.0000000001
 12
0.0
 22
0.1881068226
 32
0.0
 13
-0.1681526063
 23
0.0843141609
 33
0.0
 40
0.0
 40
0.0
 40
0.0
 40
0.0
 40
0.5481591747
 40
0.7822468343
 40
1.0
 40
1.0
 40
1.0
 40
1.0
 10
27.6225901633
 20
11.0357811513
 30
0.0
 10
27.6225901633
 20
11.0701519782
 30
0.0
 10
27.6147759274
 20
11.1209281326
 30
0.0
 10
27.5800744892
 20
11.1742067512
 30
0.0
 10
27.556980051
 20
11.1918396139
 30
0.0
 10
27.5447747969
 20
11.1979595057
 30
0.0
 11
27.6225901633
 21
11.0357811513
 31
0.0
 11
27.6021461009
 21
11.1368465954
 31
0.0
 11
27.57751748
 21
11.1733483612
 31
0.0
 11
27.5447747969
 21
11.1979595057
 31
0.0
  0
SPLINE
  5
49B
100
AcDbEntity
  8
COPY-PUBBLISH
100
AcDbSpline
 62
7
  6
CONTINUOUS
 70
0
 71
3
 72
9
 73
5
 74
3
 42
0.0000001
 43
0.0000001
 44
0.0000000001
 12
0.1237531323
 22
0.0618765661
 32
0.0
 13
0.1236830715
 23
-0.0620164898
 33
0.0
 40
0.0
 40
0.0
 40
0.0
 40
0.0
 40
0.5361184976
 40
1.0
 40
1.0
 40
1.0
 40
1.0
 10
25.9962445665
 20
8.7503651665
 30
0.0
 10
26.0183600143
 20
8.7614228904
 30
0.0
 10
26.0634237321
 20
8.7764245885
 30
0.0
 10
26.1114364715
 20
8.7683913511
 30
0.0
 10
26.1305612345
 20
8.758801917
 30
0.0
 11
25.9962445665
 21
8.7503651665
 31
0.0
 11
26.0675266164
 21
8.7708874948
 31
0.0
 11
26.1305612345
 21
8.758801917
 31
0.0
  0
SPLINE
  5
49C
100
AcDbEntity
  8
COPY-PUBBLISH
100
AcDbSpline
 62
7
  6
CONTINUOUS
 70
0
 71
3
 72
11
 73
7
 74
5
 42
0.0000001
 43
0.0000001
 44
0.0000000001
 12
0.0
 22
0.4404656701
 32
0.0
 13
0.3939644721
 23
0.196982236
 33
0.0
 40
0.0
 40
0.0
 40
0.0
 40
0.0
 40
0.2467931079
 40
0.5117852234
 40
0.7703244106
 40
1.0
 40
1.0
 40
1.0
 40
1.0
 10
24.7941630385
 20
7.8895167814
 30
0.0
 10
24.7941630385
 20
7.9257514119
 30
0.0
 10
24.80666737
 20
8.0010218655
 30
0.0
 10
24.8519489491
 20
8.1057039488
 30
0.0
 10
24.9185000433
 20
8.1952209061
 30
0.0
 10
24.9761337321
 20
8.2403097493
 30
0.0
 10
25.0062950729
 20
8.2553904197
 30
0.0
 11
24.7941630385
 21
7.8895167814
 31
0.0
 11
24.8103106282
 21
7.9970146484
 31
0.0
 11
24.8562950729
 21
8.1042945293
 31
0.0
 11
24.9251156579
 21
8.1950240346
 31
0.0
 11
25.0062950729
 21
8.2553904197
 31
0.0
  0
SPLINE
  5
49D
100
AcDbEntity
  8
DRAFT
100
AcDbSpline
 62
7
  6
CONTINUOUS
 70
0
 71
3
 72
11
 73
7
 74
5
 42
0.0000001
 43
0.0000001
 44
0.0000000001
 12
-0.2085884651
 22
0.1042942325
 32
0.0
 13
-0.0140651971
 23
0.2327844603
 33
0.0
 40
0.0
 40
0.0
 40
0.0
 40
0.0
 40
0.3010213425
 40
0.5641607413
 40
0.7932667699
 40
1.0
 40
1.0
 40
1.0
 40
1.0
 10
-17.4908224764
 20
-25.0796430245
 30
0.0
 10
-17.5117523364
 20
-25.0691780946
 30
0.0
 10
-17.5497242334
 20
-25.0467735201
 30
0.0
 10
-17.5963166833
 20
-25.0056551575
 30
0.0
 10
-17.6272195194
 20
-24.9600647571
 30
0.0
 10
-17.6360721315
 20
-24.9264436981
 30
0.0
 10
-17.6370413794
 20
-24.9104022703
 30
0.0
 11
-17.4908224764
 21
-25.0796430245
 31
0.0
 11
-17.5508971441
 21
-25.0433222527
 31
0.0
 11
-17.5962726644
 21
-25.0020075297
 31
0.0
 11
-17.6253303235
 21
-24.9571703449
 31
0.0
 11
-17.6370413794
 21
-24.9104022703
 31
0.0
  0
SPLINE
  5
49E
100
AcDbEntity
  8
COPY-PUBBLISH
100
AcDbSpline
 62
7
  6
CONTINUOUS
 70
0
 71
3
 72
11
 73
7
 74
5
 42
0.0000001
 43
0.0000001
 44
0.0000000001
 12
0.0
 22
0.4404656701
 32
0.0
 13
0.3939644721
 23
0.196982236
 33
0.0
 40
0.0
 40
0.0
 40
0.0
 40
0.0
 40
0.2467931079
 40
0.5117852234
 40
0.7703244106
 40
1.0
 40
1.0
 40
1.0
 40
1.0
 10
24.0870562573
 20
-9.6979421445
 30
0.0
 10
24.0870562573
 20
-9.661707514
 30
0.0
 10
24.0995605888
 20
-9.5864370604
 30
0.0
 10
24.1448421679
 20
-9.4817549771
 30
0.0
 10
24.2113932621
 20
-9.3922380198
 30
0.0
 10
24.2690269509
 20
-9.3471491766
 30
0.0
 10
24.2991882917
 20
-9.3320685062
 30
0.0
 11
24.0870562573
 21
-9.6979421445
 31
0.0
 11
24.103203847
 21
-9.5904442775
 31
0.0
 11
24.1491882917
 21
-9.4831643966
 31
0.0
 11
24.2180088767
 21
-9.3924348913
 31
0.0
 11
24.2991882917
 21
-9.3320685062
 31
0.0
  0
SPLINE
  5
49F
100
AcDbEntity
  8
COPY-PUBBLISH
100
AcDbSpline
 62
7
  6
CONTINUOUS
 70
0
 71
3
 72
11
 73
7
 74
5
 42
0.0000001
 43
0.0000001
 44
0.0000000001
 12
0.0
 22
0.4404656701
 32
0.0
 13
0.3939644721
 23
0.196982236
 33
0.0
 40
0.0
 40
0.0
 40
0.0
 40
0.0
 40
0.2467931079
 40
0.5117852234
 40
0.7703244106
 40
1.0
 40
1.0
 40
1.0
 40
1.0
 10
26.2083766009
 20
-0.0636304753
 30
0.0
 10
26.2083766009
 20
-0.0273958447
 30
0.0
 10
26.2208809324
 20
0.0478746088
 30
0.0
 10
26.2661625114
 20
0.1525566922
 30
0.0
 10
26.3327136056
 20
0.2420736494
 30
0.0
 10
26.3903472945
 20
0.2871624926
 30
0.0
 10
26.4205086353
 20
0.302243163
 30
0.0
 11
26.2083766009
 21
-0.0636304753
 31
0.0
 11
26.2245241905
 21
0.0438673917
 31
0.0
 11
26.2705086353
 21
0.1511472726
 31
0.0
 11
26.3393292202
 21
0.2418767779
 31
0.0
 11
26.4205086353
 21
0.302243163
 31
0.0
  0
SPLINE
  5
4A0
100
AcDbEntity
  8
RACCORDO
100
AcDbSpline
 62
7
  6
CONTINUOUS
 70
0
 71
3
 72
9
 73
5
 74
3
 42
0.0000001
 43
0.0000001
 44
0.0000000001
 12
0.753797957
 22
1.3001091604
 32
0.0
 13
0.0
 23
1.5028290617
 33
0.0
 40
0.0
 40
0.0
 40
0.0
 40
0.0
 40
0.5177824481
 40
1.0
 40
1.0
 40
1.0
 40
1.0
 10
29.3296969445
 20
-25.164243434
 30
0.0
 10
29.4597980617
 20
-24.9398521993
 30
0.0
 10
29.6606646495
 20
-24.475560542
 30
0.0
 10
29.7439105068
 20
-23.9739552984
 30
0.0
 10
29.7439105068
 20
-23.7323917814
 30
0.0
 11
29.3296969445
 21
-25.164243434
 31
0.0
 11
29.6362744882
 21
-24.4490443347
 31
0.0
 11
29.7439105068
 21
-23.7323917814
 31
0.0
  0
SPLINE
  5
4A1
100
AcDbEntity
  8
RACCORDO
100
AcDbSpline
 62
7
  6
CONTINUOUS
 70
0
 71
3
 72
9
 73
5
 74
3
 42
0.0000001
 43
0.0000001
 44
0.0000000001
 12
1.3528119726
 22
0.6185475259
 32
0.0
 13
0.746116706
 23
1.2868609622
 33
0.0
 40
0.0
 40
0.0
 40
0.0
 40
0.0
 40
0.4681223132
 40
1.0
 40
1.0
 40
1.0
 40
1.0
 10
24.0277841292
 20
-33.5297486155
 30
0.0
 10
24.2388779525
 20
-33.4332299826
 30
0.0
 10
24.6442694097
 20
-33.128002519
 30
0.0
 10
24.9448585282
 20
-32.7269710044
 30
0.0
 10
25.0771394707
 20
-32.4988201271
 30
0.0
 11
24.0277841292
 21
-33.5297486155
 31
0.0
 11
24.5954572986
 21
-33.1264680539
 31
0.0
 11
25.0771394707
 21
-32.4988201271
 31
0.0
  0
SPLINE
  5
4A2
100
AcDbEntity
  8
RACCORDO
100
AcDbSpline
 62
7
  6
CONTINUOUS
 70
0
 71
3
 72
9
 73
5
 74
3
 42
0.0000001
 43
0.0000001
 44
0.0000000001
 12
1.2117026055
 22
0.6576746519
 32
0.0
 13
0.6915266416
 23
1.1927070285
 33
0.0
 40
0.0
 40
0.0
 40
0.0
 40
0.0
 40
0.4726767586
 40
1.0
 40
1.0
 40
1.0
 40
1.0
 10
5.3063610102
 20
-16.903850398
 30
0.0
 10
5.4972755635
 20
-16.8002278904
 30
0.0
 10
5.8604962679
 20
-16.5054832082
 30
0.0
 10
6.1354529786
 20
-16.1319246299
 30
0.0
 10
6.2570056686
 20
-15.9222772511
 30
0.0
 11
5.3063610102
 21
-16.903850398
 31
0.0
 11
5.8209272996
 21
-16.5039811062
 31
0.0
 11
6.2570056686
 21
-15.9222772511
 31
0.0
  0
SPLINE
  5
4A3
100
AcDbEntity
  8
RACCORDO
100
AcDbSpline
 62
7
  6
CONTINUOUS
 70
0
 71
3
 72
11
 73
7
 74
5
 42
0.0000001
 43
0.0000001
 44
0.0000000001
 12
0.0
 22
2.2023277026
 32
0.0
 13
1.9698217807
 23
0.9849108903
 33
0.0
 40
0.0
 40
0.0
 40
0.0
 40
0.0
 40
0.2468124806
 40
0.5117852459
 40
0.7703059488
 40
1.0
 40
1.0
 40
1.0
 40
1.0
 10
21.4000504888
 20
-25.5906718124
 30
0.0
 10
21.4000504888
 20
-25.4094844912
 30
0.0
 10
21.4625785359
 20
-25.0331326065
 30
0.0
 10
21.6889823442
 20
-24.5097364695
 30
0.0
 10
22.0217272179
 20
-24.062163466
 30
0.0
 10
22.309891879
 20
-23.8367130116
 30
0.0
 10
22.4607106606
 20
-23.7613036208
 30
0.0
 11
21.4000504888
 21
-25.5906718124
 31
0.0
 11
21.4808012602
 21
-25.0531414216
 31
0.0
 11
21.7107106606
 21
-24.5167830729
 31
0.0
 11
22.0547852987
 21
-24.0631653949
 31
0.0
 11
22.4607106606
 21
-23.7613036208
 31
0.0
  0
SPLINE
  5
4A4
100
AcDbEntity
  8
RACCORDO
100
AcDbSpline
 62
7
  6
CONTINUOUS
 70
0
 71
3
 72
10
 73
6
 74
4
 42
0.0000001
 43
0.0000001
 44
0.0000000001
 12
0.4923819117
 22
0.2251322574
 32
0.0
 13
0.484274333
 23
-0.2420802567
 33
0.0
 40
0.0
 40
0.0
 40
0.0
 40
0.0
 40
0.5315776843
 40
0.770630429
 40
1.0
 40
1.0
 40
1.0
 40
1.0
 10
17.7227580444
 20
-25.9199492483
 30
0.0
 10
17.8100044565
 20
-25.8800574869
 30
0.0
 10
17.9483688331
 20
-25.8402355598
 30
0.0
 10
18.1299064591
 20
-25.8530846886
 30
0.0
 10
18.2110684168
 20
-25.8806888247
 30
0.0
 10
18.2480943488
 20
-25.8991974396
 30
0.0
 11
17.7227580444
 21
-25.9199492483
 31
0.0
 11
18.0016207318
 21
-25.8487790084
 31
0.0
 11
18.1306552815
 21
-25.858830849
 31
0.0
 11
18.2480943488
 21
-25.8991974396
 31
0.0
  0
SPLINE
  5
4A5
100
AcDbEntity
  8
COPY-PUBBLISH
100
AcDbSpline
 62
7
  6
CONTINUOUS
 70
0
 71
3
 72
9
 73
5
 74
3
 42
0.0000001
 43
0.0000001
 44
0.0000000001
 12
-1.0704856936
 22
-0.2496615342
 32
0.0
 13
-1.0948204485
 23
0.0981768172
 33
0.0
 40
0.0
 40
0.0
 40
0.0
 40
0.0
 40
0.2606360479
 40
1.0
 40
1.0
 40
1.0
 40
1.0
 10
-12.6754304754
 20
-10.1545633886
 30
0.0
 10
-12.7684328622
 20
-10.1762536538
 30
0.0
 10
-13.127928716
 20
-10.2469750385
 30
0.0
 10
-13.4989249719
 20
-10.2643810972
 30
0.0
 10
-13.7687485631
 20
-10.240184964
 30
0.0
 11
-12.6754304754
 21
-10.1545633886
 31
0.0
 11
-12.9566092549
 21
-10.2094969668
 31
0.0
 11
-13.7687485631
 21
-10.240184964
 31
0.0
  0
SPLINE
  5
4A6
100
AcDbEntity
  8
RACCORDO
100
AcDbSpline
 62
7
  6
CONTINUOUS
 70
0
 71
3
 72
11
 73
7
 74
5
 42
0.0000001
 43
0.0000001
 44
0.0000000001
 12
0.0
 22
2.1611174405
 32
0.0
 13
1.8993756445
 23
1.0309222825
 33
0.0
 40
0.0
 40
0.0
 40
0.0
 40
0.0
 40
0.2456565883
 40
0.5095549885
 40
0.7682455362
 40
1.0
 40
1.0
 40
1.0
 40
1.0
 10
-26.4710785975
 20
22.5172272676
 30
0.0
 10
-26.4710785975
 20
22.6941915134
 30
0.0
 10
-26.4113462513
 20
23.061892186
 30
0.0
 10
-26.1938921845
 20
23.5756813158
 30
0.0
 10
-25.8726842372
 20
24.0195673788
 30
0.0
 10
-25.5941645266
 20
24.2476555869
 30
0.0
 10
-25.4474349319
 20
24.3272958672
 30
0.0
 11
-26.4710785975
 21
22.5172272676
 31
0.0
 11
-26.3938454122
 21
23.0424720998
 31
0.0
 11
-26.1733935019
 21
23.5684575091
 31
0.0
 11
-25.8418277834
 21
24.0185830354
 31
0.0
 11
-25.4474349319
 21
24.3272958672
 31
0.0
  0
SPLINE
  5
4A7
100
AcDbEntity
  8
COPY-PUBBLISH
100
AcDbSpline
 62
7
  6
CONTINUOUS
 70
0
 71
3
 72
12
 73
8
 74
6
 42
0.0000001
 43
0.0000001
 44
0.0000000001
 12
0.0
 22
-4.1227407247
 32
0.0
 13
3.4615252844
 23
-2.239382457
 33
0.0
 40
0.0
 40
0.0
 40
0.0
 40
0.0
 40
0.2872446546
 40
0.5471953694
 40
0.7820010037
 40
0.8924728406
 40
1.0
 40
1.0
 40
1.0
 40
1.0
 10
2.1667460406
 20
-15.5485473706
 30
0.0
 10
2.1667460406
 20
-15.9432924491
 30
0.0
 10
2.2263276047
 20
-16.6977423935
 30
0.0
 10
2.5221472826
 20
-17.7391387104
 30
0.0
 10
2.943796166
 20
-18.469710232
 30
0.0
 10
3.370635549
 20
-18.9255336776
 30
0.0
 10
3.6088784003
 20
-19.1098109839
 30
0.0
 10
3.7329477273
 20
-19.1900757953
 30
0.0
 11
2.1667460406
 21
-15.5485473706
 31
0.0
 11
2.2699213366
 21
-16.728279523
 31
0.0
 11
2.5751456366
 21
-17.7556057425
 31
0.0
 11
3.0696945477
 21
-18.5877884998
 31
0.0
 11
3.3818201677
 21
-18.9194650461
 31
0.0
 11
3.7329477273
 21
-19.1900757953
 31
0.0
  0
SPLINE
  5
4A8
100
AcDbEntity
  8
COPY-PUBBLISH
100
AcDbSpline
 62
7
  6
CONTINUOUS
 70
0
 71
3
 72
15
 73
11
 74
9
 42
0.0000001
 43
0.0000001
 44
0.0000000001
 12
-9.2142334293
 22
-4.6071167147
 32
0.0
 13
0.0
 23
-10.3018261542
 33
0.0
 40
0.0
 40
0.0
 40
0.0
 40
0.0
 40
0.1103207721
 40
0.2298809777
 40
0.3567647248
 40
0.4883338301
 40
0.6215371336
 40
0.7531869865
 40
0.8802253985
 40
1.0
 40
1.0
 40
1.0
 40
1.0
 10
7.1164935089
 20
10.828627508
 30
0.0
 10
6.77765306
 20
10.6592072836
 30
0.0
 10
6.1060455383
 20
10.2351955406
 30
0.0
 10
5.1837340895
 20
9.4227201844
 30
0.0
 10
4.3344874784
 20
8.4359463527
 30
0.0
 10
3.5900690682
 20
7.3118464602
 30
0.0
 10
2.9779822965
 20
6.0923309438
 30
0.0
 10
2.5211552585
 20
4.8228784706
 30
0.0
 10
2.2367001489
 20
3.5512764608
 30
0.0
 10
2.1667460406
 20
2.7028749882
 30
0.0
 10
2.1667460406
 20
2.2915759474
 30
0.0
 11
7.1164935089
 21
10.828627508
 31
0.0
 11
6.1508456813
 21
10.2293205471
 31
0.0
 11
5.2223071579
 21
9.4200785222
 31
0.0
 11
4.3665611544
 21
8.4320001513
 31
0.0
 11
3.6164935089
 21
7.3030567314
 31
0.0
 11
3.0009289005
 21
6.0766329251
 31
0.0
 11
2.543523132
 21
4.7998595118
 31
0.0
 11
2.2618540503
 21
3.5218021766
 31
0.0
 11
2.1667460406
 21
2.2915759474
 31
0.0
  0
SPLINE
  5
4A9
100
AcDbEntity
  8
COPY-PUBBLISH
100
AcDbSpline
 62
7
  6
CONTINUOUS
 70
0
 71
3
 72
11
 73
7
 74
5
 42
0.0000001
 43
0.0000001
 44
0.0000000001
 12
1.7712323696
 22
0.8856161848
 32
0.0
 13
0.4755622398
 23
1.9223477027
 33
0.0
 40
0.0
 40
0.0
 40
0.0
 40
0.0
 40
0.2247146218
 40
0.475044232
 40
0.7385930388
 40
1.0
 40
1.0
 40
1.0
 40
1.0
 10
-4.9213135473
 20
-27.2124434747
 30
0.0
 10
-4.7886396099
 20
-27.1461065061
 30
0.0
 10
-4.5301626103
 20
-26.9609993421
 30
0.0
 10
-4.2055186481
 20
-26.5931731671
 30
0.0
 10
-3.9449359283
 20
-26.1493501384
 30
0.0
 10
-3.8266963774
 20
-25.8209158885
 30
0.0
 10
-3.7852579508
 20
-25.6534108647
 30
0.0
 11
-4.9213135473
 21
-27.2124434747
 31
0.0
 11
-4.5552154433
 21
-26.9594634718
 31
0.0
 11
-4.2239420516
 21
-26.5906770557
 31
0.0
 11
-3.9588861046
 21
-26.1410879608
 31
0.0
 11
-3.7852579508
 21
-25.6534108647
 31
0.0
  0
SPLINE
  5
4AA
100
AcDbEntity
  8
COPY-PUBBLISH
100
AcDbSpline
 62
7
  6
CONTINUOUS
 70
0
 71
3
 72
9
 73
5
 74
3
 42
0.0000001
 43
0.0000001
 44
0.0000000001
 12
0.1326733945
 22
0.5546864244
 32
0.0
 13
-0.0228907339
 23
0.5698730327
 33
0.0
 40
0.0
 40
0.0
 40
0.0
 40
0.0
 40
0.2613614555
 40
1.0
 40
1.0
 40
1.0
 40
1.0
 10
-3.7807393545
 20
-25.634837782
 30
0.0
 10
-3.769180784
 20
-25.5865132316
 30
0.0
 10
-3.7305638506
 20
-25.4003893862
 30
0.0
 10
-3.7149898257
 20
-25.2089659464
 30
0.0
 10
-3.7206258185
 20
-25.0686558839
 30
0.0
 11
-3.7807393545
 21
-25.634837782
 31
0.0
 11
-3.7505688849
 21
-25.488860019
 31
0.0
 11
-3.7206258185
 21
-25.0686558839
 31
0.0
  0
SPLINE
  5
4AB
100
AcDbEntity
  8
COPY-PUBBLISH
100
AcDbSpline
 62
7
  6
CONTINUOUS
 70
0
 71
3
 72
9
 73
5
 74
3
 42
0.0000001
 43
0.0000001
 44
0.0000000001
 12
-0.0081046762
 22
0.2017688207
 32
0.0
 13
-0.0345308947
 23
0.1989571815
 33
0.0
 40
0.0
 40
0.0
 40
0.0
 40
0.0
 40
0.2563317035
 40
1.0
 40
1.0
 40
1.0
 40
1.0
 10
-3.7206258185
 20
-25.0686558839
 30
0.0
 10
-3.7213183137
 20
-25.0514159687
 30
0.0
 10
-3.7250412762
 20
-24.9842075297
 30
0.0
 10
-3.7329639045
 20
-24.9172089571
 30
0.0
 10
-3.7415237483
 20
-24.8678895744
 30
0.0
 11
-3.7206258185
 21
-25.0686558839
 31
0.0
 11
-3.7235028833
 21
-25.0169744509
 31
0.0
 11
-3.7415237483
 21
-24.8678895744
 31
0.0
  0
SPLINE
  5
4AC
100
AcDbEntity
  8
COPY-PUBBLISH
100
AcDbSpline
 62
7
  6
CONTINUOUS
 70
0
 71
3
 72
9
 73
5
 74
3
 42
0.0000001
 43
0.0000001
 44
0.0000000001
 12
-0.0699367195
 22
0.4029554609
 32
0.0
 13
-0.2143515662
 23
0.3483068392
 33
0.0
 40
0.0
 40
0.0
 40
0.0
 40
0.0
 40
0.2664281031
 40
1.0
 40
1.0
 40
1.0
 40
1.0
 10
-3.7415237483
 20
-24.8678895744
 30
0.0
 10
-3.7477347842
 20
-24.8321033547
 30
0.0
 10
-3.7762368616
 20
-24.6988578184
 30
0.0
 10
-3.8273249633
 20
-24.5695392594
 30
0.0
 10
-3.8797390583
 20
-24.4843698899
 30
0.0
 11
-3.7415237483
 21
-24.8678895744
 31
0.0
 11
-3.7645255379
 21
-24.761381396
 31
0.0
 11
-3.8797390583
 21
-24.4843698899
 31
0.0
  0
SPLINE
  5
4AD
100
AcDbEntity
  8
COPY-PUBBLISH
100
AcDbSpline
 62
7
  6
CONTINUOUS
 70
0
 71
3
 72
9
 73
5
 74
3
 42
0.0000001
 43
0.0000001
 44
0.0000000001
 12
-0.0654255308
 22
0.0797308548
 32
0.0
 13
-0.0762271344
 23
0.0694761346
 33
0.0
 40
0.0
 40
0.0
 40
0.0
 40
0.0
 40
0.2531090294
 40
1.0
 40
1.0
 40
1.0
 40
1.0
 10
-3.9424674834
 20
-24.39613828
 30
0.0
 10
-3.9479874143
 20
-24.3894114136
 30
0.0
 10
-3.9702536501
 20
-24.3632144781
 30
0.0
 10
-3.9943737805
 20
-24.3385845711
 30
0.0
 10
-4.0133515666
 20
-24.3212875386
 30
0.0
 11
-3.9424674834
 21
-24.39613828
 31
0.0
 11
-3.9593777532
 21
-24.3762504421
 31
0.0
 11
-4.0133515666
 21
-24.3212875386
 31
0.0
  0
SPLINE
  5
4AE
100
AcDbEntity
  8
COPY-PUBBLISH
100
AcDbSpline
 62
7
  6
CONTINUOUS
 70
0
 71
3
 72
9
 73
5
 74
3
 42
0.0000001
 43
0.0000001
 44
0.0000000001
 12
-0.1328793004
 22
0.1211109433
 32
0.0
 13
-0.160819374
 23
0.0803859316
 33
0.0
 40
0.0
 40
0.0
 40
0.0
 40
0.0
 40
0.2529057196
 40
1.0
 40
1.0
 40
1.0
 40
1.0
 10
-4.0133515666
 20
-24.3212875386
 30
0.0
 10
-4.024553545
 20
-24.3110776552
 30
0.0
 10
-4.070176403
 20
-24.2721933306
 30
0.0
 10
-4.1211524805
 20
-24.2395704317
 30
0.0
 10
-4.1612015587
 20
-24.2195518085
 30
0.0
 11
-4.0133515666
 21
-24.3212875386
 31
0.0
 11
-4.0479725073
 21
-24.291810008
 31
0.0
 11
-4.1612015587
 21
-24.2195518085
 31
0.0
  0
SPLINE
  5
4AF
100
AcDbEntity
  8
COPY-PUBBLISH
100
AcDbSpline
 62
7
  6
CONTINUOUS
 70
0
 71
3
 72
9
 73
5
 74
3
 42
0.0000001
 43
0.0000001
 44
0.0000000001
 12
-0.3398626828
 22
-0.5925436501
 32
0.0
 13
-0.1893378766
 23
-0.6563275013
 33
0.0
 40
0.0
 40
0.0
 40
0.0
 40
0.0
 40
0.2517408736
 40
1.0
 40
1.0
 40
1.0
 40
1.0
 10
-3.3280796398
 20
-23.7902037736
 30
0.0
 10
-3.3565987493
 20
-23.839926259
 30
0.0
 10
-3.4639711866
 20
-24.0407591671
 30
0.0
 10
-3.5479287423
 20
-24.2542364738
 30
0.0
 10
-3.5951533404
 20
-24.4179374881
 30
0.0
 11
-3.3280796398
 21
-23.7902037736
 31
0.0
 11
-3.4091749294
 21
-23.9418432818
 31
0.0
 11
-3.5951533404
 21
-24.4179374881
 31
0.0
  0
SPLINE
  5
4B0
100
AcDbEntity
  8
COPY-PUBBLISH
100
AcDbSpline
 62
7
  6
CONTINUOUS
 70
0
 71
3
 72
13
 73
9
 74
7
 42
0.0000001
 43
0.0000001
 44
0.0000000001
 12
1.4625669089
 22
-0.3868665602
 32
0.0
 13
0.6447567045
 23
1.3685965404
 33
0.0
 40
0.0
 40
0.0
 40
0.0
 40
0.0
 40
0.0947478713
 40
0.197079807
 40
0.3093829798
 40
0.4323212903
 40
0.7053230916
 40
1.0
 40
1.0
 40
1.0
 40
1.0
 10
-5.3774278267
 20
-26.8631318701
 30
0.0
 10
-5.3312361263
 20
-26.8753501311
 30
0.0
 10
-5.2308501085
 20
-26.8860435099
 30
0.0
 10
-5.075387131
 20
-26.8612889274
 30
0.0
 10
-4.9159558913
 20
-26.7984397702
 30
0.0
 10
-4.6973235498
 20
-26.6625965565
 30
0.0
 10
-4.4482222112
 20
-26.412739466
 30
0.0
 10
-4.2971844965
 20
-26.1664779657
 30
0.0
 10
-4.233852859
 20
-26.0320466999
 30
0.0
 11
-5.3774278267
 21
-26.8631318701
 31
0.0
 11
-5.2350262868
 21
-26.8795158026
 31
0.0
 11
-5.0818714076
 21
-26.8569070009
 31
0.0
 11
-4.9232365507
 21
-26.7960717611
 31
0.0
 11
-4.7645288959
 21
-26.6990979397
 31
0.0
 11
-4.4684644223
 21
-26.4111263329
 31
0.0
 11
-4.233852859
 21
-26.0320466999
 31
0.0
  0
SPLINE
  5
4B1
100
AcDbEntity
  8
COPY-PUBBLISH
100
AcDbSpline
 62
7
  6
CONTINUOUS
 70
0
 71
3
 72
9
 73
5
 74
3
 42
0.0000001
 43
0.0000001
 44
0.0000000001
 12
-0.0553202291
 22
0.0930542306
 32
0.0
 13
-0.0720053176
 23
0.0808371933
 33
0.0
 40
0.0
 40
0.0
 40
0.0
 40
0.0
 40
0.255309392
 40
1.0
 40
1.0
 40
1.0
 40
1.0
 10
-4.1701723984
 20
-24.8482490765
 30
0.0
 10
-4.1748803231
 20
-24.8403298701
 30
0.0
 10
-4.1940136462
 20
-24.8097319705
 30
0.0
 10
-4.2159788462
 20
-24.7808830858
 30
0.0
 10
-4.2338527408
 20
-24.7608168529
 30
0.0
 11
-4.1701723984
 21
-24.8482490765
 31
0.0
 11
-4.1848347472
 21
-24.8248200137
 31
0.0
 11
-4.2338527408
 21
-24.7608168529
 31
0.0
  0
SPLINE
  5
4B2
100
AcDbEntity
  8
COPY-PUBBLISH
100
AcDbSpline
 62
7
  6
CONTINUOUS
 70
0
 71
3
 72
9
 73
5
 74
3
 42
0.0000001
 43
0.0000001
 44
0.0000000001
 12
-0.1018081283
 22
0.114295494
 32
0.0
 13
-0.1324519996
 23
0.0767125983
 33
0.0
 40
0.0
 40
0.0
 40
0.0
 40
0.0
 40
0.2551208432
 40
1.0
 40
1.0
 40
1.0
 40
1.0
 10
-4.2338527408
 20
-24.7608168529
 30
0.0
 10
-4.2425105326
 20
-24.751097132
 30
0.0
 10
-4.2778364578
 20
-24.7142670709
 30
0.0
 10
-4.3189757562
 20
-24.6829553004
 30
0.0
 10
-4.3518626675
 20
-24.6639080952
 30
0.0
 11
-4.2338527408
 21
-24.7608168529
 31
0.0
 11
-4.2609136652
 21
-24.7326640665
 31
0.0
 11
-4.3518626675
 21
-24.6639080952
 31
0.0
  0
SPLINE
  5
4B3
100
AcDbEntity
  8
COPY-PUBBLISH
100
AcDbSpline
 62
7
  6
CONTINUOUS
 70
0
 71
3
 72
11
 73
7
 74
5
 42
0.0000001
 43
0.0000001
 44
0.0000000001
 12
-0.0518422217
 22
-1.6437588364
 32
0.0
 13
1.4319119839
 23
-0.8088626574
 33
0.0
 40
0.0
 40
0.0
 40
0.0
 40
0.0
 40
0.2903945602
 40
0.5512757629
 40
0.784618911
 40
1.0
 40
1.0
 40
1.0
 40
1.0
 10
-7.0935787853
 20
2.2600101606
 30
0.0
 10
-7.0985970184
 20
2.1008972858
 30
0.0
 10
-7.0829335007
 20
1.7969778064
 30
0.0
 10
-6.9699275262
 20
1.3778481024
 30
0.0
 10
-6.7701574425
 20
1.037534053
 30
0.0
 10
-6.5778934374
 20
0.874387028
 30
0.0
 10
-6.4750911833
 20
0.816315788
 30
0.0
 11
-7.0935787853
 21
2.2600101606
 31
0.0
 11
-7.064409483
 21
1.7833258226
 31
0.0
 11
-6.9470268908
 21
1.3706567118
 31
0.0
 11
-6.7472701007
 21
1.0429957127
 31
0.0
 11
-6.4750911833
 21
0.816315788
 31
0.0
  0
SPLINE
  5
4B4
100
AcDbEntity
  8
COPY-PUBBLISH
100
AcDbSpline
 62
7
  6
CONTINUOUS
 70
0
 71
3
 72
11
 73
7
 74
5
 42
0.0000001
 43
0.0000001
 44
0.0000000001
 12
-0.0518422205
 22
-1.6437588954
 32
0.0
 13
1.4319120035
 23
-0.8088627425
 33
0.0
 40
0.0
 40
0.0
 40
0.0
 40
0.0
 40
0.2903945593
 40
0.5512757618
 40
0.7846189107
 40
1.0
 40
1.0
 40
1.0
 40
1.0
 10
-7.0935788963
 20
6.0576267634
 30
0.0
 10
-7.0985971293
 20
5.8985138835
 30
0.0
 10
-7.082933611
 20
5.594594394
 30
0.0
 10
-6.9699276358
 20
5.1754646744
 30
0.0
 10
-6.7701575508
 20
4.8351506094
 30
0.0
 10
-6.5778935443
 20
4.672003572
 30
0.0
 10
-6.4750912886
 20
4.6139323258
 30
0.0
 11
-7.0935788963
 21
6.0576267634
 31
0.0
 11
-7.0644095934
 21
5.5809424099
 31
0.0
 11
-6.9470270004
 21
5.1682732836
 31
0.0
 11
-6.7472702087
 21
4.840612268
 31
0.0
 11
-6.4750912886
 21
4.6139323258
 31
0.0
  0
SPLINE
  5
4B5
100
AcDbEntity
  8
COPY-PUBBLISH
100
AcDbSpline
 62
7
  6
CONTINUOUS
 70
0
 71
3
 72
11
 73
7
 74
5
 42
0.0000001
 43
0.0000001
 44
0.0000000001
 12
1.9237035829
 22
1.4637073919
 32
0.0
 13
-0.112249613
 23
2.4146376184
 33
0.0
 40
0.0
 40
0.0
 40
0.0
 40
0.0
 40
0.2428160627
 40
0.5034231031
 40
0.7621907966
 40
1.0
 40
1.0
 40
1.0
 40
1.0
 10
-5.0266795287
 20
5.4798353175
 30
0.0
 10
-4.8709774855
 20
5.5983058728
 30
0.0
 10
-4.5841919585
 20
5.8924310362
 30
0.0
 10
-4.2614276822
 20
6.4199738717
 30
0.0
 10
-4.0566439237
 20
6.9992717965
 30
0.0
 10
-4.0121222809
 20
7.4024983898
 30
0.0
 10
-4.0210202779
 20
7.5939060726
 30
0.0
 11
-5.0266795287
 21
5.4798353175
 31
0.0
 11
-4.6114497511
 21
5.8946724186
 31
0.0
 11
-4.2806577396
 21
6.4307834946
 31
0.0
 11
-4.0753551548
 21
7.0216365559
 31
0.0
 11
-4.0210202779
 21
7.5939060726
 31
0.0
  0
SPLINE
  5
4B6
100
AcDbEntity
  8
COPY-PUBBLISH
100
AcDbSpline
 62
7
  6
CONTINUOUS
 70
0
 71
3
 72
9
 73
5
 74
3
 42
0.0000001
 43
0.0000001
 44
0.0000000001
 12
-0.1584523939
 22
0.0193251786
 32
0.0
 13
-0.1572969482
 23
-0.0271715614
 33
0.0
 40
0.0
 40
0.0
 40
0.0
 40
0.0
 40
0.2422448209
 40
1.0
 40
1.0
 40
1.0
 40
1.0
 10
-0.8837476912
 20
-1.2674851895
 30
0.0
 10
-0.8965424485
 20
-1.2659247147
 30
0.0
 10
-0.9496109487
 20
-1.2615969555
 30
0.0
 10
-1.0032384275
 20
-1.2656045405
 30
0.0
 10
-1.0429692866
 20
-1.272467671
 30
0.0
 11
-0.8837476912
 21
-1.2674851895
 31
0.0
 11
-0.9222863894
 21
-1.2643170994
 31
0.0
 11
-1.0429692866
 21
-1.272467671
 31
0.0
  0
SPLINE
  5
4B7
100
AcDbEntity
  8
COPY-PUBBLISH
100
AcDbSpline
 62
7
  6
CONTINUOUS
 70
0
 71
3
 72
9
 73
5
 74
3
 42
0.0000001
 43
0.0000001
 44
0.0000000001
 12
-0.1736740825
 22
-0.0300005566
 32
0.0
 13
-0.1615797544
 23
-0.0703896535
 33
0.0
 40
0.0
 40
0.0
 40
0.0
 40
0.0
 40
0.2403487212
 40
1.0
 40
1.0
 40
1.0
 40
1.0
 10
-1.0429692866
 20
-1.272467671
 30
0.0
 10
-1.0568834011
 20
-1.2748712028
 30
0.0
 10
-1.1144343904
 20
-1.286817232
 30
0.0
 10
-1.1703337194
 20
-1.3062103433
 30
0.0
 10
-1.211248475
 20
-1.3240342067
 30
0.0
 11
-1.0429692866
 21
-1.272467671
 31
0.0
 11
-1.0844526022
 21
-1.2810438278
 31
0.0
 11
-1.211248475
 21
-1.3240342067
 31
0.0
  0
SPLINE
  5
4B8
100
AcDbEntity
  8
COPY-PUBBLISH
100
AcDbSpline
 62
7
  6
CONTINUOUS
 70
0
 71
3
 72
9
 73
5
 74
3
 42
0.0000001
 43
0.0000001
 44
0.0000000001
 12
-0.1612297203
 22
-0.0806148601
 32
0.0
 13
-0.1453303044
 23
-0.1066437105
 33
0.0
 40
0.0
 40
0.0
 40
0.0
 40
0.0
 40
0.2419397827
 40
1.0
 40
1.0
 40
1.0
 40
1.0
 10
-1.2715861388
 20
-1.3528226386
 30
0.0
 10
-1.2845887666
 20
-1.3593239526
 30
0.0
 10
-1.3377001557
 20
-1.3874518604
 30
0.0
 10
-1.388246342
 20
-1.4203363939
 30
0.0
 10
-1.4249693828
 20
-1.4472838454
 30
0.0
 11
-1.2715861388
 21
-1.3528226386
 31
0.0
 11
-1.3101381287
 21
-1.3732129008
 31
0.0
 11
-1.4249693828
 21
-1.4472838454
 31
0.0
  0
SPLINE
  5
4B9
100
AcDbEntity
  8
COPY-PUBBLISH
100
AcDbSpline
 62
7
  6
CONTINUOUS
 70
0
 71
3
 72
8
 73
4
 74
2
 42
0.0000001
 43
0.0000001
 44
0.0000000001
 12
-0.0451427563
 22
0.0478787125
 32
0.0
 13
-0.0588227273
 23
0.0294979035
 33
0.0
 40
0.0
 40
0.0
 40
0.0
 40
0.0
 40
1.0
 40
1.0
 40
1.0
 40
1.0
 10
-0.8659406861
 20
-1.5388841606
 30
0.0
 10
-0.8809882715
 20
-1.5229245898
 30
0.0
 10
-0.8990040077
 20
-1.5092704248
 30
0.0
 10
-0.9186115835
 20
-1.4994377904
 30
0.0
 11
-0.8659406861
 21
-1.5388841606
 31
0.0
 11
-0.9186115835
 21
-1.4994377904
 31
0.0
  0
SPLINE
  5
4BA
100
AcDbEntity
  8
COPY-PUBBLISH
100
AcDbSpline
 62
7
  6
CONTINUOUS
 70
0
 71
3
 72
9
 73
5
 74
3
 42
0.0000001
 43
0.0000001
 44
0.0000000001
 12
0.0
 22
0.205363847
 32
0.0
 13
-0.1151409434
 23
0.1700496187
 33
0.0
 40
0.0
 40
0.0
 40
0.0
 40
0.0
 40
0.2773163566
 40
1.0
 40
1.0
 40
1.0
 40
1.0
 10
-0.8006346378
 20
-1.7538842201
 30
0.0
 10
-0.8006346378
 20
-1.7349006355
 30
0.0
 10
-0.8042931197
 20
-1.6667356835
 30
0.0
 10
-0.8247551753
 20
-1.597742137
 30
0.0
 10
-0.8524920008
 20
-1.556778111
 30
0.0
 11
-0.8006346378
 21
-1.7538842201
 31
0.0
 11
-0.8039560196
 21
-1.6970304007
 31
0.0
 11
-0.8524920008
 21
-1.556778111
 31
0.0
  0
SPLINE
  5
4BB
100
AcDbEntity
  8
COPY-PUBBLISH
100
AcDbSpline
 62
7
  6
CONTINUOUS
 70
0
 71
3
 72
9
 73
5
 74
3
 42
0.0000001
 43
0.0000001
 44
0.0000000001
 12
0.0698623601
 22
0.3109745784
 32
0.0
 13
0.1563735336
 23
0.2777287449
 33
0.0
 40
0.0
 40
0.0
 40
0.0
 40
0.0
 40
0.2452479636
 40
1.0
 40
1.0
 40
1.0
 40
1.0
 10
-1.8500464845
 20
-2.0890372604
 30
0.0
 10
-1.844335284
 20
-2.0636152997
 30
0.0
 10
-1.8170108702
 20
-1.9608964779
 30
0.0
 10
-1.7744613658
 20
-1.8623023362
 30
0.0
 10
-1.7351202848
 20
-1.7924302242
 30
0.0
 11
-1.8500464845
 21
-2.0890372604
 31
0.0
 11
-1.8300170334
 21
-2.0134802213
 31
0.0
 11
-1.7351202848
 21
-1.7924302242
 31
0.0
  0
SPLINE
  5
4BC
100
AcDbEntity
  8
COPY-PUBBLISH
100
AcDbSpline
 62
7
  6
CONTINUOUS
 70
0
 71
3
 72
9
 73
5
 74
3
 42
0.0000001
 43
0.0000001
 44
0.0000000001
 12
0.0859336844
 22
0.1295406022
 32
0.0
 13
0.104333996
 23
0.115237941
 33
0.0
 40
0.0
 40
0.0
 40
0.0
 40
0.0
 40
0.254049404
 40
1.0
 40
1.0
 40
1.0
 40
1.0
 10
-1.6932259006
 20
-1.7239449784
 30
0.0
 10
-1.6859487669
 20
-1.7129750741
 30
0.0
 10
-1.6565133605
 20
-1.6703266267
 30
0.0
 10
-1.6239748745
 20
-1.6298049786
 30
0.0
 10
-1.5980322057
 20
-1.6011510417
 30
0.0
 11
-1.6932259006
 21
-1.7239449784
 31
0.0
 11
-1.6707923958
 21
-1.6914427148
 31
0.0
 11
-1.5980322057
 21
-1.6011510417
 31
0.0
  0
SPLINE
  5
4BD
100
AcDbEntity
  8
COPY-PUBBLISH
100
AcDbSpline
 62
7
  6
CONTINUOUS
 70
0
 71
3
 72
10
 73
6
 74
4
 42
0.0000001
 43
0.0000001
 44
0.0000000001
 12
-0.1384282132
 22
0.0692141066
 32
0.0
 13
-0.1384282132
 23
0.0692141066
 33
0.0
 40
0.0
 40
0.0
 40
0.0
 40
0.0
 40
0.5143115065
 40
0.7615824756
 40
1.0
 40
1.0
 40
1.0
 40
1.0
 10
-4.8649600646
 20
-25.5618660003
 30
0.0
 10
-4.8886918056
 20
-25.5500001298
 30
0.0
 10
-4.9237206711
 20
-25.5322063069
 30
0.0
 10
-4.9699861223
 20
-25.5093753872
 30
0.0
 10
-4.9928387424
 20
-25.4990788186
 30
0.0
 10
-5.0038399797
 20
-25.4935782
 30
0.0
 11
-4.8649600646
 21
-25.5618660003
 31
0.0
 11
-4.9360971477
 21
-25.5261523458
 31
0.0
 11
-4.9704947502
 21
-25.5093785772
 31
0.0
 11
-5.0038399797
 21
-25.4935782
 31
0.0
  0
SPLINE
  5
4BE
100
AcDbEntity
  8
COPY-PUBBLISH
100
AcDbSpline
 62
7
  6
CONTINUOUS
 70
0
 71
3
 72
11
 73
7
 74
5
 42
0.0000001
 43
0.0000001
 44
0.0000000001
 12
0.0
 22
-0.4404656701
 32
0.0
 13
-0.3939644721
 23
-0.196982236
 33
0.0
 40
0.0
 40
0.0
 40
0.0
 40
0.0
 40
0.2467931079
 40
0.5117852234
 40
0.7703244106
 40
1.0
 40
1.0
 40
1.0
 40
1.0
 10
26.2083766009
 20
2.1880355746
 30
0.0
 10
26.2083766009
 20
2.151800944
 30
0.0
 10
26.1958722694
 20
2.0765304904
 30
0.0
 10
26.1505906904
 20
1.9718484071
 30
0.0
 10
26.0840395962
 20
1.8823314499
 30
0.0
 10
26.0264059073
 20
1.8372426066
 30
0.0
 10
25.9962445665
 20
1.8221619362
 30
0.0
 11
26.2083766009
 21
2.1880355746
 31
0.0
 11
26.1922290113
 21
2.0805377075
 31
0.0
 11
26.1462445665
 21
1.9732578267
 31
0.0
 11
26.0774239816
 21
1.8825283213
 31
0.0
 11
25.9962445665
 21
1.8221619362
 31
0.0
  0
SPLINE
  5
4BF
100
AcDbEntity
  8
COPY-PUBBLISH
100
AcDbSpline
 62
7
  6
CONTINUOUS
 70
0
 71
3
 72
9
 73
5
 74
3
 42
0.0000001
 43
0.0000001
 44
0.0000000001
 12
-0.1237531323
 22
-0.0618765661
 32
0.0
 13
-0.1236830715
 23
0.0620164898
 33
0.0
 40
0.0
 40
0.0
 40
0.0
 40
0.0
 40
0.5361184976
 40
1.0
 40
1.0
 40
1.0
 40
1.0
 10
25.0062950729
 20
1.3271871894
 30
0.0
 10
24.9841796251
 20
1.3161294655
 30
0.0
 10
24.9391159074
 20
1.3011277674
 30
0.0
 10
24.891103168
 20
1.3091610048
 30
0.0
 10
24.871978405
 20
1.3187504389
 30
0.0
 11
25.0062950729
 21
1.3271871894
 31
0.0
 11
24.935013023
 21
1.3066648611
 31
0.0
 11
24.871978405
 21
1.3187504389
 31
0.0
  0
SPLINE
  5
4C0
100
AcDbEntity
  8
RACCORDO
100
AcDbSpline
 62
253
  6
CONTINUOUS
 70
0
 71
3
 72
11
 73
7
 74
5
 42
0.0000001
 43
0.0000001
 44
0.0000000001
 12
0.4141450172
 22
0.2401567324
 32
0.0
 13
-0.0133490305
 23
0.4785531891
 33
0.0
 40
0.0
 40
0.0
 40
0.0
 40
0.0
 40
0.2193034195
 40
0.4535442541
 40
0.7131004285
 40
1.0
 40
1.0
 40
1.0
 40
1.0
 10
-9.122388448
 20
28.2166841055
 30
0.0
 10
-9.0921139752
 20
28.2342398364
 30
0.0
 10
-9.0356685037
 20
28.2821435207
 30
0.0
 10
-8.9762306204
 20
28.3810883704
 30
0.0
 10
-8.942731484
 20
28.5023137047
 30
0.0
 10
-8.9376583136
 20
28.5899856139
 30
0.0
 10
-8.938934924
 20
28.6357511822
 30
0.0
 11
-9.122388448
 21
28.2166841055
 31
0.0
 11
-9.041886084
 21
28.2840791788
 31
0.0
 11
-8.9828344496
 21
28.3794120257
 31
0.0
 11
-8.9480502679
 21
28.4987038791
 31
0.0
 11
-8.938934924
 21
28.6357511822
 31
0.0
  0
SPLINE
  5
4C1
100
AcDbEntity
  8
DRAFT
100
AcDbSpline
 62
7
  6
CONTINUOUS
 70
0
 71
3
 72
9
 73
5
 74
3
 42
0.0000001
 43
0.0000001
 44
0.0000000001
 12
0.2163137191
 22
0.1081568596
 32
0.0
 13
0.2399698612
 23
0.0300665437
 33
0.0
 40
0.0
 40
0.0
 40
0.0
 40
0.0
 40
0.2291379418
 40
1.0
 40
1.0
 40
1.0
 40
1.0
 10
-12.8239177206
 20
-22.392637256
 30
0.0
 10
-12.8073958271
 20
-22.3843763093
 30
0.0
 10
-12.7332740563
 20
-22.3523809115
 30
0.0
 10
-12.6535221756
 20
-22.3346334798
 30
0.0
 10
-12.5918609552
 20
-22.3269077605
 30
0.0
 11
-12.8239177206
 21
-22.392637256
 31
0.0
 11
-12.7731320027
 21
-22.3704616681
 31
0.0
 11
-12.5918609552
 21
-22.3269077605
 31
0.0
  0
SPLINE
  5
4C2
100
AcDbEntity
  8
COPY-PUBBLISH
100
AcDbSpline
 62
7
  6
CONTINUOUS
 70
0
 71
3
 72
16
 73
12
 74
10
 42
0.0000001
 43
0.0000001
 44
0.0000000001
 12
3.5924321062
 22
-1.7958218969
 32
0.0
 13
-0.2012204322
 23
4.0112410873
 33
0.0
 40
0.0
 40
0.0
 40
0.0
 40
0.0
 40
0.0448109765
 40
0.0911236952
 40
0.1924023076
 40
0.3094908269
 40
0.4414892811
 40
0.5835985303
 40
0.7289119036
 40
0.8699417471
 40
1.0
 40
1.0
 40
1.0
 40
1.0
 10
-5.8262589169
 20
-27.5506157009
 30
0.0
 10
-5.7725987867
 20
-27.5774398785
 30
0.0
 10
-5.6564459504
 20
-27.6189148116
 30
0.0
 10
-5.3985563765
 20
-27.6481028405
 30
0.0
 10
-5.0431648098
 20
-27.5724413875
 30
0.0
 10
-4.632017609
 20
-27.336434475
 30
0.0
 10
-4.2468062869
 20
-26.9759036393
 30
0.0
 10
-3.9160403486
 20
-26.5183958229
 30
0.0
 10
-3.6647244933
 20
-25.9994724003
 30
0.0
 10
-3.5126053233
 20
-25.4602284113
 30
0.0
 10
-3.4839484673
 20
-25.0948702
 30
0.0
 10
-3.4926719266
 20
-24.9209718641
 30
0.0
 11
-5.8262589169
 21
-27.5506157009
 31
0.0
 11
-5.6569125267
 21
-27.6115444696
 31
0.0
 11
-5.4721965696
 21
-27.6334054628
 31
0.0
 11
-5.0723429225
 21
-27.5587474291
 31
0.0
 11
-4.6599045332
 21
-27.3328274246
 31
0.0
 11
-4.2692259251
 21
-26.9744669168
 31
0.0
 11
-3.9327643409
 21
-26.5134348381
 31
0.0
 11
-3.6785275367
 21
-25.9881008014
 31
0.0
 11
-3.5276443358
 21
-25.4421508165
 31
0.0
 11
-3.4926719266
 21
-24.9209718641
 31
0.0
  0
SPLINE
  5
4C3
100
AcDbEntity
  8
ASSI
100
AcDbSpline
 62
7
  6
CONTINUOUS
 70
0
 71
3
 72
9
 73
5
 74
3
 42
0.0000001
 43
0.0000001
 44
0.0000000001
 12
0.2033671181
 22
-0.0766946808
 32
0.0
 13
0.216453287
 23
-0.0197036379
 33
0.0
 40
0.0
 40
0.0
 40
0.0
 40
0.0
 40
0.2468305486
 40
1.0
 40
1.0
 40
1.0
 40
1.0
 10
-5.8961686191
 20
-27.5111595186
 30
0.0
 10
-5.8794362133
 20
-27.5174697154
 30
0.0
 10
-5.8107640488
 20
-27.5406564433
 30
0.0
 10
-5.7389036565
 20
-27.554163546
 30
0.0
 10
-5.6845616554
 20
-27.559110272
 30
0.0
 11
-5.8961686191
 21
-27.5111595186
 31
0.0
 11
-5.8453411934
 21
-27.5283263667
 31
0.0
 11
-5.6845616554
 21
-27.559110272
 31
0.0
  0
SPLINE
  5
4C4
100
AcDbEntity
  8
ASSI
100
AcDbSpline
 62
7
  6
CONTINUOUS
 70
0
 71
3
 72
9
 73
5
 74
3
 42
0.0000001
 43
0.0000001
 44
0.0000000001
 12
0.6763904182
 22
-0.0615714921
 32
0.0
 13
0.6005854387
 23
0.3171626985
 33
0.0
 40
0.0
 40
0.0
 40
0.0
 40
0.0
 40
0.4708490978
 40
1.0
 40
1.0
 40
1.0
 40
1.0
 10
-5.6845616554
 20
-27.559110272
 30
0.0
 10
-5.5784023827
 20
-27.5687738992
 30
0.0
 10
-5.3484510033
 20
-27.5468345987
 30
0.0
 10
-5.1360579901
 20
-27.4614714262
 30
0.0
 10
-5.0301245479
 20
-27.4055291168
 30
0.0
 11
-5.6845616554
 21
-27.559110272
 31
0.0
 11
-5.3657502537
 21
-27.5340526986
 31
0.0
 11
-5.0301245479
 21
-27.4055291168
 31
0.0
  0
SPLINE
  5
4C5
100
AcDbEntity
  8
ASSI
100
AcDbSpline
 62
7
  6
CONTINUOUS
 70
0
 71
3
 72
9
 73
5
 74
3
 42
0.0000001
 43
0.0000001
 44
0.0000000001
 12
0.2829823391
 22
0.149439924
 32
0.0
 13
0.2543112996
 23
0.1942602842
 33
0.0
 40
0.0
 40
0.0
 40
0.0
 40
0.0
 40
0.2421309881
 40
1.0
 40
1.0
 40
1.0
 40
1.0
 10
-5.0301245479
 20
-27.4055291168
 30
0.0
 10
-5.0072849501
 20
-27.3934677713
 30
0.0
 10
-4.9141033551
 20
-27.3414976949
 30
0.0
 10
-4.825553217
 20
-27.2813576905
 30
0.0
 10
-4.7613083326
 20
-27.232283074
 30
0.0
 11
-5.0301245479
 21
-27.4055291168
 31
0.0
 11
-4.9624321771
 21
-27.3678216577
 31
0.0
 11
-4.7613083326
 21
-27.232283074
 31
0.0
  0
SPLINE
  5
4C6
100
AcDbEntity
  8
ASSI
100
AcDbSpline
 62
7
  6
CONTINUOUS
 70
0
 71
3
 72
11
 73
7
 74
5
 42
0.0000001
 43
0.0000001
 44
0.0000000001
 12
2.1625493485
 22
1.6519024187
 32
0.0
 13
-0.1363373441
 23
2.7178692783
 33
0.0
 40
0.0
 40
0.0
 40
0.0
 40
0.0
 40
0.2430527594
 40
0.503785559
 40
0.7624516359
 40
1.0
 40
1.0
 40
1.0
 40
1.0
 10
-4.7613083326
 20
-27.232283074
 30
0.0
 10
-4.5861038038
 20
-27.0984499269
 30
0.0
 10
-4.2636095335
 20
-26.7665118265
 30
0.0
 10
-3.9012502998
 20
-26.1717162391
 30
0.0
 10
-3.6720922567
 20
-25.5192814019
 30
0.0
 10
-3.6232974869
 20
-25.0654690493
 30
0.0
 10
-3.634093058
 20
-24.8502605823
 30
0.0
 11
-4.7613083326
 21
-27.232283074
 31
0.0
 11
-4.2942621147
 21
-26.7639463641
 31
0.0
 11
-3.9228478048
 21
-26.1593949726
 31
0.0
 11
-3.6932605723
 21
-25.4939843296
 31
0.0
 11
-3.634093058
 21
-24.8502605823
 31
0.0
  0
SPLINE
  5
4C7
100
AcDbEntity
  8
RACCORDO
100
AcDbSpline
 62
253
  6
CONTINUOUS
 70
0
 71
3
 72
11
 73
7
 74
5
 42
0.0000001
 43
0.0000001
 44
0.0000000001
 12
0.4139211206
 22
0.2405863619
 32
0.0
 13
-0.013349641
 23
0.4785752591
 33
0.0
 40
0.0
 40
0.0
 40
0.0
 40
0.0
 40
0.2194508937
 40
0.4535950092
 40
0.7127826086
 40
1.0
 40
1.0
 40
1.0
 40
1.0
 10
8.1649302554
 20
38.252011416
 30
0.0
 10
8.1952087086
 20
38.26961038
 30
0.0
 10
8.2517388749
 20
38.3174308966
 30
0.0
 10
8.3110426531
 20
38.4164124643
 30
0.0
 10
8.344708599
 20
38.5375596066
 30
0.0
 10
8.349678123
 20
38.625247315
 30
0.0
 10
8.34840004
 20
38.6710656942
 30
0.0
 11
8.1649302554
 21
38.252011416
 31
0.0
 11
8.2455093959
 21
38.3194323068
 31
0.0
 11
8.3045061679
 21
38.4147507432
 31
0.0
 11
8.3393150395
 21
38.5338575346
 31
0.0
 11
8.34840004
 21
38.6710656942
 31
0.0
  0
SPLINE
  5
4C8
100
AcDbEntity
  8
ASSI
100
AcDbSpline
 62
7
  6
CONTINUOUS
 70
0
 71
3
 72
14
 73
10
 74
8
 42
0.0000001
 43
0.0000001
 44
0.0000000001
 12
-2.1815196149
 22
1.0901001062
 32
0.0
 13
1.2911177625
 23
2.0689033316
 33
0.0
 40
0.0
 40
0.0
 40
0.0
 40
0.0
 40
0.0927297297
 40
0.1919935714
 40
0.302146697
 40
0.4247315265
 40
0.558901008
 40
0.7021058918
 40
1.0
 40
1.0
 40
1.0
 40
1.0
 10
-5.8225492817
 20
-27.1902202267
 30
0.0
 10
-5.8899798565
 20
-27.1565253306
 30
0.0
 10
-6.017812708
 20
-27.0606104398
 30
0.0
 10
-6.1567980033
 20
-26.8537288349
 30
0.0
 10
-6.2427016639
 20
-26.5950881326
 30
0.0
 10
-6.2739290147
 20
-26.2966081481
 30
0.0
 10
-6.2502215315
 20
-25.970832828
 30
0.0
 10
-6.1462336142
 20
-25.5137325841
 30
0.0
 10
-5.9949412043
 20
-25.182425227
 30
0.0
 10
-5.8667357462
 20
-24.9769871894
 30
0.0
 11
-5.8225492817
 21
-27.1902202267
 31
0.0
 11
-6.0042438779
 21
-27.0555831976
 31
0.0
 11
-6.1423200511
 21
-26.8567465396
 31
0.0
 11
-6.2304326312
 21
-26.6029758713
 31
0.0
 11
-6.2644926761
 21
-26.3059726335
 31
0.0
 11
-6.2428725051
 21
-25.9794861564
 31
0.0
 11
-6.1666536667
 21
-25.6386684435
 31
0.0
 11
-5.8667357462
 21
-24.9769871894
 31
0.0
  0
SPLINE
  5
4C9
100
AcDbEntity
  8
ASSI
100
AcDbSpline
 62
7
  6
CONTINUOUS
 70
0
 71
3
 72
9
 73
5
 74
3
 42
0.0000001
 43
0.0000001
 44
0.0000000001
 12
0.598317206
 22
0.9587510115
 32
0.0
 13
1.0108162963
 23
0.5054081481
 33
0.0
 40
0.0
 40
0.0
 40
0.0
 40
0.0
 40
0.5289233158
 40
1.0
 40
1.0
 40
1.0
 40
1.0
 10
-5.8667357462
 20
-24.9769871894
 30
0.0
 10
-5.7612477727
 20
-24.8079519347
 30
0.0
 10
-5.5267270153
 20
-24.5087603936
 30
0.0
 10
-5.2214588999
 20
-24.2765322117
 30
0.0
 10
-5.0627349035
 20
-24.1971702135
 30
0.0
 11
-5.8667357462
 21
-24.9769871894
 31
0.0
 11
-5.4933685075
 21
-24.5101868317
 31
0.0
 11
-5.0627349035
 21
-24.1971702135
 31
0.0
  0
SPLINE
  5
4CA
100
AcDbEntity
  8
COPY-PUBBLISH
100
AcDbSpline
 62
7
  6
CONTINUOUS
 70
0
 71
3
 72
11
 73
7
 74
5
 42
0.0000001
 43
0.0000001
 44
0.0000000001
 12
-0.7051098822
 22
0.3524507857
 32
0.0
 13
-0.705068225
 23
-0.3525341125
 33
0.0
 40
0.0
 40
0.0
 40
0.0
 40
0.0
 40
0.2270701449
 40
0.4646265067
 40
0.7210036456
 40
1.0
 40
1.0
 40
1.0
 40
1.0
 10
-4.1612015587
 20
-24.2195518085
 30
0.0
 10
-4.2145713597
 20
-24.1928747915
 30
0.0
 10
-4.3321789321
 20
-24.1537331908
 30
0.0
 10
-4.5233621164
 20
-24.1441646363
 30
0.0
 10
-4.7244716463
 20
-24.1821178532
 30
0.0
 10
-4.8557430591
 20
-24.2350956476
 30
0.0
 10
-4.9213135473
 20
-24.2678808916
 30
0.0
 11
-4.1612015587
 21
-24.2195518085
 31
0.0
 11
-4.3308607153
 21
-24.1624925351
 31
0.0
 11
-4.5178035571
 21
-24.1515408056
 31
0.0
 11
-4.7167453218
 21
-24.1871276169
 31
0.0
 11
-4.9213135473
 21
-24.2678808916
 31
0.0
  0
SPLINE
  5
4CB
100
AcDbEntity
  8
COPY-PUBBLISH
100
AcDbSpline
 62
7
  6
CONTINUOUS
 70
0
 71
3
 72
9
 73
5
 74
3
 42
0.0000001
 43
0.0000001
 44
0.0000000001
 12
-0.1237531323
 22
-0.0618765661
 32
0.0
 13
-0.1236830715
 23
0.0620164898
 33
0.0
 40
0.0
 40
0.0
 40
0.0
 40
0.0
 40
0.5361184976
 40
1.0
 40
1.0
 40
1.0
 40
1.0
 10
26.4205086353
 20
10.6945480084
 30
0.0
 10
26.3983931875
 20
10.6834902845
 30
0.0
 10
26.3533294697
 20
10.6684885864
 30
0.0
 10
26.3053167303
 20
10.6765218238
 30
0.0
 10
26.2861919673
 20
10.686111258
 30
0.0
 11
26.4205086353
 21
10.6945480084
 31
0.0
 11
26.3492265854
 21
10.6740256801
 31
0.0
 11
26.2861919673
 21
10.686111258
 31
0.0
  0
SPLINE
  5
4CC
100
AcDbEntity
  8
COPY-PUBBLISH
100
AcDbSpline
 62
7
  6
CONTINUOUS
 70
0
 71
3
 72
15
 73
11
 74
9
 42
0.0000001
 43
0.0000001
 44
0.0000000001
 12
9.2142334293
 22
4.6071167147
 32
0.0
 13
0.0
 23
10.3018261542
 33
0.0
 40
0.0
 40
0.0
 40
0.0
 40
0.0
 40
0.1103207721
 40
0.2298809777
 40
0.3567647248
 40
0.4883338301
 40
0.6215371336
 40
0.7531869865
 40
0.8802253985
 40
1.0
 40
1.0
 40
1.0
 40
1.0
 10
14.8946681019
 20
-15.2467641664
 30
0.0
 10
15.2335085508
 20
-15.077343942
 30
0.0
 10
15.9051160725
 20
-14.653332199
 30
0.0
 10
16.8274275212
 20
-13.8408568428
 30
0.0
 10
17.6766741324
 20
-12.8540830112
 30
0.0
 10
18.4210925426
 20
-11.7299831186
 30
0.0
 10
19.0331793142
 20
-10.5104676022
 30
0.0
 10
19.4900063523
 20
-9.241015129
 30
0.0
 10
19.7744614619
 20
-7.9694131192
 30
0.0
 10
19.8444155702
 20
-7.1210116466
 30
0.0
 10
19.8444155702
 20
-6.7097126058
 30
0.0
 11
14.8946681019
 21
-15.2467641664
 31
0.0
 11
15.8603159295
 21
-14.6474572055
 31
0.0
 11
16.7888544528
 21
-13.8382151806
 31
0.0
 11
17.6446004564
 21
-12.8501368097
 31
0.0
 11
18.3946681019
 21
-11.7211933898
 31
0.0
 11
19.0102327103
 21
-10.4947695835
 31
0.0
 11
19.4676384788
 21
-9.2179961702
 31
0.0
 11
19.7493075605
 21
-7.939938835
 31
0.0
 11
19.8444155702
 21
-6.7097126058
 31
0.0
  0
SPLINE
  5
4CD
100
AcDbEntity
  8
COPY-PUBBLISH
100
AcDbSpline
 62
7
  6
CONTINUOUS
 70
0
 71
3
 72
14
 73
10
 74
8
 42
0.0000001
 43
0.0000001
 44
0.0000000001
 12
0.0
 22
4.7071690431
 32
0.0
 13
-4.4167985603
 23
1.6276765274
 33
0.0
 40
0.0
 40
0.0
 40
0.0
 40
0.0
 40
0.2909113558
 40
0.4243906721
 40
0.5500179871
 40
0.668685354
 40
0.7818277707
 40
0.8914613733
 40
1.0
 40
1.0
 40
1.0
 40
1.0
 10
19.8444155702
 20
11.1304107122
 30
0.0
 10
19.8444155702
 20
11.5868670217
 30
0.0
 10
19.7835568059
 20
12.257099474
 30
0.0
 10
19.5483328652
 20
13.0894981831
 30
0.0
 10
19.3101088488
 20
13.6346050571
 30
0.0
 10
19.0081423186
 20
14.1101261095
 30
0.0
 10
18.6456852605
 20
14.5086316806
 30
0.0
 10
18.2280870964
 20
14.8233557294
 30
0.0
 10
17.9174899215
 20
14.9733192425
 30
0.0
 10
17.7576921714
 20
15.0322078342
 30
0.0
 11
19.8444155702
 21
11.1304107122
 31
0.0
 11
19.7042945794
 21
12.4925918199
 31
0.0
 11
19.5310206969
 21
13.0965365585
 31
0.0
 11
19.2918811925
 21
13.637374748
 31
0.0
 11
18.9903086988
 21
14.1075596744
 31
0.0
 11
18.6305321791
 21
14.5002463501
 31
0.0
 11
18.2177156692
 21
14.8099308312
 31
0.0
 11
17.7576921714
 21
15.0322078342
 31
0.0
  0
SPLINE
  5
4CE
100
AcDbEntity
  8
RACCORDO
100
AcDbSpline
 62
7
  6
CONTINUOUS
 70
0
 71
3
 72
16
 73
12
 74
10
 42
0.0000001
 43
0.0000001
 44
0.0000000001
 12
2.3282848608
 22
-1.1638688202
 32
0.0
 13
-2.3181801891
 23
-1.1838672369
 33
0.0
 40
0.0
 40
0.0
 40
0.0
 40
0.0
 40
0.0449540371
 40
0.0915752542
 40
0.194338886
 40
0.3140027864
 40
0.4488256391
 40
0.5928130375
 40
0.7379286715
 40
0.8759031216
 40
1.0
 40
1.0
 40
1.0
 40
1.0
 10
18.2480943488
 20
-25.8991974396
 30
0.0
 10
18.2829829502
 20
-25.9166376403
 30
0.0
 10
18.3497991834
 20
-25.9614020283
 30
0.0
 10
18.4641394477
 20
-26.0872667848
 30
0.0
 10
18.5576311947
 20
-26.308077287
 30
0.0
 10
18.5837862698
 20
-26.6203090441
 30
0.0
 10
18.5315359041
 20
-26.9647796643
 30
0.0
 10
18.4055337331
 20
-27.312611875
 30
0.0
 10
18.2168905119
 20
-27.6341037514
 30
0.0
 10
17.9822485427
 20
-27.9010812628
 30
0.0
 10
17.7956302884
 20
-28.0362680203
 30
0.0
 10
17.6997373134
 20
-28.0852394299
 30
0.0
 11
18.2480943488
 21
-25.8991974396
 31
0.0
 11
18.3454650831
 21
-25.9640920932
 31
0.0
 11
18.427603207
 21
-26.0534237044
 31
0.0
 11
18.5387364202
 21
-26.2967366019
 31
0.0
 11
18.5711787531
 21
-26.6065251377
 31
0.0
 11
18.5219085756
 21
-26.9539903845
 31
0.0
 11
18.3955079921
 21
-27.3068290057
 31
0.0
 11
18.2037277252
 21
-27.6322557065
 31
0.0
 11
17.9643842312
 21
-27.900023439
 31
0.0
 11
17.6997373134
 21
-28.0852394299
 31
0.0
  0
SPLINE
  5
4CF
100
AcDbEntity
  8
COPY-PUBBLISH
100
AcDbSpline
 62
7
  6
CONTINUOUS
 70
0
 71
3
 72
11
 73
7
 74
5
 42
0.0000001
 43
0.0000001
 44
0.0000000001
 12
2.9684731675
 22
-1.9204097007
 32
0.0
 13
3.1622531669
 23
1.5811265834
 33
0.0
 40
0.0
 40
0.0
 40
0.0
 40
0.0
 40
0.2279329883
 40
0.4641611262
 40
0.7194410634
 40
1.0
 40
1.0
 40
1.0
 40
1.0
 10
3.7329477273
 20
-19.1900757953
 30
0.0
 10
3.9584853805
 20
-19.335984036
 30
0.0
 10
4.4674370435
 20
-19.5632064035
 30
0.0
 10
5.3212744043
 20
-19.6598344922
 30
0.0
 10
6.2290534704
 20
-19.5179444878
 30
0.0
 10
6.8207607136
 20
-19.2837178606
 30
0.0
 10
7.1164935089
 20
-19.1358514629
 30
0.0
 11
3.7329477273
 21
-19.1900757953
 31
0.0
 11
4.4684496644
 21
-19.5193855734
 31
0.0
 11
5.2974114205
 21
-19.6211611381
 31
0.0
 11
6.1906335522
 21
-19.4917792091
 31
0.0
 11
7.1164935089
 21
-19.1358514629
 31
0.0
  0
SPLINE
  5
4D0
100
AcDbEntity
  8
COPY-PUBBLISH
100
AcDbSpline
 62
7
  6
CONTINUOUS
 70
0
 71
3
 72
16
 73
12
 74
10
 42
0.0000001
 43
0.0000001
 44
0.0000000001
 12
-3.1921900885
 22
-1.5960950443
 32
0.0
 13
3.1923786914
 23
-1.5957177828
 33
0.0
 40
0.0
 40
0.0
 40
0.0
 40
0.0
 40
0.1236981047
 40
0.2614412618
 40
0.406528525
 40
0.5506381563
 40
0.6856485169
 40
0.8054985118
 40
0.9083770539
 40
0.955031778
 40
1.0
 40
1.0
 40
1.0
 40
1.0
 10
-4.9213135473
 20
-24.2678808916
 30
0.0
 10
-5.0529361685
 20
-24.3336922023
 30
0.0
 10
-5.3094853342
 20
-24.5169660056
 30
0.0
 10
-5.6323773496
 20
-24.88098443
 30
0.0
 10
-5.8925633366
 20
-25.3207175316
 30
0.0
 10
-6.0669045416
 20
-25.7974388868
 30
0.0
 10
-6.1399192675
 20
-26.2701316442
 30
0.0
 10
-6.1051880254
 20
-26.698951362
 30
0.0
 10
-5.977452818
 20
-27.0023268154
 30
0.0
 10
-5.8209654796
 20
-27.1754529803
 30
0.0
 10
-5.7292774004
 20
-27.2368536941
 30
0.0
 10
-5.6814255359
 20
-27.2607725579
 30
0.0
 11
-4.9213135473
 21
-24.2678808916
 31
0.0
 11
-5.2847573997
 21
-24.5184988346
 31
0.0
 11
-5.6141440959
 21
-24.8834331988
 31
0.0
 11
-5.8787149591
 21
-25.3285541633
 31
0.0
 11
-6.0536821055
 21
-25.8122024196
 31
0.0
 11
-6.1226612452
 21
-26.2890883763
 31
0.0
 11
-6.0792213069
 21
-26.7146187341
 31
0.0
 11
-5.9274084779
 21
-27.048935231
 31
0.0
 11
-5.8149485919
 21
-27.1717286901
 31
0.0
 11
-5.6814255359
 21
-27.2607725579
 31
0.0
  0
SPLINE
  5
4D1
100
AcDbEntity
  8
COPY-PUBBLISH
100
AcDbSpline
 62
253
  6
CONTINUOUS
 70
0
 71
3
 72
11
 73
7
 74
5
 42
0.0000001
 43
0.0000001
 44
0.0000000001
 12
-0.7929376593
 22
0.3974329336
 32
0.0
 13
-0.0299581706
 23
0.8864567537
 33
0.0
 40
0.0
 40
0.0
 40
0.0
 40
0.0
 40
0.2179561301
 40
0.451588895
 40
0.7111290086
 40
1.0
 40
1.0
 40
1.0
 40
1.0
 10
-28.9196662195
 20
-22.5933715355
 30
0.0
 10
-28.9772747607
 20
-22.5644972208
 30
0.0
 10
-29.0864951545
 20
-22.4823809531
 30
0.0
 10
-29.2062636779
 20
-22.3059503591
 30
0.0
 10
-29.2817102678
 20
-22.0851184526
 30
0.0
 10
-29.3006685732
 20
-21.9229425608
 30
0.0
 10
-29.3035532553
 20
-21.8375853471
 30
0.0
 11
-28.9196662195
 21
-22.5933715355
 31
0.0
 11
-29.0749783519
 21
-22.4782612745
 31
0.0
 11
-29.1939373167
 21
-22.308584003
 31
0.0
 11
-29.2712769631
 21
-22.0917620945
 31
0.0
 11
-29.3035532553
 21
-21.8375853471
 31
0.0
  0
SPLINE
  5
4D2
100
AcDbEntity
  8
COPY-PUBBLISH
100
AcDbSpline
 62
7
  6
CONTINUOUS
 70
0
 71
3
 72
9
 73
5
 74
3
 42
0.0000001
 43
0.0000001
 44
0.0000000001
 12
-0.2422180942
 22
0.6098838229
 32
0.0
 13
-0.5871230993
 23
0.2931114956
 33
0.0
 40
0.0
 40
0.0
 40
0.0
 40
0.0
 40
0.5219653901
 40
1.0
 40
1.0
 40
1.0
 40
1.0
 10
-3.5951533404
 20
-24.4179374881
 30
0.0
 10
-3.6372964944
 20
-24.3118247389
 30
0.0
 10
-3.7470563809
 20
-24.117347821
 30
0.0
 10
-3.9230601316
 20
-23.9762828778
 30
0.0
 10
-4.0166151856
 20
-23.9295770646
 30
0.0
 11
-3.5951533404
 21
-24.4179374881
 31
0.0
 11
-3.769926218
 21
-24.1233562769
 31
0.0
 11
-4.0166151856
 21
-23.9295770646
 31
0.0
  0
SPLINE
  5
4D3
100
AcDbEntity
  8
COPY-PUBBLISH
100
AcDbSpline
 62
7
  6
CONTINUOUS
 70
0
 71
3
 72
9
 73
5
 74
3
 42
0.0000001
 43
0.0000001
 44
0.0000000001
 12
-0.5413850827
 22
-0.9875149494
 32
0.0
 13
-0.0893837728
 23
-1.1226282217
 33
0.0
 40
0.0
 40
0.0
 40
0.0
 40
0.0
 40
0.51308229
 40
1.0
 40
1.0
 40
1.0
 40
1.0
 10
-3.159941668
 20
-23.8513932287
 30
0.0
 10
-3.2525333674
 20
-24.0202853726
 30
0.0
 10
-3.4014030548
 20
-24.3677241382
 30
0.0
 10
-3.4781644126
 20
-24.7387626764
 30
0.0
 10
-3.4926719266
 20
-24.9209718641
 30
0.0
 11
-3.159941668
 21
-23.8513932287
 31
0.0
 11
-3.3863154021
 21
-24.3830274488
 31
0.0
 11
-3.4926719266
 21
-24.9209718641
 31
0.0
  0
SPLINE
  5
4D4
100
AcDbEntity
  8
COPY-PUBBLISH
100
AcDbSpline
 62
7
  6
CONTINUOUS
 70
0
 71
3
 72
9
 73
5
 74
3
 42
0.0000001
 43
0.0000001
 44
0.0000000001
 12
-0.1841149586
 22
0.3096997818
 32
0.0
 13
-0.3222491299
 23
0.1611451864
 33
0.0
 40
0.0
 40
0.0
 40
0.0
 40
0.0
 40
0.5130056863
 40
1.0
 40
1.0
 40
1.0
 40
1.0
 10
-3.9837712727
 20
-24.626913993
 30
0.0
 10
-4.0152552796
 20
-24.5739547433
 30
0.0
 10
-4.0895364122
 20
-24.4775035417
 30
0.0
 10
-4.1889662351
 20
-24.4064245836
 30
0.0
 10
-4.2412773998
 20
-24.3802656537
 30
0.0
 11
-3.9837712727
 21
-24.626913993
 31
0.0
 11
-4.0980870688
 21
-24.4816720495
 31
0.0
 11
-4.2412773998
 21
-24.3802656537
 31
0.0
  0
SPLINE
  5
4D5
100
AcDbEntity
  8
RACCORDO
100
AcDbSpline
 62
7
  6
CONTINUOUS
 70
0
 71
3
 72
9
 73
5
 74
3
 42
0.0000001
 43
0.0000001
 44
0.0000000001
 12
-0.6915266416
 22
-1.1927070285
 32
0.0
 13
-1.2117026055
 23
-0.6576746519
 33
0.0
 40
0.0
 40
0.0
 40
0.0
 40
0.0
 40
0.5273232414
 40
1.0
 40
1.0
 40
1.0
 40
1.0
 10
24.9953353701
 20
-25.2914421018
 30
0.0
 10
24.87378268
 20
-25.5010894806
 30
0.0
 10
24.5988259694
 20
-25.8746480589
 30
0.0
 10
24.2356052649
 20
-26.1693927411
 30
0.0
 10
24.0446907116
 20
-26.2730152487
 30
0.0
 11
24.9953353701
 21
-25.2914421018
 31
0.0
 11
24.559257001
 21
-25.873145957
 31
0.0
 11
24.0446907116
 21
-26.2730152487
 31
0.0
  0
SPLINE
  5
4D6
100
AcDbEntity
  8
RACCORDO
100
AcDbSpline
 62
7
  6
CONTINUOUS
 70
0
 71
3
 72
9
 73
5
 74
3
 42
0.0000001
 43
0.0000001
 44
0.0000000001
 12
0.0
 22
-1.5028290617
 32
0.0
 13
-0.753797957
 23
-1.3001091604
 33
0.0
 40
0.0
 40
0.0
 40
0.0
 40
0.0
 40
0.4822175519
 40
1.0
 40
1.0
 40
1.0
 40
1.0
 10
25.5012698197
 20
-23.7013953193
 30
0.0
 10
25.5012698197
 20
-23.9429588363
 30
0.0
 10
25.4180239624
 20
-24.4445640799
 30
0.0
 10
25.2171573745
 20
-24.9088557373
 30
0.0
 10
25.0870562573
 20
-25.1332469719
 30
0.0
 11
25.5012698197
 21
-23.7013953193
 31
0.0
 11
25.3936338011
 21
-24.4180478726
 31
0.0
 11
25.0870562573
 21
-25.1332469719
 31
0.0
  0
SPLINE
  5
4D7
100
AcDbEntity
  8
COPY-PUBBLISH
100
AcDbSpline
 62
7
  6
CONTINUOUS
 70
0
 71
3
 72
11
 73
7
 74
5
 42
0.0000001
 43
0.0000001
 44
0.0000000001
 12
-0.0541587684
 22
-1.2191875213
 32
0.0
 13
1.0914860322
 23
-0.545902579
 33
0.0
 40
0.0
 40
0.0
 40
0.0
 40
0.0
 40
0.2921457513
 40
0.5531889029
 40
0.7854520367
 40
1.0
 40
1.0
 40
1.0
 40
1.0
 10
-6.5626710209
 20
2.5254640428
 30
0.0
 10
-6.5679451056
 20
2.4067372246
 30
0.0
 10
-6.558521947
 20
2.1801831263
 30
0.0
 10
-6.4744821492
 20
1.8685384768
 30
0.0
 10
-6.3222882856
 20
1.6184848684
 30
0.0
 10
-6.1749747689
 20
1.5034200295
 30
0.0
 10
-6.0969160672
 20
1.4643792673
 30
0.0
 11
-6.5626710209
 21
2.5254640428
 31
0.0
 11
-6.5441124098
 21
2.1694156784
 31
0.0
 11
-6.4564824503
 21
1.8631304413
 31
0.0
 11
-6.3046318947
 21
1.6237850805
 31
0.0
 11
-6.0969160672
 21
1.4643792673
 31
0.0
  0
SPLINE
  5
4D8
100
AcDbEntity
  8
COPY-PUBBLISH
100
AcDbSpline
 62
7
  6
CONTINUOUS
 70
0
 71
3
 72
11
 73
7
 74
5
 42
0.0000001
 43
0.0000001
 44
0.0000000001
 12
-0.0541607993
 22
-1.2192332395
 32
0.0
 13
1.0915698171
 23
-0.5458373558
 33
0.0
 40
0.0
 40
0.0
 40
0.0
 40
0.0
 40
0.2922025757
 40
0.5531558549
 40
0.7854583718
 40
1.0
 40
1.0
 40
1.0
 40
1.0
 10
-6.5626710209
 20
6.3230807011
 30
0.0
 10
-6.5679463293
 20
6.2043263368
 30
0.0
 10
-6.5585506417
 20
5.9777703853
 30
0.0
 10
-6.4744473121
 20
5.6661346812
 30
0.0
 10
-6.3223097098
 20
5.4160603465
 30
0.0
 10
-6.1749613409
 20
5.3009978985
 30
0.0
 10
-6.0968989523
 20
5.2619629535
 30
0.0
 11
-6.5626710209
 21
6.3230807011
 31
0.0
 11
-6.5441140359
 21
5.9669494196
 31
0.0
 11
-6.456487534
 21
5.6607648531
 31
0.0
 11
-6.3046269327
 21
5.4213563573
 31
0.0
 11
-6.0968989523
 21
5.2619629535
 31
0.0
  0
SPLINE
  5
4D9
100
AcDbEntity
  8
RACCORDO
100
AcDbSpline
 62
7
  6
CONTINUOUS
 70
0
 71
3
 72
11
 73
7
 74
5
 42
0.0000001
 43
0.0000001
 44
0.0000000001
 12
-0.6481395844
 22
-0.3517900957
 32
0.0
 13
-0.6595511678
 23
0.3298991503
 33
0.0
 40
0.0
 40
0.0
 40
0.0
 40
0.0
 40
0.2810593192
 40
0.5379535977
 40
0.7746480873
 40
1.0
 40
1.0
 40
1.0
 40
1.0
 10
22.4977271668
 20
-27.1126591565
 30
0.0
 10
22.4370052767
 20
-27.1456171181
 30
0.0
 10
22.315275472
 20
-27.1994499698
 30
0.0
 10
22.1276981022
 20
-27.2402768041
 30
0.0
 10
21.949057453
 20
-27.2349380737
 30
0.0
 10
21.8392282444
 20
-27.199219586
 30
0.0
 10
21.7896845387
 20
-27.1744384512
 30
0.0
 11
22.4977271668
 21
-27.1126591565
 31
0.0
 11
22.3074780937
 21
-27.1949128294
 31
0.0
 11
22.1219601636
 21
-27.2333018621
 31
0.0
 11
21.9475456825
 21
-27.226380824
 31
0.0
 11
21.7896845387
 21
-27.1744384512
 31
0.0
  0
SPLINE
  5
4DA
100
AcDbEntity
  8
DRAFT
100
AcDbSpline
 62
7
  6
CONTINUOUS
 70
0
 71
3
 72
11
 73
7
 74
5
 42
0.0000001
 43
0.0000001
 44
0.0000000001
 12
-0.0149617319
 22
0.2476224596
 32
0.0
 13
0.2218841787
 23
0.1109420893
 33
0.0
 40
0.0
 40
0.0
 40
0.0
 40
0.0
 40
0.2066898943
 40
0.4334598618
 40
0.6960192562
 40
1.0
 40
1.0
 40
1.0
 40
1.0
 10
-17.6370413794
 20
-24.9104022703
 30
0.0
 10
-17.6380721923
 20
-24.893341917
 30
0.0
 10
-17.6324659828
 20
-24.856758719
 30
0.0
 10
-17.6023906685
 20
-24.806467193
 30
0.0
 10
-17.5537898517
 20
-24.761484173
 30
0.0
 10
-17.5133053156
 20
-24.7373310535
 30
0.0
 10
-17.4908224764
 20
-24.7260896339
 30
0.0
 11
-17.6370413794
 21
-24.9104022703
 31
0.0
 11
-17.6297416826
 21
-24.8596501422
 31
0.0
 11
-17.6020399339
 21
-24.8106876876
 31
0.0
 11
-17.555086806
 21
-24.7655449772
 31
0.0
 11
-17.4908224764
 21
-24.7260896339
 31
0.0
  0
SPLINE
  5
4DB
100
AcDbEntity
  8
COPY-PUBBLISH
100
AcDbSpline
 62
253
  6
CONTINUOUS
 70
0
 71
3
 72
11
 73
7
 74
5
 42
0.0000001
 43
0.0000001
 44
0.0000000001
 12
0.0081228823
 22
-0.240662005
 32
0.0
 13
0.2153040572
 23
-0.1078348033
 33
0.0
 40
0.0
 40
0.0
 40
0.0
 40
0.0
 40
0.2115162956
 40
0.441818921
 40
0.703639589
 40
1.0
 40
1.0
 40
1.0
 40
1.0
 10
-29.4500167748
 20
-21.6599420935
 30
0.0
 10
-29.4494440675
 20
-21.6769100721
 30
0.0
 10
-29.4413630206
 20
-21.7123694089
 30
0.0
 10
-29.4106764994
 20
-21.7607743607
 30
0.0
 10
-29.3634638983
 20
-21.8037440852
 30
0.0
 10
-29.324822445
 20
-21.826932686
 30
0.0
 10
-29.3035532453
 20
-21.8375853416
 30
0.0
 11
-29.4500167748
 21
-21.6599420935
 31
0.0
 11
-29.4391426209
 21
-21.7097006646
 31
0.0
 11
-29.410297883
 21
-21.757065435
 31
0.0
 11
-29.3643838205
 21
-21.8002709685
 31
0.0
 11
-29.3035532453
 21
-21.8375853416
 31
0.0
  0
SPLINE
  5
4DC
100
AcDbEntity
  8
COPY-PUBBLISH
100
AcDbSpline
 62
7
  6
CONTINUOUS
 70
0
 71
3
 72
9
 73
5
 74
3
 42
0.0000001
 43
0.0000001
 44
0.0000000001
 12
-0.1196616181
 22
-0.2630402572
 32
0.0
 13
0.0
 23
-0.288979376
 33
0.0
 40
0.0
 40
0.0
 40
0.0
 40
0.0
 40
0.2623822796
 40
1.0
 40
1.0
 40
1.0
 40
1.0
 10
-1.6597680858
 20
-1.9357866055
 30
0.0
 10
-1.6702337818
 20
-1.9587923063
 30
0.0
 10
-1.7058758805
 20
-2.0482317893
 30
0.0
 10
-1.7250805876
 20
-2.1450550922
 30
0.0
 10
-1.7250805876
 20
-2.2161071951
 30
0.0
 11
-1.6597680858
 21
-1.9357866055
 31
0.0
 11
-1.6878058687
 21
-2.0062353122
 31
0.0
 11
-1.7250805876
 21
-2.2161071951
 31
0.0
  0
SPLINE
  5
4DD
100
AcDbEntity
  8
COPY-PUBBLISH
100
AcDbSpline
 62
7
  6
CONTINUOUS
 70
0
 71
3
 72
9
 73
5
 74
3
 42
0.0000001
 43
0.0000001
 44
0.0000000001
 12
-0.2056498292
 22
-0.1844489357
 32
0.0
 13
-0.1206145508
 23
-0.2485264418
 33
0.0
 40
0.0
 40
0.0
 40
0.0
 40
0.0
 40
0.2394303753
 40
1.0
 40
1.0
 40
1.0
 40
1.0
 10
-1.4962964222
 20
-1.7143039368
 30
0.0
 10
-1.5127093608
 20
-1.7290248295
 30
0.0
 10
-1.577740719
 20
-1.7943782691
 30
0.0
 10
-1.6291894979
 20
-1.8727793846
 30
0.0
 10
-1.6597680858
 20
-1.9357866055
 30
0.0
 11
-1.4962964222
 21
-1.7143039368
 31
0.0
 11
-1.5430716785
 21
-1.7610680095
 31
0.0
 11
-1.6597680858
 21
-1.9357866055
 31
0.0
  0
SPLINE
  5
4DE
100
AcDbEntity
  8
COPY-PUBBLISH
100
AcDbSpline
 62
7
  6
CONTINUOUS
 70
0
 71
3
 72
9
 73
5
 74
3
 42
0.0000001
 43
0.0000001
 44
0.0000000001
 12
-0.2451338869
 22
-0.1225669435
 32
0.0
 13
-0.2040265575
 23
-0.1829930107
 33
0.0
 40
0.0
 40
0.0
 40
0.0
 40
0.0
 40
0.2375227333
 40
1.0
 40
1.0
 40
1.0
 40
1.0
 10
-1.2713860276
 20
-1.5585049414
 30
0.0
 10
-1.2907943179
 20
-1.5682090865
 30
0.0
 10
-1.3708930531
 20
-1.6122670057
 30
0.0
 10
-1.4444412182
 20
-1.6677946
 30
0.0
 10
-1.4962964222
 20
-1.7143039368
 30
0.0
 11
-1.2713860276
 21
-1.5585049414
 31
0.0
 11
-1.3284752951
 21
-1.5897856865
 31
0.0
 11
-1.4962964222
 21
-1.7143039368
 31
0.0
  0
SPLINE
  5
4DF
100
AcDbEntity
  8
COPY-PUBBLISH
100
AcDbSpline
 62
7
  6
CONTINUOUS
 70
0
 71
3
 72
9
 73
5
 74
3
 42
0.0000001
 43
0.0000001
 44
0.0000000001
 12
-0.1259830576
 22
-0.0129878707
 32
0.0
 13
-0.1203312659
 23
-0.0395069871
 33
0.0
 40
0.0
 40
0.0
 40
0.0
 40
0.0
 40
0.2421476075
 40
1.0
 40
1.0
 40
1.0
 40
1.0
 10
-1.029463268
 20
-1.4810554016
 30
0.0
 10
-1.0396321
 20
-1.4821037289
 30
0.0
 10
-1.0814956098
 20
-1.4876695982
 30
0.0
 10
-1.1226747508
 20
-1.4980178299
 30
0.0
 10
-1.1530725301
 20
-1.5079979848
 30
0.0
 11
-1.029463268
 21
-1.4810554016
 31
0.0
 11
-1.0598662692
 21
-1.4850796688
 31
0.0
 11
-1.1530725301
 21
-1.5079979848
 31
0.0
  0
SPLINE
  5
4E0
100
AcDbEntity
  8
COPY-PUBBLISH
100
AcDbSpline
 62
7
  6
CONTINUOUS
 70
0
 71
3
 72
9
 73
5
 74
3
 42
0.0000001
 43
0.0000001
 44
0.0000000001
 12
-0.1041972471
 22
-0.0342098894
 32
0.0
 13
-0.098091316
 23
-0.049045658
 33
0.0
 40
0.0
 40
0.0
 40
0.0
 40
0.0
 40
0.2435176537
 40
1.0
 40
1.0
 40
1.0
 40
1.0
 10
-1.1530725301
 20
-1.5079979848
 30
0.0
 10
-1.1615304865
 20
-1.5107748888
 30
0.0
 10
-1.1960354042
 20
-1.5228656224
 30
0.0
 10
-1.2295944148
 20
-1.537609135
 30
0.0
 10
-1.2543291978
 20
-1.5499765265
 30
0.0
 11
-1.1530725301
 21
-1.5079979848
 31
0.0
 11
-1.1782795066
 21
-1.516820815
 31
0.0
 11
-1.2543291978
 21
-1.5499765265
 31
0.0
  0
SPLINE
  5
4E1
100
AcDbEntity
  8
RACCORDO
100
AcDbSpline
 62
253
  6
CONTINUOUS
 70
0
 71
3
 72
9
 73
5
 74
3
 42
0.0000001
 43
0.0000001
 44
0.0000000001
 12
-0.4184872152
 22
-0.2479027916
 32
0.0
 13
-0.3574722894
 23
-0.3298498228
 33
0.0
 40
0.0
 40
0.0
 40
0.0
 40
0.0
 40
0.262828633
 40
1.0
 40
1.0
 40
1.0
 40
1.0
 10
-8.9387455535
 20
28.6358632149
 30
0.0
 10
-8.9754090277
 20
28.6141445643
 30
0.0
 10
-9.1129763959
 20
28.5283709525
 30
0.0
 10
-9.2427647405
 20
28.4295727138
 30
0.0
 10
-9.330604186
 20
28.3485207655
 30
0.0
 11
-8.9387455535
 21
28.6358632149
 31
0.0
 11
-9.047184948
 21
28.5681573152
 31
0.0
 11
-9.330604186
 21
28.3485207655
 31
0.0
  0
SPLINE
  5
4E2
100
AcDbEntity
  8
RACCORDO
100
AcDbSpline
 62
253
  6
CONTINUOUS
 70
0
 71
3
 72
9
 73
5
 74
3
 42
0.0000001
 43
0.0000001
 44
0.0000000001
 12
-0.2702523739
 22
-0.2493695323
 32
0.0
 13
-0.2033394707
 23
-0.3063895704
 33
0.0
 40
0.0
 40
0.0
 40
0.0
 40
0.0
 40
0.2625826352
 40
1.0
 40
1.0
 40
1.0
 40
1.0
 10
-9.330604186
 20
28.3485207655
 30
0.0
 10
-9.3542587128
 20
28.3266940625
 30
0.0
 10
-9.4421516216
 20
28.2412747829
 30
0.0
 10
-9.5209491041
 20
28.1461393538
 30
0.0
 10
-9.570931123
 20
28.070827024
 30
0.0
 11
-9.330604186
 21
28.3485207655
 31
0.0
 11
-9.3997898897
 21
28.2811648984
 31
0.0
 11
-9.570931123
 21
28.070827024
 31
0.0
  0
SPLINE
  5
4E3
100
AcDbEntity
  8
RACCORDO
100
AcDbSpline
 62
7
  6
CONTINUOUS
 70
0
 71
3
 72
11
 73
7
 74
5
 42
0.0000001
 43
0.0000001
 44
0.0000000001
 12
0.0
 22
-0.9446389448
 32
0.0
 13
0.8449320865
 23
-0.4224127191
 33
0.0
 40
0.0
 40
0.0
 40
0.0
 40
0.0
 40
0.2897566576
 40
0.54958374
 40
0.7828475486
 40
1.0
 40
1.0
 40
1.0
 40
1.0
 10
0.045425697
 20
-43.2407590275
 30
0.0
 10
0.045425697
 20
-43.331997502
 30
0.0
 10
0.0601458962
 20
-43.5057097964
 30
0.0
 10
0.134409878
 20
-43.7432838329
 30
0.0
 10
0.2584162588
 20
-43.9334887798
 30
0.0
 10
0.3741607203
 20
-44.0215165614
 30
0.0
 10
0.4353204116
 20
-44.0520925472
 30
0.0
 11
0.045425697
 21
-43.2407590275
 31
0.0
 11
0.0713479428
 21
-43.5132442017
 31
0.0
 11
0.1478462036
 21
-43.7464612139
 31
0.0
 11
0.2711804898
 21
-43.9290613528
 31
0.0
 11
0.4353204116
 21
-44.0520925472
 31
0.0
  0
SPLINE
  5
4E4
100
AcDbEntity
  8
RACCORDO
100
AcDbSpline
 62
253
  6
CONTINUOUS
 70
0
 71
3
 72
11
 73
7
 74
5
 42
0.0000001
 43
0.0000001
 44
0.0000000001
 12
0.3201761442
 22
0.1716734305
 32
0.0
 13
0.0000904071
 23
0.3632967408
 33
0.0
 40
0.0
 40
0.0
 40
0.0
 40
0.0
 40
0.2995037883
 40
0.5621152573
 40
0.7911236646
 40
1.0
 40
1.0
 40
1.0
 40
1.0
 10
4.390398444
 20
-18.3388958595
 30
0.0
 10
4.4223631
 20
-18.3217569119
 30
0.0
 10
4.4801463485
 20
-18.2850616315
 30
0.0
 10
4.5501605246
 20
-18.2184819798
 30
0.0
 10
4.5947058749
 20
-18.1447955126
 30
0.0
 10
4.6053082666
 20
-18.0913911367
 30
0.0
 10
4.6053145612
 20
-18.0660964394
 30
0.0
 11
4.390398444
 21
-18.3388958595
 31
0.0
 11
4.4816573067
 21
-18.2796407769
 31
0.0
 11
4.5496401988
 21
-18.212703411
 31
0.0
 11
4.5912698007
 21
-18.1406694939
 31
0.0
 11
4.6053145612
 21
-18.0660964394
 31
0.0
  0
SPLINE
  5
4E5
100
AcDbEntity
  8
RACCORDO
100
AcDbSpline
 62
253
  6
CONTINUOUS
 70
0
 71
3
 72
11
 73
7
 74
5
 42
0.0000001
 43
0.0000001
 44
0.0000000001
 12
-0.0
 22
-0.5018442137
 32
0.0
 13
-0.4423847207
 23
-0.2369459299
 33
0.0
 40
0.0
 40
0.0
 40
0.0
 40
0.0
 40
0.2853714728
 40
0.5445989565
 40
0.7794840365
 40
1.0
 40
1.0
 40
1.0
 40
1.0
 10
5.959950801
 20
-15.5054680125
 30
0.0
 10
5.959950801
 20
-15.5532053533
 30
0.0
 10
5.951900869
 20
-15.6446237735
 30
0.0
 10
5.9125988421
 20
-15.7702816961
 30
0.0
 10
5.8465381567
 20
-15.8719735266
 30
0.0
 10
5.7854135378
 20
-15.9202856282
 30
0.0
 10
5.7528959069
 20
-15.9377024149
 30
0.0
 11
5.959950801
 21
-15.5054680125
 31
0.0
 11
5.9461851029
 21
-15.6480169126
 31
0.0
 11
5.9056567964
 21
-15.771634614
 31
0.0
 11
5.8401481848
 21
-15.8696310771
 31
0.0
 11
5.7528959069
 21
-15.9377024149
 31
0.0
  0
LINE
  5
4E6
100
AcDbEntity
  8
COPY-PUBBLISH
100
AcDbLine
 62
253
  6
CONTINUOUS
 10
-29.3035532553
 20
-21.8375853471
 11
-29.3096182535
 21
-21.6561018737
  0
SPLINE
  5
4E7
100
AcDbEntity
  8
COPY-PUBBLISH
100
AcDbSpline
 62
253
  6
CONTINUOUS
 70
0
 71
3
 72
11
 73
7
 74
5
 42
0.0000001
 43
0.0000001
 44
0.0000000001
 12
0.0580981886
 22
1.7736407802
 32
0.0
 13
1.3250766075
 23
1.1804020505
 33
0.0
 40
0.0
 40
0.0
 40
0.0
 40
0.0
 40
0.2410146414
 40
0.4979262758
 40
0.7559601617
 40
1.0
 40
1.0
 40
1.0
 40
1.0
 10
-29.3035532553
 20
13.7791082825
 30
0.0
 10
-29.2988857506
 20
13.9215994147
 30
0.0
 10
-29.2526727491
 20
14.2152564918
 30
0.0
 10
-29.0981657785
 20
14.6374414933
 30
0.0
 10
-28.8690965507
 20
15.026331001
 30
0.0
 10
-28.6707155501
 20
15.2508569451
 30
0.0
 10
-28.5629250565
 20
15.3468786536
 30
0.0
 11
-29.3035532553
 21
13.7791082825
 31
0.0
 11
-29.2411319298
 21
14.2022313772
 31
0.0
 11
-29.0859076494
 21
14.6309065512
 31
0.0
 11
-28.8524984381
 21
15.0248570893
 31
0.0
 11
-28.5629250565
 21
15.3468786536
 31
0.0
  0
SPLINE
  5
4E8
100
AcDbEntity
  8
COPY-PUBBLISH
100
AcDbSpline
 62
253
  6
CONTINUOUS
 70
0
 71
3
 72
9
 73
5
 74
3
 42
0.0000001
 43
0.0000001
 44
0.0000000001
 12
0.233184468
 22
0.2077249138
 32
0.0
 13
0.2705223124
 23
0.1560202373
 33
0.0
 40
0.0
 40
0.0
 40
0.0
 40
0.0
 40
0.2600968354
 40
1.0
 40
1.0
 40
1.0
 40
1.0
 10
-28.5629250565
 20
15.3468786536
 30
0.0
 10
-28.5427082091
 20
15.3648881845
 30
0.0
 10
-28.4634089655
 20
15.4323188022
 30
0.0
 10
-28.3777074227
 20
15.4924302649
 30
0.0
 10
-28.3109873177
 20
15.5309102207
 30
0.0
 11
-28.5629250565
 21
15.3468786536
 31
0.0
 11
-28.5010241266
 21
15.3994700216
 31
0.0
 11
-28.3109873177
 21
15.5309102207
 31
0.0
  0
SPLINE
  5
4E9
100
AcDbEntity
  8
ASSI
100
AcDbSpline
 62
7
  6
CONTINUOUS
 70
0
 71
3
 72
9
 73
5
 74
3
 42
0.0000001
 43
0.0000001
 44
0.0000000001
 12
-0.4533150577
 22
-0.8883135127
 32
0.0
 13
0.0
 23
-0.9972940581
 33
0.0
 40
0.0
 40
0.0
 40
0.0
 40
0.0
 40
0.5181396274
 40
1.0
 40
1.0
 40
1.0
 40
1.0
 10
0.2935730382
 20
-39.5944603688
 30
0.0
 10
0.2152795398
 20
-39.7478838463
 30
0.0
 10
0.0945452347
 20
-40.0604691402
 30
0.0
 10
0.045425697
 20
-40.3933541427
 30
0.0
 10
0.045425697
 20
-40.5535396382
 30
0.0
 11
0.2935730382
 21
-39.5944603688
 31
0.0
 11
0.1093914057
 21
-40.0772593376
 31
0.0
 11
0.045425697
 21
-40.5535396382
 31
0.0
  0
SPLINE
  5
4EA
100
AcDbEntity
  8
RACCORDO
100
AcDbSpline
 62
7
  6
CONTINUOUS
 70
0
 71
3
 72
11
 73
7
 74
5
 42
0.0000001
 43
0.0000001
 44
0.0000000001
 12
0.0
 22
-0.9446389448
 32
0.0
 13
0.8449320865
 23
-0.4224127191
 33
0.0
 40
0.0
 40
0.0
 40
0.0
 40
0.0
 40
0.2897566576
 40
0.54958374
 40
0.7828475486
 40
1.0
 40
1.0
 40
1.0
 40
1.0
 10
-7.7327488961
 20
-36.3045287768
 30
0.0
 10
-7.7327488961
 20
-36.3957672512
 30
0.0
 10
-7.7180286969
 20
-36.5694795456
 30
0.0
 10
-7.6437647151
 20
-36.8070535821
 30
0.0
 10
-7.5197583343
 20
-36.997258529
 30
0.0
 10
-7.4040138727
 20
-37.0852863106
 30
0.0
 10
-7.3428541814
 20
-37.1158622964
 30
0.0
 11
-7.7327488961
 21
-36.3045287768
 31
0.0
 11
-7.7068266503
 21
-36.5770139509
 31
0.0
 11
-7.6303283895
 21
-36.8102309631
 31
0.0
 11
-7.5069941033
 21
-36.9928311021
 31
0.0
 11
-7.3428541814
 21
-37.1158622964
 31
0.0
  0
SPLINE
  5
4EB
100
AcDbEntity
  8
RACCORDO
100
AcDbSpline
 62
7
  6
CONTINUOUS
 70
0
 71
3
 72
11
 73
7
 74
5
 42
0.0000001
 43
0.0000001
 44
0.0000000001
 12
-1.8993756445
 22
-1.0309222825
 32
0.0
 13
-0.0
 23
-2.1611174405
 33
0.0
 40
0.0
 40
0.0
 40
0.0
 40
0.0
 40
0.2317544638
 40
0.4904450115
 40
0.7543434117
 40
1.0
 40
1.0
 40
1.0
 40
1.0
 10
-6.7091052304
 20
14.9581310165
 30
0.0
 10
-6.8558348251
 20
14.8784907362
 30
0.0
 10
-7.1343545358
 20
14.650402528
 30
0.0
 10
-7.4555624831
 20
14.2065164651
 30
0.0
 10
-7.6730165498
 20
13.6927273353
 30
0.0
 10
-7.7327488961
 20
13.3250266627
 30
0.0
 10
-7.7327488961
 20
13.1480624169
 30
0.0
 11
-6.7091052304
 21
14.9581310165
 31
0.0
 11
-7.103498082
 21
14.6494181847
 31
0.0
 11
-7.4350638005
 21
14.1992926584
 31
0.0
 11
-7.6555157107
 21
13.6733072491
 31
0.0
 11
-7.7327488961
 21
13.1480624169
 31
0.0
  0
SPLINE
  5
4EC
100
AcDbEntity
  8
COPY-PUBBLISH
100
AcDbSpline
 62
253
  6
CONTINUOUS
 70
0
 71
3
 72
11
 73
7
 74
5
 42
0.0000001
 43
0.0000001
 44
0.0000000001
 12
-1.829112437
 22
-1.0095631794
 32
0.0
 13
-0.070047936
 23
-2.0880525393
 33
0.0
 40
0.0
 40
0.0
 40
0.0
 40
0.0
 40
0.232616562
 40
0.4902584814
 40
0.7531800774
 40
1.0
 40
1.0
 40
1.0
 40
1.0
 10
-10.3571509832
 20
6.5539920534
 30
0.0
 10
-10.4989782654
 20
6.4757116814
 30
0.0
 10
-10.7684855687
 20
6.2566067928
 30
0.0
 10
-11.0832249074
 20
5.831795614
 30
0.0
 10
-11.3012270901
 20
5.3393278031
 30
0.0
 10
-11.3673262268
 20
4.9856672946
 30
0.0
 10
-11.3730893022
 20
4.813876306
 30
0.0
 11
-10.3571509832
 21
6.5539920534
 31
0.0
 11
-10.7401766771
 21
6.2548658772
 31
0.0
 11
-11.0639577741
 21
5.8248622955
 31
0.0
 11
-11.28486084
 21
5.3219353084
 31
0.0
 11
-11.3730893022
 21
4.813876306
 31
0.0
  0
SPLINE
  5
4ED
100
AcDbEntity
  8
COPY-PUBBLISH
100
AcDbSpline
 62
253
  6
CONTINUOUS
 70
0
 71
3
 72
11
 73
7
 74
5
 42
0.0000001
 43
0.0000001
 44
0.0000000001
 12
-1.2232113118
 22
-0.6677895474
 32
0.0
 13
-0.0471369612
 23
-1.3928269454
 33
0.0
 40
0.0
 40
0.0
 40
0.0
 40
0.0
 40
0.2329780184
 40
0.4906509085
 40
0.7533971391
 40
1.0
 40
1.0
 40
1.0
 40
1.0
 10
-9.9913182432
 20
5.9509896077
 30
0.0
 10
-10.0863120257
 20
5.8991295125
 30
0.0
 10
-10.2669336897
 20
5.7537120213
 30
0.0
 10
-10.478073179
 20
5.4710617259
 30
0.0
 10
-10.6243207607
 20
5.1430723122
 30
0.0
 10
-10.6686311496
 20
4.9073518443
 30
0.0
 10
-10.6725058528
 20
4.7928601412
 30
0.0
 11
-9.9913182432
 21
5.9509896077
 31
0.0
 11
-10.2481213997
 21
5.7523146661
 31
0.0
 11
-10.4652226438
 21
5.466273947
 31
0.0
 11
-10.6133469939
 21
5.131401867
 31
0.0
 11
-10.6725058528
 21
4.7928601412
 31
0.0
  0
SPLINE
  5
4EE
100
AcDbEntity
  8
COPY-PUBBLISH
100
AcDbSpline
 62
253
  6
CONTINUOUS
 70
0
 71
3
 72
11
 73
7
 74
5
 42
0.0000001
 43
0.0000001
 44
0.0000000001
 12
-0.0324676991
 22
0.7302925833
 32
0.0
 13
-0.6488724028
 23
0.3366689971
 33
0.0
 40
0.0
 40
0.0
 40
0.0
 40
0.0
 40
0.2445553301
 40
0.5100589008
 40
0.7700879385
 40
1.0
 40
1.0
 40
1.0
 40
1.0
 10
-9.9913182432
 20
5.9509896077
 30
0.0
 10
-9.9939649595
 20
6.0105219223
 30
0.0
 10
-10.0197562087
 20
6.1339242766
 30
0.0
 10
-10.0996000399
 20
6.3052608565
 30
0.0
 10
-10.2121170823
 20
6.4526652013
 30
0.0
 10
-10.3074231187
 20
6.5281906327
 30
0.0
 10
-10.3571509826
 20
6.5539920537
 30
0.0
 11
-9.9913182432
 21
5.9509896077
 31
0.0
 11
-10.0249251338
 21
6.1265757438
 31
0.0
 11
-10.1062385865
 21
6.3028080187
 31
0.0
 11
-10.2228936449
 21
6.4528874975
 31
0.0
 11
-10.3571509826
 21
6.5539920537
 31
0.0
  0
SPLINE
  5
4EF
100
AcDbEntity
  8
COPY-PUBBLISH
100
AcDbSpline
 62
253
  6
CONTINUOUS
 70
0
 71
3
 72
11
 73
7
 74
5
 42
0.0000001
 43
0.0000001
 44
0.0000000001
 12
-0.6587667717
 22
-0.2854316961
 32
0.0
 13
-0.6419161313
 23
0.3215409664
 33
0.0
 40
0.0
 40
0.0
 40
0.0
 40
0.0
 40
0.234316091
 40
0.4988564068
 40
0.7640094339
 40
1.0
 40
1.0
 40
1.0
 40
1.0
 10
-10.6725058528
 20
4.7928601412
 30
0.0
 10
-10.7239590711
 20
4.7705663947
 30
0.0
 10
-10.8409133797
 20
4.7403104497
 30
0.0
 10
-11.0243027716
 20
4.7297134678
 30
0.0
 10
-11.2071259172
 20
4.7513724407
 30
0.0
 10
-11.3225939122
 20
4.7885827639
 30
0.0
 10
-11.373089296
 20
4.8138763088
 30
0.0
 11
-10.6725058528
 21
4.7928601412
 31
0.0
 11
-10.8344427743
 21
4.7472922067
 31
0.0
 11
-11.0239886417
 21
4.7352916713
 31
0.0
 11
-11.2129159461
 21
4.7586456768
 31
0.0
 11
-11.373089296
 21
4.8138763088
 31
0.0
  0
SPLINE
  5
4F0
100
AcDbEntity
  8
ASSI
100
AcDbSpline
 62
7
  6
CONTINUOUS
 70
0
 71
3
 72
9
 73
5
 74
3
 42
0.0000001
 43
0.0000001
 44
0.0000000001
 12
-1.0638119907
 22
-0.5432762164
 32
0.0
 13
-0.5429568447
 23
-1.0639750296
 33
0.0
 40
0.0
 40
0.0
 40
0.0
 40
0.0
 40
0.4705243523
 40
1.0
 40
1.0
 40
1.0
 40
1.0
 10
2.5908543788
 20
-35.8011674568
 30
0.0
 10
2.4240045628
 20
-35.8863756868
 30
0.0
 10
2.1095811182
 20
-36.1457485269
 30
0.0
 10
1.8834249125
 20
-36.4789960153
 30
0.0
 10
1.7875974368
 20
-36.6667789713
 30
0.0
 11
2.5908543788
 21
-35.8011674568
 31
0.0
 11
2.1476585511
 21
-36.1468135042
 31
0.0
 11
1.7875974368
 21
-36.6667789713
 31
0.0
  0
SPLINE
  5
4F1
100
AcDbEntity
  8
COPY-PUBBLISH
100
AcDbSpline
 62
253
  6
CONTINUOUS
 70
0
 71
3
 72
11
 73
7
 74
5
 42
0.0000001
 43
0.0000001
 44
0.0000000001
 12
0.0309216521
 22
-0.8942328142
 32
0.0
 13
0.7992680248
 23
-0.4022177259
 33
0.0
 40
0.0
 40
0.0
 40
0.0
 40
0.0
 40
0.2865539719
 40
0.5452168231
 40
0.7796755067
 40
1.0
 40
1.0
 40
1.0
 40
1.0
 10
-11.3730893022
 20
-30.8028173236
 30
0.0
 10
-11.3701357282
 20
-30.8882326452
 30
0.0
 10
-11.3506648672
 20
-31.0508754086
 30
0.0
 10
-11.2733915095
 20
-31.2725485471
 30
0.0
 10
-11.1508477232
 20
-31.4501827433
 30
0.0
 10
-11.0397043634
 20
-31.5331608517
 30
0.0
 10
-10.9810049225
 20
-31.5627003239
 30
0.0
 11
-11.3730893022
 21
-30.8028173236
 31
0.0
 11
-11.3401207427
 21
-31.0570880079
 31
0.0
 11
-11.2611350436
 21
-31.274636041
 31
0.0
 11
-11.139641686
 21
-31.4456609277
 31
0.0
 11
-10.9810049225
 21
-31.5627003239
 31
0.0
  0
SPLINE
  5
4F2
100
AcDbEntity
  8
RACCORDO
100
AcDbSpline
 62
253
  6
CONTINUOUS
 70
0
 71
3
 72
11
 73
7
 74
5
 42
0.0000001
 43
0.0000001
 44
0.0000000001
 12
-0.0266345275
 22
-0.3470059681
 32
0.0
 13
-0.3067184735
 23
-0.1644576479
 33
0.0
 40
0.0
 40
0.0
 40
0.0
 40
0.0
 40
0.2091125402
 40
0.4394301949
 40
0.7020555802
 40
1.0
 40
1.0
 40
1.0
 40
1.0
 10
8.5626924763
 20
38.9284053376
 30
0.0
 10
8.5608359384
 20
38.9042175711
 30
0.0
 10
8.5473356059
 20
38.8538355331
 30
0.0
 10
8.5020826231
 20
38.7849053618
 30
0.0
 10
8.4341855482
 20
38.7222007028
 30
0.0
 10
8.3788617259
 20
38.6873987737
 30
0.0
 10
8.34840004
 20
38.6710656942
 30
0.0
 11
8.5626924763
 21
38.9284053376
 31
0.0
 11
8.5446300326
 21
38.8579056841
 31
0.0
 11
8.5018631551
 21
38.7901112349
 31
0.0
 11
8.4356374796
 21
38.7271173067
 31
0.0
 11
8.34840004
 21
38.6710656942
 31
0.0
  0
SPLINE
  5
4F3
100
AcDbEntity
  8
RACCORDO
100
AcDbSpline
 62
253
  6
CONTINUOUS
 70
0
 71
3
 72
11
 73
7
 74
5
 42
0.0000001
 43
0.0000001
 44
0.0000000001
 12
0.0001829383
 22
2.9248591648
 32
0.0
 13
2.2391131465
 23
1.8818005964
 33
0.0
 40
0.0
 40
0.0
 40
0.0
 40
0.0
 40
0.2409552581
 40
0.4999696651
 40
0.7590056717
 40
1.0
 40
1.0
 40
1.0
 40
1.0
 10
4.390398444
 20
-18.3388958595
 30
0.0
 10
4.3904131373
 20
-18.1039757945
 30
0.0
 10
4.4568993534
 20
-17.6158069349
 30
0.0
 10
4.7056748901
 20
-16.9142687326
 30
0.0
 10
5.0830959569
 20
-16.2726794394
 30
0.0
 10
5.414142513
 20
-15.9077420519
 30
0.0
 10
5.5940137025
 20
-15.756574295
 30
0.0
 11
4.390398444
 21
-18.3388958595
 31
0.0
 11
4.4771173741
 21
-17.6394912832
 31
0.0
 11
4.7276140396
 21
-16.9245228346
 31
0.0
 11
5.1141844124
 21
-16.2729190173
 31
0.0
 11
5.5940137025
 21
-15.756574295
 31
0.0
  0
SPLINE
  5
4F4
100
AcDbEntity
  8
RACCORDO
100
AcDbSpline
 62
253
  6
CONTINUOUS
 70
0
 71
3
 72
9
 73
5
 74
3
 42
0.0000001
 43
0.0000001
 44
0.0000000001
 12
0.3400823503
 22
0.2858127874
 32
0.0
 13
0.3915175696
 23
0.2099022323
 33
0.0
 40
0.0
 40
0.0
 40
0.0
 40
0.0
 40
0.260824467
 40
1.0
 40
1.0
 40
1.0
 40
1.0
 10
5.5940137025
 20
-15.756574295
 30
0.0
 10
5.6235809684
 20
-15.7317253057
 30
0.0
 10
5.7390999657
 20
-15.6390954408
 30
0.0
 10
5.8634840649
 20
-15.5571862107
 30
0.0
 10
5.959950801
 20
-15.5054680125
 30
0.0
 11
5.5940137025
 21
-15.756574295
 31
0.0
 11
5.6844444178
 21
-15.6841343538
 31
0.0
 11
5.959950801
 21
-15.5054680125
 31
0.0
  0
SPLINE
  5
4F5
100
AcDbEntity
  8
COPY-PUBBLISH
100
AcDbSpline
 62
7
  6
CONTINUOUS
 70
0
 71
3
 72
9
 73
5
 74
3
 42
0.0000001
 43
0.0000001
 44
0.0000000001
 12
-0.1014993043
 22
0.0508989777
 32
0.0
 13
-0.112947912
 23
-0.0116440488
 33
0.0
 40
0.0
 40
0.0
 40
0.0
 40
0.0
 40
0.4867440528
 40
1.0
 40
1.0
 40
1.0
 40
1.0
 10
-0.9186115835
 20
-1.4994377904
 30
0.0
 10
-0.9350796444
 20
-1.4911795321
 30
0.0
 10
-0.9717824375
 20
-1.4794358477
 30
0.0
 10
-1.0101395388
 20
-1.4790632758
 30
0.0
 10
-1.029463268
 20
-1.4810554016
 30
0.0
 11
-0.9186115835
 21
-1.4994377904
 31
0.0
 11
-0.9712013152
 21
-1.4824412365
 31
0.0
 11
-1.029463268
 21
-1.4810554016
 31
0.0
  0
SPLINE
  5
4F6
100
AcDbEntity
  8
COPY-PUBBLISH
100
AcDbSpline
 62
253
  6
CONTINUOUS
 70
0
 71
3
 72
14
 73
10
 74
8
 42
0.0000001
 43
0.0000001
 44
0.0000000001
 12
0.0356995875
 22
-1.0268045202
 32
0.0
 13
0.9474535267
 23
0.397408855
 33
0.0
 40
0.0
 40
0.0
 40
0.0
 40
0.0
 40
0.1467209292
 40
0.2811243656
 40
0.4041535262
 40
0.519077405
 40
0.6309056162
 40
0.7454830671
 40
1.0
 40
1.0
 40
1.0
 40
1.0
 10
-10.6725058528
 20
-30.7882167948
 30
0.0
 10
-10.6707598939
 20
-30.8384346992
 30
0.0
 10
-10.6601118305
 20
-30.9346657359
 30
0.0
 10
-10.6194900232
 20
-31.0679532446
 30
0.0
 10
-10.5554871087
 20
-31.1797274239
 30
0.0
 10
-10.4695922094
 20
-31.2655329662
 30
0.0
 10
-10.3646054578
 20
-31.3209558013
 30
0.0
 10
-10.2007677702
 20
-31.3521011772
 30
0.0
 10
-10.0716992317
 20
-31.3222467941
 30
0.0
 10
-9.9913182432
 20
-31.2885310332
 30
0.0
 11
-10.6725058528
 21
-30.7882167948
 31
0.0
 11
-10.6548490909
 21
-30.9379238936
 31
0.0
 11
-10.6133383144
 21
-31.0696263961
 31
0.0
 11
-10.5494070585
 21
-31.1786702873
 31
0.0
 11
-10.4652199022
 21
-31.2614614927
 31
0.0
 11
-10.3636232367
 21
-31.3151178036
 31
0.0
 11
-10.2481207887
 21
-31.3378580578
 31
0.0
 11
-9.9913182432
 21
-31.2885310332
 31
0.0
  0
SPLINE
  5
4F7
100
AcDbEntity
  8
COPY-PUBBLISH
100
AcDbSpline
 62
253
  6
CONTINUOUS
 70
0
 71
3
 72
11
 73
7
 74
5
 42
0.0000001
 43
0.0000001
 44
0.0000000001
 12
-0.6367960737
 22
-0.3389844061
 32
0.0
 13
-0.6454593174
 23
0.3221830795
 33
0.0
 40
0.0
 40
0.0
 40
0.0
 40
0.0
 40
0.2389292517
 40
0.5036698426
 40
0.7664309396
 40
1.0
 40
1.0
 40
1.0
 40
1.0
 10
-10.6725058538
 20
-30.7882167943
 30
0.0
 10
-10.723222257
 20
-30.8152145578
 30
0.0
 10
-10.8392817724
 20
-30.8550262352
 30
0.0
 10
-11.0233702347
 20
-30.8769082335
 30
0.0
 10
-11.2069225911
 20
-30.8629524131
 30
0.0
 10
-11.3227982697
 20
-30.8278804492
 30
0.0
 10
-11.3730513784
 20
-30.8027964495
 30
0.0
 11
-10.6725058538
 21
-30.7882167943
 31
0.0
 11
-10.8344405127
 21
-30.8472630581
 31
0.0
 11
-11.0239768586
 21
-30.8707349328
 31
0.0
 11
-11.2128902862
 21
-30.8551382337
 31
0.0
 11
-11.3730513784
 21
-30.8027964495
 31
0.0
  0
SPLINE
  5
4F8
100
AcDbEntity
  8
COPY-PUBBLISH
100
AcDbSpline
 62
7
  6
CONTINUOUS
 70
0
 71
3
 72
11
 73
7
 74
5
 42
0.0000001
 43
0.0000001
 44
0.0000000001
 12
0.3888885892
 22
-0.1966416441
 32
0.0
 13
0.0
 23
-0.4357777771
 33
0.0
 40
0.0
 40
0.0
 40
0.0
 40
0.0
 40
0.2173223604
 40
0.450565912
 40
0.7106325123
 40
1.0
 40
1.0
 40
1.0
 40
1.0
 10
-0.8411083481
 20
-1.2845169461
 30
0.0
 10
-0.8129369527
 20
-1.2987618216
 30
0.0
 10
-0.7596230728
 20
-1.3394775129
 30
0.0
 10
-0.7025449727
 20
-1.4273867508
 30
0.0
 10
-0.6685266014
 20
-1.5370177452
 30
0.0
 10
-0.6616810842
 20
-1.6171173716
 30
0.0
 10
-0.6616810842
 20
-1.6591506785
 30
0.0
 11
-0.8411083481
 21
-1.2845169461
 31
0.0
 11
-0.7654908549
 21
-1.3415335285
 31
0.0
 11
-0.7087639116
 21
-1.4258734511
 31
0.0
 11
-0.6736167985
 21
-1.5336169034
 31
0.0
 11
-0.6616810842
 21
-1.6591506785
 31
0.0
  0
SPLINE
  5
4F9
100
AcDbEntity
  8
COPY-PUBBLISH
100
AcDbSpline
 62
253
  6
CONTINUOUS
 70
0
 71
3
 72
11
 73
7
 74
5
 42
0.0000001
 43
0.0000001
 44
0.0000000001
 12
-0.0143532468
 22
-0.3367048991
 32
0.0
 13
-0.3107674992
 23
-0.1303831515
 33
0.0
 40
0.0
 40
0.0
 40
0.0
 40
0.0
 40
0.2889161679
 40
0.5494752444
 40
0.7829234656
 40
1.0
 40
1.0
 40
1.0
 40
1.0
 10
-9.9913182432
 20
-31.2885310332
 30
0.0
 10
-9.9927005382
 20
-31.3209575295
 30
0.0
 10
-10.0008321502
 20
-31.3826202876
 30
0.0
 10
-10.0313878274
 20
-31.4660477679
 30
0.0
 10
-10.0794333048
 20
-31.5314575881
 30
0.0
 10
-10.1226444724
 20
-31.5602786223
 30
0.0
 10
-10.1451312496
 20
-31.5697129965
 30
0.0
 11
-9.9913182432
 21
-31.2885310332
 31
0.0
 11
-10.004932478
 21
-31.3849423825
 31
0.0
 11
-10.0363679761
 21
-31.4669339384
 31
0.0
 11
-10.0839684303
 21
-31.5295748272
 31
0.0
 11
-10.1451312496
 21
-31.5697129965
 31
0.0
  0
SPLINE
  5
4FA
100
AcDbEntity
  8
COPY-PUBBLISH
100
AcDbSpline
 62
7
  6
CONTINUOUS
 70
0
 71
3
 72
11
 73
7
 74
5
 42
0.0000001
 43
0.0000001
 44
0.0000000001
 12
-0.3939644721
 22
-0.196982236
 32
0.0
 13
-0.0
 23
-0.4404656701
 33
0.0
 40
0.0
 40
0.0
 40
0.0
 40
0.0
 40
0.2296755894
 40
0.4882147766
 40
0.7532068921
 40
1.0
 40
1.0
 40
1.0
 40
1.0
 10
25.7134018541
 20
-10.0106023711
 30
0.0
 10
25.6832405133
 20
-10.0256830415
 30
0.0
 10
25.6256068245
 20
-10.0707718847
 30
0.0
 10
25.5590557302
 20
-10.1602888419
 30
0.0
 10
25.5137741512
 20
-10.2649709253
 30
0.0
 10
25.5012698197
 20
-10.3402413788
 30
0.0
 10
25.5012698197
 20
-10.3764760094
 30
0.0
 11
25.7134018541
 21
-10.0106023711
 31
0.0
 11
25.6322224391
 21
-10.0709687562
 31
0.0
 11
25.5634018541
 21
-10.1616982615
 31
0.0
 11
25.5174174093
 21
-10.2689781424
 31
0.0
 11
25.5012698197
 21
-10.3764760094
 31
0.0
  0
SPLINE
  5
4FB
100
AcDbEntity
  8
COPY-PUBBLISH
100
AcDbSpline
 62
253
  6
CONTINUOUS
 70
0
 71
3
 72
11
 73
7
 74
5
 42
0.0000001
 43
0.0000001
 44
0.0000000001
 12
-0.0074478808
 22
-0.2394295534
 32
0.0
 13
0.2143338456
 23
-0.106971887
 33
0.0
 40
0.0
 40
0.0
 40
0.0
 40
0.0
 40
0.2009505334
 40
0.4266243262
 40
0.6921852712
 40
1.0
 40
1.0
 40
1.0
 40
1.0
 10
-29.4500119883
 20
13.9539765842
 30
0.0
 10
-29.4505108735
 20
13.937938752
 30
0.0
 10
-29.4437620772
 20
13.9033914025
 30
0.0
 10
-29.4132985826
 20
13.8561708727
 30
0.0
 10
-29.365138804
 20
13.8135080143
 30
0.0
 10
-29.3255132044
 20
13.7900983906
 30
0.0
 10
-29.3035214995
 20
13.7791225498
 30
0.0
 11
-29.4500119883
 21
13.9539765842
 31
0.0
 11
-29.4414847718
 21
13.9066011148
 31
0.0
 11
-29.4133682128
 21
13.8604291904
 31
0.0
 11
-29.3665984646
 21
13.8173093794
 31
0.0
 11
-29.3035214995
 21
13.7791225498
 31
0.0
  0
SPLINE
  5
4FC
100
AcDbEntity
  8
ASSI
100
AcDbSpline
 62
7
  6
CONTINUOUS
 70
0
 71
3
 72
9
 73
5
 74
3
 42
0.0000001
 43
0.0000001
 44
0.0000000001
 12
0.0
 22
0.1270453156
 32
0.0
 13
-0.0252612474
 23
0.1245085603
 33
0.0
 40
0.0
 40
0.0
 40
0.0
 40
0.0
 40
0.258950517
 40
1.0
 40
1.0
 40
1.0
 40
1.0
 10
-0.8031024404
 20
-1.5884400004
 30
0.0
 10
-0.8031024404
 20
-1.5774738503
 30
0.0
 10
-0.8040687227
 20
-1.5351367539
 30
0.0
 10
-0.8089635208
 20
-1.4928443248
 30
0.0
 10
-0.8152034656
 20
-1.4620886567
 30
0.0
 11
-0.8031024404
 21
-1.5884400004
 31
0.0
 11
-0.8038663071
 21
-1.5555504195
 31
0.0
 11
-0.8152034656
 21
-1.4620886567
 31
0.0
  0
SPLINE
  5
4FD
100
AcDbEntity
  8
ASSI
100
AcDbSpline
 62
7
  6
CONTINUOUS
 70
0
 71
3
 72
9
 73
5
 74
3
 42
0.0000001
 43
0.0000001
 44
0.0000000001
 12
-0.0113912684
 22
0.0561457001
 32
0.0
 13
-0.0177270846
 23
0.0544779874
 33
0.0
 40
0.0
 40
0.0
 40
0.0
 40
0.0
 40
0.2552307381
 40
1.0
 40
1.0
 40
1.0
 40
1.0
 10
-0.8152034656
 20
-1.4620886567
 30
0.0
 10
-0.8161725995
 20
-1.4573119538
 30
0.0
 10
-0.820219279
 20
-1.4386487982
 30
0.0
 10
-0.8252849499
 20
-1.4202021076
 30
0.0
 10
-0.8296858124
 20
-1.4066775974
 30
0.0
 11
-0.8152034656
 21
-1.4620886567
 31
0.0
 11
-0.8183046534
 21
-1.447799233
 31
0.0
 11
-0.8296858124
 21
-1.4066775974
 31
0.0
  0
SPLINE
  5
4FE
100
AcDbEntity
  8
ASSI
100
AcDbSpline
 62
7
  6
CONTINUOUS
 70
0
 71
3
 72
9
 73
5
 74
3
 42
0.0000001
 43
0.0000001
 44
0.0000000001
 12
-0.0169705407
 22
0.0521530147
 32
0.0
 13
-0.0235985627
 23
0.0495080198
 33
0.0
 40
0.0
 40
0.0
 40
0.0
 40
0.0
 40
0.2554552551
 40
1.0
 40
1.0
 40
1.0
 40
1.0
 10
-0.8296858124
 20
-1.4066775974
 30
0.0
 10
-0.8311308837
 20
-1.4022366768
 30
0.0
 10
-0.8370538449
 20
-1.3849406698
 30
0.0
 10
-0.8440605034
 20
-1.3680109983
 30
0.0
 10
-0.849917232
 20
-1.3557240196
 30
0.0
 11
-0.8296858124
 21
-1.4066775974
 31
0.0
 11
-0.8342277061
 21
-1.3934238712
 31
0.0
 11
-0.849917232
 21
-1.3557240196
 31
0.0
  0
SPLINE
  5
4FF
100
AcDbEntity
  8
ASSI
100
AcDbSpline
 62
7
  6
CONTINUOUS
 70
0
 71
3
 72
9
 73
5
 74
3
 42
0.0000001
 43
0.0000001
 44
0.0000000001
 12
-0.0478287138
 22
0.1003410649
 32
0.0
 13
-0.0784306524
 23
0.0787689528
 33
0.0
 40
0.0
 40
0.0
 40
0.0
 40
0.0
 40
0.2605054228
 40
1.0
 40
1.0
 40
1.0
 40
1.0
 10
-0.849917232
 20
-1.3557240196
 30
0.0
 10
-0.8540704451
 20
-1.3470108891
 30
0.0
 10
-0.8712337767
 20
-1.3141760725
 30
0.0
 10
-0.8936471062
 20
-1.2839566825
 30
0.0
 10
-0.9129801202
 20
-1.264540278
 30
0.0
 11
-0.849917232
 21
-1.3557240196
 31
0.0
 11
-0.863369008
 21
-1.3300810844
 31
0.0
 11
-0.9129801202
 21
-1.264540278
 31
0.0
  0
SPLINE
  5
500
100
AcDbEntity
  8
COPY-PUBBLISH
100
AcDbSpline
 62
7
  6
CONTINUOUS
 70
0
 71
3
 72
16
 73
12
 74
10
 42
0.0000001
 43
0.0000001
 44
0.0000000001
 12
4.4863499977
 22
-2.2435142226
 32
0.0
 13
-0.1632654861
 23
5.0133857572
 33
0.0
 40
0.0
 40
0.0
 40
0.0
 40
0.0
 40
0.0448010193
 40
0.0910761633
 40
0.1921486928
 40
0.3088548026
 40
0.4404339642
 40
0.5822475547
 40
0.7275755136
 40
0.8690385706
 40
1.0
 40
1.0
 40
1.0
 40
1.0
 10
-6.4323413818
 20
4.5911871736
 30
0.0
 10
-6.3653436975
 20
4.5576832656
 30
0.0
 10
-6.220509391
 20
4.5055589807
 30
0.0
 10
-5.8989752226
 20
4.4682360553
 30
0.0
 10
-5.4557790405
 20
4.5599052758
 30
0.0
 10
-4.9418824222
 20
4.8505437407
 30
0.0
 10
-4.4591172512
 20
5.2962625643
 30
0.0
 10
-4.0425020237
 20
5.8636017591
 30
0.0
 10
-3.7230417813
 20
6.5091717152
 30
0.0
 10
-3.5253606463
 20
7.1827019922
 30
0.0
 10
-3.4829830865
 20
7.6405076998
 30
0.0
 10
-3.490110247
 20
7.8593610881
 30
0.0
 11
-6.4323413818
 21
4.5911871736
 31
0.0
 11
-6.2210221307
 21
4.5147346519
 31
0.0
 11
-5.9905973561
 21
4.4867480151
 31
0.0
 11
-5.4917503899
 21
4.5772172813
 31
0.0
 11
-4.9765656689
 21
4.8552123996
 31
0.0
 11
-4.4871442537
 21
5.2980167036
 31
0.0
 11
-4.0634819917
 21
5.8694354187
 31
0.0
 11
-3.7402029284
 21
6.5228035353
 31
0.0
 11
-3.5437248363
 21
7.2046444367
 31
0.0
 11
-3.490110247
 21
7.8593610881
 31
0.0
  0
SPLINE
  5
501
100
AcDbEntity
  8
ASSI
100
AcDbSpline
 62
7
  6
CONTINUOUS
 70
0
 71
3
 72
15
 73
11
 74
9
 42
0.0000001
 43
0.0000001
 44
0.0000000001
 12
4.5270434281
 22
-1.0348882975
 32
0.0
 13
0.0945097943
 23
4.6428637593
 33
0.0
 40
0.0
 40
0.0
 40
0.0
 40
0.0
 40
0.0926103584
 40
0.1972954429
 40
0.3162013648
 40
0.4476285528
 40
0.5873836757
 40
0.7299218262
 40
0.8692547838
 40
1.0
 40
1.0
 40
1.0
 40
1.0
 10
-6.3551678415
 20
4.5837535443
 30
0.0
 10
-6.21541747
 20
4.5518064189
 30
0.0
 10
-5.9013054021
 20
4.5491582135
 30
0.0
 10
-5.4323012911
 20
4.7101647968
 30
0.0
 10
-4.969529017
 20
5.0150281657
 30
0.0
 10
-4.5394046146
 20
5.4436217638
 30
0.0
 10
-4.1675700552
 20
5.968499519
 30
0.0
 10
-3.8776921385
 20
6.5563057738
 30
0.0
 10
-3.6881368299
 20
7.1689784874
 30
0.0
 10
-3.6348471146
 20
7.5866553575
 30
0.0
 10
-3.6307282134
 20
7.7889994329
 30
0.0
 11
-6.3551678415
 21
4.5837535443
 31
0.0
 11
-5.9252610684
 21
4.5720389059
 31
0.0
 11
-5.4622033672
 21
4.7200556543
 31
0.0
 11
-4.9971964405
 21
5.0178298993
 31
0.0
 11
-4.5615732475
 21
5.4452979834
 31
0.0
 11
-4.1846863578
 21
5.973649395
 31
0.0
 11
-3.8919316235
 21
6.5673124379
 31
0.0
 11
-3.7030308372
 21
7.1861618575
 31
0.0
 11
-3.6307282134
 21
7.7889994329
 31
0.0
  0
SPLINE
  5
502
100
AcDbEntity
  8
ASSI
100
AcDbSpline
 62
7
  6
CONTINUOUS
 70
0
 71
3
 72
11
 73
7
 74
5
 42
0.0000001
 43
0.0000001
 44
0.0000000001
 12
-0.9255704297
 22
0.462236034
 32
0.0
 13
-0.0570542431
 23
1.032999315
 33
0.0
 40
0.0
 40
0.0
 40
0.0
 40
0.0
 40
0.2201771047
 40
0.4544938616
 40
0.7130918815
 40
1.0
 40
1.0
 40
1.0
 40
1.0
 10
-6.2377162269
 20
5.3323832614
 30
0.0
 10
-6.3056460328
 20
5.3663078586
 30
0.0
 10
-6.4346294989
 20
5.461246492
 30
0.0
 10
-6.5784733546
 20
5.6648481664
 30
0.0
 10
-6.6719645822
 20
5.9196544871
 30
0.0
 10
-6.6978150553
 20
6.1073448633
 30
0.0
 10
-6.7032714972
 20
6.2061368266
 30
0.0
 11
-6.2377162269
 21
5.3323832614
 31
0.0
 11
-6.4218620637
 21
5.4664666015
 31
0.0
 11
-6.5644604819
 21
5.6625078149
 31
0.0
 11
-6.6596828951
 21
5.9125271253
 31
0.0
 11
-6.7032714972
 21
6.2061368266
 31
0.0
  0
SPLINE
  5
503
100
AcDbEntity
  8
COPY-PUBBLISH
100
AcDbSpline
 62
253
  6
CONTINUOUS
 70
0
 71
3
 72
9
 73
5
 74
3
 42
0.0000001
 43
0.0000001
 44
0.0000000001
 12
0.2079715952
 22
0.1205084849
 32
0.0
 13
0.2165413442
 23
-0.1043279713
 33
0.0
 40
0.0
 40
0.0
 40
0.0
 40
0.0
 40
0.4580564755
 40
1.0
 40
1.0
 40
1.0
 40
1.0
 10
-28.543993589
 20
15.5398731261
 30
0.0
 10
-28.5122393437
 20
15.5582730233
 30
0.0
 10
-28.4287261686
 20
15.5750682419
 30
0.0
 10
-28.3501050442
 20
15.5497568435
 30
0.0
 10
-28.3109873177
 20
15.5309102207
 30
0.0
 11
-28.543993589
 21
15.5398731261
 31
0.0
 11
-28.4367582716
 21
15.5648247098
 31
0.0
 11
-28.3109873177
 21
15.5309102207
 31
0.0
  0
SPLINE
  5
504
100
AcDbEntity
  8
ASSI
100
AcDbSpline
 62
7
  6
CONTINUOUS
 70
0
 71
3
 72
11
 73
7
 74
5
 42
0.0000001
 43
0.0000001
 44
0.0000000001
 12
-0.8213274996
 22
0.4110463779
 32
0.0
 13
-0.1134379394
 23
0.9114108955
 33
0.0
 40
0.0
 40
0.0
 40
0.0
 40
0.0
 40
0.2241388034
 40
0.4602708355
 40
0.7172954999
 40
1.0
 40
1.0
 40
1.0
 40
1.0
 10
-6.2386509461
 20
1.5352272822
 30
0.0
 10
-6.3000147337
 20
1.5659377633
 30
0.0
 10
-6.4167518715
 20
1.6492898891
 30
0.0
 10
-6.5528954266
 20
1.8248498934
 30
0.0
 10
-6.6485080116
 20
2.0444755545
 30
0.0
 10
-6.6823597055
 20
2.2073365681
 30
0.0
 10
-6.6930495108
 20
2.293223222
 30
0.0
 11
-6.2386509461
 21
1.5352272822
 31
0.0
 11
-6.4067435229
 21
1.6540663263
 31
0.0
 11
-6.5414036308
 21
1.8240690624
 31
0.0
 11
-6.6379365532
 21
2.0394917396
 31
0.0
 11
-6.6930495108
 21
2.293223222
 31
0.0
  0
SPLINE
  5
505
100
AcDbEntity
  8
ASSI
100
AcDbSpline
 62
7
  6
CONTINUOUS
 70
0
 71
3
 72
9
 73
5
 74
3
 42
0.0000001
 43
0.0000001
 44
0.0000000001
 12
-0.0199373772
 22
0.1601857628
 32
0.0
 13
-0.00476104
 23
0.161351511
 33
0.0
 40
0.0
 40
0.0
 40
0.0
 40
0.0
 40
0.2456511541
 40
1.0
 40
1.0
 40
1.0
 40
1.0
 10
-6.6930495108
 20
2.293223222
 30
0.0
 10
-6.6946820574
 20
2.3063398278
 30
0.0
 10
-6.7006619829
 20
2.3598166215
 30
0.0
 10
-6.7040336278
 20
2.4135788117
 30
0.0
 10
-6.7052307895
 20
2.4541505871
 30
0.0
 11
-6.6930495108
 21
2.293223222
 31
0.0
 11
-6.6974626132
 21
2.3326303221
 31
0.0
 11
-6.7052307895
 21
2.4541505871
 31
0.0
  0
SPLINE
  5
506
100
AcDbEntity
  8
COPY-PUBBLISH
100
AcDbSpline
 62
7
  6
CONTINUOUS
 70
0
 71
3
 72
9
 73
5
 74
3
 42
0.0000001
 43
0.0000001
 44
0.0000000001
 12
-0.1236830715
 22
0.0620164898
 32
0.0
 13
-0.1237531323
 23
-0.0618765661
 33
0.0
 40
0.0
 40
0.0
 40
0.0
 40
0.0
 40
0.4638815024
 40
1.0
 40
1.0
 40
1.0
 40
1.0
 10
27.5447747969
 20
11.1979595057
 30
0.0
 10
27.5256500338
 20
11.2075489399
 30
0.0
 10
27.4776372944
 20
11.2155821773
 30
0.0
 10
27.4325735767
 20
11.2005804792
 30
0.0
 10
27.4104581289
 20
11.1895227553
 30
0.0
 11
27.5447747969
 21
11.1979595057
 31
0.0
 11
27.4817401788
 21
11.2100450836
 31
0.0
 11
27.4104581289
 21
11.1895227553
 31
0.0
  0
SPLINE
  5
507
100
AcDbEntity
  8
COPY-PUBBLISH
100
AcDbSpline
 62
7
  6
CONTINUOUS
 70
0
 71
3
 72
16
 73
12
 74
10
 42
0.0000001
 43
0.0000001
 44
0.0000000001
 12
4.4863497247
 22
-2.2435140935
 32
0.0
 13
-0.1632654864
 23
5.0133854551
 33
0.0
 40
0.0
 40
0.0
 40
0.0
 40
0.0
 40
0.0448010193
 40
0.0910761633
 40
0.1921486928
 40
0.3088548027
 40
0.4404339643
 40
0.5822475548
 40
0.7275755137
 40
0.8690385707
 40
1.0
 40
1.0
 40
1.0
 40
1.0
 10
-6.4323413129
 20
0.7935706563
 30
0.0
 10
-6.3653436327
 20
0.7600667502
 30
0.0
 10
-6.2205093349
 20
0.7079424681
 30
0.0
 10
-5.898975186
 20
0.6706195446
 30
0.0
 10
-5.4557790305
 20
0.7622887596
 30
0.0
 10
-4.941882443
 20
1.052927207
 30
0.0
 10
-4.4591173012
 20
1.4986460042
 30
0.0
 10
-4.0425020989
 20
2.0659851652
 30
0.0
 10
-3.7230418763
 20
2.7115550827
 30
0.0
 10
-3.525360754
 20
3.3850853193
 30
0.0
 10
-3.4829831975
 20
3.8428909993
 30
0.0
 10
-3.490110358
 20
4.0617443742
 30
0.0
 11
-6.4323413129
 21
0.7935706563
 31
0.0
 11
-6.2210220746
 21
0.7171181388
 31
0.0
 11
-5.9905973139
 21
0.6891315034
 31
0.0
 11
-5.4917503777
 21
0.7796007641
 31
0.0
 11
-4.9765656877
 21
1.0575958656
 31
0.0
 11
-4.487144302
 21
1.5004001435
 31
0.0
 11
-4.0634820658
 21
2.0718188245
 31
0.0
 11
-3.7402030224
 21
2.7251869021
 31
0.0
 11
-3.5437249429
 21
3.4070277626
 31
0.0
 11
-3.490110358
 21
4.0617443742
 31
0.0
  0
SPLINE
  5
508
100
AcDbEntity
  8
ASSI
100
AcDbSpline
 62
7
  6
CONTINUOUS
 70
0
 71
3
 72
15
 73
11
 74
9
 42
0.0000001
 43
0.0000001
 44
0.0000000001
 12
4.5270432475
 22
-1.0348804338
 32
0.0
 13
0.0945097651
 23
4.642861831
 33
0.0
 40
0.0
 40
0.0
 40
0.0
 40
0.0
 40
0.0926103804
 40
0.1972954949
 40
0.3162014378
 40
0.4476286309
 40
0.5873837434
 40
0.7299218729
 40
0.8692548055
 40
1.0
 40
1.0
 40
1.0
 40
1.0
 10
-6.3551661655
 20
0.7861366608
 30
0.0
 10
-6.2154157665
 20
0.7541897706
 30
0.0
 10
-5.9013037642
 20
0.751542016
 30
0.0
 10
-5.4322999068
 20
0.9125489943
 30
0.0
 10
-4.9695279429
 20
1.2174125577
 30
0.0
 10
-4.5394038793
 20
1.6460061648
 30
0.0
 10
-4.1675696476
 20
2.1708837702
 30
0.0
 10
-3.8776920058
 20
2.7586897566
 30
0.0
 10
-3.6881368849
 20
3.3713621372
 30
0.0
 10
-3.6348472232
 20
3.7890387617
 30
0.0
 10
-3.630728324
 20
3.9913827193
 30
0.0
 11
-6.3551661655
 21
0.7861366608
 31
0.0
 11
-5.9252594523
 21
0.7744226354
 31
0.0
 11
-5.462201953
 21
0.922439811
 31
0.0
 11
-4.9971953255
 21
1.2202142787
 31
0.0
 11
-4.5615724775
 21
1.647682386
 31
0.0
 11
-4.184685926
 21
2.1760336485
 31
0.0
 11
-3.8919314748
 21
2.7696964156
 31
0.0
 11
-3.703030878
 21
3.3885454913
 31
0.0
 11
-3.630728324
 21
3.9913827193
 31
0.0
  0
SPLINE
  5
509
100
AcDbEntity
  8
ASSI
100
AcDbSpline
 62
7
  6
CONTINUOUS
 70
0
 71
3
 72
9
 73
5
 74
3
 42
0.0000001
 43
0.0000001
 44
0.0000000001
 12
0.1482612251
 22
0.1284078308
 32
0.0
 13
0.1692606651
 23
0.0990998946
 33
0.0
 40
0.0
 40
0.0
 40
0.0
 40
0.0
 40
0.2586559389
 40
1.0
 40
1.0
 40
1.0
 40
1.0
 10
-1.6224021103
 20
-1.6302282565
 30
0.0
 10
-1.6096192281
 20
-1.6191571071
 30
0.0
 10
-1.5593282468
 20
-1.577382577
 30
0.0
 10
-1.5054317939
 20
-1.5398511934
 30
0.0
 10
-1.4636049976
 20
-1.515362154
 30
0.0
 11
-1.6224021103
 21
-1.6302282565
 31
0.0
 11
-1.5833618897
 21
-1.5978305253
 31
0.0
 11
-1.4636049976
 21
-1.515362154
 31
0.0
  0
SPLINE
  5
50A
100
AcDbEntity
  8
ASSI
100
AcDbSpline
 62
7
  6
CONTINUOUS
 70
0
 71
3
 72
9
 73
5
 74
3
 42
0.0000001
 43
0.0000001
 44
0.0000000001
 12
0.1896686099
 22
0.0948343049
 32
0.0
 13
0.2097116318
 23
0.0314445298
 33
0.0
 40
0.0
 40
0.0
 40
0.0
 40
0.0
 40
0.2637853927
 40
1.0
 40
1.0
 40
1.0
 40
1.0
 10
-1.3957543238
 20
-1.4792677333
 30
0.0
 10
-1.3790770542
 20
-1.4709290985
 30
0.0
 10
-1.3148480881
 20
-1.4414489618
 30
0.0
 10
-1.2461775076
 20
-1.4210367117
 30
0.0
 10
-1.1947132521
 20
-1.4133200709
 30
0.0
 11
-1.3957543238
 21
-1.4792677333
 31
0.0
 11
-1.3448826685
 21
-1.4560072079
 31
0.0
 11
-1.1947132521
 21
-1.4133200709
 31
0.0
  0
SPLINE
  5
50B
100
AcDbEntity
  8
ASSI
100
AcDbSpline
 62
7
  6
CONTINUOUS
 70
0
 71
3
 72
9
 73
5
 74
3
 42
0.0000001
 43
0.0000001
 44
0.0000000001
 12
0.0994158608
 22
0.0102490965
 32
0.0
 13
0.0922617961
 23
-0.038422888
 33
0.0
 40
0.0
 40
0.0
 40
0.0
 40
0.0
 40
0.26139939
 40
1.0
 40
1.0
 40
1.0
 40
1.0
 10
-1.1699662711
 20
-1.4101861312
 30
0.0
 10
-1.161303856
 20
-1.4092930953
 30
0.0
 10
-1.1280257239
 20
-1.4076526447
 30
0.0
 10
-1.0942048809
 20
-1.4140267189
 30
0.0
 10
-1.0714900079
 20
-1.4234864417
 30
0.0
 11
-1.1699662711
 21
-1.4101861312
 31
0.0
 11
-1.1438690059
 21
-1.4089830993
 31
0.0
 11
-1.0714900079
 21
-1.4234864417
 31
0.0
  0
SPLINE
  5
50C
100
AcDbEntity
  8
COPY-PUBBLISH
100
AcDbSpline
 62
7
  6
CONTINUOUS
 70
0
 71
3
 72
12
 73
8
 74
6
 42
0.0000001
 43
0.0000001
 44
0.0000000001
 12
-1.0428278602
 22
0.5211680245
 32
0.0
 13
-0.7231435138
 23
-0.9144230499
 33
0.0
 40
0.0
 40
0.0
 40
0.0
 40
0.0
 40
0.0997854385
 40
0.2033994445
 40
0.4322906388
 40
0.6992964164
 40
1.0
 40
1.0
 40
1.0
 40
1.0
 10
-4.3766185357
 20
-24.6505685712
 30
0.0
 10
-4.4113048808
 20
-24.6332335779
 30
0.0
 10
-4.4869103573
 20
-24.6069590759
 30
0.0
 10
-4.6557098847
 20
-24.5921834275
 30
0.0
 10
-4.8875207755
 20
-24.6520127217
 30
0.0
 10
-5.1507379489
 20
-24.8210429564
 30
0.0
 10
-5.3049435702
 20
-24.9816494406
 30
0.0
 10
-5.3774275189
 20
-25.0733062032
 30
0.0
 11
-4.3766185357
 21
-24.6505685712
 31
0.0
 11
-4.4864059838
 21
-24.6121040812
 31
0.0
 11
-4.6066690045
 21
-24.6007912025
 31
0.0
 11
-4.8668413053
 21
-24.6600832115
 31
0.0
 11
-5.1322195955
 21
-24.8227726946
 31
0.0
 11
-5.3774275189
 21
-25.0733062032
 31
0.0
  0
SPLINE
  5
50D
100
AcDbEntity
  8
COPY-PUBBLISH
100
AcDbSpline
 62
7
  6
CONTINUOUS
 70
0
 71
3
 72
14
 73
10
 74
8
 42
0.0000001
 43
0.0000001
 44
0.0000000001
 12
1.9781532898
 22
-0.9843155878
 32
0.0
 13
0.7718954113
 23
2.0703007241
 33
0.0
 40
0.0
 40
0.0
 40
0.0
 40
0.0
 40
0.0926059117
 40
0.1918290947
 40
0.3021248388
 40
0.4249623206
 40
0.5593766323
 40
0.7026868769
 40
1.0
 40
1.0
 40
1.0
 40
1.0
 10
-5.6004438853
 20
-27.1004719169
 30
0.0
 10
-5.539380989
 20
-27.1308563977
 30
0.0
 10
-5.4002374404
 20
-27.1707291983
 30
0.0
 10
-5.174803834
 20
-27.157349672
 30
0.0
 10
-4.9410515743
 20
-27.0769335025
 30
0.0
 10
-4.7085794449
 20
-26.9349940509
 30
0.0
 10
-4.4867395108
 20
-26.7384368496
 30
0.0
 10
-4.2151270175
 20
-26.4121450122
 30
0.0
 10
-4.0602688244
 20
-26.1210440806
 30
0.0
 10
-3.9837706126
 20
-25.9158682225
 30
0.0
 11
-5.6004438853
 21
-27.1004719169
 31
0.0
 11
-5.4041070163
 21
-27.1580816357
 31
0.0
 11
-5.1850788948
 21
-27.1485514208
 31
0.0
 11
-4.9535680088
 21
-27.072442396
 31
0.0
 11
-4.7205163276
 21
-26.9333339764
 31
0.0
 11
-4.4969671037
 21
-26.737810922
 31
0.0
 11
-4.2935031238
 21
-26.4951848489
 31
0.0
 11
-3.9837706126
 21
-25.9158682225
 31
0.0
  0
SPLINE
  5
50E
100
AcDbEntity
  8
ASSI
100
AcDbSpline
 62
7
  6
CONTINUOUS
 70
0
 71
3
 72
11
 73
7
 74
5
 42
0.0000001
 43
0.0000001
 44
0.0000000001
 12
0.7047651905
 22
0.3523825953
 32
0.0
 13
0.7048504299
 23
-0.352212065
 33
0.0
 40
0.0
 40
0.0
 40
0.0
 40
0.0
 40
0.2788803589
 40
0.5353563219
 40
0.7729543996
 40
1.0
 40
1.0
 40
1.0
 40
1.0
 10
-5.0627349035
 20
-24.1971702135
 30
0.0
 10
-4.9972198471
 20
-24.1644126853
 30
0.0
 10
-4.8659973861
 20
-24.1115060803
 30
0.0
 10
-4.6649888345
 20
-24.0734482105
 30
0.0
 10
-4.4738620883
 20
-24.0830076764
 30
0.0
 10
-4.3562649216
 20
-24.1220267169
 30
0.0
 10
-4.3029205253
 20
-24.1486827835
 30
0.0
 11
-5.0627349035
 21
-24.1971702135
 31
0.0
 11
-4.8583353873
 21
-24.1164959163
 31
0.0
 11
-4.6594153222
 21
-24.0808389426
 31
0.0
 11
-4.4725172035
 21
-24.0917398184
 31
0.0
 11
-4.3029205253
 21
-24.1486827835
 31
0.0
  0
SPLINE
  5
50F
100
AcDbEntity
  8
ASSI
100
AcDbSpline
 62
7
  6
CONTINUOUS
 70
0
 71
3
 72
9
 73
5
 74
3
 42
0.0000001
 43
0.0000001
 44
0.0000000001
 12
0.0486166385
 22
0.6106134232
 32
0.0
 13
0.1952779779
 23
0.5805849133
 33
0.0
 40
0.0
 40
0.0
 40
0.0
 40
0.0
 40
0.2411340669
 40
1.0
 40
1.0
 40
1.0
 40
1.0
 10
-3.634093058
 20
-24.8502605823
 30
0.0
 10
-3.6301853487
 20
-24.801180683
 30
0.0
 10
-3.6069444037
 20
-24.5982309667
 30
0.0
 10
-3.5575107122
 20
-24.3985594879
 30
0.0
 10
-3.5081141106
 20
-24.2516974506
 30
0.0
 11
-3.634093058
 21
-24.8502605823
 31
0.0
 11
-3.6174539876
 21
-24.7034951173
 31
0.0
 11
-3.5081141106
 21
-24.2516974506
 31
0.0
  0
SPLINE
  5
510
100
AcDbEntity
  8
ASSI
100
AcDbSpline
 62
7
  6
CONTINUOUS
 70
0
 71
3
 72
9
 73
5
 74
3
 42
0.0000001
 43
0.0000001
 44
0.0000000001
 12
-0.2164684735
 22
0.5450491612
 32
0.0
 13
-0.4980772509
 23
0.3096065894
 33
0.0
 40
0.0
 40
0.0
 40
0.0
 40
0.0
 40
0.5210471747
 40
1.0
 40
1.0
 40
1.0
 40
1.0
 10
-3.7365747187
 20
-24.347226936
 30
0.0
 10
-3.7741714808
 20
-24.2525614942
 30
0.0
 10
-3.8693534609
 20
-24.0783268609
 30
0.0
 10
-4.0166190651
 20
-23.942890458
 30
0.0
 10
-4.0961375673
 20
-23.8934614744
 30
0.0
 11
-3.7365747187
 21
-24.347226936
 31
0.0
 11
-3.8875002758
 21
-24.0815259051
 31
0.0
 11
-4.0961375673
 21
-23.8934614744
 31
0.0
  0
SPLINE
  5
511
100
AcDbEntity
  8
ASSI
100
AcDbSpline
 62
7
  6
CONTINUOUS
 70
0
 71
3
 72
12
 73
8
 74
6
 42
0.0000001
 43
0.0000001
 44
0.0000000001
 12
0.7234333796
 22
0.9147896852
 32
0.0
 13
1.0426909949
 23
-0.5224858965
 33
0.0
 40
0.0
 40
0.0
 40
0.0
 40
0.0
 40
0.3007092077
 40
0.5677543283
 40
0.7966217782
 40
0.9002017212
 40
1.0
 40
1.0
 40
1.0
 40
1.0
 10
-5.5188488677
 20
-25.0025955321
 30
0.0
 10
-5.4463345083
 20
-24.910900305
 30
0.0
 10
-5.2920402549
 20
-24.7502348306
 30
0.0
 10
-5.0286866897
 20
-24.5811413327
 30
0.0
 10
-4.7967435037
 20
-24.521451893
 30
0.0
 10
-4.6279009145
 20
-24.5363195622
 30
0.0
 10
-4.5522964728
 20
-24.5626802309
 30
0.0
 10
-4.5176102173
 20
-24.5800612953
 30
0.0
 11
-5.5188488677
 21
-25.0025955321
 31
0.0
 11
-5.2735224911
 21
-24.7519721254
 31
0.0
 11
-5.0079679531
 21
-24.589243586
 31
0.0
 11
-4.747684063
 21
-24.5300846023
 31
0.0
 11
-4.627419398
 21
-24.5414726527
 31
0.0
 11
-4.5176102173
 21
-24.5800612953
 31
0.0
  0
SPLINE
  5
512
100
AcDbEntity
  8
COPY-PUBBLISH
100
AcDbSpline
 62
7
  6
CONTINUOUS
 70
0
 71
3
 72
10
 73
6
 74
4
 42
0.0000001
 43
0.0000001
 44
0.0000000001
 12
0.1681526063
 22
-0.0843141609
 32
0.0
 13
0.0
 23
-0.1881068226
 33
0.0
 40
0.0
 40
0.0
 40
0.0
 40
0.0
 40
0.2177531657
 40
0.4518408253
 40
1.0
 40
1.0
 40
1.0
 40
1.0
 10
26.1305612345
 20
8.758801917
 30
0.0
 10
26.1427664886
 20
8.7526820252
 30
0.0
 10
26.1658609268
 20
8.7350491624
 30
0.0
 10
26.200562365
 20
8.6817705438
 30
0.0
 10
26.2083766009
 20
8.6309943894
 30
0.0
 10
26.2083766009
 20
8.5966235626
 30
0.0
 11
26.1305612345
 21
8.758801917
 31
0.0
 11
26.1633039176
 21
8.7341907725
 31
0.0
 11
26.1879325385
 21
8.6976890066
 31
0.0
 11
26.2083766009
 21
8.5966235626
 31
0.0
  0
SPLINE
  5
513
100
AcDbEntity
  8
ASSI
100
AcDbSpline
 62
7
  6
CONTINUOUS
 70
0
 71
3
 72
9
 73
5
 74
3
 42
0.0000001
 43
0.0000001
 44
0.0000000001
 12
0.0992285452
 22
-0.0136094392
 32
0.0
 13
0.1001462442
 23
0.001500262
 33
0.0
 40
0.0
 40
0.0
 40
0.0
 40
0.0
 40
0.2467190292
 40
1.0
 40
1.0
 40
1.0
 40
1.0
 10
-5.5586240034
 20
-27.0857163831
 30
0.0
 10
-5.55046348
 20
-27.086835619
 30
0.0
 10
-5.5172996831
 20
-27.090717819
 30
0.0
 10
-5.4838417934
 20
-27.0920066582
 30
0.0
 10
-5.4586957067
 20
-27.0916299519
 30
0.0
 11
-5.5586240034
 21
-27.0857163831
 31
0.0
 11
-5.5340812989
 21
-27.0885933856
 31
0.0
 11
-5.4586957067
 21
-27.0916299519
 31
0.0
  0
SPLINE
  5
514
100
AcDbEntity
  8
ASSI
100
AcDbSpline
 62
7
  6
CONTINUOUS
 70
0
 71
3
 72
11
 73
7
 74
5
 42
0.0000001
 43
0.0000001
 44
0.0000000001
 12
1.7478344886
 22
0.0261838047
 32
0.0
 13
0.7154199534
 23
1.5949248513
 33
0.0
 40
0.0
 40
0.0
 40
0.0
 40
0.0
 40
0.4398008671
 40
0.5730596211
 40
0.7123363938
 40
1.0
 40
1.0
 40
1.0
 40
1.0
 10
-5.4586957067
 20
-27.0916299519
 30
0.0
 10
-5.2024626655
 20
-27.0877913986
 30
0.0
 10
-4.878003614
 20
-26.9058642713
 30
0.0
 10
-4.5846582486
 20
-26.6163967067
 30
0.0
 10
-4.378463672
 20
-26.3617428971
 30
0.0
 10
-4.2537385136
 20
-26.1441322294
 30
0.0
 10
-4.1851384191
 20
-25.9911982846
 30
0.0
 11
-5.4586957067
 21
-27.0916299519
 31
0.0
 11
-4.7565512214
 21
-26.7785419854
 31
0.0
 11
-4.5899861135
 21
-26.6157006959
 31
0.0
 11
-4.4365311388
 21
-26.4266917754
 31
0.0
 11
-4.1851384191
 21
-25.9911982846
 31
0.0
  0
SPLINE
  5
515
100
AcDbEntity
  8
ASSI
100
AcDbSpline
 62
7
  6
CONTINUOUS
 70
0
 71
3
 72
9
 73
5
 74
3
 42
0.0000001
 43
0.0000001
 44
0.0000000001
 12
-0.0800694404
 22
0.1100667709
 32
0.0
 13
-0.1010264463
 23
0.0912111095
 33
0.0
 40
0.0
 40
0.0
 40
0.0
 40
0.0
 40
0.2546094257
 40
1.0
 40
1.0
 40
1.0
 40
1.0
 10
-4.1624011665
 20
-24.4996667704
 30
0.0
 10
-4.1691966446
 20
-24.4903254246
 30
0.0
 10
-4.1967795206
 20
-24.4542982294
 30
0.0
 10
-4.2280049368
 20
-24.421030738
 30
0.0
 10
-4.2531063238
 20
-24.3983681042
 30
0.0
 11
-4.1624011665
 21
-24.4996667704
 31
0.0
 11
-4.1834784962
 21
-24.4721585981
 31
0.0
 11
-4.2531063238
 21
-24.3983681042
 31
0.0
  0
ELLIPSE
  5
516
100
AcDbEntity
  8
RACCORDO
100
AcDbEllipse
 62
7
  6
CONTINUOUS
 10
-11.3117483517
 20
-29.7202999658
 30
0.0
 11
0.6802799754
 21
1.3368950687
 31
0.0
 40
0.6176975122
 41
-3.9821733782
 42
-3.1368610344
  0
ELLIPSE
  5
517
100
AcDbEntity
  8
RACCORDO
100
AcDbEllipse
 62
7
  6
CONTINUOUS
 10
8.3092483333
 20
-13.6592997562
 30
0.0
 11
-0.358276895
 21
0.7155068031
 31
0.0
 40
0.6124468309
 41
-3.1249668895
 42
-2.2561724392
  0
ELLIPSE
  5
518
100
AcDbEntity
  8
RACCORDO
100
AcDbEllipse
 62
7
  6
CONTINUOUS
 10
8.3092483333
 20
-13.4054183747
 30
0.0
 11
-0.3576040475
 21
0.715636176
 31
0.0
 40
0.6131036171
 41
-2.2546379553
 42
-0.6850596037
  0
ELLIPSE
  5
519
100
AcDbEntity
  8
DRAFT
100
AcDbEllipse
 62
7
  6
CONTINUOUS
 10
5.866449103
 20
-12.4449560385
 30
0.0
 11
3.1042900332
 21
6.1005868959
 31
0.0
 40
0.6176975467
 41
-3.0359188528
 42
-2.4532784517
  0
ELLIPSE
  5
51A
100
AcDbEntity
  8
RACCORDO
100
AcDbEllipse
 62
7
  6
CONTINUOUS
 10
21.955308447
 20
32.8866775339
 30
0.0
 11
0.7999063951
 21
0.0234861131
 31
0.0
 40
0.5210573591
 41
0.7701005517
 42
2.3059902934
  0
ELLIPSE
  5
51B
100
AcDbEntity
  8
COPY-PUBBLISH
100
AcDbEllipse
 62
7
  6
CONTINUOUS
 10
24.6219225644
 20
-9.7246703474
 30
0.0
 11
0.1360559951
 21
0.2673790137
 31
0.0
 40
0.6176975122
 41
0.6890773845
 42
2.2598737113
  0
ELLIPSE
  5
51C
100
AcDbEntity
  8
COPY-PUBBLISH
100
AcDbEllipse
 62
7
  6
CONTINUOUS
 10
26.333788825
 20
11.4680497861
 30
0.0
 11
0.1360559951
 21
0.2673790137
 31
0.0
 40
0.6176975122
 41
0.0034111585
 42
0.6890773845
  0
ELLIPSE
  5
51D
100
AcDbEntity
  8
COPY-PUBBLISH
100
AcDbEllipse
 62
7
  6
CONTINUOUS
 10
6.6646795347
 20
-0.7746217489
 30
0.0
 11
0.132308947
 21
0.2692527733
 31
0.0
 40
0.607010042
 41
0.6805251943
 42
2.2513215211
  0
ELLIPSE
  5
51E
100
AcDbEntity
  8
RACCORDO
100
AcDbEllipse
 62
7
  6
CONTINUOUS
 10
10.6600144714
 20
-15.604657326
 30
0.0
 11
0.8820596464
 21
1.7950184884
 31
0.0
 40
0.607010042
 41
-1.1484616423
 42
-1.0908246143
  0
ELLIPSE
  5
51F
100
AcDbEntity
  8
RACCORDO
100
AcDbEllipse
 62
7
  6
CONTINUOUS
 10
22.8888627413
 20
-24.0134609161
 30
0.0
 11
0.9070399672
 21
1.7825267583
 31
0.0
 40
0.6176975122
 41
-2.4176086841
 42
-1.6671171057
  0
ELLIPSE
  5
520
100
AcDbEntity
  8
RACCORDO
100
AcDbEllipse
 62
7
  6
CONTINUOUS
 10
22.9813840646
 20
-23.8556660041
 30
0.0
 11
0.9070399672
 21
1.7825267583
 31
0.0
 40
0.6176975122
 41
-1.6671171057
 42
-0.8817189423
  0
ELLIPSE
  5
521
100
AcDbEntity
  8
RACCORDO
100
AcDbEllipse
 62
7
  6
CONTINUOUS
 10
16.5305813241
 20
-26.4311394492
 30
0.0
 11
0.5641280244
 21
1.1086317417
 31
0.0
 40
0.6176975122
 41
3.8393966843
 42
5.341858196
  0
ELLIPSE
  5
522
100
AcDbEntity
  8
RACCORDO
100
AcDbEllipse
 62
7
  6
CONTINUOUS
 10
0.8253175782
 20
-33.05287757
 30
0.0
 11
2.9996489815
 21
0.0880729241
 31
0.0
 40
0.5210573591
 41
-2.1651489504
 42
-0.8356023602
  0
ELLIPSE
  5
523
100
AcDbEntity
  8
RACCORDO
100
AcDbEllipse
 62
7
  6
CONTINUOUS
 10
0.8253175782
 20
24.8704767902
 30
0.0
 11
2.9996489815
 21
0.0880729241
 31
0.0
 40
0.5210573591
 41
-2.3714921019
 42
-0.8356023602
  0
ELLIPSE
  5
524
100
AcDbEntity
  8
DRAFT
100
AcDbEllipse
 62
7
  6
CONTINUOUS
 10
13.7125073711
 20
9.2503172727
 30
0.0
 11
3.1080989344
 21
6.1080721929
 31
0.0
 40
0.6176975467
 41
5.4014666844
 42
6.2030277779
  0
ELLIPSE
  5
525
100
AcDbEntity
  8
DRAFT
100
AcDbEllipse
 62
7
  6
CONTINUOUS
 10
13.7125073711
 20
-8.5898060453
 30
0.0
 11
3.1080989344
 21
6.1080721929
 31
0.0
 40
0.6176975467
 41
-2.4532784517
 42
-0.8817186228
  0
ELLIPSE
  5
526
100
AcDbEntity
  8
ASSI
100
AcDbEllipse
 62
7
  6
CONTINUOUS
 10
1.3069243378
 20
-36.44893519
 30
0.0
 11
0.6802799754
 21
1.3368950687
 31
0.0
 40
0.6176975122
 41
0.6978040307
 42
1.5617420105
  0
ELLIPSE
  5
527
100
AcDbEntity
  8
RACCORDO
100
AcDbEllipse
 62
7
  6
CONTINUOUS
 10
-11.3117483517
 20
5.7895435829
 30
0.0
 11
0.6802799754
 21
1.3368950687
 31
0.0
 40
0.6176975122
 41
0.741437262
 42
2.2187354936
  0
ELLIPSE
  5
528
100
AcDbEntity
  8
RACCORDO
100
AcDbEllipse
 62
7
  6
CONTINUOUS
 10
343.9563079256
 20
162.5950950966
 30
0.0
 11
226.7599917994
 21
445.6316895703
 31
0.0
 40
0.6176975122
 41
-4.0644498136
 42
-3.9821733782
  0
ELLIPSE
  5
529
100
AcDbEntity
  8
DRAFT
100
AcDbEllipse
 62
7
  6
CONTINUOUS
 10
-10.3644009966
 20
13.5105923293
 30
0.0
 11
3.0187963602
 21
6.143339116
 31
0.0
 40
0.6070100789
 41
-4.3151984355
 42
-4.0318634772
  0
ELLIPSE
  5
52A
100
AcDbEntity
  8
DRAFT
100
AcDbEllipse
 62
7
  6
CONTINUOUS
 10
-2.6541010103
 20
17.4336214634
 30
0.0
 11
3.0225003625
 21
6.1508768691
 31
0.0
 40
0.6070100789
 41
-0.124393328
 42
0.4254136123
  0
ELLIPSE
  5
52B
100
AcDbEntity
  8
COPY-PUBBLISH
100
AcDbEllipse
 62
7
  6
CONTINUOUS
 10
-26.1174713508
 20
16.3759741772
 30
0.0
 11
-0.2234618187
 21
0.4480306886
 31
0.0
 40
0.6116748051
 41
-0.6831523243
 42
0.0400434368
  0
ELLIPSE
  5
52C
100
AcDbEntity
  8
RACCORDO
100
AcDbEllipse
 62
7
  6
CONTINUOUS
 10
6.3634782974
 20
-15.7507686941
 30
0.0
 11
0.8820596464
 21
1.7950184884
 31
0.0
 40
0.607010042
 41
-2.4261608742
 42
-1.6756692959
  0
ELLIPSE
  5
52D
100
AcDbEntity
  8
RACCORDO
100
AcDbEllipse
 62
7
  6
CONTINUOUS
 10
-6.7448738243
 20
28.6555724914
 30
0.0
 11
2.9996489815
 21
0.0880729241
 31
0.0
 40
0.5210573591
 41
2.3758034635
 42
3.9116932053
  0
ELLIPSE
  5
52E
100
AcDbEntity
  8
RACCORDO
100
AcDbEllipse
 62
7
  6
CONTINUOUS
 10
6.4543987486
 20
-15.5921733461
 30
0.0
 11
0.8820596464
 21
1.7950184884
 31
0.0
 40
0.607010042
 41
-1.6756692959
 42
-0.8902711325
  0
ELLIPSE
  5
52F
100
AcDbEntity
  8
RACCORDO
100
AcDbEllipse
 62
7
  6
CONTINUOUS
 10
4.8422460549
 20
-17.02368834
 30
0.0
 11
0.6615447348
 21
1.3462638663
 31
0.0
 40
0.607010042
 41
-2.6884188452
 42
-2.4261608742
  0
ELLIPSE
  5
530
100
AcDbEntity
  8
COPY-PUBBLISH
100
AcDbEllipse
 62
7
  6
CONTINUOUS
 10
-8.0863561427
 20
7.3604165732
 30
0.0
 11
-0.2230998035
 21
0.4477110033
 31
0.0
 40
0.6127700112
 41
-2.2535417632
 42
-0.6836588249
  0
ELLIPSE
  5
531
100
AcDbEntity
  8
COPY-PUBBLISH
100
AcDbEllipse
 62
7
  6
CONTINUOUS
 10
-8.0863561427
 20
-30.1632756863
 30
0.0
 11
-0.2234618187
 21
0.4480306886
 31
0.0
 40
0.6116748051
 41
-3.1816403686
 42
-2.2548620396
  0
ELLIPSE
  5
532
100
AcDbEntity
  8
RACCORDO
100
AcDbEllipse
 62
7
  6
CONTINUOUS
 10
7.7633170787
 20
39.9826732181
 30
0.0
 11
0.7999063951
 21
0.0234861131
 31
0.0
 40
0.5210573591
 41
-0.7657891901
 42
0.7701005517
  0
ELLIPSE
  5
533
100
AcDbEntity
  8
DRAFT
100
AcDbEllipse
 62
7
  6
CONTINUOUS
 10
-10.3644009966
 20
-4.3295309886
 30
0.0
 11
3.0187963602
 21
6.143339116
 31
0.0
 40
0.6070100789
 41
2.25132183
 42
3.3184803438
  0
ELLIPSE
  5
534
100
AcDbEntity
  8
RACCORDO
100
AcDbEllipse
 62
7
  6
CONTINUOUS
 10
-27.2453686206
 20
-21.7534898314
 30
0.0
 11
0.6615447348
 21
1.3462638663
 31
0.0
 40
0.607010042
 41
-3.9907255683
 42
-2.5134273368
  0
ELLIPSE
  5
535
100
AcDbEntity
  8
RACCORDO
100
AcDbEllipse
 62
7
  6
CONTINUOUS
 10
321.8755779555
 20
173.6354600816
 30
0.0
 11
220.5149115959
 21
448.7546221111
 31
0.0
 40
0.607010042
 41
-4.0730020038
 42
-3.9907255683
  0
ELLIPSE
  5
536
100
AcDbEntity
  8
RACCORDO
100
AcDbEllipse
 62
7
  6
CONTINUOUS
 10
-27.2453686206
 20
13.7563537173
 30
0.0
 11
0.6615447348
 21
1.3462638663
 31
0.0
 40
0.607010042
 41
0.7328850719
 42
2.2101833034
  0
ELLIPSE
  5
537
100
AcDbEntity
  8
COPY-PUBBLISH
100
AcDbEllipse
 62
7
  6
CONTINUOUS
 10
7.3656154885
 20
10.4073346027
 30
0.0
 11
0.132308947
 21
0.2692527733
 31
0.0
 40
0.607010042
 41
2.2513215211
 42
3.8221178479
  0
ENDSEC
  0
SECTION
  2
OBJECTS
  0
DICTIONARY
  5
C
100
AcDbDictionary
280
0
281
1
  3
ACAD_GROUP
350
D
  3
ACAD_MLINESTYLE
350
17
  3
ACAD_LAYOUT
350
1A
  3
ACAD_PLOTSETTINGS
350
19
  3
ACAD_PLOTSTYLENAME
350
E
  0
DICTIONARY
  5
D
102
{ACAD_REACTORS
330
C
102
}
100
AcDbDictionary
280
0
281
1
  0
ACDBDICTIONARYWDFLT
  5
E
102
{ACAD_REACTORS
330
C
102
}
100
AcDbDictionary
281
1
  3
Normal
350
F
100
AcDbDictionaryWithDefault
340
F
  0
DICTIONARY
  5
17
102
{ACAD_REACTORS
330
C
102
}
100
AcDbDictionary
280
0
281
1
  3
Standard
350
18
  0
DICTIONARY
  5
19
102
{ACAD_REACTORS
330
C
102
}
100
AcDbDictionary
281
1
  0
DICTIONARY
  5
1A
102
{ACAD_REACTORS
330
C
102
}
100
AcDbDictionary
281
1
  3
Model
350
538
  3
Layout1
350
539
  0
ACDBPLACEHOLDER
  5
F
102
{ACAD_REACTORS
330
E
102
}
  0
MLINESTYLE
  5
18
102
{ACAD_REACTORS
330
17
102
}
100
AcDbMlineStyle
  2
STANDARD
 70
0
  3

 62
256
 51
90.0
 52
90.0
 71
2
 49
0.5
 62
256
  6
BYLAYER
 49
-0.5
 62
256
  6
BYLAYER
  0
LAYOUT
  5
538
102
{ACAD_REACTORS
330
1A
102
}
100
AcDbPlotSettings
  1

  2
none_device
  4
ISO_A4_(297.00_x_210.00_MM)
  6

 40
0.0
 41
0.0
 42
0.0
 43
0.0
 44
297.0
 45
210.0
 46
0.0
 47
0.0
 48
0.0
 49
0.0
140
0.0
141
0.0
142
1.0
143
1.0
 70
1024
 72
1
 73
0
 74
0
  7

 75
0
147
1.0
148
0.0
149
0.0
100
AcDbLayout
  1
Model
 70
0
 71
0
 10
0.0
 20
0.0
 11
297.0
 21
210.0
 12
0.0
 22
0.0
 32
0.0
 14
0.0
 24
0.0
 34
0.0
 15
0.0
 25
0.0
 35
0.0
146
0.0
 13
0.0
 23
0.0
 33
0.0
 16
1.0
 26
0.0
 36
0.0
 17
0.0
 27
1.0
 37
0.0
 76
0
330
212
345
0
346
0
  0
LAYOUT
  5
539
102
{ACAD_REACTORS
330
1A
102
}
100
AcDbPlotSettings
  1

  2
none_device
  4
ISO_A4_(297.00_x_210.00_MM)
  6

 40
0.0
 41
0.0
 42
0.0
 43
0.0
 44
297.0
 45
210.0
 46
0.0
 47
0.0
 48
0.0
 49
0.0
140
0.0
141
0.0
142
1.0
143
1.0
 70
0
 72
1
 73
0
 74
0
  7

 75
0
147
1.0
148
0.0
149
0.0
100
AcDbLayout
  1
Layout1
 70
0
 71
1
 10
0.0
 20
0.0
 11
297.0
 21
210.0
 12
0.0
 22
0.0
 32
0.0
 14
0.0
 24
0.0
 34
0.0
 15
0.0
 25
0.0
 35
0.0
146
0.0
 13
0.0
 23
0.0
 33
0.0
 16
1.0
 26
0.0
 36
0.0
 17
0.0
 27
1.0
 37
0.0
 76
0
330
213
345
0
346
0
  0
ENDSEC
  0
EOF
