  0
SECTION
  2
HEADER
  9
$ACADVER
  1
AC1015
  9
$DWGCODEPAGE
  3
ANSI_1252
  9
$EXTMAX
 10
297.0
 20
210.0
 30
0.0
  9
$EXTMIN
 10
0.0
 20
0.0
 30
0.0
  9
$LIMMIN
 10
0.0
 20
0.0
  9
$LIMMAX
 10
297.0
 20
210.0
  9
$VIEWCTR
 10
148.5
 20
105.0
  9
$VIEWSIZE
 40
210.0
  9
$CLAYER
  8
0
  9
$LTSCALE
 40
16.335
  9
$CELTYPE
  6
BYLAYER
  9
$DIMSCALE
 40
1.0
  9
$DIMASZ
 40
3.0
  9
$DIMEXO
 40
1.85625
  9
$DIMDLI
 40
11.286
  9
$DIMEXE
 40
5.346
  9
$DIMCEN
 40
2.673
  9
$DIMLFAC
 40
1.0
  9
$DIMBLK
  1
_FILLED
  9
$DIMTXT
 40
3.0
  9
$DIMTOL
 70
1
  9
$DIMLIM
 70
0
  9
$DIMTFAC
 40
1.0
  9
$DIMTP
 40
0.01
  9
$DIMTM
 40
0.01
  9
$PDMODE
 70
3
  9
$PDSIZE
 40
3.0
  9
$HANDSEED
  5
5D8
  9
$TILEMODE
 70
1
  9
$MEASUREMENT
 70
1
  9
$INSUNITS
 70
4
  0
ENDSEC
  0
SECTION
  2
CLASSES
  0
CLASS
  1
ACDBDICTIONARYWDFLT
  2
AcDbDictionaryWithDefault
  3
AutoCAD 2000
 90
0
280
0
281
0
  0
CLASS
  1
ACDBPLACEHOLDER
  2
AcDbPlaceHolder
  3
AutoCAD 2000
 90
0
280
0
281
0
  0
CLASS
  1
LAYOUT
  2
AcDbLayout
  3
AutoCAD 2000
 90
0
280
0
281
0
  0
ENDSEC
  0
SECTION
  2
TABLES
  0
TABLE
  2
VPORT
  5
8
100
AcDbSymbolTable
 70
2
  0
VPORT
  5
1F4
100
AcDbSymbolTableRecord
100
AcDbViewportTableRecord
  2
*ACTIVE
 70
0
 10
0.0
 20
0.0
 11
1.0
 21
1.0
 12
148.5
 22
105.0
 13
0.0
 23
0.0
 14
1.0
 24
1.0
 15
0.0
 25
0.0
 16
0.0
 26
0.0
 36
1.0
 17
0.0
 27
0.0
 37
0.0
 40
210.0
 41
1.4142857143
 42
50.0
 43
0.0
 44
0.0
 50
0.0
 51
0.0
 71
0
 72
100
 73
1
 74
1
 75
0
 76
0
 77
0
 78
0
  0
ENDTAB
  0
TABLE
  2
LTYPE
  5
5
100
AcDbSymbolTable
 70
6
  0
LTYPE
  5
14
100
AcDbSymbolTableRecord
100
AcDbLinetypeTableRecord
  2
BYBLOCK
 70
0
  3

 72
65
 73
0
 40
0.0
  0
LTYPE
  5
15
100
AcDbSymbolTableRecord
100
AcDbLinetypeTableRecord
  2
BYLAYER
 70
0
  3

 72
65
 73
0
 40
0.0
  0
LTYPE
  5
16
100
AcDbSymbolTableRecord
100
AcDbLinetypeTableRecord
  2
CONTINUOUS
 70
64
  3
Solid line
 72
65
 73
0
 40
0.0
  0
LTYPE
  5
1F5
100
AcDbSymbolTableRecord
100
AcDbLinetypeTableRecord
  2
CENTER
 70
64
  3
____ _ ____ _ ____ _ ____ _ ____ _ ____ _ ____
 72
65
 73
4
 40
0.6
 49
0.375
 74
0
 49
-0.075
 74
0
 49
0.075
 74
0
 49
-0.075
 74
0
  0
LTYPE
  5
1F6
100
AcDbSymbolTableRecord
100
AcDbLinetypeTableRecord
  2
HIDDEN
 70
64
  3
- - - - - - - - - - - - - - - - - - - -
 72
65
 73
2
 40
0.2
 49
0.1
 74
0
 49
-0.1
 74
0
  0
LTYPE
  5
1F7
100
AcDbSymbolTableRecord
100
AcDbLinetypeTableRecord
  2
PHANTOM
 70
64
  3
_____ _ _ _____ _ _ _____ _ _ _____
 72
65
 73
6
 40
0.8
 49
0.45
 74
0
 49
-0.05
 74
0
 49
0.1
 74
0
 49
-0.05
 74
0
 49
0.1
 74
0
 49
-0.05
 74
0
  0
LTYPE
  5
1F8
100
AcDbSymbolTableRecord
100
AcDbLinetypeTableRecord
  2
DOT
 70
64
  3
. . . . . . . . . . . . . . . . . . . .
 72
65
 73
2
 40
0.2
 49
0.1
 74
0
 49
-0.1
 74
0
  0
LTYPE
  5
1F9
100
AcDbSymbolTableRecord
100
AcDbLinetypeTableRecord
  2
DASHED
 70
64
  3
- - - - - - - - - - - - - - - - - - - -
 72
65
 73
2
 40
0.2
 49
0.1
 74
0
 49
-0.1
 74
0
  0
ENDTAB
  0
TABLE
  2
LAYER
  5
2
100
AcDbSymbolTable
 70
36
  0
LAYER
  5
10
100
AcDbSymbolTableRecord
100
AcDbLayerTableRecord
  2
0
 70
0
 62
7
  6
CONTINUOUS
370
-3
390
F
  0
LAYER
  5
1FA
100
AcDbSymbolTableRecord
100
AcDbLayerTableRecord
  2
DEFAULT_1
 70
0
 62
7
  6
CENTER
370
-3
390
F
  0
LAYER
  5
1FB
100
AcDbSymbolTableRecord
100
AcDbLayerTableRecord
  2
DEFAULT_2
 70
0
 62
7
  6
HIDDEN
370
-3
390
F
  0
LAYER
  5
1FC
100
AcDbSymbolTableRecord
100
AcDbLayerTableRecord
  2
DEFAULT_3
 70
0
 62
7
  6
PHANTOM
370
-3
390
F
  0
LAYER
  5
1FD
100
AcDbSymbolTableRecord
100
AcDbLayerTableRecord
  2
ASSI
 70
0
 62
7
  6
CONTINUOUS
370
-3
390
F
  0
LAYER
  5
1FE
100
AcDbSymbolTableRecord
100
AcDbLayerTableRecord
  2
COORDINATE
 70
0
 62
7
  6
CONTINUOUS
370
-3
390
F
  0
LAYER
  5
1FF
100
AcDbSymbolTableRecord
100
AcDbLayerTableRecord
  2
COORD_ORIGINE
 70
0
 62
7
  6
CONTINUOUS
370
-3
390
F
  0
LAYER
  5
200
100
AcDbSymbolTableRecord
100
AcDbLayerTableRecord
  2
COPY-PUBBLISH
 70
0
 62
7
  6
CONTINUOUS
370
-3
390
F
  0
LAYER
  5
201
100
AcDbSymbolTableRecord
100
AcDbLayerTableRecord
  2
COPY_PUBLISH
 70
0
 62
7
  6
CONTINUOUS
370
-3
390
F
  0
LAYER
  5
202
100
AcDbSymbolTableRecord
100
AcDbLayerTableRecord
  2
COSMETIC
 70
0
 62
7
  6
CONTINUOUS
370
-3
390
F
  0
LAYER
  5
203
100
AcDbSymbolTableRecord
100
AcDbLayerTableRecord
  2
CURVE
 70
0
 62
7
  6
CONTINUOUS
370
-3
390
F
  0
LAYER
  5
204
100
AcDbSymbolTableRecord
100
AcDbLayerTableRecord
  2
DRAFT
 70
0
 62
7
  6
CONTINUOUS
370
-3
390
F
  0
LAYER
  5
205
100
AcDbSymbolTableRecord
100
AcDbLayerTableRecord
  2
IGES-SCRITTE
 70
0
 62
7
  6
CONTINUOUS
370
-3
390
F
  0
LAYER
  5
206
100
AcDbSymbolTableRecord
100
AcDbLayerTableRecord
  2
IMPORT_IGES
 70
0
 62
7
  6
CONTINUOUS
370
-3
390
F
  0
LAYER
  5
207
100
AcDbSymbolTableRecord
100
AcDbLayerTableRecord
  2
PIANI
 70
0
 62
7
  6
CONTINUOUS
370
-3
390
F
  0
LAYER
  5
208
100
AcDbSymbolTableRecord
100
AcDbLayerTableRecord
  2
PIANI-RIFERIMENTO
 70
0
 62
7
  6
CONTINUOUS
370
-3
390
F
  0
LAYER
  5
209
100
AcDbSymbolTableRecord
100
AcDbLayerTableRecord
  2
PIANI_ORIGINE
 70
0
 62
7
  6
CONTINUOUS
370
-3
390
F
  0
LAYER
  5
20A
100
AcDbSymbolTableRecord
100
AcDbLayerTableRecord
  2
PUNTI
 70
0
 62
7
  6
CONTINUOUS
370
-3
390
F
  0
LAYER
  5
20B
100
AcDbSymbolTableRecord
100
AcDbLayerTableRecord
  2
RACCORDO
 70
0
 62
7
  6
CONTINUOUS
370
-3
390
F
  0
LAYER
  5
20C
100
AcDbSymbolTableRecord
100
AcDbLayerTableRecord
  2
SMUSSO
 70
0
 62
7
  6
CONTINUOUS
370
-3
390
F
  0
LAYER
  5
20D
100
AcDbSymbolTableRecord
100
AcDbLayerTableRecord
  2
SNAPLINE
 70
0
 62
7
  6
CONTINUOUS
370
-3
390
F
  0
LAYER
  5
20E
100
AcDbSymbolTableRecord
100
AcDbLayerTableRecord
  2
TRASH
 70
0
 62
7
  6
CONTINUOUS
370
-3
390
F
  0
LAYER
  5
20F
100
AcDbSymbolTableRecord
100
AcDbLayerTableRecord
  2
XSEC_DATUMS
 70
0
 62
7
  6
CONTINUOUS
370
-3
390
F
  0
ENDTAB
  0
TABLE
  2
STYLE
  5
3
100
AcDbSymbolTable
 70
1
  0
STYLE
  5
11
100
AcDbSymbolTableRecord
100
AcDbTextStyleTableRecord
  2
STANDARD
 70
0
 40
0.0
 41
0.8
 50
0.0
 71
0
 42
0.2
  3
txt
  4

  0
STYLE
  5
210
100
AcDbSymbolTableRecord
100
AcDbTextStyleTableRecord
  2
TEXTSTYLE_1
 70
0
 40
0.0
 41
0.8
 50
0.0
 71
0
 42
0.2
  3
gdt
  4

  0
ENDTAB
  0
TABLE
  2
VIEW
  5
6
100
AcDbSymbolTable
 70
0
  0
ENDTAB
  0
TABLE
  2
UCS
  5
7
100
AcDbSymbolTable
 70
0
  0
ENDTAB
  0
TABLE
  2
APPID
  5
9
100
AcDbSymbolTable
 70
1
  0
APPID
  5
211
100
AcDbSymbolTableRecord
100
AcDbRegAppTableRecord
  2
ACAD
 70
0
  0
ENDTAB
  0
TABLE
  2
BLOCK_RECORD
  5
1
100
AcDbSymbolTable
 70
0
  0
BLOCK_RECORD
  5
212
100
AcDbSymbolTableRecord
100
AcDbBlockTableRecord
  2
*Model_Space
  0
BLOCK_RECORD
  5
213
100
AcDbSymbolTableRecord
100
AcDbBlockTableRecord
  2
*Paper_Space
  0
ENDTAB
  0
TABLE
  2
DIMSTYLE
  5
A
100
AcDbSymbolTable
 70
1
100
AcDbDimStyleTable
 71
0
  0
DIMSTYLE
105
214
100
AcDbSymbolTableRecord
100
AcDbDimStyleTableRecord
  2
STANDARD
 70
0
  3

  4

 40
1.0
 41
3.0
 42
0.0625
 43
0.38
 44
0.18
 45
0.0
 46
0.0
 47
0.01
 48
0.01
140
3.0
141
0.09
142
0.0
143
25.4
144
1.0
145
0.0
146
1.0
147
0.09
 71
1.0
 72
0.0
 73
0
 74
0
 75
0
 76
0
 77
1
 78
8
170
0
171
2
172
0
173
0
174
0
175
0
176
0
177
0
178
0
270
2
271
2
272
2
273
2
274
2
275
0
280
0
281
0
282
0
283
1
284
8
285
0
286
0
287
3
288
0
340
11
  0
ENDTAB
  0
ENDSEC
  0
SECTION
  2
BLOCKS
  0
BLOCK
  5
20
100
AcDbEntity
  8
0
100
AcDbBlockBegin
  2
*Model_Space
 70
0
 10
0.0
 20
0.0
 30
0.0
  3
*Model_Space
  1

  0
ENDBLK
  5
21
100
AcDbEntity
  8
0
100
AcDbBlockEnd
  0
BLOCK
  5
1C
100
AcDbEntity
  8
0
100
AcDbBlockBegin
  2
*Paper_Space
 70
0
 10
0.0
 20
0.0
 30
0.0
  3
*Paper_Space
  1

  0
ENDBLK
  5
1D
100
AcDbEntity
  8
0
100
AcDbBlockEnd
  0
ENDSEC
  0
SECTION
  2
ENTITIES
  0
LINE
  5
215
100
AcDbEntity
  8
RACCORDO
100
AcDbLine
 62
7
  6
CONTINUOUS
 10
1.6364159552
 20
48.7974464066
 11
-34.816599782
 21
29.0118782926
  0
LWPOLYLINE
  5
216
100
AcDbEntity
  8
COPY-PUBBLISH
100
AcDbPolyline
 62
7
  6
CONTINUOUS
 90
12
 70
0
 10
-38.8191517134
 20
-16.9753609788
 10
-38.8117048841
 20
-17.0823570199
 10
-38.7932916538
 20
-17.2031623056
 10
-38.7646156995
 20
-17.3180482419
 10
-38.7259171534
 20
-17.4264110175
 10
-38.6776657084
 20
-17.5271520076
 10
-38.6205079545
 20
-17.6194184084
 10
-38.5549338137
 20
-17.7029259863
 10
-38.4815379576
 20
-17.7771612371
 10
-38.4012250276
 20
-17.8413878621
 10
-38.3149970397
 20
-17.8951018975
 10
-38.2889350443
 20
-17.9087160355
  0
LWPOLYLINE
  5
217
100
AcDbEntity
  8
COPY-PUBBLISH
100
AcDbPolyline
 62
7
  6
CONTINUOUS
 90
10
 70
0
 10
-38.8192005252
 20
18.6387341591
 10
-38.9325250078
 20
14.7317951438
 10
-39.0209862338
 20
10.6969610624
 10
-39.0799506547
 20
6.6765098469
 10
-39.1094103681
 20
2.6708288289
 10
-39.1093636124
 20
-1.3197614139
 10
-39.0798098344
 20
-5.2949656702
 10
-39.020749636
 20
-9.2544650857
 10
-38.9321897651
 20
-13.1978803807
 10
-38.819181896
 20
-16.9753559591
  0
LWPOLYLINE
  5
218
100
AcDbEntity
  8
RACCORDO
100
AcDbPolyline
 62
7
  6
CONTINUOUS
 90
4
 70
0
 10
-18.7338542252
 20
32.5243110958
 10
-18.6328998254
 20
32.5965397205
 10
-18.5127128671
 20
32.6723126251
 10
-18.4918407015
 20
32.6845581711
  0
LWPOLYLINE
  5
219
100
AcDbEntity
  8
COPY-PUBBLISH
100
AcDbPolyline
 62
7
  6
CONTINUOUS
 90
15
 70
0
 10
-37.9131250259
 20
20.2244438286
 10
-38.0100918673
 20
20.1624965869
 10
-38.1182378068
 20
20.0797149372
 10
-38.2208341679
 20
19.9863789704
 10
-38.3174966644
 20
19.8833124135
 10
-38.4074432367
 20
19.7716595301
 10
-38.4902544714
 20
19.6523024075
 10
-38.5653794356
 20
19.5260773624
 10
-38.6318613204
 20
19.3946019647
 10
-38.6892629312
 20
19.2588643692
 10
-38.737016972
 20
19.1198105004
 10
-38.774408509
 20
18.9791203859
 10
-38.8009872301
 20
18.837852422
 10
-38.8162755672
 20
18.6966417759
 10
-38.8191794186
 20
18.6385353296
  0
LINE
  5
21A
100
AcDbEntity
  8
RACCORDO
100
AcDbLine
 62
7
  6
CONTINUOUS
 10
-1.0207648102
 20
44.3953006515
 11
-18.3080997793
 21
34.3599861365
  0
LINE
  5
21B
100
AcDbEntity
  8
RACCORDO
100
AcDbLine
 62
253
  6
CONTINUOUS
 10
-1.0207648102
 20
43.1391417686
 11
-18.3079264878
 21
33.1039278495
  0
LINE
  5
21C
100
AcDbEntity
  8
RACCORDO
100
AcDbLine
 62
7
  6
CONTINUOUS
 10
-1.2042139742
 20
42.7200666349
 11
-18.4915489396
 21
32.6847521221
  0
LINE
  5
21D
100
AcDbEntity
  8
DRAFT
100
AcDbLine
 62
7
  6
CONTINUOUS
 10
2.8818398789
 20
48.1747344448
 11
-2.0247117977
 21
45.4665669003
  0
LINE
  5
21E
100
AcDbEntity
  8
RACCORDO
100
AcDbLine
 62
7
  6
CONTINUOUS
 10
-0.7251344841
 20
45.0418960449
 11
-0.9327072689
 21
44.9381096525
  0
LINE
  5
21F
100
AcDbEntity
  8
RACCORDO
100
AcDbLine
 62
253
  6
CONTINUOUS
 10
-0.5909704055
 20
45.0333755088
 11
-0.9024662388
 21
44.8776275921
  0
LINE
  5
220
100
AcDbEntity
  8
RACCORDO
100
AcDbLine
 62
7
  6
CONTINUOUS
 10
9.8044303268
 20
-48.7366521535
 11
-27.6722290761
 21
-29.9983224521
  0
LINE
  5
221
100
AcDbEntity
  8
RACCORDO
100
AcDbLine
 62
253
  6
CONTINUOUS
 10
9.4145905483
 20
-47.9253414529
 11
-28.0620688546
 21
-29.1870117515
  0
LINE
  5
222
100
AcDbEntity
  8
COPY-PUBBLISH
100
AcDbLine
 62
7
  6
CONTINUOUS
 10
-35.8402434476
 20
-22.2507815007
 11
-35.8402434476
 21
-19.1277145555
  0
LINE
  5
223
100
AcDbEntity
  8
COPY-PUBBLISH
100
AcDbLine
 62
7
  6
CONTINUOUS
 10
-35.8402434476
 20
21.4331621291
 11
-35.8402434476
 21
27.201809693
  0
LINE
  5
224
100
AcDbEntity
  8
COPY-PUBBLISH
100
AcDbLine
 62
7
  6
CONTINUOUS
 10
-33.0118163229
 20
-16.3997247605
 11
-33.0118163229
 21
-18.4242710514
  0
LINE
  5
225
100
AcDbEntity
  8
COPY-PUBBLISH
100
AcDbLine
 62
7
  6
CONTINUOUS
 10
-33.0118163229
 20
18.5223258281
 11
-33.0118163229
 21
20.5468721189
  0
LINE
  5
226
100
AcDbEntity
  8
COPY-PUBBLISH
100
AcDbLine
 62
7
  6
CONTINUOUS
 10
-37.9135062163
 20
20.2242600387
 11
-35.7209361297
 21
21.5027292232
  0
LINE
  5
227
100
AcDbEntity
  8
COPY-PUBBLISH
100
AcDbLine
 62
253
  6
CONTINUOUS
 10
-37.6801521679
 20
20.2154926461
 11
-35.4869591817
 21
21.4943250381
  0
LINE
  5
228
100
AcDbEntity
  8
RACCORDO
100
AcDbLine
 62
7
  6
CONTINUOUS
 10
-33.0118163229
 20
20.2567536087
 11
-35.2829341441
 21
19.0168836342
  0
LWPOLYLINE
  5
229
100
AcDbEntity
  8
COPY-PUBBLISH
100
AcDbPolyline
 62
7
  6
CONTINUOUS
 90
11
 70
0
 10
-1.6120282854
 20
-36.2471675166
 10
-1.550624859
 20
-36.2751550658
 10
-1.4689652316
 20
-36.3041723573
 10
-1.3831954481
 20
-36.3255509882
 10
-1.294044063
 20
-36.3387298809
 10
-1.2025559084
 20
-36.3433421132
 10
-1.1093520408
 20
-36.339227915
 10
-1.0149924688
 20
-36.3262722474
 10
-0.9202704477
 20
-36.3044642511
 10
-0.825716897
 20
-36.2739084305
 10
-0.7760807886
 20
-36.254323191
  0
LINE
  5
22A
100
AcDbEntity
  8
RACCORDO
100
AcDbLine
 62
7
  6
CONTINUOUS
 10
2.0262557338
 20
-41.8004219027
 11
-35.4504036691
 21
-23.0620922013
  0
LINE
  5
22B
100
AcDbEntity
  8
RACCORDO
100
AcDbLine
 62
253
  6
CONTINUOUS
 10
9.4145905483
 20
-45.2381220636
 11
2.5646859509
 21
-41.8131697649
  0
LINE
  5
22C
100
AcDbEntity
  8
RACCORDO
100
AcDbLine
 62
253
  6
CONTINUOUS
 10
1.6364159552
 20
-40.9891112021
 11
-35.8402434476
 21
-22.2507815007
  0
LINE
  5
22D
100
AcDbEntity
  8
ASSI
100
AcDbLine
 62
253
  6
CONTINUOUS
 10
9.6627378895
 20
-44.2790427942
 11
8.1603047643
 21
-43.5278262316
  0
LINE
  5
22E
100
AcDbEntity
  8
ASSI
100
AcDbLine
 62
253
  6
CONTINUOUS
 10
8.6683348456
 20
-42.5431037799
 11
4.9965594276
 21
-40.7072160709
  0
LINE
  5
22F
100
AcDbEntity
  8
RACCORDO
100
AcDbLine
 62
7
  6
CONTINUOUS
 10
-1.6103968842
 20
-36.2480266824
 11
-3.9898229042
 21
-35.0583136724
  0
LINE
  5
230
100
AcDbEntity
  8
RACCORDO
100
AcDbLine
 62
7
  6
CONTINUOUS
 10
-35.9089348533
 20
-19.0987576978
 11
-38.288360874
 21
-17.9090446875
  0
LINE
  5
231
100
AcDbEntity
  8
COPY-PUBBLISH
100
AcDbLine
 62
7
  6
CONTINUOUS
 10
-38.288081868
 20
-17.9091841289
 11
-38.2888623816
 21
-17.9087935338
  0
LINE
  5
232
100
AcDbEntity
  8
COPY-PUBBLISH
100
AcDbLine
 62
7
  6
CONTINUOUS
 10
-1.6119505116
 20
-36.2472471536
 11
-1.6102307419
 21
-36.248109692
  0
LINE
  5
233
100
AcDbEntity
  8
DRAFT
100
AcDbLine
 62
7
  6
CONTINUOUS
 10
-28.259077055
 20
-20.8006406853
 11
-28.2034902108
 21
-22.1274722131
  0
LINE
  5
234
100
AcDbEntity
  8
COPY-PUBBLISH
100
AcDbLine
 62
7
  6
CONTINUOUS
 10
-31.5976027605
 20
-15.7833909158
 11
-31.5976027605
 21
-17.7322796486
  0
LINE
  5
235
100
AcDbEntity
  8
COPY-PUBBLISH
100
AcDbLine
 62
7
  6
CONTINUOUS
 10
-31.5976027605
 20
19.3202055457
 11
-31.5976027605
 21
19.8397653377
  0
LINE
  5
236
100
AcDbEntity
  8
SMUSSO
100
AcDbLine
 62
7
  6
CONTINUOUS
 10
-29.6530591123
 20
-18.5452458256
 11
-29.6530591123
 21
-18.0050023807
  0
LINE
  5
237
100
AcDbEntity
  8
DRAFT
100
AcDbLine
 62
7
  6
CONTINUOUS
 10
-28.259077055
 20
18.170502485
 11
-28.2034902108
 21
19.4417471686
  0
LINE
  5
238
100
AcDbEntity
  8
COPY-PUBBLISH
100
AcDbLine
 62
7
  6
CONTINUOUS
 10
-31.5976027605
 20
19.3202055457
 11
-33.0118163229
 21
18.5223258281
  0
LINE
  5
239
100
AcDbEntity
  8
COPY-PUBBLISH
100
AcDbLine
 62
7
  6
CONTINUOUS
 10
-33.0118163229
 20
18.5223258281
 11
-34.880355895
 21
17.5022351529
  0
LINE
  5
23A
100
AcDbEntity
  8
DRAFT
100
AcDbLine
 62
7
  6
CONTINUOUS
 10
-26.973188642
 20
18.8265963842
 11
-28.259077055
 21
18.170502485
  0
LINE
  5
23B
100
AcDbEntity
  8
COPY-PUBBLISH
100
AcDbLine
 62
7
  6
CONTINUOUS
 10
5.3853942387
 20
-30.6004506479
 11
5.1989923422
 21
-30.5655165456
  0
LINE
  5
23C
100
AcDbEntity
  8
COPY-PUBBLISH
100
AcDbLine
 62
253
  6
CONTINUOUS
 10
-2.0039244509
 20
-35.487399749
 11
-4.3719269979
 21
-34.3033984755
  0
LINE
  5
23D
100
AcDbEntity
  8
COPY-PUBBLISH
100
AcDbLine
 62
253
  6
CONTINUOUS
 10
-36.3047155585
 20
-18.3370041952
 11
-38.6727181055
 21
-17.1530029217
  0
LINE
  5
23E
100
AcDbEntity
  8
DRAFT
100
AcDbLine
 62
7
  6
CONTINUOUS
 10
-28.2034902108
 20
-22.1274722131
 11
-21.9102398583
 21
-25.2740973894
  0
LINE
  5
23F
100
AcDbEntity
  8
DRAFT
100
AcDbLine
 62
7
  6
CONTINUOUS
 10
-12.2935876341
 20
-30.0824235014
 11
-6.0003372816
 21
-33.2290486777
  0
LINE
  5
240
100
AcDbEntity
  8
ASSI
100
AcDbLine
 62
253
  6
CONTINUOUS
 10
11.1567622881
 20
-41.3513613966
 11
9.6673673164
 21
-40.6066639108
  0
LINE
  5
241
100
AcDbEntity
  8
0
100
AcDbLine
 62
7
  6
CONTINUOUS
 10
-25.940748511
 20
-22.056761535
 11
-21.858801861
 21
-24.09773486
  0
LINE
  5
242
100
AcDbEntity
  8
0
100
AcDbLine
 62
7
  6
CONTINUOUS
 10
-10.0308459343
 20
-30.0117128233
 11
-5.9488992843
 21
-32.0526861483
  0
LINE
  5
243
100
AcDbEntity
  8
COPY-PUBBLISH
100
AcDbLine
 62
7
  6
CONTINUOUS
 10
-33.0118163229
 20
-18.4242710514
 11
-28.259077055
 21
-20.8006406853
  0
LINE
  5
244
100
AcDbEntity
  8
DRAFT
100
AcDbLine
 62
7
  6
CONTINUOUS
 10
-21.8546530141
 20
-24.0028527058
 11
-12.3491744783
 21
-28.7555919737
  0
LINE
  5
245
100
AcDbEntity
  8
COPY-PUBBLISH
100
AcDbLine
 62
7
  6
CONTINUOUS
 10
-5.9447504374
 20
-31.9578039941
 11
-4.4190939502
 21
-32.7206322377
  0
LINE
  5
246
100
AcDbEntity
  8
ASSI
100
AcDbLine
 62
253
  6
CONTINUOUS
 10
11.9600192301
 20
-40.4857498822
 11
10.4776341755
 21
-39.7445573549
  0
LINE
  5
247
100
AcDbEntity
  8
DRAFT
100
AcDbLine
 62
7
  6
CONTINUOUS
 10
-9.4905226175
 20
-29.0797929537
 11
-9.5358711875
 21
-29.0571186687
  0
LINE
  5
248
100
AcDbEntity
  8
DRAFT
100
AcDbLine
 62
7
  6
CONTINUOUS
 10
-25.4004251942
 20
-21.1248416654
 11
-25.4457737642
 21
-21.1021673804
  0
LINE
  5
249
100
AcDbEntity
  8
0
100
AcDbLine
 62
7
  6
CONTINUOUS
 10
-25.304352408
 20
-20.95914062
 11
-21.132422399
 21
-23.0451056245
  0
LINE
  5
24A
100
AcDbEntity
  8
0
100
AcDbLine
 62
7
  6
CONTINUOUS
 10
-9.3944498313
 20
-28.9140919084
 11
-5.2225198223
 21
-31.0000569129
  0
LINE
  5
24B
100
AcDbEntity
  8
DRAFT
100
AcDbLine
 62
7
  6
CONTINUOUS
 10
-13.6079060067
 20
-26.7271280255
 11
-14.4440924894
 21
-26.3090347842
  0
LINE
  5
24C
100
AcDbEntity
  8
DRAFT
100
AcDbLine
 62
7
  6
CONTINUOUS
 10
-16.9313078783
 20
-25.0654270897
 11
-17.7674943609
 21
-24.6473338484
  0
LINE
  5
24D
100
AcDbEntity
  8
DRAFT
100
AcDbLine
 62
7
  6
CONTINUOUS
 10
-29.5178085834
 20
-18.7721767371
 11
-30.353995066
 21
-18.3540834958
  0
LINE
  5
24E
100
AcDbEntity
  8
DRAFT
100
AcDbLine
 62
7
  6
CONTINUOUS
 10
-24.738666983
 20
-20.6762979075
 11
-20.566736974
 21
-22.762262912
  0
LINE
  5
24F
100
AcDbEntity
  8
DRAFT
100
AcDbLine
 62
7
  6
CONTINUOUS
 10
-8.8287644063
 20
-28.6312491959
 11
-4.6568343973
 21
-30.7172142004
  0
LINE
  5
250
100
AcDbEntity
  8
DRAFT
100
AcDbLine
 62
7
  6
CONTINUOUS
 10
-30.4308765716
 20
-17.6160936511
 11
-29.6530591123
 21
-18.0050023807
  0
LINE
  5
251
100
AcDbEntity
  8
DRAFT
100
AcDbLine
 62
7
  6
CONTINUOUS
 10
-28.8045309748
 20
-18.4292664494
 11
-27.9913581765
 21
-18.8358528486
  0
LINE
  5
252
100
AcDbEntity
  8
DRAFT
100
AcDbLine
 62
7
  6
CONTINUOUS
 10
-17.8797312055
 20
-23.8916663341
 11
-17.0665584071
 21
-24.2982527333
  0
LINE
  5
253
100
AcDbEntity
  8
DRAFT
100
AcDbLine
 62
7
  6
CONTINUOUS
 10
-16.2180302697
 20
-24.722516802
 11
-15.4402128104
 21
-25.1114255317
  0
LINE
  5
254
100
AcDbEntity
  8
DRAFT
100
AcDbLine
 62
7
  6
CONTINUOUS
 10
-14.5209739949
 20
-25.5710449394
 11
-13.7431565356
 21
-25.9599536691
  0
LINE
  5
255
100
AcDbEntity
  8
DRAFT
100
AcDbLine
 62
7
  6
CONTINUOUS
 10
-12.8946283981
 20
-26.3842177378
 11
-12.0814555998
 21
-26.790804137
  0
LINE
  5
256
100
AcDbEntity
  8
DRAFT
100
AcDbLine
 62
253
  6
CONTINUOUS
 10
-25.4457737642
 20
-20.7486139898
 11
-25.4309877996
 21
-21.1015479309
  0
LINE
  5
257
100
AcDbEntity
  8
RACCORDO
100
AcDbLine
 62
7
  6
CONTINUOUS
 10
-28.0620688546
 20
-26.7562596085
 11
-28.0620688546
 21
-29.1870117515
  0
LINE
  5
258
100
AcDbEntity
  8
0
100
AcDbLine
 62
7
  6
CONTINUOUS
 10
-4.8689664317
 20
-27.7775440398
 11
-4.5469631975
 21
-27.7600820227
  0
LINE
  5
259
100
AcDbEntity
  8
0
100
AcDbLine
 62
7
  6
CONTINUOUS
 10
-5.9296266034
 20
-27.2472139539
 11
-4.5600336764
 21
-27.1729418578
  0
LINE
  5
25A
100
AcDbEntity
  8
DRAFT
100
AcDbLine
 62
7
  6
CONTINUOUS
 10
-6.6013780456
 20
-26.9113382329
 11
-4.5683116464
 21
-26.80108642
  0
LINE
  5
25B
100
AcDbEntity
  8
COPY-PUBBLISH
100
AcDbLine
 62
7
  6
CONTINUOUS
 10
6.2092231833
 20
-28.5359756541
 11
6.0410852115
 21
-28.474786199
  0
LINE
  5
25C
100
AcDbEntity
  8
COPY-PUBBLISH
100
AcDbLine
 62
7
  6
CONTINUOUS
 10
-31.5976027605
 20
-15.7833909158
 11
-32.8658937646
 21
-15.1492454138
  0
LINE
  5
25D
100
AcDbEntity
  8
DRAFT
100
AcDbLine
 62
7
  6
CONTINUOUS
 10
-23.026609539
 20
-19.2140514029
 11
-18.85467953
 21
-21.3000164074
  0
LINE
  5
25E
100
AcDbEntity
  8
DRAFT
100
AcDbLine
 62
7
  6
CONTINUOUS
 10
-7.1167069623
 20
-27.1690026912
 11
-4.531344658
 21
-28.4616838433
  0
LINE
  5
25F
100
AcDbEntity
  8
DRAFT
100
AcDbLine
 62
7
  6
CONTINUOUS
 10
-22.5112806223
 20
-18.9563869445
 11
-21.8395291801
 21
-19.2922626656
  0
LINE
  5
260
100
AcDbEntity
  8
DRAFT
100
AcDbLine
 62
7
  6
CONTINUOUS
 10
-19.0111020554
 20
-20.706476228
 11
-18.3393506133
 21
-21.042351949
  0
LINE
  5
261
100
AcDbEntity
  8
DRAFT
100
AcDbLine
 62
7
  6
CONTINUOUS
 10
-6.6013780456
 20
-26.9113382329
 11
-5.9296266034
 21
-27.2472139539
  0
LINE
  5
262
100
AcDbEntity
  8
0
100
AcDbLine
 62
7
  6
CONTINUOUS
 10
-4.5429456546
 20
-27.9405544284
 11
-5.9296266034
 21
-27.2472139539
  0
LINE
  5
263
100
AcDbEntity
  8
0
100
AcDbLine
 62
7
  6
CONTINUOUS
 10
-19.0111020554
 20
-20.706476228
 11
-21.8395291801
 21
-19.2922626656
  0
LINE
  5
264
100
AcDbEntity
  8
COPY-PUBBLISH
100
AcDbLine
 62
7
  6
CONTINUOUS
 10
3.9917370246
 20
-31.5477142954
 11
3.8503156683
 21
-31.4770036173
  0
LINE
  5
265
100
AcDbEntity
  8
COPY-PUBBLISH
100
AcDbLine
 62
7
  6
CONTINUOUS
 10
3.6455849207
 20
-31.2099037752
 11
3.5041635644
 21
-31.139193097
  0
LINE
  5
266
100
AcDbEntity
  8
COPY-PUBBLISH
100
AcDbLine
 62
7
  6
CONTINUOUS
 10
3.6455849207
 20
-30.9723036435
 11
3.5041635644
 21
-30.9015929653
  0
LINE
  5
267
100
AcDbEntity
  8
COPY-PUBBLISH
100
AcDbLine
 62
7
  6
CONTINUOUS
 10
3.6455849207
 20
-30.6757583587
 11
3.5041635644
 21
-30.6050476806
  0
LINE
  5
268
100
AcDbEntity
  8
COPY-PUBBLISH
100
AcDbLine
 62
7
  6
CONTINUOUS
 10
4.2250836766
 20
-30.6825542655
 11
4.0836623204
 21
-30.6118435874
  0
LINE
  5
269
100
AcDbEntity
  8
DRAFT
100
AcDbLine
 62
7
  6
CONTINUOUS
 10
-19.4028647591
 20
-18.787819659
 11
-18.731113317
 21
-19.1236953801
  0
LINE
  5
26A
100
AcDbEntity
  8
0
100
AcDbLine
 62
7
  6
CONTINUOUS
 10
-17.6704531452
 20
-19.654025466
 11
-16.9633463641
 21
-20.0075788566
  0
LINE
  5
26B
100
AcDbEntity
  8
DRAFT
100
AcDbLine
 62
7
  6
CONTINUOUS
 10
-15.9026861923
 20
-20.5379089425
 11
-15.3471178854
 21
-20.8156930959
  0
LINE
  5
26C
100
AcDbEntity
  8
DRAFT
100
AcDbLine
 62
7
  6
CONTINUOUS
 10
-20.0717622272
 20
-18.4151616118
 11
-19.7182088366
 21
-18.5919383071
  0
LINE
  5
26D
100
AcDbEntity
  8
COPY-PUBBLISH
100
AcDbLine
 62
7
  6
CONTINUOUS
 10
4.5067462278
 20
-30.5417229899
 11
4.3653248716
 21
-30.4710123118
  0
LINE
  5
26E
100
AcDbEntity
  8
COPY-PUBBLISH
100
AcDbLine
 62
7
  6
CONTINUOUS
 10
3.9917373324
 20
-29.7578886286
 11
3.8503156683
 21
-29.687177657
  0
LINE
  5
26F
100
AcDbEntity
  8
COPY-PUBBLISH
100
AcDbLine
 62
7
  6
CONTINUOUS
 10
5.4876044496
 20
-30.2979838133
 11
5.3461830934
 21
-30.2272731352
  0
LINE
  5
270
100
AcDbEntity
  8
COPY-PUBBLISH
100
AcDbLine
 62
7
  6
CONTINUOUS
 10
5.2603212383
 20
-30.1649354847
 11
5.118899882
 21
-30.0942248065
  0
LINE
  5
271
100
AcDbEntity
  8
COPY-PUBBLISH
100
AcDbLine
 62
7
  6
CONTINUOUS
 10
3.6863029576
 20
-31.7349796804
 11
3.7695425285
 21
-31.7850414711
  0
LINE
  5
272
100
AcDbEntity
  8
DRAFT
100
AcDbLine
 62
253
  6
CONTINUOUS
 10
-20.7788690084
 20
-18.4151616118
 11
-20.7601730365
 21
-18.861425567
  0
LINE
  5
273
100
AcDbEntity
  8
DRAFT
100
AcDbLine
 62
7
  6
CONTINUOUS
 10
-21.9102398583
 20
16.2951219923
 11
-21.8546530141
 21
14.9682904645
  0
LINE
  5
274
100
AcDbEntity
  8
DRAFT
100
AcDbLine
 62
7
  6
CONTINUOUS
 10
-24.3258795799
 20
-2.1723180568
 11
-24.3258795799
 21
15.6678052612
  0
LINE
  5
275
100
AcDbEntity
  8
DRAFT
100
AcDbLine
 62
7
  6
CONTINUOUS
 10
-21.6691771491
 20
-13.2525797125
 11
-21.6691771491
 21
-15.0052587226
  0
LINE
  5
276
100
AcDbEntity
  8
DRAFT
100
AcDbLine
 62
7
  6
CONTINUOUS
 10
-20.566736974
 20
-22.762262912
 11
-20.566736974
 21
-23.3720771659
  0
LINE
  5
277
100
AcDbEntity
  8
DRAFT
100
AcDbLine
 62
7
  6
CONTINUOUS
 10
-21.9102398583
 20
-25.2740973894
 11
-21.8546530141
 21
-24.0028527058
  0
LINE
  5
278
100
AcDbEntity
  8
DRAFT
100
AcDbLine
 62
7
  6
CONTINUOUS
 10
-23.1255916626
 20
-20.6491831107
 11
-23.026609539
 21
-19.2140514029
  0
LINE
  5
279
100
AcDbEntity
  8
DRAFT
100
AcDbLine
 62
7
  6
CONTINUOUS
 10
-23.2144668591
 20
-21.4383979695
 11
-23.1255916626
 21
-20.6491831107
  0
LINE
  5
27A
100
AcDbEntity
  8
COPY-PUBBLISH
100
AcDbLine
 62
7
  6
CONTINUOUS
 10
5.8764929247
 20
-29.6055542894
 11
5.7350714396
 21
-29.5348452297
  0
LINE
  5
27B
100
AcDbEntity
  8
COPY-PUBBLISH
100
AcDbLine
 62
7
  6
CONTINUOUS
 10
5.3853935786
 20
-29.3114964183
 11
5.2439722224
 21
-29.2407857402
  0
LINE
  5
27C
100
AcDbEntity
  8
COPY-PUBBLISH
100
AcDbLine
 62
7
  6
CONTINUOUS
 10
5.7740115109
 20
-29.1025199135
 11
5.6325903311
 21
-29.0318096796
  0
LINE
  5
27D
100
AcDbEntity
  8
DRAFT
100
AcDbLine
 62
7
  6
CONTINUOUS
 10
-21.6691771491
 20
-15.0052587226
 11
-20.8624630684
 21
-15.408615763
  0
LINE
  5
27E
100
AcDbEntity
  8
DRAFT
100
AcDbLine
 62
7
  6
CONTINUOUS
 10
-9.1180317831
 20
-21.2808314057
 11
-8.3113177023
 21
-21.684188446
  0
LINE
  5
27F
100
AcDbEntity
  8
DRAFT
100
AcDbLine
 62
7
  6
CONTINUOUS
 10
-5.7592745724
 20
-22.960210011
 11
-4.9525604917
 21
-23.3635670514
  0
LINE
  5
280
100
AcDbEntity
  8
DRAFT
100
AcDbLine
 62
7
  6
CONTINUOUS
 10
-17.2433351024
 20
-16.6473946589
 11
-12.0936269108
 21
-19.2222487547
  0
LINE
  5
281
100
AcDbEntity
  8
DRAFT
100
AcDbLine
 62
7
  6
CONTINUOUS
 10
-23.4032583884
 20
-12.3855390929
 11
-21.6691771491
 21
-13.2525797125
  0
LINE
  5
282
100
AcDbEntity
  8
DRAFT
100
AcDbLine
 62
7
  6
CONTINUOUS
 10
-19.0753880692
 20
-14.5494742524
 11
-17.2939092565
 21
-15.4402136588
  0
LINE
  5
283
100
AcDbEntity
  8
DRAFT
100
AcDbLine
 62
7
  6
CONTINUOUS
 10
-10.8995105958
 20
-18.6374129892
 11
-9.1180317831
 21
-19.5281523955
  0
LINE
  5
284
100
AcDbEntity
  8
DRAFT
100
AcDbLine
 62
7
  6
CONTINUOUS
 10
-6.5242427032
 20
-20.8250469355
 11
-5.7592745724
 21
-21.2075310008
  0
LINE
  5
285
100
AcDbEntity
  8
DRAFT
100
AcDbLine
 62
7
  6
CONTINUOUS
 10
-17.2939092565
 20
-15.4402136588
 11
-17.2433351024
 21
-16.6473946589
  0
LINE
  5
286
100
AcDbEntity
  8
RACCORDO
100
AcDbLine
 62
253
  6
CONTINUOUS
 10
-18.3080997793
 20
34.3599861365
 11
-18.3079264878
 21
33.1039278495
  0
LINE
  5
287
100
AcDbEntity
  8
SMUSSO
100
AcDbLine
 62
7
  6
CONTINUOUS
 10
-17.0665584071
 20
-24.8384961781
 11
-17.0665584071
 21
-24.2982527333
  0
LINE
  5
288
100
AcDbEntity
  8
DRAFT
100
AcDbLine
 62
253
  6
CONTINUOUS
 10
-20.0889332051
 20
-18.8250246859
 11
-20.0717622272
 21
-18.4151616118
  0
LINE
  5
289
100
AcDbEntity
  8
DRAFT
100
AcDbLine
 62
253
  6
CONTINUOUS
 10
-19.7271519233
 20
-18.8054055321
 11
-19.7182088366
 21
-18.5919383071
  0
LINE
  5
28A
100
AcDbEntity
  8
DRAFT
100
AcDbLine
 62
7
  6
CONTINUOUS
 10
-18.85467953
 20
-21.3000164074
 11
-18.9427332148
 21
-22.5766977964
  0
LINE
  5
28B
100
AcDbEntity
  8
0
100
AcDbLine
 62
7
  6
CONTINUOUS
 10
11.4524821912
 20
26.5686465274
 11
11.5939035474
 21
26.6393572055
  0
LINE
  5
28C
100
AcDbEntity
  8
0
100
AcDbLine
 62
7
  6
CONTINUOUS
 10
11.1828630826
 20
25.6779087985
 11
11.3242844389
 21
25.7486194767
  0
LINE
  5
28D
100
AcDbEntity
  8
0
100
AcDbLine
 62
7
  6
CONTINUOUS
 10
14.2690730555
 20
26.2834388196
 11
14.4104944117
 21
26.3541494978
  0
LINE
  5
28E
100
AcDbEntity
  8
0
100
AcDbLine
 62
7
  6
CONTINUOUS
 10
12.7488104465
 20
24.8949351166
 11
12.8902318028
 21
24.9656457947
  0
LINE
  5
28F
100
AcDbEntity
  8
DRAFT
100
AcDbLine
 62
7
  6
CONTINUOUS
 10
-18.3393506133
 20
-21.042351949
 11
-15.4949638125
 21
-20.8881027806
  0
LINE
  5
290
100
AcDbEntity
  8
0
100
AcDbLine
 62
7
  6
CONTINUOUS
 10
-19.0111020554
 20
-20.706476228
 11
-15.9026861923
 21
-20.5379089425
  0
LINE
  5
291
100
AcDbEntity
  8
0
100
AcDbLine
 62
7
  6
CONTINUOUS
 10
-20.0717622272
 20
-20.1761461421
 11
-16.9633463641
 21
-20.0075788566
  0
LINE
  5
292
100
AcDbEntity
  8
0
100
AcDbLine
 62
7
  6
CONTINUOUS
 10
-20.7788690084
 20
-19.8225927515
 11
-17.6704531452
 21
-19.654025466
  0
LINE
  5
293
100
AcDbEntity
  8
0
100
AcDbLine
 62
7
  6
CONTINUOUS
 10
-21.8395291801
 20
-19.2922626656
 11
-18.731113317
 21
-19.1236953801
  0
LINE
  5
294
100
AcDbEntity
  8
DRAFT
100
AcDbLine
 62
7
  6
CONTINUOUS
 10
-22.5112806223
 20
-18.9563869445
 11
-19.4028647591
 21
-18.787819659
  0
LINE
  5
295
100
AcDbEntity
  8
RACCORDO
100
AcDbLine
 62
253
  6
CONTINUOUS
 10
27.0689021647
 20
-32.7698218552
 11
25.7183703339
 21
-32.0945559398
  0
LINE
  5
296
100
AcDbEntity
  8
RACCORDO
100
AcDbLine
 62
253
  6
CONTINUOUS
 10
-9.0572254075
 20
-14.7067580691
 11
-9.5130003411
 21
-14.4788706024
  0
LINE
  5
297
100
AcDbEntity
  8
DRAFT
100
AcDbLine
 62
7
  6
CONTINUOUS
 10
-7.1415442604
 20
-15.2810193278
 11
-5.47550898
 21
-16.1140369679
  0
LINE
  5
298
100
AcDbEntity
  8
DRAFT
100
AcDbLine
 62
7
  6
CONTINUOUS
 10
26.0017463514
 20
-31.8526646336
 11
26.0305828449
 21
-31.8670828804
  0
LINE
  5
299
100
AcDbEntity
  8
COPY-PUBBLISH
100
AcDbLine
 62
7
  6
CONTINUOUS
 10
3.6876817638
 20
-29.873678289
 11
4.2250836766
 21
-30.3860089807
  0
LINE
  5
29A
100
AcDbEntity
  8
ASSI
100
AcDbLine
 62
7
  6
CONTINUOUS
 10
4.3627834304
 20
-30.1757377476
 11
3.8503159855
 21
-29.6871779593
  0
LINE
  5
29B
100
AcDbEntity
  8
COPY-PUBBLISH
100
AcDbLine
 62
7
  6
CONTINUOUS
 10
4.5042047867
 20
-30.2464484257
 11
3.9917373324
 21
-29.7578886286
  0
LINE
  5
29C
100
AcDbEntity
  8
DRAFT
100
AcDbLine
 62
7
  6
CONTINUOUS
 10
-12.3491744783
 20
-28.7555919737
 11
-12.2935876341
 21
-30.0824235014
  0
LINE
  5
29D
100
AcDbEntity
  8
SMUSSO
100
AcDbLine
 62
7
  6
CONTINUOUS
 10
-13.7431565356
 20
-26.5001971139
 11
-13.7431565356
 21
-25.9599536691
  0
LINE
  5
29E
100
AcDbEntity
  8
DRAFT
100
AcDbLine
 62
7
  6
CONTINUOUS
 10
-12.3491744783
 20
10.2155511966
 11
-12.2935876341
 21
11.4867958802
  0
LINE
  5
29F
100
AcDbEntity
  8
DRAFT
100
AcDbLine
 62
7
  6
CONTINUOUS
 10
-11.0632860653
 20
10.8716450958
 11
-12.3491744783
 21
10.2155511966
  0
LINE
  5
2A0
100
AcDbEntity
  8
0
100
AcDbLine
 62
7
  6
CONTINUOUS
 10
14.96936757
 20
25.2482611379
 11
15.1107889262
 21
25.318971816
  0
LINE
  5
2A1
100
AcDbEntity
  8
0
100
AcDbLine
 62
7
  6
CONTINUOUS
 10
15.6724431354
 20
25.572796479
 11
15.8138644916
 21
25.6435071571
  0
LINE
  5
2A2
100
AcDbEntity
  8
0
100
AcDbLine
 62
7
  6
CONTINUOUS
 10
13.6115309242
 20
24.4635748778
 11
13.7529522804
 21
24.5342855559
  0
LINE
  5
2A3
100
AcDbEntity
  8
0
100
AcDbLine
 62
7
  6
CONTINUOUS
 10
14.9269786398
 20
23.80585102
 11
14.9741712292
 21
23.8294473147
  0
LINE
  5
2A4
100
AcDbEntity
  8
0
100
AcDbLine
 62
7
  6
CONTINUOUS
 10
17.5277930414
 20
24.8917984699
 11
17.6692143976
 21
24.962509148
  0
LINE
  5
2A5
100
AcDbEntity
  8
0
100
AcDbLine
 62
7
  6
CONTINUOUS
 10
15.7876640641
 20
23.3755083078
 11
15.9290854203
 21
23.4462189859
  0
LINE
  5
2A6
100
AcDbEntity
  8
0
100
AcDbLine
 62
7
  6
CONTINUOUS
 10
16.4243543236
 20
23.0571631781
 11
16.5657756798
 21
23.1278738562
  0
LINE
  5
2A7
100
AcDbEntity
  8
0
100
AcDbLine
 62
7
  6
CONTINUOUS
 10
17.1338362764
 20
23.359323255
 11
17.2752576327
 21
23.4300339331
  0
LINE
  5
2A8
100
AcDbEntity
  8
0
100
AcDbLine
 62
7
  6
CONTINUOUS
 10
19.3385782545
 20
24.329982178
 11
19.4799996108
 21
24.4006928561
  0
LINE
  5
2A9
100
AcDbEntity
  8
0
100
AcDbLine
 62
7
  6
CONTINUOUS
 10
17.7854952794
 20
23.5418004361
 11
17.9269166356
 21
23.6125111142
  0
LINE
  5
2AA
100
AcDbEntity
  8
0
100
AcDbLine
 62
7
  6
CONTINUOUS
 10
17.8975738255
 20
22.9774544805
 11
18.0389951817
 21
23.0481651586
  0
LINE
  5
2AB
100
AcDbEntity
  8
0
100
AcDbLine
 62
253
  6
CONTINUOUS
 10
20.0947207091
 20
23.5599468115
 11
20.2361420654
 21
23.6306574896
  0
LINE
  5
2AC
100
AcDbEntity
  8
COPY-PUBBLISH
100
AcDbLine
 62
253
  6
CONTINUOUS
 10
-20.9910010427
 20
-5.0821041869
 11
-19.5481106425
 21
-5.6489418164
  0
LINE
  5
2AD
100
AcDbEntity
  8
RACCORDO
100
AcDbLine
 62
253
  6
CONTINUOUS
 10
31.8668920181
 20
-31.7972415819
 11
30.7845562119
 21
-31.2560736788
  0
LINE
  5
2AE
100
AcDbEntity
  8
RACCORDO
100
AcDbLine
 62
253
  6
CONTINUOUS
 10
-4.6539487976
 20
-13.5368211741
 11
-4.7638493675
 21
-13.4818708891
  0
LINE
  5
2AF
100
AcDbEntity
  8
RACCORDO
100
AcDbLine
 62
253
  6
CONTINUOUS
 10
33.4138555629
 20
-30.957597674
 11
32.1186953016
 21
-30.3100175434
  0
LINE
  5
2B0
100
AcDbEntity
  8
DRAFT
100
AcDbLine
 62
253
  6
CONTINUOUS
 10
-9.5358711875
 20
-28.7035652781
 11
-9.5210852229
 21
-29.0564992192
  0
LINE
  5
2B1
100
AcDbEntity
  8
DRAFT
100
AcDbLine
 62
7
  6
CONTINUOUS
 10
-9.1180317831
 20
-19.5281523955
 11
-9.1180317831
 21
-21.2808314057
  0
LINE
  5
2B2
100
AcDbEntity
  8
COPY-PUBBLISH
100
AcDbLine
 62
7
  6
CONTINUOUS
 10
-8.2630789814
 20
9.4715415538
 11
-8.2630789814
 21
7.3440346703
  0
LINE
  5
2B3
100
AcDbEntity
  8
0
100
AcDbLine
 62
7
  6
CONTINUOUS
 10
-25.940748511
 20
-22.056761535
 11
-25.304352408
 21
-20.95914062
  0
LINE
  5
2B4
100
AcDbEntity
  8
SMUSSO
100
AcDbLine
 62
7
  6
CONTINUOUS
 10
-29.7455638164
 20
-18.6582991206
 11
-29.6530591123
 21
-18.5452458256
  0
LINE
  5
2B5
100
AcDbEntity
  8
DRAFT
100
AcDbLine
 62
7
  6
CONTINUOUS
 10
37.8676514345
 20
30.681828667
 11
32.8747081744
 21
28.0168569142
  0
LINE
  5
2B6
100
AcDbEntity
  8
RACCORDO
100
AcDbLine
 62
7
  6
CONTINUOUS
 10
30.7788746103
 20
28.4954809413
 11
12.2404775097
 21
19.085697492
  0
LINE
  5
2B7
100
AcDbEntity
  8
0
100
AcDbLine
 62
7
  6
CONTINUOUS
 10
18.0428552777
 20
22.247912701
 11
18.1842766339
 21
22.3186233791
  0
LINE
  5
2B8
100
AcDbEntity
  8
0
100
AcDbLine
 62
7
  6
CONTINUOUS
 10
19.3571740683
 20
22.8784733797
 11
19.4985954245
 21
22.9491840578
  0
LINE
  5
2B9
100
AcDbEntity
  8
COPY-PUBBLISH
100
AcDbLine
 62
7
  6
CONTINUOUS
 10
8.7074837671
 20
-9.2345510164
 11
7.6993156672
 21
-9.3243094606
  0
LINE
  5
2BA
100
AcDbEntity
  8
COPY-PUBBLISH
100
AcDbLine
 62
7
  6
CONTINUOUS
 10
7.5051307101
 20
-9.5137150511
 11
8.5265514053
 21
-9.4254900006
  0
LINE
  5
2BB
100
AcDbEntity
  8
ASSI
100
AcDbLine
 62
7
  6
CONTINUOUS
 10
7.498021039
 20
-9.4314032225
 11
8.385130049
 21
-9.3547793225
  0
LINE
  5
2BC
100
AcDbEntity
  8
COPY-PUBBLISH
100
AcDbLine
 62
7
  6
CONTINUOUS
 10
8.7074837671
 20
-8.2500299547
 11
8.357522479
 21
-8.271167248
  0
LINE
  5
2BD
100
AcDbEntity
  8
COPY-PUBBLISH
100
AcDbLine
 62
7
  6
CONTINUOUS
 10
8.2135124048
 20
-8.2816255917
 11
7.6795301124
 21
-8.3106338229
  0
LINE
  5
2BE
100
AcDbEntity
  8
COPY-PUBBLISH
100
AcDbLine
 62
7
  6
CONTINUOUS
 10
7.5051307101
 20
-8.5025515839
 11
8.7074837671
 21
-8.4551065024
  0
LINE
  5
2BF
100
AcDbEntity
  8
ASSI
100
AcDbLine
 62
7
  6
CONTINUOUS
 10
7.5110150295
 20
-8.4260281956
 11
8.5660624109
 21
-8.3843958243
  0
LINE
  5
2C0
100
AcDbEntity
  8
RACCORDO
100
AcDbLine
 62
253
  6
CONTINUOUS
 10
34.3645002214
 20
-29.9760245272
 11
33.0776361103
 21
-29.3325924717
  0
LINE
  5
2C1
100
AcDbEntity
  8
RACCORDO
100
AcDbLine
 62
253
  6
CONTINUOUS
 10
34.4562211086
 20
-29.8178293973
 11
33.1701574336
 21
-29.1747975598
  0
LINE
  5
2C2
100
AcDbEntity
  8
RACCORDO
100
AcDbLine
 62
253
  6
CONTINUOUS
 10
34.870434671
 20
-28.3859777447
 11
33.587985783
 21
-27.7447533007
  0
LINE
  5
2C3
100
AcDbEntity
  8
RACCORDO
100
AcDbLine
 62
7
  6
CONTINUOUS
 10
11.5359108919
 20
-15.0026261512
 11
21.290941736
 21
-19.8801415733
  0
LINE
  5
2C4
100
AcDbEntity
  8
RACCORDO
100
AcDbLine
 62
253
  6
CONTINUOUS
 10
11.5359108919
 20
-14.8793479889
 11
21.4154121221
 21
-19.8190986041
  0
LINE
  5
2C5
100
AcDbEntity
  8
COPY-PUBBLISH
100
AcDbLine
 62
253
  6
CONTINUOUS
 10
16.4856583602
 20
-23.8204338883
 11
15.0427679599
 21
-22.9443811176
  0
LINE
  5
2C6
100
AcDbEntity
  8
DRAFT
100
AcDbLine
 62
253
  6
CONTINUOUS
 10
-4.8689664317
 20
-26.3701129002
 11
-4.8502704598
 21
-26.8163768553
  0
LINE
  5
2C7
100
AcDbEntity
  8
DRAFT
100
AcDbLine
 62
7
  6
CONTINUOUS
 10
-6.0003372816
 20
8.3401707039
 11
-5.9447504374
 21
7.0133391762
  0
LINE
  5
2C8
100
AcDbEntity
  8
DRAFT
100
AcDbLine
 62
7
  6
CONTINUOUS
 10
-7.1415442604
 20
-13.3124278315
 11
-7.1415442604
 21
-15.2810193278
  0
LINE
  5
2C9
100
AcDbEntity
  8
DRAFT
100
AcDbLine
 62
7
  6
CONTINUOUS
 10
-7.0468536425
 20
8.8634288844
 11
-7.0468536425
 21
6.6193142118
  0
LINE
  5
2CA
100
AcDbEntity
  8
DRAFT
100
AcDbLine
 62
7
  6
CONTINUOUS
 10
-5.7592745724
 20
-21.2075310008
 11
-5.7592745724
 21
-22.960210011
  0
LINE
  5
2CB
100
AcDbEntity
  8
DRAFT
100
AcDbLine
 62
7
  6
CONTINUOUS
 10
-5.47550898
 20
-12.4929588037
 11
-5.47550898
 21
-16.1140369679
  0
LINE
  5
2CC
100
AcDbEntity
  8
RACCORDO
100
AcDbLine
 62
253
  6
CONTINUOUS
 10
-4.9787664062
 20
-15.4287440446
 11
-4.9787664062
 21
-13.6543134341
  0
LINE
  5
2CD
100
AcDbEntity
  8
RACCORDO
100
AcDbLine
 62
7
  6
CONTINUOUS
 10
-4.7638493675
 20
-15.1559446994
 11
-4.7638493675
 21
-13.3815140944
  0
LINE
  5
2CE
100
AcDbEntity
  8
DRAFT
100
AcDbLine
 62
7
  6
CONTINUOUS
 10
-4.6568343973
 20
-30.7172142004
 11
-4.6568343973
 21
-31.3270284543
  0
LWPOLYLINE
  5
2CF
100
AcDbEntity
  8
RACCORDO
100
AcDbPolyline
 62
7
  6
CONTINUOUS
 90
7
 70
0
 10
-4.7638369653
 20
-13.3812538062
 10
-4.7616765154
 20
-13.2934169291
 10
-4.751907332
 20
-13.169892895
 10
-4.7335685668
 20
-13.0377621303
 10
-4.7061830816
 20
-12.8988227883
 10
-4.6697356543
 20
-12.7556821884
 10
-4.6477269685
 20
-12.6851495558
  0
LINE
  5
2D0
100
AcDbEntity
  8
RACCORDO
100
AcDbLine
 62
7
  6
CONTINUOUS
 10
-4.7666424813
 20
-15.2651534362
 11
-4.7638698199
 21
-15.1556721502
  0
LINE
  5
2D1
100
AcDbEntity
  8
DRAFT
100
AcDbLine
 62
7
  6
CONTINUOUS
 10
-6.0003372816
 20
-33.2290486777
 11
-5.9447504374
 21
-31.9578039941
  0
LINE
  5
2D2
100
AcDbEntity
  8
DRAFT
100
AcDbLine
 62
7
  6
CONTINUOUS
 10
-7.2156890859
 20
-28.6041343991
 11
-7.1167069623
 21
-27.1690026912
  0
LINE
  5
2D3
100
AcDbEntity
  8
DRAFT
100
AcDbLine
 62
7
  6
CONTINUOUS
 10
-7.3045642824
 20
-29.3933492579
 11
-7.2156890859
 21
-28.6041343991
  0
LINE
  5
2D4
100
AcDbEntity
  8
0
100
AcDbLine
 62
7
  6
CONTINUOUS
 10
-21.6215185676
 20
-23.888671733
 11
-21.132422399
 21
-23.0451056245
  0
LINE
  5
2D5
100
AcDbEntity
  8
RACCORDO
100
AcDbLine
 62
7
  6
CONTINUOUS
 10
-1.1920111695
 20
4.346851032
 11
-3.3852041557
 21
3.06801864
  0
LINE
  5
2D6
100
AcDbEntity
  8
RACCORDO
100
AcDbLine
 62
7
  6
CONTINUOUS
 10
39.1130753581
 20
30.0591167052
 11
2.6600596209
 21
10.2735485911
  0
LINE
  5
2D7
100
AcDbEntity
  8
COPY-PUBBLISH
100
AcDbLine
 62
7
  6
CONTINUOUS
 10
-2.5153669653
 20
4.0752091226
 11
-1.5273665086
 21
4.5779074071
  0
LINE
  5
2D8
100
AcDbEntity
  8
DRAFT
100
AcDbLine
 62
7
  6
CONTINUOUS
 10
-11.8378151508
 20
-1.7331883026
 11
-19.5481106425
 21
-5.6489418164
  0
LINE
  5
2D9
100
AcDbEntity
  8
COPY-PUBBLISH
100
AcDbLine
 62
7
  6
CONTINUOUS
 10
-13.2128264497
 20
-1.1930168903
 11
-20.9910010427
 21
-5.0821041869
  0
LINE
  5
2DA
100
AcDbEntity
  8
COPY-PUBBLISH
100
AcDbLine
 62
7
  6
CONTINUOUS
 10
-1.5273665086
 20
4.4765079995
 11
-2.3940926975
 21
4.043144905
  0
LINE
  5
2DB
100
AcDbEntity
  8
COPY-PUBBLISH
100
AcDbLine
 62
7
  6
CONTINUOUS
 10
37.3453084052
 20
-12.1781733005
 11
39.1130753581
 21
-12.544289824
  0
LINE
  5
2DC
100
AcDbEntity
  8
DRAFT
100
AcDbLine
 62
7
  6
CONTINUOUS
 10
36.084457413
 20
-11.5477478044
 11
37.8676514345
 21
-11.9215778622
  0
LINE
  5
2DD
100
AcDbEntity
  8
COPY-PUBBLISH
100
AcDbLine
 62
253
  6
CONTINUOUS
 10
-13.2128264497
 20
-1.1930168903
 11
-11.8378151508
 21
-1.7331883026
  0
LINE
  5
2DE
100
AcDbEntity
  8
COPY-PUBBLISH
100
AcDbLine
 62
7
  6
CONTINUOUS
 10
7.6993156672
 20
-10.3539071446
 11
7.5771943534
 21
-10.2928464877
  0
LINE
  5
2DF
100
AcDbEntity
  8
COPY-PUBBLISH
100
AcDbLine
 62
7
  6
CONTINUOUS
 10
8.7074837671
 20
-10.0426029476
 11
8.5660624109
 21
-9.9718922695
  0
LINE
  5
2E0
100
AcDbEntity
  8
COPY-PUBBLISH
100
AcDbLine
 62
7
  6
CONTINUOUS
 10
7.6993156672
 20
-9.3243094606
 11
7.557894311
 21
-9.2535987825
  0
LINE
  5
2E1
100
AcDbEntity
  8
COPY-PUBBLISH
100
AcDbLine
 62
7
  6
CONTINUOUS
 10
8.5265514053
 20
-9.4254900006
 11
8.385130049
 21
-9.3547793225
  0
LINE
  5
2E2
100
AcDbEntity
  8
COPY-PUBBLISH
100
AcDbLine
 62
7
  6
CONTINUOUS
 10
8.7074837671
 20
-9.4354966229
 11
8.5660624109
 21
-9.3647859448
  0
LINE
  5
2E3
100
AcDbEntity
  8
COPY-PUBBLISH
100
AcDbLine
 62
7
  6
CONTINUOUS
 10
7.6795301124
 20
-8.3106338229
 11
7.5381087562
 21
-8.2399231448
  0
LINE
  5
2E4
100
AcDbEntity
  8
COPY-PUBBLISH
100
AcDbLine
 62
7
  6
CONTINUOUS
 10
8.7074837671
 20
-8.8202254107
 11
8.5660624109
 21
-8.7495147326
  0
LINE
  5
2E5
100
AcDbEntity
  8
COPY-PUBBLISH
100
AcDbLine
 62
7
  6
CONTINUOUS
 10
8.7074837671
 20
-8.4551065024
 11
8.5660624109
 21
-8.3843958243
  0
LINE
  5
2E6
100
AcDbEntity
  8
COPY-PUBBLISH
100
AcDbLine
 62
7
  6
CONTINUOUS
 10
8.357522479
 20
-8.271167248
 11
8.2161011227
 21
-8.2004565699
  0
LINE
  5
2E7
100
AcDbEntity
  8
COPY-PUBBLISH
100
AcDbLine
 62
253
  6
CONTINUOUS
 10
24.2638329532
 20
-19.9313465918
 11
22.8888216543
 21
-19.0965067052
  0
LINE
  5
2E8
100
AcDbEntity
  8
COPY-PUBBLISH
100
AcDbLine
 62
7
  6
CONTINUOUS
 10
-2.7256477515
 20
3.4526004343
 11
-2.7256477515
 21
3.7084098602
  0
LINE
  5
2E9
100
AcDbEntity
  8
COPY-PUBBLISH
100
AcDbLine
 62
7
  6
CONTINUOUS
 10
-2.6062247319
 20
3.6772712667
 11
-2.6062247319
 21
3.5222349931
  0
LINE
  5
2EA
100
AcDbEntity
  8
RACCORDO
100
AcDbLine
 62
7
  6
CONTINUOUS
 10
-1.5273665086
 20
42.5324762791
 11
-1.5273665086
 21
23.8347716698
  0
LINE
  5
2EB
100
AcDbEntity
  8
RACCORDO
100
AcDbLine
 62
7
  6
CONTINUOUS
 10
-1.5273665086
 20
4.8046472118
 11
-1.5273665086
 21
4.1513081531
  0
LINE
  5
2EC
100
AcDbEntity
  8
RACCORDO
100
AcDbLine
 62
253
  6
CONTINUOUS
 10
-1.4394985429
 20
42.5834837173
 11
-1.4394985429
 21
23.790837687
  0
LINE
  5
2ED
100
AcDbEntity
  8
RACCORDO
100
AcDbLine
 62
253
  6
CONTINUOUS
 10
-1.4394985429
 20
4.7607132289
 11
-1.4394985429
 21
4.2025432252
  0
LINE
  5
2EE
100
AcDbEntity
  8
COPY-PUBBLISH
100
AcDbLine
 62
7
  6
CONTINUOUS
 10
-1.1920111695
 20
4.346851032
 11
-1.1920111695
 21
4.6369695422
  0
LINE
  5
2EF
100
AcDbEntity
  8
RACCORDO
100
AcDbLine
 62
253
  6
CONTINUOUS
 10
-1.0207648102
 20
43.1391417686
 11
-1.0207648102
 21
44.3953006515
  0
LINE
  5
2F0
100
AcDbEntity
  8
RACCORDO
100
AcDbLine
 62
7
  6
CONTINUOUS
 10
-0.8058477715
 20
43.4119366944
 11
-0.8058477715
 21
44.6843388221
  0
LINE
  5
2F1
100
AcDbEntity
  8
COPY-PUBBLISH
100
AcDbLine
 62
253
  6
CONTINUOUS
 10
1.2831316893
 20
3.1092796026
 11
-0.9879861319
 21
1.8694096281
  0
LINE
  5
2F2
100
AcDbEntity
  8
COPY-PUBBLISH
100
AcDbLine
 62
253
  6
CONTINUOUS
 10
1.6364159552
 20
2.499426576
 11
-0.6221533919
 21
1.2664071823
  0
LINE
  5
2F3
100
AcDbEntity
  8
COPY-PUBBLISH
100
AcDbLine
 62
7
  6
CONTINUOUS
 10
5.8790546043
 20
3.1747786628
 11
5.3481445734
 21
2.9093236473
  0
LINE
  5
2F4
100
AcDbEntity
  8
COPY-PUBBLISH
100
AcDbLine
 62
7
  6
CONTINUOUS
 10
2.8064938303
 20
1.6384982758
 11
2.275585955
 21
1.3730443381
  0
LINE
  5
2F5
100
AcDbEntity
  8
COPY-PUBBLISH
100
AcDbLine
 62
7
  6
CONTINUOUS
 10
4.3424853226
 20
2.0600838604
 11
3.8121552367
 21
1.7949188174
  0
LINE
  5
2F6
100
AcDbEntity
  8
COPY-PUBBLISH
100
AcDbLine
 62
7
  6
CONTINUOUS
 10
8.7074837671
 20
4.0395434267
 11
8.2235278653
 21
3.7975654758
  0
LINE
  5
2F7
100
AcDbEntity
  8
ASSI
100
AcDbLine
 62
7
  6
CONTINUOUS
 10
8.082106509
 20
3.6693925539
 11
8.5660624109
 21
3.9113705048
  0
LINE
  5
2F8
100
AcDbEntity
  8
COPY-PUBBLISH
100
AcDbLine
 62
7
  6
CONTINUOUS
 10
8.2235278653
 20
3.5986818758
 11
8.7074837671
 21
3.8406598267
  0
LINE
  5
2F9
100
AcDbEntity
  8
DRAFT
100
AcDbLine
 62
7
  6
CONTINUOUS
 10
-34.9142773404
 20
-16.058835184
 11
-32.8658937646
 21
-15.1492454138
  0
LINE
  5
2FA
100
AcDbEntity
  8
COPY-PUBBLISH
100
AcDbLine
 62
7
  6
CONTINUOUS
 10
8.7074837671
 20
0.9815271856
 11
8.357522479
 21
0.9604020167
  0
LINE
  5
2FB
100
AcDbEntity
  8
COPY-PUBBLISH
100
AcDbLine
 62
7
  6
CONTINUOUS
 10
8.2135124048
 20
0.9499324147
 11
7.6795301124
 21
0.920911193
  0
LINE
  5
2FC
100
AcDbEntity
  8
COPY-PUBBLISH
100
AcDbLine
 62
7
  6
CONTINUOUS
 10
7.5051307101
 20
0.7290886949
 11
8.7074837671
 21
0.7764627623
  0
LINE
  5
2FD
100
AcDbEntity
  8
ASSI
100
AcDbLine
 62
7
  6
CONTINUOUS
 10
7.5110037842
 20
0.8056029398
 11
8.5660624109
 21
0.8471734404
  0
LINE
  5
2FE
100
AcDbEntity
  8
COPY-PUBBLISH
100
AcDbLine
 62
7
  6
CONTINUOUS
 10
8.4854171601
 20
-5.9520676148
 11
8.5279607674
 21
-5.9692900395
  0
LINE
  5
2FF
100
AcDbEntity
  8
COPY-PUBBLISH
100
AcDbLine
 62
7
  6
CONTINUOUS
 10
8.2135124048
 20
-7.8242515952
 11
8.0720910486
 21
-7.753540917
  0
LINE
  5
300
100
AcDbEntity
  8
COPY-PUBBLISH
100
AcDbLine
 62
7
  6
CONTINUOUS
 10
8.357522479
 20
-7.680517138
 11
8.2161011227
 21
-7.6098064599
  0
LINE
  5
301
100
AcDbEntity
  8
COPY-PUBBLISH
100
AcDbLine
 62
7
  6
CONTINUOUS
 10
7.6440842637
 20
-7.2824292883
 11
7.5026629074
 21
-7.2117186102
  0
LINE
  5
302
100
AcDbEntity
  8
COPY-PUBBLISH
100
AcDbLine
 62
253
  6
CONTINUOUS
 10
7.6440842637
 20
-6.9006896204
 11
7.5127930678
 21
-6.8350440225
  0
LINE
  5
303
100
AcDbEntity
  8
COPY-PUBBLISH
100
AcDbLine
 62
7
  6
CONTINUOUS
 10
8.7074837671
 20
-7.3599342409
 11
8.5660624109
 21
-7.2892235627
  0
LINE
  5
304
100
AcDbEntity
  8
COPY-PUBBLISH
100
AcDbLine
 62
7
  6
CONTINUOUS
 10
8.7074837671
 20
-6.9497326481
 11
8.5660624109
 21
-6.87902197
  0
LINE
  5
305
100
AcDbEntity
  8
COPY-PUBBLISH
100
AcDbLine
 62
7
  6
CONTINUOUS
 10
7.7963265676
 20
-6.4736767966
 11
7.6736244627
 21
-6.4123257442
  0
LINE
  5
306
100
AcDbEntity
  8
COPY-PUBBLISH
100
AcDbLine
 62
253
  6
CONTINUOUS
 10
8.0977788237
 20
-6.2430873668
 11
7.9563574675
 21
-6.1723766886
  0
LINE
  5
307
100
AcDbEntity
  8
COPY-PUBBLISH
100
AcDbLine
 62
253
  6
CONTINUOUS
 10
8.1148356535
 20
-6.2345589519
 11
7.9734142973
 21
-6.1638482738
  0
LINE
  5
308
100
AcDbEntity
  8
COPY-PUBBLISH
100
AcDbLine
 62
7
  6
CONTINUOUS
 10
8.3397458641
 20
-6.16544834
 11
8.1983245079
 21
-6.0947376619
  0
LINE
  5
309
100
AcDbEntity
  8
COPY-PUBBLISH
100
AcDbLine
 62
253
  6
CONTINUOUS
 10
8.7074837671
 20
-6.3437331038
 11
8.5660624109
 21
-6.2730224257
  0
LINE
  5
30A
100
AcDbEntity
  8
COPY-PUBBLISH
100
AcDbLine
 62
7
  6
CONTINUOUS
 10
7.6491407843
 20
-5.7888183249
 11
7.507719428
 21
-5.7181076468
  0
LINE
  5
30B
100
AcDbEntity
  8
ASSI
100
AcDbLine
 62
7
  6
CONTINUOUS
 10
8.3091021685
 20
-6.1133019705
 11
8.4505235247
 21
-6.1840126486
  0
LINE
  5
30C
100
AcDbEntity
  8
COPY-PUBBLISH
100
AcDbLine
 62
7
  6
CONTINUOUS
 10
8.1615874325
 20
-5.5325950008
 11
8.0201660763
 21
-5.4618843227
  0
LINE
  5
30D
100
AcDbEntity
  8
COPY-PUBBLISH
100
AcDbLine
 62
7
  6
CONTINUOUS
 10
8.7074837671
 20
-5.4586378207
 11
8.5660624109
 21
-5.3879271426
  0
LINE
  5
30E
100
AcDbEntity
  8
COPY-PUBBLISH
100
AcDbLine
 62
253
  6
CONTINUOUS
 10
-2.0039244509
 20
0.1292938806
 11
-4.3719269979
 21
1.3132951541
  0
LINE
  5
30F
100
AcDbEntity
  8
COPY-PUBBLISH
100
AcDbLine
 62
253
  6
CONTINUOUS
 10
-36.3047155585
 20
17.2796894344
 11
-38.6727181055
 21
18.4636907079
  0
LINE
  5
310
100
AcDbEntity
  8
COPY-PUBBLISH
100
AcDbLine
 62
7
  6
CONTINUOUS
 10
7.7310286993
 20
-3.2661339467
 11
7.6091358517
 21
-3.2051875229
  0
LINE
  5
311
100
AcDbEntity
  8
COPY-PUBBLISH
100
AcDbLine
 62
7
  6
CONTINUOUS
 10
1.6364159552
 20
8.4634799915
 11
1.6364159552
 21
-40.9891112021
  0
LINE
  5
312
100
AcDbEntity
  8
DRAFT
100
AcDbLine
 62
7
  6
CONTINUOUS
 10
2.8818398789
 20
48.1747344448
 11
2.8818398789
 21
43.3725729421
  0
LINE
  5
313
100
AcDbEntity
  8
COPY-PUBBLISH
100
AcDbLine
 62
7
  6
CONTINUOUS
 10
3.4170515445
 20
-30.5525201778
 11
3.4170515445
 21
-31.3241704632
  0
LINE
  5
314
100
AcDbEntity
  8
ASSI
100
AcDbLine
 62
7
  6
CONTINUOUS
 10
3.5041635644
 20
-31.139193097
 11
3.5041635644
 21
-30.9015929653
  0
LINE
  5
315
100
AcDbEntity
  8
ASSI
100
AcDbLine
 62
7
  6
CONTINUOUS
 10
3.5041635644
 20
-30.6050476806
 11
3.5041635644
 21
-30.5089641679
  0
LINE
  5
316
100
AcDbEntity
  8
COPY-PUBBLISH
100
AcDbLine
 62
7
  6
CONTINUOUS
 10
3.6455849207
 20
-31.2099037752
 11
3.6455849207
 21
-30.9723036435
  0
LINE
  5
317
100
AcDbEntity
  8
COPY-PUBBLISH
100
AcDbLine
 62
7
  6
CONTINUOUS
 10
3.6455849207
 20
-30.6757583587
 11
3.6455849207
 21
-30.4382534898
  0
LINE
  5
318
100
AcDbEntity
  8
COPY-PUBBLISH
100
AcDbLine
 62
7
  6
CONTINUOUS
 10
3.8121552367
 20
1.7949188174
 11
3.8121552367
 21
0.5300851541
  0
LINE
  5
319
100
AcDbEntity
  8
ASSI
100
AcDbLine
 62
7
  6
CONTINUOUS
 10
4.2010639663
 20
0.8659635702
 11
4.2010639663
 21
1.9893731823
  0
LINE
  5
31A
100
AcDbEntity
  8
COPY-PUBBLISH
100
AcDbLine
 62
7
  6
CONTINUOUS
 10
4.3424853226
 20
0.7952528921
 11
4.3424853226
 21
2.0600838604
  0
LINE
  5
31B
100
AcDbEntity
  8
0
100
AcDbLine
 62
7
  6
CONTINUOUS
 10
11.9802567932
 20
28.569711838
 11
11.4524821912
 21
26.5686465274
  0
LINE
  5
31C
100
AcDbEntity
  8
0
100
AcDbLine
 62
7
  6
CONTINUOUS
 10
12.0950435902
 20
28.5394371859
 11
11.5939035474
 21
26.6393572055
  0
LINE
  5
31D
100
AcDbEntity
  8
0
100
AcDbLine
 62
7
  6
CONTINUOUS
 10
11.6770826394
 20
25.4307990202
 11
12.5406898289
 21
28.2894953201
  0
LINE
  5
31E
100
AcDbEntity
  8
ASSI
100
AcDbLine
 62
7
  6
CONTINUOUS
 10
8.0617617966
 20
3.6434800611
 11
8.082106509
 21
3.6693925539
  0
LINE
  5
31F
100
AcDbEntity
  8
COPY-PUBBLISH
100
AcDbLine
 62
7
  6
CONTINUOUS
 10
7.5051307101
 20
2.6836794524
 11
8.2235278653
 21
3.5986818758
  0
LINE
  5
320
100
AcDbEntity
  8
COPY-PUBBLISH
100
AcDbLine
 62
7
  6
CONTINUOUS
 10
8.082921096
 20
3.6268672302
 11
7.5051307101
 21
2.9154330466
  0
LINE
  5
321
100
AcDbEntity
  8
SMUSSO
100
AcDbLine
 62
7
  6
CONTINUOUS
 10
-17.1590631113
 20
-24.9515494732
 11
-17.0665584071
 21
-24.8384961781
  0
LINE
  5
322
100
AcDbEntity
  8
COPY-PUBBLISH
100
AcDbLine
 62
7
  6
CONTINUOUS
 10
8.7074837671
 20
2.0891693469
 11
7.5051307101
 21
0.9546614658
  0
LINE
  5
323
100
AcDbEntity
  8
COPY-PUBBLISH
100
AcDbLine
 62
7
  6
CONTINUOUS
 10
8.357522479
 20
1.5511118824
 11
8.7074837671
 21
1.8717069039
  0
LINE
  5
324
100
AcDbEntity
  8
COPY-PUBBLISH
100
AcDbLine
 62
7
  6
CONTINUOUS
 10
7.6795301124
 20
0.920911193
 11
8.2135124048
 21
1.4073064112
  0
LINE
  5
325
100
AcDbEntity
  8
COPY-PUBBLISH
100
AcDbLine
 62
7
  6
CONTINUOUS
 10
8.7074837671
 20
3.2172116026
 11
8.563473693
 21
3.1452065656
  0
LINE
  5
326
100
AcDbEntity
  8
COPY-PUBBLISH
100
AcDbLine
 62
7
  6
CONTINUOUS
 10
8.563473693
 20
2.3986164573
 11
7.5051307101
 21
1.8694449658
  0
LINE
  5
327
100
AcDbEntity
  8
COPY-PUBBLISH
100
AcDbLine
 62
7
  6
CONTINUOUS
 10
36.2846482334
 20
16.2167451
 11
35.5775414522
 21
15.8631917094
  0
LINE
  5
328
100
AcDbEntity
  8
ASSI
100
AcDbLine
 62
7
  6
CONTINUOUS
 10
7.5051307101
 20
1.8118632106
 11
8.5660624109
 21
2.342329061
  0
LINE
  5
329
100
AcDbEntity
  8
COPY-PUBBLISH
100
AcDbLine
 62
7
  6
CONTINUOUS
 10
7.5051307101
 20
1.6704418543
 11
8.7074837671
 21
2.2716183828
  0
LINE
  5
32A
100
AcDbEntity
  8
COPY-PUBBLISH
100
AcDbLine
 62
7
  6
CONTINUOUS
 10
24.2638329532
 20
10.0331323792
 11
16.4856583602
 21
6.1440450826
  0
LINE
  5
32B
100
AcDbEntity
  8
COPY-PUBBLISH
100
AcDbLine
 62
7
  6
CONTINUOUS
 10
36.545845775
 20
14.9617032248
 11
39.1130753581
 21
16.2453180163
  0
LINE
  5
32C
100
AcDbEntity
  8
COPY-PUBBLISH
100
AcDbLine
 62
7
  6
CONTINUOUS
 10
5.8790544933
 20
-0.6228380511
 11
5.3481467289
 21
-0.8882919333
  0
LINE
  5
32D
100
AcDbEntity
  8
COPY-PUBBLISH
100
AcDbLine
 62
7
  6
CONTINUOUS
 10
2.8064938303
 20
-2.1591183826
 11
2.275586066
 21
-2.4245722648
  0
LINE
  5
32E
100
AcDbEntity
  8
COPY-PUBBLISH
100
AcDbLine
 62
7
  6
CONTINUOUS
 10
7.6491407843
 20
0.1898651263
 11
7.5051307101
 21
0.1178600893
  0
LINE
  5
32F
100
AcDbEntity
  8
COPY-PUBBLISH
100
AcDbLine
 62
7
  6
CONTINUOUS
 10
8.7074837671
 20
0.2206346678
 11
7.6491407843
 21
-0.3085368237
  0
LINE
  5
330
100
AcDbEntity
  8
ASSI
100
AcDbLine
 62
7
  6
CONTINUOUS
 10
7.507719428
 20
-0.4367452526
 11
8.5660624109
 21
0.0924262388
  0
LINE
  5
331
100
AcDbEntity
  8
COPY-PUBBLISH
100
AcDbLine
 62
7
  6
CONTINUOUS
 10
7.6491407843
 20
-0.5074559307
 11
8.7074837671
 21
0.0217155607
  0
LINE
  5
332
100
AcDbEntity
  8
COPY-PUBBLISH
100
AcDbLine
 62
7
  6
CONTINUOUS
 10
7.5051307101
 20
-1.0778620518
 11
7.6491407843
 21
-1.0058570147
  0
LINE
  5
333
100
AcDbEntity
  8
COPY-PUBBLISH
100
AcDbLine
 62
7
  6
CONTINUOUS
 10
8.7074837671
 20
-0.6899919103
 11
7.5051307101
 21
-1.2911684389
  0
LINE
  5
334
100
AcDbEntity
  8
ASSI
100
AcDbLine
 62
7
  6
CONTINUOUS
 10
7.5051307101
 20
-1.3487389358
 11
8.5660624109
 21
-0.8182730854
  0
LINE
  5
335
100
AcDbEntity
  8
COPY-PUBBLISH
100
AcDbLine
 62
7
  6
CONTINUOUS
 10
7.5051307101
 20
-1.490160292
 11
8.7074837671
 21
-0.8889837635
  0
LINE
  5
336
100
AcDbEntity
  8
DRAFT
100
AcDbLine
 62
7
  6
CONTINUOUS
 10
-31.5976027605
 20
-16.4664980669
 11
-23.4032583884
 21
-12.3855390929
  0
LINE
  5
337
100
AcDbEntity
  8
DRAFT
100
AcDbLine
 62
7
  6
CONTINUOUS
 10
-21.6691771491
 20
-13.2525797125
 11
-30.4308765716
 21
-17.6160936511
  0
LINE
  5
338
100
AcDbEntity
  8
DRAFT
100
AcDbLine
 62
7
  6
CONTINUOUS
 10
-30.353995066
 20
-18.3540834958
 11
-29.6530591123
 21
-18.0050023807
  0
LINE
  5
339
100
AcDbEntity
  8
DRAFT
100
AcDbLine
 62
7
  6
CONTINUOUS
 10
-28.6747228609
 20
-18.4941705064
 11
-21.6691771491
 21
-15.0052587226
  0
LINE
  5
33A
100
AcDbEntity
  8
COPY-PUBBLISH
100
AcDbLine
 62
7
  6
CONTINUOUS
 10
-31.5976027605
 20
-17.7322796486
 11
-33.0118163229
 21
-18.4242710514
  0
LINE
  5
33B
100
AcDbEntity
  8
DRAFT
100
AcDbLine
 62
7
  6
CONTINUOUS
 10
-29.5178085834
 20
-18.7721767371
 11
-28.8045309748
 21
-18.4292664494
  0
LINE
  5
33C
100
AcDbEntity
  8
COPY-PUBBLISH
100
AcDbLine
 62
7
  6
CONTINUOUS
 10
-33.0118163229
 20
-16.3997247605
 11
-31.5976027605
 21
-15.7833909158
  0
LINE
  5
33D
100
AcDbEntity
  8
COPY-PUBBLISH
100
AcDbLine
 62
7
  6
CONTINUOUS
 10
-34.880355895
 20
-17.1840617754
 11
-33.0118163229
 21
-16.3997247605
  0
LINE
  5
33E
100
AcDbEntity
  8
RACCORDO
100
AcDbLine
 62
7
  6
CONTINUOUS
 10
-35.2829341441
 20
-19.0874755528
 11
-33.0118163229
 21
-18.1341525411
  0
LINE
  5
33F
100
AcDbEntity
  8
COPY-PUBBLISH
100
AcDbLine
 62
253
  6
CONTINUOUS
 10
29.2135804215
 20
-11.3942950311
 11
27.7641395046
 21
-10.7861823617
  0
LINE
  5
340
100
AcDbEntity
  8
COPY-PUBBLISH
100
AcDbLine
 62
7
  6
CONTINUOUS
 10
8.7074837671
 20
-3.5101213654
 11
8.5660624109
 21
-3.4394106872
  0
LINE
  5
341
100
AcDbEntity
  8
COPY-PUBBLISH
100
AcDbLine
 62
253
  6
CONTINUOUS
 10
-0.9879861319
 20
1.8694096281
 11
-3.3852041557
 21
3.06801864
  0
LINE
  5
342
100
AcDbEntity
  8
COPY-PUBBLISH
100
AcDbLine
 62
253
  6
CONTINUOUS
 10
-35.2829341441
 20
19.0168836342
 11
-37.6801521679
 21
20.2154926461
  0
LINE
  5
343
100
AcDbEntity
  8
COPY-PUBBLISH
100
AcDbLine
 62
7
  6
CONTINUOUS
 10
8.7074837671
 20
-2.9707763323
 11
8.5660624109
 21
-2.9000656542
  0
LINE
  5
344
100
AcDbEntity
  8
COPY-PUBBLISH
100
AcDbLine
 62
7
  6
CONTINUOUS
 10
8.4817830607
 20
-2.107260119
 11
8.3403617045
 21
-2.0365494409
  0
LINE
  5
345
100
AcDbEntity
  8
COPY-PUBBLISH
100
AcDbLine
 62
7
  6
CONTINUOUS
 10
8.7074837671
 20
-2.0251831125
 11
8.5660624109
 21
-1.9544724344
  0
LINE
  5
346
100
AcDbEntity
  8
COPY-PUBBLISH
100
AcDbLine
 62
253
  6
CONTINUOUS
 10
-2.463082384
 20
3.6057000927
 11
-2.6062247319
 21
3.6772712667
  0
LINE
  5
347
100
AcDbEntity
  8
COPY-PUBBLISH
100
AcDbLine
 62
253
  6
CONTINUOUS
 10
33.587985783
 20
-14.4198339908
 11
34.870434671
 21
-15.0610584348
  0
LINE
  5
348
100
AcDbEntity
  8
COPY-PUBBLISH
100
AcDbLine
 62
7
  6
CONTINUOUS
 10
7.6491407843
 20
-1.0058570147
 11
7.507719428
 21
-0.9351463366
  0
LINE
  5
349
100
AcDbEntity
  8
COPY-PUBBLISH
100
AcDbLine
 62
253
  6
CONTINUOUS
 10
-2.0273485471
 20
3.8597728298
 11
-2.3940926975
 21
4.043144905
  0
LINE
  5
34A
100
AcDbEntity
  8
COPY-PUBBLISH
100
AcDbLine
 62
253
  6
CONTINUOUS
 10
33.8019690656
 20
-14.0548859766
 11
35.0825667054
 21
-14.6951847965
  0
LINE
  5
34B
100
AcDbEntity
  8
COPY-PUBBLISH
100
AcDbLine
 62
7
  6
CONTINUOUS
 10
4.3424853226
 20
0.7952528921
 11
4.2010639663
 21
0.8659644363
  0
LINE
  5
34C
100
AcDbEntity
  8
COPY-PUBBLISH
100
AcDbLine
 62
7
  6
CONTINUOUS
 10
7.6491407843
 20
-0.5074559307
 11
7.507719428
 21
-0.4367452526
  0
LINE
  5
34D
100
AcDbEntity
  8
COPY-PUBBLISH
100
AcDbLine
 62
7
  6
CONTINUOUS
 10
8.7074837671
 20
-0.8889837635
 11
8.5660624109
 21
-0.8182730854
  0
LINE
  5
34E
100
AcDbEntity
  8
COPY-PUBBLISH
100
AcDbLine
 62
7
  6
CONTINUOUS
 10
7.6491407843
 20
-0.3085368237
 11
7.507719428
 21
-0.2378261455
  0
LINE
  5
34F
100
AcDbEntity
  8
COPY-PUBBLISH
100
AcDbLine
 62
7
  6
CONTINUOUS
 10
-35.4869591817
 20
21.4943250381
 11
-33.0118163229
 21
20.2567536087
  0
LINE
  5
350
100
AcDbEntity
  8
COPY-PUBBLISH
100
AcDbLine
 62
7
  6
CONTINUOUS
 10
-1.1920111695
 20
4.346851032
 11
1.2831316893
 21
3.1092796026
  0
LINE
  5
351
100
AcDbEntity
  8
COPY-PUBBLISH
100
AcDbLine
 62
7
  6
CONTINUOUS
 10
-1.1920111695
 20
4.6369695422
 11
-5.9447504374
 21
7.0133391762
  0
LINE
  5
352
100
AcDbEntity
  8
DRAFT
100
AcDbLine
 62
7
  6
CONTINUOUS
 10
-12.3491744783
 20
10.2155511966
 11
-21.8546530141
 21
14.9682904645
  0
LINE
  5
353
100
AcDbEntity
  8
COPY-PUBBLISH
100
AcDbLine
 62
7
  6
CONTINUOUS
 10
-28.259077055
 20
18.170502485
 11
-33.0118163229
 21
20.5468721189
  0
LINE
  5
354
100
AcDbEntity
  8
COPY-PUBBLISH
100
AcDbLine
 62
7
  6
CONTINUOUS
 10
36.2846482334
 20
-14.0941440324
 11
35.0145410002
 21
-13.4590904158
  0
LINE
  5
355
100
AcDbEntity
  8
COPY-PUBBLISH
100
AcDbLine
 62
7
  6
CONTINUOUS
 10
8.7074837671
 20
0.0217155607
 11
8.5660624109
 21
0.0924262388
  0
LINE
  5
356
100
AcDbEntity
  8
COPY-PUBBLISH
100
AcDbLine
 62
7
  6
CONTINUOUS
 10
7.6795301124
 20
0.920911193
 11
7.5381087562
 21
0.9916218711
  0
LINE
  5
357
100
AcDbEntity
  8
COPY-PUBBLISH
100
AcDbLine
 62
7
  6
CONTINUOUS
 10
8.7074837671
 20
0.7764627623
 11
8.5660624109
 21
0.8471734404
  0
LINE
  5
358
100
AcDbEntity
  8
COPY-PUBBLISH
100
AcDbLine
 62
7
  6
CONTINUOUS
 10
8.357522479
 20
0.9604020167
 11
8.2161011227
 21
1.0311126948
  0
LINE
  5
359
100
AcDbEntity
  8
COPY-PUBBLISH
100
AcDbLine
 62
253
  6
CONTINUOUS
 10
-8.2630789814
 20
7.3440346703
 11
-7.0468536425
 21
6.6193142118
  0
LINE
  5
35A
100
AcDbEntity
  8
COPY-PUBBLISH
100
AcDbLine
 62
7
  6
CONTINUOUS
 10
5.2603212383
 20
-29.6217946623
 11
5.2603212383
 21
-29.8683901999
  0
LINE
  5
35B
100
AcDbEntity
  8
COPY-PUBBLISH
100
AcDbLine
 62
7
  6
CONTINUOUS
 10
5.2603212383
 20
-30.1649354847
 11
5.2603212383
 21
-30.411625419
  0
LINE
  5
35C
100
AcDbEntity
  8
ASSI
100
AcDbLine
 62
7
  6
CONTINUOUS
 10
5.3461830934
 20
-30.2272731352
 11
5.3461830934
 21
-29.5788637347
  0
LINE
  5
35D
100
AcDbEntity
  8
COPY-PUBBLISH
100
AcDbLine
 62
7
  6
CONTINUOUS
 10
5.4876044496
 20
-30.2979838133
 11
5.4876044496
 21
-29.5081530566
  0
LINE
  5
35E
100
AcDbEntity
  8
COPY-PUBBLISH
100
AcDbLine
 62
7
  6
CONTINUOUS
 10
7.5051307101
 20
3.9942893895
 11
7.5051307101
 21
3.7603923824
  0
LINE
  5
35F
100
AcDbEntity
  8
COPY-PUBBLISH
100
AcDbLine
 62
7
  6
CONTINUOUS
 10
7.5051307101
 20
2.9154330466
 11
7.5051307101
 21
2.6836794524
  0
LINE
  5
360
100
AcDbEntity
  8
COPY-PUBBLISH
100
AcDbLine
 62
7
  6
CONTINUOUS
 10
7.5051307101
 20
1.8694449658
 11
7.5051307101
 21
1.6704418543
  0
LINE
  5
361
100
AcDbEntity
  8
COPY-PUBBLISH
100
AcDbLine
 62
7
  6
CONTINUOUS
 10
7.5051307101
 20
0.9546614658
 11
7.5051307101
 21
0.7290886949
  0
LINE
  5
362
100
AcDbEntity
  8
COPY-PUBBLISH
100
AcDbLine
 62
7
  6
CONTINUOUS
 10
7.5051307101
 20
0.1178600893
 11
7.5051307101
 21
-1.0778620518
  0
LINE
  5
363
100
AcDbEntity
  8
COPY-PUBBLISH
100
AcDbLine
 62
7
  6
CONTINUOUS
 10
7.5051307101
 20
-1.2911684389
 11
7.5051307101
 21
-1.490160292
  0
LINE
  5
364
100
AcDbEntity
  8
COPY-PUBBLISH
100
AcDbLine
 62
7
  6
CONTINUOUS
 10
7.5051307101
 20
-2.4028116375
 11
7.5051307101
 21
-2.5955862943
  0
LINE
  5
365
100
AcDbEntity
  8
COPY-PUBBLISH
100
AcDbLine
 62
7
  6
CONTINUOUS
 10
7.5051307101
 20
-3.3360423447
 11
7.5051307101
 21
-3.5719528608
  0
LINE
  5
366
100
AcDbEntity
  8
COPY-PUBBLISH
100
AcDbLine
 62
7
  6
CONTINUOUS
 10
7.5051307101
 20
-3.9123657964
 11
7.5051307101
 21
-4.1112978939
  0
LINE
  5
367
100
AcDbEntity
  8
COPY-PUBBLISH
100
AcDbLine
 62
7
  6
CONTINUOUS
 10
7.5051307101
 20
-4.9871145809
 11
7.5051307101
 21
-6.0598143492
  0
LINE
  5
368
100
AcDbEntity
  8
COPY-PUBBLISH
100
AcDbLine
 62
7
  6
CONTINUOUS
 10
7.5051307101
 20
-6.8503687379
 11
7.5051307101
 21
-7.5509091766
  0
LINE
  5
369
100
AcDbEntity
  8
COPY-PUBBLISH
100
AcDbLine
 62
7
  6
CONTINUOUS
 10
7.5051307101
 20
-8.2769077989
 11
7.5051307101
 21
-8.5025515839
  0
LINE
  5
36A
100
AcDbEntity
  8
COPY-PUBBLISH
100
AcDbLine
 62
7
  6
CONTINUOUS
 10
7.5051307101
 20
-9.2286220862
 11
7.5051307101
 21
-9.5137150511
  0
LINE
  5
36B
100
AcDbEntity
  8
COPY-PUBBLISH
100
AcDbLine
 62
7
  6
CONTINUOUS
 10
7.5051307101
 20
-10.3586856453
 11
7.5051307101
 21
-10.6437794761
  0
LINE
  5
36C
100
AcDbEntity
  8
COPY-PUBBLISH
100
AcDbLine
 62
7
  6
CONTINUOUS
 10
7.6440842637
 20
-7.2824292883
 11
7.6440842637
 21
-6.9006896204
  0
LINE
  5
36D
100
AcDbEntity
  8
COPY-PUBBLISH
100
AcDbLine
 62
7
  6
CONTINUOUS
 10
7.6491407843
 20
-5.7888183249
 11
7.6491407843
 21
-4.9151095438
  0
LINE
  5
36E
100
AcDbEntity
  8
COPY-PUBBLISH
100
AcDbLine
 62
7
  6
CONTINUOUS
 10
7.6491407843
 20
-1.0058570147
 11
7.6491407843
 21
-0.5074559307
  0
LINE
  5
36F
100
AcDbEntity
  8
COPY-PUBBLISH
100
AcDbLine
 62
7
  6
CONTINUOUS
 10
7.6491407843
 20
-0.3085368237
 11
7.6491407843
 21
0.1898651263
  0
LINE
  5
370
100
AcDbEntity
  8
COPY-PUBBLISH
100
AcDbLine
 62
7
  6
CONTINUOUS
 10
8.0175773584
 20
-4.798571142
 11
8.0175773584
 21
-5.6046000379
  0
LINE
  5
371
100
AcDbEntity
  8
COPY-PUBBLISH
100
AcDbLine
 62
7
  6
CONTINUOUS
 10
8.1615874325
 20
-5.5325950008
 11
8.1615874325
 21
-4.7265661049
  0
LINE
  5
372
100
AcDbEntity
  8
COPY-PUBBLISH
100
AcDbLine
 62
7
  6
CONTINUOUS
 10
8.2135124048
 20
1.4073064112
 11
8.2135124048
 21
0.9499324147
  0
LINE
  5
373
100
AcDbEntity
  8
COPY-PUBBLISH
100
AcDbLine
 62
7
  6
CONTINUOUS
 10
8.2135124048
 20
-7.8242515952
 11
8.2135124048
 21
-8.2816255917
  0
LINE
  5
374
100
AcDbEntity
  8
ASSI
100
AcDbLine
 62
7
  6
CONTINUOUS
 10
8.2161011227
 20
-7.8242515952
 11
8.2161011227
 21
-7.6098064599
  0
LINE
  5
375
100
AcDbEntity
  8
ASSI
100
AcDbLine
 62
7
  6
CONTINUOUS
 10
8.2161011227
 20
1.4073064112
 11
8.2161011227
 21
1.6218225606
  0
LINE
  5
376
100
AcDbEntity
  8
COPY-PUBBLISH
100
AcDbLine
 62
7
  6
CONTINUOUS
 10
8.357522479
 20
-8.271167248
 11
8.357522479
 21
-7.680517138
  0
LINE
  5
377
100
AcDbEntity
  8
COPY-PUBBLISH
100
AcDbLine
 62
7
  6
CONTINUOUS
 10
8.357522479
 20
0.9604020167
 11
8.357522479
 21
1.5511118824
  0
LINE
  5
378
100
AcDbEntity
  8
COPY-PUBBLISH
100
AcDbLine
 62
7
  6
CONTINUOUS
 10
8.563473693
 20
3.1452065656
 11
8.563473693
 21
2.3986164573
  0
LINE
  5
379
100
AcDbEntity
  8
COPY-PUBBLISH
100
AcDbLine
 62
7
  6
CONTINUOUS
 10
8.563473693
 20
-4.4435687998
 11
8.563473693
 21
-5.3316518706
  0
LINE
  5
37A
100
AcDbEntity
  8
ASSI
100
AcDbLine
 62
7
  6
CONTINUOUS
 10
8.5660624109
 20
-9.9718922695
 11
8.5660624109
 21
-9.9205337728
  0
LINE
  5
37B
100
AcDbEntity
  8
ASSI
100
AcDbLine
 62
7
  6
CONTINUOUS
 10
8.5660624109
 20
-9.3647859448
 11
8.5660624109
 21
-9.2471419335
  0
LINE
  5
37C
100
AcDbEntity
  8
ASSI
100
AcDbLine
 62
7
  6
CONTINUOUS
 10
8.5660624109
 20
-8.7495147326
 11
8.5660624109
 21
-8.6981562358
  0
LINE
  5
37D
100
AcDbEntity
  8
ASSI
100
AcDbLine
 62
7
  6
CONTINUOUS
 10
8.5660624109
 20
-8.3843958243
 11
8.5660624109
 21
-8.2585716557
  0
LINE
  5
37E
100
AcDbEntity
  8
ASSI
100
AcDbLine
 62
7
  6
CONTINUOUS
 10
8.5660624109
 20
-6.87902197
 11
8.5660624109
 21
-6.8202063134
  0
LINE
  5
37F
100
AcDbEntity
  8
ASSI
100
AcDbLine
 62
7
  6
CONTINUOUS
 10
8.5660624109
 20
-6.361457435
 11
8.5660624109
 21
-6.2730224257
  0
LINE
  5
380
100
AcDbEntity
  8
ASSI
100
AcDbLine
 62
7
  6
CONTINUOUS
 10
8.5660624109
 20
-5.3879271426
 11
8.5660624109
 21
-5.3316518706
  0
LINE
  5
381
100
AcDbEntity
  8
ASSI
100
AcDbLine
 62
7
  6
CONTINUOUS
 10
8.5660624109
 20
-3.4394106872
 11
8.5660624109
 21
-3.381899946
  0
LINE
  5
382
100
AcDbEntity
  8
ASSI
100
AcDbLine
 62
7
  6
CONTINUOUS
 10
8.5660624109
 20
-2.9000656542
 11
8.5660624109
 21
-2.8486170908
  0
LINE
  5
383
100
AcDbEntity
  8
ASSI
100
AcDbLine
 62
7
  6
CONTINUOUS
 10
8.5660624109
 20
-1.9544724344
 11
8.5660624109
 21
-1.8723457871
  0
LINE
  5
384
100
AcDbEntity
  8
ASSI
100
AcDbLine
 62
7
  6
CONTINUOUS
 10
8.5660624109
 20
-0.8182730854
 11
8.5660624109
 21
-0.7607025885
  0
LINE
  5
385
100
AcDbEntity
  8
ASSI
100
AcDbLine
 62
7
  6
CONTINUOUS
 10
8.5660624109
 20
0.0924262388
 11
8.5660624109
 21
0.1499239896
  0
LINE
  5
386
100
AcDbEntity
  8
ASSI
100
AcDbLine
 62
7
  6
CONTINUOUS
 10
8.5660624109
 20
0.8471734404
 11
8.5660624109
 21
0.9729903841
  0
LINE
  5
387
100
AcDbEntity
  8
ASSI
100
AcDbLine
 62
7
  6
CONTINUOUS
 10
8.5660624109
 20
2.342329061
 11
8.5660624109
 21
2.3986164573
  0
LINE
  5
388
100
AcDbEntity
  8
ASSI
100
AcDbLine
 62
7
  6
CONTINUOUS
 10
8.5660624109
 20
3.9113705048
 11
8.5660624109
 21
3.9688327486
  0
LINE
  5
389
100
AcDbEntity
  8
COPY-PUBBLISH
100
AcDbLine
 62
7
  6
CONTINUOUS
 10
8.5685302135
 20
-6.361457435
 11
8.5685302135
 21
-6.8202063134
  0
LINE
  5
38A
100
AcDbEntity
  8
COPY-PUBBLISH
100
AcDbLine
 62
7
  6
CONTINUOUS
 10
8.7074837671
 20
-10.0426029476
 11
8.7074837671
 21
-9.8498230947
  0
LINE
  5
38B
100
AcDbEntity
  8
COPY-PUBBLISH
100
AcDbLine
 62
7
  6
CONTINUOUS
 10
8.7074837671
 20
-9.4354966229
 11
8.7074837671
 21
-9.2345510164
  0
LINE
  5
38C
100
AcDbEntity
  8
COPY-PUBBLISH
100
AcDbLine
 62
7
  6
CONTINUOUS
 10
8.7074837671
 20
-8.8202254107
 11
8.7074837671
 21
-8.6274455577
  0
LINE
  5
38D
100
AcDbEntity
  8
COPY-PUBBLISH
100
AcDbLine
 62
7
  6
CONTINUOUS
 10
8.7074837671
 20
-8.4551065024
 11
8.7074837671
 21
-8.2500299547
  0
LINE
  5
38E
100
AcDbEntity
  8
COPY-PUBBLISH
100
AcDbLine
 62
7
  6
CONTINUOUS
 10
8.7074837671
 20
-7.3599342409
 11
8.7074837671
 21
-7.1425073049
  0
LINE
  5
38F
100
AcDbEntity
  8
COPY-PUBBLISH
100
AcDbLine
 62
7
  6
CONTINUOUS
 10
8.7074837671
 20
-6.9497326481
 11
8.7074837671
 21
-6.3437331038
  0
LINE
  5
390
100
AcDbEntity
  8
COPY-PUBBLISH
100
AcDbLine
 62
7
  6
CONTINUOUS
 10
8.7074837671
 20
-5.4586378207
 11
8.7074837671
 21
-4.3715637627
  0
LINE
  5
391
100
AcDbEntity
  8
COPY-PUBBLISH
100
AcDbLine
 62
7
  6
CONTINUOUS
 10
8.7074837671
 20
-3.5101213654
 11
8.7074837671
 21
-3.3111892679
  0
LINE
  5
392
100
AcDbEntity
  8
COPY-PUBBLISH
100
AcDbLine
 62
7
  6
CONTINUOUS
 10
8.7074837671
 20
-2.9707763323
 11
8.7074837671
 21
-2.7779064127
  0
LINE
  5
393
100
AcDbEntity
  8
COPY-PUBBLISH
100
AcDbLine
 62
7
  6
CONTINUOUS
 10
8.7074837671
 20
-2.0251831125
 11
8.7074837671
 21
-1.801635109
  0
LINE
  5
394
100
AcDbEntity
  8
COPY-PUBBLISH
100
AcDbLine
 62
7
  6
CONTINUOUS
 10
8.7074837671
 20
-0.8889837635
 11
8.7074837671
 21
-0.6899919103
  0
LINE
  5
395
100
AcDbEntity
  8
COPY-PUBBLISH
100
AcDbLine
 62
7
  6
CONTINUOUS
 10
8.7074837671
 20
0.0217155607
 11
8.7074837671
 21
0.2206346678
  0
LINE
  5
396
100
AcDbEntity
  8
COPY-PUBBLISH
100
AcDbLine
 62
7
  6
CONTINUOUS
 10
8.7074837671
 20
0.7764627623
 11
8.7074837671
 21
0.9815271856
  0
LINE
  5
397
100
AcDbEntity
  8
COPY-PUBBLISH
100
AcDbLine
 62
7
  6
CONTINUOUS
 10
8.7074837671
 20
1.8717069039
 11
8.7074837671
 21
2.0891693469
  0
LINE
  5
398
100
AcDbEntity
  8
COPY-PUBBLISH
100
AcDbLine
 62
7
  6
CONTINUOUS
 10
8.7074837671
 20
2.2716183828
 11
8.7074837671
 21
3.2172116026
  0
LINE
  5
399
100
AcDbEntity
  8
COPY-PUBBLISH
100
AcDbLine
 62
7
  6
CONTINUOUS
 10
8.7074837671
 20
3.8406598267
 11
8.7074837671
 21
4.0395434267
  0
LINE
  5
39A
100
AcDbEntity
  8
0
100
AcDbLine
 62
7
  6
CONTINUOUS
 10
15.5301838576
 20
26.7947483058
 11
14.96936757
 21
25.2482611379
  0
LINE
  5
39B
100
AcDbEntity
  8
0
100
AcDbLine
 62
7
  6
CONTINUOUS
 10
15.6325066251
 20
26.7576420977
 11
15.1107889262
 21
25.318971816
  0
LINE
  5
39C
100
AcDbEntity
  8
0
100
AcDbLine
 62
7
  6
CONTINUOUS
 10
15.0056329555
 20
23.7665238621
 11
15.6724431354
 21
25.572796479
  0
LINE
  5
39D
100
AcDbEntity
  8
0
100
AcDbLine
 62
7
  6
CONTINUOUS
 10
-10.0308459343
 20
-30.0117128233
 11
-9.3944498313
 21
-28.9140919084
  0
LINE
  5
39E
100
AcDbEntity
  8
ASSI
100
AcDbLine
 62
7
  6
CONTINUOUS
 10
8.4595842255
 20
-2.0897927347
 11
8.5660624109
 21
-1.9544724344
  0
LINE
  5
39F
100
AcDbEntity
  8
COPY-PUBBLISH
100
AcDbLine
 62
7
  6
CONTINUOUS
 10
7.7310286993
 20
-3.2661339467
 11
8.7074837671
 21
-2.0251831125
  0
LINE
  5
3A0
100
AcDbEntity
  8
COPY-PUBBLISH
100
AcDbLine
 62
7
  6
CONTINUOUS
 10
8.4817830607
 20
-2.107260119
 11
7.5051307101
 21
-3.3360423447
  0
LINE
  5
3A1
100
AcDbEntity
  8
SMUSSO
100
AcDbLine
 62
7
  6
CONTINUOUS
 10
-13.8356612397
 20
-26.613250409
 11
-13.7431565356
 21
-26.5001971139
  0
LWPOLYLINE
  5
3A2
100
AcDbEntity
  8
RACCORDO
100
AcDbPolyline
 62
7
  6
CONTINUOUS
 90
11
 70
0
 10
-5.5249642619
 20
-16.9750016929
 10
-5.3993717281
 20
-16.8373299138
 10
-5.2829903294
 20
-16.6887157674
 10
-5.1762279232
 20
-16.5300884121
 10
-5.0796759272
 20
-16.3623639957
 10
-4.9947399803
 20
-16.1880954223
 10
-4.921940792
 20
-16.0083316184
 10
-4.861858643
 20
-15.8241442207
 10
-4.8156053095
 20
-15.6381650502
 10
-4.7836844696
 20
-15.4517163855
 10
-4.7666424813
 20
-15.2651534362
  0
LINE
  5
3A3
100
AcDbEntity
  8
RACCORDO
100
AcDbLine
 62
7
  6
CONTINUOUS
 10
-5.6586011488
 20
-17.0999376755
 11
-5.5249642619
 21
-16.9750016929
  0
LINE
  5
3A4
100
AcDbEntity
  8
RACCORDO
100
AcDbLine
 62
7
  6
CONTINUOUS
 10
-9.0572254075
 20
-14.7067580691
 11
-14.9750112184
 21
-17.7815566009
  0
LINE
  5
3A5
100
AcDbEntity
  8
DRAFT
100
AcDbLine
 62
7
  6
CONTINUOUS
 10
-23.5938472244
 20
-21.2487077868
 11
-23.1686291247
 21
-21.0313572821
  0
LINE
  5
3A6
100
AcDbEntity
  8
0
100
AcDbLine
 62
7
  6
CONTINUOUS
 10
26.1231787196
 20
7.0432485212
 11
26.2646000759
 21
7.1139591993
  0
LINE
  5
3A7
100
AcDbEntity
  8
COPY-PUBBLISH
100
AcDbLine
 62
7
  6
CONTINUOUS
 10
8.7074837671
 20
-1.801635109
 11
7.5051307101
 21
-2.4028116375
  0
LINE
  5
3A8
100
AcDbEntity
  8
ASSI
100
AcDbLine
 62
7
  6
CONTINUOUS
 10
7.5051307101
 20
-2.4541649381
 11
8.3403617045
 21
-2.0365494409
  0
LINE
  5
3A9
100
AcDbEntity
  8
COPY-PUBBLISH
100
AcDbLine
 62
7
  6
CONTINUOUS
 10
7.5051307101
 20
-2.5955862943
 11
8.4817830607
 21
-2.107260119
  0
LINE
  5
3AA
100
AcDbEntity
  8
0
100
AcDbLine
 62
7
  6
CONTINUOUS
 10
27.0342942925
 20
6.5902827488
 11
27.1757156487
 21
6.6609934269
  0
LINE
  5
3AB
100
AcDbEntity
  8
COPY-PUBBLISH
100
AcDbLine
 62
7
  6
CONTINUOUS
 10
8.7074837671
 20
-2.7779064127
 11
7.7310286993
 21
-3.2661339467
  0
LINE
  5
3AC
100
AcDbEntity
  8
ASSI
100
AcDbLine
 62
7
  6
CONTINUOUS
 10
7.5051307101
 20
-3.4305315046
 11
8.5660624109
 21
-2.9000656542
  0
LINE
  5
3AD
100
AcDbEntity
  8
0
100
AcDbLine
 62
7
  6
CONTINUOUS
 10
25.9518750308
 20
5.786367
 11
26.0932963871
 21
5.8570776781
  0
LINE
  5
3AE
100
AcDbEntity
  8
COPY-PUBBLISH
100
AcDbLine
 62
7
  6
CONTINUOUS
 10
7.5051307101
 20
-3.5719528608
 11
8.7074837671
 21
-2.9707763323
  0
LINE
  5
3AF
100
AcDbEntity
  8
0
100
AcDbLine
 62
7
  6
CONTINUOUS
 10
26.5805396283
 20
5.7128183423
 11
26.7219609846
 21
5.7835290205
  0
LINE
  5
3B0
100
AcDbEntity
  8
COPY-PUBBLISH
100
AcDbLine
 62
7
  6
CONTINUOUS
 10
8.7074837671
 20
-3.3111892679
 11
7.5051307101
 21
-3.9123657964
  0
LINE
  5
3B1
100
AcDbEntity
  8
DRAFT
100
AcDbLine
 62
7
  6
CONTINUOUS
 10
-23.026609539
 20
-19.2140514029
 11
-22.5112806223
 21
-18.9563869445
  0
LINE
  5
3B2
100
AcDbEntity
  8
ASSI
100
AcDbLine
 62
7
  6
CONTINUOUS
 10
7.5051307101
 20
-3.9698765376
 11
8.5660624109
 21
-3.4394106872
  0
LINE
  5
3B3
100
AcDbEntity
  8
0
100
AcDbLine
 62
7
  6
CONTINUOUS
 10
26.491285782
 20
5.5166616244
 11
26.6327071382
 21
5.5873723025
  0
LINE
  5
3B4
100
AcDbEntity
  8
COPY-PUBBLISH
100
AcDbLine
 62
7
  6
CONTINUOUS
 10
7.5051307101
 20
-4.1112978939
 11
8.7074837671
 21
-3.5101213654
  0
LINE
  5
3B5
100
AcDbEntity
  8
DRAFT
100
AcDbLine
 62
7
  6
CONTINUOUS
 10
-28.2034902108
 20
-22.1274722131
 11
-25.4457737642
 21
-20.7486139898
  0
LINE
  5
3B6
100
AcDbEntity
  8
DRAFT
100
AcDbLine
 62
7
  6
CONTINUOUS
 10
-20.7788690084
 20
-18.4151616118
 11
-20.0264295367
 21
-18.038941876
  0
LINE
  5
3B7
100
AcDbEntity
  8
DRAFT
100
AcDbLine
 62
7
  6
CONTINUOUS
 10
-19.4099881364
 20
-17.7307211759
 11
-17.2433351024
 21
-16.6473946589
  0
LINE
  5
3B8
100
AcDbEntity
  8
0
100
AcDbLine
 62
7
  6
CONTINUOUS
 10
27.0342942925
 20
5.2451573692
 11
27.1757156487
 21
5.3158680473
  0
LINE
  5
3B9
100
AcDbEntity
  8
DRAFT
100
AcDbLine
 62
7
  6
CONTINUOUS
 10
-25.304352408
 20
-20.95914062
 11
-24.738666983
 21
-20.6762979075
  0
LINE
  5
3BA
100
AcDbEntity
  8
0
100
AcDbLine
 62
7
  6
CONTINUOUS
 10
27.6812064876
 20
5.3882187643
 11
27.7641395046
 21
5.4296852728
  0
LINE
  5
3BB
100
AcDbEntity
  8
0
100
AcDbLine
 62
7
  6
CONTINUOUS
 10
27.3622999151
 20
5.0811545579
 11
27.5037212713
 21
5.151865236
  0
LINE
  5
3BC
100
AcDbEntity
  8
COPY-PUBBLISH
100
AcDbLine
 62
7
  6
CONTINUOUS
 10
8.7074837671
 20
-4.3715637627
 11
8.563473693
 21
-4.4435687998
  0
LINE
  5
3BD
100
AcDbEntity
  8
COPY-PUBBLISH
100
AcDbLine
 62
7
  6
CONTINUOUS
 10
7.6491407843
 20
-4.9151095438
 11
7.5051307101
 21
-4.9871145809
  0
LINE
  5
3BE
100
AcDbEntity
  8
COPY-PUBBLISH
100
AcDbLine
 62
7
  6
CONTINUOUS
 10
8.1615874325
 20
-4.7265661049
 11
8.0175773584
 21
-4.798571142
  0
LINE
  5
3BF
100
AcDbEntity
  8
COPY-PUBBLISH
100
AcDbLine
 62
7
  6
CONTINUOUS
 10
8.563473693
 20
-5.3316518706
 11
8.1615874325
 21
-5.5325950008
  0
LINE
  5
3C0
100
AcDbEntity
  8
COPY-PUBBLISH
100
AcDbLine
 62
7
  6
CONTINUOUS
 10
8.0175773584
 20
-5.6046000379
 11
7.6491407843
 21
-5.7888183249
  0
LINE
  5
3C1
100
AcDbEntity
  8
ASSI
100
AcDbLine
 62
7
  6
CONTINUOUS
 10
7.5051307101
 20
-5.9183929929
 11
8.5660624109
 21
-5.3879271426
  0
LINE
  5
3C2
100
AcDbEntity
  8
0
100
AcDbLine
 62
7
  6
CONTINUOUS
 10
-20.0498383868
 20
-19.783057915
 11
-18.731113317
 21
-19.1236953801
  0
LINE
  5
3C3
100
AcDbEntity
  8
COPY-PUBBLISH
100
AcDbLine
 62
7
  6
CONTINUOUS
 10
7.5051307101
 20
-6.0598143492
 11
8.7074837671
 21
-5.4586378207
  0
LINE
  5
3C4
100
AcDbEntity
  8
RACCORDO
100
AcDbLine
 62
253
  6
CONTINUOUS
 10
-17.2792740244
 20
-15.7895496875
 11
-4.6166991585
 21
-9.5612374564
  0
LINE
  5
3C5
100
AcDbEntity
  8
RACCORDO
100
AcDbLine
 62
253
  6
CONTINUOUS
 10
-16.8626195892
 20
-16.8377524155
 11
-4.6341227905
 21
-10.8229491874
  0
LINE
  5
3C6
100
AcDbEntity
  8
RACCORDO
100
AcDbLine
 62
7
  6
CONTINUOUS
 10
-15.5961615552
 20
-17.4709814325
 11
-5.47550898
 21
-12.4929588037
  0
LINE
  5
3C7
100
AcDbEntity
  8
DRAFT
100
AcDbLine
 62
7
  6
CONTINUOUS
 10
-17.2939092565
 20
-15.4402136588
 11
-19.4037411944
 21
-16.4716251564
  0
LINE
  5
3C8
100
AcDbEntity
  8
DRAFT
100
AcDbLine
 62
7
  6
CONTINUOUS
 10
-20.1364133759
 20
-16.8297989514
 11
-28.259077055
 21
-20.8006406853
  0
LINE
  5
3C9
100
AcDbEntity
  8
DRAFT
100
AcDbLine
 62
7
  6
CONTINUOUS
 10
-19.0753880692
 20
-14.5494742524
 11
-27.9913581765
 21
-18.8358528486
  0
LINE
  5
3CA
100
AcDbEntity
  8
DRAFT
100
AcDbLine
 62
7
  6
CONTINUOUS
 10
-18.3308168731
 20
-14.9217598505
 11
-4.6016658644
 21
-8.5286689615
  0
LINE
  5
3CB
100
AcDbEntity
  8
COPY-PUBBLISH
100
AcDbLine
 62
7
  6
CONTINUOUS
 10
7.5051307101
 20
3.7603923824
 11
8.082921096
 21
3.6268672302
  0
LINE
  5
3CC
100
AcDbEntity
  8
ASSI
100
AcDbLine
 62
7
  6
CONTINUOUS
 10
7.5134734591
 20
3.7964931476
 11
7.9414997398
 21
3.6975779083
  0
LINE
  5
3CD
100
AcDbEntity
  8
COPY-PUBBLISH
100
AcDbLine
 62
7
  6
CONTINUOUS
 10
8.2235278653
 20
3.7975654758
 11
7.5051307101
 21
3.9942893895
  0
LINE
  5
3CE
100
AcDbEntity
  8
DRAFT
100
AcDbLine
 62
7
  6
CONTINUOUS
 10
-28.2034902108
 20
19.4417471686
 11
-21.9102398583
 21
16.2951219923
  0
LINE
  5
3CF
100
AcDbEntity
  8
DRAFT
100
AcDbLine
 62
7
  6
CONTINUOUS
 10
-12.2935876341
 20
11.4867958802
 11
-6.0003372816
 21
8.3401707039
  0
LINE
  5
3D0
100
AcDbEntity
  8
COPY-PUBBLISH
100
AcDbLine
 62
7
  6
CONTINUOUS
 10
8.2135124048
 20
1.4073064112
 11
8.0720910486
 21
1.4780170893
  0
LINE
  5
3D1
100
AcDbEntity
  8
COPY-PUBBLISH
100
AcDbLine
 62
7
  6
CONTINUOUS
 10
35.5775414522
 20
-12.0937524542
 11
36.545845775
 21
-12.5779046156
  0
LINE
  5
3D2
100
AcDbEntity
  8
COPY-PUBBLISH
100
AcDbLine
 62
7
  6
CONTINUOUS
 10
8.357522479
 20
1.5511118824
 11
8.2161011227
 21
1.6218225606
  0
LINE
  5
3D3
100
AcDbEntity
  8
COPY-PUBBLISH
100
AcDbLine
 62
7
  6
CONTINUOUS
 10
8.7074837671
 20
1.8717069039
 11
8.5660624109
 21
1.942417582
  0
LINE
  5
3D4
100
AcDbEntity
  8
COPY-PUBBLISH
100
AcDbLine
 62
7
  6
CONTINUOUS
 10
36.084457413
 20
-11.5477478044
 11
37.3453084052
 21
-12.1781733005
  0
LINE
  5
3D5
100
AcDbEntity
  8
COPY-PUBBLISH
100
AcDbLine
 62
7
  6
CONTINUOUS
 10
8.7074837671
 20
2.2716183828
 11
8.5660624109
 21
2.342329061
  0
LINE
  5
3D6
100
AcDbEntity
  8
COPY-PUBBLISH
100
AcDbLine
 62
7
  6
CONTINUOUS
 10
37.8676514345
 20
-11.9215778622
 11
39.1130753581
 21
-12.544289824
  0
LINE
  5
3D7
100
AcDbEntity
  8
COPY-PUBBLISH
100
AcDbLine
 62
7
  6
CONTINUOUS
 10
8.082921096
 20
3.6268672302
 11
7.9414997398
 21
3.6975779083
  0
LINE
  5
3D8
100
AcDbEntity
  8
COPY-PUBBLISH
100
AcDbLine
 62
7
  6
CONTINUOUS
 10
8.2235278653
 20
3.5986818758
 11
8.082106509
 21
3.6693925539
  0
LINE
  5
3D9
100
AcDbEntity
  8
COPY-PUBBLISH
100
AcDbLine
 62
7
  6
CONTINUOUS
 10
8.7074837671
 20
3.8406598267
 11
8.5660624109
 21
3.9113705048
  0
LINE
  5
3DA
100
AcDbEntity
  8
RACCORDO
100
AcDbLine
 62
253
  6
CONTINUOUS
 10
1.6364159552
 20
8.4634799915
 11
-35.8402434476
 21
27.201809693
  0
LINE
  5
3DB
100
AcDbEntity
  8
RACCORDO
100
AcDbLine
 62
7
  6
CONTINUOUS
 10
9.4145905483
 20
-45.2381220636
 11
9.4145905483
 21
-47.9253414529
  0
LINE
  5
3DC
100
AcDbEntity
  8
COPY-PUBBLISH
100
AcDbLine
 62
7
  6
CONTINUOUS
 10
11.5359108919
 20
-2.393006478
 11
11.5359108919
 21
-20.233129796
  0
LINE
  5
3DD
100
AcDbEntity
  8
0
100
AcDbLine
 62
7
  6
CONTINUOUS
 10
12.7488104465
 20
28.1856324651
 11
12.7488104465
 21
24.8949351166
  0
LINE
  5
3DE
100
AcDbEntity
  8
0
100
AcDbLine
 62
7
  6
CONTINUOUS
 10
12.8902318028
 20
28.114921787
 11
12.8902318028
 21
24.9656457947
  0
LINE
  5
3DF
100
AcDbEntity
  8
0
100
AcDbLine
 62
7
  6
CONTINUOUS
 10
14.1480496086
 20
24.1953155356
 11
14.2690730555
 21
26.2834388196
  0
LINE
  5
3E0
100
AcDbEntity
  8
0
100
AcDbLine
 62
7
  6
CONTINUOUS
 10
13.8541229973
 20
27.6327787359
 11
13.6115309242
 21
24.4635748778
  0
LINE
  5
3E1
100
AcDbEntity
  8
0
100
AcDbLine
 62
7
  6
CONTINUOUS
 10
13.9851180654
 20
27.5672812019
 11
13.7529522804
 21
24.5342855559
  0
LINE
  5
3E2
100
AcDbEntity
  8
0
100
AcDbLine
 62
7
  6
CONTINUOUS
 10
17.2485537451
 20
23.8102712032
 11
17.5277930414
 21
24.8917984699
  0
LINE
  5
3E3
100
AcDbEntity
  8
0
100
AcDbLine
 62
7
  6
CONTINUOUS
 10
16.9790859574
 20
22.7797973612
 11
17.1338362764
 21
23.359323255
  0
LINE
  5
3E4
100
AcDbEntity
  8
0
100
AcDbLine
 62
7
  6
CONTINUOUS
 10
17.2670693361
 20
25.9263055665
 11
16.4243543236
 21
23.0571631781
  0
LINE
  5
3E5
100
AcDbEntity
  8
0
100
AcDbLine
 62
7
  6
CONTINUOUS
 10
17.3781397936
 20
25.8936823191
 11
16.5657756798
 21
23.1278738562
  0
LINE
  5
3E6
100
AcDbEntity
  8
0
100
AcDbLine
 62
7
  6
CONTINUOUS
 10
-5.7116159909
 20
-31.8436230213
 11
-5.2225198223
 21
-31.0000569129
  0
LINE
  5
3E7
100
AcDbEntity
  8
COPY-PUBBLISH
100
AcDbLine
 62
7
  6
CONTINUOUS
 10
8.7074837671
 20
-7.1425073049
 11
7.5051307101
 21
-8.2769077989
  0
LINE
  5
3E8
100
AcDbEntity
  8
COPY-PUBBLISH
100
AcDbLine
 62
7
  6
CONTINUOUS
 10
8.357522479
 20
-7.680517138
 11
8.7074837671
 21
-7.3599342409
  0
LINE
  5
3E9
100
AcDbEntity
  8
COPY-PUBBLISH
100
AcDbLine
 62
7
  6
CONTINUOUS
 10
8.5265514053
 20
-9.4254900006
 11
7.5051307101
 21
-10.3586856453
  0
LINE
  5
3EA
100
AcDbEntity
  8
COPY-PUBBLISH
100
AcDbLine
 62
7
  6
CONTINUOUS
 10
7.6795301124
 20
-8.3106338229
 11
8.2135124048
 21
-7.8242515952
  0
LINE
  5
3EB
100
AcDbEntity
  8
ASSI
100
AcDbLine
 62
7
  6
CONTINUOUS
 10
8.51424956
 20
-9.4119858784
 11
8.5660624109
 21
-9.3647859448
  0
LINE
  5
3EC
100
AcDbEntity
  8
COPY-PUBBLISH
100
AcDbLine
 62
7
  6
CONTINUOUS
 10
7.6993156672
 20
-10.3539071446
 11
8.7074837671
 21
-9.4354966229
  0
LWPOLYLINE
  5
3ED
100
AcDbEntity
  8
RACCORDO
100
AcDbPolyline
 62
7
  6
CONTINUOUS
 90
3
 70
0
 10
-5.9530649891
 20
-17.3104477115
 10
-5.7998417194
 20
-17.2111868536
 10
-5.6586011488
 20
-17.0999376755
  0
LINE
  5
3EE
100
AcDbEntity
  8
RACCORDO
100
AcDbLine
 62
7
  6
CONTINUOUS
 10
-5.47550898
 20
-16.1140369679
 11
-10.3208326136
 21
-18.9267519802
  0
LINE
  5
3EF
100
AcDbEntity
  8
RACCORDO
100
AcDbLine
 62
253
  6
CONTINUOUS
 10
-9.7593894928
 20
-19.2074735407
 11
-5.7690841991
 21
-16.891097494
  0
LINE
  5
3F0
100
AcDbEntity
  8
RACCORDO
100
AcDbLine
 62
7
  6
CONTINUOUS
 10
-9.4700952392
 20
-19.3521206674
 11
-5.9525333851
 21
-17.3101726405
  0
LINE
  5
3F1
100
AcDbEntity
  8
ASSI
100
AcDbLine
 62
7
  6
CONTINUOUS
 10
-7.1415442604
 20
-15.2810193278
 11
-13.2419057741
 21
-18.648109323
  0
LINE
  5
3F2
100
AcDbEntity
  8
COPY-PUBBLISH
100
AcDbLine
 62
7
  6
CONTINUOUS
 10
8.1150350576
 20
-6.0286768914
 11
8.0975787125
 21
-6.037405064
  0
LINE
  5
3F3
100
AcDbEntity
  8
ASSI
100
AcDbLine
 62
7
  6
CONTINUOUS
 10
7.9563574675
 20
-6.1723766886
 11
7.9734105275
 21
-6.1638501586
  0
LINE
  5
3F4
100
AcDbEntity
  8
COPY-PUBBLISH
100
AcDbLine
 62
7
  6
CONTINUOUS
 10
8.0977788237
 20
-6.2430873668
 11
8.1148356535
 21
-6.2345589519
  0
LINE
  5
3F5
100
AcDbEntity
  8
0
100
AcDbLine
 62
7
  6
CONTINUOUS
 10
26.5878885891
 20
2.2714187825
 11
26.7293099454
 21
2.3421294607
  0
LINE
  5
3F6
100
AcDbEntity
  8
COPY-PUBBLISH
100
AcDbLine
 62
7
  6
CONTINUOUS
 10
8.5685302135
 20
-6.8202063134
 11
7.6440842637
 21
-7.2824292883
  0
LINE
  5
3F7
100
AcDbEntity
  8
ASSI
100
AcDbLine
 62
7
  6
CONTINUOUS
 10
7.5051307101
 20
-7.4094878204
 11
8.5660624109
 21
-6.87902197
  0
LINE
  5
3F8
100
AcDbEntity
  8
0
100
AcDbLine
 62
7
  6
CONTINUOUS
 10
27.7057536995
 20
2.6053488924
 11
27.7641395046
 21
2.6345417949
  0
LINE
  5
3F9
100
AcDbEntity
  8
COPY-PUBBLISH
100
AcDbLine
 62
7
  6
CONTINUOUS
 10
7.5051307101
 20
-7.5509091766
 11
8.7074837671
 21
-6.9497326481
  0
LINE
  5
3FA
100
AcDbEntity
  8
0
100
AcDbLine
 62
7
  6
CONTINUOUS
 10
27.0306965332
 20
2.0500148105
 11
27.1721178894
 21
2.1207254886
  0
LINE
  5
3FB
100
AcDbEntity
  8
0
100
AcDbLine
 62
7
  6
CONTINUOUS
 10
-18.2820714338
 20
-20.6669413915
 11
-16.9633463641
 21
-20.0075788566
  0
LINE
  5
3FC
100
AcDbEntity
  8
0
100
AcDbLine
 62
7
  6
CONTINUOUS
 10
27.2073968609
 20
1.9616646466
 11
27.3488182172
 21
2.0323753247
  0
LINE
  5
3FD
100
AcDbEntity
  8
DRAFT
100
AcDbLine
 62
7
  6
CONTINUOUS
 10
-18.85467953
 20
-21.3000164074
 11
-18.3393506133
 21
-21.042351949
  0
LINE
  5
3FE
100
AcDbEntity
  8
COPY-PUBBLISH
100
AcDbLine
 62
7
  6
CONTINUOUS
 10
36.7796229802
 20
6.5049403299
 11
35.7896734866
 21
6.0099655831
  0
LINE
  5
3FF
100
AcDbEntity
  8
0
100
AcDbLine
 62
7
  6
CONTINUOUS
 10
26.2214743404
 20
1.0434106646
 11
26.3628956966
 21
1.1141213428
  0
LINE
  5
400
100
AcDbEntity
  8
DRAFT
100
AcDbLine
 62
7
  6
CONTINUOUS
 10
-21.132422399
 20
-23.0451056245
 11
-20.566736974
 21
-22.762262912
  0
LINE
  5
401
100
AcDbEntity
  8
0
100
AcDbLine
 62
7
  6
CONTINUOUS
 10
27.0306965332
 20
0.6387995683
 11
27.1721178894
 21
0.7095102464
  0
LINE
  5
402
100
AcDbEntity
  8
COPY-PUBBLISH
100
AcDbLine
 62
7
  6
CONTINUOUS
 10
8.7074837671
 20
-8.6274455577
 11
7.5051307101
 21
-9.2286220862
  0
LINE
  5
403
100
AcDbEntity
  8
ASSI
100
AcDbLine
 62
7
  6
CONTINUOUS
 10
7.557894311
 20
-9.2535987825
 11
8.5660624109
 21
-8.7495147326
  0
LINE
  5
404
100
AcDbEntity
  8
COPY-PUBBLISH
100
AcDbLine
 62
7
  6
CONTINUOUS
 10
7.6993156672
 20
-9.3243094606
 11
8.7074837671
 21
-8.8202254107
  0
LINE
  5
405
100
AcDbEntity
  8
0
100
AcDbLine
 62
7
  6
CONTINUOUS
 10
27.7012041745
 20
0.3035457476
 11
27.7641395046
 21
0.3350134127
  0
LINE
  5
406
100
AcDbEntity
  8
COPY-PUBBLISH
100
AcDbLine
 62
7
  6
CONTINUOUS
 10
35.3654094178
 20
4.0657827412
 11
34.3754599242
 21
3.5708079943
  0
LINE
  5
407
100
AcDbEntity
  8
RACCORDO
100
AcDbLine
 62
253
  6
CONTINUOUS
 10
35.1179220444
 20
3.5364357605
 11
34.4815259414
 21
3.2182377089
  0
LINE
  5
408
100
AcDbEntity
  8
COPY-PUBBLISH
100
AcDbLine
 62
7
  6
CONTINUOUS
 10
8.7074837671
 20
-9.8498230947
 11
7.6993156672
 21
-10.3539071446
  0
LINE
  5
409
100
AcDbEntity
  8
ASSI
100
AcDbLine
 62
7
  6
CONTINUOUS
 10
7.5051307101
 20
-10.5023581199
 11
8.5660624109
 21
-9.9718922695
  0
LINE
  5
40A
100
AcDbEntity
  8
COPY-PUBBLISH
100
AcDbLine
 62
7
  6
CONTINUOUS
 10
7.5051307101
 20
-10.6437794761
 11
8.7074837671
 21
-10.0426029476
  0
LINE
  5
40B
100
AcDbEntity
  8
DRAFT
100
AcDbLine
 62
7
  6
CONTINUOUS
 10
-10.8995105958
 20
-18.6374129892
 11
-13.0074135283
 21
-19.6697889895
  0
LINE
  5
40C
100
AcDbEntity
  8
DRAFT
100
AcDbLine
 62
7
  6
CONTINUOUS
 10
-13.7394158325
 20
-20.0282977232
 11
-21.8546530141
 21
-24.0028527058
  0
LINE
  5
40D
100
AcDbEntity
  8
RACCORDO
100
AcDbLine
 62
253
  6
CONTINUOUS
 10
2.6600596209
 20
10.2735485911
 11
-34.816599782
 21
29.0118782926
  0
LINE
  5
40E
100
AcDbEntity
  8
COPY-PUBBLISH
100
AcDbLine
 62
253
  6
CONTINUOUS
 10
34.3754599242
 20
-3.357395236
 11
34.1683089634
 21
-3.2538197556
  0
LINE
  5
40F
100
AcDbEntity
  8
0
100
AcDbLine
 62
7
  6
CONTINUOUS
 10
26.2214743404
 20
1.0434106646
 11
26.3982800271
 21
0.9550078213
  0
LINE
  5
410
100
AcDbEntity
  8
0
100
AcDbLine
 62
7
  6
CONTINUOUS
 10
27.0306965332
 20
0.6387995683
 11
27.2073968609
 21
0.5504494044
  0
LINE
  5
411
100
AcDbEntity
  8
0
100
AcDbLine
 62
7
  6
CONTINUOUS
 10
27.7012041745
 20
0.3035457476
 11
27.7641395046
 21
0.2720780826
  0
LINE
  5
412
100
AcDbEntity
  8
0
100
AcDbLine
 62
7
  6
CONTINUOUS
 10
15.6724431354
 20
25.572796479
 11
15.7876640641
 21
23.3755083078
  0
LINE
  5
413
100
AcDbEntity
  8
0
100
AcDbLine
 62
7
  6
CONTINUOUS
 10
15.8138644916
 20
25.6435071571
 11
15.9290854203
 21
23.4462189859
  0
LINE
  5
414
100
AcDbEntity
  8
0
100
AcDbLine
 62
7
  6
CONTINUOUS
 10
13.3096260271
 20
24.6145273263
 11
13.3096260271
 21
27.9052246749
  0
LINE
  5
415
100
AcDbEntity
  8
DRAFT
100
AcDbLine
 62
7
  6
CONTINUOUS
 10
-9.1180317831
 20
-19.5281523955
 11
-17.8797312055
 21
-23.8916663341
  0
LINE
  5
416
100
AcDbEntity
  8
DRAFT
100
AcDbLine
 62
7
  6
CONTINUOUS
 10
-17.7674943609
 20
-24.6473338484
 11
-17.0665584071
 21
-24.2982527333
  0
LINE
  5
417
100
AcDbEntity
  8
DRAFT
100
AcDbLine
 62
7
  6
CONTINUOUS
 10
-16.1235774948
 20
-24.7697431894
 11
-9.1180317831
 21
-21.2808314057
  0
LINE
  5
418
100
AcDbEntity
  8
DRAFT
100
AcDbLine
 62
7
  6
CONTINUOUS
 10
-5.7592745724
 20
-21.2075310008
 11
-14.5209739949
 21
-25.5710449394
  0
LINE
  5
419
100
AcDbEntity
  8
DRAFT
100
AcDbLine
 62
7
  6
CONTINUOUS
 10
-14.4440924894
 20
-26.3090347842
 11
-13.7431565356
 21
-25.9599536691
  0
LINE
  5
41A
100
AcDbEntity
  8
DRAFT
100
AcDbLine
 62
7
  6
CONTINUOUS
 10
-16.9313078783
 20
-25.0654270897
 11
-16.2180302697
 21
-24.722516802
  0
LINE
  5
41B
100
AcDbEntity
  8
DRAFT
100
AcDbLine
 62
7
  6
CONTINUOUS
 10
-6.5242427032
 20
-20.8250469355
 11
-15.4402128104
 21
-25.1114255317
  0
LINE
  5
41C
100
AcDbEntity
  8
RACCORDO
100
AcDbLine
 62
7
  6
CONTINUOUS
 10
-4.6447868985
 20
-20.9899583193
 11
-5.7592745724
 21
-21.5089285739
  0
LINE
  5
41D
100
AcDbEntity
  8
COPY-PUBBLISH
100
AcDbLine
 62
253
  6
CONTINUOUS
 10
35.3654094178
 20
-2.8624204891
 11
35.0006376252
 21
-2.6800345928
  0
LINE
  5
41E
100
AcDbEntity
  8
COPY-PUBBLISH
100
AcDbLine
 62
253
  6
CONTINUOUS
 10
35.5775414522
 20
-2.4965468508
 11
35.2147509616
 21
-2.3151516055
  0
LINE
  5
41F
100
AcDbEntity
  8
0
100
AcDbLine
 62
7
  6
CONTINUOUS
 10
26.5878885891
 20
2.2714187825
 11
27.0306965332
 21
2.0500148105
  0
LINE
  5
420
100
AcDbEntity
  8
0
100
AcDbLine
 62
7
  6
CONTINUOUS
 10
27.2073968609
 20
1.9616646466
 11
27.6502040979
 21
1.7402610282
  0
LINE
  5
421
100
AcDbEntity
  8
0
100
AcDbLine
 62
7
  6
CONTINUOUS
 10
26.7293099454
 20
2.3421294607
 11
27.1721178894
 21
2.1207254886
  0
LINE
  5
422
100
AcDbEntity
  8
0
100
AcDbLine
 62
7
  6
CONTINUOUS
 10
27.3488182172
 20
2.0323753247
 11
27.6300562996
 21
1.8917562835
  0
LINE
  5
423
100
AcDbEntity
  8
0
100
AcDbLine
 62
7
  6
CONTINUOUS
 10
27.6502040979
 20
1.9320518801
 11
26.5878885891
 21
2.4632096345
  0
LINE
  5
424
100
AcDbEntity
  8
0
100
AcDbLine
 62
7
  6
CONTINUOUS
 10
26.3982800271
 20
2.5580139155
 11
26.2214743404
 21
2.6464167588
  0
LINE
  5
425
100
AcDbEntity
  8
0
100
AcDbLine
 62
7
  6
CONTINUOUS
 10
27.7057536995
 20
2.6053488924
 11
27.7641395046
 21
2.5761559898
  0
LINE
  5
426
100
AcDbEntity
  8
0
100
AcDbLine
 62
7
  6
CONTINUOUS
 10
27.7641395046
 20
4.17786651
 11
27.7057536995
 21
4.2070594126
  0
LINE
  5
427
100
AcDbEntity
  8
0
100
AcDbLine
 62
7
  6
CONTINUOUS
 10
25.9518750308
 20
5.786367
 11
26.1231787196
 21
5.7007151556
  0
LINE
  5
428
100
AcDbEntity
  8
0
100
AcDbLine
 62
7
  6
CONTINUOUS
 10
26.491285782
 20
5.5166616244
 11
26.6661872301
 21
5.4292109004
  0
LINE
  5
429
100
AcDbEntity
  8
0
100
AcDbLine
 62
7
  6
CONTINUOUS
 10
27.0342942925
 20
5.2451573692
 11
27.2055979813
 21
5.1595055248
  0
LINE
  5
42A
100
AcDbEntity
  8
0
100
AcDbLine
 62
7
  6
CONTINUOUS
 10
27.3622999151
 20
5.0811545579
 11
27.5445015336
 21
4.9900537486
  0
LINE
  5
42B
100
AcDbEntity
  8
0
100
AcDbLine
 62
7
  6
CONTINUOUS
 10
26.6327071382
 20
5.5873723025
 11
26.7227557726
 21
5.5423479854
  0
LINE
  5
42C
100
AcDbEntity
  8
0
100
AcDbLine
 62
7
  6
CONTINUOUS
 10
27.5037212713
 20
5.151865236
 11
27.551168033
 21
5.1281418552
  0
LINE
  5
42D
100
AcDbEntity
  8
0
100
AcDbLine
 62
7
  6
CONTINUOUS
 10
27.6812064876
 20
5.3882187643
 11
27.7641395046
 21
5.3467522559
  0
LINE
  5
42E
100
AcDbEntity
  8
0
100
AcDbLine
 62
7
  6
CONTINUOUS
 10
10.3311324586
 20
29.3942740053
 11
11.1828630826
 21
25.6779087985
  0
LINE
  5
42F
100
AcDbEntity
  8
0
100
AcDbLine
 62
7
  6
CONTINUOUS
 10
10.5091600764
 20
29.3052601964
 11
11.3242844389
 21
25.7486194767
  0
LINE
  5
430
100
AcDbEntity
  8
0
100
AcDbLine
 62
7
  6
CONTINUOUS
 10
11.4524821912
 20
26.5686465274
 11
10.9403523267
 21
29.0896640712
  0
LINE
  5
431
100
AcDbEntity
  8
0
100
AcDbLine
 62
7
  6
CONTINUOUS
 10
16.336291245
 20
23.1011947173
 11
16.0850562057
 21
26.5173121318
  0
LINE
  5
432
100
AcDbEntity
  8
0
100
AcDbLine
 62
7
  6
CONTINUOUS
 10
18.7986146531
 20
25.1220893288
 11
18.7986146531
 21
22.4144993305
  0
LINE
  5
433
100
AcDbEntity
  8
0
100
AcDbLine
 62
7
  6
CONTINUOUS
 10
18.9400360094
 20
25.0781206888
 11
18.9400360094
 21
22.4862824695
  0
LINE
  5
434
100
AcDbEntity
  8
0
100
AcDbLine
 62
7
  6
CONTINUOUS
 10
19.3385782545
 20
23.4266757122
 11
19.3385782545
 21
24.329982178
  0
LINE
  5
435
100
AcDbEntity
  8
0
100
AcDbLine
 62
7
  6
CONTINUOUS
 10
19.3571740683
 20
22.6980148422
 11
19.3571740683
 21
22.8784733797
  0
LINE
  5
436
100
AcDbEntity
  8
COPY-PUBBLISH
100
AcDbLine
 62
7
  6
CONTINUOUS
 10
4.2250836766
 20
-30.6825542655
 11
3.6863029576
 21
-31.7349796804
  0
LINE
  5
437
100
AcDbEntity
  8
ASSI
100
AcDbLine
 62
7
  6
CONTINUOUS
 10
3.8503156683
 20
-31.4770036173
 11
4.3653248716
 21
-30.4710123118
  0
LINE
  5
438
100
AcDbEntity
  8
COPY-PUBBLISH
100
AcDbLine
 62
7
  6
CONTINUOUS
 10
3.9917370246
 20
-31.5477142954
 11
4.5067462278
 21
-30.5417229899
  0
LINE
  5
439
100
AcDbEntity
  8
RACCORDO
100
AcDbLine
 62
253
  6
CONTINUOUS
 10
35.0406052326
 20
-2.6010734517
 11
35.0399540887
 21
-2.6014016658
  0
LINE
  5
43A
100
AcDbEntity
  8
RACCORDO
100
AcDbLine
 62
253
  6
CONTINUOUS
 10
35.1179220444
 20
-2.4391395256
 11
34.4815259414
 21
-2.7573375772
  0
LINE
  5
43B
100
AcDbEntity
  8
RACCORDO
100
AcDbLine
 62
7
  6
CONTINUOUS
 10
35.0399540887
 20
-2.6014016658
 11
34.4035579857
 21
-2.9195997173
  0
LINE
  5
43C
100
AcDbEntity
  8
COPY-PUBBLISH
100
AcDbLine
 62
7
  6
CONTINUOUS
 10
34.3754599242
 20
-3.357395236
 11
35.3654094178
 21
-2.8624204891
  0
LINE
  5
43D
100
AcDbEntity
  8
COPY-PUBBLISH
100
AcDbLine
 62
7
  6
CONTINUOUS
 10
35.7896734866
 20
-4.3823392623
 11
36.7796229802
 21
-3.8873645155
  0
LINE
  5
43E
100
AcDbEntity
  8
DRAFT
100
AcDbLine
 62
7
  6
CONTINUOUS
 10
-7.1167069623
 20
-27.1690026912
 11
-6.6013780456
 21
-26.9113382329
  0
LINE
  5
43F
100
AcDbEntity
  8
DRAFT
100
AcDbLine
 62
7
  6
CONTINUOUS
 10
-12.7648202842
 20
-26.4491217948
 11
-5.7592745724
 21
-22.960210011
  0
LINE
  5
440
100
AcDbEntity
  8
DRAFT
100
AcDbLine
 62
7
  6
CONTINUOUS
 10
-4.5977207911
 20
-24.9662197905
 11
-12.3491744783
 21
-28.7555919737
  0
LINE
  5
441
100
AcDbEntity
  8
DRAFT
100
AcDbLine
 62
7
  6
CONTINUOUS
 10
-13.6079060067
 20
-26.7271280255
 11
-12.8946283981
 21
-26.3842177378
  0
LINE
  5
442
100
AcDbEntity
  8
DRAFT
100
AcDbLine
 62
7
  6
CONTINUOUS
 10
-4.6237478803
 20
-23.2054894308
 11
-12.0814555998
 21
-26.790804137
  0
LINE
  5
443
100
AcDbEntity
  8
COPY-PUBBLISH
100
AcDbLine
 62
253
  6
CONTINUOUS
 10
29.2135804215
 20
6.4458282868
 11
27.7641395046
 21
7.0539409563
  0
LINE
  5
444
100
AcDbEntity
  8
0
100
AcDbLine
 62
7
  6
CONTINUOUS
 10
27.2055979813
 20
6.761215179
 11
26.9540914129
 21
6.8869684631
  0
LINE
  5
445
100
AcDbEntity
  8
0
100
AcDbLine
 62
7
  6
CONTINUOUS
 10
26.2051797717
 20
7.2614242837
 11
25.9518750308
 21
7.3880766542
  0
LINE
  5
446
100
AcDbEntity
  8
COPY-PUBBLISH
100
AcDbLine
 62
253
  6
CONTINUOUS
 10
35.5775414522
 20
3.9120411372
 11
35.3177338311
 21
4.0419449478
  0
LINE
  5
447
100
AcDbEntity
  8
RACCORDO
100
AcDbLine
 62
7
  6
CONTINUOUS
 10
-18.235359018
 20
32.1887679245
 11
8.0731620859
 21
19.0345073726
  0
LINE
  5
448
100
AcDbEntity
  8
COPY-PUBBLISH
100
AcDbLine
 62
253
  6
CONTINUOUS
 10
35.5825225258
 20
6.1135410634
 11
35.7896734866
 21
6.0099655831
  0
LINE
  5
449
100
AcDbEntity
  8
0
100
AcDbLine
 62
7
  6
CONTINUOUS
 10
14.2690730555
 20
26.2834388196
 11
14.9269786398
 21
23.80585102
  0
LINE
  5
44A
100
AcDbEntity
  8
0
100
AcDbLine
 62
7
  6
CONTINUOUS
 10
14.4104944117
 20
26.3541494978
 11
15.068399996
 21
23.8765616981
  0
LINE
  5
44B
100
AcDbEntity
  8
0
100
AcDbLine
 62
7
  6
CONTINUOUS
 10
14.96936757
 20
25.2482611379
 11
14.4144754229
 21
27.3526025231
  0
LINE
  5
44C
100
AcDbEntity
  8
0
100
AcDbLine
 62
7
  6
CONTINUOUS
 10
26.6661872301
 20
5.4292109004
 11
27.0342942925
 21
6.5902827488
  0
LINE
  5
44D
100
AcDbEntity
  8
0
100
AcDbLine
 62
7
  6
CONTINUOUS
 10
26.9540914129
 20
6.8869684631
 11
26.5805396283
 21
5.7128183423
  0
LINE
  5
44E
100
AcDbEntity
  8
0
100
AcDbLine
 62
7
  6
CONTINUOUS
 10
27.0488718263
 20
6.811077061
 11
26.7219609846
 21
5.7835290205
  0
LINE
  5
44F
100
AcDbEntity
  8
0
100
AcDbLine
 62
7
  6
CONTINUOUS
 10
27.5445015336
 20
4.9900537486
 11
27.6812064876
 21
5.3882187643
  0
LINE
  5
450
100
AcDbEntity
  8
0
100
AcDbLine
 62
7
  6
CONTINUOUS
 10
27.7359089753
 20
5.5526575064
 11
27.7641395046
 21
5.633536848
  0
LINE
  5
451
100
AcDbEntity
  8
0
100
AcDbLine
 62
7
  6
CONTINUOUS
 10
27.7641395046
 20
6.1884041066
 11
27.3622999151
 21
5.0811545579
  0
LINE
  5
452
100
AcDbEntity
  8
0
100
AcDbLine
 62
7
  6
CONTINUOUS
 10
27.7641395046
 20
5.8694350793
 11
27.5037212713
 21
5.151865236
  0
LINE
  5
453
100
AcDbEntity
  8
ASSI
100
AcDbLine
 62
7
  6
CONTINUOUS
 10
5.0931623308
 20
-29.4198593366
 11
5.2439722224
 21
-29.2407857402
  0
LINE
  5
454
100
AcDbEntity
  8
COPY-PUBBLISH
100
AcDbLine
 62
7
  6
CONTINUOUS
 10
5.1989924529
 20
-29.5328315018
 11
5.3853935786
 21
-29.3114964183
  0
LINE
  5
455
100
AcDbEntity
  8
DRAFT
100
AcDbLine
 62
7
  6
CONTINUOUS
 10
-7.6839446477
 20
-29.2036590752
 11
-7.258726548
 21
-28.9863085704
  0
LINE
  5
456
100
AcDbEntity
  8
DRAFT
100
AcDbLine
 62
7
  6
CONTINUOUS
 10
-4.5791107855
 20
-26.2251850771
 11
-4.8689664317
 21
-26.3701129002
  0
LINE
  5
457
100
AcDbEntity
  8
DRAFT
100
AcDbLine
 62
7
  6
CONTINUOUS
 10
-9.5358711875
 20
-28.7035652781
 11
-12.2935876341
 21
-30.0824235014
  0
LINE
  5
458
100
AcDbEntity
  8
DRAFT
100
AcDbLine
 62
7
  6
CONTINUOUS
 10
-9.3944498313
 20
-28.9140919084
 11
-8.8287644063
 21
-28.6312491959
  0
LINE
  5
459
100
AcDbEntity
  8
DRAFT
100
AcDbLine
 62
7
  6
CONTINUOUS
 10
-5.2225198223
 20
-31.0000569129
 11
-4.6568343973
 21
-30.7172142004
  0
LINE
  5
45A
100
AcDbEntity
  8
COPY-PUBBLISH
100
AcDbLine
 62
253
  6
CONTINUOUS
 10
36.7796229802
 20
6.5049403299
 11
35.5775414522
 21
7.1059810939
  0
LINE
  5
45B
100
AcDbEntity
  8
COPY-PUBBLISH
100
AcDbLine
 62
7
  6
CONTINUOUS
 10
36.9137870589
 20
6.5134608661
 11
35.649154483
 21
7.145777154
  0
LINE
  5
45C
100
AcDbEntity
  8
0
100
AcDbLine
 62
7
  6
CONTINUOUS
 10
18.558213954
 20
22.2924759156
 11
17.8095913571
 21
25.655044556
  0
LINE
  5
45D
100
AcDbEntity
  8
0
100
AcDbLine
 62
7
  6
CONTINUOUS
 10
17.8975738255
 20
22.9774544805
 11
18.0428552777
 21
22.247912701
  0
LINE
  5
45E
100
AcDbEntity
  8
0
100
AcDbLine
 62
7
  6
CONTINUOUS
 10
18.0389951817
 20
23.0481651586
 11
18.1842766339
 21
22.3186233791
  0
LINE
  5
45F
100
AcDbEntity
  8
0
100
AcDbLine
 62
7
  6
CONTINUOUS
 10
17.5277930414
 20
24.8917984699
 11
17.7854952794
 21
23.5418004361
  0
LINE
  5
460
100
AcDbEntity
  8
0
100
AcDbLine
 62
7
  6
CONTINUOUS
 10
17.6692143976
 20
24.962509148
 11
17.9269166356
 21
23.6125111142
  0
LINE
  5
461
100
AcDbEntity
  8
0
100
AcDbLine
 62
7
  6
CONTINUOUS
 10
25.9518750308
 20
7.3880766542
 11
25.9518750308
 21
5.786367
  0
LINE
  5
462
100
AcDbEntity
  8
DRAFT
100
AcDbLine
 62
7
  6
CONTINUOUS
 10
26.0017463514
 20
-31.1029941488
 11
26.0017463514
 21
-31.8526646336
  0
LINE
  5
463
100
AcDbEntity
  8
0
100
AcDbLine
 62
7
  6
CONTINUOUS
 10
26.0932963871
 20
7.3173659761
 11
26.0932963871
 21
5.8570776781
  0
LINE
  5
464
100
AcDbEntity
  8
0
100
AcDbLine
 62
7
  6
CONTINUOUS
 10
26.1231787196
 20
5.7007151556
 11
26.1231787196
 21
7.0432485212
  0
LINE
  5
465
100
AcDbEntity
  8
0
100
AcDbLine
 62
7
  6
CONTINUOUS
 10
26.2214743404
 20
2.6464167588
 11
26.2214743404
 21
1.0434106646
  0
LINE
  5
466
100
AcDbEntity
  8
0
100
AcDbLine
 62
7
  6
CONTINUOUS
 10
26.3628956966
 20
2.5580139155
 11
26.3628956966
 21
1.1141213428
  0
LINE
  5
467
100
AcDbEntity
  8
0
100
AcDbLine
 62
7
  6
CONTINUOUS
 10
26.3982800271
 20
0.9550078213
 11
26.3982800271
 21
2.5580139155
  0
LINE
  5
468
100
AcDbEntity
  8
0
100
AcDbLine
 62
7
  6
CONTINUOUS
 10
26.5878885891
 20
2.4632096345
 11
26.5878885891
 21
2.2714187825
  0
LINE
  5
469
100
AcDbEntity
  8
0
100
AcDbLine
 62
7
  6
CONTINUOUS
 10
27.0306965332
 20
2.0500148105
 11
27.0306965332
 21
0.6387995683
  0
LINE
  5
46A
100
AcDbEntity
  8
0
100
AcDbLine
 62
7
  6
CONTINUOUS
 10
27.0342942925
 20
6.5902827488
 11
27.0342942925
 21
5.2451573692
  0
LINE
  5
46B
100
AcDbEntity
  8
0
100
AcDbLine
 62
7
  6
CONTINUOUS
 10
27.1721178894
 20
2.1207254886
 11
27.1721178894
 21
0.7095102464
  0
LINE
  5
46C
100
AcDbEntity
  8
0
100
AcDbLine
 62
7
  6
CONTINUOUS
 10
27.1757156487
 20
6.6609934269
 11
27.1757156487
 21
5.3158680473
  0
LINE
  5
46D
100
AcDbEntity
  8
0
100
AcDbLine
 62
7
  6
CONTINUOUS
 10
27.2055979813
 20
5.1595055248
 11
27.2055979813
 21
6.761215179
  0
LINE
  5
46E
100
AcDbEntity
  8
0
100
AcDbLine
 62
7
  6
CONTINUOUS
 10
27.2073968609
 20
0.5504494044
 11
27.2073968609
 21
1.9616646466
  0
LINE
  5
46F
100
AcDbEntity
  8
0
100
AcDbLine
 62
7
  6
CONTINUOUS
 10
27.6502040979
 20
1.7402610282
 11
27.6502040979
 21
1.9320518801
  0
LINE
  5
470
100
AcDbEntity
  8
0
100
AcDbLine
 62
7
  6
CONTINUOUS
 10
27.7057536995
 20
4.2070594126
 11
27.7057536995
 21
2.6053488924
  0
LINE
  5
471
100
AcDbEntity
  8
DRAFT
100
AcDbLine
 62
7
  6
CONTINUOUS
 10
27.7641395046
 20
-10.7861823617
 11
27.7641395046
 21
7.0539409563
  0
LINE
  5
472
100
AcDbEntity
  8
COPY-PUBBLISH
100
AcDbLine
 62
7
  6
CONTINUOUS
 10
29.2135804215
 20
-11.3942950311
 11
29.2135804215
 21
6.4458282868
  0
LINE
  5
473
100
AcDbEntity
  8
0
100
AcDbLine
 62
7
  6
CONTINUOUS
 10
27.7641395046
 20
0.4771268393
 11
27.7012041745
 21
0.3035457476
  0
LINE
  5
474
100
AcDbEntity
  8
ASSI
100
AcDbLine
 62
7
  6
CONTINUOUS
 10
11.1567622881
 20
-41.3513613966
 11
9.6627378895
 21
-44.2790427942
  0
LINE
  5
475
100
AcDbEntity
  8
ASSI
100
AcDbLine
 62
7
  6
CONTINUOUS
 10
9.6673673164
 20
-40.6066639108
 11
8.1603045899
 21
-43.5278265697
  0
LINE
  5
476
100
AcDbEntity
  8
COPY-PUBBLISH
100
AcDbLine
 62
7
  6
CONTINUOUS
 10
37.3453084052
 20
-12.1781733005
 11
36.545845775
 21
-12.5779046156
  0
LINE
  5
477
100
AcDbEntity
  8
COPY-PUBBLISH
100
AcDbLine
 62
7
  6
CONTINUOUS
 10
35.5775414522
 20
-13.062056777
 11
33.668353143
 21
-14.0166509316
  0
LINE
  5
478
100
AcDbEntity
  8
COPY-PUBBLISH
100
AcDbLine
 62
7
  6
CONTINUOUS
 10
16.4856583602
 20
-23.8204338883
 11
24.2638329532
 21
-19.9313465918
  0
LINE
  5
479
100
AcDbEntity
  8
COPY-PUBBLISH
100
AcDbLine
 62
7
  6
CONTINUOUS
 10
35.0825667054
 20
-14.6951847965
 11
36.2846482334
 21
-14.0941440324
  0
LINE
  5
47A
100
AcDbEntity
  8
COPY-PUBBLISH
100
AcDbLine
 62
7
  6
CONTINUOUS
 10
5.4876044496
 20
-29.5081530566
 11
5.2603212383
 21
-29.6217946623
  0
LINE
  5
47B
100
AcDbEntity
  8
COPY-PUBBLISH
100
AcDbLine
 62
7
  6
CONTINUOUS
 10
3.6455849207
 20
-30.4382534898
 11
3.4170515445
 21
-30.5525201778
  0
LINE
  5
47C
100
AcDbEntity
  8
COPY-PUBBLISH
100
AcDbLine
 62
7
  6
CONTINUOUS
 10
5.2603212383
 20
-29.8683901999
 11
4.5042047867
 21
-30.2464484257
  0
LINE
  5
47D
100
AcDbEntity
  8
COPY-PUBBLISH
100
AcDbLine
 62
7
  6
CONTINUOUS
 10
4.2250836766
 20
-30.3860089807
 11
3.6455849207
 21
-30.6757583587
  0
LINE
  5
47E
100
AcDbEntity
  8
ASSI
100
AcDbLine
 62
7
  6
CONTINUOUS
 10
3.5041635644
 20
-30.9015929653
 11
4.0836623204
 21
-30.6118435874
  0
LINE
  5
47F
100
AcDbEntity
  8
ASSI
100
AcDbLine
 62
7
  6
CONTINUOUS
 10
4.3653248716
 20
-30.4710123118
 11
5.118899882
 21
-30.0942248065
  0
LINE
  5
480
100
AcDbEntity
  8
COPY-PUBBLISH
100
AcDbLine
 62
7
  6
CONTINUOUS
 10
3.6455849207
 20
-30.9723036435
 11
4.2250836766
 21
-30.6825542655
  0
LINE
  5
481
100
AcDbEntity
  8
COPY-PUBBLISH
100
AcDbLine
 62
7
  6
CONTINUOUS
 10
4.5067462278
 20
-30.5417229899
 11
5.2603212383
 21
-30.1649354847
  0
LINE
  5
482
100
AcDbEntity
  8
ASSI
100
AcDbLine
 62
7
  6
CONTINUOUS
 10
3.4170515445
 20
-31.182749107
 11
3.5041635644
 21
-31.139193097
  0
LINE
  5
483
100
AcDbEntity
  8
ASSI
100
AcDbLine
 62
7
  6
CONTINUOUS
 10
5.2603212383
 20
-30.2702040628
 11
5.3461830934
 21
-30.2272731352
  0
LINE
  5
484
100
AcDbEntity
  8
COPY-PUBBLISH
100
AcDbLine
 62
7
  6
CONTINUOUS
 10
3.4170515445
 20
-31.3241704632
 11
3.6455849207
 21
-31.2099037752
  0
LINE
  5
485
100
AcDbEntity
  8
COPY-PUBBLISH
100
AcDbLine
 62
7
  6
CONTINUOUS
 10
5.2603212383
 20
-30.411625419
 11
5.4876044496
 21
-30.2979838133
  0
LINE
  5
486
100
AcDbEntity
  8
DRAFT
100
AcDbLine
 62
7
  6
CONTINUOUS
 10
36.084457413
 20
-11.5477478044
 11
35.5775414522
 21
-11.7968202681
  0
LINE
  5
487
100
AcDbEntity
  8
COPY-PUBBLISH
100
AcDbLine
 62
7
  6
CONTINUOUS
 10
33.8019690656
 20
-14.0548859766
 11
35.0145410002
 21
-13.4590904158
  0
LINE
  5
488
100
AcDbEntity
  8
DRAFT
100
AcDbLine
 62
7
  6
CONTINUOUS
 10
15.0427679599
 20
-22.9443811176
 11
22.8888216543
 21
-19.0965067052
  0
LINE
  5
489
100
AcDbEntity
  8
DRAFT
100
AcDbLine
 62
7
  6
CONTINUOUS
 10
-4.4634463257
 20
-31.2323138444
 11
-5.9447504374
 21
-31.9578039941
  0
LINE
  5
48A
100
AcDbEntity
  8
0
100
AcDbLine
 62
7
  6
CONTINUOUS
 10
11.1828630826
 20
25.6779087985
 11
11.6770826394
 21
25.4307990202
  0
LINE
  5
48B
100
AcDbEntity
  8
0
100
AcDbLine
 62
7
  6
CONTINUOUS
 10
12.7488104465
 20
24.8949351166
 11
13.3096260271
 21
24.6145273263
  0
LINE
  5
48C
100
AcDbEntity
  8
0
100
AcDbLine
 62
7
  6
CONTINUOUS
 10
13.6115309242
 20
24.4635748778
 11
14.1480496086
 21
24.1953155356
  0
LINE
  5
48D
100
AcDbEntity
  8
0
100
AcDbLine
 62
7
  6
CONTINUOUS
 10
14.9269786398
 20
23.80585102
 11
15.0056329555
 21
23.7665238621
  0
LINE
  5
48E
100
AcDbEntity
  8
0
100
AcDbLine
 62
7
  6
CONTINUOUS
 10
15.7876640641
 20
23.3755083078
 11
16.336291245
 21
23.1011947173
  0
LINE
  5
48F
100
AcDbEntity
  8
0
100
AcDbLine
 62
7
  6
CONTINUOUS
 10
16.4243543236
 20
23.0571631781
 11
16.9790859574
 21
22.7797973612
  0
LINE
  5
490
100
AcDbEntity
  8
0
100
AcDbLine
 62
7
  6
CONTINUOUS
 10
18.0428552777
 20
22.247912701
 11
18.25824619
 21
22.1402172449
  0
LINE
  5
491
100
AcDbEntity
  8
0
100
AcDbLine
 62
7
  6
CONTINUOUS
 10
11.3242844389
 20
25.7486194767
 11
11.7336511819
 21
25.5439361051
  0
LINE
  5
492
100
AcDbEntity
  8
0
100
AcDbLine
 62
7
  6
CONTINUOUS
 10
12.8902318028
 20
24.9656457947
 11
13.3096260271
 21
24.7559486826
  0
LINE
  5
493
100
AcDbEntity
  8
0
100
AcDbLine
 62
7
  6
CONTINUOUS
 10
13.7529522804
 20
24.5342855559
 11
14.1560152705
 21
24.3327540608
  0
LINE
  5
494
100
AcDbEntity
  8
0
100
AcDbLine
 62
7
  6
CONTINUOUS
 10
15.9290854203
 20
23.4462189859
 11
16.3254934936
 21
23.2480149493
  0
LINE
  5
495
100
AcDbEntity
  8
0
100
AcDbLine
 62
7
  6
CONTINUOUS
 10
16.5657756798
 20
23.1278738562
 11
17.0356544999
 21
22.8929344462
  0
LINE
  5
496
100
AcDbEntity
  8
0
100
AcDbLine
 62
7
  6
CONTINUOUS
 10
18.1842766339
 20
22.3186233791
 11
18.398603157
 21
22.2114601176
  0
LINE
  5
497
100
AcDbEntity
  8
0
100
AcDbLine
 62
7
  6
CONTINUOUS
 10
17.1338362764
 20
23.359323255
 11
17.8975738255
 21
22.9774544805
  0
LINE
  5
498
100
AcDbEntity
  8
0
100
AcDbLine
 62
7
  6
CONTINUOUS
 10
17.2752576327
 20
23.4300339331
 11
18.0389951817
 21
23.0481651586
  0
LINE
  5
499
100
AcDbEntity
  8
0
100
AcDbLine
 62
7
  6
CONTINUOUS
 10
17.7854952794
 20
23.5418004361
 11
17.2485537451
 21
23.8102712032
  0
LINE
  5
49A
100
AcDbEntity
  8
0
100
AcDbLine
 62
7
  6
CONTINUOUS
 10
19.3571740683
 20
22.8784733797
 11
19.5362744084
 21
22.7889232097
  0
LINE
  5
49B
100
AcDbEntity
  8
0
100
AcDbLine
 62
7
  6
CONTINUOUS
 10
19.4985954245
 20
22.9491840578
 11
19.6766313754
 21
22.8601660824
  0
LINE
  5
49C
100
AcDbEntity
  8
0
100
AcDbLine
 62
7
  6
CONTINUOUS
 10
19.6590790184
 20
23.2664253303
 11
19.3385782545
 21
23.4266757122
  0
LINE
  5
49D
100
AcDbEntity
  8
COPY-PUBBLISH
100
AcDbLine
 62
7
  6
CONTINUOUS
 10
35.5775414522
 20
15.4458553862
 11
36.545845775
 21
14.9617032248
  0
LINE
  5
49E
100
AcDbEntity
  8
0
100
AcDbLine
 62
7
  6
CONTINUOUS
 10
26.5805396283
 20
5.7128183423
 11
26.2051797717
 21
7.2614242837
  0
LINE
  5
49F
100
AcDbEntity
  8
0
100
AcDbLine
 62
7
  6
CONTINUOUS
 10
26.1231787196
 20
7.0432485212
 11
26.491285782
 21
5.5166616244
  0
LINE
  5
4A0
100
AcDbEntity
  8
0
100
AcDbLine
 62
7
  6
CONTINUOUS
 10
26.6012538315
 20
5.7178131739
 11
26.6327071382
 21
5.5873723025
  0
LINE
  5
4A1
100
AcDbEntity
  8
RACCORDO
100
AcDbLine
 62
7
  6
CONTINUOUS
 10
30.7692153401
 20
-30.2752542377
 11
30.7692153401
 21
-31.0478331541
  0
LINE
  5
4A2
100
AcDbEntity
  8
COPY-PUBBLISH
100
AcDbLine
 62
7
  6
CONTINUOUS
 10
33.4562211086
 20
-14.3825245699
 11
33.4562211086
 21
-27.6327132478
  0
LINE
  5
4A3
100
AcDbEntity
  8
COPY-PUBBLISH
100
AcDbLine
 62
7
  6
CONTINUOUS
 10
33.587985783
 20
-14.4198339908
 11
33.587985783
 21
-27.7447533007
  0
LINE
  5
4A4
100
AcDbEntity
  8
RACCORDO
100
AcDbLine
 62
253
  6
CONTINUOUS
 10
33.7037084821
 20
-14.0166509316
 11
33.7037084821
 21
-14.1328123021
  0
LINE
  5
4A5
100
AcDbEntity
  8
RACCORDO
100
AcDbLine
 62
7
  6
CONTINUOUS
 10
33.7915764477
 20
-13.9550392792
 11
33.7915764477
 21
-14.0548859766
  0
LINE
  5
4A6
100
AcDbEntity
  8
COPY-PUBBLISH
100
AcDbLine
 62
253
  6
CONTINUOUS
 10
-0.6221533919
 20
-35.9731134585
 11
1.6364159552
 21
-35.0250577866
  0
LINE
  5
4A7
100
AcDbEntity
  8
COPY-PUBBLISH
100
AcDbLine
 62
7
  6
CONTINUOUS
 10
-0.7759606357
 20
-36.2543091562
 11
1.4950784947
 21
-35.3010191758
  0
LINE
  5
4A8
100
AcDbEntity
  8
0
100
AcDbLine
 62
7
  6
CONTINUOUS
 10
17.8095913571
 20
25.655044556
 11
17.2670693361
 21
25.9263055665
  0
LINE
  5
4A9
100
AcDbEntity
  8
0
100
AcDbLine
 62
7
  6
CONTINUOUS
 10
16.0850562057
 20
26.5173121318
 11
15.5301838576
 21
26.7947483058
  0
LINE
  5
4AA
100
AcDbEntity
  8
0
100
AcDbLine
 62
7
  6
CONTINUOUS
 10
14.4144754229
 20
27.3526025231
 11
13.8541229973
 21
27.6327787359
  0
LINE
  5
4AB
100
AcDbEntity
  8
0
100
AcDbLine
 62
7
  6
CONTINUOUS
 10
12.5406898289
 20
28.2894953201
 11
11.9802567932
 21
28.569711838
  0
LINE
  5
4AC
100
AcDbEntity
  8
0
100
AcDbLine
 62
7
  6
CONTINUOUS
 10
10.9403523267
 20
29.0896640712
 11
10.3311324586
 21
29.3942740053
  0
LINE
  5
4AD
100
AcDbEntity
  8
0
100
AcDbLine
 62
7
  6
CONTINUOUS
 10
13.3096260271
 20
27.9052246749
 11
12.7488104465
 21
28.1856324651
  0
LINE
  5
4AE
100
AcDbEntity
  8
COPY-PUBBLISH
100
AcDbLine
 62
7
  6
CONTINUOUS
 10
34.1633278898
 20
3.204934356
 11
34.1633278898
 21
-3.203653632
  0
LINE
  5
4AF
100
AcDbEntity
  8
RACCORDO
100
AcDbLine
 62
253
  6
CONTINUOUS
 10
34.4815259414
 20
-2.7573375772
 11
34.4815259414
 21
3.2182377089
  0
LINE
  5
4B0
100
AcDbEntity
  8
COPY-PUBBLISH
100
AcDbLine
 62
7
  6
CONTINUOUS
 10
34.870434671
 20
-28.3859777447
 11
34.870434671
 21
-15.0610584348
  0
LINE
  5
4B1
100
AcDbEntity
  8
RACCORDO
100
AcDbLine
 62
253
  6
CONTINUOUS
 10
35.1179220444
 20
3.5364357605
 11
35.1179220444
 21
-2.4391395256
  0
LINE
  5
4B2
100
AcDbEntity
  8
RACCORDO
100
AcDbLine
 62
7
  6
CONTINUOUS
 10
35.2057889166
 20
3.6429067729
 11
35.2057900101
 21
-2.3330735085
  0
LINE
  5
4B3
100
AcDbEntity
  8
COPY-PUBBLISH
100
AcDbLine
 62
7
  6
CONTINUOUS
 10
35.5775414522
 20
-13.062056777
 11
35.5775414522
 21
-4.7482129006
  0
LINE
  5
4B4
100
AcDbEntity
  8
COPY-PUBBLISH
100
AcDbLine
 62
7
  6
CONTINUOUS
 10
35.5775414522
 20
-2.4965468508
 11
35.5775414522
 21
3.9120411372
  0
LINE
  5
4B5
100
AcDbEntity
  8
COPY-PUBBLISH
100
AcDbLine
 62
7
  6
CONTINUOUS
 10
35.5775414522
 20
6.163707187
 11
35.5775414522
 21
15.8631917094
  0
LINE
  5
4B6
100
AcDbEntity
  8
COPY-PUBBLISH
100
AcDbLine
 62
7
  6
CONTINUOUS
 10
36.9917550146
 20
-3.5214908772
 11
36.9917550146
 21
6.351198726
  0
LINE
  5
4B7
100
AcDbEntity
  8
RACCORDO
100
AcDbLine
 62
253
  6
CONTINUOUS
 10
35.2057899311
 20
-2.332964659
 11
35.2057898055
 21
-2.3332486682
  0
LINE
  5
4B8
100
AcDbEntity
  8
DRAFT
100
AcDbLine
 62
7
  6
CONTINUOUS
 10
35.0145410002
 20
-13.4590904158
 11
35.0365456612
 21
-13.3325546725
  0
LINE
  5
4B9
100
AcDbEntity
  8
RACCORDO
100
AcDbLine
 62
253
  6
CONTINUOUS
 10
33.587985783
 20
-25.1725799961
 11
33.4562211086
 21
-25.2384623333
  0
LINE
  5
4BA
100
AcDbEntity
  8
RACCORDO
100
AcDbLine
 62
7
  6
CONTINUOUS
 10
33.587985783
 20
-25.2958581584
 11
33.4562211086
 21
-25.3617404956
  0
LINE
  5
4BB
100
AcDbEntity
  8
RACCORDO
100
AcDbLine
 62
7
  6
CONTINUOUS
 10
39.1130753581
 20
-28.4169742068
 11
39.1130753581
 21
-12.544289824
  0
LINE
  5
4BC
100
AcDbEntity
  8
COPY-PUBBLISH
100
AcDbLine
 62
7
  6
CONTINUOUS
 10
39.1130753581
 20
16.2453180163
 11
39.1130753581
 21
30.0591167052
  0
LINE
  5
4BD
100
AcDbEntity
  8
COPY-PUBBLISH
100
AcDbLine
 62
7
  6
CONTINUOUS
 10
36.2846482334
 20
-14.0941440324
 11
36.545845775
 21
-12.5779046156
  0
LINE
  5
4BE
100
AcDbEntity
  8
RACCORDO
100
AcDbLine
 62
7
  6
CONTINUOUS
 10
30.7619317013
 20
-31.0341869324
 11
32.1186953016
 21
-30.3100175434
  0
LINE
  5
4BF
100
AcDbEntity
  8
RACCORDO
100
AcDbLine
 62
7
  6
CONTINUOUS
 10
27.0689021647
 20
-32.7698218552
 11
11.9600192301
 21
-40.4857498822
  0
LINE
  5
4C0
100
AcDbEntity
  8
RACCORDO
100
AcDbLine
 62
7
  6
CONTINUOUS
 10
26.0017463514
 20
-31.8526646336
 11
12.2404775097
 21
-38.8376568681
  0
LINE
  5
4C1
100
AcDbEntity
  8
RACCORDO
100
AcDbLine
 62
7
  6
CONTINUOUS
 10
25.7183703339
 20
-32.0945559398
 11
10.4776341755
 21
-39.7445573549
  0
LINE
  5
4C2
100
AcDbEntity
  8
RACCORDO
100
AcDbLine
 62
7
  6
CONTINUOUS
 10
33.4562211086
 20
-27.6327132478
 11
31.8298755119
 21
-28.4458860462
  0
LINE
  5
4C3
100
AcDbEntity
  8
RACCORDO
100
AcDbLine
 62
7
  6
CONTINUOUS
 10
2.6600596209
 20
-41.7755361361
 11
27.0919228957
 21
-30.6045316736
  0
LINE
  5
4C4
100
AcDbEntity
  8
RACCORDO
100
AcDbLine
 62
253
  6
CONTINUOUS
 10
-0.4568512551
 20
45.0419184965
 11
-0.4570393258
 21
45.0420122076
  0
LINE
  5
4C5
100
AcDbEntity
  8
RACCORDO
100
AcDbLine
 62
253
  6
CONTINUOUS
 10
30.5254328726
 20
28.3668381112
 11
-0.8058477715
 21
44.0324784332
  0
LINE
  5
4C6
100
AcDbEntity
  8
RACCORDO
100
AcDbLine
 62
253
  6
CONTINUOUS
 10
31.0340489003
 20
28.5844697528
 11
-0.8058477715
 21
44.5044180887
  0
LINE
  5
4C7
100
AcDbEntity
  8
RACCORDO
100
AcDbLine
 62
7
  6
CONTINUOUS
 10
32.8747081744
 20
28.0168569142
 11
31.8901587233
 21
28.5091316398
  0
LINE
  5
4C8
100
AcDbEntity
  8
RACCORDO
100
AcDbLine
 62
7
  6
CONTINUOUS
 10
-1.0401623465
 20
44.9742921747
 11
-2.0247117977
 21
45.4665669003
  0
LINE
  5
4C9
100
AcDbEntity
  8
RACCORDO
100
AcDbLine
 62
253
  6
CONTINUOUS
 10
-0.5909704055
 20
45.0333755088
 11
33.1491265041
 21
28.163327054
  0
LINE
  5
4CA
100
AcDbEntity
  8
RACCORDO
100
AcDbLine
 62
7
  6
CONTINUOUS
 10
-0.4568063268
 20
45.0418960449
 11
33.2222609632
 21
28.2023623999
  0
LINE
  5
4CB
100
AcDbEntity
  8
COPY-PUBBLISH
100
AcDbLine
 62
7
  6
CONTINUOUS
 10
36.545845775
 20
14.9617032248
 11
36.2846482334
 21
16.2167451
  0
LINE
  5
4CC
100
AcDbEntity
  8
RACCORDO
100
AcDbLine
 62
7
  6
CONTINUOUS
 10
34.3645002214
 20
-29.9760245272
 11
34.4562211086
 21
-29.8178293973
  0
LINE
  5
4CD
100
AcDbEntity
  8
RACCORDO
100
AcDbLine
 62
7
  6
CONTINUOUS
 10
33.0776361103
 20
-29.3325924717
 11
33.1701574336
 21
-29.1747975598
  0
LINE
  5
4CE
100
AcDbEntity
  8
RACCORDO
100
AcDbLine
 62
7
  6
CONTINUOUS
 10
31.8668920181
 20
-31.7972415819
 11
33.4138555629
 21
-30.957597674
  0
LINE
  5
4CF
100
AcDbEntity
  8
COPY-PUBBLISH
100
AcDbLine
 62
7
  6
CONTINUOUS
 10
1.6364159552
 20
48.7974464066
 11
2.8818398789
 21
48.1747344448
  0
LINE
  5
4D0
100
AcDbEntity
  8
COPY-PUBBLISH
100
AcDbLine
 62
7
  6
CONTINUOUS
 10
37.8676514345
 20
30.681828667
 11
39.1130753581
 21
30.0591167052
  0
LINE
  5
4D1
100
AcDbEntity
  8
RACCORDO
100
AcDbLine
 62
7
  6
CONTINUOUS
 10
34.446304322
 20
-37.1834025525
 11
38.6988617958
 21
-29.8488258593
  0
LINE
  5
4D2
100
AcDbEntity
  8
RACCORDO
100
AcDbLine
 62
7
  6
CONTINUOUS
 10
10.4382342139
 20
-48.7117663869
 11
33.3969489805
 21
-38.2143310409
  0
ARC
  5
4D3
100
AcDbEntity
  8
ASSI
100
AcDbCircle
 62
7
  6
CONTINUOUS
 10
8.6524512478
 20
-29.8818074636
 40
2.9473745001
100
AcDbArc
 50
151.6777200185
 51
156.3184258287
  0
ARC
  5
4D4
100
AcDbEntity
  8
ASSI
100
AcDbCircle
 62
7
  6
CONTINUOUS
 10
8.5760852194
 20
-29.8499938765
 40
2.8646614977
100
AcDbArc
 50
156.2876635826
 51
161.3999252329
  0
ARC
  5
4D5
100
AcDbEntity
  8
ASSI
100
AcDbCircle
 62
7
  6
CONTINUOUS
 10
8.4094171829
 20
-29.79603285
 40
2.6894881858
100
AcDbArc
 50
161.3569346887
 51
166.7214771822
  0
ARC
  5
4D6
100
AcDbEntity
  8
ASSI
100
AcDbCircle
 62
7
  6
CONTINUOUS
 10
2.9432512311
 20
-29.6699456302
 40
2.4561481882
100
AcDbArc
 50
335.0539825415
 51
338.4769261301
  0
ARC
  5
4D7
100
AcDbEntity
  8
COPY-PUBBLISH
100
AcDbCircle
 62
7
  6
CONTINUOUS
 10
3.2151542434
 20
-29.7517104086
 40
2.4402276242
100
AcDbArc
 50
346.5470823986
 51
347.4810376279
  0
ARC
  5
4D8
100
AcDbEntity
  8
COPY-PUBBLISH
100
AcDbCircle
 62
7
  6
CONTINUOUS
 10
5.7794665705
 20
-31.0864941538
 40
2.4179507851
100
AcDbArc
 50
146.1676991584
 51
149.8948620433
  0
ARC
  5
4D9
100
AcDbEntity
  8
ASSI
100
AcDbCircle
 62
7
  6
CONTINUOUS
 10
3.334170522
 20
-30.2499457561
 40
2.0978420376
100
AcDbArc
 50
304.1851923912
 51
308.7394769152
  0
ARC
  5
4DA
100
AcDbEntity
  8
COPY-PUBBLISH
100
AcDbCircle
 62
7
  6
CONTINUOUS
 10
5.4155172954
 20
-30.5231592633
 40
2.0905510424
100
AcDbArc
 50
124.1499052495
 51
128.3693201339
  0
ARC
  5
4DB
100
AcDbEntity
  8
COPY-PUBBLISH
100
AcDbCircle
 62
7
  6
CONTINUOUS
 10
3.3477397707
 20
-29.8745074107
 40
1.9760135901
100
AcDbArc
 50
332.4092977048
 51
339.5311203224
  0
ARC
  5
4DC
100
AcDbEntity
  8
ASSI
100
AcDbCircle
 62
7
  6
CONTINUOUS
 10
4.4615492838
 20
1.6205997176
 40
1.7983854404
100
AcDbArc
 50
181.7035404052
 51
183.1571382035
  0
ARC
  5
4DD
100
AcDbEntity
  8
COPY-PUBBLISH
100
AcDbCircle
 62
7
  6
CONTINUOUS
 10
8.7822148574
 20
-7.2568845128
 40
1.4031380643
100
AcDbArc
 50
131.3877930458
 51
133.0056784305
  0
ARC
  5
4DE
100
AcDbEntity
  8
COPY-PUBBLISH
100
AcDbCircle
 62
7
  6
CONTINUOUS
 10
8.7471839114
 20
-7.2171083252
 40
1.3501351208
100
AcDbArc
 50
129.7341529482
 51
131.3884750997
  0
ARC
  5
4DF
100
AcDbEntity
  8
ASSI
100
AcDbCircle
 62
7
  6
CONTINUOUS
 10
3.2336996817
 20
-2.9364120154
 40
0.9867682395
100
AcDbArc
 50
248.5414950583
 51
257.1649692134
  0
ARC
  5
4E0
100
AcDbEntity
  8
ASSI
100
AcDbCircle
 62
7
  6
CONTINUOUS
 10
3.2336995158
 20
0.8612041659
 40
0.986767892
100
AcDbArc
 50
248.5414661559
 51
257.1648746962
  0
ARC
  5
4E1
100
AcDbEntity
  8
COPY-PUBBLISH
100
AcDbCircle
 62
7
  6
CONTINUOUS
 10
3.3659151558
 20
0.7646372118
 40
0.9593431979
100
AcDbArc
 50
240.5387535359
 51
243.4309114187
  0
ARC
  5
4E2
100
AcDbEntity
  8
COPY-PUBBLISH
100
AcDbCircle
 62
7
  6
CONTINUOUS
 10
3.3659152001
 20
-3.0329793575
 40
0.9593431405
100
AcDbArc
 50
240.5387557848
 51
243.430911345
  0
ARC
  5
4E3
100
AcDbEntity
  8
COPY-PUBBLISH
100
AcDbCircle
 62
7
  6
CONTINUOUS
 10
8.4344190316
 20
-6.9800840893
 40
0.9382978508
100
AcDbArc
 50
167.288533037
 51
172.0536728318
  0
ARC
  5
4E4
100
AcDbEntity
  8
COPY-PUBBLISH
100
AcDbCircle
 62
7
  6
CONTINUOUS
 10
8.5163514714
 20
-6.8306787988
 40
0.8968065139
100
AcDbArc
 50
113.5581381583
 51
116.5830777582
  0
ARC
  5
4E5
100
AcDbEntity
  8
ASSI
100
AcDbCircle
 62
7
  6
CONTINUOUS
 10
8.3415482924
 20
-6.9422150892
 40
0.8608270062
100
AcDbArc
 50
116.5812215836
 51
119.1903112257
  0
ARC
  5
4E6
100
AcDbEntity
  8
ASSI
100
AcDbCircle
 62
7
  6
CONTINUOUS
 10
4.6196184932
 20
-29.6114543894
 40
0.7260942271
100
AcDbArc
 50
30.6969150548
 51
36.4356166611
  0
ARC
  5
4E7
100
AcDbEntity
  8
COPY-PUBBLISH
100
AcDbCircle
 62
7
  6
CONTINUOUS
 10
4.8736055654
 20
-29.5335126398
 40
0.7147944305
100
AcDbArc
 50
39.3056780851
 51
47.5761012336
  0
ARC
  5
4E8
100
AcDbEntity
  8
ASSI
100
AcDbCircle
 62
7
  6
CONTINUOUS
 10
4.6563130572
 20
-29.584642106
 40
0.6806482506
100
AcDbArc
 50
36.4543427226
 51
40.9680390612
  0
ARC
  5
4E9
100
AcDbEntity
  8
COPY-PUBBLISH
100
AcDbCircle
 62
7
  6
CONTINUOUS
 10
4.8592078242
 20
-29.6248491655
 40
0.6221445192
100
AcDbArc
 50
76.2922108751
 51
85.3090052467
  0
ARC
  5
4EA
100
AcDbEntity
  8
COPY-PUBBLISH
100
AcDbCircle
 62
7
  6
CONTINUOUS
 10
4.6921153856
 20
-29.8337493615
 40
0.589470881
100
AcDbArc
 50
30.6963461287
 51
36.0584796435
  0
ARC
  5
4EB
100
AcDbEntity
  8
COPY-PUBBLISH
100
AcDbCircle
 62
7
  6
CONTINUOUS
 10
4.8685165907
 20
-29.5852206099
 40
0.5814389104
100
AcDbArc
 50
63.4715816025
 51
76.2580009048
  0
ARC
  5
4EC
100
AcDbEntity
  8
ASSI
100
AcDbCircle
 62
7
  6
CONTINUOUS
 10
8.2531071294
 20
-6.6256996329
 40
0.5335966821
100
AcDbArc
 50
95.8975329274
 51
98.5324432671
  0
ARC
  5
4ED
100
AcDbEntity
  8
COPY-PUBBLISH
100
AcDbCircle
 62
7
  6
CONTINUOUS
 10
4.7880584802
 20
-29.7442864252
 40
0.4573915979
100
AcDbArc
 50
59.9207165657
 51
63.4438985818
  0
ARC
  5
4EE
100
AcDbEntity
  8
ASSI
100
AcDbCircle
 62
7
  6
CONTINUOUS
 10
8.1884531994
 20
-6.1975451837
 40
0.366263524
100
AcDbArc
 50
25.4236258439
 51
31.7701128717
  0
ARC
  5
4EF
100
AcDbEntity
  8
RACCORDO
100
AcDbCircle
 62
253
  6
CONTINUOUS
 10
-6.104496517
 20
-17.0481432399
 40
0.3028970996
100
AcDbArc
 50
300.1114876779
 51
305.93582384
  0
ARC
  5
4F0
100
AcDbEntity
  8
RACCORDO
100
AcDbCircle
 62
7
  6
CONTINUOUS
 10
34.2693638147
 20
-2.650912744
 40
0.3003344221
100
AcDbArc
 50
243.4802515991
 51
296.5395730293
  0
ARC
  5
4F1
100
AcDbEntity
  8
COPY-PUBBLISH
100
AcDbCircle
 62
7
  6
CONTINUOUS
 10
8.3699525102
 20
-6.3457351275
 40
0.1806967649
100
AcDbArc
 50
54.7545830641
 51
63.5523223448
  0
ARC
  5
4F2
100
AcDbEntity
  8
DRAFT
100
AcDbCircle
 62
7
  6
CONTINUOUS
 10
-19.7003364695
 20
-18.7683802514
 40
0.1285876396
100
AcDbArc
 50
347.057963419
 51
356.4908018523
  0
ARC
  5
4F3
100
AcDbEntity
  8
0
100
AcDbCircle
 62
7
  6
CONTINUOUS
 10
14.8999800823
 20
12.9137971156
 40
12.8156837617
100
AcDbArc
 50
71.7768403548
 51
72.2894734522
  0
ARC
  5
4F4
100
AcDbEntity
  8
0
100
AcDbCircle
 62
7
  6
CONTINUOUS
 10
18.1877919736
 20
22.1222378498
 40
3.0307528967
100
AcDbArc
 50
60.4406815523
 51
62.0432998319
  0
ARC
  5
4F5
100
AcDbEntity
  8
0
100
AcDbCircle
 62
7
  6
CONTINUOUS
 10
18.9611195766
 20
22.6267546688
 40
1.8482676165
100
AcDbArc
 50
67.9098546799
 51
73.6957093346
  0
ARC
  5
4F6
100
AcDbEntity
  8
0
100
AcDbCircle
 62
7
  6
CONTINUOUS
 10
19.1008621418
 20
23.318682502
 40
1.5200205188
100
AcDbArc
 50
0.7982178493
 51
15.9686665161
  0
ARC
  5
4F7
100
AcDbEntity
  8
RACCORDO
100
AcDbCircle
 62
7
  6
CONTINUOUS
 10
-1.6097431994
 20
43.4165138894
 40
0.805912171
100
AcDbArc
 50
300.2003431446
 51
318.8122591377
  0
ARC
  5
4F8
100
AcDbEntity
  8
RACCORDO
100
AcDbCircle
 62
7
  6
CONTINUOUS
 10
-1.6051765316
 20
43.4116482549
 40
0.7992716076
100
AcDbArc
 50
318.8591684313
 51
354.2278982812
  0
ARC
  5
4F9
100
AcDbEntity
  8
RACCORDO
100
AcDbCircle
 62
7
  6
CONTINUOUS
 10
-1.6030065813
 20
43.4121044842
 40
0.7971588266
100
AcDbArc
 50
354.1795873614
 51
359.9882576508
  0
ARC
  5
4FA
100
AcDbEntity
  8
RACCORDO
100
AcDbCircle
 62
7
  6
CONTINUOUS
 10
-0.5909403132
 20
44.7732090716
 40
0.3003344222
100
AcDbArc
 50
63.4802516046
 51
116.5395730264
  0
ARC
  5
4FB
100
AcDbEntity
  8
RACCORDO
100
AcDbCircle
 62
253
  6
CONTINUOUS
 10
-1.007379199
 20
43.411905248
 40
0.2014980455
100
AcDbArc
 50
355.6144809798
 51
0.0087615411
  0
ARC
  5
4FC
100
AcDbEntity
  8
COPY-PUBBLISH
100
AcDbCircle
 62
253
  6
CONTINUOUS
 10
496.2040512207
 20
0.6545370026
 40
535.1731722727
100
AcDbArc
 50
178.0929952812
 51
181.8873915279
  0
ARC
  5
4FD
100
AcDbEntity
  8
COPY-PUBBLISH
100
AcDbCircle
 62
253
  6
CONTINUOUS
 10
523.1234080853
 20
-17.6790529342
 40
525.4292079747
100
AcDbArc
 50
178.0577049233
 51
181.9422950767
  0
ARC
  5
4FE
100
AcDbEntity
  8
COPY-PUBBLISH
100
AcDbCircle
 62
253
  6
CONTINUOUS
 10
523.2898619127
 20
-17.6822607522
 40
524.8947816493
100
AcDbArc
 50
178.057671618
 51
181.942328382
  0
SPLINE
  5
4FF
100
AcDbEntity
  8
0
100
AcDbSpline
 62
7
  6
CONTINUOUS
 70
0
 71
3
 72
9
 73
5
 74
3
 42
0.0000001
 43
0.0000001
 44
0.0000000001
 12
-0.4501185409
 22
0.4242242627
 32
0.0
 13
-0.5379893262
 23
0.3051891394
 33
0.0
 40
0.0
 40
0.0
 40
0.0
 40
0.0
 40
0.2616868119
 40
1.0
 40
1.0
 40
1.0
 40
1.0
 10
20.1826226976
 20
24.3954414506
 30
0.0
 10
20.1433593356
 20
24.4324460822
 30
0.0
 10
19.9872896109
 20
24.5673799657
 30
0.0
 10
19.8153377971
 20
24.6834159945
 30
0.0
 10
19.6829362589
 20
24.7585243834
 30
0.0
 11
20.1826226976
 21
24.3954414506
 31
0.0
 11
20.060588953
 21
24.5017727929
 31
0.0
 11
19.6829362589
 21
24.7585243834
 31
0.0
  0
SPLINE
  5
500
100
AcDbEntity
  8
0
100
AcDbSpline
 62
7
  6
CONTINUOUS
 70
0
 71
3
 72
9
 73
5
 74
3
 42
0.0000001
 43
0.0000001
 44
0.0000000001
 12
-0.6696768067
 22
0.3555123818
 32
0.0
 13
-0.7200635536
 23
0.2374122106
 33
0.0
 40
0.0
 40
0.0
 40
0.0
 40
0.0
 40
0.2577795841
 40
1.0
 40
1.0
 40
1.0
 40
1.0
 10
19.6086215503
 20
24.7993083448
 30
0.0
 10
19.5510785474
 20
24.8298562894
 30
0.0
 10
19.3240846189
 20
24.9413693993
 30
0.0
 10
19.0858350185
 20
25.0279821451
 30
0.0
 10
18.9076863951
 20
25.0867195416
 30
0.0
 11
19.6086215503
 21
24.7993083448
 31
0.0
 11
19.4333018035
 21
24.8856932586
 31
0.0
 11
18.9076863951
 21
25.0867195416
 31
0.0
  0
SPLINE
  5
501
100
AcDbEntity
  8
RACCORDO
100
AcDbSpline
 62
7
  6
CONTINUOUS
 70
0
 71
3
 72
9
 73
5
 74
3
 42
0.0000001
 43
0.0000001
 44
0.0000000001
 12
0.2933396367
 22
-0.1466670443
 32
0.0
 13
0.0006453031
 23
-0.3279618087
 33
0.0
 40
0.0
 40
0.0
 40
0.0
 40
0.0
 40
0.4999125771
 40
1.0
 40
1.0
 40
1.0
 40
1.0
 10
35.0394462631
 20
3.9109455053
 30
0.0
 10
35.0883276543
 20
3.8865052719
 30
0.0
 10
35.1746214318
 20
3.8092466623
 30
0.0
 10
35.2055194425
 20
3.6975757229
 30
0.0
 10
35.2056270119
 20
3.6429058643
 30
0.0
 11
35.0394462631
 21
3.9109455053
 31
0.0
 11
35.1607622445
 21
3.8006600963
 31
0.0
 11
35.2056270119
 21
3.6429058643
 31
0.0
  0
SPLINE
  5
502
100
AcDbEntity
  8
RACCORDO
100
AcDbSpline
 62
7
  6
CONTINUOUS
 70
0
 71
3
 72
9
 73
5
 74
3
 42
0.0000001
 43
0.0000001
 44
0.0000000001
 12
0.2933970881
 22
0.146698544
 32
0.0
 13
-0.0011059348
 23
0.3280260523
 33
0.0
 40
0.0
 40
0.0
 40
0.0
 40
0.0
 40
0.4998387749
 40
1.0
 40
1.0
 40
1.0
 40
1.0
 10
35.0399540887
 20
-2.6014016658
 30
0.0
 10
35.0888378357
 20
-2.5769597922
 30
0.0
 10
35.1746295172
 20
-2.4992357808
 30
0.0
 10
35.2059569599
 20
-2.3876518868
 30
0.0
 10
35.205772578
 20
-2.3329632494
 30
0.0
 11
35.0399540887
 21
-2.6014016658
 31
0.0
 11
35.1609945736
 21
-2.4908013305
 31
0.0
 11
35.205772578
 21
-2.3329632494
 31
0.0
  0
SPLINE
  5
503
100
AcDbEntity
  8
0
100
AcDbSpline
 62
7
  6
CONTINUOUS
 70
0
 71
3
 72
9
 73
5
 74
3
 42
0.0000001
 43
0.0000001
 44
0.0000000001
 12
-0.1346349145
 22
-0.0673138601
 32
0.0
 13
-0.1477419099
 23
0.0288104847
 33
0.0
 40
0.0
 40
0.0
 40
0.0
 40
0.0
 40
0.2351865983
 40
1.0
 40
1.0
 40
1.0
 40
1.0
 10
19.9603760067
 20
23.2247641486
 30
0.0
 10
19.9498212308
 20
23.2194870427
 30
0.0
 10
19.9021577915
 20
23.2024021179
 30
0.0
 10
19.8496784031
 20
23.2058379477
 30
0.0
 10
19.8120134055
 20
23.2131828294
 30
0.0
 11
19.9603760067
 21
23.2247641486
 31
0.0
 11
19.9271352432
 21
23.2125858111
 31
0.0
 11
19.8120134055
 21
23.2131828294
 31
0.0
  0
SPLINE
  5
504
100
AcDbEntity
  8
0
100
AcDbSpline
 62
7
  6
CONTINUOUS
 70
0
 71
3
 72
8
 73
4
 74
2
 42
0.0000001
 43
0.0000001
 44
0.0000000001
 12
-0.0744268289
 22
0.0145136408
 32
0.0
 13
-0.0715907314
 23
0.0249953157
 33
0.0
 40
0.0
 40
0.0
 40
0.0
 40
0.0
 40
1.0
 40
1.0
 40
1.0
 40
1.0
 10
19.8120134055
 20
23.2131828294
 30
0.0
 10
19.7872044625
 20
23.2180207096
 30
0.0
 10
19.7627913732
 20
23.2250622506
 30
0.0
 10
19.7389277961
 20
23.2333940225
 30
0.0
 11
19.8120134055
 21
23.2131828294
 31
0.0
 11
19.7389277961
 21
23.2333940225
 31
0.0
  0
SPLINE
  5
505
100
AcDbEntity
  8
0
100
AcDbSpline
 62
7
  6
CONTINUOUS
 70
0
 71
3
 72
8
 73
4
 74
2
 42
0.0000001
 43
0.0000001
 44
0.0000000001
 12
-0.0815817354
 22
0.0284835927
 32
0.0
 13
-0.0781244653
 23
0.0369250934
 33
0.0
 40
0.0
 40
0.0
 40
0.0
 40
0.0
 40
1.0
 40
1.0
 40
1.0
 40
1.0
 10
19.7389277961
 20
23.2333940225
 30
0.0
 10
19.7117338843
 20
23.2428885534
 30
0.0
 10
19.6851205068
 20
23.2541169658
 30
0.0
 10
19.6590790184
 20
23.2664253303
 30
0.0
 11
19.7389277961
 21
23.2333940225
 31
0.0
 11
19.6590790184
 21
23.2664253303
 31
0.0
  0
SPLINE
  5
506
100
AcDbEntity
  8
0
100
AcDbSpline
 62
7
  6
CONTINUOUS
 70
0
 71
3
 72
8
 73
4
 74
2
 42
0.0000001
 43
0.0000001
 44
0.0000000001
 12
-0.0662047503
 22
0.2307629591
 32
0.0
 13
-0.1000148584
 23
0.2182467419
 33
0.0
 40
0.0
 40
0.0
 40
0.0
 40
0.0
 40
1.0
 40
1.0
 40
1.0
 40
1.0
 10
20.5622285506
 20
23.7368578201
 30
0.0
 10
20.5401603005
 20
23.8137788065
 30
0.0
 10
20.5117913556
 20
23.8890895298
 30
0.0
 10
20.4784530695
 20
23.9618384438
 30
0.0
 11
20.5622285506
 21
23.7368578201
 31
0.0
 11
20.4784530695
 21
23.9618384438
 31
0.0
  0
SPLINE
  5
507
100
AcDbEntity
  8
0
100
AcDbSpline
 62
7
  6
CONTINUOUS
 70
0
 71
3
 72
9
 73
5
 74
3
 42
0.0000001
 43
0.0000001
 44
0.0000000001
 12
-0.1624528548
 22
0.3544953906
 32
0.0
 13
-0.2455512259
 23
0.3029232699
 33
0.0
 40
0.0
 40
0.0
 40
0.0
 40
0.0
 40
0.7544688582
 40
1.0
 40
1.0
 40
1.0
 40
1.0
 10
20.4784530695
 20
23.9618384438
 30
0.0
 10
20.4375978629
 20
24.0509903546
 30
0.0
 10
20.3737136775
 20
24.1652877221
 30
0.0
 10
20.2959171622
 20
24.2695209227
 30
0.0
 10
20.2758203379
 20
24.2943132882
 30
0.0
 11
20.4784530695
 21
23.9618384438
 31
0.0
 11
20.3332813843
 21
24.2177292054
 31
0.0
 11
20.2758203379
 21
24.2943132882
 31
0.0
  0
SPLINE
  5
508
100
AcDbEntity
  8
0
100
AcDbSpline
 62
7
  6
CONTINUOUS
 70
0
 71
3
 72
8
 73
4
 74
2
 42
0.0000001
 43
0.0000001
 44
0.0000000001
 12
-0.0865993085
 22
0.1068328843
 32
0.0
 13
-0.1001118805
 23
0.0942884764
 33
0.0
 40
0.0
 40
0.0
 40
0.0
 40
0.0
 40
1.0
 40
1.0
 40
1.0
 40
1.0
 10
20.2758203379
 20
24.2943132882
 30
0.0
 10
20.2469539017
 20
24.3299242496
 30
0.0
 10
20.2159933244
 20
24.3640119585
 30
0.0
 10
20.1826226976
 20
24.3954414506
 30
0.0
 11
20.2758203379
 21
24.2943132882
 31
0.0
 11
20.1826226976
 21
24.3954414506
 31
0.0
  0
SPLINE
  5
509
100
AcDbEntity
  8
RACCORDO
100
AcDbSpline
 62
253
  6
CONTINUOUS
 70
0
 71
3
 72
9
 73
5
 74
3
 42
0.0000001
 43
0.0000001
 44
0.0000000001
 12
0.1673927425
 22
0.0835843579
 32
0.0
 13
-0.0000000002
 23
0.1871007085
 33
0.0
 40
0.0
 40
0.0
 40
0.0
 40
0.0
 40
0.448148317
 40
1.0
 40
1.0
 40
1.0
 40
1.0
 10
34.4035568613
 20
-2.9195974675
 30
0.0
 10
34.4285624533
 20
-2.9071114044
 30
0.0
 10
34.4726714805
 20
-2.8557358567
 30
0.0
 10
34.4815259414
 20
-2.7917548575
 30
0.0
 10
34.4815259414
 20
-2.7573375772
 30
0.0
 11
34.4035568613
 21
-2.9195974675
 31
0.0
 11
34.4610168076
 21
-2.8585320339
 31
0.0
 11
34.4815259414
 21
-2.7573375772
 31
0.0
  0
SPLINE
  5
50A
100
AcDbEntity
  8
RACCORDO
100
AcDbSpline
 62
253
  6
CONTINUOUS
 70
0
 71
3
 72
9
 73
5
 74
3
 42
0.0000001
 43
0.0000001
 44
0.0000000001
 12
-0.0003539792
 22
-0.1421098333
 32
0.0
 13
-0.1271072933
 23
-0.0635536467
 33
0.0
 40
0.0
 40
0.0
 40
0.0
 40
0.0
 40
0.2096823049
 40
1.0
 40
1.0
 40
1.0
 40
1.0
 10
35.2058179769
 20
-2.3332486858
 30
0.0
 10
35.2057932358
 20
-2.343181325
 30
0.0
 10
35.1955178631
 20
-2.3908784826
 30
0.0
 10
35.1514070921
 20
-2.4223970005
 30
0.0
 10
35.1179220444
 20
-2.4391395243
 30
0.0
 11
35.2058179769
 21
-2.3332486858
 31
0.0
 11
35.1999964784
 21
-2.362472504
 31
0.0
 11
35.1179220444
 21
-2.4391395243
 31
0.0
  0
SPLINE
  5
50B
100
AcDbEntity
  8
RACCORDO
100
AcDbSpline
 62
253
  6
CONTINUOUS
 70
0
 71
3
 72
9
 73
5
 74
3
 42
0.0000001
 43
0.0000001
 44
0.0000000001
 12
-0.0002623783
 22
-0.1053493377
 32
0.0
 13
-0.0859969092
 23
-0.0608529656
 33
0.0
 40
0.0
 40
0.0
 40
0.0
 40
0.0
 40
0.2207509802
 40
1.0
 40
1.0
 40
1.0
 40
1.0
 10
35.2058179877
 20
3.6423266216
 30
0.0
 10
35.205798681
 20
3.6345746318
 30
0.0
 10
35.2000952887
 20
3.5992535321
 30
0.0
 10
35.1726983348
 20
3.5715200232
 30
0.0
 10
35.1503606657
 20
3.5557134853
 30
0.0
 11
35.2058179877
 21
3.6423266216
 31
0.0
 11
35.2022234733
 21
3.6193500479
 31
0.0
 11
35.1503606657
 21
3.5557134853
 31
0.0
  0
SPLINE
  5
50C
100
AcDbEntity
  8
RACCORDO
100
AcDbSpline
 62
253
  6
CONTINUOUS
 70
0
 71
3
 72
8
 73
4
 74
2
 42
0.0000001
 43
0.0000001
 44
0.0000000001
 12
-0.0308026898
 22
-0.0217965394
 32
0.0
 13
-0.0337507905
 23
-0.0168753953
 33
0.0
 40
0.0
 40
0.0
 40
0.0
 40
0.0
 40
1.0
 40
1.0
 40
1.0
 40
1.0
 10
35.1503606657
 20
3.5557134853
 30
0.0
 10
35.1400931025
 20
3.5484479722
 30
0.0
 10
35.1291723079
 20
3.5420608922
 30
0.0
 10
35.1179220444
 20
3.5364357605
 30
0.0
 11
35.1503606657
 21
3.5557134853
 31
0.0
 11
35.1179220444
 21
3.5364357605
 31
0.0
  0
SPLINE
  5
50D
100
AcDbEntity
  8
RACCORDO
100
AcDbSpline
 62
253
  6
CONTINUOUS
 70
0
 71
3
 72
9
 73
5
 74
3
 42
0.0000001
 43
0.0000001
 44
0.0000000001
 12
0.1229405964
 22
0.0614903472
 32
0.0
 13
0.1229486161
 23
-0.0614743104
 33
0.0
 40
0.0
 40
0.0
 40
0.0
 40
0.0
 40
0.2296903
 40
1.0
 40
1.0
 40
1.0
 40
1.0
 10
-0.7251330644
 20
45.0418932057
 30
0.0
 10
-0.7157203102
 20
45.0466011178
 30
0.0
 10
-0.6716568624
 20
45.0613995214
 30
0.0
 10
-0.6225399094
 20
45.0491602613
 30
0.0
 10
-0.5909704055
 20
45.0333755088
 30
0.0
 11
-0.7251330644
 21
45.0418932057
 31
0.0
 11
-0.6952118061
 21
45.0519727742
 31
0.0
 11
-0.5909704055
 21
45.0333755088
 31
0.0
  0
SPLINE
  5
50E
100
AcDbEntity
  8
RACCORDO
100
AcDbSpline
 62
253
  6
CONTINUOUS
 70
0
 71
3
 72
9
 73
5
 74
3
 42
0.0000001
 43
0.0000001
 44
0.0000000001
 12
-0.1228688003
 22
0.0610895654
 32
0.0
 13
-0.1227311764
 23
-0.0613655882
 33
0.0
 40
0.0
 40
0.0
 40
0.0
 40
0.0
 40
0.2300479038
 40
1.0
 40
1.0
 40
1.0
 40
1.0
 10
-0.4570266621
 20
45.0420375883
 30
0.0
 10
-0.4664485654
 20
45.0467220971
 30
0.0
 10
-0.5104978834
 20
45.0612951819
 30
0.0
 10
-0.5594713633
 20
45.0491250299
 30
0.0
 10
-0.5909704055
 20
45.0333755088
 30
0.0
 11
-0.4570266621
 21
45.0420375883
 31
0.0
 11
-0.4869760686
 21
45.0520118057
 31
0.0
 11
-0.5909704055
 21
45.0333755088
 31
0.0
  0
SPLINE
  5
50F
100
AcDbEntity
  8
0
100
AcDbSpline
 62
7
  6
CONTINUOUS
 70
0
 71
3
 72
9
 73
5
 74
3
 42
0.0000001
 43
0.0000001
 44
0.0000000001
 12
0.0046704136
 22
-0.3730385016
 32
0.0
 13
-0.3336854942
 23
-0.1668338317
 33
0.0
 40
0.0
 40
0.0
 40
0.0
 40
0.0
 40
0.5568922677
 40
1.0
 40
1.0
 40
1.0
 40
1.0
 10
20.0947207091
 20
23.5599468115
 30
0.0
 10
20.0955876815
 20
23.4906993924
 30
0.0
 10
20.0827124712
 20
23.3667370656
 30
0.0
 10
20.0096622142
 20
23.2494059356
 30
0.0
 10
19.9603760067
 20
23.2247641486
 30
0.0
 11
20.0947207091
 21
23.5599468115
 31
0.0
 11
20.0625854445
 21
23.3546885962
 31
0.0
 11
19.9603760067
 21
23.2247641486
 31
0.0
  0
SPLINE
  5
510
100
AcDbEntity
  8
0
100
AcDbSpline
 62
7
  6
CONTINUOUS
 70
0
 71
3
 72
12
 73
8
 74
6
 42
0.0000001
 43
0.0000001
 44
0.0000000001
 12
1.1108822945
 22
-0.3232849033
 32
0.0
 13
0.0146800137
 23
-1.1568738471
 33
0.0
 40
0.0
 40
0.0
 40
0.0
 40
0.0
 40
0.2141098363
 40
0.4476649662
 40
0.7201884071
 40
0.8651736116
 40
1.0
 40
1.0
 40
1.0
 40
1.0
 10
19.3385782545
 20
24.329982178
 30
0.0
 10
19.4178618633
 20
24.3069093521
 30
0.0
 10
19.5804691138
 20
24.247623229
 30
0.0
 10
19.8265325134
 20
24.114417704
 30
0.0
 10
19.9993769242
 20
23.9199055883
 30
0.0
 10
20.0762211024
 20
23.7196227037
 30
0.0
 10
20.0940609581
 20
23.6119391857
 30
0.0
 10
20.0947207091
 20
23.5599468115
 30
0.0
 11
19.3385782545
 21
24.329982178
 31
0.0
 11
19.5711971551
 21
24.2448196257
 31
0.0
 11
19.8050067106
 21
24.1093591213
 31
0.0
 11
20.0107591471
 21
23.870444036
 31
0.0
 11
20.0719723721
 21
23.7142688559
 31
0.0
 11
20.0947207091
 21
23.5599468115
 31
0.0
  0
SPLINE
  5
511
100
AcDbEntity
  8
0
100
AcDbSpline
 62
7
  6
CONTINUOUS
 70
0
 71
3
 72
9
 73
5
 74
3
 42
0.0000001
 43
0.0000001
 44
0.0000000001
 12
0.0046706966
 22
-0.3730611073
 32
0.0
 13
-0.3337329063
 23
-0.1667895453
 33
0.0
 40
0.0
 40
0.0
 40
0.0
 40
0.0
 40
0.5568987094
 40
1.0
 40
1.0
 40
1.0
 40
1.0
 10
20.2361420654
 20
23.6306574896
 30
0.0
 10
20.2370091003
 20
23.5614050732
 30
0.0
 10
20.2241339947
 20
23.437435053
 30
0.0
 10
20.1510679059
 20
23.3200987417
 30
0.0
 10
20.1017754121
 20
23.2954638541
 30
0.0
 11
20.2361420654
 21
23.6306574896
 31
0.0
 11
20.2040014397
 21
23.4253849378
 31
0.0
 11
20.1017754121
 21
23.2954638541
 31
0.0
  0
SPLINE
  5
512
100
AcDbEntity
  8
0
100
AcDbSpline
 62
7
  6
CONTINUOUS
 70
0
 71
3
 72
9
 73
5
 74
3
 42
0.0000001
 43
0.0000001
 44
0.0000000001
 12
0.4381983838
 22
-0.1771807594
 32
0.0
 13
0.3186224301
 23
-0.3491283317
 33
0.0
 40
0.0
 40
0.0
 40
0.0
 40
0.0
 40
0.467656339
 40
1.0
 40
1.0
 40
1.0
 40
1.0
 10
19.6561881489
 20
24.3393471078
 30
0.0
 10
19.7244968996
 20
24.311727206
 30
0.0
 10
19.8683921365
 20
24.2460857979
 30
0.0
 10
19.9938532489
 20
24.1461901682
 30
0.0
 10
20.0503921258
 20
24.0842380834
 30
0.0
 11
19.6561881489
 21
24.3393471078
 31
0.0
 11
19.8550523508
 21
24.2428404826
 31
0.0
 11
20.0503921258
 21
24.0842380834
 31
0.0
  0
SPLINE
  5
513
100
AcDbEntity
  8
0
100
AcDbSpline
 62
7
  6
CONTINUOUS
 70
0
 71
3
 72
9
 73
5
 74
3
 42
0.0000001
 43
0.0000001
 44
0.0000000001
 12
0.2671176052
 22
-0.2926922748
 32
0.0
 13
0.0734170391
 23
-0.3893976388
 33
0.0
 40
0.0
 40
0.0
 40
0.0
 40
0.0
 40
0.2451342473
 40
1.0
 40
1.0
 40
1.0
 40
1.0
 10
20.0503921258
 20
24.0842380834
 30
0.0
 10
20.0722186835
 20
24.0603217832
 30
0.0
 10
20.1553246439
 20
23.9573945003
 30
0.0
 10
20.2070185734
 20
23.8299961048
 30
0.0
 10
20.2254919095
 20
23.7320151242
 30
0.0
 11
20.0503921258
 21
24.0842380834
 31
0.0
 11
20.1110753436
 21
24.0083892904
 31
0.0
 11
20.2254919095
 21
23.7320151242
 31
0.0
  0
SPLINE
  5
514
100
AcDbEntity
  8
0
100
AcDbSpline
 62
7
  6
CONTINUOUS
 70
0
 71
3
 72
8
 73
4
 74
2
 42
0.0000001
 43
0.0000001
 44
0.0000000001
 12
0.0188824947
 22
-0.1001511224
 32
0.0
 13
0.0012931422
 23
-0.1019074271
 33
0.0
 40
0.0
 40
0.0
 40
0.0
 40
0.0
 40
1.0
 40
1.0
 40
1.0
 40
1.0
 10
20.2254919095
 20
23.7320151242
 30
0.0
 10
20.2317860744
 20
23.6986314168
 30
0.0
 10
20.235711018
 20
23.664626632
 30
0.0
 10
20.2361420654
 20
23.6306574896
 30
0.0
 11
20.2254919095
 21
23.7320151242
 31
0.0
 11
20.2361420654
 21
23.6306574896
 31
0.0
  0
SPLINE
  5
515
100
AcDbEntity
  8
RACCORDO
100
AcDbSpline
 62
253
  6
CONTINUOUS
 70
0
 71
3
 72
9
 73
5
 74
3
 42
0.0000001
 43
0.0000001
 44
0.0000000001
 12
0.2772176774
 22
-0.0530545991
 32
0.0
 13
0.2661281557
 23
0.0940225287
 33
0.0
 40
0.0
 40
0.0
 40
0.0
 40
0.0
 40
0.2542631569
 40
1.0
 40
1.0
 40
1.0
 40
1.0
 10
34.162960771
 20
-2.7914673821
 30
0.0
 10
34.1864561849
 20
-2.795963992
 30
0.0
 10
34.279866644
 20
-2.807104418
 30
0.0
 10
34.3768166346
 20
-2.7969289091
 30
0.0
 10
34.4429704915
 20
-2.7735568879
 30
0.0
 11
34.162960771
 21
-2.7914673821
 31
0.0
 11
34.2341866912
 21
-2.8002511218
 31
0.0
 11
34.4429704915
 21
-2.7735568879
 31
0.0
  0
SPLINE
  5
516
100
AcDbEntity
  8
RACCORDO
100
AcDbSpline
 62
253
  6
CONTINUOUS
 70
0
 71
3
 72
8
 73
4
 74
2
 42
0.0000001
 43
0.0000001
 44
0.0000000001
 12
0.0394390626
 22
0.0139337395
 32
0.0
 13
0.0374121772
 23
0.0187060886
 33
0.0
 40
0.0
 40
0.0
 40
0.0
 40
0.0
 40
1.0
 40
1.0
 40
1.0
 40
1.0
 10
34.4429704915
 20
-2.7735568879
 30
0.0
 10
34.4561168457
 20
-2.768912308
 30
0.0
 10
34.4690552156
 20
-2.76357294
 30
0.0
 10
34.4815259414
 20
-2.7573375772
 30
0.0
 11
34.4429704915
 21
-2.7735568879
 31
0.0
 11
34.4815259414
 21
-2.7573375772
 31
0.0
  0
SPLINE
  5
517
100
AcDbEntity
  8
RACCORDO
100
AcDbSpline
 62
253
  6
CONTINUOUS
 70
0
 71
3
 72
8
 73
4
 74
2
 42
0.0000001
 43
0.0000001
 44
0.0000000001
 12
0.0821305995
 22
-0.0157183554
 32
0.0
 13
0.0835578288
 23
-0.0032544294
 33
0.0
 40
0.0
 40
0.0
 40
0.0
 40
0.0
 40
1.0
 40
1.0
 40
1.0
 40
1.0
 10
34.1629607704
 20
3.1841079039
 30
0.0
 10
34.1903376369
 20
3.1788684521
 30
0.0
 10
34.2182032558
 20
3.1758274991
 30
0.0
 10
34.2460558654
 20
3.1747426893
 30
0.0
 11
34.1629607704
 21
3.1841079039
 31
0.0
 11
34.2460558654
 21
3.1747426893
 31
0.0
  0
SPLINE
  5
518
100
AcDbEntity
  8
RACCORDO
100
AcDbSpline
 62
253
  6
CONTINUOUS
 70
0
 71
3
 72
9
 73
5
 74
3
 42
0.0000001
 43
0.0000001
 44
0.0000000001
 12
0.199265749
 22
-0.0077610479
 32
0.0
 13
0.1880270718
 23
0.0664296085
 33
0.0
 40
0.0
 40
0.0
 40
0.0
 40
0.0
 40
0.2607520581
 40
1.0
 40
1.0
 40
1.0
 40
1.0
 10
34.2460558654
 20
3.1747426893
 30
0.0
 10
34.2633755168
 20
3.1740681195
 30
0.0
 10
34.3298244908
 20
3.1743795079
 30
0.0
 10
34.3966376686
 20
3.1856490996
 30
0.0
 10
34.4429705439
 20
3.2020184167
 30
0.0
 11
34.2460558654
 21
3.1747426893
 31
0.0
 11
34.2980536931
 21
3.174975576
 31
0.0
 11
34.4429705439
 21
3.2020184167
 31
0.0
  0
SPLINE
  5
519
100
AcDbEntity
  8
RACCORDO
100
AcDbSpline
 62
253
  6
CONTINUOUS
 70
0
 71
3
 72
8
 73
4
 74
2
 42
0.0000001
 43
0.0000001
 44
0.0000000001
 12
0.0394390083
 22
0.013933727
 32
0.0
 13
0.0374121277
 23
0.0187060639
 33
0.0
 40
0.0
 40
0.0
 40
0.0
 40
0.0
 40
1.0
 40
1.0
 40
1.0
 40
1.0
 10
34.4429705439
 20
3.2020184167
 30
0.0
 10
34.45611688
 20
3.2066629924
 30
0.0
 10
34.4690552321
 20
3.2120023546
 30
0.0
 10
34.4815259414
 20
3.2182377093
 30
0.0
 11
34.4429705439
 21
3.2020184167
 31
0.0
 11
34.4815259414
 21
3.2182377093
 31
0.0
  0
SPLINE
  5
51A
100
AcDbEntity
  8
RACCORDO
100
AcDbSpline
 62
253
  6
CONTINUOUS
 70
0
 71
3
 72
9
 73
5
 74
3
 42
0.0000001
 43
0.0000001
 44
0.0000000001
 12
0.0000000004
 22
-0.1864054202
 32
0.0
 13
-0.1661733381
 23
-0.0844594718
 33
0.0
 40
0.0
 40
0.0
 40
0.0
 40
0.0
 40
0.5512600797
 40
1.0
 40
1.0
 40
1.0
 40
1.0
 10
35.1179220444
 20
-2.4391395256
 30
0.0
 10
35.1179220445
 20
-2.4733921479
 30
0.0
 10
35.1091282705
 20
-2.5371032916
 30
0.0
 10
35.0654599708
 20
-2.5884370935
 30
0.0
 10
35.0406037673
 20
-2.6010705391
 30
0.0
 11
35.1179220444
 21
-2.4391395256
 31
0.0
 11
35.0976287929
 21
-2.5398736466
 31
0.0
 11
35.0406037673
 21
-2.6010705391
 31
0.0
  0
SPLINE
  5
51B
100
AcDbEntity
  8
RACCORDO
100
AcDbSpline
 62
253
  6
CONTINUOUS
 70
0
 71
3
 72
9
 73
5
 74
3
 42
0.0000001
 43
0.0000001
 44
0.0000000001
 12
0.2827132286
 22
-0.2369919871
 32
0.0
 13
-0.0000000047
 23
-0.3689064537
 33
0.0
 40
0.0
 40
0.0
 40
0.0
 40
0.0
 40
0.2467596813
 40
1.0
 40
1.0
 40
1.0
 40
1.0
 10
34.9623911135
 20
3.864578954
 30
0.0
 10
34.9856451889
 20
3.8450855983
 30
0.0
 10
35.0690062188
 20
3.75435299
 30
0.0
 10
35.1179220456
 20
3.6290608321
 30
0.0
 10
35.1179220444
 20
3.5364357605
 30
0.0
 11
34.9623911135
 21
3.864578954
 31
0.0
 11
35.0246880911
 21
3.7982029565
 31
0.0
 11
35.1179220444
 21
3.5364357605
 31
0.0
  0
SPLINE
  5
51C
100
AcDbEntity
  8
RACCORDO
100
AcDbSpline
 62
253
  6
CONTINUOUS
 70
0
 71
3
 72
9
 73
5
 74
3
 42
0.0000001
 43
0.0000001
 44
0.0000000001
 12
-0.0000000002
 22
0.3627195146
 32
0.0
 13
-0.2736408954
 23
0.238088443
 33
0.0
 40
0.0
 40
0.0
 40
0.0
 40
0.0
 40
0.2408560944
 40
1.0
 40
1.0
 40
1.0
 40
1.0
 10
34.4815259414
 20
3.2182377089
 30
0.0
 10
34.4815259413
 20
3.2473587775
 30
0.0
 10
34.4652386817
 20
3.3676351228
 30
0.0
 10
34.4001817474
 20
3.481859417
 30
0.0
 10
34.3309374747
 20
3.5421072138
 30
0.0
 11
34.4815259414
 21
3.2182377089
 31
0.0
 11
34.4708509602
 21
3.3049462696
 31
0.0
 11
34.3309374747
 21
3.5421072138
 31
0.0
  0
SPLINE
  5
51D
100
AcDbEntity
  8
COPY-PUBBLISH
100
AcDbSpline
 62
7
  6
CONTINUOUS
 70
0
 71
3
 72
9
 73
5
 74
3
 42
0.0000001
 43
0.0000001
 44
0.0000000001
 12
-0.1670997399
 22
0.08379391
 32
0.0
 13
0.0
 23
0.1869324542
 33
0.0
 40
0.0
 40
0.0
 40
0.0
 40
0.0
 40
0.4483971466
 40
1.0
 40
1.0
 40
1.0
 40
1.0
 10
34.2411404663
 20
-3.3658307107
 30
0.0
 10
34.2161647841
 20
-3.353306394
 30
0.0
 10
34.1721569264
 20
-3.3019418589
 30
0.0
 10
34.1633278898
 20
-3.238024457
 30
0.0
 10
34.1633278898
 20
-3.203653632
 30
0.0
 11
34.2411404663
 21
-3.3658307107
 31
0.0
 11
34.1837718423
 21
-3.3047190926
 31
0.0
 11
34.1633278898
 21
-3.203653632
 31
0.0
  0
SPLINE
  5
51E
100
AcDbEntity
  8
COPY-PUBBLISH
100
AcDbSpline
 62
7
  6
CONTINUOUS
 70
0
 71
3
 72
9
 73
5
 74
3
 42
0.0000001
 43
0.0000001
 44
0.0000000001
 12
-0.1670997399
 22
0.08379391
 32
0.0
 13
0.0
 23
0.1869324542
 33
0.0
 40
0.0
 40
0.0
 40
0.0
 40
0.0
 40
0.4483971466
 40
1.0
 40
1.0
 40
1.0
 40
1.0
 10
35.6553540287
 20
6.0015301083
 30
0.0
 10
35.6303783465
 20
6.014054425
 30
0.0
 10
35.5863704887
 20
6.0654189602
 30
0.0
 10
35.5775414522
 20
6.129336362
 30
0.0
 10
35.5775414522
 20
6.163707187
 30
0.0
 11
35.6553540287
 21
6.0015301083
 31
0.0
 11
35.5979854046
 21
6.0626417264
 31
0.0
 11
35.5775414522
 21
6.163707187
 31
0.0
  0
SPLINE
  5
51F
100
AcDbEntity
  8
RACCORDO
100
AcDbSpline
 62
7
  6
CONTINUOUS
 70
0
 71
3
 72
11
 73
7
 74
5
 42
0.0000001
 43
0.0000001
 44
0.0000000001
 12
-0.8445731682
 22
0.4224448143
 32
0.0
 13
0.0
 23
0.9443322813
 33
0.0
 40
0.0
 40
0.0
 40
0.0
 40
0.0
 40
0.2171669585
 40
0.4503924284
 40
0.7103257912
 40
1.0
 40
1.0
 40
1.0
 40
1.0
 10
31.15884939
 20
-31.8590208766
 30
0.0
 10
31.0977115946
 20
-31.8284405247
 30
0.0
 10
30.9820858757
 20
-31.7403482033
 30
0.0
 10
30.858103121
 20
-31.5501990233
 30
0.0
 10
30.7839600998
 20
-31.3126692937
 30
0.0
 10
30.7692153401
 20
-31.1390160562
 30
0.0
 10
30.7692153401
 20
-31.0478331541
 30
0.0
 11
31.15884939
 21
-31.8590208766
 31
0.0
 11
30.9948135423
 21
-31.7359390658
 31
0.0
 11
30.8715701084
 21
-31.5534075771
 31
0.0
 11
30.7951220496
 21
-31.3201523367
 31
0.0
 11
30.7692153401
 21
-31.0478331541
 31
0.0
  0
SPLINE
  5
520
100
AcDbEntity
  8
RACCORDO
100
AcDbSpline
 62
7
  6
CONTINUOUS
 70
0
 71
3
 72
11
 73
7
 74
5
 42
0.0000001
 43
0.0000001
 44
0.0000000001
 12
-0.8449320865
 22
0.4224127191
 32
0.0
 13
-0.0
 23
0.9446389448
 33
0.0
 40
0.0
 40
0.0
 40
0.0
 40
0.0
 40
0.2171524514
 40
0.45041626
 40
0.7102433424
 40
1.0
 40
1.0
 40
1.0
 40
1.0
 10
-27.67217414
 20
-29.9983452711
 30
0.0
 10
-27.7333338313
 20
-29.9677692853
 30
0.0
 10
-27.8490782928
 20
-29.8797415037
 30
0.0
 10
-27.9730846736
 20
-29.6895365568
 30
0.0
 10
-28.0473486554
 20
-29.4519625203
 30
0.0
 10
-28.0620688546
 20
-29.2782502259
 30
0.0
 10
-28.0620688546
 20
-29.1870117515
 30
0.0
 11
-27.67217414
 21
-29.9983452711
 31
0.0
 11
-27.8363140618
 21
-29.8753140768
 31
0.0
 11
-27.959648348
 21
-29.6927139378
 31
0.0
 11
-28.0361466088
 21
-29.4594969256
 31
0.0
 11
-28.0620688546
 21
-29.1870117515
 31
0.0
  0
SPLINE
  5
521
100
AcDbEntity
  8
RACCORDO
100
AcDbSpline
 62
7
  6
CONTINUOUS
 70
0
 71
3
 72
10
 73
6
 74
4
 42
0.0000001
 43
0.0000001
 44
0.0000000001
 12
0.5842108378
 22
-0.2920685491
 32
0.0
 13
0.5940044493
 23
0.2715972286
 33
0.0
 40
0.0
 40
0.0
 40
0.0
 40
0.0
 40
0.2294466037
 40
0.4684363355
 40
1.0
 40
1.0
 40
1.0
 40
1.0
 10
9.8044852629
 20
-48.7366749726
 30
0.0
 10
9.8491669938
 20
-48.7590130181
 30
0.0
 10
9.9470637071
 20
-48.7923663003
 30
0.0
 10
10.1660707761
 20
-48.8079091586
 30
0.0
 10
10.33298382
 20
-48.7598901262
 30
0.0
 10
10.4382342139
 20
-48.7117663869
 30
0.0
 11
9.8044852629
 21
-48.7366749726
 31
0.0
 11
9.9461955359
 21
-48.7854315791
 31
0.0
 11
10.1018176716
 21
-48.7975904366
 31
0.0
 11
10.4382342139
 21
-48.7117663869
 31
0.0
  0
SPLINE
  5
522
100
AcDbEntity
  8
RACCORDO
100
AcDbSpline
 62
7
  6
CONTINUOUS
 70
0
 71
3
 72
11
 73
7
 74
5
 42
0.0000001
 43
0.0000001
 44
0.0000000001
 12
-0.8449320865
 22
0.4224127191
 32
0.0
 13
0.0
 23
0.9446389448
 33
0.0
 40
0.0
 40
0.0
 40
0.0
 40
0.0
 40
0.2171524514
 40
0.45041626
 40
0.7102433424
 40
1.0
 40
1.0
 40
1.0
 40
1.0
 10
-35.450348733
 20
-23.0621150204
 30
0.0
 10
-35.5115084243
 20
-23.0315390345
 30
0.0
 10
-35.6272528859
 20
-22.9435112529
 30
0.0
 10
-35.7512592667
 20
-22.753306306
 30
0.0
 10
-35.8255232485
 20
-22.5157322695
 30
0.0
 10
-35.8402434476
 20
-22.3420199751
 30
0.0
 10
-35.8402434476
 20
-22.2507815007
 30
0.0
 11
-35.450348733
 21
-23.0621150204
 31
0.0
 11
-35.6144886548
 21
-22.939083826
 31
0.0
 11
-35.7378229411
 21
-22.7564836871
 31
0.0
 11
-35.8143212019
 21
-22.5232666748
 31
0.0
 11
-35.8402434476
 21
-22.2507815007
 31
0.0
  0
SPLINE
  5
523
100
AcDbEntity
  8
RACCORDO
100
AcDbSpline
 62
7
  6
CONTINUOUS
 70
0
 71
3
 72
10
 73
6
 74
4
 42
0.0000001
 43
0.0000001
 44
0.0000000001
 12
0.5842108378
 22
-0.2920685491
 32
0.0
 13
0.5940044493
 23
0.2715972286
 33
0.0
 40
0.0
 40
0.0
 40
0.0
 40
0.0
 40
0.2294466037
 40
0.4684363355
 40
1.0
 40
1.0
 40
1.0
 40
1.0
 10
2.0263106699
 20
-41.8004447218
 30
0.0
 10
2.0709924007
 20
-41.8227827673
 30
0.0
 10
2.1688891141
 20
-41.8561360495
 30
0.0
 10
2.3878961831
 20
-41.8716789079
 30
0.0
 10
2.5548092269
 20
-41.8236598754
 30
0.0
 10
2.6600596209
 20
-41.7755361361
 30
0.0
 11
2.0263106699
 21
-41.8004447218
 31
0.0
 11
2.1680209429
 21
-41.8492013283
 31
0.0
 11
2.3236430786
 21
-41.8613601859
 31
0.0
 11
2.6600596209
 21
-41.7755361361
 31
0.0
  0
SPLINE
  5
524
100
AcDbEntity
  8
COPY-PUBBLISH
100
AcDbSpline
 62
7
  6
CONTINUOUS
 70
0
 71
3
 72
9
 73
5
 74
3
 42
0.0000001
 43
0.0000001
 44
0.0000000001
 12
0.4923955614
 22
-0.2462214391
 32
0.0
 13
0.5354307293
 23
0.1280324959
 33
0.0
 40
0.0
 40
0.0
 40
0.0
 40
0.0
 40
0.4798147988
 40
1.0
 40
1.0
 40
1.0
 40
1.0
 10
3.272265899
 20
0.5773805281
 30
0.0
 10
3.3510187914
 20
0.5380002981
 30
0.0
 10
3.5331932014
 20
0.488919775
 30
0.0
 10
3.7193141895
 20
0.5078849509
 30
0.0
 10
3.8121552367
 20
0.5300851541
 30
0.0
 11
3.272265899
 21
0.5773805281
 31
0.0
 11
3.5267473372
 21
0.5065668088
 31
0.0
 11
3.8121552367
 21
0.5300851541
 31
0.0
  0
SPLINE
  5
525
100
AcDbEntity
  8
COPY-PUBBLISH
100
AcDbSpline
 62
7
  6
CONTINUOUS
 70
0
 71
3
 72
16
 73
12
 74
10
 42
0.0000001
 43
0.0000001
 44
0.0000000001
 12
3.1887054053
 22
-1.5966491071
 32
0.0
 13
-0.1655990883
 23
3.5622615674
 33
0.0
 40
0.0
 40
0.0
 40
0.0
 40
0.0
 40
0.0448128763
 40
0.0911081046
 40
0.1923219592
 40
0.3093159596
 40
0.4412166999
 40
0.5832753624
 40
0.7285981429
 40
0.8697461199
 40
1.0
 40
1.0
 40
1.0
 40
1.0
 10
3.2717829274
 20
-3.2199856381
 30
0.0
 10
3.3194146143
 20
-3.2438357844
 30
0.0
 10
3.4224510578
 20
-3.280851379
 30
0.0
 10
3.6513033453
 20
-3.3071249718
 30
0.0
 10
3.9667616894
 20
-3.240577329
 30
0.0
 10
4.3319389998
 20
-3.0318274645
 30
0.0
 10
4.6742939492
 20
-2.7124772638
 30
0.0
 10
4.968585192
 20
-2.3068949117
 30
0.0
 10
5.1926535377
 20
-1.8464906718
 30
0.0
 10
5.328895108
 20
-1.3676327871
 30
0.0
 10
5.3553367035
 20
-1.0429580637
 30
0.0
 10
5.3481467289
 20
-0.8882919333
 30
0.0
 11
3.2717829274
 21
-3.2199856381
 31
0.0
 11
3.4220755074
 21
-3.2743051014
 31
0.0
 11
3.5859925301
 21
-3.293981898
 31
0.0
 11
3.9409180343
 21
-3.2283672704
 31
0.0
 11
4.3071876367
 21
-3.0285835752
 31
0.0
 11
4.6543615918
 21
-2.7112187915
 31
0.0
 11
4.953723192
 21
-2.3025346036
 31
0.0
 11
5.180391463
 21
-1.8364971656
 31
0.0
 11
5.3156092846
 21
-1.3516504158
 31
0.0
 11
5.3481467289
 21
-0.8882919333
 31
0.0
  0
SPLINE
  5
526
100
AcDbEntity
  8
COPY-PUBBLISH
100
AcDbSpline
 62
7
  6
CONTINUOUS
 70
0
 71
3
 72
11
 73
7
 74
5
 42
0.0000001
 43
0.0000001
 44
0.0000000001
 12
-1.1097347543
 22
0.0921167424
 32
0.0
 13
-0.7362055992
 23
-0.8354627668
 33
0.0
 40
0.0
 40
0.0
 40
0.0
 40
0.0
 40
0.2109065819
 40
0.4473129054
 40
0.7114033675
 40
1.0
 40
1.0
 40
1.0
 40
1.0
 10
4.9100879632
 20
-29.0047886731
 30
0.0
 10
4.8320711753
 20
-28.998312664
 30
0.0
 10
4.6635737242
 20
-29.0147861738
 30
0.0
 10
4.4158756808
 20
-29.1131067285
 30
0.0
 10
4.1717518979
 20
-29.2782756362
 30
0.0
 10
4.0242139098
 20
-29.4223760298
 30
0.0
 10
3.9533917575
 20
-29.5027466102
 30
0.0
 11
4.9100879632
 21
-29.0047886731
 31
0.0
 11
4.6760138438
 21
-29.0239283608
 31
0.0
 11
4.4298485018
 21
-29.1172209051
 31
0.0
 11
4.184687157
 21
-29.2796338471
 31
0.0
 11
3.9533917575
 21
-29.5027466102
 31
0.0
  0
SPLINE
  5
527
100
AcDbEntity
  8
COPY-PUBBLISH
100
AcDbSpline
 62
7
  6
CONTINUOUS
 70
0
 71
3
 72
9
 73
5
 74
3
 42
0.0000001
 43
0.0000001
 44
0.0000000001
 12
-0.1980925814
 22
-0.2247999422
 32
0.0
 13
-0.1668358376
 23
-0.2488804696
 33
0.0
 40
0.0
 40
0.0
 40
0.0
 40
0.0
 40
0.24631777
 40
1.0
 40
1.0
 40
1.0
 40
1.0
 10
3.9533917575
 20
-29.5027466102
 30
0.0
 10
3.9371271832
 20
-29.521204017
 30
0.0
 10
3.8724138506
 20
-29.5972912943
 30
0.0
 10
3.8128593808
 20
-29.6777406081
 30
0.0
 10
3.7709456455
 20
-29.7402662039
 30
0.0
 11
3.9533917575
 21
-29.5027466102
 31
0.0
 11
3.9055600965
 21
-29.5589519694
 31
0.0
 11
3.7709456455
 21
-29.7402662039
 31
0.0
  0
SPLINE
  5
528
100
AcDbEntity
  8
COPY-PUBBLISH
100
AcDbSpline
 62
7
  6
CONTINUOUS
 70
0
 71
3
 72
9
 73
5
 74
3
 42
0.0000001
 43
0.0000001
 44
0.0000000001
 12
-0.179413958
 22
0.0895693741
 32
0.0
 13
-0.1963815448
 23
0.0405749918
 33
0.0
 40
0.0
 40
0.0
 40
0.0
 40
0.0
 40
0.7473829132
 40
1.0
 40
1.0
 40
1.0
 40
1.0
 10
5.3525494216
 20
-28.61415937
 30
0.0
 10
5.3078524461
 20
-28.5918451635
 30
0.0
 10
5.2448226889
 20
-28.5678886785
 30
0.0
 10
5.1797993594
 20
-28.5523373445
 30
0.0
 10
5.1632629149
 20
-28.5489206991
 30
0.0
 11
5.3525494216
 21
-28.61415937
 31
0.0
 11
5.212524147
 21
-28.5607307879
 31
0.0
 11
5.1632629149
 21
-28.5489206991
 31
0.0
  0
SPLINE
  5
529
100
AcDbEntity
  8
COPY-PUBBLISH
100
AcDbSpline
 62
7
  6
CONTINUOUS
 70
0
 71
3
 72
11
 73
7
 74
5
 42
0.0000001
 43
0.0000001
 44
0.0000000001
 12
-0.9567674488
 22
0.1976806496
 32
0.0
 13
-0.8086944269
 23
-0.5481741641
 33
0.0
 40
0.0
 40
0.0
 40
0.0
 40
0.0
 40
0.2216680098
 40
0.4598075901
 40
0.7187701819
 40
1.0
 40
1.0
 40
1.0
 40
1.0
 10
5.1632629149
 20
-28.5489206991
 30
0.0
 10
5.0925680028
 20
-28.534314207
 30
0.0
 10
4.941346444
 20
-28.523757508
 30
0.0
 10
4.7087866601
 20
-28.5625566747
 30
0.0
 10
4.4704217185
 20
-28.6526569375
 30
0.0
 10
4.3177751588
 20
-28.7416907474
 30
0.0
 10
4.2419654966
 20
-28.7930783876
 30
0.0
 11
5.1632629149
 21
-28.5489206991
 31
0.0
 11
4.9473329561
 21
-28.5323576459
 31
0.0
 11
4.7174977705
 21
-28.5684807305
 31
0.0
 11
4.4801799213
 21
-28.6561695206
 31
0.0
 11
4.2419654966
 21
-28.7930783876
 31
0.0
  0
SPLINE
  5
52A
100
AcDbEntity
  8
COPY-PUBBLISH
100
AcDbSpline
 62
7
  6
CONTINUOUS
 70
0
 71
3
 72
14
 73
10
 74
8
 42
0.0000001
 43
0.0000001
 44
0.0000000001
 12
-2.6930618495
 22
-2.1281568074
 32
0.0
 13
1.9224578723
 23
-2.8435522241
 33
0.0
 40
0.0
 40
0.0
 40
0.0
 40
0.0
 40
0.1273609609
 40
0.2627065944
 40
0.4017041046
 40
0.5395510238
 40
0.671584988
 40
0.7939083847
 40
1.0
 40
1.0
 40
1.0
 40
1.0
 10
4.1178536211
 20
-28.8841130011
 30
0.0
 10
4.0035233062
 20
-28.9744610331
 30
0.0
 10
3.7855031917
 20
-29.183972348
 30
0.0
 10
3.5076529827
 20
-29.552077032
 30
0.0
 10
3.280364856
 20
-29.9672451978
 30
0.0
 10
3.1158086562
 20
-30.4066975507
 30
0.0
 10
3.0231487103
 20
-30.848499164
 30
0.0
 10
3.0019633452
 20
-31.3742805916
 30
0.0
 10
3.0989035877
 20
-31.7604605954
 30
0.0
 10
3.2309710704
 20
-31.9558046857
 30
0.0
 11
4.1178536211
 21
-28.8841130011
 31
0.0
 11
3.8006641145
 21
-29.1849426989
 31
0.0
 11
3.5195445466
 21
-29.5547979968
 31
0.0
 11
3.2901258421
 21
-29.9731182624
 31
0.0
 11
3.1251712278
 21
-30.4165840474
 31
0.0
 11
3.033893362
 21
-30.8604952862
 31
0.0
 11
3.0213624291
 21
-31.2801757786
 31
0.0
 11
3.2309710704
 21
-31.9558046857
 31
0.0
  0
SPLINE
  5
52B
100
AcDbEntity
  8
COPY-PUBBLISH
100
AcDbSpline
 62
7
  6
CONTINUOUS
 70
0
 71
3
 72
9
 73
5
 74
3
 42
0.0000001
 43
0.0000001
 44
0.0000000001
 12
0.0699364418
 22
-0.1034446203
 32
0.0
 13
0.0833933271
 23
-0.0929378737
 33
0.0
 40
0.0
 40
0.0
 40
0.0
 40
0.0
 40
0.2536794017
 40
1.0
 40
1.0
 40
1.0
 40
1.0
 10
3.2309710704
 20
-31.9558046857
 30
0.0
 10
3.236884882
 20
-31.9645519422
 30
0.0
 10
3.2607562615
 20
-31.9986507416
 30
0.0
 10
3.2868993844
 20
-32.0311697451
 30
0.0
 10
3.307645437
 20
-32.0542902283
 30
0.0
 11
3.2309710704
 21
-31.9558046857
 31
0.0
 11
3.2491424306
 21
-31.9817506033
 31
0.0
 11
3.307645437
 21
-32.0542902283
 31
0.0
  0
SPLINE
  5
52C
100
AcDbEntity
  8
COPY-PUBBLISH
100
AcDbSpline
 62
7
  6
CONTINUOUS
 70
0
 71
3
 72
9
 73
5
 74
3
 42
0.0000001
 43
0.0000001
 44
0.0000000001
 12
0.1988592668
 22
-0.2216191399
 32
0.0
 13
0.2663349334
 23
-0.1331381028
 33
0.0
 40
0.0
 40
0.0
 40
0.0
 40
0.0
 40
0.2554324452
 40
1.0
 40
1.0
 40
1.0
 40
1.0
 10
3.307645437
 20
-32.0542902283
 30
0.0
 10
3.3245771399
 20
-32.0731598012
 30
0.0
 10
3.3940511002
 20
-32.1440919746
 30
0.0
 10
3.4768047998
 20
-32.2021548425
 30
0.0
 10
3.5429062499
 20
-32.2351982797
 30
0.0
 11
3.307645437
 21
-32.0542902283
 31
0.0
 11
3.3609353934
 21
-32.1085568909
 31
0.0
 11
3.5429062499
 21
-32.2351982797
 31
0.0
  0
SPLINE
  5
52D
100
AcDbEntity
  8
COPY-PUBBLISH
100
AcDbSpline
 62
7
  6
CONTINUOUS
 70
0
 71
3
 72
11
 73
7
 74
5
 42
0.0000001
 43
0.0000001
 44
0.0000000001
 12
0.7051098822
 22
-0.3524507857
 32
0.0
 13
0.705068225
 23
0.3525341125
 33
0.0
 40
0.0
 40
0.0
 40
0.0
 40
0.0
 40
0.2270701449
 40
0.4646265067
 40
0.7210036456
 40
1.0
 40
1.0
 40
1.0
 40
1.0
 10
3.6877393154
 20
-31.9453549833
 30
0.0
 10
3.7411091165
 20
-31.9720320003
 30
0.0
 10
3.8587166889
 20
-32.011173601
 30
0.0
 10
4.0498998732
 20
-32.0207421554
 30
0.0
 10
4.2510094031
 20
-31.9827889385
 30
0.0
 10
4.3822808159
 20
-31.9298111442
 30
0.0
 10
4.447851304
 20
-31.8970259001
 30
0.0
 11
3.6877393154
 21
-31.9453549833
 31
0.0
 11
3.857398472
 21
-32.0024142567
 31
0.0
 11
4.0443413139
 21
-32.0133659862
 31
0.0
 11
4.2432830786
 21
-31.9777791748
 31
0.0
 11
4.447851304
 21
-31.8970259001
 31
0.0
  0
SPLINE
  5
52E
100
AcDbEntity
  8
COPY-PUBBLISH
100
AcDbSpline
 62
7
  6
CONTINUOUS
 70
0
 71
3
 72
9
 73
5
 74
3
 42
0.0000001
 43
0.0000001
 44
0.0000000001
 12
0.6994941414
 22
-0.8003110509
 32
0.0
 13
0.4263192276
 23
-0.9736743543
 33
0.0
 40
0.0
 40
0.0
 40
0.0
 40
0.0
 40
0.2411348743
 40
1.0
 40
1.0
 40
1.0
 40
1.0
 10
-9.2432137025
 20
28.3152954626
 30
0.0
 10
-9.1869895585
 20
28.2509678278
 30
0.0
 10
-8.9651395985
 20
27.9743543327
 30
0.0
 10
-8.7898304474
 20
27.6617333851
 30
0.0
 10
-8.6819908493
 20
27.415437548
 30
0.0
 11
-9.2432137025
 21
28.3152954626
 31
0.0
 11
-9.0827041972
 21
28.1154718167
 31
0.0
 11
-8.6819908493
 21
27.415437548
 31
0.0
  0
SPLINE
  5
52F
100
AcDbEntity
  8
COPY-PUBBLISH
100
AcDbSpline
 62
7
  6
CONTINUOUS
 70
0
 71
3
 72
11
 73
7
 74
5
 42
0.0000001
 43
0.0000001
 44
0.0000000001
 12
-2.7747308378
 22
1.0225423844
 32
0.0
 13
-2.6449535572
 23
-1.3224767786
 33
0.0
 40
0.0
 40
0.0
 40
0.0
 40
0.0
 40
0.2271589748
 40
0.4660535704
 40
0.7226454062
 40
1.0
 40
1.0
 40
1.0
 40
1.0
 10
27.1268569313
 20
10.3476254425
 30
0.0
 10
26.9167552605
 20
10.4250520024
 30
0.0
 10
26.4636433576
 20
10.5288091809
 30
0.0
 10
25.745852062
 20
10.5214517654
 30
0.0
 10
24.9973136387
 20
10.3572534071
 30
0.0
 10
24.5083629597
 20
10.1553973824
 30
0.0
 10
24.2638329532
 20
10.0331323792
 30
0.0
 11
27.1268569313
 21
10.3476254425
 31
0.0
 11
26.4727222872
 21
10.5004198326
 31
0.0
 11
25.766278699
 21
10.4983331887
 31
0.0
 11
25.0239371125
 21
10.3412469076
 31
0.0
 11
24.2638329532
 21
10.0331323792
 31
0.0
  0
SPLINE
  5
530
100
AcDbEntity
  8
COPY-PUBBLISH
100
AcDbSpline
 62
7
  6
CONTINUOUS
 70
0
 71
3
 72
9
 73
5
 74
3
 42
0.0000001
 43
0.0000001
 44
0.0000000001
 12
0.0
 22
0.1472570935
 32
0.0
 13
0.0524895799
 23
0.1375845035
 33
0.0
 40
0.0
 40
0.0
 40
0.0
 40
0.0
 40
0.235867405
 40
1.0
 40
1.0
 40
1.0
 40
1.0
 10
-2.6062247319
 20
3.6772712667
 30
0.0
 10
-2.6062247319
 20
3.6888489829
 30
0.0
 10
-2.6034884937
 20
3.7379201696
 30
0.0
 10
-2.5912047029
 20
3.7862548764
 30
0.0
 10
-2.5778350366
 20
3.8212991443
 30
0.0
 11
-2.6062247319
 21
3.6772712667
 31
0.0
 11
-2.6044027899
 21
3.7119565969
 31
0.0
 11
-2.5778350366
 21
3.8212991443
 31
0.0
  0
SPLINE
  5
531
100
AcDbEntity
  8
COPY-PUBBLISH
100
AcDbSpline
 62
7
  6
CONTINUOUS
 70
0
 71
3
 72
9
 73
5
 74
3
 42
0.0000001
 43
0.0000001
 44
0.0000000001
 12
0.0924587634
 22
0.2423508264
 32
0.0
 13
0.2157751599
 23
0.1439570295
 33
0.0
 40
0.0
 40
0.0
 40
0.0
 40
0.0
 40
0.2629506561
 40
1.0
 40
1.0
 40
1.0
 40
1.0
 10
-2.5778350366
 20
3.8212991443
 30
0.0
 10
-2.5697310057
 20
3.8425412473
 30
0.0
 10
-2.5333409622
 20
3.9208413653
 30
0.0
 10
-2.475618848
 20
3.9911346832
 30
0.0
 10
-2.4226065347
 20
4.0265024946
 30
0.0
 11
-2.5778350366
 21
3.8212991443
 31
0.0
 11
-2.5491184697
 21
3.8831657675
 31
0.0
 11
-2.4226065347
 21
4.0265024946
 31
0.0
  0
SPLINE
  5
532
100
AcDbEntity
  8
COPY-PUBBLISH
100
AcDbSpline
 62
7
  6
CONTINUOUS
 70
0
 71
3
 72
8
 73
4
 74
2
 42
0.0000001
 43
0.0000001
 44
0.0000000001
 12
0.0274640909
 22
0.0183230032
 32
0.0
 13
0.0295297644
 23
0.0147648822
 33
0.0
 40
0.0
 40
0.0
 40
0.0
 40
0.0
 40
1.0
 40
1.0
 40
1.0
 40
1.0
 10
-2.4226065347
 20
4.0265024946
 30
0.0
 10
-2.4134518377
 20
4.0326101623
 30
0.0
 10
-2.4039359523
 20
4.0382232776
 30
0.0
 10
-2.3940926975
 20
4.043144905
 30
0.0
 11
-2.4226065347
 21
4.0265024946
 31
0.0
 11
-2.3940926975
 21
4.043144905
 31
0.0
  0
SPLINE
  5
533
100
AcDbEntity
  8
COPY-PUBBLISH
100
AcDbSpline
 62
7
  6
CONTINUOUS
 70
0
 71
3
 72
11
 73
7
 74
5
 42
0.0000001
 43
0.0000001
 44
0.0000000001
 12
0.3939644378
 22
0.1969822189
 32
0.0
 13
0.0
 23
0.4404656319
 33
0.0
 40
0.0
 40
0.0
 40
0.0
 40
0.0
 40
0.2296796509
 40
0.4882147705
 40
0.7532026362
 40
1.0
 40
1.0
 40
1.0
 40
1.0
 10
36.7796229802
 20
-3.8873645155
 30
0.0
 10
36.8097848517
 20
-3.8722835797
 30
0.0
 10
36.8674183487
 20
-3.8271944359
 30
0.0
 10
36.9339690191
 20
-3.7376780314
 30
0.0
 10
36.9792503685
 20
-3.6329965564
 30
0.0
 10
36.9917550146
 20
-3.5577261295
 30
0.0
 10
36.9917550146
 20
-3.5214908772
 30
0.0
 11
36.7796229802
 21
-3.8873645155
 31
0.0
 11
36.860803627
 21
-3.8269968036
 31
0.0
 11
36.9296229802
 21
-3.7362686251
 31
0.0
 11
36.9756068445
 21
-3.628990543
 31
0.0
 11
36.9917550146
 21
-3.5214908772
 31
0.0
  0
SPLINE
  5
534
100
AcDbEntity
  8
COPY-PUBBLISH
100
AcDbSpline
 62
7
  6
CONTINUOUS
 70
0
 71
3
 72
9
 73
5
 74
3
 42
0.0000001
 43
0.0000001
 44
0.0000000001
 12
0.0
 22
0.1869324542
 32
0.0
 13
-0.1670997399
 23
0.08379391
 33
0.0
 40
0.0
 40
0.0
 40
0.0
 40
0.0
 40
0.5516028534
 40
1.0
 40
1.0
 40
1.0
 40
1.0
 10
36.9917550146
 20
6.351198726
 30
0.0
 10
36.9917550146
 20
6.385569551
 30
0.0
 10
36.982925978
 20
6.4494869528
 30
0.0
 10
36.9389181203
 20
6.5008514879
 30
0.0
 10
36.9139424381
 20
6.5133758047
 30
0.0
 11
36.9917550146
 21
6.351198726
 31
0.0
 11
36.9713110621
 21
6.4522641866
 31
0.0
 11
36.9139424381
 21
6.5133758047
 31
0.0
  0
SPLINE
  5
535
100
AcDbEntity
  8
COPY-PUBBLISH
100
AcDbSpline
 62
7
  6
CONTINUOUS
 70
0
 71
3
 72
9
 73
5
 74
3
 42
0.0000001
 43
0.0000001
 44
0.0000000001
 12
0.1237557031
 22
0.0618778515
 32
0.0
 13
0.1236833656
 23
-0.0620223156
 33
0.0
 40
0.0
 40
0.0
 40
0.0
 40
0.0
 40
0.536124265
 40
1.0
 40
1.0
 40
1.0
 40
1.0
 10
35.3654094178
 20
4.0657827412
 30
0.0
 10
35.387525563
 20
4.0768408137
 30
0.0
 10
35.432590437
 20
4.0918420034
 30
0.0
 10
35.480604305
 20
4.0838084317
 30
0.0
 10
35.4997288757
 20
4.0742182159
 30
0.0
 11
35.3654094178
 21
4.0657827412
 31
0.0
 11
35.436693935
 21
4.0863049536
 31
0.0
 11
35.4997288757
 21
4.0742182159
 31
0.0
  0
SPLINE
  5
536
100
AcDbEntity
  8
COPY-PUBBLISH
100
AcDbSpline
 62
7
  6
CONTINUOUS
 70
0
 71
3
 72
11
 73
7
 74
5
 42
0.0000001
 43
0.0000001
 44
0.0000000001
 12
0.0
 22
0.4404656319
 32
0.0
 13
0.3939644378
 23
0.1969822189
 33
0.0
 40
0.0
 40
0.0
 40
0.0
 40
0.0
 40
0.2467973638
 40
0.5117852295
 40
0.7703203491
 40
1.0
 40
1.0
 40
1.0
 40
1.0
 10
34.1633278898
 20
3.204934356
 30
0.0
 10
34.1633278898
 20
3.2411696083
 30
0.0
 10
34.1758325359
 20
3.3164400352
 30
0.0
 10
34.2211138853
 20
3.4211215102
 30
0.0
 10
34.2876645557
 20
3.5106379147
 30
0.0
 10
34.3452980527
 20
3.5557270586
 30
0.0
 10
34.3754599242
 20
3.5708079943
 30
0.0
 11
34.1633278898
 21
3.204934356
 31
0.0
 11
34.1794760599
 21
3.3124340219
 31
0.0
 11
34.2254599242
 21
3.4197121039
 31
0.0
 11
34.2942792774
 21
3.5104402824
 31
0.0
 11
34.3754599242
 21
3.5708079943
 31
0.0
  0
SPLINE
  5
537
100
AcDbEntity
  8
COPY-PUBBLISH
100
AcDbSpline
 62
7
  6
CONTINUOUS
 70
0
 71
3
 72
11
 73
7
 74
5
 42
0.0000001
 43
0.0000001
 44
0.0000000001
 12
0.0
 22
0.4404656319
 32
0.0
 13
0.3939644378
 23
0.1969822189
 33
0.0
 40
0.0
 40
0.0
 40
0.0
 40
0.0
 40
0.2467973638
 40
0.5117852295
 40
0.7703203491
 40
1.0
 40
1.0
 40
1.0
 40
1.0
 10
33.4562211086
 20
-14.3825245699
 30
0.0
 10
33.4562211086
 20
-14.3462893176
 30
0.0
 10
33.4687257547
 20
-14.2710188907
 30
0.0
 10
33.5140071041
 20
-14.1663374157
 30
0.0
 10
33.5805577745
 20
-14.0768210112
 30
0.0
 10
33.6381912715
 20
-14.0317318673
 30
0.0
 10
33.668353143
 20
-14.0166509316
 30
0.0
 11
33.4562211086
 21
-14.3825245699
 31
0.0
 11
33.4723692787
 21
-14.275024904
 31
0.0
 11
33.518353143
 21
-14.167746822
 31
0.0
 11
33.5871724962
 21
-14.0770186435
 31
0.0
 11
33.668353143
 21
-14.0166509316
 31
0.0
  0
SPLINE
  5
538
100
AcDbEntity
  8
COPY-PUBBLISH
100
AcDbSpline
 62
7
  6
CONTINUOUS
 70
0
 71
3
 72
11
 73
7
 74
5
 42
0.0000001
 43
0.0000001
 44
0.0000000001
 12
0.0
 22
0.4404656319
 32
0.0
 13
0.3939644378
 23
0.1969822189
 33
0.0
 40
0.0
 40
0.0
 40
0.0
 40
0.0
 40
0.2467973638
 40
0.5117852295
 40
0.7703203491
 40
1.0
 40
1.0
 40
1.0
 40
1.0
 10
35.5775414522
 20
-4.7482129006
 30
0.0
 10
35.5775414522
 20
-4.7119776484
 30
0.0
 10
35.5900460983
 20
-4.6367072215
 30
0.0
 10
35.6353274477
 20
-4.5320257464
 30
0.0
 10
35.701878118
 20
-4.4425093419
 30
0.0
 10
35.759511615
 20
-4.3974201981
 30
0.0
 10
35.7896734866
 20
-4.3823392623
 30
0.0
 11
35.5775414522
 21
-4.7482129006
 31
0.0
 11
35.5936896223
 21
-4.6407132348
 31
0.0
 11
35.6396734866
 21
-4.5334351528
 31
0.0
 11
35.7084928398
 21
-4.4427069742
 31
0.0
 11
35.7896734866
 21
-4.3823392623
 31
0.0
  0
SPLINE
  5
539
100
AcDbEntity
  8
RACCORDO
100
AcDbSpline
 62
7
  6
CONTINUOUS
 70
0
 71
3
 72
9
 73
5
 74
3
 42
0.0000001
 43
0.0000001
 44
0.0000000001
 12
0.753797957
 22
1.3001091604
 32
0.0
 13
0.0
 23
1.5028290617
 33
0.0
 40
0.0
 40
0.0
 40
0.0
 40
0.0
 40
0.5177824481
 40
1.0
 40
1.0
 40
1.0
 40
1.0
 10
38.6988617958
 20
-29.8488258593
 30
0.0
 10
38.828962913
 20
-29.6244346247
 30
0.0
 10
39.0298295008
 20
-29.1601429673
 30
0.0
 10
39.1130753581
 20
-28.6585377238
 30
0.0
 10
39.1130753581
 20
-28.4169742068
 30
0.0
 11
38.6988617958
 21
-29.8488258593
 31
0.0
 11
39.0054393395
 21
-29.1336267601
 31
0.0
 11
39.1130753581
 21
-28.4169742068
 31
0.0
  0
SPLINE
  5
53A
100
AcDbEntity
  8
RACCORDO
100
AcDbSpline
 62
7
  6
CONTINUOUS
 70
0
 71
3
 72
9
 73
5
 74
3
 42
0.0000001
 43
0.0000001
 44
0.0000000001
 12
1.3528119726
 22
0.6185475259
 32
0.0
 13
0.746116706
 23
1.2868609622
 33
0.0
 40
0.0
 40
0.0
 40
0.0
 40
0.0
 40
0.4681223132
 40
1.0
 40
1.0
 40
1.0
 40
1.0
 10
33.3969489805
 20
-38.2143310409
 30
0.0
 10
33.6080428038
 20
-38.117812408
 30
0.0
 10
34.013434261
 20
-37.8125849443
 30
0.0
 10
34.3140233795
 20
-37.4115534297
 30
0.0
 10
34.446304322
 20
-37.1834025525
 30
0.0
 11
33.3969489805
 21
-38.2143310409
 31
0.0
 11
33.9646221499
 21
-37.8110504793
 31
0.0
 11
34.446304322
 21
-37.1834025525
 31
0.0
  0
SPLINE
  5
53B
100
AcDbEntity
  8
RACCORDO
100
AcDbSpline
 62
7
  6
CONTINUOUS
 70
0
 71
3
 72
11
 73
7
 74
5
 42
0.0000001
 43
0.0000001
 44
0.0000000001
 12
0.0
 22
2.2023277026
 32
0.0
 13
1.9698217807
 23
0.9849108903
 33
0.0
 40
0.0
 40
0.0
 40
0.0
 40
0.0
 40
0.2468124806
 40
0.5117852459
 40
0.7703059488
 40
1.0
 40
1.0
 40
1.0
 40
1.0
 10
30.7692153401
 20
-30.2752542377
 30
0.0
 10
30.7692153401
 20
-30.0940669166
 30
0.0
 10
30.8317433872
 20
-29.7177150319
 30
0.0
 10
31.0581471955
 20
-29.1943188949
 30
0.0
 10
31.3908920692
 20
-28.7467458914
 30
0.0
 10
31.6790567303
 20
-28.521295437
 30
0.0
 10
31.8298755119
 20
-28.4458860462
 30
0.0
 11
30.7692153401
 21
-30.2752542377
 31
0.0
 11
30.8499661115
 21
-29.7377238469
 31
0.0
 11
31.0798755119
 21
-29.2013654983
 31
0.0
 11
31.42395015
 21
-28.7477478202
 31
0.0
 11
31.8298755119
 21
-28.4458860462
 31
0.0
  0
SPLINE
  5
53C
100
AcDbEntity
  8
RACCORDO
100
AcDbSpline
 62
7
  6
CONTINUOUS
 70
0
 71
3
 72
10
 73
6
 74
4
 42
0.0000001
 43
0.0000001
 44
0.0000000001
 12
0.4923894286
 22
0.2251356944
 32
0.0
 13
0.4842788502
 23
-0.2420897055
 33
0.0
 40
0.0
 40
0.0
 40
0.0
 40
0.0
 40
0.5315769771
 40
0.7706303493
 40
1.0
 40
1.0
 40
1.0
 40
1.0
 10
27.0919228957
 20
-30.6045316736
 30
0.0
 10
27.1791705237
 20
-30.5646393563
 30
0.0
 10
27.3175372972
 20
-30.5248167848
 30
0.0
 10
27.4990775669
 20
-30.5376686663
 30
0.0
 10
27.5802405769
 20
-30.5652741001
 30
0.0
 10
27.6172668671
 20
-30.5837834438
 30
0.0
 11
27.0919228957
 21
-30.6045316736
 31
0.0
 11
27.3707896918
 21
-30.5333613136
 31
0.0
 11
27.4998264302
 21
-30.5434148727
 31
0.0
 11
27.6172668671
 21
-30.5837834438
 31
0.0
  0
SPLINE
  5
53D
100
AcDbEntity
  8
RACCORDO
100
AcDbSpline
 62
7
  6
CONTINUOUS
 70
0
 71
3
 72
11
 73
7
 74
5
 42
0.0000001
 43
0.0000001
 44
0.0000000001
 12
0.0
 22
2.1611174405
 32
0.0
 13
1.8993756445
 23
1.0309222825
 33
0.0
 40
0.0
 40
0.0
 40
0.0
 40
0.0
 40
0.2456565883
 40
0.5095549885
 40
0.7682455362
 40
1.0
 40
1.0
 40
1.0
 40
1.0
 10
-35.8402434476
 20
27.201809693
 30
0.0
 10
-35.8402434476
 20
27.3787739388
 30
0.0
 10
-35.7805111014
 20
27.7464746114
 30
0.0
 10
-35.5630570347
 20
28.2602637412
 30
0.0
 10
-35.2418490874
 20
28.7041498041
 30
0.0
 10
-34.9633293767
 20
28.9322380123
 30
0.0
 10
-34.816599782
 20
29.0118782926
 30
0.0
 11
-35.8402434476
 21
27.201809693
 31
0.0
 11
-35.7630102623
 21
27.7270545251
 31
0.0
 11
-35.5425583521
 21
28.2530399344
 31
0.0
 11
-35.2109926336
 21
28.7031654608
 31
0.0
 11
-34.816599782
 21
29.0118782926
 31
0.0
  0
SPLINE
  5
53E
100
AcDbEntity
  8
DRAFT
100
AcDbSpline
 62
7
  6
CONTINUOUS
 70
0
 71
3
 72
11
 73
7
 74
5
 42
0.0000001
 43
0.0000001
 44
0.0000000001
 12
-0.2085884651
 22
0.1042942325
 32
0.0
 13
-0.0140651971
 23
0.2327844603
 33
0.0
 40
0.0
 40
0.0
 40
0.0
 40
0.0
 40
0.3010213425
 40
0.5641607413
 40
0.7932667699
 40
1.0
 40
1.0
 40
1.0
 40
1.0
 10
-25.4457737642
 20
-21.1021673804
 30
0.0
 10
-25.4667036241
 20
-21.0917024504
 30
0.0
 10
-25.5046755212
 20
-21.0692978759
 30
0.0
 10
-25.5512679711
 20
-21.0281795134
 30
0.0
 10
-25.5821708072
 20
-20.9825891129
 30
0.0
 10
-25.5910234193
 20
-20.948968054
 30
0.0
 10
-25.5919926671
 20
-20.9329266262
 30
0.0
 11
-25.4457737642
 21
-21.1021673804
 31
0.0
 11
-25.5058484319
 21
-21.0658466086
 31
0.0
 11
-25.5512239522
 21
-21.0245318856
 31
0.0
 11
-25.5802816113
 21
-20.9796947007
 31
0.0
 11
-25.5919926671
 21
-20.9329266262
 31
0.0
  0
SPLINE
  5
53F
100
AcDbEntity
  8
DRAFT
100
AcDbSpline
 62
7
  6
CONTINUOUS
 70
0
 71
3
 72
11
 73
7
 74
5
 42
0.0000001
 43
0.0000001
 44
0.0000000001
 12
-0.2085884651
 22
0.1042942325
 32
0.0
 13
-0.0140651971
 23
0.2327844603
 33
0.0
 40
0.0
 40
0.0
 40
0.0
 40
0.0
 40
0.3010213425
 40
0.5641607413
 40
0.7932667699
 40
1.0
 40
1.0
 40
1.0
 40
1.0
 10
-9.5358711875
 20
-29.0571186687
 30
0.0
 10
-9.5568010474
 20
-29.0466537387
 30
0.0
 10
-9.5947729445
 20
-29.0242491643
 30
0.0
 10
-9.6413653944
 20
-28.9831308017
 30
0.0
 10
-9.6722682305
 20
-28.9375404013
 30
0.0
 10
-9.6811208426
 20
-28.9039193423
 30
0.0
 10
-9.6820900904
 20
-28.8878779145
 30
0.0
 11
-9.5358711875
 21
-29.0571186687
 31
0.0
 11
-9.5959458552
 21
-29.0207978969
 31
0.0
 11
-9.6413213755
 21
-28.9794831739
 31
0.0
 11
-9.6703790346
 21
-28.934645989
 31
0.0
 11
-9.6820900904
 21
-28.8878779145
 31
0.0
  0
SPLINE
  5
540
100
AcDbEntity
  8
COPY-PUBBLISH
100
AcDbSpline
 62
7
  6
CONTINUOUS
 70
0
 71
3
 72
9
 73
5
 74
3
 42
0.0000001
 43
0.0000001
 44
0.0000000001
 12
-0.0361927072
 22
0.1886356065
 32
0.0
 13
-0.156898536
 23
0.1107978047
 33
0.0
 40
0.0
 40
0.0
 40
0.0
 40
0.0
 40
0.532900704
 40
1.0
 40
1.0
 40
1.0
 40
1.0
 10
8.5685302135
 20
-6.361457435
 30
0.0
 10
8.5621011738
 20
-6.3279494191
 30
0.0
 10
8.5417380115
 20
-6.2659369317
 30
0.0
 10
8.4986580402
 20
-6.215413491
 30
0.0
 10
8.4742289749
 20
-6.1981622989
 30
0.0
 11
8.5685302135
 21
-6.361457435
 31
0.0
 11
8.5339468955
 21
-6.2651191185
 31
0.0
 11
8.4742289749
 21
-6.1981622989
 31
0.0
  0
SPLINE
  5
541
100
AcDbEntity
  8
COPY-PUBBLISH
100
AcDbSpline
 62
7
  6
CONTINUOUS
 70
0
 71
3
 72
9
 73
5
 74
3
 42
0.0000001
 43
0.0000001
 44
0.0000000001
 12
0.0343458443
 22
0.1528818108
 32
0.0
 13
0.0564229149
 23
0.1461811882
 33
0.0
 40
0.0
 40
0.0
 40
0.0
 40
0.0
 40
0.2460441458
 40
1.0
 40
1.0
 40
1.0
 40
1.0
 10
7.5191183683
 20
-6.7736196792
 30
0.0
 10
7.5219352329
 20
-6.761081121
 30
0.0
 10
7.534370147
 20
-6.7103460291
 30
0.0
 10
7.550608015
 20
-6.6605519425
 30
0.0
 10
7.564788144
 20
-6.6238138883
 30
0.0
 11
7.5191183683
 21
-6.7736196792
 31
0.0
 11
7.5282845307
 21
-6.7361719426
 31
0.0
 11
7.564788144
 21
-6.6238138883
 31
0.0
  0
SPLINE
  5
542
100
AcDbEntity
  8
COPY-PUBBLISH
100
AcDbSpline
 62
7
  6
CONTINUOUS
 70
0
 71
3
 72
9
 73
5
 74
3
 42
0.0000001
 43
0.0000001
 44
0.0000000001
 12
0.1153532872
 22
0.2988587283
 32
0.0
 13
0.1961902065
 23
0.2532436045
 33
0.0
 40
0.0
 40
0.0
 40
0.0
 40
0.0
 40
0.2514141221
 40
1.0
 40
1.0
 40
1.0
 40
1.0
 10
7.564788144
 20
-6.6238138883
 30
0.0
 10
7.5744552924
 20
-6.59876812
 30
0.0
 10
7.6165217828
 20
-6.5005929782
 30
0.0
 10
7.6724860543
 20
-6.4082847063
 30
0.0
 10
7.7214411269
 20
-6.3450931776
 30
0.0
 11
7.564788144
 21
-6.6238138883
 31
0.0
 11
7.5964859776
 21
-6.5497737252
 31
0.0
 11
7.7214411269
 21
-6.3450931776
 31
0.0
  0
SPLINE
  5
543
100
AcDbEntity
  8
COPY-PUBBLISH
100
AcDbSpline
 62
7
  6
CONTINUOUS
 70
0
 71
3
 72
9
 73
5
 74
3
 42
0.0000001
 43
0.0000001
 44
0.0000000001
 12
0.0945889093
 22
0.1220959841
 32
0.0
 13
0.1129552831
 23
0.1053356309
 33
0.0
 40
0.0
 40
0.0
 40
0.0
 40
0.0
 40
0.2562103333
 40
1.0
 40
1.0
 40
1.0
 40
1.0
 10
7.7214411269
 20
-6.3450931776
 30
0.0
 10
7.7295193456
 20
-6.33466576
 30
0.0
 10
7.7618159117
 20
-6.294571595
 30
0.0
 10
7.7971703096
 20
-6.2569049914
 30
0.0
 10
7.8251753004
 20
-6.2307891402
 30
0.0
 11
7.7214411269
 21
-6.3450931776
 31
0.0
 11
7.746269501
 21
-6.3142800354
 31
0.0
 11
7.8251753004
 21
-6.2307891402
 31
0.0
  0
SPLINE
  5
544
100
AcDbEntity
  8
COPY-PUBBLISH
100
AcDbSpline
 62
7
  6
CONTINUOUS
 70
0
 71
3
 72
15
 73
11
 74
9
 42
0.0000001
 43
0.0000001
 44
0.0000000001
 12
0.0
 22
-10.3018261542
 32
0.0
 13
-9.2142334293
 23
-4.6071167147
 33
0.0
 40
0.0
 40
0.0
 40
0.0
 40
0.0
 40
0.1197746025
 40
0.2468130182
 40
0.3784628679
 40
0.511666171
 40
0.6432352748
 40
0.7701190196
 40
0.8896792273
 40
1.0
 40
1.0
 40
1.0
 40
1.0
 10
-8.2630789814
 20
7.3440346703
 30
0.0
 10
-8.2630789814
 20
6.9327356263
 30
0.0
 10
-8.3330330921
 20
6.0843341377
 30
0.0
 10
-8.6174882054
 20
4.8127321234
 30
0.0
 10
-9.0743152481
 20
3.5432796514
 30
0.0
 10
-9.686402013
 20
2.3237641511
 30
0.0
 10
-10.4308204159
 20
1.1996642709
 30
0.0
 10
-11.2800670212
 20
0.212890442
 30
0.0
 10
-12.20237847
 20
-0.5995849165
 30
0.0
 10
-12.8739859991
 20
-1.0235966651
 30
0.0
 10
-13.2128264497
 20
-1.1930168903
 30
0.0
 11
-8.2630789814
 21
7.3440346703
 31
0.0
 11
-8.3581869927
 21
6.1138084314
 31
0.0
 11
-8.6398560857
 21
4.8357510596
 31
0.0
 11
-9.0972618472
 21
3.558977679
 31
0.0
 11
-9.7128264556
 21
2.3325538761
 31
0.0
 11
-10.4628940927
 21
1.2036104697
 31
0.0
 11
-11.318640079
 21
0.215532115
 31
0.0
 11
-12.2471786177
 21
-0.593709926
 31
0.0
 11
-13.2128264497
 21
-1.1930168903
 31
0.0
  0
SPLINE
  5
545
100
AcDbEntity
  8
COPY-PUBBLISH
100
AcDbSpline
 62
7
  6
CONTINUOUS
 70
0
 71
3
 72
9
 73
5
 74
3
 42
0.0000001
 43
0.0000001
 44
0.0000000001
 12
-1.8817009473
 22
-0.9408504736
 32
0.0
 13
-2.1010819988
 23
0.1070163685
 33
0.0
 40
0.0
 40
0.0
 40
0.0
 40
0.0
 40
0.5262177692
 40
1.0
 40
1.0
 40
1.0
 40
1.0
 10
-20.9910010427
 20
-5.0821041869
 30
0.0
 10
-21.3210625343
 20
-5.2471349327
 30
0.0
 10
-21.9814257308
 20
-5.5015686505
 30
0.0
 10
-22.6893865047
 20
-5.5806952726
 30
0.0
 10
-23.0212049436
 20
-5.5637944546
 30
0.0
 11
-20.9910010427
 21
-5.0821041869
 31
0.0
 11
-22.0292322444
 21
-5.4663665835
 31
0.0
 11
-23.0212049436
 21
-5.5637944546
 31
0.0
  0
SPLINE
  5
546
100
AcDbEntity
  8
COPY-PUBBLISH
100
AcDbSpline
 62
7
  6
CONTINUOUS
 70
0
 71
3
 72
9
 73
5
 74
3
 42
0.0000001
 43
0.0000001
 44
0.0000000001
 12
-0.1384271572
 22
0.0692135786
 32
0.0
 13
-0.1384271572
 23
0.0692135786
 33
0.0
 40
0.0
 40
0.0
 40
0.0
 40
0.0
 40
0.5143146523
 40
1.0
 40
1.0
 40
1.0
 40
1.0
 10
4.5042047867
 20
-30.2464484257
 30
0.0
 10
4.4804730816
 20
-30.2345825731
 30
0.0
 10
4.4346867833
 20
-30.2107889506
 30
0.0
 10
4.3877355523
 20
-30.1893659656
 30
0.0
 10
4.3653248716
 20
-30.1781606253
 30
0.0
 11
4.5042047867
 21
-30.2464484257
 31
0.0
 11
4.4330678059
 21
-30.2107348357
 31
0.0
 11
4.3653248716
 21
-30.1781606253
 31
0.0
  0
SPLINE
  5
547
100
AcDbEntity
  8
COPY-PUBBLISH
100
AcDbSpline
 62
7
  6
CONTINUOUS
 70
0
 71
3
 72
11
 73
7
 74
5
 42
0.0000001
 43
0.0000001
 44
0.0000000001
 12
1.7882337068
 22
0.8941168534
 32
0.0
 13
0.46508779
 23
1.9444583013
 33
0.0
 40
0.0
 40
0.0
 40
0.0
 40
0.0
 40
0.2248079846
 40
0.4753661328
 40
0.7389888221
 40
1.0
 40
1.0
 40
1.0
 40
1.0
 10
4.447851304
 20
-31.8970259001
 30
0.0
 10
4.5818543759
 20
-31.8300243642
 30
0.0
 10
4.8427675019
 20
-31.6425798984
 30
0.0
 10
5.1695888694
 20
-31.2699915465
 30
0.0
 10
5.4306889509
 20
-30.8207694669
 30
0.0
 10
5.5479611262
 20
-30.4885953245
 30
0.0
 10
5.5884254968
 20
-30.3194202073
 30
0.0
 11
4.447851304
 21
-31.8970259001
 31
0.0
 11
4.8172994997
 21
-31.641052674
 31
0.0
 11
5.1509378367
 21
-31.2673833369
 31
0.0
 11
5.4165615295
 21
-30.8121483746
 31
0.0
 11
5.5884254968
 21
-30.3194202073
 31
0.0
  0
SPLINE
  5
548
100
AcDbEntity
  8
COPY-PUBBLISH
100
AcDbSpline
 62
7
  6
CONTINUOUS
 70
0
 71
3
 72
9
 73
5
 74
3
 42
0.0000001
 43
0.0000001
 44
0.0000000001
 12
0.1150242385
 22
0.5180845407
 32
0.0
 13
-0.0213000376
 23
0.5302720765
 33
0.0
 40
0.0
 40
0.0
 40
0.0
 40
0.0
 40
0.2608634899
 40
1.0
 40
1.0
 40
1.0
 40
1.0
 10
5.5973638006
 20
-30.2806607686
 30
0.0
 10
5.6073656754
 20
-30.2356109881
 30
0.0
 10
5.6407644532
 20
-30.0619084142
 30
0.0
 10
5.6537869112
 20
-29.8838861266
 30
0.0
 10
5.6485390328
 20
-29.7532383093
 30
0.0
 11
5.5973638006
 21
-30.2806607686
 31
0.0
 11
5.6234041152
 21
-30.1446917134
 31
0.0
 11
5.6485390328
 21
-29.7532383093
 31
0.0
  0
SPLINE
  5
549
100
AcDbEntity
  8
COPY-PUBBLISH
100
AcDbSpline
 62
7
  6
CONTINUOUS
 70
0
 71
3
 72
9
 73
5
 74
3
 42
0.0000001
 43
0.0000001
 44
0.0000000001
 12
-0.0081045908
 22
0.2017666944
 32
0.0
 13
-0.0345302252
 23
0.198955138
 33
0.0
 40
0.0
 40
0.0
 40
0.0
 40
0.0
 40
0.2563316295
 40
1.0
 40
1.0
 40
1.0
 40
1.0
 10
5.6485390328
 20
-29.7532383093
 30
0.0
 10
5.6478465451
 20
-29.7359985807
 30
0.0
 10
5.6441236329
 20
-29.6687908493
 30
0.0
 10
5.636201146
 20
-29.6017929796
 30
0.0
 10
5.6276414672
 20
-29.5524740985
 30
0.0
 11
5.6485390328
 21
-29.7532383093
 31
0.0
 11
5.6456620079
 21
-29.7015574353
 31
0.0
 11
5.6276414672
 21
-29.5524740985
 31
0.0
  0
SPLINE
  5
54A
100
AcDbEntity
  8
COPY-PUBBLISH
100
AcDbSpline
 62
7
  6
CONTINUOUS
 70
0
 71
3
 72
9
 73
5
 74
3
 42
0.0000001
 43
0.0000001
 44
0.0000000001
 12
-0.0699364622
 22
0.4029576521
 32
0.0
 13
-0.2143526747
 23
0.3483086405
 33
0.0
 40
0.0
 40
0.0
 40
0.0
 40
0.0
 40
0.2664281833
 40
1.0
 40
1.0
 40
1.0
 40
1.0
 10
5.6276414672
 20
-29.5524740985
 30
0.0
 10
5.6214304524
 20
-29.5166876735
 30
0.0
 10
5.5929284156
 20
-29.3834414092
 30
0.0
 10
5.5418401533
 20
-29.2541221159
 30
0.0
 10
5.489425793
 20
-29.1689523152
 30
0.0
 11
5.6276414672
 21
-29.5524740985
 31
0.0
 11
5.6046397005
 21
-29.4459653052
 31
0.0
 11
5.489425793
 21
-29.1689523152
 31
0.0
  0
SPLINE
  5
54B
100
AcDbEntity
  8
COPY-PUBBLISH
100
AcDbSpline
 62
7
  6
CONTINUOUS
 70
0
 71
3
 72
9
 73
5
 74
3
 42
0.0000001
 43
0.0000001
 44
0.0000000001
 12
-0.056763327
 22
0.0922365783
 32
0.0
 13
-0.0687021014
 23
0.0837238493
 33
0.0
 40
0.0
 40
0.0
 40
0.0
 40
0.0
 40
0.2539554234
 40
1.0
 40
1.0
 40
1.0
 40
1.0
 10
5.489425793
 20
-29.1689523152
 30
0.0
 10
5.4846206748
 20
-29.1611443221
 30
0.0
 10
5.4652050093
 20
-29.1307070035
 30
0.0
 10
5.4437823113
 20
-29.1015412799
 30
0.0
 10
5.4266973679
 20
-29.0807207053
 30
0.0
 11
5.489425793
 21
-29.1689523152
 31
0.0
 11
5.4746298074
 21
-29.1457668873
 31
0.0
 11
5.4266973679
 21
-29.0807207053
 31
0.0
  0
SPLINE
  5
54C
100
AcDbEntity
  8
COPY-PUBBLISH
100
AcDbSpline
 62
7
  6
CONTINUOUS
 70
0
 71
3
 72
9
 73
5
 74
3
 42
0.0000001
 43
0.0000001
 44
0.0000000001
 12
-0.1328793004
 22
0.1211109433
 32
0.0
 13
-0.160819374
 23
0.0803859316
 33
0.0
 40
0.0
 40
0.0
 40
0.0
 40
0.0
 40
0.2529057196
 40
1.0
 40
1.0
 40
1.0
 40
1.0
 10
5.3558132847
 20
-29.005869964
 30
0.0
 10
5.3446113063
 20
-28.9956600805
 30
0.0
 10
5.2989884483
 20
-28.956775756
 30
0.0
 10
5.2480123708
 20
-28.9241528571
 30
0.0
 10
5.2079632926
 20
-28.9041342338
 30
0.0
 11
5.3558132847
 21
-29.005869964
 31
0.0
 11
5.321192344
 21
-28.9763924333
 31
0.0
 11
5.2079632926
 21
-28.9041342338
 31
0.0
  0
SPLINE
  5
54D
100
AcDbEntity
  8
COPY-PUBBLISH
100
AcDbSpline
 62
7
  6
CONTINUOUS
 70
0
 71
3
 72
13
 73
9
 74
7
 42
0.0000001
 43
0.0000001
 44
0.0000000001
 12
1.3840580811
 22
-0.3661000298
 32
0.0
 13
0.6627564125
 23
1.2690153433
 33
0.0
 40
0.0
 40
0.0
 40
0.0
 40
0.0
 40
0.0954792694
 40
0.198133136
 40
0.3102579004
 40
0.4326415253
 40
0.7044638861
 40
1.0
 40
1.0
 40
1.0
 40
1.0
 10
3.9917370246
 20
-31.5477142954
 30
0.0
 10
4.0357866427
 20
-31.5593659499
 30
0.0
 10
4.1310923026
 20
-31.570208476
 30
0.0
 10
4.2789293947
 20
-31.5493068518
 30
0.0
 10
4.4309187508
 20
-31.493455196
 30
0.0
 10
4.6403903487
 20
-31.3710193487
 30
0.0
 10
4.8828193983
 20
-31.1422647524
 30
0.0
 10
5.0337491388
 20
-30.914715779
 30
0.0
 10
5.0990386237
 20
-30.7897024913
 30
0.0
 11
3.9917370246
 21
-31.5477142954
 31
0.0
 11
4.1274331817
 21
-31.564198291
 31
0.0
 11
4.2731552342
 21
-31.545122743
 31
0.0
 11
4.4243060442
 21
-31.491071786
 31
0.0
 11
4.5762024784
 21
-31.4037415959
 31
0.0
 11
4.8633555612
 21
-31.1410895208
 31
0.0
 11
5.0990386237
 21
-30.7897024913
 31
0.0
  0
SPLINE
  5
54E
100
AcDbEntity
  8
COPY-PUBBLISH
100
AcDbSpline
 62
7
  6
CONTINUOUS
 70
0
 71
3
 72
9
 73
5
 74
3
 42
0.0000001
 43
0.0000001
 44
0.0000000001
 12
-0.1212712711
 22
0.1663268379
 32
0.0
 13
-0.178124522
 23
0.1031648819
 33
0.0
 40
0.0
 40
0.0
 40
0.0
 40
0.0
 40
0.2581715055
 40
1.0
 40
1.0
 40
1.0
 40
1.0
 10
5.1686534563
 20
-29.4867805059
 30
0.0
 10
5.1582171941
 20
-29.4724668891
 30
0.0
 10
5.1152732092
 20
-29.4189334626
 30
0.0
 10
5.0613481324
 20
-29.3740007369
 30
0.0
 10
5.0173021838
 20
-29.3484905205
 30
0.0
 11
5.1686534563
 21
-29.4867805059
 31
0.0
 11
5.1353114501
 21
-29.4453985369
 31
0.0
 11
5.0173021838
 21
-29.3484905205
 31
0.0
  0
SPLINE
  5
54F
100
AcDbEntity
  8
COPY-PUBBLISH
100
AcDbSpline
 62
7
  6
CONTINUOUS
 70
0
 71
3
 72
12
 73
8
 74
6
 42
0.0000001
 43
0.0000001
 44
0.0000000001
 12
0.0
 22
-4.1227408877
 32
0.0
 13
3.4615255544
 23
-2.2393823397
 33
0.0
 40
0.0
 40
0.0
 40
0.0
 40
0.0
 40
0.2872446577
 40
0.5471953783
 40
0.7820010046
 40
0.8924728407
 40
1.0
 40
1.0
 40
1.0
 40
1.0
 10
11.5359108919
 20
-20.233129796
 30
0.0
 10
11.5359108919
 20
-20.6278748944
 30
0.0
 10
11.5954924638
 20
-21.3823248807
 30
0.0
 10
11.8913121683
 20
-22.4237212376
 30
0.0
 10
12.3129610959
 20
-23.1542927691
 30
0.0
 10
12.7398005107
 20
-23.6101162021
 30
0.0
 10
12.9780433795
 20
-23.7943935032
 30
0.0
 10
13.1021127161
 20
-23.8746583104
 30
0.0
 11
11.5359108919
 21
-20.233129796
 31
0.0
 11
11.6390861992
 21
-21.4128620073
 31
0.0
 11
11.9443105363
 21
-22.4401882846
 31
0.0
 11
12.4388594825
 21
-23.2723710277
 31
0.0
 11
12.7509851286
 21
-23.6040475692
 31
0.0
 11
13.1021127161
 21
-23.8746583104
 31
0.0
  0
SPLINE
  5
550
100
AcDbEntity
  8
COPY-PUBBLISH
100
AcDbSpline
 62
7
  6
CONTINUOUS
 70
0
 71
3
 72
15
 73
11
 74
9
 42
0.0000001
 43
0.0000001
 44
0.0000000001
 12
-9.2142334293
 22
-4.6071167147
 32
0.0
 13
0.0
 23
-10.3018261542
 33
0.0
 40
0.0
 40
0.0
 40
0.0
 40
0.0
 40
0.110320773
 40
0.2298809821
 40
0.3567647262
 40
0.4883338313
 40
0.6215371332
 40
0.7531869837
 40
0.8802253979
 40
1.0
 40
1.0
 40
1.0
 40
1.0
 10
16.4856583602
 20
6.1440450826
 30
0.0
 10
16.1468179086
 20
5.9746248568
 30
0.0
 10
15.4752103746
 20
5.5506131047
 30
0.0
 10
14.5528989239
 20
4.738137743
 30
0.0
 10
13.703652316
 20
3.7513639076
 30
0.0
 10
12.9592339161
 20
2.6272640283
 30
0.0
 10
12.3471471516
 20
1.4077485247
 30
0.0
 10
11.8903201132
 20
0.138296058
 30
0.0
 10
11.6058650017
 20
-1.1333059529
 30
0.0
 10
11.5359108919
 20
-1.9817074352
 30
0.0
 10
11.5359108919
 20
-2.393006478
 30
0.0
 11
16.4856583602
 21
6.1440450826
 31
0.0
 11
15.5200105254
 21
5.5447381161
 31
0.0
 11
14.5914719768
 21
4.7354960647
 31
0.0
 11
13.735725997
 21
3.7474177144
 31
0.0
 11
12.9856583543
 21
2.6184742958
 31
0.0
 11
12.3700937535
 21
1.3920505037
 31
0.0
 11
11.9126879911
 21
0.1152771145
 31
0.0
 11
11.6310189026
 21
-1.1627802429
 31
0.0
 11
11.5359108919
 21
-2.393006478
 31
0.0
  0
SPLINE
  5
551
100
AcDbEntity
  8
COPY-PUBBLISH
100
AcDbSpline
 62
7
  6
CONTINUOUS
 70
0
 71
3
 72
9
 73
5
 74
3
 42
0.0000001
 43
0.0000001
 44
0.0000000001
 12
-0.3398626828
 22
-0.5925436501
 32
0.0
 13
-0.1893378766
 23
-0.6563275013
 33
0.0
 40
0.0
 40
0.0
 40
0.0
 40
0.0
 40
0.2517408736
 40
1.0
 40
1.0
 40
1.0
 40
1.0
 10
6.0410852115
 20
-28.474786199
 30
0.0
 10
6.012566102
 20
-28.5245086843
 30
0.0
 10
5.9051936647
 20
-28.7253415924
 30
0.0
 10
5.821236109
 20
-28.9388188992
 30
0.0
 10
5.7740115109
 20
-29.1025199135
 30
0.0
 11
6.0410852115
 21
-28.474786199
 31
0.0
 11
5.9599899219
 21
-28.6264257072
 31
0.0
 11
5.7740115109
 21
-29.1025199135
 31
0.0
  0
SPLINE
  5
552
100
AcDbEntity
  8
COPY-PUBBLISH
100
AcDbSpline
 62
7
  6
CONTINUOUS
 70
0
 71
3
 72
11
 73
7
 74
5
 42
0.0000001
 43
0.0000001
 44
0.0000000001
 12
-0.0518423383
 22
-1.6437625308
 32
0.0
 13
1.4319183809
 23
-0.8088588481
 33
0.0
 40
0.0
 40
0.0
 40
0.0
 40
0.0
 40
0.2903946445
 40
0.5512758554
 40
0.7846189349
 40
1.0
 40
1.0
 40
1.0
 40
1.0
 10
2.275586066
 20
-2.4245722648
 30
0.0
 10
2.2705678202
 20
-2.5836855434
 30
0.0
 10
2.2862314325
 20
-2.8876057678
 30
0.0
 10
2.3992380605
 20
-3.3067363458
 30
0.0
 10
2.5990092297
 20
-3.6470507919
 30
0.0
 10
2.7912742285
 20
-3.8101975141
 30
0.0
 10
2.8940769305
 20
-3.8682684742
 30
0.0
 11
2.275586066
 21
-2.4245722648
 31
0.0
 11
2.3047555658
 21
-2.9012578051
 31
0.0
 11
2.4221388345
 21
-3.3139277399
 31
0.0
 11
2.6218966699
 21
-3.6415889797
 31
0.0
 11
2.8940769305
 21
-3.8682684742
 31
0.0
  0
SPLINE
  5
553
100
AcDbEntity
  8
COPY-PUBBLISH
100
AcDbSpline
 62
7
  6
CONTINUOUS
 70
0
 71
3
 72
11
 73
7
 74
5
 42
0.0000001
 43
0.0000001
 44
0.0000000001
 12
-0.051842337
 22
-1.6437625898
 32
0.0
 13
1.4319184005
 23
-0.8088589333
 33
0.0
 40
0.0
 40
0.0
 40
0.0
 40
0.0
 40
0.2903946436
 40
0.5512758544
 40
0.7846189346
 40
1.0
 40
1.0
 40
1.0
 40
1.0
 10
2.275585955
 20
1.3730443381
 30
0.0
 10
2.2705677093
 20
1.2139310543
 30
0.0
 10
2.2862313221
 20
0.9100108197
 30
0.0
 10
2.3992379509
 20
0.4908802263
 30
0.0
 10
2.5990091213
 20
0.1505657645
 30
0.0
 10
2.7912741216
 20
-0.0125809701
 30
0.0
 10
2.8940768252
 20
-0.0706519364
 30
0.0
 11
2.275585955
 21
1.3730443381
 31
0.0
 11
2.3047554553
 21
0.8963587823
 31
0.0
 11
2.4221387248
 21
0.4836888319
 31
0.0
 11
2.6218965619
 21
0.1560275756
 31
0.0
 11
2.8940768252
 21
-0.0706519364
 31
0.0
  0
SPLINE
  5
554
100
AcDbEntity
  8
COPY-PUBBLISH
100
AcDbSpline
 62
7
  6
CONTINUOUS
 70
0
 71
3
 72
11
 73
7
 74
5
 42
0.0000001
 43
0.0000001
 44
0.0000000001
 12
1.9237035829
 22
1.4637073919
 32
0.0
 13
-0.112249613
 23
2.4146376184
 33
0.0
 40
0.0
 40
0.0
 40
0.0
 40
0.0
 40
0.2428160627
 40
0.5034231031
 40
0.7621907966
 40
1.0
 40
1.0
 40
1.0
 40
1.0
 10
4.3424853226
 20
0.7952528921
 30
0.0
 10
4.4981873658
 20
0.9137234474
 30
0.0
 10
4.7849728928
 20
1.2078486109
 30
0.0
 10
5.1077371691
 20
1.7353914463
 30
0.0
 10
5.3125209276
 20
2.3146893712
 30
0.0
 10
5.3570425704
 20
2.7179159644
 30
0.0
 10
5.3481445734
 20
2.9093236473
 30
0.0
 11
4.3424853226
 21
0.7952528921
 31
0.0
 11
4.7577151002
 21
1.2100899932
 31
0.0
 11
5.0885071117
 21
1.7462010693
 31
0.0
 11
5.2938096965
 21
2.3370541305
 31
0.0
 11
5.3481445734
 21
2.9093236473
 31
0.0
  0
SPLINE
  5
555
100
AcDbEntity
  8
COPY-PUBBLISH
100
AcDbSpline
 62
7
  6
CONTINUOUS
 70
0
 71
3
 72
9
 73
5
 74
3
 42
0.0000001
 43
0.0000001
 44
0.0000000001
 12
-0.2004232775
 22
0.0244440336
 32
0.0
 13
-0.1963104994
 23
-0.0472142859
 33
0.0
 40
0.0
 40
0.0
 40
0.0
 40
0.0
 40
0.2400658195
 40
1.0
 40
1.0
 40
1.0
 40
1.0
 10
8.4854171601
 20
-5.9520676148
 30
0.0
 10
8.4693789006
 20
-5.9501115558
 30
0.0
 10
8.4021693426
 20
-5.9453110658
 30
0.0
 10
8.3343176717
 20
-5.9536957301
 30
0.0
 10
8.2845899856
 20
-5.9656556466
 30
0.0
 11
8.4854171601
 21
-5.9520676148
 31
0.0
 11
8.4370724594
 21
-5.9485665702
 31
0.0
 11
8.2845899856
 21
-5.9656556466
 31
0.0
  0
SPLINE
  5
556
100
AcDbEntity
  8
COPY-PUBBLISH
100
AcDbSpline
 62
7
  6
CONTINUOUS
 70
0
 71
3
 72
9
 73
5
 74
3
 42
0.0000001
 43
0.0000001
 44
0.0000000001
 12
-0.1301469269
 22
-0.0313014038
 32
0.0
 13
-0.1227190464
 23
-0.0534606033
 33
0.0
 40
0.0
 40
0.0
 40
0.0
 40
0.0
 40
0.2426590726
 40
1.0
 40
1.0
 40
1.0
 40
1.0
 10
8.2845899856
 20
-5.9656556466
 30
0.0
 10
8.2740628747
 20
-5.9681875032
 30
0.0
 10
8.2309321185
 20
-5.9796563778
 30
0.0
 10
8.1888964284
 20
-5.9951206645
 30
0.0
 10
8.1579163762
 20
-6.0086166321
 30
0.0
 11
8.2845899856
 21
-5.9656556466
 31
0.0
 11
8.2531952173
 21
-5.9739888197
 31
0.0
 11
8.1579163762
 21
-6.0086166321
 31
0.0
  0
SPLINE
  5
557
100
AcDbEntity
  8
COPY-PUBBLISH
100
AcDbSpline
 62
7
  6
CONTINUOUS
 70
0
 71
3
 72
9
 73
5
 74
3
 42
0.0000001
 43
0.0000001
 44
0.0000000001
 12
-0.2292980358
 22
-0.1146490179
 32
0.0
 13
-0.197164172
 23
-0.1638544348
 33
0.0
 40
0.0
 40
0.0
 40
0.0
 40
0.0
 40
0.2391537579
 40
1.0
 40
1.0
 40
1.0
 40
1.0
 10
8.0975787125
 20
-6.037405064
 30
0.0
 10
8.0792995502
 20
-6.0465446452
 30
0.0
 10
8.0041288745
 20
-6.0872713821
 30
0.0
 10
7.9341458679
 20
-6.1372732123
 30
0.0
 10
7.8841419948
 20
-6.1788292227
 30
0.0
 11
8.0975787125
 21
-6.037405064
 31
0.0
 11
8.0436415573
 21
-6.0665550341
 31
0.0
 11
7.8841419948
 21
-6.1788292227
 31
0.0
  0
SPLINE
  5
558
100
AcDbEntity
  8
COPY-PUBBLISH
100
AcDbSpline
 62
7
  6
CONTINUOUS
 70
0
 71
3
 72
11
 73
7
 74
5
 42
0.0000001
 43
0.0000001
 44
0.0000000001
 12
0.0
 22
-0.4404656319
 32
0.0
 13
-0.3939644378
 23
-0.1969822189
 33
0.0
 40
0.0
 40
0.0
 40
0.0
 40
0.0
 40
0.2467973638
 40
0.5117852295
 40
0.7703203491
 40
1.0
 40
1.0
 40
1.0
 40
1.0
 10
35.5775414522
 20
-2.4965468508
 30
0.0
 10
35.5775414522
 20
-2.5327821031
 30
0.0
 10
35.5650368061
 20
-2.60805253
 30
0.0
 10
35.5197554567
 20
-2.712734005
 30
0.0
 10
35.4532047864
 20
-2.8022504095
 30
0.0
 10
35.3955712894
 20
-2.8473395534
 30
0.0
 10
35.3654094178
 20
-2.8624204891
 30
0.0
 11
35.5775414522
 21
-2.4965468508
 31
0.0
 11
35.5613932821
 21
-2.6040465167
 31
0.0
 11
35.5154094178
 21
-2.7113245987
 31
0.0
 11
35.4465900646
 21
-2.8020527772
 31
0.0
 11
35.3654094178
 21
-2.8624204891
 31
0.0
  0
SPLINE
  5
559
100
AcDbEntity
  8
COPY-PUBBLISH
100
AcDbSpline
 62
7
  6
CONTINUOUS
 70
0
 71
3
 72
11
 73
7
 74
5
 42
0.0000001
 43
0.0000001
 44
0.0000000001
 12
2.9684731453
 22
-1.920409436
 32
0.0
 13
3.1622530216
 23
1.5811265108
 33
0.0
 40
0.0
 40
0.0
 40
0.0
 40
0.0
 40
0.2279329847
 40
0.4641611197
 40
0.7194410624
 40
1.0
 40
1.0
 40
1.0
 40
1.0
 10
13.1021127161
 20
-23.8746583104
 30
0.0
 10
13.3276503642
 20
-24.0205665286
 30
0.0
 10
13.8366020083
 20
-24.2477888536
 30
0.0
 10
14.6904393295
 20
-24.3444169113
 30
0.0
 10
15.5982183556
 20
-24.202526901
 30
0.0
 10
16.1899255774
 20
-23.9683002797
 30
0.0
 10
16.4856583602
 20
-23.8204338883
 30
0.0
 11
13.1021127161
 21
-23.8746583104
 31
0.0
 11
13.8376146254
 21
-24.2039680293
 31
0.0
 11
14.6665763363
 21
-24.3057435621
 31
0.0
 11
15.5597984443
 21
-24.1763616235
 31
0.0
 11
16.4856583602
 21
-23.8204338883
 31
0.0
  0
SPLINE
  5
55A
100
AcDbEntity
  8
COPY-PUBBLISH
100
AcDbSpline
 62
253
  6
CONTINUOUS
 70
0
 71
3
 72
11
 73
7
 74
5
 42
0.0000001
 43
0.0000001
 44
0.0000000001
 12
0.0081268688
 22
-0.2406595867
 32
0.0
 13
0.2153020184
 23
-0.1078337774
 33
0.0
 40
0.0
 40
0.0
 40
0.0
 40
0.0
 40
0.2115162886
 40
0.4418192253
 40
0.7036399759
 40
1.0
 40
1.0
 40
1.0
 40
1.0
 10
-38.8191815455
 20
-16.9753619788
 30
0.0
 10
-38.8186085571
 20
-16.9923297863
 30
0.0
 10
-38.8105270709
 20
-17.0277886659
 30
0.0
 10
-38.7798404369
 20
-17.0761929022
 30
0.0
 10
-38.7326281434
 20
-17.1191620402
 30
0.0
 10
-38.6939870645
 20
-17.1423503751
 30
0.0
 10
-38.672718094
 20
-17.1530029154
 30
0.0
 11
-38.8191815455
 21
-16.9753619788
 31
0.0
 11
-38.808306783
 21
-17.025119921
 31
0.0
 11
-38.7794618683
 21
-17.072484056
 31
0.0
 11
-38.7335480523
 21
-17.1156890086
 31
0.0
 11
-38.672718094
 21
-17.1530029154
 31
0.0
  0
SPLINE
  5
55B
100
AcDbEntity
  8
COPY-PUBBLISH
100
AcDbSpline
 62
7
  6
CONTINUOUS
 70
0
 71
3
 72
9
 73
5
 74
3
 42
0.0000001
 43
0.0000001
 44
0.0000000001
 12
-0.1237557031
 22
-0.0618778515
 32
0.0
 13
-0.1236833656
 23
0.0620223156
 33
0.0
 40
0.0
 40
0.0
 40
0.0
 40
0.0
 40
0.536124265
 40
1.0
 40
1.0
 40
1.0
 40
1.0
 10
34.3754599242
 20
-3.357395236
 30
0.0
 10
34.3533437791
 20
-3.3684533085
 30
0.0
 10
34.308278905
 20
-3.3834544982
 30
0.0
 10
34.260265037
 20
-3.3754209265
 30
0.0
 10
34.2411404663
 20
-3.3658307107
 30
0.0
 11
34.3754599242
 21
-3.357395236
 31
0.0
 11
34.304175407
 21
-3.3779174484
 31
0.0
 11
34.2411404663
 21
-3.3658307107
 31
0.0
  0
SPLINE
  5
55C
100
AcDbEntity
  8
COPY-PUBBLISH
100
AcDbSpline
 62
253
  6
CONTINUOUS
 70
0
 71
3
 72
11
 73
7
 74
5
 42
0.0000001
 43
0.0000001
 44
0.0000000001
 12
-0.0073972336
 22
-0.2394081284
 32
0.0
 13
0.2143132852
 23
-0.1069616135
 33
0.0
 40
0.0
 40
0.0
 40
0.0
 40
0.0
 40
0.2009509857
 40
0.4266292412
 40
0.6921910204
 40
1.0
 40
1.0
 40
1.0
 40
1.0
 10
-38.8191783743
 20
18.6385352961
 30
0.0
 10
-38.8196738681
 20
18.6224988629
 30
0.0
 10
-38.8129194894
 20
18.587956061
 30
0.0
 10
-38.782454537
 20
18.5407428715
 30
0.0
 10
-38.7342979664
 20
18.4980860255
 30
0.0
 10
-38.6946763902
 20
18.4746791756
 30
0.0
 10
-38.6726872057
 20
18.4637045939
 30
0.0
 11
-38.8191783743
 21
18.6385352961
 31
0.0
 11
-38.8106436417
 21
18.5911657631
 31
0.0
 11
-38.7825246216
 21
18.5450001591
 31
0.0
 11
-38.7357573465
 21
18.5018863757
 31
0.0
 11
-38.6726872057
 21
18.4637045939
 31
0.0
  0
SPLINE
  5
55D
100
AcDbEntity
  8
COPY-PUBBLISH
100
AcDbSpline
 62
7
  6
CONTINUOUS
 70
0
 71
3
 72
9
 73
5
 74
3
 42
0.0000001
 43
0.0000001
 44
0.0000000001
 12
-0.1237557031
 22
-0.0618778515
 32
0.0
 13
-0.1236833656
 23
0.0620223156
 33
0.0
 40
0.0
 40
0.0
 40
0.0
 40
0.0
 40
0.536124265
 40
1.0
 40
1.0
 40
1.0
 40
1.0
 10
35.7896734866
 20
6.0099655831
 30
0.0
 10
35.7675573414
 20
5.9989075105
 30
0.0
 10
35.7224924674
 20
5.9839063208
 30
0.0
 10
35.6744785994
 20
5.9919398926
 30
0.0
 10
35.6553540287
 20
6.0015301083
 30
0.0
 11
35.7896734866
 21
6.0099655831
 31
0.0
 11
35.7183889694
 21
5.9894433706
 31
0.0
 11
35.6553540287
 21
6.0015301083
 31
0.0
  0
SPLINE
  5
55E
100
AcDbEntity
  8
COPY-PUBBLISH
100
AcDbSpline
 62
253
  6
CONTINUOUS
 70
0
 71
3
 72
9
 73
5
 74
3
 42
0.0000001
 43
0.0000001
 44
0.0000000001
 12
0.2079680636
 22
0.1204704671
 32
0.0
 13
0.2165214233
 23
-0.1043183693
 33
0.0
 40
0.0
 40
0.0
 40
0.0
 40
0.0
 40
0.4580584159
 40
1.0
 40
1.0
 40
1.0
 40
1.0
 10
-37.9131385577
 20
20.2244670699
 30
0.0
 10
-37.8813847171
 20
20.2428612404
 30
0.0
 10
-37.7978790582
 20
20.2596469956
 30
0.0
 10
-37.7192661556
 20
20.2343374668
 30
0.0
 10
-37.6801521679
 20
20.2154926461
 30
0.0
 11
-37.9131385577
 21
20.2244670699
 31
0.0
 11
-37.8059103634
 21
20.2494066255
 31
0.0
 11
-37.6801521679
 21
20.2154926461
 31
0.0
  0
SPLINE
  5
55F
100
AcDbEntity
  8
COPY-PUBBLISH
100
AcDbSpline
 62
7
  6
CONTINUOUS
 70
0
 71
3
 72
9
 73
5
 74
3
 42
0.0000001
 43
0.0000001
 44
0.0000000001
 12
0.1670997399
 22
-0.08379391
 32
0.0
 13
0.0
 23
-0.1869324542
 33
0.0
 40
0.0
 40
0.0
 40
0.0
 40
0.0
 40
0.4483971466
 40
1.0
 40
1.0
 40
1.0
 40
1.0
 10
35.4997288757
 20
4.0742182159
 30
0.0
 10
35.5247045579
 20
4.0616938992
 30
0.0
 10
35.5687124157
 20
4.0103293641
 30
0.0
 10
35.5775414522
 20
3.9464119622
 30
0.0
 10
35.5775414522
 20
3.9120411372
 30
0.0
 11
35.4997288757
 21
4.0742182159
 31
0.0
 11
35.5570974998
 21
4.0131065978
 31
0.0
 11
35.5775414522
 21
3.9120411372
 31
0.0
  0
SPLINE
  5
560
100
AcDbEntity
  8
RACCORDO
100
AcDbSpline
 62
7
  6
CONTINUOUS
 70
0
 71
3
 72
9
 73
5
 74
3
 42
0.0000001
 43
0.0000001
 44
0.0000000001
 12
-0.6915266416
 22
-1.1927070285
 32
0.0
 13
-1.2117026055
 23
-0.6576746519
 33
0.0
 40
0.0
 40
0.0
 40
0.0
 40
0.0
 40
0.5273232414
 40
1.0
 40
1.0
 40
1.0
 40
1.0
 10
34.3645002214
 20
-29.9760245272
 30
0.0
 10
34.2429475313
 20
-30.185671906
 30
0.0
 10
33.9679908207
 20
-30.5592304843
 30
0.0
 10
33.6047701162
 20
-30.8539751665
 30
0.0
 10
33.4138555629
 20
-30.957597674
 30
0.0
 11
34.3645002214
 21
-29.9760245272
 31
0.0
 11
33.9284218523
 21
-30.5577283823
 31
0.0
 11
33.4138555629
 21
-30.957597674
 31
0.0
  0
SPLINE
  5
561
100
AcDbEntity
  8
RACCORDO
100
AcDbSpline
 62
7
  6
CONTINUOUS
 70
0
 71
3
 72
9
 73
5
 74
3
 42
0.0000001
 43
0.0000001
 44
0.0000000001
 12
0.0
 22
-1.5028290617
 32
0.0
 13
-0.753797957
 23
-1.3001091604
 33
0.0
 40
0.0
 40
0.0
 40
0.0
 40
0.0
 40
0.4822175519
 40
1.0
 40
1.0
 40
1.0
 40
1.0
 10
34.870434671
 20
-28.3859777447
 30
0.0
 10
34.870434671
 20
-28.6275412617
 30
0.0
 10
34.7871888137
 20
-29.1291465053
 30
0.0
 10
34.5863222258
 20
-29.5934381626
 30
0.0
 10
34.4562211086
 20
-29.8178293973
 30
0.0
 11
34.870434671
 21
-28.3859777447
 31
0.0
 11
34.7627986524
 21
-29.102630298
 31
0.0
 11
34.4562211086
 21
-29.8178293973
 31
0.0
  0
SPLINE
  5
562
100
AcDbEntity
  8
RACCORDO
100
AcDbSpline
 62
7
  6
CONTINUOUS
 70
0
 71
3
 72
16
 73
12
 74
10
 42
0.0000001
 43
0.0000001
 44
0.0000000001
 12
2.328263697
 22
-1.163892812
 32
0.0
 13
-2.3181728838
 23
-1.1838635062
 33
0.0
 40
0.0
 40
0.0
 40
0.0
 40
0.0
 40
0.0449539204
 40
0.0915754039
 40
0.1943403677
 40
0.3140027251
 40
0.4488236934
 40
0.5928124033
 40
0.7379277135
 40
0.8759029607
 40
1.0
 40
1.0
 40
1.0
 40
1.0
 10
27.6172668671
 20
-30.5837834438
 30
0.0
 10
27.6521550607
 20
-30.6012239588
 30
0.0
 10
27.7189705001
 20
-30.6459894344
 30
0.0
 10
27.8333085495
 20
-30.7718571281
 30
0.0
 10
27.9267980623
 20
-30.9926675638
 30
0.0
 10
27.9529503287
 20
-31.3048966769
 30
0.0
 10
27.9006999898
 20
-31.6493641209
 30
0.0
 10
27.774698503
 20
-31.9971945832
 30
0.0
 10
27.5860549718
 20
-32.3186866837
 30
0.0
 10
27.3514133138
 20
-32.5856637377
 30
0.0
 10
27.1647949619
 20
-32.7208505365
 30
0.0
 10
27.0689021647
 20
-32.7698218552
 30
0.0
 11
27.6172668671
 21
-30.5837834438
 31
0.0
 11
27.7146360251
 21
-30.6486792497
 31
0.0
 11
27.7967726801
 21
-30.7380126339
 31
0.0
 11
27.9079041233
 21
-30.9813292252
 31
0.0
 11
27.9403434741
 21
-31.2911130475
 31
0.0
 11
27.8910734718
 21
-31.6385722482
 31
0.0
 11
27.7646721311
 21
-31.9914129699
 31
0.0
 11
27.5728927899
 21
-32.3168378561
 31
0.0
 11
27.3335486222
 21
-32.5846062512
 31
0.0
 11
27.0689021647
 21
-32.7698218552
 31
0.0
  0
SPLINE
  5
563
100
AcDbEntity
  8
ASSI
100
AcDbSpline
 62
7
  6
CONTINUOUS
 70
0
 71
3
 72
9
 73
5
 74
3
 42
0.0000001
 43
0.0000001
 44
0.0000000001
 12
0.1124640092
 22
0.0115941622
 32
0.0
 13
0.1012529977
 23
-0.0503031651
 33
0.0
 40
0.0
 40
0.0
 40
0.0
 40
0.0
 40
0.2616712501
 40
1.0
 40
1.0
 40
1.0
 40
1.0
 10
8.1982802271
 20
-6.0949271488
 30
0.0
 10
8.2080897597
 20
-6.0939158625
 30
0.0
 10
8.2457396955
 20
-6.0922786003
 30
0.0
 10
8.2840927204
 20
-6.1008602682
 30
0.0
 10
8.3090120534
 20
-6.1132403592
 30
0.0
 11
8.1982802271
 21
-6.0949271488
 31
0.0
 11
8.2278417131
 21
-6.0937587226
 31
0.0
 11
8.3090120534
 21
-6.1132403592
 31
0.0
  0
SPLINE
  5
564
100
AcDbEntity
  8
COPY-PUBBLISH
100
AcDbSpline
 62
7
  6
CONTINUOUS
 70
0
 71
3
 72
9
 73
5
 74
3
 42
0.0000001
 43
0.0000001
 44
0.0000000001
 12
-0.2761500068
 22
-0.3664523552
 32
0.0
 13
0.0
 23
-0.4588530864
 33
0.0
 40
0.0
 40
0.0
 40
0.0
 40
0.0
 40
0.5148970481
 40
1.0
 40
1.0
 40
1.0
 40
1.0
 10
7.7963265676
 20
-6.4736767966
 30
0.0
 10
7.7489302931
 20
-6.5365718753
 30
0.0
 10
7.675598656
 20
-6.6734197835
 30
0.0
 10
7.6440842637
 20
-6.8264926249
 30
0.0
 10
7.6440842637
 20
-6.9006896204
 30
0.0
 11
7.7963265676
 21
-6.4736767966
 31
0.0
 11
7.684500351
 21
-6.6817985808
 31
0.0
 11
7.6440842637
 21
-6.9006896204
 31
0.0
  0
SPLINE
  5
565
100
AcDbEntity
  8
DRAFT
100
AcDbSpline
 62
7
  6
CONTINUOUS
 70
0
 71
3
 72
11
 73
7
 74
5
 42
0.0000001
 43
0.0000001
 44
0.0000000001
 12
-0.0149617319
 22
0.2476224596
 32
0.0
 13
0.2218841787
 23
0.1109420893
 33
0.0
 40
0.0
 40
0.0
 40
0.0
 40
0.0
 40
0.2066898943
 40
0.4334598618
 40
0.6960192562
 40
1.0
 40
1.0
 40
1.0
 40
1.0
 10
-25.5919926671
 20
-20.9329266262
 30
0.0
 10
-25.5930234801
 20
-20.9158662728
 30
0.0
 10
-25.5874172706
 20
-20.8792830748
 30
0.0
 10
-25.5573419562
 20
-20.8289915488
 30
0.0
 10
-25.5087411395
 20
-20.7840085288
 30
0.0
 10
-25.4682566034
 20
-20.7598554094
 30
0.0
 10
-25.4457737642
 20
-20.7486139898
 30
0.0
 11
-25.5919926671
 21
-20.9329266262
 31
0.0
 11
-25.5846929704
 21
-20.882174498
 31
0.0
 11
-25.5569912217
 21
-20.8332120434
 31
0.0
 11
-25.5100380938
 21
-20.788069333
 31
0.0
 11
-25.4457737642
 21
-20.7486139898
 31
0.0
  0
SPLINE
  5
566
100
AcDbEntity
  8
RACCORDO
100
AcDbSpline
 62
7
  6
CONTINUOUS
 70
0
 71
3
 72
11
 73
7
 74
5
 42
0.0000001
 43
0.0000001
 44
0.0000000001
 12
-0.6481395844
 22
-0.3517900957
 32
0.0
 13
-0.6595511678
 23
0.3298991503
 33
0.0
 40
0.0
 40
0.0
 40
0.0
 40
0.0
 40
0.2810593192
 40
0.5379535977
 40
0.7746480873
 40
1.0
 40
1.0
 40
1.0
 40
1.0
 10
31.8668920181
 20
-31.7972415819
 30
0.0
 10
31.806170128
 20
-31.8301995435
 30
0.0
 10
31.6844403233
 20
-31.8840323952
 30
0.0
 10
31.4968629535
 20
-31.9248592294
 30
0.0
 10
31.3182223043
 20
-31.9195204991
 30
0.0
 10
31.2083930957
 20
-31.8838020114
 30
0.0
 10
31.15884939
 20
-31.8590208766
 30
0.0
 11
31.8668920181
 21
-31.7972415819
 31
0.0
 11
31.676642945
 21
-31.8794952548
 31
0.0
 11
31.4911250149
 21
-31.9178842874
 31
0.0
 11
31.3167105338
 21
-31.9109632493
 31
0.0
 11
31.15884939
 21
-31.8590208766
 31
0.0
  0
SPLINE
  5
567
100
AcDbEntity
  8
DRAFT
100
AcDbSpline
 62
7
  6
CONTINUOUS
 70
0
 71
3
 72
11
 73
7
 74
5
 42
0.0000001
 43
0.0000001
 44
0.0000000001
 12
-0.0149617319
 22
0.2476224596
 32
0.0
 13
0.2218841787
 23
0.1109420893
 33
0.0
 40
0.0
 40
0.0
 40
0.0
 40
0.0
 40
0.2066898943
 40
0.4334598618
 40
0.6960192562
 40
1.0
 40
1.0
 40
1.0
 40
1.0
 10
-9.6820900904
 20
-28.8878779145
 30
0.0
 10
-9.6831209034
 20
-28.8708175612
 30
0.0
 10
-9.6775146939
 20
-28.8342343632
 30
0.0
 10
-9.6474393795
 20
-28.7839428372
 30
0.0
 10
-9.5988385628
 20
-28.7389598172
 30
0.0
 10
-9.5583540267
 20
-28.7148066977
 30
0.0
 10
-9.5358711875
 20
-28.7035652781
 30
0.0
 11
-9.6820900904
 21
-28.8878779145
 31
0.0
 11
-9.6747903937
 21
-28.8371257864
 31
0.0
 11
-9.647088645
 21
-28.7881633317
 31
0.0
 11
-9.6001355171
 21
-28.7430206214
 31
0.0
 11
-9.5358711875
 21
-28.7035652781
 31
0.0
  0
SPLINE
  5
568
100
AcDbEntity
  8
ASSI
100
AcDbSpline
 62
7
  6
CONTINUOUS
 70
0
 71
3
 72
9
 73
5
 74
3
 42
0.0000001
 43
0.0000001
 44
0.0000000001
 12
0.0
 22
0.1270463757
 32
0.0
 13
-0.0252617005
 23
0.1245095501
 33
0.0
 40
0.0
 40
0.0
 40
0.0
 40
0.0
 40
0.2589505999
 40
1.0
 40
1.0
 40
1.0
 40
1.0
 10
8.5660624109
 20
-6.2730224257
 30
0.0
 10
8.5660624109
 20
-6.2620561807
 30
0.0
 10
8.5650961118
 20
-6.2197187312
 30
0.0
 10
8.5602012285
 20
-6.1774259498
 30
0.0
 10
8.5539611725
 20
-6.1466700407
 30
0.0
 11
8.5660624109
 21
-6.2730224257
 31
0.0
 11
8.5652985306
 21
-6.24013256
 31
0.0
 11
8.5539611725
 21
-6.1466700407
 31
0.0
  0
SPLINE
  5
569
100
AcDbEntity
  8
ASSI
100
AcDbSpline
 62
7
  6
CONTINUOUS
 70
0
 71
3
 72
8
 73
4
 74
2
 42
0.0000001
 43
0.0000001
 44
0.0000000001
 12
-0.0113879756
 22
0.0561289105
 32
0.0
 13
-0.0177219322
 23
0.0544616719
 33
0.0
 40
0.0
 40
0.0
 40
0.0
 40
0.0
 40
1.0
 40
1.0
 40
1.0
 40
1.0
 10
8.5539611725
 20
-6.1466700407
 30
0.0
 10
8.5501651806
 20
-6.1279604038
 30
0.0
 10
8.5453859746
 20
-6.1094127634
 30
0.0
 10
8.5394786638
 20
-6.0912588728
 30
0.0
 11
8.5539611725
 21
-6.1466700407
 31
0.0
 11
8.5394786638
 21
-6.0912588728
 31
0.0
  0
SPLINE
  5
56A
100
AcDbEntity
  8
ASSI
100
AcDbSpline
 62
7
  6
CONTINUOUS
 70
0
 71
3
 72
8
 73
4
 74
2
 42
0.0000001
 43
0.0000001
 44
0.0000000001
 12
-0.0169639793
 22
0.0521323897
 32
0.0
 13
-0.0235893863
 23
0.0494884179
 33
0.0
 40
0.0
 40
0.0
 40
0.0
 40
0.0
 40
1.0
 40
1.0
 40
1.0
 40
1.0
 10
8.5394786638
 20
-6.0912588728
 30
0.0
 10
8.5338240041
 20
-6.0738814095
 30
0.0
 10
8.5271102864
 20
-6.0568016137
 30
0.0
 10
8.5192471576
 20
-6.0403054743
 30
0.0
 11
8.5394786638
 21
-6.0912588728
 31
0.0
 11
8.5192471576
 21
-6.0403054743
 31
0.0
  0
SPLINE
  5
56B
100
AcDbEntity
  8
ASSI
100
AcDbSpline
 62
7
  6
CONTINUOUS
 70
0
 71
3
 72
9
 73
5
 74
3
 42
0.0000001
 43
0.0000001
 44
0.0000000001
 12
-0.0373252759
 22
0.0601131249
 32
0.0
 13
-0.0499260099
 23
0.0501413756
 33
0.0
 40
0.0
 40
0.0
 40
0.0
 40
0.0
 40
0.2560876001
 40
1.0
 40
1.0
 40
1.0
 40
1.0
 10
8.4998385266
 20
-6.0047028984
 30
0.0
 10
8.4966523465
 20
-5.9995714897
 30
0.0
 10
8.4836896598
 20
-5.9798650819
 30
0.0
 10
8.468564956
 20
-5.9615563321
 30
0.0
 10
8.4561847634
 20
-5.9491227351
 30
0.0
 11
8.4998385266
 21
-6.0047028984
 31
0.0
 11
8.4898713929
 21
-5.989570016
 31
0.0
 11
8.4561847634
 21
-5.9491227351
 31
0.0
  0
SPLINE
  5
56C
100
AcDbEntity
  8
COPY-PUBBLISH
100
AcDbSpline
 62
253
  6
CONTINUOUS
 70
0
 71
3
 72
11
 73
7
 74
5
 42
0.0000001
 43
0.0000001
 44
0.0000000001
 12
-0.0324676656
 22
0.73029259
 32
0.0
 13
-0.6488724206
 23
0.3366689739
 33
0.0
 40
0.0
 40
0.0
 40
0.0
 40
0.0
 40
0.2445553494
 40
0.5100589275
 40
0.7700879512
 40
1.0
 40
1.0
 40
1.0
 40
1.0
 10
-0.6221533919
 20
1.2664071823
 30
0.0
 10
-0.6248001056
 20
1.3259395022
 30
0.0
 10
-0.6505913547
 20
1.4493418648
 30
0.0
 10
-0.73043519
 20
1.6206784481
 30
0.0
 10
-0.8429522369
 20
1.7680827855
 30
0.0
 10
-0.9382582725
 20
1.8436082085
 30
0.0
 10
-0.987986135
 20
1.8694096263
 30
0.0
 11
-0.6221533919
 21
1.2664071823
 31
0.0
 11
-0.6557602819
 21
1.4419933342
 31
0.0
 11
-0.7370737401
 21
1.6182256141
 31
0.0
 11
-0.8537287991
 21
1.7683050811
 31
0.0
 11
-0.987986135
 21
1.8694096263
 31
0.0
  0
SPLINE
  5
56D
100
AcDbEntity
  8
COPY-PUBBLISH
100
AcDbSpline
 62
253
  6
CONTINUOUS
 70
0
 71
3
 72
11
 73
7
 74
5
 42
0.0000001
 43
0.0000001
 44
0.0000000001
 12
-1.8291614308
 22
-1.0094729201
 32
0.0
 13
-0.0699727863
 23
-2.0880543397
 33
0.0
 40
0.0
 40
0.0
 40
0.0
 40
0.0
 40
0.2326005128
 40
0.4902632535
 40
0.7532049173
 40
1.0
 40
1.0
 40
1.0
 40
1.0
 10
-0.9879861319
 20
1.8694096281
 30
0.0
 10
-1.1298074275
 20
1.7911416551
 30
0.0
 10
-1.399310968
 20
1.5720253507
 30
0.0
 10
-1.7140702622
 20
1.1472082404
 30
0.0
 10
-1.9320625314
 20
0.6547234518
 30
0.0
 10
-1.9981681377
 20
0.3010677284
 30
0.0
 10
-2.0039244509
 20
0.1292938806
 30
0.0
 11
-0.9879861319
 21
1.8694096281
 31
0.0
 11
-1.3709871242
 21
1.5703065701
 31
0.0
 11
-1.694797933
 21
1.1402711392
 31
0.0
 11
-1.9157097857
 21
0.6373024261
 31
0.0
 11
-2.0039244509
 21
0.1292938806
 31
0.0
  0
SPLINE
  5
56E
100
AcDbEntity
  8
COPY-PUBBLISH
100
AcDbSpline
 62
253
  6
CONTINUOUS
 70
0
 71
3
 72
11
 73
7
 74
5
 42
0.0000001
 43
0.0000001
 44
0.0000000001
 12
-1.2232784596
 22
-0.6676624056
 32
0.0
 13
-0.0470330925
 23
-1.3928284768
 33
0.0
 40
0.0
 40
0.0
 40
0.0
 40
0.0
 40
0.23296372
 40
0.4906558178
 40
0.7534215878
 40
1.0
 40
1.0
 40
1.0
 40
1.0
 10
-0.6221533919
 20
1.2664071823
 30
0.0
 10
-0.7171465587
 20
1.2145601431
 30
0.0
 10
-0.8977566501
 20
1.0691220336
 30
0.0
 10
-1.1089182159
 20
0.7864771239
 30
0.0
 10
-1.2551503465
 20
0.4584737271
 30
0.0
 10
-1.2994752197
 20
0.2227581939
 30
0.0
 10
-1.3033410015
 20
0.1082777158
 30
0.0
 11
-0.6221533919
 21
1.2664071823
 31
0.0
 11
-0.8789392419
 21
1.0677431891
 31
0.0
 11
-1.0960610302
 21
0.7816850978
 31
0.0
 11
-1.2441895389
 21
0.4467856503
 31
0.0
 11
-1.3033410015
 21
0.1082777158
 31
0.0
  0
SPLINE
  5
56F
100
AcDbEntity
  8
COPY-PUBBLISH
100
AcDbSpline
 62
253
  6
CONTINUOUS
 70
0
 71
3
 72
11
 73
7
 74
5
 42
0.0000001
 43
0.0000001
 44
0.0000000001
 12
-0.658766771
 22
-0.2854316941
 32
0.0
 13
-0.6419161349
 23
0.3215409559
 33
0.0
 40
0.0
 40
0.0
 40
0.0
 40
0.0
 40
0.2343160913
 40
0.4988564071
 40
0.7640094345
 40
1.0
 40
1.0
 40
1.0
 40
1.0
 10
-1.3033410015
 20
0.1082777158
 30
0.0
 10
-1.3547942198
 20
0.0859839695
 30
0.0
 10
-1.4717485283
 20
0.0557280249
 30
0.0
 10
-1.6551379201
 20
0.0451310436
 30
0.0
 10
-1.837961065
 20
0.0667900178
 30
0.0
 10
-1.9534290599
 20
0.1040003398
 30
0.0
 10
-2.0039244438
 20
0.1292938838
 30
0.0
 11
-1.3033410015
 21
0.1082777158
 31
0.0
 11
-1.465277923
 21
0.0627097818
 31
0.0
 11
-1.6548237901
 21
0.0507092472
 31
0.0
 11
-1.8437510942
 21
0.0740632534
 31
0.0
 11
-2.0039244438
 21
0.1292938838
 31
0.0
  0
SPLINE
  5
570
100
AcDbEntity
  8
COPY-PUBBLISH
100
AcDbSpline
 62
253
  6
CONTINUOUS
 70
0
 71
3
 72
11
 73
7
 74
5
 42
0.0000001
 43
0.0000001
 44
0.0000000001
 12
-0.6367982386
 22
-0.3389925116
 32
0.0
 13
-0.6454645341
 23
0.3221854354
 33
0.0
 40
0.0
 40
0.0
 40
0.0
 40
0.0
 40
0.2389284078
 40
0.5036688988
 40
0.7664304833
 40
1.0
 40
1.0
 40
1.0
 40
1.0
 10
-1.3033410023
 20
-35.4727992198
 30
0.0
 10
-1.3540573987
 20
-35.4997975334
 30
0.0
 10
-1.4701173915
 20
-35.5396102075
 30
0.0
 10
-1.6542071071
 20
-35.5614932687
 30
0.0
 10
-1.8377611855
 20
-35.5475380216
 30
0.0
 10
-1.9536381186
 20
-35.512465976
 30
0.0
 10
-2.0038917317
 20
-35.4873817439
 30
0.0
 11
-1.3033410023
 21
-35.4727992198
 31
0.0
 11
-1.4652759642
 21
-35.5318468644
 31
0.0
 11
-1.654813622
 21
-35.5553198796
 31
0.0
 11
-1.8437289567
 21
-35.5397237392
 31
0.0
 11
-2.0038917317
 21
-35.4873817439
 31
0.0
  0
SPLINE
  5
571
100
AcDbEntity
  8
COPY-PUBBLISH
100
AcDbSpline
 62
253
  6
CONTINUOUS
 70
0
 71
3
 72
11
 73
7
 74
5
 42
0.0000001
 43
0.0000001
 44
0.0000000001
 12
0.0308757933
 22
-0.8941208812
 32
0.0
 13
0.7990934316
 23
-0.4023122574
 33
0.0
 40
0.0
 40
0.0
 40
0.0
 40
0.0
 40
0.2865240895
 40
0.5451798067
 40
0.7796589066
 40
1.0
 40
1.0
 40
1.0
 40
1.0
 10
-2.0039244509
 20
-35.487399749
 30
0.0
 10
-2.0009755647
 20
-35.5727954728
 30
0.0
 10
-1.9815112605
 20
-35.7354071076
 30
0.0
 10
-1.9042614269
 20
-35.9570500905
 30
0.0
 10
-1.7817544427
 20
-36.1346852197
 30
0.0
 10
-1.6706332605
 20
-36.2176821443
 30
0.0
 10
-1.6119422204
 20
-36.2472307852
 30
0.0
 11
-2.0039244509
 21
-35.487399749
 31
0.0
 11
-1.970972339
 21
-35.7416128259
 31
0.0
 11
-1.892013346
 21
-35.959132545
 31
0.0
 11
-1.7705489605
 21
-36.1301677879
 31
0.0
 11
-1.6119422204
 21
-36.2472307852
 31
0.0
  0
SPLINE
  5
572
100
AcDbEntity
  8
COPY-PUBBLISH
100
AcDbSpline
 62
253
  6
CONTINUOUS
 70
0
 71
3
 72
13
 73
9
 74
7
 42
0.0000001
 43
0.0000001
 44
0.0000000001
 12
0.0355583684
 22
-1.0255326967
 32
0.0
 13
0.9462390515
 23
0.3970054999
 33
0.0
 40
0.0
 40
0.0
 40
0.0
 40
0.0
 40
0.2802154344
 40
0.4034071724
 40
0.5184853526
 40
0.6304632223
 40
0.7451912259
 40
1.0
 40
1.0
 40
1.0
 40
1.0
 10
-1.3033410015
 20
-35.4727992202
 30
0.0
 10
-1.3000196669
 20
-35.5685892502
 30
0.0
 10
-1.2752372699
 20
-35.7089794321
 30
0.0
 10
-1.186339354
 20
-35.8642819957
 30
0.0
 10
-1.1004209328
 20
-35.9501237571
 30
0.0
 10
-0.9954269562
 20
-36.0055428391
 30
0.0
 10
-0.8315877927
 20
-36.0366727988
 30
0.0
 10
-0.7025233961
 20
-36.0068336201
 30
0.0
 10
-0.6221533919
 20
-35.9731134585
 30
0.0
 11
-1.3033410015
 21
-35.4727992202
 31
0.0
 11
-1.2441753473
 21
-35.7541891194
 31
0.0
 11
-1.1802444384
 21
-35.8632446303
 31
0.0
 11
-1.0960508964
 21
-35.9460460261
 31
0.0
 11
-0.9944430192
 21
-35.9997044136
 31
0.0
 11
-0.8789307381
 21
-36.0224376551
 31
0.0
 11
-0.6221533919
 21
-35.9731134585
 31
0.0
  0
SPLINE
  5
573
100
AcDbEntity
  8
COPY-PUBBLISH
100
AcDbSpline
 62
253
  6
CONTINUOUS
 70
0
 71
3
 72
11
 73
7
 74
5
 42
0.0000001
 43
0.0000001
 44
0.0000000001
 12
-0.0143532469
 22
-0.3367049
 32
0.0
 13
-0.3107675
 23
-0.1303831519
 33
0.0
 40
0.0
 40
0.0
 40
0.0
 40
0.0
 40
0.2889161672
 40
0.5494752434
 40
0.7829234648
 40
1.0
 40
1.0
 40
1.0
 40
1.0
 10
-0.6221533919
 20
-35.9731134585
 30
0.0
 10
-0.6235356869
 20
-36.0055399549
 30
0.0
 10
-0.631667299
 20
-36.067202713
 30
0.0
 10
-0.6622229764
 20
-36.1506301934
 30
0.0
 10
-0.7102684541
 20
-36.2160400138
 30
0.0
 10
-0.753479622
 20
-36.244861048
 30
0.0
 10
-0.7759663993
 20
-36.2542954223
 30
0.0
 11
-0.6221533919
 21
-35.9731134585
 31
0.0
 11
-0.6357676267
 21
-36.0695248079
 31
0.0
 11
-0.6672031251
 21
-36.1515163639
 31
0.0
 11
-0.7148035795
 21
-36.2141572528
 31
0.0
 11
-0.7759663993
 21
-36.2542954223
 31
0.0
  0
LINE
  5
574
100
AcDbEntity
  8
COPY-PUBBLISH
100
AcDbLine
 62
253
  6
CONTINUOUS
 10
-38.6727181055
 20
-17.1530029217
 11
-38.6787831032
 21
-16.9715194507
  0
SPLINE
  5
575
100
AcDbEntity
  8
COPY-PUBBLISH
100
AcDbSpline
 62
253
  6
CONTINUOUS
 70
0
 71
3
 72
11
 73
7
 74
5
 42
0.0000001
 43
0.0000001
 44
0.0000000001
 12
0.0582496627
 22
1.7800368489
 32
0.0
 13
1.3341155993
 23
1.1798558278
 33
0.0
 40
0.0
 40
0.0
 40
0.0
 40
0.0
 40
0.2410870033
 40
0.4981230079
 40
0.756176823
 40
1.0
 40
1.0
 40
1.0
 40
1.0
 10
-38.6727181055
 20
18.4636907079
 30
0.0
 10
-38.6680370266
 20
18.6067386244
 30
0.0
 10
-38.6214899082
 20
18.9015670017
 30
0.0
 10
-38.4659229047
 20
19.3252434314
 30
0.0
 10
-38.2353591174
 20
19.7151131717
 30
0.0
 10
-38.0357064601
 20
19.9398418286
 30
0.0
 10
-37.9272770255
 20
20.035733894
 30
0.0
 11
-38.6727181055
 21
18.4636907079
 31
0.0
 11
-38.6098786064
 21
18.8884409495
 31
0.0
 11
-38.4535522115
 21
19.3187003888
 31
0.0
 11
-38.2185627737
 21
19.7136738259
 31
0.0
 11
-37.9272770255
 21
20.035733894
 31
0.0
  0
SPLINE
  5
576
100
AcDbEntity
  8
COPY-PUBBLISH
100
AcDbSpline
 62
253
  6
CONTINUOUS
 70
0
 71
3
 72
9
 73
5
 74
3
 42
0.0000001
 43
0.0000001
 44
0.0000000001
 12
0.2291211451
 22
0.2026285567
 32
0.0
 13
0.2649671022
 23
0.1527981213
 33
0.0
 40
0.0
 40
0.0
 40
0.0
 40
0.0
 40
0.2599366791
 40
1.0
 40
1.0
 40
1.0
 40
1.0
 10
-37.9272770255
 20
20.035733894
 30
0.0
 10
-37.9074246956
 20
20.0532907587
 30
0.0
 10
-37.8295432149
 20
20.1190840984
 30
0.0
 10
-37.7455163124
 20
20.1777992177
 30
0.0
 10
-37.6801521679
 20
20.2154926461
 30
0.0
 11
-37.9272770255
 21
20.035733894
 31
0.0
 11
-37.8665209605
 21
20.0870167085
 31
0.0
 11
-37.6801521679
 21
20.2154926461
 31
0.0
  0
SPLINE
  5
577
100
AcDbEntity
  8
RACCORDO
100
AcDbSpline
 62
253
  6
CONTINUOUS
 70
0
 71
3
 72
9
 73
5
 74
3
 42
0.0000001
 43
0.0000001
 44
0.0000000001
 12
-0.4185509578
 22
-0.2479393473
 32
0.0
 13
-0.3575090448
 23
-0.329918334
 33
0.0
 40
0.0
 40
0.0
 40
0.0
 40
0.0
 40
0.2628322031
 40
1.0
 40
1.0
 40
1.0
 40
1.0
 10
-18.3079264802
 20
33.1039297791
 30
0.0
 10
-18.3445960369
 20
33.0822076308
 30
0.0
 10
-18.4821837482
 20
32.9964203474
 30
0.0
 10
-18.6119888322
 20
32.8976026426
 30
0.0
 10
-18.6998368838
 20
32.8165342521
 30
0.0
 11
-18.3079264802
 21
33.1039297791
 31
0.0
 11
-18.4163833696
 21
33.0362121579
 31
0.0
 11
-18.6998368838
 21
32.8165342521
 31
0.0
  0
SPLINE
  5
578
100
AcDbEntity
  8
RACCORDO
100
AcDbSpline
 62
253
  6
CONTINUOUS
 70
0
 71
3
 72
9
 73
5
 74
3
 42
0.0000001
 43
0.0000001
 44
0.0000000001
 12
-0.1684286754
 22
-0.1554302159
 32
0.0
 13
-0.145400539
 23
-0.1771594027
 33
0.0
 40
0.0
 40
0.0
 40
0.0
 40
0.0
 40
0.2575850626
 40
1.0
 40
1.0
 40
1.0
 40
1.0
 10
-18.6998368838
 20
32.8165342521
 30
0.0
 10
-18.7142984541
 20
32.8031887515
 30
0.0
 10
-18.7696132167
 20
32.7504943451
 30
0.0
 10
-18.8215181669
 20
32.6941750691
 30
0.0
 10
-18.8575006776
 20
32.6503331401
 30
0.0
 11
-18.6998368838
 21
32.8165342521
 31
0.0
 11
-18.742568726
 21
32.7758016572
 31
0.0
 11
-18.8575006776
 21
32.6503331401
 31
0.0
  0
SPLINE
  5
579
100
AcDbEntity
  8
RACCORDO
100
AcDbSpline
 62
7
  6
CONTINUOUS
 70
0
 71
3
 72
11
 73
7
 74
5
 42
0.0000001
 43
0.0000001
 44
0.0000000001
 12
0.0
 22
-0.9446389448
 32
0.0
 13
0.8449320865
 23
-0.4224127191
 33
0.0
 40
0.0
 40
0.0
 40
0.0
 40
0.0
 40
0.2897566576
 40
0.54958374
 40
0.7828475486
 40
1.0
 40
1.0
 40
1.0
 40
1.0
 10
9.4145905483
 20
-47.9253414529
 30
0.0
 10
9.4145905483
 20
-48.0165799273
 30
0.0
 10
9.4293107475
 20
-48.1902922218
 30
0.0
 10
9.5035747293
 20
-48.4278662582
 30
0.0
 10
9.6275811101
 20
-48.6180712051
 30
0.0
 10
9.7433255716
 20
-48.7060989868
 30
0.0
 10
9.8044852629
 20
-48.7366749726
 30
0.0
 11
9.4145905483
 21
-47.9253414529
 31
0.0
 11
9.4405127941
 21
-48.197826627
 31
0.0
 11
9.5170110549
 21
-48.4310436393
 31
0.0
 11
9.6403453411
 21
-48.6136437782
 31
0.0
 11
9.8044852629
 21
-48.7366749726
 31
0.0
  0
SPLINE
  5
57A
100
AcDbEntity
  8
RACCORDO
100
AcDbSpline
 62
253
  6
CONTINUOUS
 70
0
 71
3
 72
11
 73
7
 74
5
 42
0.0000001
 43
0.0000001
 44
0.0000000001
 12
0.0124998353
 22
-0.4481116445
 32
0.0
 13
-0.362960874
 23
-0.2630963622
 33
0.0
 40
0.0
 40
0.0
 40
0.0
 40
0.0
 40
0.2848193926
 40
0.5447009498
 40
0.7804887845
 40
1.0
 40
1.0
 40
1.0
 40
1.0
 10
-5.7690841991
 20
-16.891097494
 30
0.0
 10
-5.7678974672
 20
-16.9336411228
 30
0.0
 10
-5.7721657305
 20
-17.0154113457
 30
0.0
 10
-5.800703187
 20
-17.1294298032
 30
0.0
 10
-5.8514532739
 20
-17.2248517871
 30
0.0
 10
-5.9001746619
 20
-17.2741405381
 30
0.0
 10
-5.9267326561
 20
-17.2933914056
 30
0.0
 11
-5.7690841991
 21
-16.891097494
 31
0.0
 11
-5.7766395316
 21
-17.0185542911
 31
0.0
 11
-5.8062710598
 21
-17.1312242244
 31
0.0
 11
-5.857010103
 21
-17.2239502638
 31
0.0
 11
-5.9267326561
 21
-17.2933914056
 31
0.0
  0
SPLINE
  5
57B
100
AcDbEntity
  8
ASSI
100
AcDbSpline
 62
7
  6
CONTINUOUS
 70
0
 71
3
 72
9
 73
5
 74
3
 42
0.0000001
 43
0.0000001
 44
0.0000000001
 12
-0.4533150577
 22
-0.8883135127
 32
0.0
 13
0.0
 23
-0.9972940581
 33
0.0
 40
0.0
 40
0.0
 40
0.0
 40
0.0
 40
0.5181396274
 40
1.0
 40
1.0
 40
1.0
 40
1.0
 10
9.6627378895
 20
-44.2790427942
 30
0.0
 10
9.5844443911
 20
-44.4324662717
 30
0.0
 10
9.463710086
 20
-44.7450515656
 30
0.0
 10
9.4145905483
 20
-45.0779365681
 30
0.0
 10
9.4145905483
 20
-45.2381220636
 30
0.0
 11
9.6627378895
 21
-44.2790427942
 31
0.0
 11
9.478556257
 21
-44.7618417629
 31
0.0
 11
9.4145905483
 21
-45.2381220636
 31
0.0
  0
SPLINE
  5
57C
100
AcDbEntity
  8
RACCORDO
100
AcDbSpline
 62
7
  6
CONTINUOUS
 70
0
 71
3
 72
11
 73
7
 74
5
 42
0.0000001
 43
0.0000001
 44
0.0000000001
 12
0.0
 22
-0.9446389448
 32
0.0
 13
0.8449320865
 23
-0.4224127191
 33
0.0
 40
0.0
 40
0.0
 40
0.0
 40
0.0
 40
0.2897566576
 40
0.54958374
 40
0.7828475486
 40
1.0
 40
1.0
 40
1.0
 40
1.0
 10
1.6364159552
 20
-40.9891112021
 30
0.0
 10
1.6364159552
 20
-41.0803496765
 30
0.0
 10
1.6511361544
 20
-41.254061971
 30
0.0
 10
1.7254001362
 20
-41.4916360075
 30
0.0
 10
1.849406517
 20
-41.6818409543
 30
0.0
 10
1.9651509786
 20
-41.769868736
 30
0.0
 10
2.0263106699
 20
-41.8004447218
 30
0.0
 11
1.6364159552
 21
-40.9891112021
 31
0.0
 11
1.662338201
 21
-41.2615963762
 31
0.0
 11
1.7388364618
 21
-41.4948133885
 31
0.0
 11
1.862170748
 21
-41.6774135274
 31
0.0
 11
2.0263106699
 21
-41.8004447218
 31
0.0
  0
SPLINE
  5
57D
100
AcDbEntity
  8
RACCORDO
100
AcDbSpline
 62
7
  6
CONTINUOUS
 70
0
 71
3
 72
11
 73
7
 74
5
 42
0.0000001
 43
0.0000001
 44
0.0000000001
 12
-1.8993756445
 22
-1.0309222825
 32
0.0
 13
-0.0
 23
-2.1611174405
 33
0.0
 40
0.0
 40
0.0
 40
0.0
 40
0.0
 40
0.2317544638
 40
0.4904450115
 40
0.7543434117
 40
1.0
 40
1.0
 40
1.0
 40
1.0
 10
2.6600596209
 20
10.2735485911
 30
0.0
 10
2.5133300262
 20
10.1939083108
 30
0.0
 10
2.2348103155
 20
9.9658201027
 30
0.0
 10
1.9136023682
 20
9.5219340398
 30
0.0
 10
1.6961483015
 20
9.0081449099
 30
0.0
 10
1.6364159552
 20
8.6404442373
 30
0.0
 10
1.6364159552
 20
8.4634799915
 30
0.0
 11
2.6600596209
 21
10.2735485911
 31
0.0
 11
2.2656667693
 21
9.9648357593
 31
0.0
 11
1.9341010508
 21
9.514710233
 31
0.0
 11
1.7136491406
 21
8.9887248237
 31
0.0
 11
1.6364159552
 21
8.4634799915
 31
0.0
  0
SPLINE
  5
57E
100
AcDbEntity
  8
ASSI
100
AcDbSpline
 62
7
  6
CONTINUOUS
 70
0
 71
3
 72
9
 73
5
 74
3
 42
0.0000001
 43
0.0000001
 44
0.0000000001
 12
0.1622915546
 22
0.1408232605
 32
0.0
 13
0.187612705
 23
0.1047435551
 33
0.0
 40
0.0
 40
0.0
 40
0.0
 40
0.0
 40
0.2596951739
 40
1.0
 40
1.0
 40
1.0
 40
1.0
 10
7.7466518753
 20
-6.3149467846
 30
0.0
 10
7.7607006531
 20
-6.3027564109
 30
0.0
 10
7.8158613553
 20
-6.2570728704
 30
0.0
 10
7.8754157334
 20
-6.2165565718
 30
0.0
 10
7.921712597
 20
-6.1907091854
 30
0.0
 11
7.7466518753
 21
-6.3149467846
 31
0.0
 11
7.7896469059
 21
-6.2793773079
 31
0.0
 11
7.921712597
 21
-6.1907091854
 31
0.0
  0
SPLINE
  5
57F
100
AcDbEntity
  8
RACCORDO
100
AcDbSpline
 62
253
  6
CONTINUOUS
 70
0
 71
3
 72
11
 73
7
 74
5
 42
0.0000001
 43
0.0000001
 44
0.0000000001
 12
0.3201760758
 22
0.1716734027
 32
0.0
 13
0.0000905015
 23
0.3632966674
 33
0.0
 40
0.0
 40
0.0
 40
0.0
 40
0.0
 40
0.2995038225
 40
0.5621152191
 40
0.7911236124
 40
1.0
 40
1.0
 40
1.0
 40
1.0
 10
-4.9787664062
 20
-15.4287440446
 30
0.0
 10
-4.9468017533
 20
-15.4116050978
 30
0.0
 10
-4.889018512
 20
-15.3749098421
 30
0.0
 10
-4.8190043525
 20
-15.3083302052
 30
0.0
 10
-4.7744590224
 20
-15.2346437588
 30
0.0
 10
-4.7638565888
 20
-15.1812393979
 30
0.0
 10
-4.7638502876
 20
-15.1559446994
 30
0.0
 11
-4.9787664062
 21
-15.4287440446
 31
0.0
 11
-4.8875075452
 21
-15.3694889769
 31
0.0
 11
-4.8195246842
 21
-15.3025516444
 31
0.0
 11
-4.7778950861
 21
-15.2305177504
 31
0.0
 11
-4.7638502876
 21
-15.1559446994
 31
0.0
  0
SPLINE
  5
580
100
AcDbEntity
  8
ASSI
100
AcDbSpline
 62
7
  6
CONTINUOUS
 70
0
 71
3
 72
9
 73
5
 74
3
 42
0.0000001
 43
0.0000001
 44
0.0000000001
 12
0.1891996455
 22
0.0945998228
 32
0.0
 13
0.2091965514
 23
0.0313438227
 33
0.0
 40
0.0
 40
0.0
 40
0.0
 40
0.0
 40
0.263763489
 40
1.0
 40
1.0
 40
1.0
 40
1.0
 10
7.9734105275
 20
-6.1638501586
 30
0.0
 10
7.9900451804
 20
-6.1555328322
 30
0.0
 10
8.0541136816
 20
-6.1261262422
 30
0.0
 10
8.1225983251
 20
-6.1057009498
 30
0.0
 10
8.1739377048
 20
-6.0980087942
 30
0.0
 11
7.9734105275
 21
-6.1638501586
 31
0.0
 11
8.0241502794
 21
-6.1406449021
 31
0.0
 11
8.1739377048
 21
-6.0980087942
 31
0.0
  0
SPLINE
  5
581
100
AcDbEntity
  8
RACCORDO
100
AcDbSpline
 62
253
  6
CONTINUOUS
 70
0
 71
3
 72
11
 73
7
 74
5
 42
0.0000001
 43
0.0000001
 44
0.0000000001
 12
0.3201761518
 22
0.1716734349
 32
0.0
 13
0.0000903966
 23
0.3632967496
 33
0.0
 40
0.0
 40
0.0
 40
0.0
 40
0.0
 40
0.2995037846
 40
0.5621152617
 40
0.7911236704
 40
1.0
 40
1.0
 40
1.0
 40
1.0
 10
-4.9787664062
 20
-13.6543134341
 30
0.0
 10
-4.9468017498
 20
-13.6371744863
 30
0.0
 10
-4.8890185005
 20
-13.6004792029
 30
0.0
 10
-4.8190043226
 20
-13.5338995494
 30
0.0
 10
-4.77445897
 20
-13.4602130797
 30
0.0
 10
-4.763856583
 20
-13.4068087021
 30
0.0
 10
-4.7638502891
 20
-13.3815140049
 30
0.0
 11
-4.9787664062
 21
-13.6543134341
 31
0.0
 11
-4.8875075432
 21
-13.5950583495
 31
0.0
 11
-4.8195246477
 21
-13.5281209796
 31
0.0
 11
-4.7778950454
 21
-13.4560870599
 31
0.0
 11
-4.7638502891
 21
-13.3815140049
 31
0.0
  0
SPLINE
  5
582
100
AcDbEntity
  8
DRAFT
100
AcDbSpline
 62
7
  6
CONTINUOUS
 70
0
 71
3
 72
11
 73
7
 74
5
 42
0.0000001
 43
0.0000001
 44
0.0000000001
 12
0.6938461621
 22
0.1205267803
 32
0.0
 13
0.4018451502
 23
0.5783335341
 33
0.0
 40
0.0
 40
0.0
 40
0.0
 40
0.0
 40
0.2961714568
 40
0.5653437372
 40
0.8004450477
 40
1.0
 40
1.0
 40
1.0
 40
1.0
 10
-20.0264295367
 20
-18.038941876
 30
0.0
 10
-19.9579303939
 20
-18.027043012
 30
0.0
 10
-19.8283299285
 20
-17.9966127813
 30
0.0
 10
-19.652398465
 20
-17.9284398026
 30
0.0
 10
-19.5103160109
 20
-17.842314961
 30
0.0
 10
-19.4367181997
 20
-17.7691909495
 30
0.0
 10
-19.4099881364
 20
-17.7307211759
 30
0.0
 11
-20.0264295367
 21
-18.038941876
 31
0.0
 11
-19.8236068019
 21
-17.9902964435
 31
0.0
 11
-19.6474848468
 21
-17.9201935208
 31
0.0
 11
-19.5072790015
 21
-17.8321325433
 31
0.0
 11
-19.4099881364
 21
-17.7307211759
 31
0.0
  0
SPLINE
  5
583
100
AcDbEntity
  8
DRAFT
100
AcDbSpline
 62
7
  6
CONTINUOUS
 70
0
 71
3
 72
11
 73
7
 74
5
 42
0.0000001
 43
0.0000001
 44
0.0000000001
 12
0.2218841787
 22
-0.1109420893
 32
0.0
 13
-0.014961732
 23
-0.2476224596
 33
0.0
 40
0.0
 40
0.0
 40
0.0
 40
0.0
 40
0.3039807438
 40
0.5665401382
 40
0.7933101057
 40
1.0
 40
1.0
 40
1.0
 40
1.0
 10
-19.7182088366
 20
-18.5919383071
 30
0.0
 10
-19.6957259974
 20
-18.6031797268
 30
0.0
 10
-19.6552414613
 20
-18.6273328462
 30
0.0
 10
-19.6066406445
 20
-18.6723158662
 30
0.0
 10
-19.5765653302
 20
-18.7226073922
 30
0.0
 10
-19.5709591207
 20
-18.7591905902
 30
0.0
 10
-19.5719899337
 20
-18.7762509435
 30
0.0
 11
-19.7182088366
 21
-18.5919383071
 31
0.0
 11
-19.653944507
 21
-18.6313936504
 31
0.0
 11
-19.6069913791
 21
-18.6765363608
 31
0.0
 11
-19.5792896304
 21
-18.7254988154
 31
0.0
 11
-19.5719899337
 21
-18.7762509435
 31
0.0
  0
SPLINE
  5
584
100
AcDbEntity
  8
DRAFT
100
AcDbSpline
 62
7
  6
CONTINUOUS
 70
0
 71
3
 72
11
 73
7
 74
5
 42
0.0000001
 43
0.0000001
 44
0.0000000001
 12
0.6499098581
 22
0.324954929
 32
0.0
 13
0.6499098581
 23
-0.324954929
 33
0.0
 40
0.0
 40
0.0
 40
0.0
 40
0.0
 40
0.2353701082
 40
0.5
 40
0.7646298918
 40
1.0
 40
1.0
 40
1.0
 40
1.0
 10
-20.7788690084
 20
-18.4151616118
 30
0.0
 10
-20.7278792238
 20
-18.3896667196
 30
0.0
 10
-20.6106940279
 20
-18.353298468
 30
0.0
 10
-20.4253156178
 20
-18.3359258309
 30
0.0
 10
-20.2399372077
 20
-18.353298468
 30
0.0
 10
-20.1227520117
 20
-18.3896667196
 30
0.0
 10
-20.0717622272
 20
-18.4151616118
 30
0.0
 11
-20.7788690084
 21
-18.4151616118
 31
0.0
 11
-20.616657334
 21
-18.360968424
 31
0.0
 11
-20.4253156178
 21
-18.3419383071
 31
0.0
 11
-20.2339739016
 21
-18.360968424
 31
0.0
 11
-20.0717622272
 21
-18.4151616118
 31
0.0
  0
SPLINE
  5
585
100
AcDbEntity
  8
ASSI
100
AcDbSpline
 62
7
  6
CONTINUOUS
 70
0
 71
3
 72
9
 73
5
 74
3
 42
0.0000001
 43
0.0000001
 44
0.0000000001
 12
-0.0769623208
 22
0.0885692841
 32
0.0
 13
-0.0920810436
 23
0.0727241248
 33
0.0
 40
0.0
 40
0.0
 40
0.0
 40
0.0
 40
0.2533280911
 40
1.0
 40
1.0
 40
1.0
 40
1.0
 10
5.1702538263
 20
-29.1383832944
 30
0.0
 10
5.1637549204
 20
-29.1309042652
 30
0.0
 10
5.1374445034
 20
-29.1019599381
 30
0.0
 10
5.1084774251
 20
-29.0754145778
 30
0.0
 10
5.0855593156
 20
-29.0573142241
 30
0.0
 11
5.1702538263
 21
-29.1383832944
 31
0.0
 11
5.1502540934
 21
-29.1163933969
 31
0.0
 11
5.0855593156
 21
-29.0573142241
 31
0.0
  0
SPLINE
  5
586
100
AcDbEntity
  8
COPY-PUBBLISH
100
AcDbSpline
 62
7
  6
CONTINUOUS
 70
0
 71
3
 72
11
 73
7
 74
5
 42
0.0000001
 43
0.0000001
 44
0.0000000001
 12
-0.3939644378
 22
-0.1969822189
 32
0.0
 13
-0.0
 23
-0.4404656319
 33
0.0
 40
0.0
 40
0.0
 40
0.0
 40
0.0
 40
0.2296796509
 40
0.4882147705
 40
0.7532026362
 40
1.0
 40
1.0
 40
1.0
 40
1.0
 10
35.0825667054
 20
-14.6951847965
 30
0.0
 10
35.0524048339
 20
-14.7102657322
 30
0.0
 10
34.9947713369
 20
-14.755354876
 30
0.0
 10
34.9282206665
 20
-14.8448712805
 30
0.0
 10
34.8829393171
 20
-14.9495527556
 30
0.0
 10
34.870434671
 20
-15.0248231825
 30
0.0
 10
34.870434671
 20
-15.0610584348
 30
0.0
 11
35.0825667054
 21
-14.6951847965
 31
0.0
 11
35.0013860586
 21
-14.7555525084
 31
0.0
 11
34.9325667054
 21
-14.8462806869
 31
0.0
 11
34.8865828411
 21
-14.9535587689
 31
0.0
 11
34.870434671
 21
-15.0610584348
 31
0.0
  0
SPLINE
  5
587
100
AcDbEntity
  8
ASSI
100
AcDbSpline
 62
7
  6
CONTINUOUS
 70
0
 71
3
 72
12
 73
8
 74
6
 42
0.0000001
 43
0.0000001
 44
0.0000000001
 12
0.7228081548
 22
0.9139990813
 32
0.0
 13
1.042097888
 23
-0.5214191605
 33
0.0
 40
0.0
 40
0.0
 40
0.0
 40
0.0
 40
0.300446231
 40
0.5677325175
 40
0.7965038226
 40
0.9001176425
 40
1.0
 40
1.0
 40
1.0
 40
1.0
 10
3.8503159855
 20
-29.6871779593
 30
0.0
 10
3.9227043141
 20
-29.5956420997
 30
0.0
 10
4.0769108057
 20
-29.4351882017
 30
0.0
 10
4.3398534874
 20
-29.2660704254
 30
0.0
 10
4.5715866146
 20
-29.2061714067
 30
0.0
 10
4.740297897
 20
-29.2207359702
 30
0.0
 10
4.8159646812
 20
-29.2468804713
 30
0.0
 10
4.8506604125
 20
-29.2642406629
 30
0.0
 11
3.8503159855
 21
-29.6871779593
 31
0.0
 11
4.0952194445
 21
-29.4369935287
 31
0.0
 11
4.3606781843
 21
-29.2740860947
 31
0.0
 11
4.6205594769
 21
-29.2147029295
 31
0.0
 11
4.7407803828
 21
-29.2258621627
 31
0.0
 11
4.8506604125
 21
-29.2642406629
 31
0.0
  0
SPLINE
  5
588
100
AcDbEntity
  8
ASSI
100
AcDbSpline
 62
7
  6
CONTINUOUS
 70
0
 71
3
 72
9
 73
5
 74
3
 42
0.0000001
 43
0.0000001
 44
0.0000000001
 12
-0.1951383873
 22
0.4913418226
 32
0.0
 13
-0.4265965948
 23
0.3122677091
 33
0.0
 40
0.0
 40
0.0
 40
0.0
 40
0.0
 40
0.5197356528
 40
1.0
 40
1.0
 40
1.0
 40
1.0
 10
5.6325901312
 20
-29.0318093658
 30
0.0
 10
5.5987833388
 20
-28.9466867448
 30
0.0
 10
5.5150718882
 20
-28.7892175721
 30
0.0
 10
5.3898127913
 20
-28.6607905807
 30
0.0
 10
5.3215197462
 20
-28.6108002316
 30
0.0
 11
5.6325901312
 21
-29.0318093658
 31
0.0
 11
5.5005446238
 21
-28.7908470818
 31
0.0
 11
5.3215197462
 21
-28.6108002316
 31
0.0
  0
SPLINE
  5
589
100
AcDbEntity
  8
ASSI
100
AcDbSpline
 62
7
  6
CONTINUOUS
 70
0
 71
3
 72
9
 73
5
 74
3
 42
0.0000001
 43
0.0000001
 44
0.0000000001
 12
0.0286703113
 22
0.3600922953
 32
0.0
 13
0.0828421937
 23
0.3516043498
 33
0.0
 40
0.0
 40
0.0
 40
0.0
 40
0.0
 40
0.2437327003
 40
1.0
 40
1.0
 40
1.0
 40
1.0
 10
5.735071815
 20
-29.5348428718
 30
0.0
 10
5.7374011124
 20
-29.5055874493
 30
0.0
 10
5.7494382749
 20
-29.3857614361
 30
0.0
 10
5.7709487475
 20
-29.2669335756
 30
0.0
 10
5.7918323616
 20
-29.1782979516
 30
0.0
 11
5.735071815
 21
-29.5348428718
 31
0.0
 11
5.7438315806
 21
-29.4472357097
 31
0.0
 11
5.7918323616
 21
-29.1782979516
 31
0.0
  0
SPLINE
  5
58A
100
AcDbEntity
  8
ASSI
100
AcDbSpline
 62
7
  6
CONTINUOUS
 70
0
 71
3
 72
11
 73
7
 74
5
 42
0.0000001
 43
0.0000001
 44
0.0000000001
 12
0.7047651905
 22
0.3523825953
 32
0.0
 13
0.7048504299
 23
-0.352212065
 33
0.0
 40
0.0
 40
0.0
 40
0.0
 40
0.0
 40
0.2788803589
 40
0.5353563219
 40
0.7729543996
 40
1.0
 40
1.0
 40
1.0
 40
1.0
 10
4.3064299478
 20
-28.8817526389
 30
0.0
 10
4.3719450042
 20
-28.8489951107
 30
0.0
 10
4.5031674652
 20
-28.7960885056
 30
0.0
 10
4.7041760168
 20
-28.7580306358
 30
0.0
 10
4.895302763
 20
-28.7675901017
 30
0.0
 10
5.0128999297
 20
-28.8066091423
 30
0.0
 10
5.066244326
 20
-28.8332652089
 30
0.0
 11
4.3064299478
 21
-28.8817526389
 31
0.0
 11
4.510829464
 21
-28.8010783417
 31
0.0
 11
4.7097495291
 21
-28.7654213679
 31
0.0
 11
4.8966476478
 21
-28.7763222437
 31
0.0
 11
5.066244326
 21
-28.8332652089
 31
0.0
  0
SPLINE
  5
58B
100
AcDbEntity
  8
RACCORDO
100
AcDbSpline
 62
253
  6
CONTINUOUS
 70
0
 71
3
 72
11
 73
7
 74
5
 42
0.0000001
 43
0.0000001
 44
0.0000000001
 12
0.4141449607
 22
0.2401567637
 32
0.0
 13
-0.0133490297
 23
0.4785531559
 33
0.0
 40
0.0
 40
0.0
 40
0.0
 40
0.0
 40
0.2193034232
 40
0.4535442588
 40
0.7131004268
 40
1.0
 40
1.0
 40
1.0
 40
1.0
 10
-18.4915532689
 20
32.6847601971
 30
0.0
 10
-18.4612787997
 20
32.7023159306
 30
0.0
 10
-18.4048333362
 20
32.7502196172
 30
0.0
 10
-18.3453954644
 20
32.8491644635
 30
0.0
 10
-18.3118963308
 20
32.9703897887
 30
0.0
 10
-18.3068231637
 20
33.0580616913
 30
0.0
 10
-18.308099774
 20
33.1038272567
 30
0.0
 11
-18.4915532689
 21
32.6847601971
 31
0.0
 11
-18.4110509157
 21
32.7521552747
 31
0.0
 11
-18.3519992914
 21
32.8474881193
 31
0.0
 11
-18.3172151152
 21
32.9667799621
 31
0.0
 11
-18.308099774
 21
33.1038272567
 31
0.0
  0
SPLINE
  5
58C
100
AcDbEntity
  8
COPY-PUBBLISH
100
AcDbSpline
 62
7
  6
CONTINUOUS
 70
0
 71
3
 72
16
 73
12
 74
10
 42
0.0000001
 43
0.0000001
 44
0.0000000001
 12
-3.1921900885
 22
-1.5960950443
 32
0.0
 13
3.1923786914
 23
-1.5957177828
 33
0.0
 40
0.0
 40
0.0
 40
0.0
 40
0.0
 40
0.1236981047
 40
0.2614412618
 40
0.406528525
 40
0.5506381563
 40
0.6856485169
 40
0.8054985118
 40
0.9083770539
 40
0.955031778
 40
1.0
 40
1.0
 40
1.0
 40
1.0
 10
4.447851304
 20
-28.952463317
 30
0.0
 10
4.3162286828
 20
-29.0182746276
 30
0.0
 10
4.0596795171
 20
-29.201548431
 30
0.0
 10
3.7367875017
 20
-29.5655668553
 30
0.0
 10
3.4766015147
 20
-30.005299957
 30
0.0
 10
3.3022603097
 20
-30.4820213122
 30
0.0
 10
3.2292455838
 20
-30.9547140696
 30
0.0
 10
3.2639768259
 20
-31.3835337874
 30
0.0
 10
3.3917120333
 20
-31.6869092408
 30
0.0
 10
3.5481993717
 20
-31.8600354057
 30
0.0
 10
3.6398874509
 20
-31.9214361194
 30
0.0
 10
3.6877393154
 20
-31.9453549833
 30
0.0
 11
4.447851304
 21
-28.952463317
 31
0.0
 11
4.0844074516
 21
-29.2030812599
 31
0.0
 11
3.7550207554
 21
-29.5680156241
 31
0.0
 11
3.4904498922
 21
-30.0131365886
 31
0.0
 11
3.3154827458
 21
-30.496784845
 31
0.0
 11
3.2465036061
 21
-30.9736708016
 31
0.0
 11
3.2899435444
 21
-31.3992011594
 31
0.0
 11
3.4417563734
 21
-31.7335176563
 31
0.0
 11
3.5542162594
 21
-31.8563111155
 31
0.0
 11
3.6877393154
 21
-31.9453549833
 31
0.0
  0
SPLINE
  5
58D
100
AcDbEntity
  8
COPY-PUBBLISH
100
AcDbSpline
 62
7
  6
CONTINUOUS
 70
0
 71
3
 72
9
 73
5
 74
3
 42
0.0000001
 43
0.0000001
 44
0.0000000001
 12
-0.1839286864
 22
0.3093864533
 32
0.0
 13
-0.321826356
 23
0.1611754812
 33
0.0
 40
0.0
 40
0.0
 40
0.0
 40
0.0
 40
0.512761445
 40
1.0
 40
1.0
 40
1.0
 40
1.0
 10
5.3853935786
 20
-29.3114964183
 30
0.0
 10
5.3539563989
 20
-29.2586159367
 30
0.0
 10
5.2797060904
 20
-29.162315544
 30
0.0
 10
5.1804801558
 20
-29.0911766626
 30
0.0
 10
5.1282114196
 20
-29.0649996931
 30
0.0
 11
5.3853935786
 21
-29.3114964183
 31
0.0
 11
5.271244309
 21
-29.1664732524
 31
0.0
 11
5.1282114196
 21
-29.0649996931
 31
0.0
  0
SPLINE
  5
58E
100
AcDbEntity
  8
RACCORDO
100
AcDbSpline
 62
253
  6
CONTINUOUS
 70
0
 71
3
 72
11
 73
7
 74
5
 42
0.0000001
 43
0.0000001
 44
0.0000000001
 12
0.4139211206
 22
0.2405863619
 32
0.0
 13
-0.013349641
 23
0.4785752591
 33
0.0
 40
0.0
 40
0.0
 40
0.0
 40
0.0
 40
0.2194508937
 40
0.4535950092
 40
0.7127826086
 40
1.0
 40
1.0
 40
1.0
 40
1.0
 10
-1.2042345948
 20
42.7200874904
 30
0.0
 10
-1.1739561415
 20
42.7376864544
 30
0.0
 10
-1.1174259752
 20
42.785506971
 30
0.0
 10
-1.058122197
 20
42.8844885387
 30
0.0
 10
-1.0244562511
 20
43.005635681
 30
0.0
 10
-1.0194867271
 20
43.0933233894
 30
0.0
 10
-1.0207648102
 20
43.1391417686
 30
0.0
 11
-1.2042345948
 21
42.7200874904
 31
0.0
 11
-1.1236554542
 21
42.7875083813
 31
0.0
 11
-1.0646586823
 21
42.8828268176
 31
0.0
 11
-1.0298498107
 21
43.001933609
 31
0.0
 11
-1.0207648102
 21
43.1391417686
 31
0.0
  0
SPLINE
  5
58F
100
AcDbEntity
  8
COPY-PUBBLISH
100
AcDbSpline
 62
7
  6
CONTINUOUS
 70
0
 71
3
 72
9
 73
5
 74
3
 42
0.0000001
 43
0.0000001
 44
0.0000000001
 12
-0.3404586819
 22
-0.170229341
 32
0.0
 13
-0.2617454507
 23
-0.2763683441
 33
0.0
 40
0.0
 40
0.0
 40
0.0
 40
0.0
 40
0.2340006606
 40
1.0
 40
1.0
 40
1.0
 40
1.0
 10
8.0977788237
 20
-6.2430873668
 30
0.0
 10
8.0712229716
 20
-6.2563652928
 30
0.0
 10
7.9607863196
 20
-6.3191849244
 30
0.0
 10
7.8631588484
 20
-6.403110807
 30
0.0
 10
7.7963265676
 20
-6.4736767966
 30
0.0
 11
8.0977788237
 21
-6.2430873668
 31
0.0
 11
8.020239856
 21
-6.2869206638
 31
0.0
 11
7.7963265676
 21
-6.4736767966
 31
0.0
  0
SPLINE
  5
590
100
AcDbEntity
  8
COPY-PUBBLISH
100
AcDbSpline
 62
7
  6
CONTINUOUS
 70
0
 71
3
 72
9
 73
5
 74
3
 42
0.0000001
 43
0.0000001
 44
0.0000000001
 12
-0.1259827404
 22
-0.0129878379
 32
0.0
 13
-0.1203309817
 23
-0.0395068305
 33
0.0
 40
0.0
 40
0.0
 40
0.0
 40
0.0
 40
0.2421476264
 40
1.0
 40
1.0
 40
1.0
 40
1.0
 10
8.3397015833
 20
-6.165637827
 30
0.0
 10
8.3295327762
 20
-6.1666861517
 30
0.0
 10
8.2876693715
 20
-6.1722520039
 30
0.0
 10
8.2464903316
 20
-6.1826001953
 30
0.0
 10
8.2160926249
 20
-6.1925803104
 30
0.0
 11
8.3397015833
 21
-6.165637827
 31
0.0
 11
8.3092986561
 21
-6.1696620822
 31
0.0
 11
8.2160926249
 21
-6.1925803104
 31
0.0
  0
SPLINE
  5
591
100
AcDbEntity
  8
COPY-PUBBLISH
100
AcDbSpline
 62
7
  6
CONTINUOUS
 70
0
 71
3
 72
9
 73
5
 74
3
 42
0.0000001
 43
0.0000001
 44
0.0000000001
 12
-0.1041975667
 22
-0.0342099396
 32
0.0
 13
-0.0980916016
 23
-0.0490458008
 33
0.0
 40
0.0
 40
0.0
 40
0.0
 40
0.0
 40
0.2435176345
 40
1.0
 40
1.0
 40
1.0
 40
1.0
 10
8.2160926249
 20
-6.1925803104
 30
0.0
 10
8.2076346433
 20
-6.1953572183
 30
0.0
 10
8.1731296201
 20
-6.2074479731
 30
0.0
 10
8.1395705091
 20
-6.2221915241
 30
0.0
 10
8.1148356535
 20
-6.2345589519
 30
0.0
 11
8.2160926249
 21
-6.1925803104
 31
0.0
 11
8.1908855734
 21
-6.2014031553
 31
0.0
 11
8.1148356535
 21
-6.2345589519
 31
0.0
  0
SPLINE
  5
592
100
AcDbEntity
  8
COPY-PUBBLISH
100
AcDbSpline
 62
7
  6
CONTINUOUS
 70
0
 71
3
 72
15
 73
11
 74
9
 42
0.0000001
 43
0.0000001
 44
0.0000000001
 12
9.2142334293
 22
4.6071167147
 32
0.0
 13
0.0
 23
10.3018261542
 33
0.0
 40
0.0
 40
0.0
 40
0.0
 40
0.0
 40
0.110320773
 40
0.2298809821
 40
0.3567647262
 40
0.4883338313
 40
0.6215371332
 40
0.7531869837
 40
0.8802253979
 40
1.0
 40
1.0
 40
1.0
 40
1.0
 10
24.2638329532
 20
-19.9313465918
 30
0.0
 10
24.6026734048
 20
-19.761926366
 30
0.0
 10
25.2742809388
 20
-19.3379146138
 30
0.0
 10
26.1965923895
 20
-18.5254392521
 30
0.0
 10
27.0458389973
 20
-17.5386654167
 30
0.0
 10
27.7902573973
 20
-16.4145655375
 30
0.0
 10
28.4023441618
 20
-15.1950500338
 30
0.0
 10
28.8591712002
 20
-13.9255975672
 30
0.0
 10
29.1436263117
 20
-12.6539955562
 30
0.0
 10
29.2135804215
 20
-11.8055940739
 30
0.0
 10
29.2135804215
 20
-11.3942950311
 30
0.0
 11
24.2638329532
 21
-19.9313465918
 31
0.0
 11
25.229480788
 21
-19.3320396252
 31
0.0
 11
26.1580193366
 21
-18.5227975739
 31
0.0
 11
27.0137653164
 21
-17.5347192235
 31
0.0
 11
27.7638329591
 21
-16.405775805
 31
0.0
 11
28.3793975599
 21
-15.1793520128
 31
0.0
 11
28.8368033223
 21
-13.9025786237
 31
0.0
 11
29.1184724108
 21
-12.6245212662
 31
0.0
 11
29.2135804215
 21
-11.3942950311
 31
0.0
  0
SPLINE
  5
593
100
AcDbEntity
  8
COPY-PUBBLISH
100
AcDbSpline
 62
7
  6
CONTINUOUS
 70
0
 71
3
 72
14
 73
10
 74
8
 42
0.0000001
 43
0.0000001
 44
0.0000000001
 12
0.0
 22
4.7071691399
 32
0.0
 13
-4.4167987123
 23
1.6276763948
 33
0.0
 40
0.0
 40
0.0
 40
0.0
 40
0.0
 40
0.2909113596
 40
0.4243906797
 40
0.5500179931
 40
0.6686853559
 40
0.7818277718
 40
0.8914613743
 40
1.0
 40
1.0
 40
1.0
 40
1.0
 10
29.2135804215
 20
6.4458282868
 30
0.0
 10
29.2135804215
 20
6.9022846116
 30
0.0
 10
29.1527216532
 20
7.5725170908
 30
0.0
 10
28.9174976908
 20
8.4049158215
 30
0.0
 10
28.6792736693
 20
8.9500227038
 30
0.0
 10
28.377307121
 20
9.4255437469
 30
0.0
 10
28.0148500499
 20
9.8240493099
 30
0.0
 10
27.5972518715
 20
10.1387733533
 30
0.0
 10
27.2866546854
 20
10.2887368561
 30
0.0
 10
27.1268569313
 20
10.3476254425
 30
0.0
 11
29.2135804215
 21
6.4458282868
 31
0.0
 11
29.0734594197
 21
7.8080094395
 31
0.0
 11
28.9001855204
 21
8.4119542058
 31
0.0
 11
28.6610460082
 21
8.9527923964
 31
0.0
 11
28.359473505
 21
9.4229773075
 31
0.0
 11
27.9996969694
 21
9.8156639784
 31
0.0
 11
27.5868804425
 21
10.1253484542
 31
0.0
 11
27.1268569313
 21
10.3476254425
 31
0.0
  0
SPLINE
  5
594
100
AcDbEntity
  8
COPY-PUBBLISH
100
AcDbSpline
 62
7
  6
CONTINUOUS
 70
0
 71
3
 72
9
 73
5
 74
3
 42
0.0000001
 43
0.0000001
 44
0.0000000001
 12
-0.2422181925
 22
0.6098840706
 32
0.0
 13
-0.5871234381
 23
0.2931114136
 33
0.0
 40
0.0
 40
0.0
 40
0.0
 40
0.0
 40
0.5219653827
 40
1.0
 40
1.0
 40
1.0
 40
1.0
 10
5.7740115109
 20
-29.1025199135
 30
0.0
 10
5.7318683404
 20
-28.9964071227
 30
0.0
 10
5.6221083982
 20
-28.8019301259
 30
0.0
 10
5.446104531
 20
-28.6608651709
 30
0.0
 10
5.3525494216
 20
-28.61415937
 30
0.0
 11
5.7740115109
 21
-29.1025199135
 31
0.0
 11
5.5992385443
 21
-28.8079385991
 31
0.0
 11
5.3525494216
 21
-28.61415937
 31
0.0
  0
SPLINE
  5
595
100
AcDbEntity
  8
COPY-PUBBLISH
100
AcDbSpline
 62
7
  6
CONTINUOUS
 70
0
 71
3
 72
9
 73
5
 74
3
 42
0.0000001
 43
0.0000001
 44
0.0000000001
 12
-0.5413850827
 22
-0.9875149494
 32
0.0
 13
-0.0893837728
 23
-1.1226282217
 33
0.0
 40
0.0
 40
0.0
 40
0.0
 40
0.0
 40
0.51308229
 40
1.0
 40
1.0
 40
1.0
 40
1.0
 10
6.2092231833
 20
-28.5359756541
 30
0.0
 10
6.1166314839
 20
-28.704867798
 30
0.0
 10
5.9677617965
 20
-29.0523065636
 30
0.0
 10
5.8910004387
 20
-29.4233451018
 30
0.0
 10
5.8764929247
 20
-29.6055542894
 30
0.0
 11
6.2092231833
 21
-28.5359756541
 31
0.0
 11
5.9828494492
 21
-29.0676098742
 31
0.0
 11
5.8764929247
 21
-29.6055542894
 31
0.0
  0
SPLINE
  5
596
100
AcDbEntity
  8
COPY-PUBBLISH
100
AcDbSpline
 62
7
  6
CONTINUOUS
 70
0
 71
3
 72
11
 73
7
 74
5
 42
0.0000001
 43
0.0000001
 44
0.0000000001
 12
-0.054135941
 22
-1.2186736458
 32
0.0
 13
1.0907753897
 23
-0.5461732366
 33
0.0
 40
0.0
 40
0.0
 40
0.0
 40
0.0
 40
0.2920822775
 40
0.5531926896
 40
0.7854485704
 40
1.0
 40
1.0
 40
1.0
 40
1.0
 10
2.8064938303
 20
-2.1591183826
 30
0.0
 10
2.801223114
 20
-2.2777693739
 30
0.0
 10
2.8106684723
 20
-2.5042201795
 30
0.0
 10
2.8945623648
 20
-2.8157680512
 30
0.0
 10
3.0466546619
 20
-3.065743505
 30
0.0
 10
3.1937737877
 20
-3.1809248886
 30
0.0
 10
3.2717829274
 20
-3.2199856381
 30
0.0
 11
2.8064938303
 21
-2.1591183826
 31
0.0
 11
2.8250361508
 21
-2.5149395822
 31
0.0
 11
2.9125736786
 21
-2.8211969318
 31
0.0
 11
3.0642725801
 21
-3.0604865218
 31
0.0
 11
3.2717829274
 21
-3.2199856381
 31
0.0
  0
SPLINE
  5
597
100
AcDbEntity
  8
COPY-PUBBLISH
100
AcDbSpline
 62
7
  6
CONTINUOUS
 70
0
 71
3
 72
11
 73
7
 74
5
 42
0.0000001
 43
0.0000001
 44
0.0000000001
 12
-0.0541607993
 22
-1.2192332395
 32
0.0
 13
1.0915698171
 23
-0.5458373558
 33
0.0
 40
0.0
 40
0.0
 40
0.0
 40
0.0
 40
0.2922025757
 40
0.5531558549
 40
0.7854583718
 40
1.0
 40
1.0
 40
1.0
 40
1.0
 10
2.8064938303
 20
1.6384982758
 30
0.0
 10
2.801218522
 20
1.5197439114
 30
0.0
 10
2.8106142096
 20
1.2931879599
 30
0.0
 10
2.8947175392
 20
0.9815522558
 30
0.0
 10
3.0468551415
 20
0.7314779212
 30
0.0
 10
3.1942035104
 20
0.6164154732
 30
0.0
 10
3.272265899
 20
0.5773805281
 30
0.0
 11
2.8064938303
 21
1.6384982758
 31
0.0
 11
2.8250508154
 21
1.2823669943
 31
0.0
 11
2.9126773173
 21
0.9761824278
 31
0.0
 11
3.0645379186
 21
0.7367739319
 31
0.0
 11
3.272265899
 21
0.5773805281
 31
0.0
  0
SPLINE
  5
598
100
AcDbEntity
  8
COPY-PUBBLISH
100
AcDbSpline
 62
7
  6
CONTINUOUS
 70
0
 71
3
 72
9
 73
5
 74
3
 42
0.0000001
 43
0.0000001
 44
0.0000000001
 12
-0.1236833656
 22
0.0620223156
 32
0.0
 13
-0.1237557031
 23
-0.0618778515
 33
0.0
 40
0.0
 40
0.0
 40
0.0
 40
0.0
 40
0.463875735
 40
1.0
 40
1.0
 40
1.0
 40
1.0
 10
36.9139424381
 20
6.5133758047
 30
0.0
 10
36.8948178674
 20
6.5229660204
 30
0.0
 10
36.8468039994
 20
6.5309995922
 30
0.0
 10
36.8017391253
 20
6.5159984025
 30
0.0
 10
36.7796229802
 20
6.5049403299
 30
0.0
 11
36.9139424381
 21
6.5133758047
 31
0.0
 11
36.8509074974
 21
6.5254625424
 31
0.0
 11
36.7796229802
 21
6.5049403299
 31
0.0
  0
SPLINE
  5
599
100
AcDbEntity
  8
COPY-PUBBLISH
100
AcDbSpline
 62
7
  6
CONTINUOUS
 70
0
 71
3
 72
9
 73
5
 74
3
 42
0.0000001
 43
0.0000001
 44
0.0000000001
 12
-0.1012984811
 22
0.0503247527
 32
0.0
 13
-0.1125140822
 23
-0.0115993243
 33
0.0
 40
0.0
 40
0.0
 40
0.0
 40
0.0
 40
0.2432288356
 40
1.0
 40
1.0
 40
1.0
 40
1.0
 10
8.4504313032
 20
-6.1839498231
 30
0.0
 10
8.4422183993
 20
-6.1798696794
 30
0.0
 10
8.4071584352
 20
-6.1656959984
 30
0.0
 10
8.3680840543
 20
-6.1627118156
 30
0.0
 10
8.3397015833
 20
-6.165637827
 30
0.0
 11
8.4504313032
 21
-6.1839498231
 31
0.0
 11
8.4249257169
 21
-6.1736367572
 31
0.0
 11
8.3397015833
 21
-6.165637827
 31
0.0
  0
SPLINE
  5
59A
100
AcDbEntity
  8
COPY-PUBBLISH
100
AcDbSpline
 62
7
  6
CONTINUOUS
 70
0
 71
3
 72
11
 73
7
 74
5
 42
0.0000001
 43
0.0000001
 44
0.0000000001
 12
0.3888885869
 22
-0.1966416457
 32
0.0
 13
0.0
 23
-0.4357777757
 33
0.0
 40
0.0
 40
0.0
 40
0.0
 40
0.0
 40
0.2173223604
 40
0.450565912
 40
0.7106325124
 40
1.0
 40
1.0
 40
1.0
 40
1.0
 10
8.5280565045
 20
-5.9690993721
 30
0.0
 10
8.5562278997
 20
-5.9833442477
 30
0.0
 10
8.6095417792
 20
-6.0240599391
 30
0.0
 10
8.6666198789
 20
-6.1119691768
 30
0.0
 10
8.7006382499
 20
-6.221600171
 30
0.0
 10
8.7074837671
 20
-6.3016997971
 30
0.0
 10
8.7074837671
 20
-6.3437331038
 30
0.0
 11
8.5280565045
 21
-5.9690993721
 31
0.0
 11
8.6036739972
 21
-6.0261159547
 31
0.0
 11
8.66040094
 21
-6.1104558771
 31
0.0
 11
8.6955480529
 21
-6.2181993292
 31
0.0
 11
8.7074837671
 21
-6.3437331038
 31
0.0
  0
SPLINE
  5
59B
100
AcDbEntity
  8
COPY-PUBBLISH
100
AcDbSpline
 62
7
  6
CONTINUOUS
 70
0
 71
3
 72
16
 73
12
 74
10
 42
0.0000001
 43
0.0000001
 44
0.0000000001
 12
4.4863498743
 22
-2.2435147203
 32
0.0
 13
-0.1632654897
 23
5.0133858693
 33
0.0
 40
0.0
 40
0.0
 40
0.0
 40
0.0
 40
0.0448010213
 40
0.0910761627
 40
0.1921486865
 40
0.3088547936
 40
0.4404339466
 40
0.5822475411
 40
0.7275754944
 40
0.8690385644
 40
1.0
 40
1.0
 40
1.0
 40
1.0
 10
2.9368233718
 20
-0.0933951956
 30
0.0
 10
3.0038210571
 20
-0.1268991125
 30
0.0
 10
3.148655357
 20
-0.1790234221
 30
0.0
 10
3.470189519
 20
-0.2163463856
 30
0.0
 10
3.9133856996
 20
-0.1246771901
 30
0.0
 10
4.4272823201
 20
0.1659612369
 30
0.0
 10
4.9100475198
 20
0.6116800354
 30
0.0
 10
5.3266627539
 20
1.1790192244
 30
0.0
 10
5.6461230437
 20
1.8245891959
 30
0.0
 10
5.8438041944
 20
2.4981195099
 30
0.0
 10
5.8861817653
 20
2.9559252593
 30
0.0
 10
5.8790546043
 20
3.1747786628
 30
0.0
 11
2.9368233718
 21
-0.0933951956
 31
0.0
 11
3.1481426266
 21
-0.1698477508
 31
0.0
 11
3.3785673903
 21
-0.1978344138
 31
0.0
 11
3.8774143454
 21
-0.1073651855
 31
0.0
 11
4.3925990819
 21
0.1706299031
 31
0.0
 11
4.8820204988
 21
0.6134341631
 31
0.0
 11
5.3056827978
 21
1.1848528962
 31
0.0
 11
5.6289618801
 21
1.8382209901
 31
0.0
 11
5.8254400058
 21
2.5200619663
 31
0.0
 11
5.8790546043
 21
3.1747786628
 31
0.0
  0
SPLINE
  5
59C
100
AcDbEntity
  8
ASSI
100
AcDbSpline
 62
7
  6
CONTINUOUS
 70
0
 71
3
 72
15
 73
11
 74
9
 42
0.0000001
 43
0.0000001
 44
0.0000000001
 12
4.5267635868
 22
-1.033638024
 32
0.0
 13
0.0948995105
 23
4.6423044082
 33
0.0
 40
0.0
 40
0.0
 40
0.0
 40
0.0
 40
0.0926149835
 40
0.1973054266
 40
0.3162134132
 40
0.4476373108
 40
0.5873898163
 40
0.7299173435
 40
0.8692498168
 40
1.0
 40
1.0
 40
1.0
 40
1.0
 10
3.0144927059
 20
-0.1009077024
 30
0.0
 10
3.1542414175
 20
-0.1328178252
 30
0.0
 10
3.4683383118
 20
-0.1352584436
 30
0.0
 10
3.9372525821
 20
0.0258174489
 30
0.0
 10
4.3999243097
 20
0.3307323081
 30
0.0
 10
4.8299641793
 20
0.7592943562
 30
0.0
 10
5.2016952804
 20
1.2841203251
 30
0.0
 10
5.4915339737
 20
1.8718325587
 30
0.0
 10
5.6810416738
 20
2.4844352122
 30
0.0
 10
5.7342935351
 20
2.9020690971
 30
0.0
 10
5.7384295779
 20
3.1043964811
 30
0.0
 11
3.0144927059
 21
-0.1009077024
 31
0.0
 11
3.4443751832
 21
-0.1124264177
 31
0.0
 11
3.9073616958
 21
0.0357051546
 31
0.0
 11
4.3722723788
 21
0.3335259033
 31
0.0
 11
4.8077963558
 21
0.7609698316
 31
0.0
 11
5.184596559
 21
1.2892735107
 31
0.0
 11
5.4772863639
 21
1.8828259595
 31
0.0
 11
5.6661421667
 21
2.5016064476
 31
0.0
 11
5.7384295779
 21
3.1043964811
 31
0.0
  0
SPLINE
  5
59D
100
AcDbEntity
  8
ASSI
100
AcDbSpline
 62
7
  6
CONTINUOUS
 70
0
 71
3
 72
11
 73
7
 74
5
 42
0.0000001
 43
0.0000001
 44
0.0000000001
 12
-0.9255704297
 22
0.462236034
 32
0.0
 13
-0.0570542431
 23
1.032999315
 33
0.0
 40
0.0
 40
0.0
 40
0.0
 40
0.0
 40
0.2201771047
 40
0.4544938616
 40
0.7130918815
 40
1.0
 40
1.0
 40
1.0
 40
1.0
 10
3.1314486244
 20
0.647800836
 30
0.0
 10
3.0635188185
 20
0.6817254332
 30
0.0
 10
2.9345353524
 20
0.7766640666
 30
0.0
 10
2.7906914967
 20
0.980265741
 30
0.0
 10
2.6972002691
 20
1.2350720617
 30
0.0
 10
2.671349796
 20
1.4227624379
 30
0.0
 10
2.6658933541
 20
1.5215544012
 30
0.0
 11
3.1314486244
 21
0.647800836
 31
0.0
 11
2.9473027876
 21
0.7818841762
 31
0.0
 11
2.8047043694
 21
0.9779253896
 31
0.0
 11
2.7094819562
 21
1.2279446999
 31
0.0
 11
2.6658933541
 21
1.5215544012
 31
0.0
  0
SPLINE
  5
59E
100
AcDbEntity
  8
ASSI
100
AcDbSpline
 62
7
  6
CONTINUOUS
 70
0
 71
3
 72
11
 73
7
 74
5
 42
0.0000001
 43
0.0000001
 44
0.0000000001
 12
-0.8213274996
 22
0.4110463779
 32
0.0
 13
-0.1134379394
 23
0.9114108955
 33
0.0
 40
0.0
 40
0.0
 40
0.0
 40
0.0
 40
0.2241388034
 40
0.4602708355
 40
0.7172954999
 40
1.0
 40
1.0
 40
1.0
 40
1.0
 10
3.1305139052
 20
-3.1493551431
 30
0.0
 10
3.0691501176
 20
-3.118644662
 30
0.0
 10
2.9524129798
 20
-3.0352925363
 30
0.0
 10
2.8162694247
 20
-2.8597325319
 30
0.0
 10
2.7206568397
 20
-2.6401068708
 30
0.0
 10
2.6868051458
 20
-2.4772458573
 30
0.0
 10
2.6761153405
 20
-2.3913592034
 30
0.0
 11
3.1305139052
 21
-3.1493551431
 31
0.0
 11
2.9624213284
 21
-3.0305160991
 31
0.0
 11
2.8277612205
 21
-2.8605133629
 31
0.0
 11
2.7312282981
 21
-2.6450906858
 31
0.0
 11
2.6761153405
 21
-2.3913592034
 31
0.0
  0
SPLINE
  5
59F
100
AcDbEntity
  8
ASSI
100
AcDbSpline
 62
7
  6
CONTINUOUS
 70
0
 71
3
 72
9
 73
5
 74
3
 42
0.0000001
 43
0.0000001
 44
0.0000000001
 12
-0.0199373772
 22
0.1601857628
 32
0.0
 13
-0.00476104
 23
0.161351511
 33
0.0
 40
0.0
 40
0.0
 40
0.0
 40
0.0
 40
0.2456511541
 40
1.0
 40
1.0
 40
1.0
 40
1.0
 10
2.6761153405
 20
-2.3913592034
 30
0.0
 10
2.6744827939
 20
-2.3782425975
 30
0.0
 10
2.6685028684
 20
-2.3247658039
 30
0.0
 10
2.6651312235
 20
-2.2710036136
 30
0.0
 10
2.6639340618
 20
-2.2304318382
 30
0.0
 11
2.6761153405
 21
-2.3913592034
 31
0.0
 11
2.6717022381
 21
-2.3519521033
 31
0.0
 11
2.6639340618
 21
-2.2304318382
 31
0.0
  0
SPLINE
  5
5A0
100
AcDbEntity
  8
COPY-PUBBLISH
100
AcDbSpline
 62
7
  6
CONTINUOUS
 70
0
 71
3
 72
16
 73
12
 74
10
 42
0.0000001
 43
0.0000001
 44
0.0000000001
 12
4.4863496013
 22
-2.2435145912
 32
0.0
 13
-0.1632654901
 23
5.0133855672
 33
0.0
 40
0.0
 40
0.0
 40
0.0
 40
0.0
 40
0.0448010213
 40
0.0910761627
 40
0.1921486865
 40
0.3088547936
 40
0.4404339466
 40
0.5822475412
 40
0.7275754945
 40
0.8690385645
 40
1.0
 40
1.0
 40
1.0
 40
1.0
 10
2.9368234407
 20
-3.891011713
 30
0.0
 10
3.003821122
 20
-3.924515628
 30
0.0
 10
3.148655413
 20
-3.9766399347
 30
0.0
 10
3.4701895557
 20
-4.0139628963
 30
0.0
 10
3.9133857096
 20
-3.9222937062
 30
0.0
 10
4.4272822993
 20
-3.6316552968
 30
0.0
 10
4.9100474698
 20
-3.1859365247
 30
0.0
 10
5.3266626786
 20
-2.6185973695
 30
0.0
 10
5.6461229487
 20
-1.9730274366
 30
0.0
 10
5.8438040867
 20
-1.299497163
 30
0.0
 10
5.8861816543
 20
-0.8416914413
 30
0.0
 10
5.8790544933
 20
-0.6228380511
 30
0.0
 11
2.9368234407
 21
-3.891011713
 31
0.0
 11
3.1481426827
 21
-3.9674642639
 31
0.0
 11
3.3785674324
 21
-3.9954509255
 31
0.0
 11
3.8774143576
 21
-3.9049817027
 31
0.0
 11
4.3925990631
 21
-3.6269866309
 31
0.0
 11
4.8820204505
 21
-3.184182397
 31
0.0
 11
5.3056827237
 21
-2.6127636981
 31
0.0
 11
5.6289617861
 21
-1.959395643
 31
0.0
 11
5.8254398992
 21
-1.2775547079
 31
0.0
 11
5.8790544933
 21
-0.6228380511
 31
0.0
  0
SPLINE
  5
5A1
100
AcDbEntity
  8
ASSI
100
AcDbSpline
 62
7
  6
CONTINUOUS
 70
0
 71
3
 72
15
 73
11
 74
9
 42
0.0000001
 43
0.0000001
 44
0.0000000001
 12
4.5267634021
 22
-1.0336301718
 32
0.0
 13
0.094899481
 23
4.6423024804
 33
0.0
 40
0.0
 40
0.0
 40
0.0
 40
0.0
 40
0.0926150052
 40
0.1973054785
 40
0.316213486
 40
0.4476373888
 40
0.5873898839
 40
0.7299173901
 40
0.8692498385
 40
1.0
 40
1.0
 40
1.0
 40
1.0
 10
3.0144943818
 20
-3.8985245841
 30
0.0
 10
3.1542431205
 20
-3.930434472
 30
0.0
 10
3.4683399487
 20
-3.9328746416
 30
0.0
 10
3.9372539652
 20
-3.7717983536
 30
0.0
 10
4.3999253829
 20
-3.4668833006
 30
0.0
 10
4.829964914
 20
-3.0383212434
 30
0.0
 10
5.2016956877
 20
-2.5134954243
 30
0.0
 10
5.4915341062
 20
-1.9257834589
 30
0.0
 10
5.6810416187
 20
-1.3131811383
 30
0.0
 10
5.7342934265
 20
-0.8955474988
 30
0.0
 10
5.7384294673
 20
-0.6932202325
 30
0.0
 11
3.0144943818
 21
-3.8985245841
 31
0.0
 11
3.4443767978
 21
-3.9100426882
 31
0.0
 11
3.9073631089
 21
-3.7619106888
 31
0.0
 11
4.3722734928
 21
-3.4640897179
 31
0.0
 11
4.8077971252
 21
-3.0366457664
 31
0.0
 11
5.1845969905
 21
-2.5083422364
 31
0.0
 11
5.4772865124
 21
-1.9147900631
 31
0.0
 11
5.6661421259
 21
-1.2960099188
 31
0.0
 11
5.7384294673
 21
-0.6932202325
 31
0.0
  0
SPLINE
  5
5A2
100
AcDbEntity
  8
COPY-PUBBLISH
100
AcDbSpline
 62
7
  6
CONTINUOUS
 70
0
 71
3
 72
12
 73
8
 74
6
 42
0.0000001
 43
0.0000001
 44
0.0000000001
 12
-1.0428278602
 22
0.5211680245
 32
0.0
 13
-0.7231435138
 23
-0.9144230499
 33
0.0
 40
0.0
 40
0.0
 40
0.0
 40
0.0
 40
0.0997854385
 40
0.2033994445
 40
0.4322906388
 40
0.6992964164
 40
1.0
 40
1.0
 40
1.0
 40
1.0
 10
4.9925463156
 20
-29.3351509966
 30
0.0
 10
4.9578599705
 20
-29.3178160033
 30
0.0
 10
4.882254494
 20
-29.2915415012
 30
0.0
 10
4.7134549666
 20
-29.2767658528
 30
0.0
 10
4.4816440758
 20
-29.336595147
 30
0.0
 10
4.2184269024
 20
-29.5056253817
 30
0.0
 10
4.0642212811
 20
-29.6662318659
 30
0.0
 10
3.9917373324
 20
-29.7578886286
 30
0.0
 11
4.9925463156
 21
-29.3351509966
 31
0.0
 11
4.8827588675
 21
-29.2966865065
 31
0.0
 11
4.7624958468
 21
-29.2853736279
 31
0.0
 11
4.502323546
 21
-29.3446656369
 31
0.0
 11
4.2369452558
 21
-29.50735512
 31
0.0
 11
3.9917373324
 21
-29.7578886286
 31
0.0
  0
SPLINE
  5
5A3
100
AcDbEntity
  8
ASSI
100
AcDbSpline
 62
7
  6
CONTINUOUS
 70
0
 71
3
 72
9
 73
5
 74
3
 42
0.0000001
 43
0.0000001
 44
0.0000000001
 12
-1.0638119907
 22
-0.5432762164
 32
0.0
 13
-0.5429568447
 23
-1.0639750296
 33
0.0
 40
0.0
 40
0.0
 40
0.0
 40
0.0
 40
0.4705243523
 40
1.0
 40
1.0
 40
1.0
 40
1.0
 10
11.9600192301
 20
-40.4857498822
 30
0.0
 10
11.7931694141
 20
-40.5709581121
 30
0.0
 10
11.4787459695
 20
-40.8303309523
 30
0.0
 10
11.2525897638
 20
-41.1635784406
 30
0.0
 10
11.1567622881
 20
-41.3513613966
 30
0.0
 11
11.9600192301
 21
-40.4857498822
 31
0.0
 11
11.5168234024
 21
-40.8313959296
 31
0.0
 11
11.1567622881
 21
-41.3513613966
 31
0.0
  0
SPLINE
  5
5A4
100
AcDbEntity
  8
COPY-PUBBLISH
100
AcDbSpline
 62
7
  6
CONTINUOUS
 70
0
 71
3
 72
13
 73
9
 74
7
 42
0.0000001
 43
0.0000001
 44
0.0000000001
 12
1.9774681219
 22
-0.9799577899
 32
0.0
 13
0.7710039245
 23
2.0679096672
 33
0.0
 40
0.0
 40
0.0
 40
0.0
 40
0.0
 40
0.0927033993
 40
0.1920394964
 40
0.302433039
 40
0.4253748012
 40
0.7024715197
 40
1.0
 40
1.0
 40
1.0
 40
1.0
 10
3.7693848397
 20
-31.7853579031
 30
0.0
 10
3.8304908454
 20
-31.8156397092
 30
0.0
 10
3.9696466059
 20
-31.8554006524
 30
0.0
 10
4.195039589
 20
-31.8417824064
 30
0.0
 10
4.4286866004
 20
-31.7612057487
 30
0.0
 10
4.750942372
 20
-31.5640886238
 30
0.0
 10
5.1079287615
 20
-31.1832724898
 30
0.0
 10
5.30892903
 20
-30.8055379882
 30
0.0
 10
5.3853942387
 20
-30.6004506479
 30
0.0
 11
3.7693848397
 21
-31.7853579031
 31
0.0
 11
3.9657643069
 21
-31.8427468415
 31
0.0
 11
4.1847790209
 21
-31.8330030112
 31
0.0
 11
4.4161655038
 21
-31.756725944
 31
0.0
 11
4.6491002016
 21
-31.6175841295
 31
0.0
 11
5.0758304399
 21
-31.1795361009
 31
0.0
 11
5.3853942387
 21
-30.6004506479
 31
0.0
  0
SPLINE
  5
5A5
100
AcDbEntity
  8
ASSI
100
AcDbSpline
 62
7
  6
CONTINUOUS
 70
0
 71
3
 72
9
 73
5
 74
3
 42
0.0000001
 43
0.0000001
 44
0.0000000001
 12
0.1733483781
 22
-0.061923907
 32
0.0
 13
0.1838939003
 23
-0.0082014557
 33
0.0
 40
0.0
 40
0.0
 40
0.0
 40
0.0
 40
0.2459437407
 40
1.0
 40
1.0
 40
1.0
 40
1.0
 10
3.6897984656
 20
-31.7408207031
 30
0.0
 10
3.7040097818
 20
-31.7458973022
 30
0.0
 10
3.7625757213
 20
-31.764306577
 30
0.0
 10
3.8239344412
 20
-31.7735748685
 30
0.0
 10
3.8701565567
 20
-31.7756363215
 30
0.0
 11
3.6897984656
 21
-31.7408207031
 31
0.0
 11
3.7329865649
 21
-31.7543996713
 31
0.0
 11
3.8701565567
 21
-31.7756363215
 31
0.0
  0
SPLINE
  5
5A6
100
AcDbEntity
  8
ASSI
100
AcDbSpline
 62
7
  6
CONTINUOUS
 70
0
 71
3
 72
11
 73
7
 74
5
 42
0.0000001
 43
0.0000001
 44
0.0000000001
 12
1.7519232549
 22
-0.0781337551
 32
0.0
 13
0.7393438625
 23
1.5901920096
 33
0.0
 40
0.0
 40
0.0
 40
0.0
 40
0.0
 40
0.4363575635
 40
0.5697014453
 40
0.7096168124
 40
1.0
 40
1.0
 40
1.0
 40
1.0
 10
3.8701565567
 20
-31.7756363215
 30
0.0
 10
4.124978211
 20
-31.7870010732
 30
0.0
 10
4.4576749738
 20
-31.6141356436
 30
0.0
 10
4.7565968295
 20
-31.3313421692
 30
0.0
 10
4.9695301656
 20
-31.0781035288
 30
0.0
 10
5.0986901175
 20
-30.8597826205
 30
0.0
 10
5.17025446
 20
-30.7058609456
 30
0.0
 11
3.8701565567
 21
-31.7756363215
 31
0.0
 11
4.580238496
 21
-31.4904123091
 31
0.0
 11
4.7510005442
 21
-31.3306572323
 31
0.0
 11
4.9091551226
 21
-31.1430647541
 31
0.0
 11
5.17025446
 21
-30.7058609456
 31
0.0
  0
SPLINE
  5
5A7
100
AcDbEntity
  8
RACCORDO
100
AcDbSpline
 62
253
  6
CONTINUOUS
 70
0
 71
3
 72
9
 73
5
 74
3
 42
0.0000001
 43
0.0000001
 44
0.0000000001
 12
0.0000653522
 22
1.4523461946
 32
0.0
 13
0.6101789443
 23
1.3179495929
 33
0.0
 40
0.0
 40
0.0
 40
0.0
 40
0.0
 40
0.4819608625
 40
1.0
 40
1.0
 40
1.0
 40
1.0
 10
-4.9787664062
 20
-13.6543134341
 30
0.0
 10
-4.9787559071
 20
-13.4209887592
 30
0.0
 10
-4.9132307215
 20
-12.9362836443
 30
0.0
 10
-4.7511134951
 20
-12.4766477915
 30
0.0
 10
-4.6457479704
 20
-12.2490646347
 30
0.0
 11
-4.9787664062
 21
-13.6543134341
 31
0.0
 11
-4.893157752
 21
-12.9595942142
 31
0.0
 11
-4.6457479704
 21
-12.2490646347
 31
0.0
  0
SPLINE
  5
5A8
100
AcDbEntity
  8
RACCORDO
100
AcDbSpline
 62
253
  6
CONTINUOUS
 70
0
 71
3
 72
11
 73
7
 74
5
 42
0.0000001
 43
0.0000001
 44
0.0000000001
 12
1.4904316279
 22
0.865268849
 32
0.0
 13
0.0002619071
 23
1.7233910032
 33
0.0
 40
0.0
 40
0.0
 40
0.0
 40
0.0
 40
0.2294599314
 40
0.4879795841
 40
0.7530437511
 40
1.0
 40
1.0
 40
1.0
 40
1.0
 10
-5.7690841991
 20
-16.891097494
 30
0.0
 10
-5.655086086
 20
-16.8249159838
 30
0.0
 10
-5.4396145949
 20
-16.6375436536
 30
0.0
 10
-5.1923675396
 20
-16.2785401956
 30
0.0
 10
-5.0249006771
 20
-15.8651950285
 30
0.0
 10
-4.978787966
 20
-15.5706114371
 30
0.0
 10
-4.9787664062
 20
-15.4287440446
 30
0.0
 11
-5.7690841991
 21
-16.891097494
 31
0.0
 11
-5.4646632126
 21
-16.6386932117
 31
0.0
 11
-5.2086839435
 21
-16.2740399594
 31
0.0
 11
-5.0384299583
 21
-15.8501434729
 31
0.0
 11
-4.9787664062
 21
-15.4287440446
 31
0.0
  0
SPLINE
  5
5A9
100
AcDbEntity
  8
COPY-PUBBLISH
100
AcDbSpline
 62
7
  6
CONTINUOUS
 70
0
 71
3
 72
16
 73
12
 74
10
 42
0.0000001
 43
0.0000001
 44
0.0000000001
 12
3.5924325632
 22
-1.7958202087
 32
0.0
 13
-0.2012204148
 23
4.0112407417
 33
0.0
 40
0.0
 40
0.0
 40
0.0
 40
0.0
 40
0.0448109751
 40
0.0911236946
 40
0.1924023218
 40
0.3094908371
 40
0.4414892953
 40
0.5835985367
 40
0.7289119008
 40
0.8699417475
 40
1.0
 40
1.0
 40
1.0
 40
1.0
 10
3.5429062499
 20
-32.2351982797
 30
0.0
 10
3.5965663852
 20
-32.2620224313
 30
0.0
 10
3.7127192246
 20
-32.3034973223
 30
0.0
 10
3.9706088089
 20
-32.332685233
 30
0.0
 10
4.3260003298
 20
-32.2570236847
 30
0.0
 10
4.7371474754
 20
-32.0210167236
 30
0.0
 10
5.1223587141
 20
-31.6604858819
 30
0.0
 10
5.4531245855
 20
-31.2029781011
 30
0.0
 10
5.7044403914
 20
-30.6840547309
 30
0.0
 10
5.8565595329
 20
-30.1448107931
 30
0.0
 10
5.8852163832
 20
-29.7794526098
 30
0.0
 10
5.8764929247
 20
-29.6055542894
 30
0.0
 11
3.5429062499
 21
-32.2351982797
 31
0.0
 11
3.7122526434
 21
-32.2961269766
 31
0.0
 11
3.8969685968
 21
-32.317987892
 31
0.0
 11
4.2968222452
 21
-32.2433297332
 31
0.0
 11
4.7092605464
 21
-32.0174096854
 31
0.0
 11
5.0999390924
 21
-31.6590491533
 31
0.0
 11
5.4364005981
 21
-31.1980171174
 31
0.0
 11
5.6906373445
 21
-30.6726831495
 31
0.0
 11
5.8415205233
 21
-30.1267331955
 31
0.0
 11
5.8764929247
 21
-29.6055542894
 31
0.0
  0
SPLINE
  5
5AA
100
AcDbEntity
  8
ASSI
100
AcDbSpline
 62
7
  6
CONTINUOUS
 70
0
 71
3
 72
9
 73
5
 74
3
 42
0.0000001
 43
0.0000001
 44
0.0000000001
 12
0.2004458325
 22
-0.0767265549
 32
0.0
 13
0.2135972365
 23
-0.0210170534
 33
0.0
 40
0.0
 40
0.0
 40
0.0
 40
0.0
 40
0.2469725969
 40
1.0
 40
1.0
 40
1.0
 40
1.0
 10
3.4694941381
 20
-32.1943692921
 30
0.0
 10
3.4859956807
 20
-32.2006857443
 30
0.0
 10
3.5536767557
 20
-32.2239616928
 30
0.0
 10
3.6245270549
 20
-32.2378323634
 30
0.0
 10
3.6781419123
 20
-32.2431078358
 30
0.0
 11
3.4694941381
 21
-32.1943692921
 31
0.0
 11
3.5196197307
 21
-32.2116091079
 31
0.0
 11
3.6781419123
 21
-32.2431078358
 31
0.0
  0
SPLINE
  5
5AB
100
AcDbEntity
  8
ASSI
100
AcDbSpline
 62
7
  6
CONTINUOUS
 70
0
 71
3
 72
9
 73
5
 74
3
 42
0.0000001
 43
0.0000001
 44
0.0000000001
 12
0.8824095293
 22
-0.0868253189
 32
0.0
 13
0.7336966349
 23
0.4978699241
 33
0.0
 40
0.0
 40
0.0
 40
0.0
 40
0.0
 40
0.4626479483
 40
1.0
 40
1.0
 40
1.0
 40
1.0
 10
3.6781419123
 20
-32.2431078358
 30
0.0
 10
3.8142235651
 20
-32.2564976877
 30
0.0
 10
4.1159886517
 20
-32.2137589268
 30
0.0
 10
4.3814664061
 20
-32.0745119816
 30
0.0
 10
4.5128842035
 20
-31.9853348399
 30
0.0
 11
3.6781419123
 21
-32.2431078358
 31
0.0
 11
4.0856785075
 21
-32.1962947743
 31
0.0
 11
4.5128842035
 21
-31.9853348399
 31
0.0
  0
SPLINE
  5
5AC
100
AcDbEntity
  8
ASSI
100
AcDbSpline
 62
7
  6
CONTINUOUS
 70
0
 71
3
 72
11
 73
7
 74
5
 42
0.0000001
 43
0.0000001
 44
0.0000000001
 12
2.0862551502
 22
1.669531333
 32
0.0
 13
-0.1338700467
 23
2.6686839892
 33
0.0
 40
0.0
 40
0.0
 40
0.0
 40
0.0
 40
0.2444656049
 40
0.5051880898
 40
0.7630973255
 40
1.0
 40
1.0
 40
1.0
 40
1.0
 10
4.6469585867
 20
-31.8862613468
 30
0.0
 10
4.8169644624
 20
-31.7502136844
 30
0.0
 10
5.1289611081
 20
-31.418626664
 30
0.0
 10
5.4789407114
 20
-30.8306087527
 30
0.0
 10
5.6992654309
 20
-30.1898575772
 30
0.0
 10
5.7456432057
 20
-29.7455823299
 30
0.0
 10
5.735071815
 20
-29.5348428718
 30
0.0
 11
4.6469585867
 21
-31.8862613468
 31
0.0
 11
5.1001168538
 21
-31.4157868385
 31
0.0
 11
5.4583404447
 21
-30.8182819249
 31
0.0
 11
5.6787895448
 21
-30.1653491506
 31
0.0
 11
5.735071815
 21
-29.5348428718
 31
0.0
  0
SPLINE
  5
5AD
100
AcDbEntity
  8
COPY-PUBBLISH
100
AcDbSpline
 62
253
  6
CONTINUOUS
 70
0
 71
3
 72
11
 73
7
 74
5
 42
0.0000001
 43
0.0000001
 44
0.0000000001
 12
-0.7929024505
 22
0.3974454654
 32
0.0
 13
-0.0299185128
 23
0.8864322178
 33
0.0
 40
0.0
 40
0.0
 40
0.0
 40
0.0
 40
0.2179729856
 40
0.4516244038
 40
0.7111566326
 40
1.0
 40
1.0
 40
1.0
 40
1.0
 10
-38.2888541154
 20
-17.9087769899
 30
0.0
 10
-38.3464645536
 20
-17.8798995316
 30
0.0
 10
-38.4556850118
 20
-17.797771056
 30
0.0
 10
-38.5754433805
 20
-17.6213320174
 30
0.0
 10
-38.6508827471
 20
-17.400510923
 30
0.0
 10
-38.6698375175
 20
-17.2383496106
 30
0.0
 10
-38.6727181055
 20
-17.1530029217
 30
0.0
 11
-38.2888541154
 21
-17.9087769899
 31
0.0
 11
-38.4441672779
 21
-17.7936524783
 31
0.0
 11
-38.5631224425
 21
-17.6239597165
 31
0.0
 11
-38.6404518884
 21
-17.4071487206
 31
0.0
 11
-38.6727181055
 21
-17.1530029217
 31
0.0
  0
SPLINE
  5
5AE
100
AcDbEntity
  8
ASSI
100
AcDbSpline
 62
7
  6
CONTINUOUS
 70
0
 71
3
 72
14
 73
10
 74
8
 42
0.0000001
 43
0.0000001
 44
0.0000000001
 12
-2.1815196149
 22
1.0901001062
 32
0.0
 13
1.2911177625
 23
2.0689033316
 33
0.0
 40
0.0
 40
0.0
 40
0.0
 40
0.0
 40
0.0927297297
 40
0.1919935714
 40
0.302146697
 40
0.4247315265
 40
0.558901008
 40
0.7021058918
 40
1.0
 40
1.0
 40
1.0
 40
1.0
 10
3.5466155696
 20
-31.874802652
 30
0.0
 10
3.4791849948
 20
-31.8411077559
 30
0.0
 10
3.3513521433
 20
-31.7451928651
 30
0.0
 10
3.212366848
 20
-31.5383112603
 30
0.0
 10
3.1264631874
 20
-31.279670558
 30
0.0
 10
3.0952358366
 20
-30.9811905735
 30
0.0
 10
3.1189433198
 20
-30.6554152533
 30
0.0
 10
3.2229312371
 20
-30.1983150095
 30
0.0
 10
3.374223647
 20
-29.8670076524
 30
0.0
 10
3.5024291051
 20
-29.6615696148
 30
0.0
 11
3.5466155696
 21
-31.874802652
 31
0.0
 11
3.3649209734
 21
-31.7401656229
 31
0.0
 11
3.2268448002
 21
-31.5413289649
 31
0.0
 11
3.1387322201
 21
-31.2875582966
 31
0.0
 11
3.1046721752
 21
-30.9905550589
 31
0.0
 11
3.1262923462
 21
-30.6640685817
 31
0.0
 11
3.2025111846
 21
-30.3232508689
 31
0.0
 11
3.5024291051
 21
-29.6615696148
 31
0.0
  0
SPLINE
  5
5AF
100
AcDbEntity
  8
ASSI
100
AcDbSpline
 62
7
  6
CONTINUOUS
 70
0
 71
3
 72
9
 73
5
 74
3
 42
0.0000001
 43
0.0000001
 44
0.0000000001
 12
0.598317206
 22
0.9587510115
 32
0.0
 13
1.0108162963
 23
0.5054081481
 33
0.0
 40
0.0
 40
0.0
 40
0.0
 40
0.0
 40
0.5289233158
 40
1.0
 40
1.0
 40
1.0
 40
1.0
 10
3.5024291051
 20
-29.6615696148
 30
0.0
 10
3.6079170786
 20
-29.4925343601
 30
0.0
 10
3.842437836
 20
-29.193342819
 30
0.0
 10
4.1477059514
 20
-28.9611146371
 30
0.0
 10
4.3064299478
 20
-28.8817526389
 30
0.0
 11
3.5024291051
 21
-29.6615696148
 31
0.0
 11
3.8757963438
 21
-29.1947692571
 31
0.0
 11
4.3064299478
 21
-28.8817526389
 31
0.0
  0
SPLINE
  5
5B0
100
AcDbEntity
  8
DRAFT
100
AcDbSpline
 62
7
  6
CONTINUOUS
 70
0
 71
3
 72
9
 73
5
 74
3
 42
0.0000001
 43
0.0000001
 44
0.0000000001
 12
0.269180881
 22
0.1345904405
 32
0.0
 13
0.3003560963
 23
0.0189512211
 33
0.0
 40
0.0
 40
0.0
 40
0.0
 40
0.0
 40
0.4714365495
 40
1.0
 40
1.0
 40
1.0
 40
1.0
 10
-4.8689664317
 20
-26.3701129002
 30
0.0
 10
-4.8266658631
 20
-26.3489626159
 30
0.0
 10
-4.7307322221
 20
-26.3164717865
 30
0.0
 10
-4.6309519019
 20
-26.3021976554
 30
0.0
 10
-4.578032817
 20
-26.2988586811
 30
0.0
 11
-4.8689664317
 21
-26.3701129002
 31
0.0
 11
-4.7353576799
 21
-26.3223765921
 31
0.0
 11
-4.578032817
 21
-26.2988586811
 31
0.0
  0
SPLINE
  5
5B1
100
AcDbEntity
  8
RACCORDO
100
AcDbSpline
 62
253
  6
CONTINUOUS
 70
0
 71
3
 72
11
 73
7
 74
5
 42
0.0000001
 43
0.0000001
 44
0.0000000001
 12
-0.0266075685
 22
-0.3470237227
 32
0.0
 13
-0.3067322571
 23
-0.1644650397
 33
0.0
 40
0.0
 40
0.0
 40
0.0
 40
0.0
 40
0.2091106388
 40
0.4394258235
 40
0.7020523084
 40
1.0
 40
1.0
 40
1.0
 40
1.0
 10
-0.8064711175
 20
43.3964972909
 30
0.0
 10
-0.8083257594
 20
43.3723085068
 30
0.0
 10
-0.8218231681
 20
43.321923574
 30
0.0
 10
-0.8670757014
 20
43.252988894
 30
0.0
 10
-0.9349749537
 20
43.1902800563
 30
0.0
 10
-0.9903014209
 20
43.1554757616
 30
0.0
 10
-1.0207648102
 20
43.1391417686
 30
0.0
 11
-0.8064711175
 21
43.3964972909
 31
0.0
 11
-0.8245294637
 21
43.3259938946
 31
0.0
 11
-0.8672952179
 21
43.2581954942
 31
0.0
 11
-0.9335229193
 21
43.1951971805
 31
0.0
 11
-1.0207648102
 21
43.1391417686
 31
0.0
  0
SPLINE
  5
5B2
100
AcDbEntity
  8
COPY-PUBBLISH
100
AcDbSpline
 62
7
  6
CONTINUOUS
 70
0
 71
3
 72
11
 73
7
 74
5
 42
0.0000001
 43
0.0000001
 44
0.0000000001
 12
-0.7051098822
 22
0.3524507857
 32
0.0
 13
-0.705068225
 23
-0.3525341125
 33
0.0
 40
0.0
 40
0.0
 40
0.0
 40
0.0
 40
0.2270701449
 40
0.4646265067
 40
0.7210036456
 40
1.0
 40
1.0
 40
1.0
 40
1.0
 10
5.2079632926
 20
-28.9041342338
 30
0.0
 10
5.1545934916
 20
-28.8774572168
 30
0.0
 10
5.0369859192
 20
-28.8383156161
 30
0.0
 10
4.8458027349
 20
-28.8287470617
 30
0.0
 10
4.644693205
 20
-28.8667002786
 30
0.0
 10
4.5134217922
 20
-28.9196780729
 30
0.0
 10
4.447851304
 20
-28.952463317
 30
0.0
 11
5.2079632926
 21
-28.9041342338
 31
0.0
 11
5.038304136
 21
-28.8470749604
 31
0.0
 11
4.8513612942
 21
-28.836123231
 31
0.0
 11
4.6524195295
 21
-28.8717100423
 31
0.0
 11
4.447851304
 21
-28.952463317
 31
0.0
  0
ELLIPSE
  5
5B3
100
AcDbEntity
  8
COPY-PUBBLISH
100
AcDbEllipse
 62
7
  6
CONTINUOUS
 10
323.115624779
 20
173.0154366702
 30
0.0
 11
229.0570158832
 21
442.2304355281
 31
0.0
 40
0.6229838795
 41
-4.0590075425
 42
-3.978559574
  0
ELLIPSE
  5
5B4
100
AcDbEntity
  8
RACCORDO
100
AcDbEllipse
 62
7
  6
CONTINUOUS
 10
342.7162611033
 20
163.215118508
 30
0.0
 11
217.4819612717
 21
450.2570851003
 31
0.0
 40
0.6016116119
 41
-4.0770373049
 42
-3.9947608694
  0
ELLIPSE
  5
5B5
100
AcDbEntity
  8
RACCORDO
100
AcDbEllipse
 62
7
  6
CONTINUOUS
 10
-3.3306624336
 20
-33.7108429246
 30
0.0
 11
0.6524458838
 21
1.3507712553
 31
0.0
 40
0.6016116119
 41
-3.9947608694
 42
-3.1497825341
  0
ELLIPSE
  5
5B6
100
AcDbEntity
  8
DRAFT
100
AcDbEllipse
 62
7
  6
CONTINUOUS
 10
15.0464828613
 20
-17.03498555
 30
0.0
 11
3.0936780317
 21
6.0797320672
 31
0.0
 40
0.6176975467
 41
-3.0099229214
 42
-2.4532784517
  0
ELLIPSE
  5
5B7
100
AcDbEntity
  8
RACCORDO
100
AcDbEllipse
 62
7
  6
CONTINUOUS
 10
31.3244732983
 20
28.2020951085
 30
0.0
 11
0.7999063951
 21
0.0234861131
 31
0.0
 40
0.5210573591
 41
0.7701005517
 42
2.3059902934
  0
ELLIPSE
  5
5B8
100
AcDbEntity
  8
COPY-PUBBLISH
100
AcDbEllipse
 62
7
  6
CONTINUOUS
 10
33.8019690656
 20
-14.3146935977
 30
0.0
 11
0.1360559951
 21
0.2673790137
 31
0.0
 40
0.6176975122
 41
0.6890773845
 42
2.2598737113
  0
ELLIPSE
  5
5B9
100
AcDbEntity
  8
COPY-PUBBLISH
100
AcDbEllipse
 62
7
  6
CONTINUOUS
 10
35.5138353262
 20
6.8780265358
 30
0.0
 11
0.1360559951
 21
0.2673790137
 31
0.0
 40
0.6176975122
 41
0.0033942194
 42
0.3861700735
  0
ELLIPSE
  5
5BA
100
AcDbEntity
  8
COPY-PUBBLISH
100
AcDbEllipse
 62
7
  6
CONTINUOUS
 10
-2.5153669653
 20
3.8154015014
 30
0.0
 11
0.132308947
 21
0.2692527733
 31
0.0
 40
0.607010042
 41
0.6805251943
 42
2.2513215211
  0
ELLIPSE
  5
5BB
100
AcDbEntity
  8
RACCORDO
100
AcDbEllipse
 62
7
  6
CONTINUOUS
 10
32.0689092425
 20
-28.6034841664
 30
0.0
 11
0.9070399672
 21
1.7825267583
 31
0.0
 40
0.6176975122
 41
-2.4176086841
 42
-1.6671171057
  0
ELLIPSE
  5
5BC
100
AcDbEntity
  8
RACCORDO
100
AcDbEllipse
 62
7
  6
CONTINUOUS
 10
32.1614305659
 20
-28.4456892545
 30
0.0
 11
0.9070399672
 21
1.7825267583
 31
0.0
 40
0.6176975122
 41
-1.6671171057
 42
-0.8817189423
  0
ELLIPSE
  5
5BD
100
AcDbEntity
  8
RACCORDO
100
AcDbEllipse
 62
7
  6
CONTINUOUS
 10
25.7106278253
 20
-31.0211626995
 30
0.0
 11
0.5641280244
 21
1.1086317417
 31
0.0
 40
0.6176975122
 41
3.8393966843
 42
5.1724595882
  0
ELLIPSE
  5
5BE
100
AcDbEntity
  8
RACCORDO
100
AcDbEllipse
 62
7
  6
CONTINUOUS
 10
-3.3306624336
 20
1.7990006241
 30
0.0
 11
0.6524458838
 21
1.3507712553
 31
0.0
 40
0.6016116119
 41
0.7288497708
 42
2.2061480023
  0
ELLIPSE
  5
5BF
100
AcDbEntity
  8
RACCORDO
100
AcDbEllipse
 62
7
  6
CONTINUOUS
 10
10.1944824295
 20
-37.7374599953
 30
0.0
 11
2.9996489815
 21
0.0880729241
 31
0.0
 40
0.5210573591
 41
-2.1651489504
 42
-0.8356023602
  0
ELLIPSE
  5
5C0
100
AcDbEntity
  8
RACCORDO
100
AcDbEllipse
 62
7
  6
CONTINUOUS
 10
10.1944824295
 20
20.1858943648
 30
0.0
 11
2.9996489815
 21
0.0880729241
 31
0.0
 40
0.5210573591
 41
-2.3714921019
 42
-0.8356023602
  0
ELLIPSE
  5
5C1
100
AcDbEntity
  8
DRAFT
100
AcDbEllipse
 62
7
  6
CONTINUOUS
 10
-12.7884572921
 20
-20.1412574973
 30
0.0
 11
0.9756393815
 21
-0.0069028614
 31
0.0
 40
0.4946372042
 41
1.8006457964
 42
2.9196571874
  0
ELLIPSE
  5
5C2
100
AcDbEntity
  8
DRAFT
100
AcDbEllipse
 62
7
  6
CONTINUOUS
 10
22.8925411294
 20
4.6602877611
 30
0.0
 11
3.097486933
 21
6.0872173642
 31
0.0
 40
0.6176975467
 41
-0.8817186228
 42
-0.1068880793
  0
ELLIPSE
  5
5C3
100
AcDbEntity
  8
DRAFT
100
AcDbEllipse
 62
7
  6
CONTINUOUS
 10
22.8925411294
 20
-13.1798355568
 30
0.0
 11
3.097486933
 21
6.0872173642
 31
0.0
 40
0.6176975467
 41
-2.4532784517
 42
-0.8817186228
  0
ELLIPSE
  5
5C4
100
AcDbEntity
  8
ASSI
100
AcDbEllipse
 62
7
  6
CONTINUOUS
 10
10.486970839
 20
-41.0389584403
 30
0.0
 11
0.6802799754
 21
1.3368950687
 31
0.0
 40
0.6176975122
 41
0.6978040307
 42
1.5617420105
  0
ELLIPSE
  5
5C5
100
AcDbEntity
  8
DRAFT
100
AcDbEllipse
 62
7
  6
CONTINUOUS
 10
-19.5444600191
 20
18.1006092082
 30
0.0
 11
3.0084766185
 21
6.122338139
 31
0.0
 40
0.6070100789
 41
-4.3137511401
 42
-4.0318634772
  0
ELLIPSE
  5
5C6
100
AcDbEntity
  8
DRAFT
100
AcDbEllipse
 62
7
  6
CONTINUOUS
 10
-11.8341600328
 20
22.0236383422
 30
0.0
 11
3.0121806208
 21
6.1298758922
 31
0.0
 40
0.6070100789
 41
-0.4262633503
 42
0.4181662255
  0
ELLIPSE
  5
5C7
100
AcDbEntity
  8
RACCORDO
100
AcDbEllipse
 62
7
  6
CONTINUOUS
 10
323.115624779
 20
173.0154366702
 30
0.0
 11
229.9769235775
 21
444.0064613736
 31
0.0
 40
0.6229838795
 41
-4.059921776
 42
-3.9776453405
  0
ELLIPSE
  5
5C8
100
AcDbEntity
  8
COPY-PUBBLISH
100
AcDbEllipse
 62
7
  6
CONTINUOUS
 10
-35.4866362009
 20
21.0605566026
 30
0.0
 11
-0.2234618187
 21
0.4480306886
 31
0.0
 40
0.6116748051
 41
-0.6831523243
 42
0.0400434249
  0
ELLIPSE
  5
5C9
100
AcDbEntity
  8
RACCORDO
100
AcDbEllipse
 62
7
  6
CONTINUOUS
 10
-9.0648339495
 20
-13.6334318121
 30
0.0
 11
0.5485916649
 21
1.1164008978
 31
0.0
 40
0.607010042
 41
-2.452340813
 42
-1.5228722054
  0
ELLIPSE
  5
5CA
100
AcDbEntity
  8
RACCORDO
100
AcDbEllipse
 62
7
  6
CONTINUOUS
 10
-4.3378004452
 20
-12.4336650897
 30
0.0
 11
0.6615447348
 21
1.3462638663
 31
0.0
 40
0.607010042
 41
-2.8784353174
 42
-2.7688341719
  0
ELLIPSE
  5
5CB
100
AcDbEntity
  8
COPY-PUBBLISH
100
AcDbEllipse
 62
7
  6
CONTINUOUS
 10
1.2828087086
 20
2.6758341478
 30
0.0
 11
-0.2230998035
 21
0.4477110033
 31
0.0
 40
0.6127700112
 41
-2.2535417632
 42
-0.6836588249
  0
ELLIPSE
  5
5CC
100
AcDbEntity
  8
RACCORDO
100
AcDbEllipse
 62
7
  6
CONTINUOUS
 10
-35.2264545375
 20
-17.7629468726
 30
0.0
 11
0.6899307707
 21
1.3320193841
 31
0.0
 40
0.6229838795
 41
-3.9776453405
 42
-2.500347109
  0
ELLIPSE
  5
5CD
100
AcDbEntity
  8
RACCORDO
100
AcDbEllipse
 62
7
  6
CONTINUOUS
 10
-35.2264545375
 20
17.7468966761
 30
0.0
 11
0.6899307707
 21
1.3320193841
 31
0.0
 40
0.6229838795
 41
0.7459652997
 42
2.2232635312
  0
ELLIPSE
  5
5CE
100
AcDbEntity
  8
COPY-PUBBLISH
100
AcDbEllipse
 62
7
  6
CONTINUOUS
 10
1.2828087086
 20
-34.8478581117
 30
0.0
 11
-0.2234618187
 21
0.4480306886
 31
0.0
 40
0.6116748051
 41
-3.1816403779
 42
-2.2548620396
  0
ELLIPSE
  5
5CF
100
AcDbEntity
  8
RACCORDO
100
AcDbEllipse
 62
7
  6
CONTINUOUS
 10
-1.6058477715
 20
44.6672556434
 30
0.0
 11
0.7999063951
 21
0.0234861131
 31
0.0
 40
0.5210573591
 41
-0.7657891901
 42
0.7701005517
  0
ELLIPSE
  5
5D0
100
AcDbEntity
  8
RACCORDO
100
AcDbEllipse
 62
7
  6
CONTINUOUS
 10
-16.1140386744
 20
33.3401549168
 30
0.0
 11
2.9996489815
 21
0.0880729241
 31
0.0
 40
0.5210573591
 41
2.3758034635
 42
3.9116932053
  0
ELLIPSE
  5
5D1
100
AcDbEntity
  8
DRAFT
100
AcDbEllipse
 62
7
  6
CONTINUOUS
 10
-20.1691133127
 20
-7.1219561776
 30
0.0
 11
-0.5473361859
 21
13.2961670299
 31
0.0
 40
0.0402461036
 41
-2.496223801
 42
-2.3523192904
  0
ELLIPSE
  5
5D2
100
AcDbEntity
  8
DRAFT
100
AcDbEllipse
 62
7
  6
CONTINUOUS
 10
-20.1691133127
 20
-7.1219561776
 30
0.0
 11
-0.5473361859
 21
13.2961670299
 31
0.0
 40
0.0402461036
 41
-3.8955446407
 42
-3.7507776444
  0
ELLIPSE
  5
5D3
100
AcDbEntity
  8
DRAFT
100
AcDbEllipse
 62
7
  6
CONTINUOUS
 10
-20.3544998508
 20
-16.3582362179
 30
0.0
 11
0.9756393815
 21
-0.0069028614
 31
0.0
 40
0.4946372042
 41
-1.3418615686
 42
-0.2228501777
  0
ELLIPSE
  5
5D4
100
AcDbEntity
  8
DRAFT
100
AcDbEllipse
 62
7
  6
CONTINUOUS
 10
-19.5444600191
 20
0.2604858902
 30
0.0
 11
3.0084766185
 21
6.122338139
 31
0.0
 40
0.6070100789
 41
2.25132183
 42
3.8213546547
  0
ELLIPSE
  5
5D5
100
AcDbEntity
  8
DRAFT
100
AcDbEllipse
 62
7
  6
CONTINUOUS
 10
-11.8341600328
 20
4.1835150243
 30
0.0
 11
3.0121806208
 21
6.1298758922
 31
0.0
 40
0.6070100789
 41
-2.4618306525
 42
-0.8902708236
  0
ENDSEC
  0
SECTION
  2
OBJECTS
  0
DICTIONARY
  5
C
100
AcDbDictionary
280
0
281
1
  3
ACAD_GROUP
350
D
  3
ACAD_MLINESTYLE
350
17
  3
ACAD_LAYOUT
350
1A
  3
ACAD_PLOTSETTINGS
350
19
  3
ACAD_PLOTSTYLENAME
350
E
  0
DICTIONARY
  5
D
102
{ACAD_REACTORS
330
C
102
}
100
AcDbDictionary
280
0
281
1
  0
ACDBDICTIONARYWDFLT
  5
E
102
{ACAD_REACTORS
330
C
102
}
100
AcDbDictionary
281
1
  3
Normal
350
F
100
AcDbDictionaryWithDefault
340
F
  0
DICTIONARY
  5
17
102
{ACAD_REACTORS
330
C
102
}
100
AcDbDictionary
280
0
281
1
  3
Standard
350
18
  0
DICTIONARY
  5
19
102
{ACAD_REACTORS
330
C
102
}
100
AcDbDictionary
281
1
  0
DICTIONARY
  5
1A
102
{ACAD_REACTORS
330
C
102
}
100
AcDbDictionary
281
1
  3
Model
350
5D6
  3
Layout1
350
5D7
  0
ACDBPLACEHOLDER
  5
F
102
{ACAD_REACTORS
330
E
102
}
  0
MLINESTYLE
  5
18
102
{ACAD_REACTORS
330
17
102
}
100
AcDbMlineStyle
  2
STANDARD
 70
0
  3

 62
256
 51
90.0
 52
90.0
 71
2
 49
0.5
 62
256
  6
BYLAYER
 49
-0.5
 62
256
  6
BYLAYER
  0
LAYOUT
  5
5D6
102
{ACAD_REACTORS
330
1A
102
}
100
AcDbPlotSettings
  1

  2
none_device
  4
ISO_A4_(297.00_x_210.00_MM)
  6

 40
0.0
 41
0.0
 42
0.0
 43
0.0
 44
297.0
 45
210.0
 46
0.0
 47
0.0
 48
0.0
 49
0.0
140
0.0
141
0.0
142
1.0
143
1.0
 70
1024
 72
1
 73
0
 74
0
  7

 75
0
147
1.0
148
0.0
149
0.0
100
AcDbLayout
  1
Model
 70
0
 71
0
 10
0.0
 20
0.0
 11
297.0
 21
210.0
 12
0.0
 22
0.0
 32
0.0
 14
0.0
 24
0.0
 34
0.0
 15
0.0
 25
0.0
 35
0.0
146
0.0
 13
0.0
 23
0.0
 33
0.0
 16
1.0
 26
0.0
 36
0.0
 17
0.0
 27
1.0
 37
0.0
 76
0
330
212
345
0
346
0
  0
LAYOUT
  5
5D7
102
{ACAD_REACTORS
330
1A
102
}
100
AcDbPlotSettings
  1

  2
none_device
  4
ISO_A4_(297.00_x_210.00_MM)
  6

 40
0.0
 41
0.0
 42
0.0
 43
0.0
 44
297.0
 45
210.0
 46
0.0
 47
0.0
 48
0.0
 49
0.0
140
0.0
141
0.0
142
1.0
143
1.0
 70
0
 72
1
 73
0
 74
0
  7

 75
0
147
1.0
148
0.0
149
0.0
100
AcDbLayout
  1
Layout1
 70
0
 71
1
 10
0.0
 20
0.0
 11
297.0
 21
210.0
 12
0.0
 22
0.0
 32
0.0
 14
0.0
 24
0.0
 34
0.0
 15
0.0
 25
0.0
 35
0.0
146
0.0
 13
0.0
 23
0.0
 33
0.0
 16
1.0
 26
0.0
 36
0.0
 17
0.0
 27
1.0
 37
0.0
 76
0
330
213
345
0
346
0
  0
ENDSEC
  0
EOF
