  0
SECTION
  2
HEADER
  9
$ACADVER
  1
AC1021
  9
$DWGCODEPAGE
  3
ANSI_1252
  9
$EXTMAX
 10
297.0
 20
210.0
 30
0.0
  9
$EXTMIN
 10
0.0
 20
0.0
 30
0.0
  9
$LIMMIN
 10
0.0
 20
0.0
  9
$LIMMAX
 10
297.0
 20
210.0
  9
$VIEWCTR
 10
148.5
 20
105.0
  9
$VIEWSIZE
 40
210.0
  9
$CLAYER
  8
0
  9
$LTSCALE
 40
16.335
  9
$CELTYPE
  6
BYLAYER
  9
$DIMSCALE
 40
1.0
  9
$DIMASZ
 40
3.0
  9
$DIMEXO
 40
0.5
  9
$DIMDLI
 40
11.286
  9
$DIMEXE
 40
1.5
  9
$DIMCEN
 40
2.673
  9
$DIMLFAC
 40
1.0
  9
$DIMBLK
  1
_FILLED
  9
$DIMALT
 70
0
  9
$DIMALTF
 40
25.4
  9
$DIMTXT
 40
3.0
  9
$DIMTOL
 70
1
  9
$DIMLIM
 70
0
  9
$DIMTFAC
 40
1.0
  9
$DIMTP
 40
0.01
  9
$DIMTM
 40
0.01
  9
$DIMGAP
 40
0.625
  9
$DIMDSEP
 70
44
  9
$AUNITS
 70
0
  9
$PDMODE
 70
3
  9
$PDSIZE
 40
3.0
  9
$HANDSEED
  5
51C
  9
$TILEMODE
 70
1
  9
$MEASUREMENT
 70
1
  9
$INSUNITS
 70
4
  0
ENDSEC
  0
SECTION
  2
CLASSES
  0
CLASS
  1
ACDBDICTIONARYWDFLT
  2
AcDbDictionaryWithDefault
  3
AutoCAD 2000
 90
0
 91
1
280
0
281
0
  0
CLASS
  1
ACDBPLACEHOLDER
  2
AcDbPlaceHolder
  3
AutoCAD 2000
 90
0
 91
1
280
0
281
0
  0
CLASS
  1
LAYOUT
  2
AcDbLayout
  3
AutoCAD 2000
 90
0
 91
0
280
0
281
0
  0
ENDSEC
  0
SECTION
  2
TABLES
  0
TABLE
  2
VPORT
  5
8
100
AcDbSymbolTable
 70
2
  0
VPORT
  5
1F4
100
AcDbSymbolTableRecord
100
AcDbViewportTableRecord
  2
*ACTIVE
 70
0
 10
0.0
 20
0.0
 11
1.0
 21
1.0
 12
148.5
 22
105.0
 13
0.0
 23
0.0
 14
1.0
 24
1.0
 15
0.0
 25
0.0
 16
0.0
 26
0.0
 36
1.0
 17
0.0
 27
0.0
 37
0.0
 40
210.0
 41
1.4142857143
 42
50.0
 43
0.0
 44
0.0
 50
0.0
 51
0.0
 71
0
 72
100
 73
1
 74
1
 75
0
 76
0
 77
0
 78
0
  0
ENDTAB
  0
TABLE
  2
LTYPE
  5
5
100
AcDbSymbolTable
 70
6
  0
LTYPE
  5
14
100
AcDbSymbolTableRecord
100
AcDbLinetypeTableRecord
  2
BYBLOCK
 70
0
  3

 72
65
 73
0
 40
0.0
  0
LTYPE
  5
15
100
AcDbSymbolTableRecord
100
AcDbLinetypeTableRecord
  2
BYLAYER
 70
0
  3

 72
65
 73
0
 40
0.0
  0
LTYPE
  5
16
100
AcDbSymbolTableRecord
100
AcDbLinetypeTableRecord
  2
CONTINUOUS
 70
64
  3
Solid line
 72
65
 73
0
 40
0.0
  0
LTYPE
  5
1F5
100
AcDbSymbolTableRecord
100
AcDbLinetypeTableRecord
  2
CENTER
 70
64
  3
____ _ ____ _ ____ _ ____ _ ____ _ ____ _ ____
 72
65
 73
4
 40
0.6
 49
0.375
 74
0
 49
-0.075
 74
0
 49
0.075
 74
0
 49
-0.075
 74
0
  0
LTYPE
  5
1F6
100
AcDbSymbolTableRecord
100
AcDbLinetypeTableRecord
  2
HIDDEN
 70
64
  3
- - - - - - - - - - - - - - - - - - - -
 72
65
 73
2
 40
0.2
 49
0.1
 74
0
 49
-0.1
 74
0
  0
LTYPE
  5
1F7
100
AcDbSymbolTableRecord
100
AcDbLinetypeTableRecord
  2
PHANTOM
 70
64
  3
_____ _ _ _____ _ _ _____ _ _ _____
 72
65
 73
6
 40
0.8
 49
0.45
 74
0
 49
-0.05
 74
0
 49
0.1
 74
0
 49
-0.05
 74
0
 49
0.1
 74
0
 49
-0.05
 74
0
  0
LTYPE
  5
1F8
100
AcDbSymbolTableRecord
100
AcDbLinetypeTableRecord
  2
DOT
 70
64
  3
. . . . . . . . . . . . . . . . . . . .
 72
65
 73
2
 40
0.2
 49
0.1
 74
0
 49
-0.1
 74
0
  0
LTYPE
  5
1F9
100
AcDbSymbolTableRecord
100
AcDbLinetypeTableRecord
  2
DASHED
 70
64
  3
- - - - - - - - - - - - - - - - - - - -
 72
65
 73
2
 40
0.2
 49
0.1
 74
0
 49
-0.1
 74
0
  0
ENDTAB
  0
TABLE
  2
LAYER
  5
2
100
AcDbSymbolTable
 70
36
  0
LAYER
  5
10
100
AcDbSymbolTableRecord
100
AcDbLayerTableRecord
  2
0
 70
0
 62
7
  6
CONTINUOUS
370
-3
390
F
  0
LAYER
  5
1FA
100
AcDbSymbolTableRecord
100
AcDbLayerTableRecord
  2
DEFAULT_1
 70
0
 62
7
  6
CENTER
370
-3
390
F
  0
LAYER
  5
1FB
100
AcDbSymbolTableRecord
100
AcDbLayerTableRecord
  2
DEFAULT_2
 70
0
 62
7
  6
HIDDEN
370
-3
390
F
  0
LAYER
  5
1FC
100
AcDbSymbolTableRecord
100
AcDbLayerTableRecord
  2
DEFAULT_3
 70
0
 62
7
  6
PHANTOM
370
-3
390
F
  0
LAYER
  5
1FD
100
AcDbSymbolTableRecord
100
AcDbLayerTableRecord
  2
ASSI
 70
0
 62
7
  6
CONTINUOUS
370
-3
390
F
  0
LAYER
  5
1FE
100
AcDbSymbolTableRecord
100
AcDbLayerTableRecord
  2
COORDINATE
 70
0
 62
7
  6
CONTINUOUS
370
-3
390
F
  0
LAYER
  5
1FF
100
AcDbSymbolTableRecord
100
AcDbLayerTableRecord
  2
COORD_ORIGINE
 70
0
 62
7
  6
CONTINUOUS
370
-3
390
F
  0
LAYER
  5
200
100
AcDbSymbolTableRecord
100
AcDbLayerTableRecord
  2
COPY_PUBLISH
 70
0
 62
7
  6
CONTINUOUS
370
-3
390
F
  0
LAYER
  5
201
100
AcDbSymbolTableRecord
100
AcDbLayerTableRecord
  2
COSMETICHE
 70
0
 62
7
  6
CONTINUOUS
370
-3
390
F
  0
LAYER
  5
202
100
AcDbSymbolTableRecord
100
AcDbLayerTableRecord
  2
COSMETICI
 70
0
 62
7
  6
CONTINUOUS
370
-3
390
F
  0
LAYER
  5
203
100
AcDbSymbolTableRecord
100
AcDbLayerTableRecord
  2
CURVE
 70
0
 62
7
  6
CONTINUOUS
370
-3
390
F
  0
LAYER
  5
204
100
AcDbSymbolTableRecord
100
AcDbLayerTableRecord
  2
DRAFT
 70
0
 62
7
  6
CONTINUOUS
370
-3
390
F
  0
LAYER
  5
205
100
AcDbSymbolTableRecord
100
AcDbLayerTableRecord
  2
IMPORT
 70
0
 62
7
  6
CONTINUOUS
370
-3
390
F
  0
LAYER
  5
206
100
AcDbSymbolTableRecord
100
AcDbLayerTableRecord
  2
IMPORT_IGES
 70
0
 62
7
  6
CONTINUOUS
370
-3
390
F
  0
LAYER
  5
207
100
AcDbSymbolTableRecord
100
AcDbLayerTableRecord
  2
INCISIONI
 70
0
 62
7
  6
CONTINUOUS
370
-3
390
F
  0
LAYER
  5
208
100
AcDbSymbolTableRecord
100
AcDbLayerTableRecord
  2
INTF_1
 70
0
 62
7
  6
CONTINUOUS
370
-3
390
F
  0
LAYER
  5
209
100
AcDbSymbolTableRecord
100
AcDbLayerTableRecord
  2
INTF_2
 70
0
 62
7
  6
CONTINUOUS
370
-3
390
F
  0
LAYER
  5
20A
100
AcDbSymbolTableRecord
100
AcDbLayerTableRecord
  2
NONE
 70
0
 62
7
  6
CONTINUOUS
370
-3
390
F
  0
LAYER
  5
20B
100
AcDbSymbolTableRecord
100
AcDbLayerTableRecord
  2
NOTE
 70
0
 62
7
  6
CONTINUOUS
370
-3
390
F
  0
LAYER
  5
20C
100
AcDbSymbolTableRecord
100
AcDbLayerTableRecord
  2
PIANI
 70
0
 62
7
  6
CONTINUOUS
370
-3
390
F
  0
LAYER
  5
20D
100
AcDbSymbolTableRecord
100
AcDbLayerTableRecord
  2
PIANI_ORIGINE
 70
0
 62
7
  6
CONTINUOUS
370
-3
390
F
  0
LAYER
  5
20E
100
AcDbSymbolTableRecord
100
AcDbLayerTableRecord
  2
PIANI_RIFERIMENTO
 70
0
 62
7
  6
CONTINUOUS
370
-3
390
F
  0
LAYER
  5
20F
100
AcDbSymbolTableRecord
100
AcDbLayerTableRecord
  2
PIANI_SFORMO
 70
0
 62
7
  6
CONTINUOUS
370
-3
390
F
  0
LAYER
  5
210
100
AcDbSymbolTableRecord
100
AcDbLayerTableRecord
  2
PUNTI
 70
0
 62
7
  6
CONTINUOUS
370
-3
390
F
  0
LAYER
  5
211
100
AcDbSymbolTableRecord
100
AcDbLayerTableRecord
  2
RACCORDO
 70
0
 62
7
  6
CONTINUOUS
370
-3
390
F
  0
LAYER
  5
212
100
AcDbSymbolTableRecord
100
AcDbLayerTableRecord
  2
RGB__255__255__255__
 70
0
 62
7
  6
CONTINUOUS
370
-3
390
F
  0
LAYER
  5
213
100
AcDbSymbolTableRecord
100
AcDbLayerTableRecord
  2
RGB____0____0____0__
 70
0
 62
7
  6
CONTINUOUS
370
-3
390
F
  0
LAYER
  5
214
100
AcDbSymbolTableRecord
100
AcDbLayerTableRecord
  2
SIMBOLI
 70
0
 62
7
  6
CONTINUOUS
370
-3
390
F
  0
LAYER
  5
215
100
AcDbSymbolTableRecord
100
AcDbLayerTableRecord
  2
SMUSSO
 70
0
 62
7
  6
CONTINUOUS
370
-3
390
F
  0
LAYER
  5
216
100
AcDbSymbolTableRecord
100
AcDbLayerTableRecord
  2
SNAPLINE
 70
0
 62
7
  6
CONTINUOUS
370
-3
390
F
  0
LAYER
  5
217
100
AcDbSymbolTableRecord
100
AcDbLayerTableRecord
  2
SUPERFICI
 70
0
 62
7
  6
CONTINUOUS
370
-3
390
F
  0
LAYER
  5
218
100
AcDbSymbolTableRecord
100
AcDbLayerTableRecord
  2
TRASH
 70
0
 62
7
  6
CONTINUOUS
370
-3
390
F
  0
LAYER
  5
219
100
AcDbSymbolTableRecord
100
AcDbLayerTableRecord
  2
XSEC_DATUMS
 70
0
 62
7
  6
CONTINUOUS
370
-3
390
F
  0
ENDTAB
  0
TABLE
  2
STYLE
  5
3
100
AcDbSymbolTable
 70
1
  0
STYLE
  5
11
100
AcDbSymbolTableRecord
100
AcDbTextStyleTableRecord
  2
STANDARD
 70
0
 40
0.0
 41
0.8
 50
0.0
 71
0
 42
0.2
  3
txt
  4

  0
STYLE
  5
21A
100
AcDbSymbolTableRecord
100
AcDbTextStyleTableRecord
  2
TEXTSTYLE_1
 70
0
 40
0.0
 41
0.8
 50
0.0
 71
0
 42
0.2
  3
gdt
  4

  0
ENDTAB
  0
TABLE
  2
VIEW
  5
6
100
AcDbSymbolTable
 70
0
  0
ENDTAB
  0
TABLE
  2
UCS
  5
7
100
AcDbSymbolTable
 70
0
  0
ENDTAB
  0
TABLE
  2
APPID
  5
9
100
AcDbSymbolTable
 70
1
  0
APPID
  5
21B
100
AcDbSymbolTableRecord
100
AcDbRegAppTableRecord
  2
ACAD
 70
0
  0
ENDTAB
  0
TABLE
  2
BLOCK_RECORD
  5
1
100
AcDbSymbolTable
 70
0
  0
BLOCK_RECORD
  5
21C
100
AcDbSymbolTableRecord
100
AcDbBlockTableRecord
  2
*Model_Space
  0
BLOCK_RECORD
  5
21D
100
AcDbSymbolTableRecord
100
AcDbBlockTableRecord
  2
*Paper_Space
  0
ENDTAB
  0
TABLE
  2
DIMSTYLE
  5
A
100
AcDbSymbolTable
 70
1
100
AcDbDimStyleTable
 71
0
  0
DIMSTYLE
105
21E
100
AcDbSymbolTableRecord
100
AcDbDimStyleTableRecord
  2
STANDARD
 70
0
  3

  4

 40
1.0
 41
3.0
 42
0.5
 43
0.38
 44
1.5
 45
0.0
 46
0.0
 47
0.01
 48
0.01
140
3.0
141
0.09
142
0.0
143
25.4
144
1.0
145
0.0
146
1.0
147
0.625
 71
1.0
 72
0.0
 73
0
 74
0
 75
0
 76
0
 77
1
 78
8
170
0
171
1
172
0
173
0
174
0
175
0
176
0
177
0
178
0
270
2
271
2
272
2
273
2
274
2
275
0
280
0
281
0
282
0
283
1
284
8
285
0
286
0
287
3
288
0
340
11
278
44
  0
ENDTAB
  0
ENDSEC
  0
SECTION
  2
BLOCKS
  0
BLOCK
  5
20
100
AcDbEntity
  8
0
100
AcDbBlockBegin
  2
*Model_Space
 70
0
 10
0.0
 20
0.0
 30
0.0
  3
*Model_Space
  1

  0
ENDBLK
  5
21
100
AcDbEntity
  8
0
100
AcDbBlockEnd
  0
BLOCK
  5
1C
100
AcDbEntity
  8
0
100
AcDbBlockBegin
  2
*Paper_Space
 70
0
 10
0.0
 20
0.0
 30
0.0
  3
*Paper_Space
  1

  0
ENDBLK
  5
1D
100
AcDbEntity
  8
0
100
AcDbBlockEnd
  0
ENDSEC
  0
SECTION
  2
ENTITIES
  0
LWPOLYLINE
  5
21F
100
AcDbEntity
  8
0
100
AcDbPolyline
 62
253
  6
CONTINUOUS
 90
15
 70
0
 10
-65.2883185949
 20
14.7886293928
 10
-65.2783562677
 20
14.6308922507
 10
-65.241944358
 20
14.4489266554
 10
-65.178683799
 20
14.2679739958
 10
-65.088531145
 20
14.0889938675
 10
-64.9710687874
 20
13.912294606
 10
-64.8257513228
 20
13.7384265268
 10
-64.6530590923
 20
13.5690966554
 10
-64.4544764823
 20
13.4063189667
 10
-64.2312865245
 20
13.2513425047
 10
-63.9842839975
 20
13.1048954662
 10
-63.7149425478
 20
12.9680355141
 10
-63.4247905688
 20
12.8416738491
 10
-63.1153424198
 20
12.7265954277
 10
-62.7883185949
 20
12.6235658834
  0
LINE
  5
220
100
AcDbEntity
  8
0
100
AcDbLine
 62
7
  6
CONTINUOUS
 10
-65.2883185949
 20
14.7886293928
 11
-65.2883185949
 21
13.0565785853
  0
LINE
  5
221
100
AcDbEntity
  8
0
100
AcDbLine
 62
7
  6
CONTINUOUS
 10
-65.0883185949
 20
12.1905531815
 11
-65.0883185949
 21
12.3613865518
  0
LINE
  5
222
100
AcDbEntity
  8
0
100
AcDbLine
 62
253
  6
CONTINUOUS
 10
-62.7883185949
 20
10.8915150758
 11
-62.7883185949
 21
12.6235658834
  0
LINE
  5
223
100
AcDbEntity
  8
0
100
AcDbLine
 62
253
  6
CONTINUOUS
 10
-62.6883185949
 20
10.1120922124
 11
-62.6883185949
 21
10.8626475624
  0
LWPOLYLINE
  5
224
100
AcDbEntity
  8
0
100
AcDbPolyline
 62
253
  6
CONTINUOUS
 90
16
 70
0
 10
-62.7883185949
 20
12.6235658834
 10
-62.7855392471
 20
12.7171587723
 10
-62.7773481199
 20
12.8134838071
 10
-62.7640054555
 20
12.911391303
 10
-62.7459469791
 20
13.0091573051
 10
-62.723449932
 20
13.1063374623
 10
-62.6963402889
 20
13.2037760168
 10
-62.664602501
 20
13.3009976737
 10
-62.6286180726
 20
13.396369447
 10
-62.5886202104
 20
13.4889379625
 10
-62.5448946135
 20
13.5776848699
 10
-62.497889357
 20
13.6613675559
 10
-62.4481697769
 20
13.7387180767
 10
-62.3962982212
 20
13.8086547484
 10
-62.3428113262
 20
13.8702532836
 10
-62.2883185949
 20
13.9226039891
  0
LWPOLYLINE
  5
225
100
AcDbEntity
  8
0
100
AcDbPolyline
 62
7
  6
CONTINUOUS
 90
10
 70
0
 10
-65.2883185949
 20
14.7886293928
 10
-65.2784648087
 20
14.9869854318
 10
-65.2482913336
 20
15.1875104659
 10
-65.1969914735
 20
15.388753331
 10
-65.1240829378
 20
15.588873678
 10
-65.029031664
 20
15.7867909699
 10
-64.910697982
 20
15.9823685076
 10
-64.7679645144
 20
16.1748437783
 10
-64.6003136662
 20
16.3626302888
 10
-64.4070738807
 20
16.5445583389
  0
LWPOLYLINE
  5
226
100
AcDbEntity
  8
0
100
AcDbPolyline
 62
7
  6
CONTINUOUS
 90
3
 70
0
 10
-65.2321294482
 20
12.6828813539
 10
-65.2737996267
 20
12.8676671661
 10
-65.2881361689
 20
13.0565786432
  0
LINE
  5
227
100
AcDbEntity
  8
0
100
AcDbLine
 62
7
  6
CONTINUOUS
 10
-65.1627394558
 20
12.5002577688
 11
-65.2321294482
 21
12.6828813539
  0
LINE
  5
228
100
AcDbEntity
  8
IMPORT_IGES
100
AcDbLine
 62
7
  6
CONTINUOUS
 10
-43.1826162901
 20
22.6989175213
 11
-43.1826162901
 21
22.0303574476
  0
LWPOLYLINE
  5
229
100
AcDbEntity
  8
IMPORT_IGES
100
AcDbPolyline
 62
7
  6
CONTINUOUS
 90
12
 70
0
 10
-43.1825775563
 20
22.6989175184
 10
-43.1771821806
 20
22.8127055443
 10
-43.1609819971
 20
22.9265170387
 10
-43.1339060721
 20
23.0398260233
 10
-43.0960253809
 20
23.1526352663
 10
-43.0475790502
 20
23.264186015
 10
-42.9884972575
 20
23.3744707999
 10
-42.9188498251
 20
23.4834970905
 10
-42.8390853467
 20
23.5905285423
 10
-42.7493533533
 20
23.6953197073
 10
-42.6495043139
 20
23.7981160337
 10
-42.5395382283
 20
23.8989175213
  0
LWPOLYLINE
  5
22A
100
AcDbEntity
  8
0
100
AcDbPolyline
 62
7
  6
CONTINUOUS
 90
8
 70
0
 10
-43.3824338639
 20
22.7255495384
 10
-43.3690351552
 20
22.9096207505
 10
-43.3275200567
 20
23.0948512452
 10
-43.2582779503
 20
23.2792385124
 10
-43.1621000962
 20
23.4598002043
 10
-43.039250248
 20
23.635542205
 10
-42.8894646522
 20
23.8074586304
 10
-42.7127433088
 20
23.9755494805
  0
LWPOLYLINE
  5
22B
100
AcDbEntity
  8
0
100
AcDbPolyline
 62
253
  6
CONTINUOUS
 90
19
 70
0
 10
-63.75242021
 20
16.6546547966
 10
-63.9152839937
 20
16.4971504592
 10
-64.0487277123
 20
16.3359045708
 10
-64.1527513658
 20
16.1709171316
 10
-64.2276161003
 20
16.0009054155
 10
-64.2730607697
 20
15.8271521484
 10
-64.2883019353
 20
15.6535055088
 10
-64.272718839
 20
15.4799834948
 10
-64.2269322389
 20
15.3065681082
 10
-64.1520209709
 20
15.1370535326
 10
-64.0473922107
 20
14.9715190637
 10
-63.9136387825
 20
14.8098854059
 10
-63.7536179955
 20
14.6557088553
 10
-63.5667739434
 20
14.509128822
 10
-63.3536625325
 20
14.370005896
 10
-63.1188087894
 20
14.2414781431
 10
-62.8637210566
 20
14.1245915853
 10
-62.5868909918
 20
14.0183002006
 10
-62.2883185949
 20
13.9226039891
  0
LWPOLYLINE
  5
22C
100
AcDbEntity
  8
0
100
AcDbPolyline
 62
7
  6
CONTINUOUS
 90
3
 70
0
 10
-9.4070738807
 20
64.175955547
 10
-9.1505713084
 20
64.3777588878
 10
-8.8701178303
 20
64.5612300807
  0
LWPOLYLINE
  5
22D
100
AcDbEntity
  8
0
100
AcDbPolyline
 62
253
  6
CONTINUOUS
 90
9
 70
0
 10
-9.4070738807
 20
64.175955547
 10
-9.3418361953
 20
64.2246751943
 10
-9.2725578657
 20
64.2626056138
 10
-9.1968229103
 20
64.2916222451
 10
-9.1154074178
 20
64.3110945566
 10
-9.029290579
 20
64.320526868
 10
-8.9394464089
 20
64.3196056767
 10
-8.8468043894
 20
64.3081397547
 10
-8.75242021
 20
64.2860520048
  0
LWPOLYLINE
  5
22E
100
AcDbEntity
  8
0
100
AcDbPolyline
 62
7
  6
CONTINUOUS
 90
16
 70
0
 10
-8.8701178303
 20
64.5612300807
 10
-8.5680407254
 20
64.7266242967
 10
-8.2455277073
 20
64.8745899223
 10
-7.904916629
 20
65.0050038982
 10
-7.5509871883
 20
65.1170668328
 10
-7.1877791772
 20
65.2107127943
 10
-6.816116497
 20
65.2867455036
 10
-6.4370608076
 20
65.3455885831
 10
-6.0529735152
 20
65.3873257622
 10
-5.6659856203
 20
65.4120897423
 10
-5.2770464221
 20
65.420019542
 10
-4.8883624411
 20
65.4111235097
 10
-4.502110763
 20
65.3854430149
 10
-4.1191911995
 20
65.342880204
 10
-3.7413293403
 20
65.2832774278
 10
-3.371159289
 20
65.2066098757
  0
LWPOLYLINE
  5
22F
100
AcDbEntity
  8
0
100
AcDbPolyline
 62
7
  6
CONTINUOUS
 90
4
 70
0
 10
-64.7947832377
 20
11.9738104154
 10
-64.9434816167
 20
12.1442571676
 10
-65.0660117056
 20
12.3197613298
 10
-65.1627394558
 20
12.5002577688
  0
LINE
  5
230
100
AcDbEntity
  8
0
100
AcDbLine
 62
253
  6
CONTINUOUS
 10
-42.7127433088
 20
23.7330103863
 11
-42.7127433088
 21
23.9755494805
  0
LINE
  5
231
100
AcDbEntity
  8
IMPORT_IGES
100
AcDbLine
 62
253
  6
CONTINUOUS
 10
-40.7826162901
 20
20.6204565522
 11
-40.7826162901
 21
20.5316184577
  0
LINE
  5
232
100
AcDbEntity
  8
0
100
AcDbLine
 62
7
  6
CONTINUOUS
 10
-64.4070738807
 20
16.5445583389
 11
-9.4070738807
 21
64.175955547
  0
LINE
  5
233
100
AcDbEntity
  8
0
100
AcDbLine
 62
253
  6
CONTINUOUS
 10
-63.75242021
 20
16.6546547966
 11
-8.75242021
 21
64.2860520048
  0
LWPOLYLINE
  5
234
100
AcDbEntity
  8
0
100
AcDbPolyline
 62
253
  6
CONTINUOUS
 90
7
 70
0
 10
-3.2883185949
 20
65.0181028123
 10
-3.2356723891
 20
65.0588817924
 10
-3.184154668
 20
65.0893099991
 10
-3.1342990811
 20
65.1093760313
 10
-3.0868830916
 20
65.119161284
 10
-3.0420246253
 20
65.1190438269
 10
-3.0109684968
 20
65.1128463314
  0
LINE
  5
235
100
AcDbEntity
  8
0
100
AcDbLine
 62
7
  6
CONTINUOUS
 10
40.4148435578
 20
-38.5519674071
 11
40.0224586518
 21
-38.6231708302
  0
LWPOLYLINE
  5
236
100
AcDbEntity
  8
0
100
AcDbPolyline
 62
7
  6
CONTINUOUS
 90
45
 70
0
 10
39.1430145045
 20
-42.3988476648
 10
39.2004651247
 20
-42.3923467783
 10
39.2589018498
 20
-42.3803646675
 10
39.318350976
 20
-42.3628596693
 10
39.378786207
 20
-42.3398734469
 10
39.4397974544
 20
-42.3115511701
 10
39.501379067
 20
-42.2778570245
 10
39.563536696
 20
-42.2388268245
 10
39.6258772063
 20
-42.1947131833
 10
39.688399056
 20
-42.1454854419
 10
39.7511037869
 20
-42.0911742593
 10
39.8136028902
 20
-42.0321242256
 10
39.8758924288
 20
-41.968309775
 10
39.9379763398
 20
-41.8997564733
 10
39.9994779247
 20
-41.8268856074
 10
40.0604032826
 20
-41.7496557887
 10
40.1207463144
 20
-41.6681084058
 10
40.1801120247
 20
-41.582788912
 10
40.2384795789
 20
-41.4936952798
 10
40.2958698115
 20
-41.4008295366
 10
40.3519502309
 20
-41.3047432174
 10
40.406715155
 20
-41.205418957
 10
40.460170266
 20
-41.1028741206
 10
40.5120001179
 20
-40.9977123385
 10
40.5621996431
 20
-40.8899111472
 10
40.6107739094
 20
-40.7794930102
 10
40.6574226746
 20
-40.6671289481
 10
40.7021360281
 20
-40.5528021545
 10
40.7449238806
 20
-40.4365294357
 10
40.7855157213
 20
-40.3190322317
 10
40.823901838
 20
-40.2002823158
 10
40.8600919429
 20
-40.0803079147
 10
40.8938446632
 20
-39.9599151476
 10
40.9251271175
 20
-39.8391880327
 10
40.9539721872
 20
-39.718042552
 10
40.980237143
 20
-39.5970327705
 10
41.0039315685
 20
-39.4760500215
 10
41.0250458803
 20
-39.3552029718
 10
41.0434085987
 20
-39.235371687
 10
41.0589913211
 20
-39.1165830194
 10
41.0718224503
 20
-38.9988101166
 10
41.0818157149
 20
-38.8828524868
 10
41.0889423579
 20
-38.7689766326
 10
41.0932311365
 20
-38.6569160513
 10
41.0946820505
 20
-38.546670743
  0
LINE
  5
237
100
AcDbEntity
  8
0
100
AcDbLine
 62
7
  6
CONTINUOUS
 10
-15.2127433088
 20
47.7912480846
 11
-42.7127433088
 21
23.9755494805
  0
LINE
  5
238
100
AcDbEntity
  8
IMPORT_IGES
100
AcDbLine
 62
7
  6
CONTINUOUS
 10
-42.5395382283
 20
23.8989175213
 11
-15.0395382283
 21
47.7146161252
  0
LWPOLYLINE
  5
239
100
AcDbEntity
  8
0
100
AcDbPolyline
 62
7
  6
CONTINUOUS
 90
3
 70
0
 10
-15.2127433088
 20
47.7912480846
 10
-15.1125376217
 20
47.8742417606
 10
-15.0063337592
 20
47.9550056663
  0
LWPOLYLINE
  5
23A
100
AcDbEntity
  8
IMPORT_IGES
100
AcDbPolyline
 62
7
  6
CONTINUOUS
 90
34
 70
0
 10
-15.0395382283
 20
47.7146161252
 10
-14.9199259094
 20
47.8126351317
 10
-14.7917998284
 20
47.9072705577
 10
-14.6551599852
 20
47.9985224035
 10
-14.5096559787
 20
48.0865781373
 10
-14.3556382099
 20
48.1712502907
 10
-14.1941578825
 20
48.2519764585
 10
-14.0251671525
 20
48.328730137
 10
-13.8487138638
 20
48.4015378299
 10
-13.665992751
 20
48.4699166432
 10
-13.4769635385
 20
48.5338372239
 10
-13.2816665018
 20
48.5933289249
 10
-13.081417202
 20
48.6479969113
 10
-12.8761831523
 20
48.6978094779
 10
-12.6659968394
 20
48.7427983298
 10
-12.4522712848
 20
48.7826637483
 10
-12.2349837683
 20
48.8173719647
 10
-12.0141570101
 20
48.8469567476
 10
-11.7912721918
 20
48.8712196843
 10
-11.5663152306
 20
48.8901258496
 10
-11.3393002093
 20
48.9037101687
 10
-11.1117505582
 20
48.9118790048
 10
-10.8836627161
 20
48.9145967791
 10
-10.6550402441
 20
48.9118990704
 10
-10.4274172554
 20
48.9037989787
 10
-10.2007992861
 20
48.8902610162
 10
-9.9751808001
 20
48.8713206706
 10
-9.7520793028
 20
48.8470975052
 10
-9.5315097329
 20
48.8175566089
 10
-9.3134571518
 20
48.7827328927
 10
-9.0993942481
 20
48.7428506535
 10
-8.889811918
 20
48.6979846568
 10
-8.6842192654
 20
48.6480601371
 10
-8.4826162901
 20
48.5930770943
  0
LWPOLYLINE
  5
23B
100
AcDbEntity
  8
0
100
AcDbPolyline
 62
7
  6
CONTINUOUS
 90
8
 70
0
 10
-15.0063337592
 20
47.9550056663
 10
-14.8941317212
 20
48.0335398019
 10
-14.7757447756
 20
48.1099555385
 10
-14.6513596545
 20
48.1841415049
 10
-14.5215365549
 20
48.2557635875
 10
-14.3864622091
 20
48.3247104153
 10
-14.2459498849
 20
48.3910933594
 10
-14.0999995822
 20
48.4549124197
  0
LINE
  5
23C
100
AcDbEntity
  8
0
100
AcDbLine
 62
7
  6
CONTINUOUS
 10
31.6648906229
 20
-35.0939013776
 11
27.902717042
 21
-36.1275691952
  0
LINE
  5
23D
100
AcDbEntity
  8
0
100
AcDbLine
 62
7
  6
CONTINUOUS
 10
26.4643441439
 20
-35.7123467053
 11
31.5739159838
 21
-34.3084745834
  0
LINE
  5
23E
100
AcDbEntity
  8
0
100
AcDbLine
 62
7
  6
CONTINUOUS
 10
31.4276000032
 20
-33.045259991
 11
24.1444380828
 21
-35.0426475108
  0
LWPOLYLINE
  5
23F
100
AcDbEntity
  8
0
100
AcDbPolyline
 62
7
  6
CONTINUOUS
 90
9
 70
0
 10
40.2963495966
 20
-37.0760636816
 10
40.2388989763
 20
-37.0825645681
 10
40.1804622512
 20
-37.0945466788
 10
40.121013125
 20
-37.112051677
 10
40.060577894
 20
-37.1350378994
 10
39.9995666466
 20
-37.1633601762
 10
39.937985034
 20
-37.1970543219
 10
39.875827405
 20
-37.2360845219
 10
39.8134868947
 20
-37.2801981631
  0
LINE
  5
240
100
AcDbEntity
  8
0
100
AcDbLine
 62
7
  6
CONTINUOUS
 10
39.0558532375
 20
-42.2985124857
 11
38.9847455207
 21
-42.2833508351
  0
LINE
  5
241
100
AcDbEntity
  8
0
100
AcDbLine
 62
7
  6
CONTINUOUS
 10
36.9702729704
 20
-45.4516428119
 11
35.2382221628
 21
-44.9516428119
  0
LINE
  5
242
100
AcDbEntity
  8
0
100
AcDbLine
 62
7
  6
CONTINUOUS
 10
-28.5012475555
 20
-26.551642812
 11
-26.7691967479
 21
-27.051642812
  0
LINE
  5
243
100
AcDbEntity
  8
0
100
AcDbLine
 62
7
  6
CONTINUOUS
 10
-26.5959916673
 20
-27.101642812
 11
-2.260677821
 21
-34.126642812
  0
LINE
  5
244
100
AcDbEntity
  8
0
100
AcDbLine
 62
7
  6
CONTINUOUS
 10
35.0650170819
 20
-44.9016428119
 11
10.7297032355
 21
-37.8766428119
  0
LINE
  5
245
100
AcDbEntity
  8
0
100
AcDbLine
 62
7
  6
CONTINUOUS
 10
36.2723801882
 20
-45.2200709777
 11
34.318110781
 21
-44.6559219936
  0
LINE
  5
246
100
AcDbEntity
  8
0
100
AcDbLine
 62
7
  6
CONTINUOUS
 10
-29.1991403385
 20
-26.3200709805
 11
-27.2448709317
 21
-26.8842199645
  0
LINE
  5
247
100
AcDbEntity
  8
0
100
AcDbLine
 62
7
  6
CONTINUOUS
 10
9.9955197239
 20
-37.6345947464
 11
34.1390997863
 21
-44.6042459705
  0
LINE
  5
248
100
AcDbEntity
  8
0
100
AcDbLine
 62
7
  6
CONTINUOUS
 10
-2.922279876
 20
-33.9055472083
 11
-27.0658599385
 21
-26.9358959841
  0
LINE
  5
249
100
AcDbEntity
  8
0
100
AcDbLine
 62
7
  6
CONTINUOUS
 10
9.8878521542
 20
-36.9316138331
 11
-2.5244863394
 21
-33.3484803478
  0
LINE
  5
24A
100
AcDbEntity
  8
0
100
AcDbLine
 62
253
  6
CONTINUOUS
 10
9.8767768987
 20
-36.8593014993
 11
-2.5789800079
 21
-33.2636341978
  0
LINE
  5
24B
100
AcDbEntity
  8
0
100
AcDbLine
 62
7
  6
CONTINUOUS
 10
34.9536393731
 20
-44.8646859312
 11
34.1390997863
 21
-44.6042459706
  0
LINE
  5
24C
100
AcDbEntity
  8
0
100
AcDbLine
 62
7
  6
CONTINUOUS
 10
35.1119107307
 20
-44.9097306862
 11
34.3181107794
 21
-44.655921993
  0
LINE
  5
24D
100
AcDbEntity
  8
0
100
AcDbLine
 62
7
  6
CONTINUOUS
 10
9.9955197239
 20
-37.6345947464
 11
10.7297032355
 21
-37.8766428119
  0
LINE
  5
24E
100
AcDbEntity
  8
0
100
AcDbLine
 62
7
  6
CONTINUOUS
 10
-28.5012475555
 20
-26.551642812
 11
-29.1991403388
 21
-26.3200709774
  0
LINE
  5
24F
100
AcDbEntity
  8
0
100
AcDbLine
 62
7
  6
CONTINUOUS
 10
-26.89550818
 20
-27.0097306863
 11
-26.7691967479
 21
-27.051642812
  0
LINE
  5
250
100
AcDbEntity
  8
0
100
AcDbLine
 62
7
  6
CONTINUOUS
 10
-26.5959916673
 20
-27.101642812
 11
-26.7073693761
 21
-27.0646859313
  0
LINE
  5
251
100
AcDbEntity
  8
0
100
AcDbLine
 62
7
  6
CONTINUOUS
 10
34.9536393731
 20
-44.8646859312
 11
35.0650170819
 21
-44.9016428119
  0
LINE
  5
252
100
AcDbEntity
  8
0
100
AcDbLine
 62
7
  6
CONTINUOUS
 10
35.2382221628
 20
-44.9516428119
 11
35.1119107307
 21
-44.9097306862
  0
LINE
  5
253
100
AcDbEntity
  8
0
100
AcDbLine
 62
7
  6
CONTINUOUS
 10
36.272380187
 20
-45.2200709773
 11
36.9702729704
 21
-45.4516428119
  0
LINE
  5
254
100
AcDbEntity
  8
0
100
AcDbLine
 62
7
  6
CONTINUOUS
 10
-2.922279876
 20
-33.9055472083
 11
-2.260677821
 21
-34.126642812
  0
LINE
  5
255
100
AcDbEntity
  8
0
100
AcDbLine
 62
7
  6
CONTINUOUS
 10
-26.89550818
 20
-27.0097306863
 11
-27.2448709305
 21
-26.8842199619
  0
LINE
  5
256
100
AcDbEntity
  8
0
100
AcDbLine
 62
7
  6
CONTINUOUS
 10
-26.7073693761
 20
-27.0646859313
 11
-27.0658599385
 21
-26.9358959841
  0
LINE
  5
257
100
AcDbEntity
  8
0
100
AcDbLine
 62
7
  6
CONTINUOUS
 10
-29.1991403388
 20
-26.3200709774
 11
-32.4064895178
 21
1.3704811278
  0
LINE
  5
258
100
AcDbEntity
  8
0
100
AcDbLine
 62
7
  6
CONTINUOUS
 10
-24.037058972
 20
-17.5880800717
 11
-24.0932143878
 21
-16.3419849439
  0
LINE
  5
259
100
AcDbEntity
  8
0
100
AcDbLine
 62
7
  6
CONTINUOUS
 10
-28.1473024435
 20
2.6235658834
 11
-28.1473024435
 21
2.1905531815
  0
LINE
  5
25A
100
AcDbEntity
  8
0
100
AcDbLine
 62
7
  6
CONTINUOUS
 10
-27.9740973627
 20
2.1405531815
 11
-27.9740973627
 21
2.5735658834
  0
LINE
  5
25B
100
AcDbEntity
  8
0
100
AcDbLine
 62
7
  6
CONTINUOUS
 10
-23.5888405804
 20
7.2373350628
 11
-23.5888405804
 21
7.064129982
  0
LWPOLYLINE
  5
25C
100
AcDbEntity
  8
0
100
AcDbPolyline
 62
7
  6
CONTINUOUS
 90
22
 70
0
 10
-27.9740973627
 20
2.5735658834
 10
-27.972592795
 20
2.6406006496
 10
-27.9683729656
 20
2.7088018698
 10
-27.9614378744
 20
2.7781695441
 10
-27.9517109517
 20
2.8490910603
 10
-27.9392687673
 20
2.9211790305
 10
-27.9243410309
 20
2.9932712909
 10
-27.9068940631
 20
3.0653617328
 10
-27.8869615432
 20
3.1374564648
 10
-27.8648742186
 20
3.2084116493
 10
-27.8406025105
 20
3.2782092911
 10
-27.8141759977
 20
3.3468673853
 10
-27.7860141645
 20
3.4132960799
 10
-27.7560918319
 20
3.4774659484
 10
-27.7244341789
 20
3.5394064173
 10
-27.6915362268
 20
3.5981159142
 10
-27.6573776091
 20
3.6535537429
 10
-27.6219786923
 20
3.7057605997
 10
-27.5858955971
 20
3.753857001
 10
-27.5493136973
 20
3.7975497858
 10
-27.5120476192
 20
3.8371321151
 10
-27.4740973627
 20
3.8726039891
  0
LINE
  5
25D
100
AcDbEntity
  8
0
100
AcDbLine
 62
7
  6
CONTINUOUS
 10
45.7465766715
 20
-33.5648946919
 11
43.3233432869
 21
-33.3303195951
  0
LINE
  5
25E
100
AcDbEntity
  8
0
100
AcDbLine
 62
253
  6
CONTINUOUS
 10
43.2737383225
 20
-32.6877951745
 11
45.6969717071
 21
-32.9223702713
  0
LINE
  5
25F
100
AcDbEntity
  8
0
100
AcDbLine
 62
7
  6
CONTINUOUS
 10
39.5436329724
 20
-39.2563393841
 11
39.2226863038
 21
-39.1941649895
  0
LWPOLYLINE
  5
260
100
AcDbEntity
  8
0
100
AcDbPolyline
 62
7
  6
CONTINUOUS
 90
3
 70
0
 10
40.0648793194
 20
-39.3584686699
 10
39.8891415828
 20
-39.3238832538
 10
39.5436329724
 20
-39.2563393841
  0
LWPOLYLINE
  5
261
100
AcDbEntity
  8
0
100
AcDbPolyline
 62
7
  6
CONTINUOUS
 90
16
 70
0
 10
-21.4905436161
 20
-21.1843257305
 10
-21.598062508
 20
-21.1570619378
 10
-21.7080933531
 20
-21.1357914568
 10
-21.8206361513
 20
-21.1205142875
 10
-21.9365271653
 20
-21.1112201973
 10
-22.0549301324
 20
-21.1079194189
 10
-22.1733362649
 20
-21.1106426493
 10
-22.2917434397
 20
-21.119505112
 10
-22.4101537798
 20
-21.1343915836
 10
-22.5260648666
 20
-21.1549870914
 10
-22.6394314674
 20
-21.1814016609
 10
-22.750298815
 20
-21.2135252667
 10
-22.8563001891
 20
-21.2507128592
 10
-22.9566466829
 20
-21.292749422
 10
-23.0521272033
 20
-21.3398499716
 10
-23.1427417502
 20
-21.3920145079
  0
LINE
  5
262
100
AcDbEntity
  8
0
100
AcDbLine
 62
7
  6
CONTINUOUS
 10
39.6734724366
 20
-39.1795751645
 11
39.273950842
 21
-39.0760245904
  0
LWPOLYLINE
  5
263
100
AcDbEntity
  8
0
100
AcDbPolyline
 62
7
  6
CONTINUOUS
 90
5
 70
0
 10
38.9569708889
 20
-42.3795646387
 10
38.9785821818
 20
-42.3852918017
 10
39.032073033
 20
-42.3953201765
 10
39.0868811881
 20
-42.3998471468
 10
39.1430145045
 20
-42.3988476648
  0
LWPOLYLINE
  5
264
100
AcDbEntity
  8
0
100
AcDbPolyline
 62
7
  6
CONTINUOUS
 90
5
 70
0
 10
40.4823932121
 20
-37.0953467076
 10
40.4607819192
 20
-37.0896195446
 10
40.407291068
 20
-37.0795911699
 10
40.3524829129
 20
-37.0750641996
 10
40.2963495966
 20
-37.0760636816
  0
LINE
  5
265
100
AcDbEntity
  8
0
100
AcDbLine
 62
7
  6
CONTINUOUS
 10
9.2581784137
 20
-32.8203608113
 11
-3.2877534456
 21
-29.1986622431
  0
LINE
  5
266
100
AcDbEntity
  8
0
100
AcDbLine
 62
7
  6
CONTINUOUS
 10
-26.1884224668
 20
-22.3753835633
 11
32.1079354647
 21
-39.2040925355
  0
LINE
  5
267
100
AcDbEntity
  8
0
100
AcDbLine
 62
7
  6
CONTINUOUS
 10
32.0107245995
 20
-38.3971773159
 11
-25.9419240241
 21
-21.6676886743
  0
LINE
  5
268
100
AcDbEntity
  8
0
100
AcDbLine
 62
7
  6
CONTINUOUS
 10
31.9189069146
 20
-37.2869433472
 11
30.7848950106
 21
-36.9595823082
  0
LINE
  5
269
100
AcDbEntity
  8
0
100
AcDbLine
 62
7
  6
CONTINUOUS
 10
-25.1740192887
 20
-20.8056351911
 11
-23.1428124203
 21
-21.3919941072
  0
LINE
  5
26A
100
AcDbEntity
  8
0
100
AcDbLine
 62
7
  6
CONTINUOUS
 10
28.4744721199
 20
-36.2926206693
 11
-20.8323187525
 21
-22.0589761777
  0
LINE
  5
26B
100
AcDbEntity
  8
0
100
AcDbLine
 62
7
  6
CONTINUOUS
 10
-17.120262755
 20
-22.802092427
 11
-20.3623272207
 21
-21.866189031
  0
LINE
  5
26C
100
AcDbEntity
  8
0
100
AcDbLine
 62
7
  6
CONTINUOUS
 10
-24.7716608594
 20
-20.4470646802
 11
-25.5736140413
 21
-20.2155607375
  0
LINE
  5
26D
100
AcDbEntity
  8
0
100
AcDbLine
 62
253
  6
CONTINUOUS
 10
-23.55246073
 20
-19.4253556094
 11
-21.2622099861
 21
-20.0864940512
  0
LINE
  5
26E
100
AcDbEntity
  8
0
100
AcDbLine
 62
7
  6
CONTINUOUS
 10
-20.5457253442
 20
-19.7290376461
 11
-22.8852488465
 21
-19.0536753842
  0
LINE
  5
26F
100
AcDbEntity
  8
0
100
AcDbLine
 62
7
  6
CONTINUOUS
 10
39.7658916645
 20
-40.2953361819
 11
39.3534794538
 21
-40.1648499752
  0
LINE
  5
270
100
AcDbEntity
  8
0
100
AcDbLine
 62
7
  6
CONTINUOUS
 10
39.152884333
 20
-39.3550253615
 11
40.0505272471
 21
-39.6393864259
  0
LWPOLYLINE
  5
271
100
AcDbEntity
  8
0
100
AcDbPolyline
 62
7
  6
CONTINUOUS
 90
3
 70
0
 10
38.9847455207
 20
-42.2833508351
 10
38.9587849446
 20
-42.2749848142
 10
38.8668614446
 20
-42.2320809305
  0
LWPOLYLINE
  5
272
100
AcDbEntity
  8
0
100
AcDbPolyline
 62
7
  6
CONTINUOUS
 90
13
 70
0
 10
30.1266507925
 20
-36.0849262698
 10
30.2277407169
 20
-36.1177163549
 10
30.3218446269
 20
-36.155198234
 10
30.4089625226
 20
-36.1973719069
 10
30.4896501703
 20
-36.2446051705
 10
30.5633518036
 20
-36.296530228
 10
30.6284001235
 20
-36.3520436894
 10
30.6846163899
 20
-36.4112287244
 10
30.732179343
 20
-36.4740021632
 10
30.7699579041
 20
-36.5390111073
 10
30.7977231907
 20
-36.6063128229
 10
30.8157040855
 20
-36.6758500438
 10
30.8191109647
 20
-36.6968265714
  0
LWPOLYLINE
  5
273
100
AcDbEntity
  8
0
100
AcDbPolyline
 62
7
  6
CONTINUOUS
 90
13
 70
0
 10
-20.7979286513
 20
-21.7962104481
 10
-20.8011618112
 20
-21.7761784961
 10
-20.8189312394
 20
-21.7069195075
 10
-20.8464405784
 20
-21.6398374103
 10
-20.8838758149
 20
-21.5749757412
 10
-20.9310509621
 20
-21.5122909635
 10
-20.9869684653
 20
-21.4531076659
 10
-21.0517967035
 20
-21.3974919116
 10
-21.1253672975
 20
-21.3453776373
 10
-21.2061775551
 20
-21.2978912422
 10
-21.2937265786
 20
-21.2554081925
 10
-21.3885152657
 20
-21.217553022
 10
-21.4905436161
 20
-21.1843257305
  0
LINE
  5
274
100
AcDbEntity
  8
0
100
AcDbLine
 62
7
  6
CONTINUOUS
 10
-20.1144146689
 20
-20.4412574885
 11
-19.9722037044
 21
-21.4051284358
  0
LINE
  5
275
100
AcDbEntity
  8
0
100
AcDbLine
 62
7
  6
CONTINUOUS
 10
-20.7586330156
 20
-22.0802474178
 11
-20.7979946463
 21
-21.7962170901
  0
LINE
  5
276
100
AcDbEntity
  8
0
100
AcDbLine
 62
7
  6
CONTINUOUS
 10
-28.8530824492
 20
0.344700864
 11
-26.2800476891
 21
-21.8695168955
  0
LINE
  5
277
100
AcDbEntity
  8
0
100
AcDbLine
 62
7
  6
CONTINUOUS
 10
-21.5376312356
 20
-19.4426990794
 11
-21.5851631422
 21
-19.0323328028
  0
LINE
  5
278
100
AcDbEntity
  8
0
100
AcDbLine
 62
7
  6
CONTINUOUS
 10
-26.6626577274
 20
-0.2876202874
 11
-24.6037890072
 21
-18.2578595701
  0
LINE
  5
279
100
AcDbEntity
  8
0
100
AcDbLine
 62
7
  6
CONTINUOUS
 10
-25.4856962288
 20
-20.9909898102
 11
-27.8726377804
 21
0.0616708673
  0
LINE
  5
27A
100
AcDbEntity
  8
0
100
AcDbLine
 62
7
  6
CONTINUOUS
 10
-24.0932143878
 20
-16.3419849439
 11
-25.8663554512
 21
-0.5174929541
  0
LINE
  5
27B
100
AcDbEntity
  8
0
100
AcDbLine
 62
7
  6
CONTINUOUS
 10
-16.0250638284
 20
-8.1173031366
 11
-16.5633883367
 21
-3.203028238
  0
LWPOLYLINE
  5
27C
100
AcDbEntity
  8
0
100
AcDbPolyline
 62
7
  6
CONTINUOUS
 90
4
 70
0
 10
-15.5828557825
 20
-16.539371774
 10
-15.5803861073
 20
-16.564240886
 10
-15.5600275224
 20
-16.6806527419
 10
-15.5252499309
 20
-16.796137718
  0
LINE
  5
27D
100
AcDbEntity
  8
0
100
AcDbLine
 62
7
  6
CONTINUOUS
 10
-15.6469584807
 20
-15.7856298139
 11
-15.5829159842
 21
-16.5393780441
  0
LINE
  5
27E
100
AcDbEntity
  8
0
100
AcDbLine
 62
253
  6
CONTINUOUS
 10
-15.589337757
 20
-16.0418473726
 11
-15.5252803495
 21
-16.7957710971
  0
LINE
  5
27F
100
AcDbEntity
  8
0
100
AcDbLine
 62
7
  6
CONTINUOUS
 10
-21.5888405804
 20
8.9693858703
 11
-21.5888405804
 21
8.7961807896
  0
LINE
  5
280
100
AcDbEntity
  8
0
100
AcDbLine
 62
7
  6
CONTINUOUS
 10
-19.5888405804
 20
10.7014366779
 11
-19.5888405804
 21
10.5282315972
  0
LINE
  5
281
100
AcDbEntity
  8
0
100
AcDbLine
 62
253
  6
CONTINUOUS
 10
-19.0473024435
 20
11.3704224616
 11
-19.0473024435
 21
11.1704224616
  0
LINE
  5
282
100
AcDbEntity
  8
0
100
AcDbLine
 62
7
  6
CONTINUOUS
 10
-24.6037890072
 20
-18.2578595701
 11
-24.7716608594
 21
-20.4470646802
  0
LINE
  5
283
100
AcDbEntity
  8
0
100
AcDbLine
 62
7
  6
CONTINUOUS
 10
-24.037058972
 20
-17.5880800717
 11
-24.3576481341
 21
-19.9577713337
  0
LINE
  5
284
100
AcDbEntity
  8
0
100
AcDbLine
 62
7
  6
CONTINUOUS
 10
-27.2448709317
 20
-26.8842199645
 11
-26.2800476891
 21
-21.8695168955
  0
LINE
  5
285
100
AcDbEntity
  8
0
100
AcDbLine
 62
7
  6
CONTINUOUS
 10
-26.1884224668
 20
-22.3753835633
 11
-27.0658599385
 21
-26.9358959841
  0
LINE
  5
286
100
AcDbEntity
  8
0
100
AcDbLine
 62
7
  6
CONTINUOUS
 10
-25.5265744303
 20
-21.2014152584
 11
-25.4856962288
 21
-20.9909898102
  0
LINE
  5
287
100
AcDbEntity
  8
0
100
AcDbLine
 62
253
  6
CONTINUOUS
 10
-7.9933830208
 20
48.4518476144
 11
-7.4241638846
 21
49.5363557253
  0
LWPOLYLINE
  5
288
100
AcDbEntity
  8
0
100
AcDbPolyline
 62
7
  6
CONTINUOUS
 90
17
 70
0
 10
-12.826339592
 20
-16.0544201259
 10
-12.8700527304
 20
-16.043641105
 10
-12.914737425
 20
-16.0357677339
 10
-12.9603936756
 20
-16.0308000125
 10
-13.0074456526
 20
-16.0287523802
 10
-13.0554691856
 20
-16.0296103975
 10
-13.1031917645
 20
-16.0333307467
 10
-13.1506157392
 20
-16.0399875753
 10
-13.1977387597
 20
-16.0495067357
 10
-13.2432812662
 20
-16.0616224681
 10
-13.2871974733
 20
-16.0764037916
 10
-13.3295331663
 20
-16.0937816869
 10
-13.3691461412
 20
-16.1132833364
 10
-13.4059638094
 20
-16.1349656295
 10
-13.4400587595
 20
-16.1587716767
 10
-13.4705065529
 20
-16.1840579909
 10
-13.4746642079
 20
-16.1882319755
  0
LINE
  5
289
100
AcDbEntity
  8
0
100
AcDbLine
 62
7
  6
CONTINUOUS
 10
-21.2144137304
 20
-19.0843643959
 11
-21.5477647995
 21
-18.9881342312
  0
LINE
  5
28A
100
AcDbEntity
  8
0
100
AcDbLine
 62
7
  6
CONTINUOUS
 10
23.3176367405
 20
-26.5606207868
 11
1.2514973027
 21
-20.1906750146
  0
LINE
  5
28B
100
AcDbEntity
  8
0
100
AcDbLine
 62
7
  6
CONTINUOUS
 10
-2.2696071063
 20
-19.1018862971
 11
-12.826339592
 21
-16.0544201259
  0
LINE
  5
28C
100
AcDbEntity
  8
0
100
AcDbLine
 62
7
  6
CONTINUOUS
 10
26.9371189854
 20
-27.5331415514
 11
30.9223954507
 21
-28.6835917715
  0
LINE
  5
28D
100
AcDbEntity
  8
0
100
AcDbLine
 62
7
  6
CONTINUOUS
 10
47.2857509245
 20
-33.0226108633
 11
47.4475138724
 21
-33.069307804
  0
LINE
  5
28E
100
AcDbEntity
  8
0
100
AcDbLine
 62
7
  6
CONTINUOUS
 10
-12.9416550444
 20
-15.2600890774
 11
-1.7520697285
 21
-18.4902441245
  0
LINE
  5
28F
100
AcDbEntity
  8
0
100
AcDbLine
 62
7
  6
CONTINUOUS
 10
26.8409017724
 20
-26.7443234376
 11
30.8311957709
 21
-27.8962220947
  0
LWPOLYLINE
  5
290
100
AcDbEntity
  8
0
100
AcDbPolyline
 62
7
  6
CONTINUOUS
 90
3
 70
0
 10
40.4546185803
 20
-37.1915605112
 10
40.4805791565
 20
-37.1999265321
 10
40.5725026564
 20
-37.2428304158
  0
LINE
  5
291
100
AcDbEntity
  8
0
100
AcDbLine
 62
7
  6
CONTINUOUS
 10
39.3014771411
 20
-40.2846905939
 11
39.6108797586
 21
-40.4047219119
  0
LINE
  5
292
100
AcDbEntity
  8
0
100
AcDbLine
 62
7
  6
CONTINUOUS
 10
39.1075973741
 20
-39.4593572718
 11
40.341178849
 21
-39.9938305968
  0
LINE
  5
293
100
AcDbEntity
  8
0
100
AcDbLine
 62
7
  6
CONTINUOUS
 10
-13.6732309563
 20
-15.6540038034
 11
-10.1459540973
 21
-25.1438639329
  0
LINE
  5
294
100
AcDbEntity
  8
0
100
AcDbLine
 62
7
  6
CONTINUOUS
 10
-12.706912163
 20
-24.4045790186
 11
-15.5252499309
 21
-16.796137718
  0
LINE
  5
295
100
AcDbEntity
  8
0
100
AcDbLine
 62
7
  6
CONTINUOUS
 10
-15.589337757
 20
-16.0418473726
 11
-12.4658117327
 21
-24.4741787178
  0
LINE
  5
296
100
AcDbEntity
  8
0
100
AcDbLine
 62
7
  6
CONTINUOUS
 10
-13.6834808642
 20
-15.6135669535
 11
-13.6732309565
 21
-15.6540038016
  0
LINE
  5
297
100
AcDbEntity
  8
0
100
AcDbLine
 62
7
  6
CONTINUOUS
 10
-17.9769682139
 20
-10.45375746
 11
-18.5823515195
 21
-7.331829174
  0
LINE
  5
298
100
AcDbEntity
  8
0
100
AcDbLine
 62
7
  6
CONTINUOUS
 10
-16.8024868378
 20
-7.8456318506
 11
-16.6178374041
 21
-8.8178617176
  0
LWPOLYLINE
  5
299
100
AcDbEntity
  8
0
100
AcDbPolyline
 62
7
  6
CONTINUOUS
 90
3
 70
0
 10
-15.6469435764
 20
-15.785805229
 10
-15.6270713713
 20
-15.9147970888
 10
-15.5893377567
 20
-16.0418473755
  0
LWPOLYLINE
  5
29A
100
AcDbEntity
  8
0
100
AcDbPolyline
 62
7
  6
CONTINUOUS
 90
11
 70
0
 10
-16.6600312994
 20
-23.2634118199
 10
-16.666804336
 20
-23.20595714
 10
-16.6851999557
 20
-23.1442577322
 10
-16.7133524096
 20
-23.0856010482
 10
-16.7494584347
 20
-23.0313151734
 10
-16.7932595467
 20
-22.981766902
 10
-16.8450142299
 20
-22.9365894399
 10
-16.9036946734
 20
-22.8960104909
 10
-16.9689582736
 20
-22.8601059565
 10
-17.0411476341
 20
-22.8287999352
 10
-17.120262755
 20
-22.802092427
  0
LINE
  5
29B
100
AcDbEntity
  8
0
100
AcDbLine
 62
7
  6
CONTINUOUS
 10
-18.5823515195
 20
-7.331829174
 11
-19.146970018
 21
-2.4572124484
  0
LINE
  5
29C
100
AcDbEntity
  8
0
100
AcDbLine
 62
7
  6
CONTINUOUS
 10
-16.4847836054
 20
-13.0045392264
 11
-16.449959917
 21
-13.3051877556
  0
LINE
  5
29D
100
AcDbEntity
  8
0
100
AcDbLine
 62
7
  6
CONTINUOUS
 10
-16.8024868378
 20
-7.8456318506
 11
-17.3480741302
 21
-2.976508961
  0
LINE
  5
29E
100
AcDbEntity
  8
0
100
AcDbLine
 62
253
  6
CONTINUOUS
 10
-15.2127433088
 20
47.7912480846
 11
-15.2127433088
 21
47.5646161255
  0
LINE
  5
29F
100
AcDbEntity
  8
0
100
AcDbLine
 62
253
  6
CONTINUOUS
 10
-14.9492262321
 20
11.8761592971
 11
-14.9492262321
 21
11.9194605673
  0
LINE
  5
2A0
100
AcDbEntity
  8
0
100
AcDbLine
 62
7
  6
CONTINUOUS
 10
-14.0999995822
 20
48.4549124197
 11
-14.0999995822
 21
48.2947420937
  0
LINE
  5
2A1
100
AcDbEntity
  8
0
100
AcDbLine
 62
7
  6
CONTINUOUS
 10
-13.1353392985
 20
4.2196691732
 11
-13.1353392985
 21
4.0464640925
  0
LINE
  5
2A2
100
AcDbEntity
  8
0
100
AcDbLine
 62
7
  6
CONTINUOUS
 10
-11.848823049
 20
2.6044884858
 11
-11.848823049
 21
2.4312834051
  0
LINE
  5
2A3
100
AcDbEntity
  8
0
100
AcDbLine
 62
7
  6
CONTINUOUS
 10
-11.1353392985
 20
5.9517199808
 11
-11.1353392985
 21
5.7785149
  0
LINE
  5
2A4
100
AcDbEntity
  8
0
100
AcDbLine
 62
7
  6
CONTINUOUS
 10
-16.6432940508
 20
-10.8387560286
 11
-16.6178374041
 21
-8.8178617176
  0
LWPOLYLINE
  5
2A5
100
AcDbEntity
  8
0
100
AcDbPolyline
 62
7
  6
CONTINUOUS
 90
7
 70
0
 10
-13.023937102
 20
-7.8894840806
 10
-13.0149030707
 20
-7.2980215364
 10
-12.984172206
 20
-6.6958430721
 10
-12.931744508
 20
-6.0829486878
 10
-12.8571467591
 20
-5.456616754
 10
-12.7608521768
 20
-4.8195689001
 10
-12.6710156777
 20
-4.3266594393
  0
LINE
  5
2A6
100
AcDbEntity
  8
0
100
AcDbLine
 62
7
  6
CONTINUOUS
 10
-16.2032377905
 20
-10.3186836064
 11
-16.0250638284
 21
-8.1173031366
  0
LWPOLYLINE
  5
2A7
100
AcDbEntity
  8
0
100
AcDbPolyline
 62
253
  6
CONTINUOUS
 90
4
 70
0
 10
-17.120262755
 20
-22.802092427
 10
-17.1415318866
 20
-22.927452061
 10
-17.1670506714
 20
-23.0523678094
 10
-17.1814691136
 20
-23.1128856887
  0
LWPOLYLINE
  5
2A8
100
AcDbEntity
  8
0
100
AcDbPolyline
 62
7
  6
CONTINUOUS
 90
4
 70
0
 10
-20.4190106751
 20
-22.1782879426
 10
-20.4187087557
 20
-22.1770573422
 10
-20.3873864489
 20
-22.0223695217
 10
-20.3623271835
 20
-21.8661888475
  0
LINE
  5
2A9
100
AcDbEntity
  8
0
100
AcDbLine
 62
7
  6
CONTINUOUS
 10
-25.9419240241
 20
-21.6676886743
 11
-26.1884224668
 21
-22.3753835633
  0
LWPOLYLINE
  5
2AA
100
AcDbEntity
  8
0
100
AcDbPolyline
 62
7
  6
CONTINUOUS
 90
16
 70
0
 10
-27.6473024435
 20
3.9226039891
 10
-27.7007359895
 20
3.8710327602
 10
-27.7524030273
 20
3.8120651739
 10
-27.8023035569
 20
3.7457012302
 10
-27.8509168731
 20
3.6710685445
 10
-27.8977636811
 20
3.5890395014
 10
-27.9414060962
 20
3.5022312544
 10
-27.9817506907
 20
3.410513237
 10
-28.0188908923
 20
3.3140160157
 10
-28.0516691002
 20
3.2157484435
 10
-28.0799631076
 20
3.1156548591
 10
-28.1038951213
 20
3.0137909238
 10
-28.1226741598
 20
2.9133324749
 10
-28.1360365628
 20
2.8153381247
 10
-28.1442459907
 20
2.7187492609
 10
-28.1473024435
 20
2.6235658834
  0
LWPOLYLINE
  5
2AB
100
AcDbEntity
  8
0
100
AcDbPolyline
 62
7
  6
CONTINUOUS
 90
18
 70
0
 10
-12.9416551328
 20
-15.2600884685
 10
-12.9991783541
 20
-15.2463133814
 10
-13.0597700132
 20
-15.237638717
 10
-13.122435862
 20
-15.2341727059
 10
-13.1861454622
 20
-15.2359324073
 10
-13.2498575982
 20
-15.2428706769
 10
-13.3125371479
 20
-15.2548803783
 10
-13.3731572515
 20
-15.2717672853
 10
-13.4307244376
 20
-15.2932246273
 10
-13.4843024102
 20
-15.3188682268
 10
-13.5330152892
 20
-15.3482531805
 10
-13.5760595122
 20
-15.3809202968
 10
-13.6127234607
 20
-15.4163792299
 10
-13.6423984175
 20
-15.4540756205
 10
-13.664598953
 20
-15.4933873133
 10
-13.6789617478
 20
-15.533675694
 10
-13.6852424626
 20
-15.5742982709
 10
-13.6834808642
 20
-15.6135669535
  0
LWPOLYLINE
  5
2AC
100
AcDbEntity
  8
0
100
AcDbPolyline
 62
7
  6
CONTINUOUS
 90
16
 70
0
 10
0.8902686433
 20
-13.8943375036
 10
0.7947073922
 20
-13.8711759075
 10
0.6971415585
 20
-13.8548890522
 10
0.5975711422
 20
-13.8454769375
 10
0.4949079018
 20
-13.8430071045
 10
0.3902400789
 20
-13.8474120122
 10
0.2868323981
 20
-13.8584890383
 10
0.1847253273
 20
-13.8764266194
 10
0.0838783987
 20
-13.9010363189
 10
-0.0125650676
 20
-13.9315502041
 10
-0.1044842267
 20
-13.9681370238
 10
-0.1919999234
 20
-14.0106280293
 10
-0.2723313714
 20
-14.057749042
 10
-0.3445516421
 20
-14.1090753359
 10
-0.4095876641
 20
-14.1650316369
 10
-0.4674394374
 20
-14.2256179453
  0
LWPOLYLINE
  5
2AD
100
AcDbEntity
  8
0
100
AcDbPolyline
 62
7
  6
CONTINUOUS
 90
16
 70
0
 10
25.7189564951
 20
-24.8563444384
 10
25.8136199035
 20
-24.8793636648
 10
25.9103754636
 20
-24.8956037062
 10
26.0092231755
 20
-24.9050645624
 10
26.1112533253
 20
-24.9076928653
 10
26.2153756267
 20
-24.903541983
 10
26.3183192216
 20
-24.8927720206
 10
26.420043899
 20
-24.8751836383
 10
26.5205898699
 20
-24.8509761759
 10
26.6168069081
 20
-24.8209077567
 10
26.7085686141
 20
-24.7847997577
 10
26.7960013876
 20
-24.7428308018
 10
26.8763342017
 20
-24.6962948825
 10
26.948643381
 20
-24.6456233305
 10
27.0138526011
 20
-24.5903848151
 10
27.0719618618
 20
-24.530579336
  0
LWPOLYLINE
  5
2AE
100
AcDbEntity
  8
0
100
AcDbPolyline
 62
7
  6
CONTINUOUS
 90
26
 70
0
 10
-12.0056857328
 20
-14.1087613467
 10
-12.1920637554
 20
-14.0617818782
 10
-12.3858047751
 20
-14.0255532044
 10
-12.5854678606
 20
-14.0003633809
 10
-12.7895598597
 20
-13.9864769922
 10
-12.9965877326
 20
-13.9839490928
 10
-13.2050706737
 20
-13.9926296995
 10
-13.4134252429
 20
-14.0123940842
 10
-13.6201853437
 20
-14.0431733106
 10
-13.8240476019
 20
-14.0848127588
 10
-14.0235869889
 20
-14.1370515823
 10
-14.217264154
 20
-14.199537589
 10
-14.4036413905
 20
-14.2718902365
 10
-14.5813890888
 20
-14.3536429714
 10
-14.7491408183
 20
-14.4441750218
 10
-14.9055230854
 20
-14.5427409698
 10
-15.049365935
 20
-14.6485931293
 10
-15.179679574
 20
-14.7609466304
 10
-15.2955306665
 20
-14.8788937012
 10
-15.3960630901
 20
-15.0014931565
 10
-15.4806096782
 20
-15.1278772888
 10
-15.548642123
 20
-15.2572054791
 10
-15.5996570173
 20
-15.3884804556
 10
-15.6332271705
 20
-15.5207463811
 10
-15.6490660996
 20
-15.6532052649
 10
-15.6469435764
 20
-15.785805229
  0
LINE
  5
2AF
100
AcDbEntity
  8
0
100
AcDbLine
 62
7
  6
CONTINUOUS
 10
-16.349048204
 20
-13.3343184579
 11
-16.6823995969
 21
-13.2380881997
  0
LINE
  5
2B0
100
AcDbEntity
  8
0
100
AcDbLine
 62
7
  6
CONTINUOUS
 10
-0.785383095
 20
-17.347783727
 11
-12.0056857322
 21
-14.108761353
  0
LINE
  5
2B1
100
AcDbEntity
  8
0
100
AcDbLine
 62
7
  6
CONTINUOUS
 10
27.3937728379
 20
-25.4824047848
 11
30.6608478057
 21
-26.4255280909
  0
LINE
  5
2B2
100
AcDbEntity
  8
0
100
AcDbLine
 62
7
  6
CONTINUOUS
 10
25.7189564951
 20
-24.8563444384
 11
24.9480118333
 21
-24.6337918844
  0
LINE
  5
2B3
100
AcDbEntity
  8
0
100
AcDbLine
 62
7
  6
CONTINUOUS
 10
0.1774337949
 20
-17.4831419351
 11
0.9483886238
 21
-17.7056974241
  0
LINE
  5
2B4
100
AcDbEntity
  8
0
100
AcDbLine
 62
7
  6
CONTINUOUS
 10
30.5339774436
 20
-25.3301966576
 11
27.2306206986
 21
-24.3765997046
  0
LINE
  5
2B5
100
AcDbEntity
  8
0
100
AcDbLine
 62
7
  6
CONTINUOUS
 10
-0.3762756044
 20
-16.4071751986
 11
-15.3030926093
 21
-12.0981742907
  0
LINE
  5
2B6
100
AcDbEntity
  8
0
100
AcDbLine
 62
7
  6
CONTINUOUS
 10
15.7161338509
 20
-20.3700771374
 11
9.8395345336
 21
-18.6736490385
  0
LINE
  5
2B7
100
AcDbEntity
  8
0
100
AcDbLine
 62
7
  6
CONTINUOUS
 10
-17.9769682139
 20
-10.45375746
 11
-16.6432940508
 21
-10.8387560286
  0
LINE
  5
2B8
100
AcDbEntity
  8
0
100
AcDbLine
 62
7
  6
CONTINUOUS
 10
25.4173536967
 20
-22.3334300087
 11
15.6768480603
 21
-19.5215882331
  0
LINE
  5
2B9
100
AcDbEntity
  8
0
100
AcDbLine
 62
7
  6
CONTINUOUS
 10
-0.040125392
 20
-14.9844888063
 11
9.700398513
 21
-17.7963358556
  0
LINE
  5
2BA
100
AcDbEntity
  8
0
100
AcDbLine
 62
7
  6
CONTINUOUS
 10
10.7824132514
 20
-17.5593251183
 11
16.050434561
 21
-19.0800718788
  0
LINE
  5
2BB
100
AcDbEntity
  8
0
100
AcDbLine
 62
7
  6
CONTINUOUS
 10
10.6243880729
 20
-16.7043357401
 11
0.8902686433
 21
-13.8943375036
  0
LINE
  5
2BC
100
AcDbEntity
  8
0
100
AcDbLine
 62
7
  6
CONTINUOUS
 10
16.6008376202
 20
-18.4295881176
 11
26.3349570498
 21
-21.2395863541
  0
LINE
  5
2BD
100
AcDbEntity
  8
0
100
AcDbLine
 62
7
  6
CONTINUOUS
 10
-18.5823515195
 20
-7.331829174
 11
-16.8024868378
 21
-7.8456318506
  0
LWPOLYLINE
  5
2BE
100
AcDbEntity
  8
0
100
AcDbPolyline
 62
7
  6
CONTINUOUS
 90
11
 70
0
 10
0.1774438876
 20
-17.4831448486
 10
0.0884502336
 20
-17.4530933666
 10
0.0074737382
 20
-17.4179863757
 10
-0.0654855985
 20
-17.3778238759
 10
-0.1309910549
 20
-17.3320707481
 10
-0.1884793528
 20
-17.2812621113
 10
-0.2362606567
 20
-17.2270033233
 10
-0.2740600048
 20
-17.1692000894
 10
-0.3021523589
 20
-17.1079467042
 10
-0.3196727693
 20
-17.0451314088
 10
-0.325082109
 20
-17.005015608
  0
LWPOLYLINE
  5
2BF
100
AcDbEntity
  8
0
100
AcDbPolyline
 62
7
  6
CONTINUOUS
 90
3
 70
0
 10
38.8668614446
 20
-42.2320809305
 10
38.7821331884
 20
-42.1710767312
 10
38.7048489336
 20
-42.091763065
  0
LINE
  5
2C0
100
AcDbEntity
  8
0
100
AcDbLine
 62
7
  6
CONTINUOUS
 10
-12.8043078474
 20
1.7770143775
 11
-14.3362471667
 21
3.7003160099
  0
LINE
  5
2C1
100
AcDbEntity
  8
0
100
AcDbLine
 62
7
  6
CONTINUOUS
 10
-11.848823049
 20
2.4312834051
 11
-13.1353392985
 21
4.0464640925
  0
LINE
  5
2C2
100
AcDbEntity
  8
0
100
AcDbLine
 62
7
  6
CONTINUOUS
 10
-13.1353392985
 20
4.2196691732
 11
-11.848823049
 21
2.6044884858
  0
LINE
  5
2C3
100
AcDbEntity
  8
0
100
AcDbLine
 62
253
  6
CONTINUOUS
 10
-12.9416550444
 20
-15.2600890774
 11
-12.8263396689
 21
-16.0544197725
  0
LINE
  5
2C4
100
AcDbEntity
  8
0
100
AcDbLine
 62
7
  6
CONTINUOUS
 10
-2.922279876
 20
-33.9055472083
 11
-3.2877534456
 21
-29.1986622431
  0
LINE
  5
2C5
100
AcDbEntity
  8
0
100
AcDbLine
 62
7
  6
CONTINUOUS
 10
-9.848823049
 20
4.3365392934
 11
-9.848823049
 21
4.1633342126
  0
LINE
  5
2C6
100
AcDbEntity
  8
0
100
AcDbLine
 62
7
  6
CONTINUOUS
 10
-9.1353392985
 20
7.6837707884
 11
-9.1353392985
 21
7.5105657076
  0
LINE
  5
2C7
100
AcDbEntity
  8
0
100
AcDbLine
 62
7
  6
CONTINUOUS
 10
-8.4079899104
 20
2.8550009523
 11
-8.4079899104
 21
2.6817958716
  0
LINE
  5
2C8
100
AcDbEntity
  8
0
100
AcDbLine
 62
7
  6
CONTINUOUS
 10
-7.848823049
 20
6.068590101
 11
-7.848823049
 21
5.8953850202
  0
LINE
  5
2C9
100
AcDbEntity
  8
0
100
AcDbLine
 62
7
  6
CONTINUOUS
 10
-6.4079899104
 20
4.5870517599
 11
-6.4079899104
 21
4.4138466791
  0
LINE
  5
2CA
100
AcDbEntity
  8
0
100
AcDbLine
 62
7
  6
CONTINUOUS
 10
-4.4079899104
 20
6.3191025675
 11
-4.4079899104
 21
6.1458974867
  0
LWPOLYLINE
  5
2CB
100
AcDbEntity
  8
0
100
AcDbPolyline
 62
7
  6
CONTINUOUS
 90
5
 70
0
 10
-20.8323187525
 20
-22.0589761777
 10
-20.8092236254
 20
-21.987315485
 10
-20.7963080042
 20
-21.9163764848
 10
-20.7935718889
 20
-21.8461591773
 10
-20.7979286513
 20
-21.7962104481
  0
LINE
  5
2CC
100
AcDbEntity
  8
0
100
AcDbLine
 62
7
  6
CONTINUOUS
 10
-19.0473024435
 20
11.3704224616
 11
-27.6473024435
 21
3.9226039891
  0
LINE
  5
2CD
100
AcDbEntity
  8
0
100
AcDbLine
 62
7
  6
CONTINUOUS
 10
-27.4740973627
 20
3.8726039891
 11
-24.3388405804
 21
6.5878160099
  0
LINE
  5
2CE
100
AcDbEntity
  8
0
100
AcDbLine
 62
7
  6
CONTINUOUS
 10
-23.5888405804
 20
7.2373350628
 11
-22.3388405804
 21
8.3198668175
  0
LINE
  5
2CF
100
AcDbEntity
  8
0
100
AcDbLine
 62
7
  6
CONTINUOUS
 10
-21.5888405804
 20
8.9693858703
 11
-20.3388405804
 21
10.0519176251
  0
LINE
  5
2D0
100
AcDbEntity
  8
0
100
AcDbLine
 62
7
  6
CONTINUOUS
 10
-19.5888405804
 20
10.7014366779
 11
-18.8240973627
 21
11.3637237318
  0
LINE
  5
2D1
100
AcDbEntity
  8
0
100
AcDbLine
 62
7
  6
CONTINUOUS
 10
-19.5888405804
 20
10.5282315972
 11
-20.1888405804
 21
10.0086163549
  0
LINE
  5
2D2
100
AcDbEntity
  8
0
100
AcDbLine
 62
7
  6
CONTINUOUS
 10
-23.5888405804
 20
7.064129982
 11
-24.1888405804
 21
6.5445147397
  0
LINE
  5
2D3
100
AcDbEntity
  8
0
100
AcDbLine
 62
7
  6
CONTINUOUS
 10
-22.1888405804
 20
8.2765655473
 11
-21.5888405804
 21
8.7961807896
  0
LINE
  5
2D4
100
AcDbEntity
  8
0
100
AcDbLine
 62
7
  6
CONTINUOUS
 10
-28.1473024435
 20
2.1905531815
 11
-27.9740973627
 21
2.3405531815
  0
LWPOLYLINE
  5
2D5
100
AcDbEntity
  8
0
100
AcDbPolyline
 62
7
  6
CONTINUOUS
 90
3
 70
0
 10
-19.0473024435
 20
11.3704224616
 10
-18.9037722262
 20
11.4823781534
 10
-18.7443490674
 20
11.5861824804
  0
LINE
  5
2D6
100
AcDbEntity
  8
0
100
AcDbLine
 62
253
  6
CONTINUOUS
 10
-15.589337759
 20
-16.0418473554
 11
-13.6732309563
 21
-15.6540038034
  0
LWPOLYLINE
  5
2D7
100
AcDbEntity
  8
0
100
AcDbPolyline
 62
253
  6
CONTINUOUS
 90
22
 70
0
 10
32.4744758214
 20
-14.8764341166
 10
32.8065011812
 20
-14.9641403446
 10
33.1478020899
 20
-15.0385611386
 10
33.4962029068
 20
-15.0996078855
 10
33.8483716054
 20
-15.1471399566
 10
34.2034000741
 20
-15.1814638337
 10
34.5629846785
 20
-15.2028899749
 10
34.9260775531
 20
-15.2112534848
 10
35.2899501057
 20
-15.2063894436
 10
35.6538812963
 20
-15.1881834887
 10
36.0157866154
 20
-15.1565532092
 10
36.3737468721
 20
-15.1114768822
 10
36.7271453951
 20
-15.0527457034
 10
37.0748815536
 20
-14.9800869711
 10
37.4135412962
 20
-14.8937408558
 10
37.7390966737
 20
-14.7944495509
 10
38.0490495978
 20
-14.682854572
 10
38.3419436746
 20
-14.5593533085
 10
38.6156635789
 20
-14.4246825836
 10
38.8683869089
 20
-14.2796065941
 10
39.0985437517
 20
-14.1248825196
 10
39.3046028403
 20
-13.9613706072
  0
LINE
  5
2D8
100
AcDbEntity
  8
0
100
AcDbLine
 62
7
  6
CONTINUOUS
 10
-62.6883185949
 20
10.1120922124
 11
32.5744758214
 21
-17.3879077876
  0
LINE
  5
2D9
100
AcDbEntity
  8
0
100
AcDbLine
 62
7
  6
CONTINUOUS
 10
-62.7883185949
 20
10.8915150758
 11
32.4744758214
 21
-16.6084849242
  0
LINE
  5
2DA
100
AcDbEntity
  8
0
100
AcDbLine
 62
7
  6
CONTINUOUS
 10
-2.16654033
 20
-5.3094468185
 11
-28.1473024435
 21
2.1905531815
  0
LINE
  5
2DB
100
AcDbEntity
  8
0
100
AcDbLine
 62
253
  6
CONTINUOUS
 10
-62.7883185949
 20
12.6235658834
 11
-28.1473024435
 21
2.6235658834
  0
LINE
  5
2DC
100
AcDbEntity
  8
0
100
AcDbLine
 62
253
  6
CONTINUOUS
 10
-27.9740973627
 20
2.5735658834
 11
-2.3397454107
 21
-4.8264341166
  0
LINE
  5
2DD
100
AcDbEntity
  8
0
100
AcDbLine
 62
253
  6
CONTINUOUS
 10
-2.16654033
 20
-4.8764341166
 11
32.4744758214
 21
-14.8764341166
  0
LWPOLYLINE
  5
2DE
100
AcDbEntity
  8
0
100
AcDbPolyline
 62
7
  6
CONTINUOUS
 90
15
 70
0
 10
-62.6883185949
 20
10.1120922124
 10
-62.9966091769
 20
10.2094271985
 10
-63.2861783511
 20
10.3164072876
 10
-63.5570261177
 20
10.4330324796
 10
-63.8103261082
 20
10.5600659663
 10
-64.0449046909
 20
10.696744556
 10
-64.2572409706
 20
10.8407786738
 10
-64.4470039628
 20
10.992259442
 10
-64.6145246519
 20
11.1510957384
 10
-64.7572750958
 20
11.3147246205
 10
-64.8749039812
 20
11.4832086162
 10
-64.9677626213
 20
11.6564851977
 10
-65.0343770141
 20
11.8318038394
 10
-65.0743803854
 20
12.0091982191
 10
-65.0881434659
 20
12.1905532371
  0
LWPOLYLINE
  5
2DF
100
AcDbEntity
  8
0
100
AcDbPolyline
 62
7
  6
CONTINUOUS
 90
9
 70
0
 10
-62.7883185949
 20
10.8915150758
 10
-63.1094546178
 20
10.9929056863
 10
-63.4110891743
 20
11.1043432791
 10
-63.6932222644
 20
11.2258278542
 10
-63.9570764212
 20
11.3581544028
 10
-64.2014291116
 20
11.5005279337
 10
-64.4226127363
 20
11.6505634731
 10
-64.6202825198
 20
11.80835594
 10
-64.7947832377
 20
11.9738104154
  0
LINE
  5
2E0
100
AcDbEntity
  8
0
100
AcDbLine
 62
253
  6
CONTINUOUS
 10
46.7756547402
 20
-30.1755566487
 11
44.6804338715
 21
-29.1057137116
  0
LINE
  5
2E1
100
AcDbEntity
  8
0
100
AcDbLine
 62
7
  6
CONTINUOUS
 10
47.1035219698
 20
-29.8607991102
 11
45.0083011012
 21
-28.790956173
  0
LWPOLYLINE
  5
2E2
100
AcDbEntity
  8
0
100
AcDbPolyline
 62
7
  6
CONTINUOUS
 90
10
 70
0
 10
40.5725026564
 20
-37.2428304158
 10
40.6572309126
 20
-37.3038346151
 10
40.7345151675
 20
-37.3831482814
 10
40.8046041785
 20
-37.4805622632
 10
40.8661937676
 20
-37.59417321
 10
40.9192185033
 20
-37.7245025871
 10
40.963743817
 20
-37.8710289292
 10
40.9986618242
 20
-38.0302844894
 10
41.0237063621
 20
-38.2024885171
 10
41.0391435935
 20
-38.387421763
  0
LINE
  5
2E3
100
AcDbEntity
  8
0
100
AcDbLine
 62
7
  6
CONTINUOUS
 10
-10.8043078474
 20
3.509065185
 11
-12.3362471667
 21
5.4323668175
  0
LINE
  5
2E4
100
AcDbEntity
  8
0
100
AcDbLine
 62
7
  6
CONTINUOUS
 10
-9.848823049
 20
4.1633342126
 11
-11.1353392985
 21
5.7785149
  0
LINE
  5
2E5
100
AcDbEntity
  8
0
100
AcDbLine
 62
7
  6
CONTINUOUS
 10
-11.1353392985
 20
5.9517199808
 11
-9.848823049
 21
4.3365392934
  0
LINE
  5
2E6
100
AcDbEntity
  8
0
100
AcDbLine
 62
7
  6
CONTINUOUS
 10
-8.8043078474
 20
5.2411159926
 11
-10.3362471667
 21
7.1644176251
  0
LINE
  5
2E7
100
AcDbEntity
  8
0
100
AcDbLine
 62
7
  6
CONTINUOUS
 10
-7.848823049
 20
5.8953850202
 11
-9.1353392985
 21
7.5105657076
  0
LINE
  5
2E8
100
AcDbEntity
  8
0
100
AcDbLine
 62
7
  6
CONTINUOUS
 10
-9.1353392985
 20
7.6837707884
 11
-7.848823049
 21
6.068590101
  0
LINE
  5
2E9
100
AcDbEntity
  8
0
100
AcDbLine
 62
7
  6
CONTINUOUS
 10
-2.5789800079
 20
-33.2636341978
 11
-3.2877534456
 21
-29.1986622431
  0
LINE
  5
2EA
100
AcDbEntity
  8
0
100
AcDbLine
 62
7
  6
CONTINUOUS
 10
-0.5425591865
 20
-14.5080152722
 11
-0.4991726171
 21
-14.9967620034
  0
LINE
  5
2EB
100
AcDbEntity
  8
0
100
AcDbLine
 62
253
  6
CONTINUOUS
 10
-0.0401092143
 20
-14.9844934764
 11
0.0091750141
 21
-15.5400327205
  0
LINE
  5
2EC
100
AcDbEntity
  8
0
100
AcDbLine
 62
7
  6
CONTINUOUS
 10
-0.4991726171
 20
-14.9967620034
 11
-0.4456659907
 21
-15.6059667842
  0
LINE
  5
2ED
100
AcDbEntity
  8
0
100
AcDbLine
 62
253
  6
CONTINUOUS
 10
0.0091750141
 20
-15.5400327205
 11
0.0579213558
 21
-16.0954098962
  0
LINE
  5
2EE
100
AcDbEntity
  8
0
100
AcDbLine
 62
253
  6
CONTINUOUS
 10
0.0579213558
 20
-16.0954098962
 11
0.106129797
 21
-16.6506248442
  0
LINE
  5
2EF
100
AcDbEntity
  8
0
100
AcDbLine
 62
7
  6
CONTINUOUS
 10
-0.4456659907
 20
-15.6059667842
 11
-0.3927309857
 21
-16.2158693016
  0
LWPOLYLINE
  5
2F0
100
AcDbEntity
  8
0
100
AcDbPolyline
 62
253
  6
CONTINUOUS
 90
3
 70
0
 10
0.106129797
 20
-16.6506248442
 10
0.1538002823
 20
-17.2056769277
 10
0.1774337949
 20
-17.4831419351
  0
LINE
  5
2F1
100
AcDbEntity
  8
0
100
AcDbLine
 62
7
  6
CONTINUOUS
 10
-0.3927309857
 20
-16.2158693016
 11
-0.3407262365
 21
-16.8222750282
  0
LINE
  5
2F2
100
AcDbEntity
  8
0
100
AcDbLine
 62
7
  6
CONTINUOUS
 10
-0.3407262365
 20
-16.8222750282
 11
-0.3251745593
 21
-17.0050250803
  0
LINE
  5
2F3
100
AcDbEntity
  8
0
100
AcDbLine
 62
7
  6
CONTINUOUS
 10
-2.3397454107
 20
-5.2594468185
 11
-2.3397454107
 21
-4.8264341166
  0
LINE
  5
2F4
100
AcDbEntity
  8
0
100
AcDbLine
 62
7
  6
CONTINUOUS
 10
-2.16654033
 20
-5.3094468185
 11
-2.16654033
 21
-4.8764341166
  0
LINE
  5
2F5
100
AcDbEntity
  8
0
100
AcDbLine
 62
7
  6
CONTINUOUS
 10
1.2955113716
 20
-0.8121839901
 11
1.2955113716
 21
-0.9853890708
  0
LINE
  5
2F6
100
AcDbEntity
  8
0
100
AcDbLine
 62
7
  6
CONTINUOUS
 10
2.0455113716
 20
-0.335870018
 11
2.0455113716
 21
-0.1626649372
  0
LWPOLYLINE
  5
2F7
100
AcDbEntity
  8
0
100
AcDbPolyline
 62
7
  6
CONTINUOUS
 90
16
 70
0
 10
-2.16654033
 20
-4.8764341166
 10
-2.1634824401
 20
-4.7812362898
 10
-2.1552710072
 20
-4.6846350458
 10
-2.1419060312
 20
-4.5866303845
 10
-2.1231234881
 20
-4.4861634914
 10
-2.099187402
 20
-4.3842931812
 10
-2.0708898448
 20
-4.2841958973
 10
-2.03810872
 20
-4.1859277231
 10
-2.0009661241
 20
-4.0894325752
 10
-1.9606204188
 20
-3.9977186481
 10
-1.9169783646
 20
-3.9109168621
 10
-1.870133201
 20
-3.8288962968
 10
-1.8215230078
 20
-3.7542723856
 10
-1.7716271448
 20
-3.6879169399
 10
-1.7199662522
 20
-3.6289581483
 10
-1.66654033
 20
-3.5773960109
  0
LINE
  5
2F8
100
AcDbEntity
  8
INCISIONI
100
AcDbLine
 62
253
  6
CONTINUOUS
 10
5.1515300967
 20
24.7716787855
 11
6.1659453364
 21
27.076602153
  0
LINE
  5
2F9
100
AcDbEntity
  8
INCISIONI
100
AcDbLine
 62
253
  6
CONTINUOUS
 10
5.4350188814
 20
24.8341801897
 11
6.3367075891
 21
26.8829697694
  0
LINE
  5
2FA
100
AcDbEntity
  8
INCISIONI
100
AcDbLine
 62
253
  6
CONTINUOUS
 10
6.7598312227
 20
26.7608244976
 11
5.778775885
 21
24.8669722305
  0
LINE
  5
2FB
100
AcDbEntity
  8
INCISIONI
100
AcDbLine
 62
253
  6
CONTINUOUS
 10
7.0495294052
 20
26.821533403
 11
6.2437434755
 21
25.2660253178
  0
LINE
  5
2FC
100
AcDbEntity
  8
INCISIONI
100
AcDbLine
 62
7
  6
CONTINUOUS
 10
6.0008645712
 20
26.7015106734
 11
6.3289117108
 21
27.029557813
  0
LINE
  5
2FD
100
AcDbEntity
  8
INCISIONI
100
AcDbLine
 62
7
  6
CONTINUOUS
 10
5.8357838064
 20
26.3264191945
 11
6.292981661
 21
26.7836170491
  0
LINE
  5
2FE
100
AcDbEntity
  8
INCISIONI
100
AcDbLine
 62
7
  6
CONTINUOUS
 10
6.3798734659
 20
26.8705088541
 11
6.4918780848
 21
26.982513473
  0
LINE
  5
2FF
100
AcDbEntity
  8
INCISIONI
100
AcDbLine
 62
7
  6
CONTINUOUS
 10
5.6707030415
 20
25.9513277157
 11
6.1279008961
 21
26.4085255703
  0
LINE
  5
300
100
AcDbEntity
  8
INCISIONI
100
AcDbLine
 62
7
  6
CONTINUOUS
 10
6.54283984
 20
26.8234645142
 11
6.6548444589
 21
26.935469133
  0
LINE
  5
301
100
AcDbEntity
  8
INCISIONI
100
AcDbLine
 62
7
  6
CONTINUOUS
 10
5.5056222767
 20
25.5762362368
 11
5.9628201313
 21
26.0334340914
  0
LINE
  5
302
100
AcDbEntity
  8
INCISIONI
100
AcDbLine
 62
7
  6
CONTINUOUS
 10
6.705806214
 20
26.7764201742
 11
6.8178108329
 21
26.8884247931
  0
LINE
  5
303
100
AcDbEntity
  8
INCISIONI
100
AcDbLine
 62
7
  6
CONTINUOUS
 10
5.3405415118
 20
25.201144758
 11
5.7977393664
 21
25.6583426126
  0
LINE
  5
304
100
AcDbEntity
  8
INCISIONI
100
AcDbLine
 62
7
  6
CONTINUOUS
 10
6.6089429116
 20
26.4695461578
 11
6.980777207
 21
26.8413804531
  0
LINE
  5
305
100
AcDbEntity
  8
INCISIONI
100
AcDbLine
 62
7
  6
CONTINUOUS
 10
5.175460747
 20
24.8260532791
 11
5.6326586016
 21
25.2832511337
  0
LINE
  5
306
100
AcDbEntity
  8
INCISIONI
100
AcDbLine
 62
7
  6
CONTINUOUS
 10
6.383227722
 20
26.0338202542
 11
6.9190388628
 21
26.5696313949
  0
LINE
  5
307
100
AcDbEntity
  8
INCISIONI
100
AcDbLine
 62
7
  6
CONTINUOUS
 10
5.2908723295
 20
24.7314541477
 11
5.4675778367
 21
24.9081596548
  0
LINE
  5
308
100
AcDbEntity
  8
INCISIONI
100
AcDbLine
 62
7
  6
CONTINUOUS
 10
6.1575125324
 20
25.5980943506
 11
6.6933236732
 21
26.1339054913
  0
LINE
  5
309
100
AcDbEntity
  8
INCISIONI
100
AcDbLine
 62
7
  6
CONTINUOUS
 10
5.4538387036
 20
24.6844098077
 11
5.5658433225
 21
24.7964144266
  0
LINE
  5
30A
100
AcDbEntity
  8
INCISIONI
100
AcDbLine
 62
7
  6
CONTINUOUS
 10
5.9317973429
 20
25.162368447
 11
6.4676084836
 21
25.6981795877
  0
LINE
  5
30B
100
AcDbEntity
  8
INCISIONI
100
AcDbLine
 62
7
  6
CONTINUOUS
 10
5.6168050776
 20
24.6373654677
 11
5.7288096965
 21
24.7493700866
  0
LINE
  5
30C
100
AcDbEntity
  8
INCISIONI
100
AcDbLine
 62
7
  6
CONTINUOUS
 10
5.9098682353
 20
24.9304286255
 11
6.247080003
 21
25.2676403931
  0
LINE
  5
30D
100
AcDbEntity
  8
INCISIONI
100
AcDbLine
 62
7
  6
CONTINUOUS
 10
5.7797714517
 20
24.5903211278
 11
5.9680956018
 21
24.7786452779
  0
LINE
  5
30E
100
AcDbEntity
  8
INCISIONI
100
AcDbLine
 62
7
  6
CONTINUOUS
 10
6.3169120618
 20
25.1274617379
 11
6.6541238294
 21
25.4646735055
  0
LINE
  5
30F
100
AcDbEntity
  8
INCISIONI
100
AcDbLine
 62
7
  6
CONTINUOUS
 10
6.043656831
 20
24.6441957931
 11
6.3520713679
 21
24.95261033
  0
LINE
  5
310
100
AcDbEntity
  8
INCISIONI
100
AcDbLine
 62
7
  6
CONTINUOUS
 10
6.7239558882
 20
25.3244948503
 11
7.0611676558
 21
25.6617066179
  0
LINE
  5
311
100
AcDbEntity
  8
INCISIONI
100
AcDbLine
 62
7
  6
CONTINUOUS
 10
6.427632597
 20
24.8181608451
 11
6.736047134
 21
25.126575382
  0
LINE
  5
312
100
AcDbEntity
  8
INCISIONI
100
AcDbLine
 62
7
  6
CONTINUOUS
 10
7.1309997146
 20
25.5215279627
 11
7.4682114822
 21
25.8587397303
  0
LINE
  5
313
100
AcDbEntity
  8
INCISIONI
100
AcDbLine
 62
7
  6
CONTINUOUS
 10
6.8116083631
 20
24.9921258971
 11
7.1200229
 21
25.3005404341
  0
LINE
  5
314
100
AcDbEntity
  8
INCISIONI
100
AcDbLine
 62
7
  6
CONTINUOUS
 10
7.538043541
 20
25.7185610751
 11
7.8752553086
 21
26.0557728427
  0
LINE
  5
315
100
AcDbEntity
  8
INCISIONI
100
AcDbLine
 62
7
  6
CONTINUOUS
 10
7.1955841292
 20
25.1660909492
 11
7.5039986661
 21
25.4745054861
  0
LINE
  5
316
100
AcDbEntity
  8
INCISIONI
100
AcDbLine
 62
7
  6
CONTINUOUS
 10
7.9450873675
 20
25.9155941875
 11
8.2822991351
 21
26.2528059551
  0
LINE
  5
317
100
AcDbEntity
  8
INCISIONI
100
AcDbLine
 62
7
  6
CONTINUOUS
 10
7.5795598952
 20
25.3400560012
 11
7.8879744321
 21
25.6484705382
  0
LINE
  5
318
100
AcDbEntity
  8
INCISIONI
100
AcDbLine
 62
7
  6
CONTINUOUS
 10
8.3521311939
 20
26.1126272999
 11
8.6104409474
 21
26.3709370535
  0
LINE
  5
319
100
AcDbEntity
  8
INCISIONI
100
AcDbLine
 62
7
  6
CONTINUOUS
 10
7.9635356613
 20
25.5140210533
 11
8.2719501982
 21
25.8224355902
  0
LINE
  5
31A
100
AcDbEntity
  8
INCISIONI
100
AcDbLine
 62
7
  6
CONTINUOUS
 10
8.6614027026
 20
26.2118880946
 11
8.7734073215
 21
26.3238927135
  0
LINE
  5
31B
100
AcDbEntity
  8
INCISIONI
100
AcDbLine
 62
7
  6
CONTINUOUS
 10
8.3475114273
 20
25.6879861053
 11
8.6559259642
 21
25.9964006422
  0
LINE
  5
31C
100
AcDbEntity
  8
INCISIONI
100
AcDbLine
 62
7
  6
CONTINUOUS
 10
8.8243690767
 20
26.1648437547
 11
8.9363736955
 21
26.2768483736
  0
LINE
  5
31D
100
AcDbEntity
  8
INCISIONI
100
AcDbLine
 62
7
  6
CONTINUOUS
 10
8.7314871934
 20
25.8619511574
 11
9.0993400696
 21
26.2298040336
  0
LINE
  5
31E
100
AcDbEntity
  8
INCISIONI
100
AcDbLine
 62
7
  6
CONTINUOUS
 10
9.1154629594
 20
26.0359162094
 11
9.2623064436
 21
26.1827596936
  0
LINE
  5
31F
100
AcDbEntity
  8
INCISIONI
100
AcDbLine
 62
7
  6
CONTINUOUS
 10
7.5724015662
 20
24.0728333882
 11
8.8625908564
 21
25.3630226784
  0
LINE
  5
320
100
AcDbEntity
  8
INCISIONI
100
AcDbLine
 62
7
  6
CONTINUOUS
 10
7.7353679403
 20
24.0257890482
 11
7.8473725591
 21
24.1377936671
  0
LINE
  5
321
100
AcDbEntity
  8
INCISIONI
100
AcDbLine
 62
7
  6
CONTINUOUS
 10
8.5641067623
 20
24.8545278703
 11
9.7513265308
 21
26.0417476387
  0
LINE
  5
322
100
AcDbEntity
  8
INCISIONI
100
AcDbLine
 62
7
  6
CONTINUOUS
 10
7.8983343143
 20
23.9787447082
 11
8.0103389332
 21
24.0907493271
  0
LINE
  5
323
100
AcDbEntity
  8
INCISIONI
100
AcDbLine
 62
7
  6
CONTINUOUS
 10
9.802288286
 20
25.8826986799
 11
9.9142929048
 21
25.9947032988
  0
LINE
  5
324
100
AcDbEntity
  8
INCISIONI
100
AcDbLine
 62
7
  6
CONTINUOUS
 10
8.0613006884
 20
23.9317003683
 11
8.4208663831
 21
24.291266063
  0
LINE
  5
325
100
AcDbEntity
  8
INCISIONI
100
AcDbLine
 62
7
  6
CONTINUOUS
 10
9.96525466
 20
25.8356543399
 11
10.0772592789
 21
25.9476589588
  0
LINE
  5
326
100
AcDbEntity
  8
INCISIONI
100
AcDbLine
 62
7
  6
CONTINUOUS
 10
8.2242670624
 20
23.8846560283
 11
9.9884076927
 21
25.6487966586
  0
LINE
  5
327
100
AcDbEntity
  8
INCISIONI
100
AcDbLine
 62
7
  6
CONTINUOUS
 10
10.1282210341
 20
25.78861
 11
10.2402256529
 21
25.9006146188
  0
LINE
  5
328
100
AcDbEntity
  8
INCISIONI
100
AcDbLine
 62
7
  6
CONTINUOUS
 10
9.6899235986
 20
25.1403018504
 11
10.403192027
 21
25.8535702789
  0
LINE
  5
329
100
AcDbEntity
  8
INCISIONI
100
AcDbLine
 62
7
  6
CONTINUOUS
 10
8.7131661846
 20
23.7435230084
 11
8.8481078598
 21
23.8784646836
  0
LINE
  5
32A
100
AcDbEntity
  8
INCISIONI
100
AcDbLine
 62
7
  6
CONTINUOUS
 10
8.8761325586
 20
23.6964786685
 11
9.5719335933
 21
24.3922797031
  0
LINE
  5
32B
100
AcDbEntity
  8
INCISIONI
100
AcDbLine
 62
7
  6
CONTINUOUS
 10
9.0390989327
 20
23.6494343285
 11
9.1511035515
 21
23.7614389474
  0
LINE
  5
32C
100
AcDbEntity
  8
INCISIONI
100
AcDbLine
 62
7
  6
CONTINUOUS
 10
9.5476073171
 20
24.157942713
 11
10.2957593268
 21
24.9060947227
  0
LINE
  5
32D
100
AcDbEntity
  8
INCISIONI
100
AcDbLine
 62
7
  6
CONTINUOUS
 10
9.2020653067
 20
23.6023899885
 11
9.3140699256
 21
23.7143946074
  0
LINE
  5
32E
100
AcDbEntity
  8
INCISIONI
100
AcDbLine
 62
7
  6
CONTINUOUS
 10
10.2714330507
 20
24.6717577325
 11
11.0195850604
 21
25.4199097422
  0
LINE
  5
32F
100
AcDbEntity
  8
INCISIONI
100
AcDbLine
 62
7
  6
CONTINUOUS
 10
9.3650316808
 20
23.5553456486
 11
9.8861522855
 21
24.0764662533
  0
LINE
  5
330
100
AcDbEntity
  8
INCISIONI
100
AcDbLine
 62
7
  6
CONTINUOUS
 10
10.9952587842
 20
25.185572752
 11
11.3808693063
 21
25.5711832741
  0
LINE
  5
331
100
AcDbEntity
  8
INCISIONI
100
AcDbLine
 62
7
  6
CONTINUOUS
 10
9.8323575235
 20
23.8126607773
 11
10.7026212639
 21
24.6829245177
  0
LINE
  5
332
100
AcDbEntity
  8
INCISIONI
100
AcDbLine
 62
7
  6
CONTINUOUS
 10
11.4318310615
 20
25.4121343153
 11
11.5438356803
 21
25.5241389341
  0
LINE
  5
333
100
AcDbEntity
  8
INCISIONI
100
AcDbLine
 62
7
  6
CONTINUOUS
 10
10.6488265019
 20
24.4191190417
 11
11.4827928166
 21
25.2530853564
  0
LINE
  5
334
100
AcDbEntity
  8
INCISIONI
100
AcDbLine
 62
7
  6
CONTINUOUS
 10
11.5947974355
 20
25.3650899753
 11
11.7068020544
 21
25.4770945942
  0
LINE
  5
335
100
AcDbEntity
  8
INCISIONI
100
AcDbLine
 62
7
  6
CONTINUOUS
 10
11.0493890502
 20
24.609670876
 11
11.4291518447
 21
24.9894336705
  0
LINE
  5
336
100
AcDbEntity
  8
INCISIONI
100
AcDbLine
 62
7
  6
CONTINUOUS
 10
11.7577638096
 20
25.3180456353
 11
11.8697684284
 21
25.4300502542
  0
LINE
  5
337
100
AcDbEntity
  8
INCISIONI
100
AcDbLine
 62
7
  6
CONTINUOUS
 10
10.9447059118
 20
24.2949770236
 11
11.3244687063
 21
24.674739818
  0
LINE
  5
338
100
AcDbEntity
  8
INCISIONI
100
AcDbLine
 62
7
  6
CONTINUOUS
 10
11.7417144392
 20
25.091985551
 11
12.0327348025
 21
25.3830059143
  0
LINE
  5
339
100
AcDbEntity
  8
INCISIONI
100
AcDbLine
 62
7
  6
CONTINUOUS
 10
10.8400227734
 20
23.9802831711
 11
11.2197855678
 21
24.3600459656
  0
LINE
  5
33A
100
AcDbEntity
  8
INCISIONI
100
AcDbLine
 62
7
  6
CONTINUOUS
 10
11.6344449195
 20
24.7747053172
 11
12.0174987765
 21
25.1577591743
  0
LINE
  5
33B
100
AcDbEntity
  8
INCISIONI
100
AcDbLine
 62
7
  6
CONTINUOUS
 10
10.7353396349
 20
23.6655893187
 11
11.1151024294
 21
24.0453521131
  0
LINE
  5
33C
100
AcDbEntity
  8
INCISIONI
100
AcDbLine
 62
7
  6
CONTINUOUS
 10
11.5271753998
 20
24.4574250835
 11
11.9102292568
 21
24.8404789405
  0
LINE
  5
33D
100
AcDbEntity
  8
INCISIONI
100
AcDbLine
 62
7
  6
CONTINUOUS
 10
10.6306564965
 20
23.3508954662
 11
11.0104192909
 21
23.7306582607
  0
LINE
  5
33E
100
AcDbEntity
  8
INCISIONI
100
AcDbLine
 62
7
  6
CONTINUOUS
 10
11.4199058801
 20
24.1401448498
 11
11.8029597371
 21
24.5231987068
  0
LINE
  5
33F
100
AcDbEntity
  8
INCISIONI
100
AcDbLine
 62
7
  6
CONTINUOUS
 10
10.6687626732
 20
23.1789909289
 11
10.9083991622
 21
23.4186274179
  0
LINE
  5
340
100
AcDbEntity
  8
INCISIONI
100
AcDbLine
 62
7
  6
CONTINUOUS
 10
11.3126363603
 20
23.8228646161
 11
11.6956902174
 21
24.2059184731
  0
LINE
  5
341
100
AcDbEntity
  8
INCISIONI
100
AcDbLine
 62
7
  6
CONTINUOUS
 10
10.9908163882
 20
23.2910339299
 11
11.2622334415
 21
23.5624509832
  0
LINE
  5
342
100
AcDbEntity
  8
INCISIONI
100
AcDbLine
 62
7
  6
CONTINUOUS
 10
11.5540537179
 20
23.8542712596
 11
11.8285064541
 21
24.1287239958
  0
LINE
  5
343
100
AcDbEntity
  8
INCISIONI
100
AcDbLine
 62
253
  6
CONTINUOUS
 10
9.6725678329
 20
26.0644833164
 11
7.4227068329
 21
24.1160465355
  0
LINE
  5
344
100
AcDbEntity
  8
INCISIONI
100
AcDbLine
 62
253
  6
CONTINUOUS
 10
9.7640741838
 20
25.893730141
 11
7.7642131838
 21
24.1617997109
  0
LINE
  5
345
100
AcDbEntity
  8
INCISIONI
100
AcDbLine
 62
253
  6
CONTINUOUS
 10
8.1445819335
 20
24.0519967109
 11
10.1444429335
 21
25.783927141
  0
LINE
  5
346
100
AcDbEntity
  8
INCISIONI
100
AcDbLine
 62
253
  6
CONTINUOUS
 10
8.2360882844
 20
23.8812435355
 11
10.4859492844
 21
25.8296803164
  0
LINE
  5
347
100
AcDbEntity
  8
INCISIONI
100
AcDbLine
 62
253
  6
CONTINUOUS
 10
11.4737411927
 20
25.2556983352
 11
9.3750135252
 21
23.6968017056
  0
LINE
  5
348
100
AcDbEntity
  8
INCISIONI
100
AcDbLine
 62
253
  6
CONTINUOUS
 10
11.0966541974
 20
24.7517572854
 11
9.4520988026
 21
23.5302115355
  0
LINE
  5
349
100
AcDbEntity
  8
INCISIONI
100
AcDbLine
 62
253
  6
CONTINUOUS
 10
8.6739567907
 20
23.7548417855
 11
11.2755272617
 21
25.601592903
  0
LINE
  5
34A
100
AcDbEntity
  8
INCISIONI
100
AcDbLine
 62
253
  6
CONTINUOUS
 10
9.035893241
 20
23.7946972993
 11
11.3483651205
 21
25.436228857
  0
LWPOLYLINE
  5
34B
100
AcDbEntity
  8
0
100
AcDbPolyline
 62
7
  6
CONTINUOUS
 90
16
 70
0
 10
-18.7443490674
 20
11.5861824804
 10
-18.5690329669
 20
11.6818354426
 10
-18.3762555447
 20
11.7699028718
 10
-18.1675851808
 20
11.8498189363
 10
-17.9477270161
 20
11.9198861399
 10
-17.7164716466
 20
11.9798961361
 10
-17.4740284763
 20
12.0300572716
 10
-17.2257308576
 20
12.0692970895
 10
-16.9714594897
 20
12.0973933287
 10
-16.7113336734
 20
12.1145682504
 10
-16.451044664
 20
12.1204161819
 10
-16.1905650958
 20
12.1147043085
 10
-15.9299223344
 20
12.0976654448
 10
-15.6748897322
 20
12.0695923618
 10
-15.4273917397
 20
12.0305826497
 10
-15.1855039064
 20
11.9805387182
  0
LINE
  5
34C
100
AcDbEntity
  8
INCISIONI
100
AcDbLine
 62
253
  6
CONTINUOUS
 10
6.2437434755
 20
25.2660253178
 11
8.5577594113
 21
26.386144903
  0
LINE
  5
34D
100
AcDbEntity
  8
INCISIONI
100
AcDbLine
 62
253
  6
CONTINUOUS
 10
5.778775885
 20
24.8669722305
 11
8.5961217849
 21
26.2307330724
  0
LINE
  5
34E
100
AcDbEntity
  8
INCISIONI
100
AcDbLine
 62
253
  6
CONTINUOUS
 10
12.7535452584
 20
22.5771660355
 11
16.2255059012
 21
24.172657153
  0
LINE
  5
34F
100
AcDbEntity
  8
INCISIONI
100
AcDbLine
 62
253
  6
CONTINUOUS
 10
13.1733624703
 20
22.6003128126
 11
16.259502724
 21
24.0185055483
  0
LINE
  5
350
100
AcDbEntity
  8
INCISIONI
100
AcDbLine
 62
253
  6
CONTINUOUS
 10
8.9485744917
 20
26.1289887398
 11
5.8355001034
 21
24.718571219
  0
LINE
  5
351
100
AcDbEntity
  8
INCISIONI
100
AcDbLine
 62
253
  6
CONTINUOUS
 10
9.3705848745
 20
26.151502403
 11
5.8683228689
 21
24.5647585355
  0
LINE
  5
352
100
AcDbEntity
  8
INCISIONI
100
AcDbLine
 62
253
  6
CONTINUOUS
 10
11.643972157
 20
24.0529475423
 11
13.7064077425
 21
24.899858153
  0
LINE
  5
353
100
AcDbEntity
  8
INCISIONI
100
AcDbLine
 62
253
  6
CONTINUOUS
 10
11.286046616
 20
23.7442178548
 11
13.7313107493
 21
24.7483317069
  0
LINE
  5
354
100
AcDbEntity
  8
INCISIONI
100
AcDbLine
 62
253
  6
CONTINUOUS
 10
13.7858798004
 20
24.5882414114
 11
10.9063441386
 21
23.4177921093
  0
LINE
  5
355
100
AcDbEntity
  8
INCISIONI
100
AcDbLine
 62
253
  6
CONTINUOUS
 10
13.1259129649
 20
24.1588899288
 11
10.6958974779
 21
23.1711577855
  0
LWPOLYLINE
  5
356
100
AcDbEntity
  8
0
100
AcDbPolyline
 62
253
  6
CONTINUOUS
 90
19
 70
0
 10
32.9744758214
 20
-13.5773960109
 10
33.2894844963
 20
-13.6588279028
 10
33.611976273
 20
-13.7255497621
 10
33.9419511514
 20
-13.7775615888
 10
34.2819745837
 20
-13.8149939561
 10
34.6294811178
 20
-13.8377162908
 10
34.9767743971
 20
-13.8453368736
 10
35.3238184251
 20
-13.8375453254
 10
35.6706491983
 20
-13.8146520254
 10
36.0096783496
 20
-13.7771963914
 10
36.3407472872
 20
-13.7248820113
 10
36.6640146029
 20
-13.6580052972
 10
36.9723677041
 20
-13.5779949037
 10
37.2655277706
 20
-13.4845728777
 10
37.5437736226
 20
-13.3780171722
 10
37.8008291284
 20
-13.2605903007
 10
38.034602244
 20
-13.1330464343
 10
38.2471850134
 20
-12.9946314018
 10
38.4385774366
 20
-12.8453452034
  0
LINE
  5
357
100
AcDbEntity
  8
0
100
AcDbLine
 62
253
  6
CONTINUOUS
 10
32.9744758214
 20
-13.5773960109
 11
-1.66654033
 21
-3.5773960109
  0
LINE
  5
358
100
AcDbEntity
  8
0
100
AcDbLine
 62
253
  6
CONTINUOUS
 10
-1.8397454107
 20
-3.5273960109
 11
-27.4740973627
 21
3.8726039891
  0
LINE
  5
359
100
AcDbEntity
  8
0
100
AcDbLine
 62
253
  6
CONTINUOUS
 10
-27.6473024435
 20
3.9226039891
 11
-62.2883185949
 21
13.9226039891
  0
LINE
  5
35A
100
AcDbEntity
  8
0
100
AcDbLine
 62
7
  6
CONTINUOUS
 10
-24.3388405804
 20
6.5878160099
 11
-14.3362471667
 21
3.7003160099
  0
LINE
  5
35B
100
AcDbEntity
  8
0
100
AcDbLine
 62
7
  6
CONTINUOUS
 10
-8.7070820421
 20
2.0753160099
 11
1.2955113716
 21
-0.8121839901
  0
LINE
  5
35C
100
AcDbEntity
  8
0
100
AcDbLine
 62
7
  6
CONTINUOUS
 10
-23.5888405804
 20
7.064129982
 11
-13.1353392985
 21
4.0464640925
  0
LINE
  5
35D
100
AcDbEntity
  8
0
100
AcDbLine
 62
7
  6
CONTINUOUS
 10
-8.4079899104
 20
2.6817958716
 11
2.0455113716
 21
-0.335870018
  0
LINE
  5
35E
100
AcDbEntity
  8
0
100
AcDbLine
 62
7
  6
CONTINUOUS
 10
2.0455113716
 20
-0.1626649372
 11
-8.4079899104
 21
2.8550009523
  0
LINE
  5
35F
100
AcDbEntity
  8
0
100
AcDbLine
 62
7
  6
CONTINUOUS
 10
-13.1353392985
 20
4.2196691732
 11
-23.5888405804
 21
7.2373350628
  0
LINE
  5
360
100
AcDbEntity
  8
0
100
AcDbLine
 62
7
  6
CONTINUOUS
 10
39.2609155201
 20
-41.2112231747
 11
39.0245205432
 21
-40.9229439392
  0
LINE
  5
361
100
AcDbEntity
  8
0
100
AcDbLine
 62
7
  6
CONTINUOUS
 10
40.0565432664
 20
-40.6497803528
 11
39.7658916645
 21
-40.2953361819
  0
LINE
  5
362
100
AcDbEntity
  8
0
100
AcDbLine
 62
7
  6
CONTINUOUS
 10
39.3888368539
 20
-39.8355249205
 11
39.098185252
 21
-39.4810807496
  0
LINE
  5
363
100
AcDbEntity
  8
0
100
AcDbLine
 62
7
  6
CONTINUOUS
 10
0.9483886238
 20
-17.7056974241
 11
1.251497263
 21
-20.190674672
  0
LWPOLYLINE
  5
364
100
AcDbEntity
  8
0
100
AcDbPolyline
 62
7
  6
CONTINUOUS
 90
12
 70
0
 10
-0.542414084
 20
-14.5080000039
 10
-0.5400512782
 20
-14.5285781511
 10
-0.5270952226
 20
-14.5875298119
 10
-0.5048932011
 20
-14.6447115544
 10
-0.4736629519
 20
-14.7001672762
 10
-0.4342366624
 20
-14.7524206327
 10
-0.3864139899
 20
-14.8013961611
 10
-0.3303952771
 20
-14.8471693242
 10
-0.2676137394
 20
-14.8884901658
 10
-0.1985471152
 20
-14.9249420341
 10
-0.1227176661
 20
-14.9569415809
 10
-0.040125392
 20
-14.9844888063
  0
LWPOLYLINE
  5
365
100
AcDbEntity
  8
0
100
AcDbPolyline
 62
7
  6
CONTINUOUS
 90
17
 70
0
 10
7.1853043022
 20
4.6637237463
 10
7.1793343957
 20
4.7556673085
 10
7.1613185432
 20
4.8465911219
 10
7.1314005355
 20
4.9371075737
 10
7.0899652518
 20
5.0260807917
 10
7.0368733441
 20
5.1134920938
 10
6.9722641603
 20
5.199360162
 10
6.8969406232
 20
5.2826051706
 10
6.8107729573
 20
5.363195906
 10
6.7138909382
 20
5.4411635819
 10
6.6074868151
 20
5.5155220125
 10
6.4914431504
 20
5.586229387
 10
6.3658773817
 20
5.6533275164
 10
6.2323340719
 20
5.7159556474
 10
6.0913280753
 20
5.7738268623
 10
5.9423445375
 20
5.8272280789
 10
5.7853834587
 20
5.8761592971
  0
LINE
  5
366
100
AcDbEntity
  8
0
100
AcDbLine
 62
7
  6
CONTINUOUS
 10
3.2955113716
 20
0.9198668175
 11
3.2955113716
 21
0.7466617367
  0
LINE
  5
367
100
AcDbEntity
  8
0
100
AcDbLine
 62
7
  6
CONTINUOUS
 10
4.0455113716
 20
1.3961807896
 11
4.0455113716
 21
1.5693858703
  0
LINE
  5
368
100
AcDbEntity
  8
0
100
AcDbLine
 62
7
  6
CONTINUOUS
 10
5.2955113716
 20
2.6519176251
 11
5.2955113716
 21
2.4787125443
  0
LINE
  5
369
100
AcDbEntity
  8
0
100
AcDbLine
 62
253
  6
CONTINUOUS
 10
5.8353834587
 20
5.9194605673
 11
5.8353834587
 21
5.8761592971
  0
LINE
  5
36A
100
AcDbEntity
  8
0
100
AcDbLine
 62
7
  6
CONTINUOUS
 10
6.0455113716
 20
3.1282315972
 11
6.0455113716
 21
3.3014366779
  0
LINE
  5
36B
100
AcDbEntity
  8
0
100
AcDbLine
 62
253
  6
CONTINUOUS
 10
6.8102545893
 20
3.9637237318
 11
6.8102545893
 21
3.7637237318
  0
LINE
  5
36C
100
AcDbEntity
  8
0
100
AcDbLine
 62
7
  6
CONTINUOUS
 10
7.1853834587
 20
4.6637237318
 11
7.1853834587
 21
4.156580975
  0
LWPOLYLINE
  5
36D
100
AcDbEntity
  8
0
100
AcDbPolyline
 62
7
  6
CONTINUOUS
 90
7
 70
0
 10
7.3353710166
 20
4.6204224632
 10
7.3239471524
 20
4.4910918934
 10
7.2898694251
 20
4.3607705128
 10
7.2337232591
 20
4.2332542116
 10
7.1557038348
 20
4.1095052154
 10
7.0556159718
 20
3.9885612987
 10
6.93345967
 20
3.8704224616
  0
LINE
  5
36E
100
AcDbEntity
  8
INCISIONI
100
AcDbLine
 62
253
  6
CONTINUOUS
 10
10.5818211476
 20
23.2040887855
 11
11.0966541974
 21
24.7517572854
  0
LINE
  5
36F
100
AcDbEntity
  8
INCISIONI
100
AcDbLine
 62
253
  6
CONTINUOUS
 10
10.9063441386
 20
23.4177921093
 11
11.5138713593
 21
25.244113754
  0
LINE
  5
370
100
AcDbEntity
  8
INCISIONI
100
AcDbLine
 62
253
  6
CONTINUOUS
 10
11.8127743293
 20
25.3021654661
 11
11.286046616
 21
23.7442178548
  0
LINE
  5
371
100
AcDbEntity
  8
INCISIONI
100
AcDbLine
 62
253
  6
CONTINUOUS
 10
12.0882358115
 20
25.366984153
 11
11.643972157
 21
24.0529475423
  0
LWPOLYLINE
  5
372
100
AcDbEntity
  8
0
100
AcDbPolyline
 62
7
  6
CONTINUOUS
 90
18
 70
0
 10
-14.3767346437
 20
-12.365590801
 10
-14.3630368602
 20
-12.3464631462
 10
-14.2194351026
 20
-12.1243040083
 10
-14.0800207538
 20
-11.8859362943
 10
-13.945567866
 20
-11.6328638793
 10
-13.8183985952
 20
-11.3695983885
 10
-13.6986393757
 20
-11.0959902593
 10
-13.5861637733
 20
-10.8121890543
 10
-13.4829146412
 20
-10.5231550867
 10
-13.3890409859
 20
-10.2288037196
 10
-13.3043938008
 20
-9.9292195898
 10
-13.2304689201
 20
-9.6296169206
 10
-13.1674369031
 20
-9.3299765992
 10
-13.1151271905
 20
-9.0303177385
 10
-13.0745239385
 20
-8.7359119002
 10
-13.0459551991
 20
-8.4485162713
 10
-13.0290929202
 20
-8.1663736648
 10
-13.023937102
 20
-7.8894840806
  0
LINE
  5
373
100
AcDbEntity
  8
0
100
AcDbLine
 62
253
  6
CONTINUOUS
 10
-12.005685732
 20
-14.1087613531
 11
-12.941655064
 21
-15.2600890622
  0
LINE
  5
374
100
AcDbEntity
  8
0
100
AcDbLine
 62
7
  6
CONTINUOUS
 10
-16.0250638284
 20
-8.1173031366
 11
-16.6178374041
 21
-8.8178617176
  0
LINE
  5
375
100
AcDbEntity
  8
0
100
AcDbLine
 62
7
  6
CONTINUOUS
 10
-24.037058972
 20
-17.5880800717
 11
-24.6037890072
 21
-18.2578595701
  0
LINE
  5
376
100
AcDbEntity
  8
0
100
AcDbLine
 62
7
  6
CONTINUOUS
 10
-16.6432940508
 20
-10.8387560287
 11
-16.2032377905
 21
-10.3186836064
  0
LINE
  5
377
100
AcDbEntity
  8
0
100
AcDbLine
 62
7
  6
CONTINUOUS
 10
-24.7716608594
 20
-20.4470646802
 11
-24.3576481341
 21
-19.9577713337
  0
LINE
  5
378
100
AcDbEntity
  8
0
100
AcDbLine
 62
7
  6
CONTINUOUS
 10
-23.55246073
 20
-19.4253556094
 11
-24.809430928
 21
-20.9108827852
  0
LINE
  5
379
100
AcDbEntity
  8
0
100
AcDbLine
 62
7
  6
CONTINUOUS
 10
-21.5851631422
 20
-19.0323328028
 11
-16.4847836054
 21
-13.0045392264
  0
LINE
  5
37A
100
AcDbEntity
  8
0
100
AcDbLine
 62
7
  6
CONTINUOUS
 10
-21.2144137705
 20
-19.0843643843
 11
-21.5215455209
 21
-19.4473426253
  0
LINE
  5
37B
100
AcDbEntity
  8
0
100
AcDbLine
 62
7
  6
CONTINUOUS
 10
-15.3030926093
 20
-12.0981742907
 11
-16.349048204
 21
-13.3343184579
  0
LINE
  5
37C
100
AcDbEntity
  8
0
100
AcDbLine
 62
7
  6
CONTINUOUS
 10
-22.1279032277
 20
-21.1095977319
 11
-21.2622099861
 21
-20.0864940512
  0
LINE
  5
37D
100
AcDbEntity
  8
0
100
AcDbLine
 62
7
  6
CONTINUOUS
 10
-26.89550818
 20
-27.0097306863
 11
-26.8873095678
 21
-27.0000413068
  0
LINE
  5
37E
100
AcDbEntity
  8
0
100
AcDbLine
 62
7
  6
CONTINUOUS
 10
-19.9722037044
 20
-21.4051284358
 11
-20.3623272207
 21
-21.866189031
  0
LINE
  5
37F
100
AcDbEntity
  8
0
100
AcDbLine
 62
7
  6
CONTINUOUS
 10
-25.1740192887
 20
-20.8056351911
 11
-25.9419240241
 21
-21.6676886743
  0
LINE
  5
380
100
AcDbEntity
  8
0
100
AcDbLine
 62
7
  6
CONTINUOUS
 10
-25.4856962288
 20
-20.9909898102
 11
-26.2800476891
 21
-21.8695168955
  0
LINE
  5
381
100
AcDbEntity
  8
INCISIONI
100
AcDbLine
 62
253
  6
CONTINUOUS
 10
14.1889645115
 20
24.6162184455
 11
12.5131263117
 21
22.7909065746
  0
LINE
  5
382
100
AcDbEntity
  8
INCISIONI
100
AcDbLine
 62
253
  6
CONTINUOUS
 10
14.5111696432
 20
24.667543403
 11
12.6258229658
 21
22.6140362855
  0
LINE
  5
383
100
AcDbEntity
  8
INCISIONI
100
AcDbLine
 62
253
  6
CONTINUOUS
 10
11.8301196909
 20
22.8437360355
 11
13.1259129649
 21
24.1588899288
  0
LINE
  5
384
100
AcDbEntity
  8
INCISIONI
100
AcDbLine
 62
253
  6
CONTINUOUS
 10
12.1578173016
 20
22.8934754509
 11
13.8183881119
 21
24.5788570702
  0
LINE
  5
385
100
AcDbEntity
  8
INCISIONI
100
AcDbLine
 62
7
  6
CONTINUOUS
 10
11.3446506675
 20
23.4348574952
 11
11.6160677208
 21
23.7062745485
  0
LINE
  5
386
100
AcDbEntity
  8
INCISIONI
100
AcDbLine
 62
7
  6
CONTINUOUS
 10
11.9103882885
 20
24.0005951161
 11
12.1848410247
 21
24.2750478524
  0
LINE
  5
387
100
AcDbEntity
  8
INCISIONI
100
AcDbLine
 62
7
  6
CONTINUOUS
 10
11.6984849468
 20
23.5786810605
 11
11.9699020001
 21
23.8500981138
  0
LINE
  5
388
100
AcDbEntity
  8
INCISIONI
100
AcDbLine
 62
7
  6
CONTINUOUS
 10
12.266722859
 20
24.1469189727
 11
12.5411755952
 21
24.4213717089
  0
LINE
  5
389
100
AcDbEntity
  8
INCISIONI
100
AcDbLine
 62
7
  6
CONTINUOUS
 10
12.0523192261
 20
23.7225046258
 11
12.3237362794
 21
23.9939216791
  0
LINE
  5
38A
100
AcDbEntity
  8
INCISIONI
100
AcDbLine
 62
7
  6
CONTINUOUS
 10
12.6230574296
 20
24.2932428293
 11
12.8975101658
 21
24.5676955655
  0
LINE
  5
38B
100
AcDbEntity
  8
INCISIONI
100
AcDbLine
 62
7
  6
CONTINUOUS
 10
12.4061535054
 20
23.8663281911
 11
12.6775705588
 21
24.1377452444
  0
LINE
  5
38C
100
AcDbEntity
  8
INCISIONI
100
AcDbLine
 62
7
  6
CONTINUOUS
 10
12.9793920002
 20
24.4395666858
 11
13.2538447364
 21
24.7140194221
  0
LINE
  5
38D
100
AcDbEntity
  8
INCISIONI
100
AcDbLine
 62
7
  6
CONTINUOUS
 10
12.7599877848
 20
24.0101517564
 11
13.0314048381
 21
24.2815688097
  0
LINE
  5
38E
100
AcDbEntity
  8
INCISIONI
100
AcDbLine
 62
7
  6
CONTINUOUS
 10
13.3357265708
 20
24.5858905424
 11
13.610179307
 21
24.8603432786
  0
LINE
  5
38F
100
AcDbEntity
  8
INCISIONI
100
AcDbLine
 62
7
  6
CONTINUOUS
 10
13.1138220641
 20
24.1539753217
 11
13.3852391174
 21
24.425392375
  0
LINE
  5
390
100
AcDbEntity
  8
INCISIONI
100
AcDbLine
 62
7
  6
CONTINUOUS
 10
13.6920611413
 20
24.732214399
 11
13.825364917
 21
24.8655181747
  0
LINE
  5
391
100
AcDbEntity
  8
INCISIONI
100
AcDbLine
 62
7
  6
CONTINUOUS
 10
11.9724936656
 20
22.8026362092
 11
13.7390733967
 21
24.5692159403
  0
LINE
  5
392
100
AcDbEntity
  8
INCISIONI
100
AcDbLine
 62
7
  6
CONTINUOUS
 10
13.8763266722
 20
24.7064692158
 11
13.9883312911
 21
24.8184738347
  0
LINE
  5
393
100
AcDbEntity
  8
INCISIONI
100
AcDbLine
 62
7
  6
CONTINUOUS
 10
12.1354600396
 20
22.7555918692
 11
12.2474646585
 21
22.8675964881
  0
LINE
  5
394
100
AcDbEntity
  8
INCISIONI
100
AcDbLine
 62
7
  6
CONTINUOUS
 10
14.0392930463
 20
24.6594248759
 11
14.1512976651
 21
24.7714294947
  0
LINE
  5
395
100
AcDbEntity
  8
INCISIONI
100
AcDbLine
 62
7
  6
CONTINUOUS
 10
12.2984264137
 20
22.7085475292
 11
12.4104310325
 21
22.8205521481
  0
LINE
  5
396
100
AcDbEntity
  8
INCISIONI
100
AcDbLine
 62
7
  6
CONTINUOUS
 10
13.9968782971
 20
24.4069994127
 11
14.3142640392
 21
24.7243851548
  0
LINE
  5
397
100
AcDbEntity
  8
INCISIONI
100
AcDbLine
 62
7
  6
CONTINUOUS
 10
12.4613927877
 20
22.6615031893
 11
14.4772304132
 21
24.6773408148
  0
LINE
  5
398
100
AcDbEntity
  8
INCISIONI
100
AcDbLine
 62
7
  6
CONTINUOUS
 10
12.6243591617
 20
22.6144588493
 11
12.6469721583
 21
22.6370718459
  0
LINE
  5
399
100
AcDbEntity
  8
INCISIONI
100
AcDbLine
 62
7
  6
CONTINUOUS
 10
12.7873255358
 20
22.5674145094
 11
12.8340905092
 21
22.6141794827
  0
LINE
  5
39A
100
AcDbEntity
  8
INCISIONI
100
AcDbLine
 62
7
  6
CONTINUOUS
 10
12.9502919098
 20
22.5203701694
 11
13.2226653961
 21
22.7927436557
  0
LINE
  5
39B
100
AcDbEntity
  8
INCISIONI
100
AcDbLine
 62
7
  6
CONTINUOUS
 10
13.1132582839
 20
22.4733258294
 11
13.2252629028
 21
22.5853304483
  0
LINE
  5
39C
100
AcDbEntity
  8
INCISIONI
100
AcDbLine
 62
7
  6
CONTINUOUS
 10
13.2971131814
 20
22.6571807269
 11
13.6112402831
 21
22.9713078286
  0
LINE
  5
39D
100
AcDbEntity
  8
INCISIONI
100
AcDbLine
 62
7
  6
CONTINUOUS
 10
13.2762246579
 20
22.4262814895
 11
13.3882292768
 21
22.5382861083
  0
LINE
  5
39E
100
AcDbEntity
  8
INCISIONI
100
AcDbLine
 62
7
  6
CONTINUOUS
 10
13.6856880683
 20
22.8357448999
 11
13.99981517
 21
23.1498720015
  0
LINE
  5
39F
100
AcDbEntity
  8
INCISIONI
100
AcDbLine
 62
7
  6
CONTINUOUS
 10
13.439191032
 20
22.3792371495
 11
13.5971544594
 21
22.5372005769
  0
LINE
  5
3A0
100
AcDbEntity
  8
INCISIONI
100
AcDbLine
 62
7
  6
CONTINUOUS
 10
14.0742629553
 20
23.0143090728
 11
14.388390057
 21
23.3284361745
  0
LINE
  5
3A1
100
AcDbEntity
  8
INCISIONI
100
AcDbLine
 62
7
  6
CONTINUOUS
 10
13.6675458319
 20
22.3975812354
 11
14.0020049424
 21
22.7320403459
  0
LINE
  5
3A2
100
AcDbEntity
  8
INCISIONI
100
AcDbLine
 62
7
  6
CONTINUOUS
 10
14.4628378422
 20
23.1928732457
 11
14.7769649439
 21
23.5070003474
  0
LINE
  5
3A3
100
AcDbEntity
  8
INCISIONI
100
AcDbLine
 62
7
  6
CONTINUOUS
 10
14.0723963149
 20
22.5924210044
 11
14.2795614426
 21
22.7995861321
  0
LINE
  5
3A4
100
AcDbEntity
  8
INCISIONI
100
AcDbLine
 62
7
  6
CONTINUOUS
 10
14.3669532705
 20
22.8869779599
 11
14.4153907343
 21
22.9354154238
  0
LINE
  5
3A5
100
AcDbEntity
  8
INCISIONI
100
AcDbLine
 62
7
  6
CONTINUOUS
 10
14.8514127292
 20
23.3714374187
 11
15.1655398308
 21
23.6855645203
  0
LINE
  5
3A6
100
AcDbEntity
  8
INCISIONI
100
AcDbLine
 62
7
  6
CONTINUOUS
 10
14.3305231978
 20
22.6405371732
 11
14.4425278166
 21
22.7525417921
  0
LINE
  5
3A7
100
AcDbEntity
  8
INCISIONI
100
AcDbLine
 62
7
  6
CONTINUOUS
 10
14.5299196445
 20
22.83993362
 11
14.826256359
 21
23.1362703344
  0
LINE
  5
3A8
100
AcDbEntity
  8
INCISIONI
100
AcDbLine
 62
7
  6
CONTINUOUS
 10
15.2399876161
 20
23.5500015916
 11
15.5541147178
 21
23.8641286933
  0
LINE
  5
3A9
100
AcDbEntity
  8
INCISIONI
100
AcDbLine
 62
7
  6
CONTINUOUS
 10
14.4934895718
 20
22.5934928333
 11
14.6054941907
 21
22.7054974521
  0
LINE
  5
3AA
100
AcDbEntity
  8
INCISIONI
100
AcDbLine
 62
7
  6
CONTINUOUS
 10
14.6928860186
 20
22.79288928
 11
14.8048906374
 21
22.9048938989
  0
LINE
  5
3AB
100
AcDbEntity
  8
INCISIONI
100
AcDbLine
 62
7
  6
CONTINUOUS
 10
14.8951072419
 20
22.9951105033
 11
15.2371219836
 21
23.337125245
  0
LINE
  5
3AC
100
AcDbEntity
  8
INCISIONI
100
AcDbLine
 62
7
  6
CONTINUOUS
 10
15.6285625031
 20
23.7285657645
 11
15.9426896047
 21
24.0426928662
  0
LINE
  5
3AD
100
AcDbEntity
  8
INCISIONI
100
AcDbLine
 62
7
  6
CONTINUOUS
 10
14.6564559459
 20
22.5464484933
 11
14.7684605647
 21
22.6584531122
  0
LINE
  5
3AE
100
AcDbEntity
  8
INCISIONI
100
AcDbLine
 62
7
  6
CONTINUOUS
 10
14.8558523926
 20
22.7458449401
 11
14.9678570115
 21
22.8578495589
  0
LINE
  5
3AF
100
AcDbEntity
  8
INCISIONI
100
AcDbLine
 62
7
  6
CONTINUOUS
 10
15.3059728665
 20
23.1959654139
 11
15.6479876082
 21
23.5379801557
  0
LINE
  5
3B0
100
AcDbEntity
  8
INCISIONI
100
AcDbLine
 62
7
  6
CONTINUOUS
 10
16.01713739
 20
23.9071299374
 11
16.2698605278
 21
24.1598530752
  0
LINE
  5
3B1
100
AcDbEntity
  8
INCISIONI
100
AcDbLine
 62
7
  6
CONTINUOUS
 10
14.8194223199
 20
22.4994041533
 11
14.9314269388
 21
22.6114087722
  0
LINE
  5
3B2
100
AcDbEntity
  8
INCISIONI
100
AcDbLine
 62
7
  6
CONTINUOUS
 10
15.0188187667
 20
22.6988006001
 11
15.1308233855
 21
22.810805219
  0
LINE
  5
3B3
100
AcDbEntity
  8
INCISIONI
100
AcDbLine
 62
7
  6
CONTINUOUS
 10
15.7168384911
 20
23.3968203245
 11
16.0588532328
 21
23.7388350663
  0
LINE
  5
3B4
100
AcDbEntity
  8
INCISIONI
100
AcDbLine
 62
7
  6
CONTINUOUS
 10
16.3208222829
 20
24.0008041164
 11
16.4328269018
 21
24.1128087352
  0
LINE
  5
3B5
100
AcDbEntity
  8
INCISIONI
100
AcDbLine
 62
7
  6
CONTINUOUS
 10
14.982388694
 20
22.4523598134
 11
15.0943933128
 21
22.5643644322
  0
LINE
  5
3B6
100
AcDbEntity
  8
INCISIONI
100
AcDbLine
 62
7
  6
CONTINUOUS
 10
15.1817851407
 20
22.6517562601
 11
15.2937897596
 21
22.763760879
  0
LINE
  5
3B7
100
AcDbEntity
  8
INCISIONI
100
AcDbLine
 62
7
  6
CONTINUOUS
 10
15.8948275012
 20
23.3647986206
 11
16.3717840381
 21
23.8417551575
  0
LINE
  5
3B8
100
AcDbEntity
  8
INCISIONI
100
AcDbLine
 62
7
  6
CONTINUOUS
 10
16.483788657
 20
23.9537597764
 11
16.5957932759
 21
24.0657643953
  0
LINE
  5
3B9
100
AcDbEntity
  8
INCISIONI
100
AcDbLine
 62
7
  6
CONTINUOUS
 10
15.145355068
 20
22.4053154734
 11
15.2573596869
 21
22.5173200923
  0
LINE
  5
3BA
100
AcDbEntity
  8
INCISIONI
100
AcDbLine
 62
7
  6
CONTINUOUS
 10
15.3447515148
 20
22.6047119202
 11
15.4567561336
 21
22.716716539
  0
LINE
  5
3BB
100
AcDbEntity
  8
INCISIONI
100
AcDbLine
 62
7
  6
CONTINUOUS
 10
15.6329422459
 20
22.8929026513
 11
16.2159199162
 21
23.4758803216
  0
LINE
  5
3BC
100
AcDbEntity
  8
INCISIONI
100
AcDbLine
 62
7
  6
CONTINUOUS
 10
16.646755031
 20
23.9067154365
 11
16.7587596499
 21
24.0187200553
  0
LINE
  5
3BD
100
AcDbEntity
  8
INCISIONI
100
AcDbLine
 62
7
  6
CONTINUOUS
 10
15.3083214421
 20
22.3582711335
 11
15.4203260609
 21
22.4702757523
  0
LINE
  5
3BE
100
AcDbEntity
  8
INCISIONI
100
AcDbLine
 62
7
  6
CONTINUOUS
 10
15.5077178888
 20
22.5576675802
 11
15.9540346609
 21
23.0039843523
  0
LINE
  5
3BF
100
AcDbEntity
  8
INCISIONI
100
AcDbLine
 62
7
  6
CONTINUOUS
 10
16.6369896493
 20
23.6869393407
 11
16.921726024
 21
23.9716757154
  0
LINE
  5
3C0
100
AcDbEntity
  8
INCISIONI
100
AcDbLine
 62
7
  6
CONTINUOUS
 10
15.1475883782
 20
21.9875273556
 11
15.583292435
 21
22.4232314124
  0
LINE
  5
3C1
100
AcDbEntity
  8
INCISIONI
100
AcDbLine
 62
7
  6
CONTINUOUS
 10
15.6706842629
 20
22.5106232402
 11
15.6921494056
 21
22.532088383
  0
LINE
  5
3C2
100
AcDbEntity
  8
INCISIONI
100
AcDbLine
 62
7
  6
CONTINUOUS
 10
16.4583580243
 20
23.2982970017
 11
16.9330639799
 21
23.7730029573
  0
LINE
  5
3C3
100
AcDbEntity
  8
INCISIONI
100
AcDbLine
 62
7
  6
CONTINUOUS
 10
15.2318211465
 20
21.8617494099
 11
15.4610642166
 21
22.09099248
  0
LINE
  5
3C4
100
AcDbEntity
  8
INCISIONI
100
AcDbLine
 62
7
  6
CONTINUOUS
 10
16.2797263994
 20
22.9096546627
 11
16.7544323549
 21
23.3843606183
  0
LINE
  5
3C5
100
AcDbEntity
  8
INCISIONI
100
AcDbLine
 62
7
  6
CONTINUOUS
 10
15.3947875206
 20
21.8147050699
 11
15.5067921395
 21
21.9267096888
  0
LINE
  5
3C6
100
AcDbEntity
  8
INCISIONI
100
AcDbLine
 62
7
  6
CONTINUOUS
 10
16.1010947744
 20
22.5210123238
 11
16.5758007299
 21
22.9957182793
  0
LINE
  5
3C7
100
AcDbEntity
  8
INCISIONI
100
AcDbLine
 62
7
  6
CONTINUOUS
 10
15.5577538946
 20
21.76766073
 11
15.6697585135
 21
21.8796653489
  0
LINE
  5
3C8
100
AcDbEntity
  8
INCISIONI
100
AcDbLine
 62
7
  6
CONTINUOUS
 10
15.9224631494
 20
22.1323699848
 11
16.397169105
 21
22.6070759403
  0
LINE
  5
3C9
100
AcDbEntity
  8
INCISIONI
100
AcDbLine
 62
7
  6
CONTINUOUS
 10
15.7207202687
 20
21.72061639
 11
16.21853748
 21
22.2184336013
  0
LINE
  5
3CA
100
AcDbEntity
  8
INCISIONI
100
AcDbLine
 62
7
  6
CONTINUOUS
 10
15.8836866427
 20
21.6735720501
 11
16.039905855
 21
21.8297912623
  0
LINE
  5
3CB
100
AcDbEntity
  8
INCISIONI
100
AcDbLine
 62
7
  6
CONTINUOUS
 10
16.2096196144
 20
21.5794835937
 11
16.3178443571
 21
21.6877083364
  0
LINE
  5
3CC
100
AcDbEntity
  8
INCISIONI
100
AcDbLine
 62
7
  6
CONTINUOUS
 10
16.3725859885
 20
21.5324392538
 11
17.8853856667
 21
23.045238932
  0
LINE
  5
3CD
100
AcDbEntity
  8
INCISIONI
100
AcDbLine
 62
7
  6
CONTINUOUS
 10
16.5355523625
 20
21.4853949138
 11
16.6475569814
 21
21.5973995327
  0
LINE
  5
3CE
100
AcDbEntity
  8
INCISIONI
100
AcDbLine
 62
7
  6
CONTINUOUS
 10
17.5869015726
 20
22.5367441239
 11
18.5354337781
 21
23.4852763294
  0
LINE
  5
3CF
100
AcDbEntity
  8
INCISIONI
100
AcDbLine
 62
7
  6
CONTINUOUS
 10
16.6985187366
 20
21.4383505738
 11
16.8105233554
 21
21.5503551927
  0
LINE
  5
3D0
100
AcDbEntity
  8
INCISIONI
100
AcDbLine
 62
7
  6
CONTINUOUS
 10
18.5968255427
 20
23.33665738
 11
18.7095378649
 21
23.4493697021
  0
LINE
  5
3D1
100
AcDbEntity
  8
INCISIONI
100
AcDbLine
 62
7
  6
CONTINUOUS
 10
16.8614851106
 20
21.3913062339
 11
17.4718687807
 21
22.001689904
  0
LINE
  5
3D2
100
AcDbEntity
  8
INCISIONI
100
AcDbLine
 62
7
  6
CONTINUOUS
 10
18.7689184677
 20
23.298739591
 11
18.8820912426
 21
23.4119123658
  0
LINE
  5
3D3
100
AcDbEntity
  8
INCISIONI
100
AcDbLine
 62
7
  6
CONTINUOUS
 10
17.1733846866
 20
21.4931950959
 11
17.9253426134
 21
22.2451530226
  0
LINE
  5
3D4
100
AcDbEntity
  8
INCISIONI
100
AcDbLine
 62
7
  6
CONTINUOUS
 10
18.031479712
 20
22.3512901212
 11
18.7962527103
 21
23.1160631195
  0
LINE
  5
3D5
100
AcDbEntity
  8
INCISIONI
100
AcDbLine
 62
7
  6
CONTINUOUS
 10
18.939771854
 20
23.2595822632
 11
19.0527234288
 21
23.372533838
  0
LINE
  5
3D6
100
AcDbEntity
  8
INCISIONI
100
AcDbLine
 62
7
  6
CONTINUOUS
 10
17.9763052338
 20
22.086104929
 11
18.0883098527
 21
22.1981095479
  0
LINE
  5
3D7
100
AcDbEntity
  8
INCISIONI
100
AcDbLine
 62
7
  6
CONTINUOUS
 10
18.1944460587
 20
22.3042457539
 11
18.3064506776
 21
22.4162503728
  0
LINE
  5
3D8
100
AcDbEntity
  8
INCISIONI
100
AcDbLine
 62
7
  6
CONTINUOUS
 10
18.8609105631
 20
22.9707102584
 11
18.9731052419
 21
23.0829049371
  0
LINE
  5
3D9
100
AcDbEntity
  8
INCISIONI
100
AcDbLine
 62
7
  6
CONTINUOUS
 10
19.1080218977
 20
23.217821593
 11
19.2217809741
 21
23.3315806693
  0
LINE
  5
3DA
100
AcDbEntity
  8
INCISIONI
100
AcDbLine
 62
7
  6
CONTINUOUS
 10
18.1392716079
 20
22.0390605891
 11
18.2512762267
 21
22.151065208
  0
LINE
  5
3DB
100
AcDbEntity
  8
INCISIONI
100
AcDbLine
 62
7
  6
CONTINUOUS
 10
18.3574124327
 20
22.257201414
 11
18.4694170516
 21
22.3692060328
  0
LINE
  5
3DC
100
AcDbEntity
  8
INCISIONI
100
AcDbLine
 62
7
  6
CONTINUOUS
 10
19.0356587162
 20
22.9354476974
 11
19.1471884376
 21
23.0469774188
  0
LINE
  5
3DD
100
AcDbEntity
  8
INCISIONI
100
AcDbLine
 62
7
  6
CONTINUOUS
 10
19.275403875
 20
23.1751928562
 11
19.3885172251
 21
23.2883062063
  0
LINE
  5
3DE
100
AcDbEntity
  8
INCISIONI
100
AcDbLine
 62
7
  6
CONTINUOUS
 10
18.3022379819
 20
21.9920162491
 11
18.4142426008
 21
22.104020868
  0
LINE
  5
3DF
100
AcDbEntity
  8
INCISIONI
100
AcDbLine
 62
7
  6
CONTINUOUS
 10
18.5203788068
 20
22.210157074
 11
18.6323834257
 21
22.3221616929
  0
LINE
  5
3E0
100
AcDbEntity
  8
INCISIONI
100
AcDbLine
 62
7
  6
CONTINUOUS
 10
19.2041645844
 20
22.8939428516
 11
19.3161753048
 21
23.005953572
  0
LINE
  5
3E1
100
AcDbEntity
  8
INCISIONI
100
AcDbLine
 62
7
  6
CONTINUOUS
 10
19.4395382283
 20
23.1293164955
 11
19.552054539
 21
23.2418328062
  0
LINE
  5
3E2
100
AcDbEntity
  8
INCISIONI
100
AcDbLine
 62
7
  6
CONTINUOUS
 10
18.4539874902
 20
21.9337550434
 11
18.5704463909
 21
22.0502139441
  0
LINE
  5
3E3
100
AcDbEntity
  8
INCISIONI
100
AcDbLine
 62
7
  6
CONTINUOUS
 10
18.6872884053
 20
22.1670559585
 11
18.7988904401
 21
22.2786579933
  0
LINE
  5
3E4
100
AcDbEntity
  8
INCISIONI
100
AcDbLine
 62
7
  6
CONTINUOUS
 10
19.3661840333
 20
22.8459515865
 11
19.4789150895
 21
22.9586826427
  0
LINE
  5
3E5
100
AcDbEntity
  8
INCISIONI
100
AcDbLine
 62
7
  6
CONTINUOUS
 10
19.6008157697
 20
23.0805833229
 11
19.7132322148
 21
23.1929997679
  0
LINE
  5
3E6
100
AcDbEntity
  8
INCISIONI
100
AcDbLine
 62
7
  6
CONTINUOUS
 10
18.5639134033
 20
21.8336702425
 11
18.7056686572
 21
21.9754254963
  0
LINE
  5
3E7
100
AcDbEntity
  8
INCISIONI
100
AcDbLine
 62
7
  6
CONTINUOUS
 10
18.8648912056
 20
22.1346480448
 11
18.9791129384
 21
22.2488697776
  0
LINE
  5
3E8
100
AcDbEntity
  8
INCISIONI
100
AcDbLine
 62
7
  6
CONTINUOUS
 10
19.5214054163
 20
22.7911622554
 11
19.6355919678
 21
22.905348807
  0
LINE
  5
3E9
100
AcDbEntity
  8
INCISIONI
100
AcDbLine
 62
7
  6
CONTINUOUS
 10
19.7586046008
 20
23.02836144
 11
19.871489541
 21
23.1412463802
  0
LWPOLYLINE
  5
3EA
100
AcDbEntity
  8
INCISIONI
100
AcDbPolyline
 62
253
  6
CONTINUOUS
 90
58
 70
0
 10
19.6753503297
 20
22.4247737864
 10
19.6650425699
 20
22.4157055115
 10
19.6543798187
 20
22.4067049481
 10
19.643353071
 20
22.3977875728
 10
19.631953322
 20
22.3889688623
 10
19.6201715667
 20
22.3802642935
 10
19.6079988001
 20
22.371689343
 10
19.5954260173
 20
22.3632594877
 10
19.5824442132
 20
22.3549902043
 10
19.569044383
 20
22.3468969696
 10
19.5552175216
 20
22.3389952603
 10
19.5409546242
 20
22.3313005531
 10
19.5262466857
 20
22.3238283249
 10
19.5110847012
 20
22.3165940524
 10
19.4954596657
 20
22.3096132123
 10
19.4793625743
 20
22.3029012814
 10
19.462784422
 20
22.2964737364
 10
19.4471809835
 20
22.290850484
 10
19.4311898191
 20
22.2854856907
 10
19.4148340331
 20
22.2803864354
 10
19.39813673
 20
22.2755597973
 10
19.3811210143
 20
22.2710128555
 10
19.3638099903
 20
22.2667526891
 10
19.3462267625
 20
22.2627863771
 10
19.3283944354
 20
22.2591209986
 10
19.3103361134
 20
22.2557636328
 10
19.292074901
 20
22.2527213586
 10
19.2736339025
 20
22.2500012552
 10
19.2550362225
 20
22.2476104017
 10
19.2363049654
 20
22.245555877
 10
19.2174632356
 20
22.2438447605
 10
19.1977012422
 20
22.2424295219
 10
19.177857317
 20
22.2413853803
 10
19.1579447175
 20
22.2407015706
 10
19.1379767012
 20
22.2403673278
 10
19.1179665254
 20
22.2403718868
 10
19.0979274478
 20
22.2407044827
 10
19.0778727256
 20
22.2413543504
 10
19.0578156164
 20
22.2423107249
 10
19.0377693777
 20
22.2435628412
 10
19.0177472669
 20
22.2450999343
 10
18.9977625415
 20
22.2469112392
 10
18.9778284589
 20
22.2489859908
 10
18.9579582766
 20
22.2513134242
 10
18.938165252
 20
22.2538827742
 10
18.9184626426
 20
22.256683276
 10
18.898863706
 20
22.2597041645
 10
18.8793816994
 20
22.2629346746
 10
18.8600298804
 20
22.2663640414
 10
18.8408215065
 20
22.2699814999
 10
18.8217698351
 20
22.2737762849
 10
18.8028881237
 20
22.2777376316
 10
18.7841896297
 20
22.2818547749
 10
18.7656876107
 20
22.2861169497
 10
18.7473953239
 20
22.2905133911
 10
18.729326027
 20
22.2950333341
 10
18.7114929774
 20
22.2996660136
 10
18.6939094325
 20
22.3044006646
  0
LINE
  5
3EB
100
AcDbEntity
  8
INCISIONI
100
AcDbLine
 62
253
  6
CONTINUOUS
 10
18.4205042002
 20
23.508665176
 11
16.197062795
 21
21.5831084353
  0
LINE
  5
3EC
100
AcDbEntity
  8
INCISIONI
100
AcDbLine
 62
253
  6
CONTINUOUS
 10
18.5280576828
 20
23.3518092243
 11
16.5385691459
 21
21.6288616107
  0
LINE
  5
3ED
100
AcDbEntity
  8
INCISIONI
100
AcDbLine
 62
253
  6
CONTINUOUS
 10
17.8875635804
 20
22.3928351998
 11
18.7356295337
 21
23.1272851509
  0
LINE
  5
3EE
100
AcDbEntity
  8
INCISIONI
100
AcDbLine
 62
253
  6
CONTINUOUS
 10
16.9156650988
 20
21.5200033858
 11
17.7960769028
 21
22.2824671669
  0
LINE
  5
3EF
100
AcDbEntity
  8
INCISIONI
100
AcDbLine
 62
253
  6
CONTINUOUS
 10
18.229069998
 20
22.4385882509
 11
18.8466635559
 21
22.9734399612
  0
LINE
  5
3F0
100
AcDbEntity
  8
INCISIONI
100
AcDbLine
 62
253
  6
CONTINUOUS
 10
17.0071714498
 20
21.3492502103
 11
17.8875898011
 21
22.1117148685
  0
LINE
  5
3F1
100
AcDbEntity
  8
INCISIONI
100
AcDbLine
 62
253
  6
CONTINUOUS
 10
19.0371448319
 20
21.8780236449
 11
19.1351660175
 21
21.9629124704
  0
LINE
  5
3F2
100
AcDbEntity
  8
INCISIONI
100
AcDbLine
 62
253
  6
CONTINUOUS
 10
19.3383786028
 20
21.8888997317
 11
19.3516725201
 21
21.9004126018
  0
LINE
  5
3F3
100
AcDbEntity
  8
INCISIONI
100
AcDbLine
 62
253
  6
CONTINUOUS
 10
19.1351660175
 20
21.9629124704
 11
19.2272960418
 21
22.0357634128
  0
LINE
  5
3F4
100
AcDbEntity
  8
INCISIONI
100
AcDbLine
 62
253
  6
CONTINUOUS
 10
14.3351109884
 20
22.896170035
 11
16.3074027124
 21
23.8603404454
  0
LINE
  5
3F5
100
AcDbEntity
  8
INCISIONI
100
AcDbLine
 62
253
  6
CONTINUOUS
 10
15.9854805995
 20
23.5281481442
 11
14.7455831854
 21
22.9220144856
  0
LINE
  5
3F6
100
AcDbEntity
  8
INCISIONI
100
AcDbLine
 62
253
  6
CONTINUOUS
 10
14.1937987238
 20
22.8243436965
 11
13.520231482
 21
22.500180354
  0
LINE
  5
3F7
100
AcDbEntity
  8
INCISIONI
100
AcDbLine
 62
253
  6
CONTINUOUS
 10
14.2316700188
 20
22.669073628
 11
13.5581027771
 21
22.3449102855
  0
LINE
  5
3F8
100
AcDbEntity
  8
0
100
AcDbLine
 62
7
  6
CONTINUOUS
 10
-8.7070820421
 20
2.0753160099
 11
-12.8043078474
 21
1.7770143775
  0
LWPOLYLINE
  5
3F9
100
AcDbEntity
  8
0
100
AcDbPolyline
 62
253
  6
CONTINUOUS
 90
10
 70
0
 10
-63.75242021
 20
16.6546547966
 10
-63.8436061132
 20
16.676163928
 10
-63.9328374236
 20
16.68773534
 10
-64.0191898332
 20
16.6895529608
 10
-64.1013167361
 20
16.6819827569
 10
-64.1790138789
 20
16.6654459615
 10
-64.2529747939
 20
16.6398413595
 10
-64.3227107202
 20
16.6050009261
 10
-64.3869190644
 20
16.5612094204
 10
-64.4070738807
 20
16.5445583389
  0
LWPOLYLINE
  5
3FA
100
AcDbEntity
  8
0
100
AcDbPolyline
 62
7
  6
CONTINUOUS
 90
25
 70
0
 10
-14.9992262321
 20
11.8761592971
 10
-15.1624648481
 20
11.9196613593
 10
-15.3294565296
 20
11.9574735818
 10
-15.5002012769
 20
11.9895959644
 10
-15.6754535621
 20
12.0161079304
 10
-15.854458913
 20
12.0369300567
 10
-16.0349539125
 20
12.0518240737
 10
-16.2169522121
 20
12.0607182146
 10
-16.4004401604
 20
12.0636842462
 10
-16.5831133856
 20
12.0606992003
 10
-16.7649610123
 20
12.0516912741
 10
-16.9459939159
 20
12.0367322702
 10
-17.123940352
 20
12.0160146283
 10
-17.2987629561
 20
11.9894686745
 10
-17.4704990925
 20
11.9571640826
 10
-17.6369891097
 20
11.9195023141
 10
-17.7981705806
 20
11.8764184811
 10
-17.9541059322
 20
11.8279774715
 10
-18.1028227934
 20
11.77477541
 10
-18.2442375426
 20
11.7167535776
 10
-18.3784338014
 20
11.6539706933
 10
-18.5036900634
 20
11.5871990384
 10
-18.6194324932
 20
11.5166960401
 10
-18.7262349263
 20
11.4422042712
 10
-18.8240973627
 20
11.3637237318
  0
LINE
  5
3FB
100
AcDbEntity
  8
0
100
AcDbLine
 62
7
  6
CONTINUOUS
 10
-22.3388405804
 20
8.3198668175
 11
-12.3362471667
 21
5.4323668175
  0
LINE
  5
3FC
100
AcDbEntity
  8
0
100
AcDbLine
 62
7
  6
CONTINUOUS
 10
-6.7070820421
 20
3.8073668175
 11
3.2955113716
 21
0.9198668175
  0
LINE
  5
3FD
100
AcDbEntity
  8
0
100
AcDbLine
 62
7
  6
CONTINUOUS
 10
-21.5888405804
 20
8.7961807896
 11
-11.1353392985
 21
5.7785149
  0
LINE
  5
3FE
100
AcDbEntity
  8
0
100
AcDbLine
 62
7
  6
CONTINUOUS
 10
-6.4079899104
 20
4.4138466791
 11
4.0455113716
 21
1.3961807896
  0
LINE
  5
3FF
100
AcDbEntity
  8
0
100
AcDbLine
 62
7
  6
CONTINUOUS
 10
4.0455113716
 20
1.5693858703
 11
-6.4079899104
 21
4.5870517599
  0
LINE
  5
400
100
AcDbEntity
  8
0
100
AcDbLine
 62
7
  6
CONTINUOUS
 10
-11.1353392985
 20
5.9517199808
 11
-21.5888405804
 21
8.9693858703
  0
LINE
  5
401
100
AcDbEntity
  8
0
100
AcDbLine
 62
7
  6
CONTINUOUS
 10
-20.3388405804
 20
10.0519176251
 11
-10.3362471667
 21
7.1644176251
  0
LINE
  5
402
100
AcDbEntity
  8
0
100
AcDbLine
 62
7
  6
CONTINUOUS
 10
-4.7070820421
 20
5.5394176251
 11
5.2955113716
 21
2.6519176251
  0
LINE
  5
403
100
AcDbEntity
  8
0
100
AcDbLine
 62
7
  6
CONTINUOUS
 10
-19.5888405804
 20
10.5282315972
 11
-9.1353392985
 21
7.5105657076
  0
LINE
  5
404
100
AcDbEntity
  8
0
100
AcDbLine
 62
7
  6
CONTINUOUS
 10
-4.4079899104
 20
6.1458974867
 11
6.0455113716
 21
3.1282315972
  0
LINE
  5
405
100
AcDbEntity
  8
0
100
AcDbLine
 62
7
  6
CONTINUOUS
 10
6.0455113716
 20
3.3014366779
 11
-4.4079899104
 21
6.3191025675
  0
LINE
  5
406
100
AcDbEntity
  8
0
100
AcDbLine
 62
7
  6
CONTINUOUS
 10
-9.1353392985
 20
7.6837707884
 11
-19.5888405804
 21
10.7014366779
  0
LINE
  5
407
100
AcDbEntity
  8
0
100
AcDbLine
 62
7
  6
CONTINUOUS
 10
-14.9992262321
 20
11.8761592971
 11
5.7853834587
 21
5.8761592971
  0
LINE
  5
408
100
AcDbEntity
  8
0
100
AcDbLine
 62
7
  6
CONTINUOUS
 10
5.8353834587
 20
5.9194605673
 11
-14.9492262321
 21
11.9194605673
  0
LWPOLYLINE
  5
409
100
AcDbEntity
  8
IMPORT_IGES
100
AcDbPolyline
 62
7
  6
CONTINUOUS
 90
23
 70
0
 10
-40.7826162901
 20
20.6204565522
 10
-40.978654303
 20
20.6802627116
 10
-41.1679251552
 20
20.7443257522
 10
-41.3504288467
 20
20.8126456738
 10
-41.5265403142
 20
20.885397677
 10
-41.695884621
 20
20.9624065614
 10
-41.8573369567
 20
21.0431467251
 10
-42.0108443137
 20
21.1276420901
 10
-42.1564596996
 20
21.2158687345
 10
-42.2932173262
 20
21.3072292909
 10
-42.4210584875
 20
21.4017438971
 10
-42.5400418895
 20
21.4993924154
 10
-42.6493778624
 20
21.5995170653
 10
-42.7490029954
 20
21.7021340902
 10
-42.8389806993
 20
21.8072272467
 10
-42.9187115364
 20
21.914090024
 10
-42.988127969
 20
22.0227337822
 10
-43.0472975348
 20
22.1331471613
 10
-43.0958234083
 20
22.2445895705
 10
-43.1336357389
 20
22.3570680511
 10
-43.1608043771
 20
22.4705755617
 10
-43.1771420494
 20
22.5843503873
 10
-43.1825775563
 20
22.6989175184
  0
LWPOLYLINE
  5
40A
100
AcDbEntity
  8
0
100
AcDbPolyline
 62
7
  6
CONTINUOUS
 90
15
 70
0
 10
-40.8826162898
 20
20.5604859711
 10
-41.2037523128
 20
20.6618765816
 10
-41.5053868693
 20
20.7733141743
 10
-41.7875199594
 20
20.8947987494
 10
-42.0513741162
 20
21.0271252981
 10
-42.2957268066
 20
21.169498829
 10
-42.5169104312
 20
21.3195343683
 10
-42.7145802148
 20
21.4773268353
 10
-42.8890809326
 20
21.6427813106
 10
-43.0377793117
 20
21.8132280629
 10
-43.1603094006
 20
21.988732225
 10
-43.2570371507
 20
22.169228664
 10
-43.3264271432
 20
22.3518522492
 10
-43.3680973216
 20
22.5366380614
 10
-43.3824338639
 20
22.7255495384
  0
LWPOLYLINE
  5
40B
100
AcDbEntity
  8
0
100
AcDbPolyline
 62
7
  6
CONTINUOUS
 90
13
 70
0
 10
5.8353834587
 20
5.9194605673
 10
6.0592948424
 20
5.8476954587
 10
6.2669034963
 20
5.7679838792
 10
6.4582094206
 20
5.680325829
 10
6.6343442792
 20
5.5839371179
 10
6.794176408
 20
5.479601936
 10
6.9343108152
 20
5.3696728536
 10
7.0543308077
 20
5.2540451688
 10
7.1546530786
 20
5.1328235837
 10
7.2331327145
 20
5.0086747743
 10
7.2893251928
 20
4.8815390904
 10
7.3236750363
 20
4.7514761823
 10
7.3353710166
 20
4.6204224632
  0
LINE
  5
40C
100
AcDbEntity
  8
0
100
AcDbLine
 62
7
  6
CONTINUOUS
 10
39.3828208346
 20
-38.8251309936
 11
39.6734724366
 21
-39.1795751645
  0
LINE
  5
40D
100
AcDbEntity
  8
0
100
AcDbLine
 62
7
  6
CONTINUOUS
 10
40.0505272471
 20
-39.6393864259
 11
40.341178849
 21
-39.9938305968
  0
LINE
  5
40E
100
AcDbEntity
  8
0
100
AcDbLine
 62
7
  6
CONTINUOUS
 10
40.1784485809
 20
-38.2636881716
 11
40.4148435578
 21
-38.5519674071
  0
LWPOLYLINE
  5
40F
100
AcDbEntity
  8
0
100
AcDbPolyline
 62
7
  6
CONTINUOUS
 90
27
 70
0
 10
38.7048489336
 20
-42.091763065
 10
38.6347599225
 20
-41.9943490831
 10
38.5731703335
 20
-41.8807381364
 10
38.5201455978
 20
-41.7504087592
 10
38.4756202841
 20
-41.6038824172
 10
38.4407022768
 20
-41.444626857
 10
38.415657739
 20
-41.2724228292
 10
38.4002205075
 20
-41.0874895834
 10
38.3946999781
 20
-40.8939526148
 10
38.3992924909
 20
-40.6917040542
 10
38.4138017057
 20
-40.4808517709
 10
38.4379479966
 20
-40.2658448678
 10
38.4719438843
 20
-40.0464900808
 10
38.5155768482
 20
-39.822980674
 10
38.5679297007
 20
-39.6003455425
 10
38.6291204456
 20
-39.3787551941
 10
38.6990310793
 20
-39.158039121
 10
38.7763904033
 20
-38.9427146943
 10
38.8615072878
 20
-38.7325303098
 10
38.9540728627
 20
-38.5277375718
 10
39.0518893189
 20
-38.3336086648
 10
39.1551491977
 20
-38.1504503054
 10
39.2636599579
 20
-37.977955777
 10
39.3746461665
 20
-37.8204771141
 10
39.4871826794
 20
-37.6794649949
 10
39.6021946407
 20
-37.5534687413
 10
39.7196820505
 20
-37.4424883531
  0
LINE
  5
410
100
AcDbEntity
  8
0
100
AcDbLine
 62
7
  6
CONTINUOUS
 10
10.7824132514
 20
-17.5593251183
 11
10.6243880729
 21
-16.7043357401
  0
LINE
  5
411
100
AcDbEntity
  8
0
100
AcDbLine
 62
7
  6
CONTINUOUS
 10
9.700398513
 20
-17.7963358556
 11
9.8395345336
 21
-18.6736490385
  0
LINE
  5
412
100
AcDbEntity
  8
0
100
AcDbLine
 62
7
  6
CONTINUOUS
 10
9.2581784137
 20
-32.8203608112
 11
9.9955197239
 21
-37.6345947464
  0
LINE
  5
413
100
AcDbEntity
  8
0
100
AcDbLine
 62
7
  6
CONTINUOUS
 10
15.6768480603
 20
-19.5215882331
 11
15.7161338509
 21
-20.3700771374
  0
LWPOLYLINE
  5
414
100
AcDbEntity
  8
INCISIONI
100
AcDbPolyline
 62
253
  6
CONTINUOUS
 90
6
 70
0
 10
18.5792717661
 20
21.6831497052
 10
18.5714414296
 20
21.6608753677
 10
18.5628327605
 20
21.6386740701
 10
18.5535812027
 20
21.6165336224
 10
18.5438222003
 20
21.5944418343
 10
18.5336911971
 20
21.5723865159
  0
LINE
  5
415
100
AcDbEntity
  8
INCISIONI
100
AcDbLine
 62
253
  6
CONTINUOUS
 10
16.7273161568
 20
23.8834594426
 11
15.7903164744
 21
21.8448632633
  0
LINE
  5
416
100
AcDbEntity
  8
INCISIONI
100
AcDbLine
 62
253
  6
CONTINUOUS
 10
17.0123549324
 20
23.945513403
 11
15.9582142414
 21
21.6520577855
  0
LINE
  5
417
100
AcDbEntity
  8
INCISIONI
100
AcDbLine
 62
253
  6
CONTINUOUS
 10
18.5336911971
 20
21.5723865159
 11
18.439285526
 21
21.3728289784
  0
LWPOLYLINE
  5
418
100
AcDbEntity
  8
INCISIONI
100
AcDbPolyline
 62
253
  6
CONTINUOUS
 90
5
 70
0
 10
18.439285526
 20
21.3728289784
 10
18.402325038
 20
21.295119026
 10
18.3531037539
 20
21.1932365832
 10
18.3031671903
 20
21.0914297302
 10
18.2527529542
 20
20.9896818019
  0
LWPOLYLINE
  5
419
100
AcDbEntity
  8
INCISIONI
100
AcDbPolyline
 62
253
  6
CONTINUOUS
 90
40
 70
0
 10
18.540541274
 20
21.0509420372
 10
18.6014141148
 20
21.1750121435
 10
18.661605344
 20
21.2991658259
 10
18.7011171526
 20
21.382010375
 10
18.7399675089
 20
21.4649322063
 10
18.7780106016
 20
21.547944689
 10
18.8034776788
 20
21.6051485401
 10
18.8116311161
 20
21.6242559414
 10
18.8192494043
 20
21.6434140656
 10
18.8259633892
 20
21.6626524404
 10
18.8307004036
 20
21.6790198861
 10
18.8345005975
 20
21.6954511292
 10
18.8373399972
 20
21.7119312757
 10
18.8391946295
 20
21.7284454313
 10
18.8400311823
 20
21.7449780584
 10
18.8397789895
 20
21.7615110461
 10
18.8383580465
 20
21.77802564
 10
18.8356883488
 20
21.7945030856
 10
18.8316795351
 20
21.8110063664
 10
18.8263291418
 20
21.8274210313
 10
18.819637993
 20
21.8437149412
 10
18.8116069127
 20
21.859855957
 10
18.802236725
 20
21.8758119396
 10
18.791528254
 20
21.8915507498
 10
18.7794823238
 20
21.9070402485
 10
18.7659269426
 20
21.9224395384
 10
18.7510312097
 20
21.9375224559
 10
18.734825415
 20
21.9522612396
 10
18.7173398487
 20
21.9666281283
 10
18.6986048007
 20
21.9805953607
 10
18.6786505611
 20
21.9941351756
 10
18.6575074199
 20
22.0072198118
 10
18.6349161349
 20
22.0199825955
 10
18.6111982045
 20
22.0322335369
 10
18.5864156278
 20
22.0439562522
 10
18.5606304038
 20
22.0551343577
 10
18.5339045313
 20
22.0657514694
 10
18.5063000094
 20
22.0757912036
 10
18.477878837
 20
22.0852371763
 10
18.448703013
 20
22.0940730039
  0
LWPOLYLINE
  5
41A
100
AcDbEntity
  8
INCISIONI
100
AcDbPolyline
 62
253
  6
CONTINUOUS
 90
42
 70
0
 10
19.3960732701
 20
21.4281362298
 10
19.4034557971
 20
21.4423085256
 10
19.4106909484
 20
21.4564949633
 10
19.4177334673
 20
21.470703683
 10
19.4245380973
 20
21.484942825
 10
19.4310595819
 20
21.4992205293
 10
19.4372526645
 20
21.5135449363
 10
19.4430720887
 20
21.5279241862
 10
19.4484725978
 20
21.542366419
 10
19.4534089353
 20
21.5568797752
 10
19.4578358447
 20
21.5714723947
 10
19.4617080694
 20
21.586152418
 10
19.4649803529
 20
21.6009279851
 10
19.4676074387
 20
21.6158072363
 10
19.4695440702
 20
21.6307983117
 10
19.4704344319
 20
21.6409254474
 10
19.4709814553
 20
21.6510961626
 10
19.4711732795
 20
21.6612999863
 10
19.4709980433
 20
21.6715264475
 10
19.4704438858
 20
21.6817650751
 10
19.4694989458
 20
21.6920053983
 10
19.4681513625
 20
21.702236946
 10
19.4663892748
 20
21.7124492472
 10
19.4642008216
 20
21.722631831
 10
19.4615741419
 20
21.7327742263
 10
19.4584973747
 20
21.7428659623
 10
19.454958659
 20
21.7528965678
 10
19.4509461338
 20
21.7628555719
 10
19.4464479379
 20
21.7727325037
 10
19.4414522105
 20
21.7825168921
 10
19.4359470904
 20
21.7921982661
 10
19.4299207167
 20
21.8017661548
 10
19.4233612283
 20
21.8112100872
 10
19.4162567642
 20
21.8205195923
 10
19.4085954633
 20
21.8296841991
 10
19.4003654647
 20
21.8386934366
 10
19.3915549074
 20
21.8475368339
 10
19.3821519302
 20
21.8562039199
 10
19.3721446721
 20
21.8646842237
 10
19.3615212723
 20
21.8729672742
 10
19.3502698695
 20
21.8810426006
 10
19.3383786028
 20
21.8888997317
  0
LINE
  5
41B
100
AcDbEntity
  8
INCISIONI
100
AcDbLine
 62
253
  6
CONTINUOUS
 10
15.1009434884
 20
21.8995305355
 11
15.3393606776
 21
22.349310878
  0
LINE
  5
41C
100
AcDbEntity
  8
INCISIONI
100
AcDbLine
 62
253
  6
CONTINUOUS
 10
15.3916075394
 20
21.9599606187
 11
15.6300247286
 21
22.4097409612
  0
LINE
  5
41D
100
AcDbEntity
  8
INCISIONI
100
AcDbLine
 62
253
  6
CONTINUOUS
 10
19.3227022928
 20
21.2900845223
 11
19.3960732701
 21
21.4281362298
  0
LINE
  5
41E
100
AcDbEntity
  8
INCISIONI
100
AcDbLine
 62
253
  6
CONTINUOUS
 10
19.0351313712
 20
20.763828607
 11
19.0565759186
 21
20.8039856604
  0
LWPOLYLINE
  5
41F
100
AcDbEntity
  8
0
100
AcDbPolyline
 62
7
  6
CONTINUOUS
 90
6
 70
0
 10
-0.4674394374
 20
-14.2256179453
 10
-0.5004000701
 20
-14.2862315486
 10
-0.5241535021
 20
-14.3467271683
 10
-0.5386997333
 20
-14.4071048045
 10
-0.5439791062
 20
-14.4679004696
 10
-0.542414084
 20
-14.5080000039
  0
LWPOLYLINE
  5
420
100
AcDbEntity
  8
INCISIONI
100
AcDbPolyline
 62
253
  6
CONTINUOUS
 90
3
 70
0
 10
19.2344009361
 20
21.1276378816
 10
19.2787835091
 20
21.2088301229
 10
19.3227022928
 20
21.2900845223
  0
LINE
  5
421
100
AcDbEntity
  8
INCISIONI
100
AcDbLine
 62
253
  6
CONTINUOUS
 10
19.0565759186
 20
20.8039856604
 11
19.100298007
 21
20.8841882986
  0
LINE
  5
422
100
AcDbEntity
  8
INCISIONI
100
AcDbLine
 62
253
  6
CONTINUOUS
 10
19.0229149681
 20
21.2158824434
 11
18.8789079691
 21
20.9532639859
  0
LINE
  5
423
100
AcDbEntity
  8
INCISIONI
100
AcDbLine
 62
253
  6
CONTINUOUS
 10
19.100298007
 20
20.8841882986
 11
19.2344009361
 21
21.1276378816
  0
LINE
  5
424
100
AcDbEntity
  8
INCISIONI
100
AcDbLine
 62
253
  6
CONTINUOUS
 10
15.5243383433
 20
22.6972072356
 11
15.9854805995
 21
23.5281481442
  0
LINE
  5
425
100
AcDbEntity
  8
INCISIONI
100
AcDbLine
 62
253
  6
CONTINUOUS
 10
16.4124520702
 20
23.8300153079
 11
15.6789179526
 21
22.5082463788
  0
LINE
  5
426
100
AcDbEntity
  8
INCISIONI
100
AcDbLine
 62
7
  6
CONTINUOUS
 10
18.550711344
 20
21.6104574691
 11
18.8072571597
 21
21.8670032848
  0
LINE
  5
427
100
AcDbEntity
  8
INCISIONI
100
AcDbLine
 62
7
  6
CONTINUOUS
 10
19.0574875267
 20
22.1172336519
 11
19.1822384018
 21
22.241984527
  0
LINE
  5
428
100
AcDbEntity
  8
INCISIONI
100
AcDbLine
 62
7
  6
CONTINUOUS
 10
19.6561848945
 20
22.7159310196
 11
19.779852513
 21
22.8395986381
  0
LINE
  5
429
100
AcDbEntity
  8
INCISIONI
100
AcDbLine
 62
7
  6
CONTINUOUS
 10
19.911747615
 20
22.9714937402
 11
20.0257605308
 21
23.085506656
  0
LINE
  5
42A
100
AcDbEntity
  8
INCISIONI
100
AcDbLine
 62
7
  6
CONTINUOUS
 10
18.3610049516
 20
21.2107403627
 11
18.8292475173
 21
21.6789829285
  0
LINE
  5
42B
100
AcDbEntity
  8
INCISIONI
100
AcDbLine
 62
7
  6
CONTINUOUS
 10
19.2727466486
 20
22.1224820598
 11
19.4385481166
 21
22.2882835278
  0
LINE
  5
42C
100
AcDbEntity
  8
INCISIONI
100
AcDbLine
 62
7
  6
CONTINUOUS
 10
19.7439067201
 20
22.5936421312
 11
19.9026090243
 21
22.7523444355
  0
LINE
  5
42D
100
AcDbEntity
  8
INCISIONI
100
AcDbLine
 62
7
  6
CONTINUOUS
 10
20.0588634491
 20
22.9085988602
 11
20.1745583966
 21
23.0242938077
  0
LINE
  5
42E
100
AcDbEntity
  8
INCISIONI
100
AcDbLine
 62
7
  6
CONTINUOUS
 10
18.3281824771
 20
20.9679071742
 11
18.6635084879
 21
21.3032331851
  0
LINE
  5
42F
100
AcDbEntity
  8
INCISIONI
100
AcDbLine
 62
7
  6
CONTINUOUS
 10
19.1590415737
 20
21.7987662708
 11
19.3838742801
 21
22.0235989773
  0
LINE
  5
430
100
AcDbEntity
  8
INCISIONI
100
AcDbLine
 62
7
  6
CONTINUOUS
 10
19.5299178241
 20
22.1696425213
 11
19.9873023758
 21
22.627027073
  0
LINE
  5
431
100
AcDbEntity
  8
INCISIONI
100
AcDbLine
 62
7
  6
CONTINUOUS
 10
20.1971502924
 20
22.8368749896
 11
20.316503106
 21
22.9562278032
  0
LINE
  5
432
100
AcDbEntity
  8
INCISIONI
100
AcDbLine
 62
7
  6
CONTINUOUS
 10
18.4911488511
 20
20.9208628342
 11
18.60315347
 21
21.0328674531
  0
LINE
  5
433
100
AcDbEntity
  8
INCISIONI
100
AcDbLine
 62
7
  6
CONTINUOUS
 10
19.22079574
 20
21.6505097231
 11
19.4042895679
 21
21.8340035511
  0
LINE
  5
434
100
AcDbEntity
  8
INCISIONI
100
AcDbLine
 62
7
  6
CONTINUOUS
 10
19.4659332584
 20
21.8956472415
 11
19.6045545804
 21
22.0342685635
  0
LINE
  5
435
100
AcDbEntity
  8
INCISIONI
100
AcDbLine
 62
7
  6
CONTINUOUS
 10
20.3134175665
 20
22.7431315496
 11
20.4484243412
 21
22.8781383243
  0
LINE
  5
436
100
AcDbEntity
  8
INCISIONI
100
AcDbLine
 62
7
  6
CONTINUOUS
 10
18.6541152252
 20
20.8738184943
 11
18.766119844
 21
20.9858231131
  0
LINE
  5
437
100
AcDbEntity
  8
INCISIONI
100
AcDbLine
 62
7
  6
CONTINUOUS
 10
19.0541542912
 20
21.2738575603
 11
19.4696438965
 21
21.6893471656
  0
LINE
  5
438
100
AcDbEntity
  8
INCISIONI
100
AcDbLine
 62
7
  6
CONTINUOUS
 10
19.6992501563
 20
21.9189534254
 11
19.8706990698
 21
22.0904023389
  0
LINE
  5
439
100
AcDbEntity
  8
INCISIONI
100
AcDbLine
 62
7
  6
CONTINUOUS
 10
20.3879593252
 20
22.6076625943
 11
20.5567619258
 21
22.7764651949
  0
LINE
  5
43A
100
AcDbEntity
  8
INCISIONI
100
AcDbLine
 62
7
  6
CONTINUOUS
 10
18.8170815992
 20
20.8267741543
 11
19.3707871374
 21
21.3804796925
  0
LINE
  5
43B
100
AcDbEntity
  8
INCISIONI
100
AcDbLine
 62
7
  6
CONTINUOUS
 10
19.9631352514
 20
21.9728278065
 11
20.6302982868
 21
22.6399908419
  0
LINE
  5
43C
100
AcDbEntity
  8
INCISIONI
100
AcDbLine
 62
7
  6
CONTINUOUS
 10
18.9800479733
 20
20.7797298143
 11
19.1196647911
 21
20.9193466322
  0
LINE
  5
43D
100
AcDbEntity
  8
INCISIONI
100
AcDbLine
 62
7
  6
CONTINUOUS
 10
20.3288256097
 20
22.1285074508
 11
20.6092458766
 21
22.4089277177
  0
LWPOLYLINE
  5
43E
100
AcDbEntity
  8
0
100
AcDbPolyline
 62
7
  6
CONTINUOUS
 90
9
 70
0
 10
6.8102545893
 20
3.9637237318
 10
6.8972587137
 20
4.0453430398
 10
6.9728831586
 20
4.1288388806
 10
7.0371279239
 20
4.2142112542
 10
7.090151856
 20
4.3018373968
 10
7.1317961085
 20
4.3913400722
 10
7.1615841425
 20
4.481587572
 10
7.1793724243
 20
4.5725867218
 10
7.1853043022
 20
4.6637237463
  0
LWPOLYLINE
  5
43F
100
AcDbEntity
  8
0
100
AcDbPolyline
 62
7
  6
CONTINUOUS
 90
22
 70
0
 10
-1.8397454107
 20
-3.5273960109
 10
-1.8776956672
 20
-3.5628678849
 10
-1.9149617453
 20
-3.6024502142
 10
-1.9515436451
 20
-3.646142999
 10
-1.9876267403
 20
-3.6942394003
 10
-2.0230256571
 20
-3.7464462571
 10
-2.0571842748
 20
-3.8018840858
 10
-2.0900822269
 20
-3.8605935827
 10
-2.1217398799
 20
-3.9225340516
 10
-2.1516622125
 20
-3.9867039201
 10
-2.1798240457
 20
-4.0531326147
 10
-2.2062505585
 20
-4.1217907089
 10
-2.2305222666
 20
-4.1915883507
 10
-2.2526095912
 20
-4.2625435352
 10
-2.272542111
 20
-4.3346382672
 10
-2.2899890788
 20
-4.4067287091
 10
-2.3049168153
 20
-4.4788209695
 10
-2.3173589997
 20
-4.5509089397
 10
-2.3270859224
 20
-4.6218304559
 10
-2.3340210135
 20
-4.6911981302
 10
-2.338240843
 20
-4.7593993504
 10
-2.3397454107
 20
-4.8264341166
  0
LINE
  5
440
100
AcDbEntity
  8
0
100
AcDbLine
 62
7
  6
CONTINUOUS
 10
6.8102545893
 20
3.9637237318
 11
6.0455113716
 21
3.3014366779
  0
LINE
  5
441
100
AcDbEntity
  8
0
100
AcDbLine
 62
7
  6
CONTINUOUS
 10
5.2955113716
 20
2.6519176251
 11
4.0455113716
 21
1.5693858703
  0
LINE
  5
442
100
AcDbEntity
  8
0
100
AcDbLine
 62
7
  6
CONTINUOUS
 10
3.2955113716
 20
0.9198668175
 11
2.0455113716
 21
-0.1626649372
  0
LINE
  5
443
100
AcDbEntity
  8
0
100
AcDbLine
 62
7
  6
CONTINUOUS
 10
1.2955113716
 20
-0.8121839901
 11
-1.8397454107
 21
-3.5273960109
  0
LINE
  5
444
100
AcDbEntity
  8
0
100
AcDbLine
 62
7
  6
CONTINUOUS
 10
4.0455113716
 20
1.3961807896
 11
3.2955113716
 21
0.7466617367
  0
LINE
  5
445
100
AcDbEntity
  8
0
100
AcDbLine
 62
7
  6
CONTINUOUS
 10
1.2955113716
 20
-0.9853890708
 11
2.0455113716
 21
-0.335870018
  0
LINE
  5
446
100
AcDbEntity
  8
0
100
AcDbLine
 62
7
  6
CONTINUOUS
 10
5.2955113716
 20
2.4787125443
 11
6.0455113716
 21
3.1282315972
  0
LINE
  5
447
100
AcDbEntity
  8
0
100
AcDbLine
 62
7
  6
CONTINUOUS
 10
-1.66654033
 20
-3.5773960109
 11
6.93345967
 21
3.8704224616
  0
LINE
  5
448
100
AcDbEntity
  8
0
100
AcDbLine
 62
7
  6
CONTINUOUS
 10
-2.3397454107
 20
-5.2594468185
 11
-2.16654033
 21
-5.1094468185
  0
LINE
  5
449
100
AcDbEntity
  8
0
100
AcDbLine
 62
7
  6
CONTINUOUS
 10
-8.4079899104
 20
2.6817958716
 11
-11.848823049
 21
2.4312834051
  0
LINE
  5
44A
100
AcDbEntity
  8
0
100
AcDbLine
 62
7
  6
CONTINUOUS
 10
-11.848823049
 20
2.6044884858
 11
-8.4079899104
 21
2.8550009523
  0
LINE
  5
44B
100
AcDbEntity
  8
0
100
AcDbLine
 62
7
  6
CONTINUOUS
 10
-6.7070820421
 20
3.8073668175
 11
-10.8043078474
 21
3.509065185
  0
LINE
  5
44C
100
AcDbEntity
  8
0
100
AcDbLine
 62
7
  6
CONTINUOUS
 10
-6.4079899104
 20
4.4138466791
 11
-9.848823049
 21
4.1633342126
  0
LINE
  5
44D
100
AcDbEntity
  8
0
100
AcDbLine
 62
7
  6
CONTINUOUS
 10
-9.848823049
 20
4.3365392934
 11
-6.4079899104
 21
4.5870517599
  0
LINE
  5
44E
100
AcDbEntity
  8
0
100
AcDbLine
 62
7
  6
CONTINUOUS
 10
-4.7070820421
 20
5.5394176251
 11
-8.8043078474
 21
5.2411159926
  0
LINE
  5
44F
100
AcDbEntity
  8
0
100
AcDbLine
 62
7
  6
CONTINUOUS
 10
-4.4079899104
 20
6.1458974867
 11
-7.848823049
 21
5.8953850202
  0
LINE
  5
450
100
AcDbEntity
  8
0
100
AcDbLine
 62
7
  6
CONTINUOUS
 10
-7.848823049
 20
6.068590101
 11
-4.4079899104
 21
6.3191025675
  0
LINE
  5
451
100
AcDbEntity
  8
0
100
AcDbLine
 62
7
  6
CONTINUOUS
 10
-15.1855039064
 20
11.9805387182
 11
-14.9492262321
 21
11.9194605673
  0
LINE
  5
452
100
AcDbEntity
  8
0
100
AcDbLine
 62
7
  6
CONTINUOUS
 10
-40.8826162898
 20
20.5604859711
 11
33.7687735164
 21
-0.9895140289
  0
LINE
  5
453
100
AcDbEntity
  8
IMPORT_IGES
100
AcDbLine
 62
7
  6
CONTINUOUS
 10
33.8687735161
 20
-0.9295434478
 11
-40.7826162901
 21
20.6204565522
  0
LINE
  5
454
100
AcDbEntity
  8
0
100
AcDbLine
 62
253
  6
CONTINUOUS
 10
26.9371189854
 20
-27.5331415514
 11
26.6893888785
 21
-26.9222844809
  0
LINE
  5
455
100
AcDbEntity
  8
0
100
AcDbLine
 62
253
  6
CONTINUOUS
 10
26.6893888785
 20
-26.9222844809
 11
26.1577864792
 21
-25.6109824094
  0
LINE
  5
456
100
AcDbEntity
  8
0
100
AcDbLine
 62
7
  6
CONTINUOUS
 10
34.1390997863
 20
-44.6042459705
 11
32.1079354646
 21
-39.2040925355
  0
LINE
  5
457
100
AcDbEntity
  8
0
100
AcDbLine
 62
7
  6
CONTINUOUS
 10
34.3181107794
 20
-44.655921993
 11
32.0846586995
 21
-38.7179563678
  0
LWPOLYLINE
  5
458
100
AcDbEntity
  8
0
100
AcDbPolyline
 62
7
  6
CONTINUOUS
 90
3
 70
0
 10
26.803211848
 20
-21.5865722116
 10
26.8226665377
 20
-21.6393731468
 10
26.8347178741
 20
-21.6936458562
  0
LINE
  5
459
100
AcDbEntity
  8
0
100
AcDbLine
 62
7
  6
CONTINUOUS
 10
-7.9245839787
 20
-25.7851182509
 11
-0.3407262365
 21
-16.8222750282
  0
LINE
  5
45A
100
AcDbEntity
  8
0
100
AcDbLine
 62
7
  6
CONTINUOUS
 10
0.948388617
 20
-17.7056974214
 11
-6.2877748286
 21
-26.2576243526
  0
LINE
  5
45B
100
AcDbEntity
  8
0
100
AcDbLine
 62
7
  6
CONTINUOUS
 10
27.0719579351
 20
-24.5305840153
 11
26.7090349543
 21
-22.0707915242
  0
LINE
  5
45C
100
AcDbEntity
  8
0
100
AcDbLine
 62
253
  6
CONTINUOUS
 10
27.3157721297
 20
-26.1831069005
 11
27.0719579351
 21
-24.5305840153
  0
LINE
  5
45D
100
AcDbEntity
  8
0
100
AcDbLine
 62
7
  6
CONTINUOUS
 10
27.4415096965
 20
-25.8059534741
 11
26.8347726239
 21
-21.6936387948
  0
LINE
  5
45E
100
AcDbEntity
  8
0
100
AcDbLine
 62
7
  6
CONTINUOUS
 10
26.8409017724
 20
-26.7443234376
 11
26.771570787
 21
-26.2096494593
  0
LINE
  5
45F
100
AcDbEntity
  8
0
100
AcDbLine
 62
253
  6
CONTINUOUS
 10
26.771570787
 20
-26.2096494593
 11
26.6229892723
 21
-25.0611901721
  0
LINE
  5
460
100
AcDbEntity
  8
0
100
AcDbLine
 62
253
  6
CONTINUOUS
 10
25.7189665897
 20
-24.8563473524
 11
25.6510042942
 21
-24.2954412472
  0
LINE
  5
461
100
AcDbEntity
  8
0
100
AcDbLine
 62
253
  6
CONTINUOUS
 10
25.6510042942
 20
-24.2954412472
 11
25.5835775185
 21
-23.7346822275
  0
LINE
  5
462
100
AcDbEntity
  8
0
100
AcDbLine
 62
253
  6
CONTINUOUS
 10
25.5835775185
 20
-23.7346822275
 11
25.5166862812
 21
-23.1740704508
  0
LWPOLYLINE
  5
463
100
AcDbEntity
  8
0
100
AcDbPolyline
 62
253
  6
CONTINUOUS
 90
3
 70
0
 10
25.5166862812
 20
-23.1740704508
 10
25.4503306579
 20
-22.6136065474
 10
25.4173536967
 20
-22.3334300087
  0
LWPOLYLINE
  5
464
100
AcDbEntity
  8
0
100
AcDbPolyline
 62
7
  6
CONTINUOUS
 90
5
 70
0
 10
30.8191109647
 20
-36.6968265714
 10
30.8234561579
 20
-36.7460980725
 10
30.8208312644
 20
-36.8165486765
 10
30.8079775487
 20
-36.8877100885
 10
30.7848950106
 20
-36.9595823082
  0
LWPOLYLINE
  5
465
100
AcDbEntity
  8
0
100
AcDbPolyline
 62
7
  6
CONTINUOUS
 90
8
 70
0
 10
26.8347178741
 20
-21.6936458562
 10
26.8389551566
 20
-21.7466634993
 10
26.8357083288
 20
-21.8015696408
 10
26.8249212475
 20
-21.8570386098
 10
26.8068361834
 20
-21.9118202334
 10
26.7815338932
 20
-21.9654977874
 10
26.7489336201
 20
-22.0184879962
 10
26.7090353641
 20
-22.0707908596
  0
LINE
  5
466
100
AcDbEntity
  8
0
100
AcDbLine
 62
7
  6
CONTINUOUS
 10
-4.3542890175
 20
-26.8157736294
 11
1.2514976145
 21
-20.1906776059
  0
LINE
  5
467
100
AcDbEntity
  8
INCISIONI
100
AcDbLine
 62
253
  6
CONTINUOUS
 10
19.2272960418
 20
22.0357634128
 11
19.4068106993
 21
22.0218170656
  0
LWPOLYLINE
  5
468
100
AcDbEntity
  8
INCISIONI
100
AcDbPolyline
 62
253
  6
CONTINUOUS
 90
73
 70
0
 10
19.3516725201
 20
21.9004126018
 10
19.3663509059
 20
21.8977994265
 10
19.3813886406
 20
21.8959479324
 10
19.3967351402
 20
21.8947766585
 10
19.4123398207
 20
21.8942041438
 10
19.4281520979
 20
21.8941489273
 10
19.4441213878
 20
21.894529548
 10
19.4601971063
 20
21.8952645449
 10
19.4763286694
 20
21.8962724569
 10
19.492465493
 20
21.8974718231
 10
19.5085569931
 20
21.8987811825
 10
19.5486818936
 20
21.9022504263
 10
19.5882299993
 20
21.9059683386
 10
19.6272327484
 20
21.910002641
 10
19.665721579
 20
21.914421055
 10
19.7037279293
 20
21.9192913022
 10
19.7412832374
 20
21.9246811041
 10
19.7784189414
 20
21.9306581824
 10
19.8151664795
 20
21.9372902586
 10
19.854438153
 20
21.9452469396
 10
19.8932305278
 20
21.9540119299
 10
19.9314804181
 20
21.9635505069
 10
19.969124638
 20
21.9738279482
 10
20.0061000016
 20
21.9848095314
 10
20.0423433232
 20
21.996460534
 10
20.0777914168
 20
22.0087462335
 10
20.1123810966
 20
22.0216319074
 10
20.1460491767
 20
22.0350828333
 10
20.1787324714
 20
22.0490642888
 10
20.2103508604
 20
22.0635315891
 10
20.2409269521
 20
22.0784790955
 10
20.270464529
 20
22.0938921015
 10
20.2989673739
 20
22.109755901
 10
20.3264392694
 20
22.1260557876
 10
20.3528839983
 20
22.142777055
 10
20.3818601632
 20
22.1623880744
 10
20.4094933666
 20
22.182496642
 10
20.4357781032
 20
22.2030688246
 10
20.460708868
 20
22.2240706893
 10
20.4842801557
 20
22.2454683027
 10
20.5064864612
 20
22.2672277319
 10
20.5268077046
 20
22.2887637486
 10
20.5457511435
 20
22.3105998163
 10
20.5632419514
 20
22.3327242547
 10
20.5792053014
 20
22.3551253836
 10
20.5935663669
 20
22.3777915228
 10
20.6050497868
 20
22.3983810051
 10
20.6151439977
 20
22.4191559652
 10
20.62381495
 20
22.4400971823
 10
20.6310285941
 20
22.4611854355
 10
20.6367508803
 20
22.482401504
 10
20.6412522857
 20
22.5056178052
 10
20.643946038
 20
22.5289219913
 10
20.6448322225
 20
22.5522732536
 10
20.6439109246
 20
22.5756307834
 10
20.6411822295
 20
22.5989537719
 10
20.6366462228
 20
22.6222014103
 10
20.6303029898
 20
22.64533289
 10
20.6221526159
 20
22.6683074021
 10
20.6127993332
 20
22.6898274476
 10
20.6018573302
 20
22.7111495941
 10
20.5893498334
 20
22.7322523649
 10
20.5753000694
 20
22.7531142833
 10
20.5597312648
 20
22.7737138726
 10
20.5426666461
 20
22.7940296561
 10
20.5241294398
 20
22.814040157
 10
20.5096932279
 20
22.828415687
 10
20.4944372212
 20
22.842576027
 10
20.4783116727
 20
22.8564795948
 10
20.4612668356
 20
22.8700848082
 10
20.4432529631
 20
22.8833500849
 10
20.4242203082
 20
22.8962338427
 10
20.404119124
 20
22.9086944994
  0
LINE
  5
469
100
AcDbEntity
  8
INCISIONI
100
AcDbLine
 62
253
  6
CONTINUOUS
 10
18.9587853602
 20
23.0859337392
 11
18.7356295337
 21
23.1272851509
  0
LWPOLYLINE
  5
46A
100
AcDbEntity
  8
INCISIONI
100
AcDbPolyline
 62
253
  6
CONTINUOUS
 90
21
 70
0
 10
18.8466635559
 20
22.9734399612
 10
18.9088583319
 20
22.9616733096
 10
18.9398052593
 20
22.955594166
 10
18.9706304944
 20
22.9493583618
 10
19.0013179987
 20
22.9429463107
 10
19.0318517331
 20
22.9363384262
 10
19.0646179748
 20
22.9289686844
 10
19.0971766582
 20
22.9213507083
 10
19.1295180386
 20
22.9134872106
 10
19.1616323714
 20
22.9053809042
 10
19.193509912
 20
22.8970345017
 10
19.2251409157
 20
22.888450716
 10
19.2565156379
 20
22.8796322599
 10
19.2876243339
 20
22.8705818462
 10
19.3184572591
 20
22.8613021877
 10
19.3490046687
 20
22.8517959972
 10
19.3792568183
 20
22.8420659874
 10
19.409203963
 20
22.8321148712
 10
19.4388363584
 20
22.8219453614
 10
19.4681442596
 20
22.8115601707
 10
19.4971179221
 20
22.800962012
  0
LINE
  5
46B
100
AcDbEntity
  8
INCISIONI
100
AcDbLine
 62
253
  6
CONTINUOUS
 10
19.009255297
 20
23.0762344966
 11
18.9587853602
 21
23.0859337392
  0
LWPOLYLINE
  5
46C
100
AcDbEntity
  8
INCISIONI
100
AcDbPolyline
 62
253
  6
CONTINUOUS
 90
77
 70
0
 10
18.5280576828
 20
23.3518092243
 10
18.6478835559
 20
23.326334953
 10
18.7670665022
 20
23.3001061706
 10
18.8855020406
 20
23.2730523565
 10
19.0030856897
 20
23.2451029901
 10
19.1197129683
 20
23.216187551
 10
19.2352793953
 20
23.1862355186
 10
19.3225337583
 20
23.1626753577
 10
19.4090254381
 20
23.1384188511
 10
19.4946680245
 20
23.11341214
 10
19.5793751072
 20
23.0876013657
 10
19.6460485857
 20
23.0664423504
 10
19.7119307465
 20
23.0446746665
 10
19.7768775713
 20
23.0222330688
 10
19.8407450415
 20
22.9990523121
 10
19.9033891386
 20
22.9750671514
 10
19.9588957873
 20
22.9526213803
 10
20.0131867564
 20
22.9294344147
 10
20.0661657555
 20
22.9054769822
 10
20.0975733941
 20
22.8905608222
 10
20.1282979363
 20
22.8752964731
 10
20.1581736336
 20
22.8596295435
 10
20.1870347375
 20
22.8435056422
 10
20.2147154997
 20
22.8268703778
 10
20.2380996031
 20
22.811534191
 10
20.2567285893
 20
22.7977996651
 10
20.2739263299
 20
22.7836040396
 10
20.289817462
 20
22.7690186087
 10
20.3045266227
 20
22.7541146665
 10
20.3227587271
 20
22.733491292
 10
20.339013368
 20
22.7124611188
 10
20.3532592288
 20
22.6910723808
 10
20.3654649929
 20
22.6693733114
 10
20.3755993437
 20
22.6474121445
 10
20.3836309647
 20
22.6252371136
 10
20.3895285392
 20
22.6028964525
 10
20.3930919927
 20
22.5818927639
 10
20.3947735207
 20
22.5608285297
 10
20.394585738
 20
22.539745918
 10
20.3925412596
 20
22.518687097
 10
20.3886527002
 20
22.4976942347
 10
20.3829326748
 20
22.4768094994
 10
20.3753937983
 20
22.4560750591
 10
20.3654798424
 20
22.4343688284
 10
20.3536577411
 20
22.4129000045
 10
20.3400365193
 20
22.3916910549
 10
20.3247252021
 20
22.3707644472
 10
20.3078328145
 20
22.3501426489
 10
20.2877425772
 20
22.3280485936
 10
20.2659544775
 20
22.3063653592
 10
20.2425177915
 20
22.2851153288
 10
20.2174817954
 20
22.2643208854
 10
20.1930035532
 20
22.2455697218
 10
20.1671822844
 20
22.2272771545
 10
20.1399936742
 20
22.2094951404
 10
20.1114134081
 20
22.1922756364
 10
20.0814171711
 20
22.1756705996
 10
20.0500288125
 20
22.1597448104
 10
20.017268776
 20
22.1445163105
 10
19.9832026988
 20
22.1300173396
 10
19.9478962182
 20
22.1162801375
 10
19.9114149713
 20
22.1033369439
 10
19.8738245955
 20
22.0912199985
 10
19.8351907279
 20
22.0799615411
 10
19.7955790057
 20
22.0695938113
 10
19.7550550662
 20
22.0601490488
 10
19.7183476938
 20
22.052555416
 10
19.6810427608
 20
22.0457167153
 10
19.6432107947
 20
22.0396340666
 10
19.6049223231
 20
22.0343085898
 10
19.5711336151
 20
22.030287662
 10
19.537074079
 20
22.0269237735
 10
19.5027677645
 20
22.0242946468
 10
19.4682387214
 20
22.0224780045
 10
19.4375086015
 20
22.0215674716
 10
19.4221332431
 20
22.0213941502
 10
19.4068106993
 20
22.0218170656
  0
LWPOLYLINE
  5
46D
100
AcDbEntity
  8
INCISIONI
100
AcDbPolyline
 62
253
  6
CONTINUOUS
 90
12
 70
0
 10
19.3046808991
 20
23.0095700189
 10
19.2806960917
 20
23.0157795634
 10
19.2565750534
 20
23.0218562303
 10
19.232324072
 20
23.0278042009
 10
19.2079494353
 20
23.0336276562
 10
19.1834574313
 20
23.0393307776
 10
19.1588543478
 20
23.0449177461
 10
19.1341464726
 20
23.0503927431
 10
19.1093400937
 20
23.0557599497
 10
19.0844414988
 20
23.0610235472
 10
19.0594569758
 20
23.0661877167
 10
19.009255297
 20
23.0762344966
  0
LWPOLYLINE
  5
46E
100
AcDbEntity
  8
INCISIONI
100
AcDbPolyline
 62
253
  6
CONTINUOUS
 90
85
 70
0
 10
18.5737752224
 20
22.194778847
 10
18.6112961776
 20
22.1848079839
 10
18.6493313031
 20
22.1753387617
 10
18.687875115
 20
22.1664097132
 10
18.72692213
 20
22.1580593712
 10
18.7664668642
 20
22.1503262687
 10
18.8065038341
 20
22.1432489384
 10
18.847027556
 20
22.1368659133
 10
18.8828737575
 20
22.1318818188
 10
18.9190425573
 20
22.1274918975
 10
18.9554880829
 20
22.1237292433
 10
18.9921644614
 20
22.1206269504
 10
19.0290258203
 20
22.1182181128
 10
19.0660262867
 20
22.1165358245
 10
19.103119988
 20
22.1156131795
 10
19.1402610514
 20
22.115483272
 10
19.1763132694
 20
22.1161425528
 10
19.2122893807
 20
22.1175845995
 10
19.2481118745
 20
22.1198138818
 10
19.2837032406
 20
22.1228348697
 10
19.3189859682
 20
22.126652033
 10
19.353882547
 20
22.1312698414
 10
19.3883165117
 20
22.1366891222
 10
19.4222155791
 20
22.1428961324
 10
19.4555085111
 20
22.1498734861
 10
19.4881240699
 20
22.1576037977
 10
19.5199910175
 20
22.1660696814
 10
19.5510381159
 20
22.1752537516
 10
19.5800561311
 20
22.1847404628
 10
19.6082420264
 20
22.1948376112
 10
19.6355872756
 20
22.205507914
 10
19.6620833527
 20
22.216714088
 10
19.6877217317
 20
22.2284188501
 10
19.7124938865
 20
22.2405849174
 10
19.7363912911
 20
22.2531750069
 10
19.7631582303
 20
22.2683544052
 10
19.7887309667
 20
22.2840296944
 10
19.8131175349
 20
22.3001703702
 10
19.8363259692
 20
22.3167459286
 10
19.8583643041
 20
22.3337258655
 10
19.8792405739
 20
22.3510796767
 10
19.8945716158
 20
22.3647367633
 10
19.9091086498
 20
22.3786033175
 10
19.9227475011
 20
22.392683554
 10
19.9353936823
 20
22.4069805339
 10
19.9469914544
 20
22.4214927055
 10
19.9574947657
 20
22.4362173634
 10
19.9677881792
 20
22.4527438838
 10
19.9766566966
 20
22.4694897346
 10
19.9840709504
 20
22.4864175586
 10
19.990001573
 20
22.5034899988
 10
19.9944191968
 20
22.5206696978
 10
19.99735961
 20
22.5383966151
 10
19.9986878145
 20
22.5561645235
 10
19.9984201545
 20
22.5739406061
 10
19.9965729745
 20
22.5916920461
 10
19.9931626188
 20
22.6093860267
 10
19.9882054318
 20
22.6269897312
 10
19.9817177578
 20
22.6444703428
 10
19.9737159413
 20
22.6617950447
 10
19.9642163267
 20
22.6789310201
 10
19.9532352582
 20
22.6958454523
 10
19.9407890802
 20
22.7125055244
 10
19.9262866055
 20
22.7295583474
 10
19.9102617654
 20
22.7462713489
 10
19.8927647529
 20
22.7626164229
 10
19.8738457608
 20
22.7785654633
 10
19.8535549821
 20
22.7940903639
 10
19.8319426096
 20
22.8091630186
 10
19.8090588363
 20
22.8237553215
 10
19.7849538551
 20
22.8378391662
 10
19.7596778588
 20
22.8513864469
 10
19.7363721466
 20
22.8629176502
 10
19.7122747965
 20
22.8740338885
 10
19.6874726649
 20
22.8847627823
 10
19.6620526083
 20
22.8951319519
 10
19.6361014832
 20
22.9051690179
 10
19.6057023501
 20
22.9163462536
 10
19.574831734
 20
22.9271993929
 10
19.5436059636
 20
22.9378072521
 10
19.4974561152
 20
22.9529975255
 10
19.4507600159
 20
22.9677681307
 10
19.4034826341
 20
22.9820557246
 10
19.3555889387
 20
22.9957969638
 10
19.3046808991
 20
23.0095700189
  0
LINE
  5
46F
100
AcDbEntity
  8
INCISIONI
100
AcDbLine
 62
253
  6
CONTINUOUS
 10
18.5737752224
 20
22.194778847
 11
18.5689085818
 21
22.1961477347
  0
LINE
  5
470
100
AcDbEntity
  8
INCISIONI
100
AcDbLine
 62
253
  6
CONTINUOUS
 10
7.4227068329
 20
24.1160465355
 11
8.2360882844
 21
23.8812435355
  0
LINE
  5
471
100
AcDbEntity
  8
INCISIONI
100
AcDbLine
 62
253
  6
CONTINUOUS
 10
15.9582142414
 20
21.6520577855
 11
15.1009434884
 21
21.8995305355
  0
LINE
  5
472
100
AcDbEntity
  8
INCISIONI
100
AcDbLine
 62
253
  6
CONTINUOUS
 10
13.5581027771
 20
22.3449102855
 11
12.7535452584
 21
22.5771660355
  0
LINE
  5
473
100
AcDbEntity
  8
INCISIONI
100
AcDbLine
 62
253
  6
CONTINUOUS
 10
12.6258229658
 20
22.6140362855
 11
11.8301196909
 21
22.8437360355
  0
LINE
  5
474
100
AcDbEntity
  8
INCISIONI
100
AcDbLine
 62
253
  6
CONTINUOUS
 10
10.6958974779
 20
23.1711577855
 11
10.5818211476
 21
23.2040887855
  0
LINE
  5
475
100
AcDbEntity
  8
INCISIONI
100
AcDbLine
 62
253
  6
CONTINUOUS
 10
9.4520988026
 20
23.5302115355
 11
8.6739567907
 21
23.7548417855
  0
LINE
  5
476
100
AcDbEntity
  8
INCISIONI
100
AcDbLine
 62
253
  6
CONTINUOUS
 10
5.8683228689
 20
24.5647585355
 11
5.1515300967
 21
24.7716787855
  0
LINE
  5
477
100
AcDbEntity
  8
INCISIONI
100
AcDbLine
 62
253
  6
CONTINUOUS
 10
16.197062795
 20
21.5831084353
 11
17.0071714498
 21
21.3492502103
  0
LINE
  5
478
100
AcDbEntity
  8
INCISIONI
100
AcDbLine
 62
253
  6
CONTINUOUS
 10
18.2527529542
 20
20.9896818019
 11
19.0351313712
 21
20.763828607
  0
LINE
  5
479
100
AcDbEntity
  8
INCISIONI
100
AcDbLine
 62
253
  6
CONTINUOUS
 10
7.7642131838
 20
24.1617997109
 11
8.1445819335
 21
24.0519967109
  0
LINE
  5
47A
100
AcDbEntity
  8
INCISIONI
100
AcDbLine
 62
253
  6
CONTINUOUS
 10
15.7903164744
 20
21.8448632633
 11
15.3916075394
 21
21.9599606187
  0
LINE
  5
47B
100
AcDbEntity
  8
INCISIONI
100
AcDbLine
 62
253
  6
CONTINUOUS
 10
13.520231482
 20
22.500180354
 11
13.1733624703
 21
22.6003128126
  0
LINE
  5
47C
100
AcDbEntity
  8
INCISIONI
100
AcDbLine
 62
253
  6
CONTINUOUS
 10
12.5131263117
 20
22.7909065746
 11
12.1578173016
 21
22.8934754509
  0
LINE
  5
47D
100
AcDbEntity
  8
INCISIONI
100
AcDbLine
 62
253
  6
CONTINUOUS
 10
9.3750135252
 20
23.6968017056
 11
9.035893241
 21
23.7946972993
  0
LINE
  5
47E
100
AcDbEntity
  8
INCISIONI
100
AcDbLine
 62
253
  6
CONTINUOUS
 10
5.8355001034
 20
24.718571219
 11
5.4350188814
 21
24.8341801897
  0
LINE
  5
47F
100
AcDbEntity
  8
INCISIONI
100
AcDbLine
 62
253
  6
CONTINUOUS
 10
16.5385691459
 20
21.6288616107
 11
16.9156650988
 21
21.5200033858
  0
LINE
  5
480
100
AcDbEntity
  8
INCISIONI
100
AcDbLine
 62
253
  6
CONTINUOUS
 10
18.540541274
 20
21.0509420372
 11
18.8789079691
 21
20.9532639859
  0
LINE
  5
481
100
AcDbEntity
  8
INCISIONI
100
AcDbLine
 62
253
  6
CONTINUOUS
 10
15.3393606776
 20
22.349310878
 11
14.2316700188
 21
22.669073628
  0
LINE
  5
482
100
AcDbEntity
  8
INCISIONI
100
AcDbLine
 62
253
  6
CONTINUOUS
 10
15.6300247286
 20
22.4097409612
 11
14.1937987238
 21
22.8243436965
  0
LINE
  5
483
100
AcDbEntity
  8
INCISIONI
100
AcDbLine
 62
253
  6
CONTINUOUS
 10
15.6789179526
 20
22.5082463788
 11
14.3351109884
 21
22.896170035
  0
LINE
  5
484
100
AcDbEntity
  8
INCISIONI
100
AcDbLine
 62
253
  6
CONTINUOUS
 10
14.7455831854
 20
22.9220144856
 11
15.5243383433
 21
22.6972072356
  0
LINE
  5
485
100
AcDbEntity
  8
INCISIONI
100
AcDbLine
 62
253
  6
CONTINUOUS
 10
17.8875898011
 20
22.1117148685
 11
18.3237055014
 21
21.9858191101
  0
LINE
  5
486
100
AcDbEntity
  8
INCISIONI
100
AcDbLine
 62
253
  6
CONTINUOUS
 10
17.7960769028
 20
22.2824671669
 11
18.448703013
 21
22.0940730039
  0
LINE
  5
487
100
AcDbEntity
  8
INCISIONI
100
AcDbLine
 62
253
  6
CONTINUOUS
 10
18.5689085818
 20
22.1961477347
 11
17.8875635804
 21
22.3928351998
  0
LINE
  5
488
100
AcDbEntity
  8
INCISIONI
100
AcDbLine
 62
253
  6
CONTINUOUS
 10
18.6939094325
 20
22.3044006646
 11
18.229069998
 21
22.4385882509
  0
LINE
  5
489
100
AcDbEntity
  8
INCISIONI
100
AcDbLine
 62
253
  6
CONTINUOUS
 10
13.8183881119
 20
24.5788570702
 11
13.7858798004
 21
24.5882414114
  0
LINE
  5
48A
100
AcDbEntity
  8
INCISIONI
100
AcDbLine
 62
253
  6
CONTINUOUS
 10
11.5138713593
 20
25.244113754
 11
11.4737411927
 21
25.2556983352
  0
LINE
  5
48B
100
AcDbEntity
  8
INCISIONI
100
AcDbLine
 62
253
  6
CONTINUOUS
 10
16.3074027124
 20
23.8603404454
 11
16.4124520702
 21
23.8300153079
  0
LWPOLYLINE
  5
48C
100
AcDbEntity
  8
INCISIONI
100
AcDbPolyline
 62
253
  6
CONTINUOUS
 90
48
 70
0
 10
18.3237055014
 20
21.9858191101
 10
18.3361374056
 20
21.9821243235
 10
18.3484069387
 20
21.9782632434
 10
18.3604997092
 20
21.9742382898
 10
18.3724013254
 20
21.9700518827
 10
18.3840973957
 20
21.9657064423
 10
18.3955735287
 20
21.9612043885
 10
18.4068153326
 20
21.9565481415
 10
18.417808416
 20
21.9517401213
 10
18.4285383873
 20
21.946782748
 10
18.4389908549
 20
21.9416784417
 10
18.4491514272
 20
21.9364296224
 10
18.4590057127
 20
21.9310387101
 10
18.4685393198
 20
21.925508125
 10
18.4777378569
 20
21.9198402872
 10
18.4865869324
 20
21.9140376166
 10
18.4950721548
 20
21.9081025334
 10
18.5031791325
 20
21.9020374576
 10
18.5110880303
 20
21.8956860686
 10
18.5185881318
 20
21.8892072005
 10
18.5256835383
 20
21.8826075299
 10
18.5323783515
 20
21.8758937337
 10
18.5386766727
 20
21.8690724883
 10
18.5445826036
 20
21.8621504706
 10
18.5501002456
 20
21.8551343572
 10
18.5552337003
 20
21.8480308248
 10
18.5599870691
 20
21.8408465501
 10
18.5643644536
 20
21.8335882097
 10
18.5683699554
 20
21.8262624803
 10
18.5720076758
 20
21.8188760386
 10
18.5752817164
 20
21.8114355614
 10
18.5781961787
 20
21.8039477252
 10
18.5807551643
 20
21.7964192068
 10
18.5829627747
 20
21.7888566828
 10
18.5848231113
 20
21.78126683
 10
18.5863402757
 20
21.7736563249
 10
18.5875183694
 20
21.7660318444
 10
18.5883614939
 20
21.758400065
 10
18.5888737507
 20
21.7507676634
 10
18.5890592414
 20
21.7431413164
 10
18.5889220674
 20
21.7355277006
 10
18.5884663302
 20
21.7279334927
 10
18.5876961314
 20
21.7203653694
 10
18.5866155726
 20
21.7128300073
 10
18.5852287551
 20
21.7053340831
 10
18.5835397805
 20
21.6978842736
 10
18.5815527503
 20
21.6904872554
 10
18.5792717661
 20
21.6831497052
  0
LWPOLYLINE
  5
48D
100
AcDbEntity
  8
INCISIONI
100
AcDbPolyline
 62
253
  6
CONTINUOUS
 90
49
 70
0
 10
19.4971179221
 20
22.800962012
 10
19.5109098212
 20
22.795692705
 10
19.5244700897
 20
22.7902216264
 10
19.5377829621
 20
22.7845540825
 10
19.5508326729
 20
22.7786953796
 10
19.5636034568
 20
22.772650824
 10
19.5760795483
 20
22.7664257219
 10
19.588245182
 20
22.7600253798
 10
19.6000845923
 20
22.7534551038
 10
19.611582014
 20
22.7467202002
 10
19.6227216815
 20
22.7398259754
 10
19.6334878293
 20
22.7327777357
 10
19.6438646922
 20
22.7255807873
 10
19.6538365046
 20
22.7182404365
 10
19.6633875011
 20
22.7107619897
 10
19.6725019162
 20
22.7031507531
 10
19.6811639845
 20
22.695412033
 10
19.6893579406
 20
22.6875511358
 10
19.6970680191
 20
22.6795733676
 10
19.7042784544
 20
22.6714840349
 10
19.7109734812
 20
22.6632884438
 10
19.717137334
 20
22.6549919008
 10
19.7227542474
 20
22.646599712
 10
19.7278084559
 20
22.6381171839
 10
19.7322841941
 20
22.6295496226
 10
19.7361498914
 20
22.6209499683
 10
19.7394331912
 20
22.6122816113
 10
19.7421395437
 20
22.6035547183
 10
19.744274399
 20
22.5947794563
 10
19.7458432072
 20
22.5859659923
 10
19.7468514186
 20
22.5771244931
 10
19.7473044833
 20
22.5682651257
 10
19.7472078514
 20
22.559398057
 10
19.7465669731
 20
22.5505334539
 10
19.7453872985
 20
22.5416814833
 10
19.7436742778
 20
22.5328523121
 10
19.7414333611
 20
22.5240561074
 10
19.7386699986
 20
22.5153030359
 10
19.7353896405
 20
22.5066032647
 10
19.7315977368
 20
22.4979669605
 10
19.7272997377
 20
22.4894042905
 10
19.7225010934
 20
22.4809254214
 10
19.717207254
 20
22.4725405202
 10
19.7114236697
 20
22.4642597538
 10
19.7051557907
 20
22.4560932892
 10
19.698409067
 20
22.4480512932
 10
19.6911889488
 20
22.4401439328
 10
19.6835008864
 20
22.4323813748
 10
19.6753503297
 20
22.4247737864
  0
LINE
  5
48E
100
AcDbEntity
  8
INCISIONI
100
AcDbLine
 62
253
  6
CONTINUOUS
 10
19.1420773542
 20
21.8114952426
 11
19.0371448319
 21
21.8780236449
  0
LWPOLYLINE
  5
48F
100
AcDbEntity
  8
INCISIONI
100
AcDbPolyline
 62
253
  6
CONTINUOUS
 90
30
 70
0
 10
19.1420773542
 20
21.8114952426
 10
19.1543807728
 20
21.8031513087
 10
19.1656027343
 20
21.7944295223
 10
19.1757272065
 20
21.7853750722
 10
19.1847381574
 20
21.7760331468
 10
19.1926195547
 20
21.7664489347
 10
19.1990131896
 20
21.7572331198
 10
19.2044609427
 20
21.7478677394
 10
19.2090344368
 20
21.7383782898
 10
19.2128052946
 20
21.728790267
 10
19.2158451388
 20
21.7191291674
 10
19.2182255922
 20
21.7094204871
 10
19.2203902383
 20
21.6971135771
 10
19.2216868591
 20
21.6847826318
 10
19.2221865104
 20
21.6724389002
 10
19.2219602484
 20
21.6600936317
 10
19.220796227
 20
21.6450463443
 10
19.2187361825
 20
21.6300209683
 10
19.2158585444
 20
21.6150249631
 10
19.2122417421
 20
21.6000657883
 10
19.2079642051
 20
21.5851509031
 10
19.2006305509
 20
21.5633148504
 10
19.1922250475
 20
21.541577596
 10
19.1829342785
 20
21.5199261022
 10
19.1729448278
 20
21.4983473309
 10
19.1624432788
 20
21.4768282445
 10
19.1456095277
 20
21.4437346879
 10
19.1282716845
 20
21.4107099437
 10
19.0942891931
 20
21.347279881
 10
19.0229149681
 20
21.2158824434
  0
LINE
  5
490
100
AcDbEntity
  8
0
100
AcDbLine
 62
7
  6
CONTINUOUS
 10
30.8585613882
 20
-36.9808479597
 11
30.8191997576
 21
-36.696817632
  0
LINE
  5
491
100
AcDbEntity
  8
0
100
AcDbLine
 62
7
  6
CONTINUOUS
 10
26.8409017724
 20
-26.7443234376
 11
26.9371189854
 21
-27.5331415514
  0
LINE
  5
492
100
AcDbEntity
  8
0
100
AcDbLine
 62
7
  6
CONTINUOUS
 10
32.1079354647
 20
-39.2040925355
 11
32.0107245995
 21
-38.3971773159
  0
LINE
  5
493
100
AcDbEntity
  8
0
100
AcDbLine
 62
7
  6
CONTINUOUS
 10
32.0846586995
 20
-38.7179563678
 11
29.5116239394
 21
-16.5037386083
  0
LINE
  5
494
100
AcDbEntity
  8
0
100
AcDbLine
 62
253
  6
CONTINUOUS
 10
32.4744758214
 20
-14.8764341166
 11
32.4744758214
 21
-16.6084849242
  0
LINE
  5
495
100
AcDbEntity
  8
0
100
AcDbLine
 62
253
  6
CONTINUOUS
 10
32.5744758214
 20
-16.6347685296
 11
32.5744758214
 21
-17.3879077876
  0
LINE
  5
496
100
AcDbEntity
  8
IMPORT_IGES
100
AcDbLine
 62
253
  6
CONTINUOUS
 10
33.8687735161
 20
-1.0157976343
 11
33.8687735161
 21
-0.9295434478
  0
LINE
  5
497
100
AcDbEntity
  8
0
100
AcDbLine
 62
253
  6
CONTINUOUS
 10
26.771570787
 20
-26.2096494593
 11
26.6893888785
 21
-26.9222844809
  0
LINE
  5
498
100
AcDbEntity
  8
0
100
AcDbLine
 62
7
  6
CONTINUOUS
 10
9.700398513
 20
-17.7963358556
 11
10.6243880729
 21
-16.7043357401
  0
LINE
  5
499
100
AcDbEntity
  8
0
100
AcDbLine
 62
7
  6
CONTINUOUS
 10
9.8395345336
 20
-18.6736490385
 11
10.7824132514
 21
-17.5593251183
  0
LINE
  5
49A
100
AcDbEntity
  8
0
100
AcDbLine
 62
7
  6
CONTINUOUS
 10
-1.7832862801
 20
-33.5624463747
 11
-2.260677821
 21
-34.126642812
  0
LINE
  5
49B
100
AcDbEntity
  8
0
100
AcDbLine
 62
7
  6
CONTINUOUS
 10
15.6768480603
 20
-19.5215882331
 11
16.6008376202
 21
-18.4295881176
  0
LINE
  5
49C
100
AcDbEntity
  8
INCISIONI
100
AcDbLine
 62
253
  6
CONTINUOUS
 10
6.3367075891
 20
26.8829697694
 11
6.7598312227
 21
26.7608244976
  0
LINE
  5
49D
100
AcDbEntity
  8
INCISIONI
100
AcDbLine
 62
253
  6
CONTINUOUS
 10
8.5961217849
 20
26.2307330724
 11
8.9485744917
 21
26.1289887398
  0
LINE
  5
49E
100
AcDbEntity
  8
INCISIONI
100
AcDbLine
 62
253
  6
CONTINUOUS
 10
11.3483651205
 20
25.436228857
 11
11.8127743293
 21
25.3021654661
  0
LINE
  5
49F
100
AcDbEntity
  8
INCISIONI
100
AcDbLine
 62
253
  6
CONTINUOUS
 10
13.7313107493
 20
24.7483317069
 11
14.1889645115
 21
24.6162184455
  0
LINE
  5
4A0
100
AcDbEntity
  8
INCISIONI
100
AcDbLine
 62
253
  6
CONTINUOUS
 10
16.259502724
 20
24.0185055483
 11
16.7273161568
 21
23.8834594426
  0
LINE
  5
4A1
100
AcDbEntity
  8
INCISIONI
100
AcDbLine
 62
253
  6
CONTINUOUS
 10
10.1444429335
 20
25.783927141
 11
9.7640741838
 21
25.893730141
  0
LINE
  5
4A2
100
AcDbEntity
  8
INCISIONI
100
AcDbLine
 62
253
  6
CONTINUOUS
 10
6.1659453364
 20
27.076602153
 11
7.0495294052
 21
26.821533403
  0
LINE
  5
4A3
100
AcDbEntity
  8
INCISIONI
100
AcDbLine
 62
253
  6
CONTINUOUS
 10
8.5577594113
 20
26.386144903
 11
9.3705848745
 21
26.151502403
  0
LINE
  5
4A4
100
AcDbEntity
  8
INCISIONI
100
AcDbLine
 62
253
  6
CONTINUOUS
 10
11.2755272617
 20
25.601592903
 11
12.0882358115
 21
25.366984153
  0
LINE
  5
4A5
100
AcDbEntity
  8
INCISIONI
100
AcDbLine
 62
253
  6
CONTINUOUS
 10
13.7064077425
 20
24.899858153
 11
14.5111696432
 21
24.667543403
  0
LINE
  5
4A6
100
AcDbEntity
  8
INCISIONI
100
AcDbLine
 62
253
  6
CONTINUOUS
 10
16.2255059012
 20
24.172657153
 11
17.0123549324
 21
23.945513403
  0
LINE
  5
4A7
100
AcDbEntity
  8
INCISIONI
100
AcDbLine
 62
253
  6
CONTINUOUS
 10
10.4859492844
 20
25.8296803164
 11
9.6725678329
 21
26.0644833164
  0
LWPOLYLINE
  5
4A8
100
AcDbEntity
  8
INCISIONI
100
AcDbPolyline
 62
253
  6
CONTINUOUS
 90
32
 70
0
 10
20.404119124
 20
22.9086944994
 10
20.3663913299
 20
22.9303886159
 10
20.3274070877
 20
22.951516586
 10
20.2872453433
 20
22.9721006784
 10
20.2459850426
 20
22.9921631621
 10
20.2037051313
 20
23.0117263058
 10
20.1604845553
 20
23.0308123783
 10
20.1164022604
 20
23.0494436486
 10
20.0715371926
 20
23.0676423854
 10
20.0259682976
 20
23.0854308576
 10
19.9797745213
 20
23.1028313341
 10
19.9330348096
 20
23.1198660836
 10
19.8858281082
 20
23.1365573749
 10
19.8140859088
 20
23.1610551557
 10
19.741507947
 20
23.1848534982
 10
19.6681362181
 20
23.2079794963
 10
19.594012717
 20
23.2304602438
 10
19.5191794389
 20
23.2523228344
 10
19.4436783788
 20
23.2735943621
 10
19.3675515318
 20
23.2943019206
 10
19.290840893
 20
23.3144726038
 10
19.2135884575
 20
23.3341335054
 10
19.1358362204
 20
23.3533117193
 10
19.0576261766
 20
23.3720343393
 10
18.9790003214
 20
23.3903284592
 10
18.9000006498
 20
23.4082211728
 10
18.8206691569
 20
23.4257395739
 10
18.7410478377
 20
23.4429107564
 10
18.6611786874
 20
23.459761814
 10
18.581103701
 20
23.4763198406
 10
18.5008648735
 20
23.49261193
 10
18.4205042002
 20
23.508665176
  0
LINE
  5
4A9
100
AcDbEntity
  8
0
100
AcDbLine
 62
7
  6
CONTINUOUS
 10
47.2214630349
 20
-32.7132515531
 11
47.1658492754
 21
-32.5144397862
  0
LINE
  5
4AA
100
AcDbEntity
  8
0
100
AcDbLine
 62
7
  6
CONTINUOUS
 10
33.0626270887
 20
-17.5087647071
 11
36.272380187
 21
-45.2200709773
  0
LWPOLYLINE
  5
4AB
100
AcDbEntity
  8
0
100
AcDbPolyline
 62
7
  6
CONTINUOUS
 90
10
 70
0
 10
39.3744847817
 20
-40.1164426765
 10
39.3738391104
 20
-40.1081497287
 10
39.3732692678
 20
-40.0997794117
 10
39.3727752538
 20
-40.0913317256
 10
39.3723569933
 20
-40.082804779
 10
39.3720145614
 20
-40.0742004633
 10
39.371748184
 20
-40.0655244524
 10
39.3715579363
 20
-40.0567786378
 10
39.3714437432
 20
-40.0479611279
 10
39.3714056045
 20
-40.039071923
  0
LWPOLYLINE
  5
4AC
100
AcDbEntity
  8
0
100
AcDbPolyline
 62
7
  6
CONTINUOUS
 90
10
 70
0
 10
40.0648793194
 20
-39.3584686699
 10
40.0655249907
 20
-39.3667616177
 10
40.0660948333
 20
-39.3751319346
 10
40.0665888472
 20
-39.3835796207
 10
40.0670071078
 20
-39.3921065673
 10
40.0673495396
 20
-39.400710883
 10
40.067615917
 20
-39.4093868939
 10
40.0678061647
 20
-39.4181327086
 10
40.0679203578
 20
-39.4269502184
 10
40.0679584965
 20
-39.4358394234
  0
LWPOLYLINE
  5
4AD
100
AcDbEntity
  8
0
100
AcDbPolyline
 62
253
  6
CONTINUOUS
 90
16
 70
0
 10
39.3046028403
 20
-13.9613706072
 10
39.2997888688
 20
-13.8687950301
 10
39.2856014203
 20
-13.775468156
 10
39.2624912477
 20
-13.6824444142
 10
39.231213049
 20
-13.5912882732
 10
39.1922470204
 20
-13.5023426068
 10
39.1452917413
 20
-13.4148268703
 10
39.09032028
 20
-13.32922205
 10
39.0279934219
 20
-13.2470214916
 10
38.9587150922
 20
-13.1690932099
 10
38.8829801369
 20
-13.0963509817
 10
38.8015646444
 20
-13.0298734137
 10
38.7154478055
 20
-12.9707215222
 10
38.6256036355
 20
-12.9197711578
 10
38.532961616
 20
-12.8777501848
 10
38.4385774366
 20
-12.8453452034
  0
LINE
  5
4AE
100
AcDbEntity
  8
0
100
AcDbLine
 62
7
  6
CONTINUOUS
 10
41.0391435935
 20
-38.387421763
 11
41.044664123
 21
-38.5809587316
  0
LWPOLYLINE
  5
4AF
100
AcDbEntity
  8
0
100
AcDbPolyline
 62
7
  6
CONTINUOUS
 90
23
 70
0
 10
38.3446820505
 20
-40.9282406034
 10
38.3461285167
 20
-41.0357555948
 10
38.3503991789
 20
-41.1401754945
 10
38.3574940371
 20
-41.2415003024
 10
38.3674404837
 20
-41.3399380281
 10
38.3802111263
 20
-41.435280662
 10
38.3957237879
 20
-41.5269041755
 10
38.4140044864
 20
-41.614791054
 10
38.4350272039
 20
-41.6989588121
 10
38.4586317097
 20
-41.7788359647
 10
38.4848070339
 20
-41.8543357292
 10
38.5135641463
 20
-41.9255448882
 10
38.5447757259
 20
-41.9921523034
 10
38.5784792824
 20
-42.0541938566
 10
38.6146373061
 20
-42.111633666
 10
38.6530099465
 20
-42.1640529488
 10
38.6936119487
 20
-42.2114040748
 10
38.7364285677
 20
-42.2537346741
 10
38.7811757171
 20
-42.2907688541
 10
38.8278605679
 20
-42.3224646579
 10
38.8764759493
 20
-42.3488640424
 10
38.9267162619
 20
-42.3698169858
 10
38.9569708889
 20
-42.3795646387
  0
LWPOLYLINE
  5
4B0
100
AcDbEntity
  8
0
100
AcDbPolyline
 62
7
  6
CONTINUOUS
 90
23
 70
0
 10
41.0946820505
 20
-38.546670743
 10
41.0932355843
 20
-38.4391557515
 10
41.0889649221
 20
-38.3347358519
 10
41.0818700639
 20
-38.233411044
 10
41.0719236173
 20
-38.1349733183
 10
41.0591529748
 20
-38.0396306844
 10
41.0436403132
 20
-37.9480071709
 10
41.0253596147
 20
-37.8601202923
 10
41.0043368971
 20
-37.7759525342
 10
40.9807323913
 20
-37.6960753817
 10
40.9545570672
 20
-37.6205756171
 10
40.9257999547
 20
-37.5493664582
 10
40.8945883751
 20
-37.4827590429
 10
40.8608848186
 20
-37.4207174898
 10
40.8247267949
 20
-37.3632776803
 10
40.7863541546
 20
-37.3108583976
 10
40.7457521523
 20
-37.2635072716
 10
40.7029355334
 20
-37.2211766723
 10
40.658188384
 20
-37.1841424922
 10
40.6115035331
 20
-37.1524466884
 10
40.5628881518
 20
-37.1260473039
 10
40.5126478391
 20
-37.1050943606
 10
40.4823932121
 20
-37.0953467076
  0
LINE
  5
4B1
100
AcDbEntity
  8
0
100
AcDbLine
 62
253
  6
CONTINUOUS
 10
39.1313977596
 20
-16.5094468185
 11
39.1313977596
 21
-15.8305701865
  0
LINE
  5
4B2
100
AcDbEntity
  8
0
100
AcDbLine
 62
253
  6
CONTINUOUS
 10
39.3046028403
 20
-15.6934214147
 11
39.3046028403
 21
-13.9613706072
  0
LINE
  5
4B3
100
AcDbEntity
  8
IMPORT_IGES
100
AcDbLine
 62
253
  6
CONTINUOUS
 10
40.4256954543
 20
-0.0510824788
 11
40.4256954543
 21
-0.2115992915
  0
LWPOLYLINE
  5
4B4
100
AcDbEntity
  8
0
100
AcDbPolyline
 62
7
  6
CONTINUOUS
 90
10
 70
0
 10
39.3714056045
 20
-40.039071923
 10
39.3716248306
 20
-40.0175474304
 10
39.3722752775
 20
-39.9957286557
 10
39.3733569451
 20
-39.9736155989
 10
39.3748722682
 20
-39.9511798309
 10
39.3768188121
 20
-39.9284497808
 10
39.379189273
 20
-39.9055107359
 10
39.3819812163
 20
-39.8823911255
 10
39.3851970766
 20
-39.8590625203
 10
39.3888368539
 20
-39.8355249205
  0
LWPOLYLINE
  5
4B5
100
AcDbEntity
  8
0
100
AcDbPolyline
 62
7
  6
CONTINUOUS
 90
10
 70
0
 10
40.0679584965
 20
-39.4358394234
 10
40.0677392705
 20
-39.457363916
 10
40.0670888236
 20
-39.4791826906
 10
40.0660071559
 20
-39.5012957474
 10
40.0644918328
 20
-39.5237315154
 10
40.0625452889
 20
-39.5464615656
 10
40.060174828
 20
-39.5694006104
 10
40.0573828847
 20
-39.5925202209
 10
40.0541670244
 20
-39.615848826
 10
40.0505272471
 20
-39.6393864259
  0
LINE
  5
4B6
100
AcDbEntity
  8
IMPORT_IGES
100
AcDbLine
 62
7
  6
CONTINUOUS
 10
68.0356615398
 20
23.8654176128
 11
67.9256954543
 21
23.7646161252
  0
LINE
  5
4B7
100
AcDbEntity
  8
IMPORT_IGES
100
AcDbLine
 62
7
  6
CONTINUOUS
 10
67.9256954543
 20
23.7646161252
 11
40.4256954543
 21
-0.0510824787
  0
LINE
  5
4B8
100
AcDbEntity
  8
0
100
AcDbLine
 62
7
  6
CONTINUOUS
 10
40.5989005353
 20
-0.0744505195
 11
68.0989005353
 21
23.7412480846
  0
LWPOLYLINE
  5
4B9
100
AcDbEntity
  8
0
100
AcDbPolyline
 62
7
  6
CONTINUOUS
 90
12
 70
0
 10
68.6920290196
 20
24.5549124197
 10
68.7894663613
 20
24.6379221075
 10
68.8838825749
 20
24.719688947
 10
68.9752776603
 20
24.8002129381
 10
69.0649849023
 20
24.8787524325
 10
69.1516710162
 20
24.9560490785
 10
69.2313361479
 20
25.0343278216
 10
69.302654042
 20
25.1142257427
 10
69.3669509539
 20
25.1951057609
 10
69.4242057954
 20
25.2772815779
 10
69.4744289032
 20
25.3608092548
 10
69.489534241
 20
25.3887927004
  0
LWPOLYLINE
  5
4BA
100
AcDbEntity
  8
IMPORT_IGES
100
AcDbPolyline
 62
7
  6
CONTINUOUS
 90
34
 70
0
 10
40.4256954543
 20
-0.0510824787
 10
40.3060831354
 20
-0.1491014852
 10
40.1779570544
 20
-0.2437369113
 10
40.0413172112
 20
-0.334988757
 10
39.8958132046
 20
-0.4230444908
 10
39.7417954359
 20
-0.5077166442
 10
39.5803151084
 20
-0.588442812
 10
39.4113243785
 20
-0.6651964905
 10
39.2348710898
 20
-0.7380041834
 10
39.0521499769
 20
-0.8063829967
 10
38.8631207644
 20
-0.8703035774
 10
38.6678237278
 20
-0.9297952784
 10
38.467574428
 20
-0.9844632648
 10
38.2623403783
 20
-1.0342758314
 10
38.0521540654
 20
-1.0792646833
 10
37.8384285107
 20
-1.1191301018
 10
37.6211409942
 20
-1.1538383182
 10
37.400314236
 20
-1.1834231011
 10
37.1774294177
 20
-1.2076860378
 10
36.9524724566
 20
-1.2265922031
 10
36.7254574353
 20
-1.2401765222
 10
36.4979077841
 20
-1.2483453583
 10
36.269819942
 20
-1.2510631326
 10
36.04119747
 20
-1.2483654239
 10
35.8135744814
 20
-1.2402653322
 10
35.586956512
 20
-1.2267273697
 10
35.361338026
 20
-1.2077870241
 10
35.1382365287
 20
-1.1835638587
 10
34.9176669589
 20
-1.1540229624
 10
34.6996143778
 20
-1.1191992462
 10
34.485551474
 20
-1.079317007
 10
34.275969144
 20
-1.0344510103
 10
34.0703764913
 20
-0.9845264906
 10
33.8687735161
 20
-0.9295434478
  0
LWPOLYLINE
  5
4BB
100
AcDbEntity
  8
0
100
AcDbPolyline
 62
7
  6
CONTINUOUS
 90
22
 70
0
 10
40.5989005353
 20
-0.0744505195
 10
40.3961193143
 20
-0.2350185309
 10
40.1732441288
 20
-0.3858358092
 10
39.9302749786
 20
-0.5269023543
 10
39.6656218813
 20
-0.6588294327
 10
39.3808748195
 20
-0.7810057778
 10
39.0808037408
 20
-0.8915975902
 10
38.7652188069
 20
-0.990432482
 10
38.4343098562
 20
-1.0776828409
 10
38.0934163517
 20
-1.1520320304
 10
37.7424080274
 20
-1.2132970749
 10
37.3814151494
 20
-1.2616609499
 10
37.0161679791
 20
-1.2963559461
 10
36.6465963547
 20
-1.3171910354
 10
36.2727704381
 20
-1.3243572457
 10
35.9006309765
 20
-1.3176599522
 10
35.5301699871
 20
-1.2969024029
 10
35.1613954527
 20
-1.2622813497
 10
34.8002720689
 20
-1.2141924227
 10
34.4487880675
 20
-1.1527674986
 10
34.1049552167
 20
-1.0778747006
 10
33.7687735164
 20
-0.9895140289
  0
LINE
  5
4BC
100
AcDbEntity
  8
0
100
AcDbLine
 62
7
  6
CONTINUOUS
 10
47.2214632528
 20
-32.713252381
 11
47.3041902292
 21
-33.1113425771
  0
LINE
  5
4BD
100
AcDbEntity
  8
0
100
AcDbLine
 62
7
  6
CONTINUOUS
 10
42.3471331474
 20
-39.0970992231
 11
42.1543065761
 21
-37.4323328027
  0
LWPOLYLINE
  5
4BE
100
AcDbEntity
  8
0
100
AcDbPolyline
 62
7
  6
CONTINUOUS
 90
19
 70
0
 10
41.044664123
 20
-38.5809587316
 10
41.0400716101
 20
-38.7832072921
 10
41.0255623953
 20
-38.9940595754
 10
41.0014161044
 20
-39.2090664786
 10
40.9674202167
 20
-39.4284212655
 10
40.9237872529
 20
-39.6519306723
 10
40.8714344003
 20
-39.8745658039
 10
40.8102436554
 20
-40.0961561522
 10
40.7403330217
 20
-40.3168722254
 10
40.6629736978
 20
-40.532196652
 10
40.5778568132
 20
-40.7423810365
 10
40.4852912384
 20
-40.9471737745
 10
40.3874747822
 20
-41.1413026815
 10
40.2842149033
 20
-41.3244610409
 10
40.1757041432
 20
-41.4969555693
 10
40.0647179345
 20
-41.6544342322
 10
39.9521814217
 20
-41.7954463514
 10
39.8371694603
 20
-41.9214426051
 10
39.7196820505
 20
-42.0324229932
  0
LWPOLYLINE
  5
4BF
100
AcDbEntity
  8
0
100
AcDbPolyline
 62
7
  6
CONTINUOUS
 90
7
 70
0
 10
27.3157720684
 20
-26.1831063709
 10
27.362913972
 20
-26.1198005984
 10
27.3994482128
 20
-26.0558585815
 10
27.4253747908
 20
-25.9912803203
 10
27.4407467828
 20
-25.9253485415
 10
27.4455111119
 20
-25.8587805184
 10
27.4414971151
 20
-25.805955078
  0
LINE
  5
4C0
100
AcDbEntity
  8
0
100
AcDbLine
 62
7
  6
CONTINUOUS
 10
24.9480118333
 20
-24.6337918844
 11
17.711848474
 21
-33.1857188397
  0
LINE
  5
4C1
100
AcDbEntity
  8
0
100
AcDbLine
 62
7
  6
CONTINUOUS
 10
27.0719618618
 20
-24.530579336
 11
19.3486672639
 21
-33.6582277242
  0
LINE
  5
4C2
100
AcDbEntity
  8
0
100
AcDbLine
 62
253
  6
CONTINUOUS
 10
20.6682015916
 20
-34.0391444739
 11
26.6893888785
 21
-26.9222844809
  0
LINE
  5
4C3
100
AcDbEntity
  8
0
100
AcDbLine
 62
7
  6
CONTINUOUS
 10
27.3157720684
 20
-26.1831063709
 11
26.8409017724
 21
-26.7443234376
  0
LINE
  5
4C4
100
AcDbEntity
  8
0
100
AcDbLine
 62
253
  6
CONTINUOUS
 10
27.2383620265
 20
-25.6584338221
 11
26.771570787
 21
-26.2096494593
  0
LINE
  5
4C5
100
AcDbEntity
  8
IMPORT_IGES
100
AcDbLine
 62
7
  6
CONTINUOUS
 10
68.1355105793
 20
23.9682139391
 11
68.0356615398
 21
23.8654176128
  0
LWPOLYLINE
  5
4C6
100
AcDbEntity
  8
0
100
AcDbPolyline
 62
253
  6
CONTINUOUS
 90
16
 70
0
 10
32.9744758214
 20
-13.5773960109
 10
32.9218296157
 20
-13.6278029341
 10
32.8703118946
 20
-13.6866060378
 10
32.8204563076
 20
-13.7528924152
 10
32.7730403182
 20
-13.8252340653
 10
32.7281818518
 20
-13.9030486653
 10
32.6854804977
 20
-13.986984402
 10
32.6452184419
 20
-14.0768238264
 10
32.608147737
 20
-14.1712548566
 10
32.5747022108
 20
-14.2694978616
 10
32.5453269584
 20
-14.3706725318
 10
32.5205153654
 20
-14.4735754942
 10
32.5007168114
 20
-14.5768383837
 10
32.4862746331
 20
-14.6791898471
 10
32.4774541496
 20
-14.7794706293
 10
32.4744758214
 20
-14.8764341166
  0
LINE
  5
4C7
100
AcDbEntity
  8
0
100
AcDbLine
 62
253
  6
CONTINUOUS
 10
93.4385774366
 20
34.7860520048
 11
38.4385774366
 21
-12.8453452034
  0
LWPOLYLINE
  5
4C8
100
AcDbEntity
  8
0
100
AcDbPolyline
 62
7
  6
CONTINUOUS
 90
16
 70
0
 10
26.7090353641
 20
-22.0707908596
 10
26.6467875162
 20
-22.1228010963
 10
26.5790531861
 20
-22.1705033104
 10
26.5058323737
 20
-22.2138975018
 10
26.4263509262
 20
-22.2532952954
 10
26.3413829965
 20
-22.2883850663
 10
26.2532510432
 20
-22.3182319403
 10
26.1618757083
 20
-22.3426978694
 10
26.0673363499
 20
-22.3619209016
 10
25.9721935003
 20
-22.3753803059
 10
25.8764271067
 20
-22.3829256263
 10
25.7800572218
 20
-22.3847073187
 10
25.6857045367
 20
-22.3806560208
 10
25.5942426149
 20
-22.3707486116
 10
25.5047978929
 20
-22.355008212
 10
25.4173703705
 20
-22.333434822
  0
LWPOLYLINE
  5
4C9
100
AcDbEntity
  8
0
100
AcDbPolyline
 62
7
  6
CONTINUOUS
 90
43
 70
0
 10
-7.4241638846
 20
49.5363557253
 10
-7.5865293092
 20
49.5813076838
 10
-7.7538495516
 20
49.6232575837
 10
-7.9261246118
 20
49.662205425
 10
-8.1038867051
 20
49.6983455464
 10
-8.2866036162
 20
49.7314836091
 10
-8.4726786995
 20
49.7610365973
 10
-8.6621888908
 20
49.7869491554
 10
-8.8550572543
 20
49.809276639
 10
-9.0494563372
 20
49.8276020994
 10
-9.2453157822
 20
49.8418209356
 10
-9.4427059466
 20
49.8520377486
 10
-9.64001045
 20
49.8581493929
 10
-9.8369980134
 20
49.8600735877
 10
-10.0338999158
 20
49.8578926138
 10
-10.2297936136
 20
49.8517501678
 10
-10.42465021
 20
49.8416735725
 10
-10.6184986019
 20
49.8276355051
 10
-10.8105029361
 20
49.8096976942
 10
-11.0009870226
 20
49.7878051279
 10
-11.1896270514
 20
49.7620128183
 10
-11.3746157401
 20
49.7325475299
 10
-11.5557284885
 20
49.6993276677
 10
-11.7331898968
 20
49.6624348269
 10
-11.9058664826
 20
49.6223405571
 10
-12.0737827015
 20
49.5790004276
 10
-12.2369140979
 20
49.5324588691
 10
-12.3940538231
 20
49.483320723
 10
-12.5448286668
 20
49.4317188634
 10
-12.6896118392
 20
49.3775204161
 10
-12.8283161222
 20
49.3209315997
 10
-12.9608236962
 20
49.2620376425
 10
-13.0872523808
 20
49.2007533163
 10
-13.2078684174
 20
49.1370291543
 10
-13.3225865156
 20
49.0709000018
 10
-13.4314919656
 20
49.0023310136
 10
-13.5351068799
 20
48.931168187
 10
-13.6316326941
 20
48.8571564915
 10
-13.7228679724
 20
48.7805509576
 10
-13.8147305199
 20
48.7019626746
 10
-13.9091929382
 20
48.6215953388
 10
-14.0042826256
 20
48.5392452538
 10
-14.0999995822
 20
48.4549124197
  0
LINE
  5
4CA
100
AcDbEntity
  8
IMPORT_IGES
100
AcDbLine
 62
7
  6
CONTINUOUS
 10
-8.4826162901
 20
48.5930770943
 11
66.1687735161
 21
27.0430770943
  0
LINE
  5
4CB
100
AcDbEntity
  8
0
100
AcDbLine
 62
7
  6
CONTINUOUS
 10
67.2272259216
 20
27.9863557253
 11
-7.4241638846
 21
49.5363557253
  0
LWPOLYLINE
  5
4CC
100
AcDbEntity
  8
IMPORT_IGES
100
AcDbPolyline
 62
7
  6
CONTINUOUS
 90
23
 70
0
 10
66.1687735161
 20
27.0430770943
 10
66.364811529
 20
26.9832709349
 10
66.5540823812
 20
26.9192078943
 10
66.7365860726
 20
26.8508879727
 10
66.9126975402
 20
26.7781359695
 10
67.082041847
 20
26.7011270851
 10
67.2434941827
 20
26.6203869214
 10
67.3970015397
 20
26.5358915564
 10
67.5426169255
 20
26.447664912
 10
67.6793745521
 20
26.3563043556
 10
67.8072157134
 20
26.2617897494
 10
67.9261991155
 20
26.1641412311
 10
68.0355350883
 20
26.0640165812
 10
68.1351602214
 20
25.9613995563
 10
68.2251379253
 20
25.8563063998
 10
68.3048687623
 20
25.7494436225
 10
68.374285195
 20
25.6407998643
 10
68.4334547608
 20
25.5303864852
 10
68.4819806343
 20
25.418944076
 10
68.5197929648
 20
25.3064655954
 10
68.546961603
 20
25.1929580848
 10
68.5632992753
 20
25.0791832592
 10
68.5687347823
 20
24.9646161281
  0
LINE
  5
4CD
100
AcDbEntity
  8
0
100
AcDbLine
 62
7
  6
CONTINUOUS
 10
47.3449935545
 20
-32.184203895
 11
47.4475138724
 21
-33.069307804
  0
LINE
  5
4CE
100
AcDbEntity
  8
0
100
AcDbLine
 62
7
  6
CONTINUOUS
 10
47.3962730432
 20
-31.7910029189
 11
47.1940841033
 21
-30.045410823
  0
LWPOLYLINE
  5
4CF
100
AcDbEntity
  8
0
100
AcDbPolyline
 62
7
  6
CONTINUOUS
 90
22
 70
0
 10
50.7155326163
 20
-26.2894840806
 10
50.7245666476
 20
-25.6980215363
 10
50.7552975123
 20
-25.0958430721
 10
50.8077252103
 20
-24.4829486877
 10
50.8823229592
 20
-23.8566167539
 10
50.9786175415
 20
-23.2195689
 10
51.0951893043
 20
-22.5799700144
 10
51.2322582397
 20
-21.937826192
 10
51.3896043555
 20
-21.2931313379
 10
51.5651480223
 20
-20.654032055
 10
51.7590886486
 20
-20.0206021255
 10
51.9712268259
 20
-19.3927677674
 10
52.1988846988
 20
-18.7784542373
 10
52.4422394019
 20
-18.1778012389
 10
52.7011138006
 20
-17.5906690686
 10
52.9722986364
 20
-17.0245638727
 10
53.2559466214
 20
-16.4796908652
 10
53.5519050433
 20
-15.9558448321
 10
53.8565065073
 20
-15.4599162771
 10
54.1685285484
 20
-14.9942020349
 10
54.4891936315
 20
-14.5564052707
 10
54.8185017567
 20
-14.1465259848
  0
LINE
  5
4D0
100
AcDbEntity
  8
0
100
AcDbLine
 62
253
  6
CONTINUOUS
 10
67.2272259216
 20
27.9863557253
 11
66.6485561838
 21
26.8838417999
  0
LINE
  5
4D1
100
AcDbEntity
  8
0
100
AcDbLine
 62
7
  6
CONTINUOUS
 10
26.9371190251
 20
-27.5331418941
 11
21.2882773239
 21
-34.2181449193
  0
LWPOLYLINE
  5
4D2
100
AcDbEntity
  8
0
100
AcDbPolyline
 62
253
  6
CONTINUOUS
 90
17
 70
0
 10
93.4385774366
 20
34.7860520048
 10
93.6014412203
 20
34.9435563422
 10
93.7348849389
 20
35.1048022306
 10
93.8389085924
 20
35.2697896698
 10
93.9137733269
 20
35.4398013859
 10
93.9592179962
 20
35.613554653
 10
93.9744591619
 20
35.7872012926
 10
93.9588760655
 20
35.9607233066
 10
93.9130894654
 20
36.1341386932
 10
93.8381781974
 20
36.3036532688
 10
93.7335494372
 20
36.4691877377
 10
93.5997960091
 20
36.6308213955
 10
93.439775222
 20
36.7849979461
 10
93.25293117
 20
36.9315779794
 10
93.039819759
 20
37.0707009054
 10
92.804966016
 20
37.1992286583
 10
92.5498782832
 20
37.3161152161
  0
LINE
  5
4D3
100
AcDbEntity
  8
0
100
AcDbLine
 62
7
  6
CONTINUOUS
 10
94.4813241838
 20
32.1060666436
 11
94.3046028403
 21
31.9379757934
  0
LWPOLYLINE
  5
4D4
100
AcDbEntity
  8
0
100
AcDbPolyline
 62
253
  6
CONTINUOUS
 90
9
 70
0
 10
94.3046028403
 20
33.670026601
 10
94.4800152962
 20
33.8360392809
 10
94.6288568843
 20
34.0066897352
 10
94.750950378
 20
34.1808901437
 10
94.8460145203
 20
34.356974493
 10
94.9146622746
 20
34.5344887273
 10
94.9575145569
 20
34.7142810295
 10
94.9742415767
 20
34.8958274668
 10
94.9744758214
 20
34.920026601
  0
LINE
  5
4D5
100
AcDbEntity
  8
0
100
AcDbLine
 62
253
  6
CONTINUOUS
 10
39.3046028403
 20
-13.9613706072
 11
94.3046028403
 21
33.670026601
  0
LINE
  5
4D6
100
AcDbEntity
  8
0
100
AcDbLine
 62
7
  6
CONTINUOUS
 10
39.3046028403
 20
-15.6934214147
 11
94.3046028403
 21
31.9379757934
  0
LINE
  5
4D7
100
AcDbEntity
  8
0
100
AcDbLine
 62
7
  6
CONTINUOUS
 10
39.1313977596
 20
-16.5094468185
 11
94.1313977596
 21
31.1219503896
  0
LWPOLYLINE
  5
4D8
100
AcDbEntity
  8
0
100
AcDbPolyline
 62
7
  6
CONTINUOUS
 90
22
 70
0
 10
39.3046028403
 20
-15.6934214147
 10
39.1018216194
 20
-15.8539894262
 10
38.8789464338
 20
-16.0048067045
 10
38.6359772837
 20
-16.1458732495
 10
38.3713241864
 20
-16.2778003279
 10
38.0865771245
 20
-16.3999766731
 10
37.7865060459
 20
-16.5105684854
 10
37.4709211119
 20
-16.6094033772
 10
37.1400121612
 20
-16.6966537361
 10
36.7991186567
 20
-16.7710029257
 10
36.4481103324
 20
-16.8322679701
 10
36.0871174544
 20
-16.8806318452
 10
35.7218702841
 20
-16.9153268414
 10
35.3522986598
 20
-16.9361619306
 10
34.9784727432
 20
-16.943328141
 10
34.6063332816
 20
-16.9366308474
 10
34.2358722922
 20
-16.9158732982
 10
33.8670977578
 20
-16.8812522449
 10
33.5059743739
 20
-16.8331633179
 10
33.1544903725
 20
-16.7717383938
 10
32.8106575217
 20
-16.6968455959
 10
32.4744758214
 20
-16.6084849242
  0
LWPOLYLINE
  5
4D9
100
AcDbEntity
  8
0
100
AcDbPolyline
 62
7
  6
CONTINUOUS
 90
22
 70
0
 10
39.1313977596
 20
-16.5094468185
 10
38.9367277874
 20
-16.6635921095
 10
38.7227676093
 20
-16.8083766966
 10
38.4895172252
 20
-16.9438005799
 10
38.2354502518
 20
-17.0704505752
 10
37.9620930724
 20
-17.1877398665
 10
37.6740248369
 20
-17.2939080064
 10
37.3710633003
 20
-17.3887895025
 10
37.0533907076
 20
-17.472549847
 10
36.7261329433
 20
-17.543925069
 10
36.389164952
 20
-17.6027395117
 10
36.0426117891
 20
-17.6491688317
 10
35.6919745056
 20
-17.6824760281
 10
35.3371857462
 20
-17.7024777138
 10
34.9783128663
 20
-17.7093572757
 10
34.6210589831
 20
-17.7029278739
 10
34.2654164333
 20
-17.6830006266
 10
33.9113928803
 20
-17.6497644155
 10
33.5647144318
 20
-17.6035990456
 10
33.2272897905
 20
-17.5446311184
 10
32.8972102537
 20
-17.4727340324
 10
32.5744758214
 20
-17.3879077876
  0
LWPOLYLINE
  5
4DA
100
AcDbEntity
  8
0
100
AcDbPolyline
 62
7
  6
CONTINUOUS
 90
9
 70
0
 10
60.4433024774
 20
-6.6404617181
 10
60.4536714184
 20
-6.8020388728
 10
60.4450900327
 20
-6.9899298094
 10
60.4140940247
 20
-7.1786452033
 10
60.3609968759
 20
-7.3681576953
 10
60.2863955157
 20
-7.5554215406
 10
60.1904889205
 20
-7.739421491
 10
60.0730781139
 20
-7.9211727948
 10
59.934163096
 20
-8.1006754519
  0
LINE
  5
4DB
100
AcDbEntity
  8
0
100
AcDbLine
 62
7
  6
CONTINUOUS
 10
43.2737383225
 20
-32.6877951745
 11
44.6804338715
 21
-29.1057137116
  0
LINE
  5
4DC
100
AcDbEntity
  8
0
100
AcDbLine
 62
7
  6
CONTINUOUS
 10
46.7756547402
 20
-30.1755566487
 11
45.6969717071
 21
-32.9223702713
  0
LWPOLYLINE
  5
4DD
100
AcDbEntity
  8
0
100
AcDbPolyline
 62
7
  6
CONTINUOUS
 90
10
 70
0
 10
68.6920290196
 20
24.5549124197
 10
68.654466316
 20
24.4598045546
 10
68.6097438462
 20
24.3657694614
 10
68.5578616104
 20
24.2728071401
 10
68.498720074
 20
24.1807810477
 10
68.4324187716
 20
24.0898277271
 10
68.3592563062
 20
24.0003568076
 10
68.2793322122
 20
23.9125048322
 10
68.1925469552
 20
23.8261352579
 10
68.0989005353
 20
23.7412480846
  0
LINE
  5
4DE
100
AcDbEntity
  8
0
100
AcDbLine
 62
7
  6
CONTINUOUS
 10
39.098185252
 20
-39.4810807496
 11
39.3828208346
 21
-38.8251309936
  0
LINE
  5
4DF
100
AcDbEntity
  8
0
100
AcDbLine
 62
7
  6
CONTINUOUS
 10
39.0245205432
 20
-40.9229439392
 11
39.3744847817
 21
-40.1164426765
  0
LINE
  5
4E0
100
AcDbEntity
  8
0
100
AcDbLine
 62
7
  6
CONTINUOUS
 10
39.8284843425
 20
-39.0701894344
 11
40.1784485809
 21
-38.2636881716
  0
LINE
  5
4E1
100
AcDbEntity
  8
0
100
AcDbLine
 62
7
  6
CONTINUOUS
 10
40.4148435578
 20
-38.5519674071
 11
40.0648793194
 21
-39.3584686699
  0
LINE
  5
4E2
100
AcDbEntity
  8
0
100
AcDbLine
 62
7
  6
CONTINUOUS
 10
39.6108797586
 20
-40.4047219119
 11
39.2609155201
 21
-41.2112231747
  0
LINE
  5
4E3
100
AcDbEntity
  8
0
100
AcDbLine
 62
7
  6
CONTINUOUS
 10
40.341178849
 20
-39.9938305968
 11
40.0565432664
 21
-40.6497803528
  0
LWPOLYLINE
  5
4E4
100
AcDbEntity
  8
0
100
AcDbPolyline
 62
7
  6
CONTINUOUS
 90
33
 70
0
 10
69.489534241
 20
25.3887927004
 10
69.5176099406
 20
25.4456327306
 10
69.553696809
 20
25.5318975239
 10
69.5827771516
 20
25.6196973087
 10
69.6047633254
 20
25.7089384109
 10
69.6193403022
 20
25.7994853273
 10
69.6265492344
 20
25.8915653707
 10
69.6263489697
 20
25.9849512281
 10
69.6183010232
 20
26.0788254577
 10
69.6023503029
 20
26.1731483928
 10
69.5785519009
 20
26.2679597001
 10
69.5466326082
 20
26.3625609375
 10
69.5063413137
 20
26.4570170228
 10
69.4579291285
 20
26.5512630382
 10
69.4018761773
 20
26.6444057881
 10
69.3382193415
 20
26.7362954716
 10
69.2669217396
 20
26.8270818896
 10
69.1883528521
 20
26.9163212494
 10
69.1025347714
 20
27.0040313269
 10
69.0094454051
 20
27.0901943463
 10
68.9093879557
 20
27.1743131865
 10
68.8022867275
 20
27.256354158
 10
68.6882174162
 20
27.3363509504
 10
68.5677103123
 20
27.4139075116
 10
68.4406356487
 20
27.4890314727
 10
68.3071231925
 20
27.5617152026
 10
68.1680925352
 20
27.6315397562
 10
68.0235776011
 20
27.6984858839
 10
67.8735444659
 20
27.7625728354
 10
67.7188109485
 20
27.8234394148
 10
67.5596496551
 20
27.8809652237
 10
67.3957879795
 20
27.9352706605
 10
67.2272259216
 20
27.9863557253
  0
LWPOLYLINE
  5
4E5
100
AcDbEntity
  8
0
100
AcDbPolyline
 62
7
  6
CONTINUOUS
 90
26
 70
0
 10
39.1434942896
 20
-38.0740818097
 10
39.0874138702
 20
-38.170168129
 10
39.032648946
 20
-38.2694923893
 10
38.9791938351
 20
-38.3720372257
 10
38.9273639831
 20
-38.4771990079
 10
38.8771644579
 20
-38.5850001991
 10
38.8285901916
 20
-38.6954183361
 10
38.7819414265
 20
-38.8077823982
 10
38.7372280729
 20
-38.9221091919
 10
38.6944402205
 20
-39.0383819106
 10
38.6538483797
 20
-39.1558791147
 10
38.6154622631
 20
-39.2746290305
 10
38.5792721581
 20
-39.3946034317
 10
38.5455194378
 20
-39.5149961987
 10
38.5142369835
 20
-39.6357233136
 10
38.4853919139
 20
-39.7568687944
 10
38.459126958
 20
-39.8778785759
 10
38.4354325325
 20
-39.9988613248
 10
38.4143182208
 20
-40.1197083745
 10
38.3959555023
 20
-40.2395396594
 10
38.3803727799
 20
-40.358328327
 10
38.3675416508
 20
-40.4761012298
 10
38.3575483862
 20
-40.5920588596
 10
38.3504217431
 20
-40.7059347138
 10
38.3461329646
 20
-40.8179952951
 10
38.3446820505
 20
-40.9282406034
  0
LINE
  5
4E6
100
AcDbEntity
  8
0
100
AcDbLine
 62
7
  6
CONTINUOUS
 10
54.8185017567
 20
-14.1465259848
 11
59.934163096
 21
-8.1006754519
  0
LINE
  5
4E7
100
AcDbEntity
  8
0
100
AcDbLine
 62
7
  6
CONTINUOUS
 10
32.0434923175
 20
-38.3625476546
 11
32.0107245995
 21
-38.3971773159
  0
LWPOLYLINE
  5
4E8
100
AcDbEntity
  8
0
100
AcDbPolyline
 62
253
  6
CONTINUOUS
 90
7
 70
0
 10
92.2518259195
 20
37.6128463314
 10
92.2310518401
 20
37.6175863935
 10
92.1840465836
 20
37.619853587
 10
92.1343270035
 20
37.611087269
 10
92.0824554477
 20
37.5911797706
 10
92.0289685528
 20
37.5601362863
 10
91.9744758214
 20
37.5181028123
  0
LINE
  5
4E9
100
AcDbEntity
  8
0
100
AcDbLine
 62
253
  6
CONTINUOUS
 10
59.934163096
 20
-8.1006754519
 11
58.9228512598
 21
0.6304546905
  0
LINE
  5
4EA
100
AcDbEntity
  8
0
100
AcDbLine
 62
7
  6
CONTINUOUS
 10
59.5394679487
 20
1.1644604075
 11
60.4434961051
 21
-6.6404393313
  0
LWPOLYLINE
  5
4EB
100
AcDbEntity
  8
0
100
AcDbPolyline
 62
7
  6
CONTINUOUS
 90
19
 70
0
 10
49.0743449602
 20
-31.1466673189
 10
49.2278696396
 20
-30.953917583
 10
49.3764328581
 20
-30.7464631461
 10
49.5200346157
 20
-30.5243040082
 10
49.6594489645
 20
-30.2859362942
 10
49.7939018523
 20
-30.0328638792
 10
49.9210711231
 20
-29.7695983884
 10
50.0408303426
 20
-29.4959902593
 10
50.153305945
 20
-29.2121890543
 10
50.2565550771
 20
-28.9231550866
 10
50.3504287324
 20
-28.6288037195
 10
50.4350759175
 20
-28.3292195897
 10
50.5090007982
 20
-28.0296169205
 10
50.5720328152
 20
-27.7299765992
 10
50.6243425278
 20
-27.4303177385
 10
50.6649457798
 20
-27.1359119001
 10
50.6935145192
 20
-26.8485162713
 10
50.7103767981
 20
-26.5663736648
 10
50.7155326163
 20
-26.2894840806
  0
LINE
  5
4EC
100
AcDbEntity
  8
0
100
AcDbLine
 62
7
  6
CONTINUOUS
 10
42.1543065761
 20
-37.4323328027
 11
45.4509309524
 21
-33.5362754415
  0
LINE
  5
4ED
100
AcDbEntity
  8
0
100
AcDbLine
 62
7
  6
CONTINUOUS
 10
47.304190244
 20
-33.1113425814
 11
42.3341585737
 21
-38.9850833608
  0
LINE
  5
4EE
100
AcDbEntity
  8
0
100
AcDbLine
 62
7
  6
CONTINUOUS
 10
36.9702729704
 20
-45.4516428119
 11
42.3471331474
 21
-39.0970992231
  0
LINE
  5
4EF
100
AcDbEntity
  8
0
100
AcDbLine
 62
7
  6
CONTINUOUS
 10
47.4475138724
 20
-33.069307804
 11
49.0743449602
 21
-31.1466673189
  0
LWPOLYLINE
  5
4F0
100
AcDbEntity
  8
0
100
AcDbPolyline
 62
7
  6
CONTINUOUS
 90
8
 70
0
 10
39.5634716722
 20
-37.5066015713
 10
39.5013877612
 20
-37.5751548731
 10
39.4398861763
 20
-37.648025739
 10
39.3789608184
 20
-37.7252555577
 10
39.3186177866
 20
-37.8068029405
 10
39.2592520763
 20
-37.8921224344
 10
39.2008845222
 20
-37.9812160665
 10
39.1434942896
 20
-38.0740818097
  0
LWPOLYLINE
  5
4F1
100
AcDbEntity
  8
0
100
AcDbPolyline
 62
7
  6
CONTINUOUS
 90
10
 70
0
 10
39.6734724366
 20
-39.1795751645
 10
39.6908855561
 20
-39.1612366011
 10
39.7082840629
 20
-39.1444210539
 10
39.7256679569
 20
-39.1291285229
 10
39.7430809459
 20
-39.1153281653
 10
39.7604793221
 20
-39.103050824
 10
39.7777319622
 20
-39.0923890274
 10
39.7947951584
 20
-39.0833736183
 10
39.8117126185
 20
-39.075973754
 10
39.8284843425
 20
-39.0701894344
  0
LWPOLYLINE
  5
4F2
100
AcDbEntity
  8
0
100
AcDbPolyline
 62
7
  6
CONTINUOUS
 90
10
 70
0
 10
39.7658916645
 20
-40.2953361819
 10
39.7484785449
 20
-40.3136747453
 10
39.7310800381
 20
-40.3304902925
 10
39.7136961441
 20
-40.3457828234
 10
39.6962831551
 20
-40.359583181
 10
39.6788847789
 20
-40.3718605223
 10
39.6616321388
 20
-40.382522319
 10
39.6445689426
 20
-40.391537728
 10
39.6276514825
 20
-40.3989375923
 10
39.6108797586
 20
-40.4047219119
  0
LWPOLYLINE
  5
4F3
100
AcDbEntity
  8
0
100
AcDbPolyline
 62
7
  6
CONTINUOUS
 90
5
 70
0
 10
39.8134868947
 20
-37.2801981631
 10
39.7509650451
 20
-37.3294259044
 10
39.6882603141
 20
-37.383737087
 10
39.6257612109
 20
-37.4427871207
 10
39.5634716722
 20
-37.5066015713
  0
LWPOLYLINE
  5
4F4
100
AcDbEntity
  8
0
100
AcDbPolyline
 62
7
  6
CONTINUOUS
 90
4
 70
0
 10
39.7196820505
 20
-37.4424883531
 10
39.8369264199
 20
-37.3503097764
 10
39.9515282957
 20
-37.2772633308
 10
40.063487678
 20
-37.2233490164
  0
LWPOLYLINE
  5
4F5
100
AcDbEntity
  8
0
100
AcDbPolyline
 62
7
  6
CONTINUOUS
 90
16
 70
0
 10
28.4744721199
 20
-36.2926206693
 10
28.565405353
 20
-36.2403303086
 10
28.661249546
 20
-36.1931224779
 10
28.7620046989
 20
-36.1509971773
 10
28.868495421
 20
-36.1137272159
 10
28.9798971031
 20
-36.0815397846
 10
29.0937359174
 20
-36.0551164557
 10
29.2100607849
 20
-36.0345946582
 10
29.3288227846
 20
-36.0198369632
 10
29.4474013261
 20
-36.011112656
 10
29.565779471
 20
-36.008551508
 10
29.6839741576
 20
-36.012023748
 10
29.7994156106
 20
-36.021409347
 10
29.9112472382
 20
-36.0366682955
 10
30.0203256322
 20
-36.0578406031
 10
30.1266507925
 20
-36.0849262698
  0
LINE
  5
4F6
100
AcDbEntity
  8
0
100
AcDbLine
 62
7
  6
CONTINUOUS
 10
31.9141936474
 20
-37.2462514981
 11
31.8558076791
 21
-37.2687281669
  0
LWPOLYLINE
  5
4F7
100
AcDbEntity
  8
0
100
AcDbPolyline
 62
7
  6
CONTINUOUS
 90
5
 70
0
 10
40.063487678
 20
-37.2233490164
 10
40.1736386665
 20
-37.1884854729
 10
40.2811471615
 20
-37.1727540607
 10
40.3835108635
 20
-37.1763988606
 10
40.4546185803
 20
-37.1915605112
  0
LWPOLYLINE
  5
4F8
100
AcDbEntity
  8
0
100
AcDbPolyline
 62
253
  6
CONTINUOUS
 90
19
 70
0
 10
-3.2883185949
 20
65.0181028123
 10
-3.6033272698
 20
65.0995347042
 10
-3.9258190464
 20
65.1662565635
 10
-4.2557939249
 20
65.2182683902
 10
-4.5958173572
 20
65.2557007575
 10
-4.9433238912
 20
65.2784230922
 10
-5.2906171705
 20
65.286043675
 10
-5.6376611985
 20
65.2782521268
 10
-5.9844919718
 20
65.2553588268
 10
-6.323521123
 20
65.2179031928
 10
-6.6545900607
 20
65.1655888127
 10
-6.9778573764
 20
65.0987120986
 10
-7.2862104776
 20
65.0187017051
 10
-7.5793705441
 20
64.9252796791
 10
-7.8576163961
 20
64.8187239736
 10
-8.1146719019
 20
64.7012971021
 10
-8.3484450175
 20
64.5737532357
 10
-8.5610277869
 20
64.4353382032
 10
-8.75242021
 20
64.2860520048
  0
LINE
  5
4F9
100
AcDbEntity
  8
0
100
AcDbLine
 62
7
  6
CONTINUOUS
 10
-3.371159289
 20
65.2066098757
 11
-3.0109684968
 21
65.1128463314
  0
LINE
  5
4FA
100
AcDbEntity
  8
0
100
AcDbLine
 62
253
  6
CONTINUOUS
 10
-3.2883185949
 20
65.0181028123
 11
91.9744758214
 21
37.5181028123
  0
LINE
  5
4FB
100
AcDbEntity
  8
0
100
AcDbLine
 62
7
  6
CONTINUOUS
 10
-3.0109684968
 20
65.1128463314
 11
92.2518259195
 21
37.6128463314
  0
LWPOLYLINE
  5
4FC
100
AcDbEntity
  8
0
100
AcDbPolyline
 62
7
  6
CONTINUOUS
 90
16
 70
0
 10
92.2518259195
 20
37.6128463314
 10
92.5805973418
 20
37.5086439771
 10
92.895724018
 20
37.3895234432
 10
93.1959362253
 20
37.2553488139
 10
93.4824636647
 20
37.1043970002
 10
93.7505529875
 20
36.9377255164
 10
93.9918307822
 20
36.7603597993
 10
94.2054544691
 20
36.5740874648
 10
94.3930776889
 20
36.3785718012
 10
94.5528128197
 20
36.1772417899
 10
94.6846240812
 20
35.9729111188
 10
94.7905873959
 20
35.7655140027
 10
94.8720554428
 20
35.5550070813
 10
94.9295272674
 20
35.3425543967
 10
94.96339685
 20
35.130327802
 10
94.9744758214
 20
34.920026601
  0
LWPOLYLINE
  5
4FD
100
AcDbEntity
  8
0
100
AcDbPolyline
 62
253
  6
CONTINUOUS
 90
16
 70
0
 10
93.4385774366
 20
34.7860520048
 10
93.5297633397
 20
34.7549149304
 10
93.6189946502
 20
34.7149686213
 10
93.7053470598
 20
34.6669306552
 10
93.7874739626
 20
34.6119444618
 10
93.8651711055
 20
34.5505492
 10
93.9391320205
 20
34.4822432438
 10
94.0088679467
 20
34.4071407547
 10
94.073076291
 20
34.3262785441
 10
94.1310056416
 20
34.2402774514
 10
94.1818850714
 20
34.1498548698
 10
94.2248600111
 20
34.0560335808
 10
94.2591521125
 20
33.9600174649
 10
94.2841666991
 20
33.8629522057
 10
94.2994442246
 20
33.7658999445
 10
94.3046028403
 20
33.670026601
  0
LINE
  5
4FE
100
AcDbEntity
  8
IMPORT_IGES
100
AcDbLine
 62
253
  6
CONTINUOUS
 10
67.9256954543
 20
23.5912480843
 11
67.9256954543
 21
23.7646161253
  0
LINE
  5
4FF
100
AcDbEntity
  8
IMPORT_IGES
100
AcDbLine
 62
7
  6
CONTINUOUS
 10
68.5687735161
 20
24.9646161252
 11
68.5687735161
 21
24.2923590363
  0
LWPOLYLINE
  5
500
100
AcDbEntity
  8
IMPORT_IGES
100
AcDbPolyline
 62
7
  6
CONTINUOUS
 90
10
 70
0
 10
68.5687347823
 20
24.9646161281
 10
68.5633394065
 20
24.8508281022
 10
68.5471392231
 20
24.7370166078
 10
68.520063298
 20
24.6237076232
 10
68.4821826069
 20
24.5108983802
 10
68.4337362762
 20
24.3993476315
 10
68.3746544834
 20
24.2890628466
 10
68.3050070511
 20
24.180036556
 10
68.2252425727
 20
24.0730051042
 10
68.1355105793
 20
23.9682139391
  0
LWPOLYLINE
  5
501
100
AcDbEntity
  8
0
100
AcDbPolyline
 62
7
  6
CONTINUOUS
 90
4
 70
0
 10
94.5627802756
 20
31.6170696948
 10
94.4448444213
 20
31.4483573742
 10
94.3010502493
 20
31.2833176058
 10
94.1313977596
 20
31.1219503896
  0
LWPOLYLINE
  5
502
100
AcDbEntity
  8
0
100
AcDbPolyline
 62
7
  6
CONTINUOUS
 90
7
 70
0
 10
39.7196820505
 20
-42.0324229932
 10
39.6024376812
 20
-42.12460157
 10
39.4878358053
 20
-42.1976480156
 10
39.3758764231
 20
-42.2515623299
 10
39.2657254345
 20
-42.2864258734
 10
39.1582169395
 20
-42.3021572857
 10
39.0558532375
 20
-42.2985124857
  0
LINE
  5
503
100
AcDbEntity
  8
0
100
AcDbLine
 62
7
  6
CONTINUOUS
 10
45.8582770081
 20
-33.5231302055
 11
47.139148981
 21
-32.5219086789
  0
LWPOLYLINE
  5
504
100
AcDbEntity
  8
0
100
AcDbPolyline
 62
253
  6
CONTINUOUS
 90
3
 70
0
 10
92.5498782832
 20
37.3161152161
 10
92.2730482183
 20
37.4224066008
 10
91.9744758214
 20
37.5181028123
  0
LINE
  5
505
100
AcDbEntity
  8
0
100
AcDbLine
 62
7
  6
CONTINUOUS
 10
68.5687735161
 20
24.7326385395
 11
68.5806491518
 21
24.713851815
  0
LWPOLYLINE
  5
506
100
AcDbEntity
  8
0
100
AcDbPolyline
 62
7
  6
CONTINUOUS
 90
5
 70
0
 10
68.5806491518
 20
24.713851815
 10
68.6155602004
 20
24.652990618
 10
68.6460779896
 20
24.5939876825
 10
68.6724639449
 20
24.5369589742
 10
68.6788224309
 20
24.5214736536
  0
LWPOLYLINE
  5
507
100
AcDbEntity
  8
0
100
AcDbPolyline
 62
7
  6
CONTINUOUS
 90
4
 70
0
 10
94.8501374819
 20
32.6342867616
 10
94.7539596278
 20
32.4537250697
 10
94.6311097796
 20
32.277983069
 10
94.4813241838
 20
32.1060666436
  0
LINE
  5
508
100
AcDbEntity
  8
0
100
AcDbLine
 62
7
  6
CONTINUOUS
 10
94.9193795883
 20
32.8186740288
 11
94.8501374819
 21
32.6342867616
  0
LWPOLYLINE
  5
509
100
AcDbEntity
  8
0
100
AcDbPolyline
 62
7
  6
CONTINUOUS
 90
3
 70
0
 10
94.7215834376
 20
31.9674206956
 10
94.6551110155
 20
31.7904089191
 10
94.5627802756
 20
31.6170696948
  0
LWPOLYLINE
  5
50A
100
AcDbEntity
  8
0
100
AcDbPolyline
 62
7
  6
CONTINUOUS
 90
3
 70
0
 10
94.7743006925
 20
32.321950334
 10
94.7614379322
 20
32.1452419705
 10
94.7215834376
 20
31.9674206956
  0
LWPOLYLINE
  5
50B
100
AcDbEntity
  8
0
100
AcDbPolyline
 62
7
  6
CONTINUOUS
 90
3
 70
0
 10
94.9742933955
 20
33.1879757355
 10
94.9608946868
 20
33.0039045235
 10
94.9193795883
 20
32.8186740288
  0
LINE
  5
50C
100
AcDbEntity
  8
0
100
AcDbLine
 62
253
  6
CONTINUOUS
 10
94.1313977596
 20
31.7879757934
 11
94.1313977596
 21
31.1219503896
  0
LINE
  5
50D
100
AcDbEntity
  8
0
100
AcDbLine
 62
253
  6
CONTINUOUS
 10
94.3046028403
 20
33.670026601
 11
94.3046028403
 21
31.9379757934
  0
LINE
  5
50E
100
AcDbEntity
  8
0
100
AcDbLine
 62
7
  6
CONTINUOUS
 10
94.7744758214
 20
32.3219503896
 11
94.7744758214
 21
32.4922416145
  0
LINE
  5
50F
100
AcDbEntity
  8
0
100
AcDbLine
 62
7
  6
CONTINUOUS
 10
94.9744758214
 20
34.920026601
 11
94.9744758214
 21
33.1879757934
  0
ELLIPSE
  5
510
100
AcDbEntity
  8
0
100
AcDbEllipse
 62
7
  6
CONTINUOUS
 10
-23.5255997802
 20
-20.8773686991
 30
0.0
 11
0.657619181
 21
1.8180851659
 31
0.0
 40
0.3767950372
 41
0.0249121543
 42
0.793264454
  0
ELLIPSE
  5
511
100
AcDbEntity
  8
0
100
AcDbEllipse
 62
7
  6
CONTINUOUS
 10
25.8427277879
 20
-21.820930531
 30
0.0
 11
0.9936359124
 21
0.115212118
 31
0.0
 40
0.6262444694
 41
0.196287044
 42
0.9815329176
  0
ELLIPSE
  5
512
100
AcDbEntity
  8
0
100
AcDbEllipse
 62
7
  6
CONTINUOUS
 10
-21.0599658137
 20
-21.5891359162
 30
0.0
 11
0.5090826811
 21
1.861547914
 31
0.0
 40
0.4438761636
 41
5.4919404287
 42
7.0452838545
  0
ELLIPSE
  5
513
100
AcDbEntity
  8
0
100
AcDbEllipse
 62
7
  6
CONTINUOUS
 10
-21.2117674996
 20
-22.1480612733
 30
0.0
 11
0.2638076836
 21
0.9646579255
 31
0.0
 40
0.4438761636
 41
-1.3847682352
 42
0.594612366
  0
ELLIPSE
  5
514
100
AcDbEntity
  8
0
100
AcDbEllipse
 62
7
  6
CONTINUOUS
 10
-2.4347575369
 20
-33.062132922
 30
0.0
 11
0.0910491767
 21
0.2859467181
 31
0.0
 40
0.4108843293
 41
-3.8086809763
 42
-3.1304021193
  0
ELLIPSE
  5
515
100
AcDbEntity
  8
0
100
AcDbEllipse
 62
7
  6
CONTINUOUS
 10
47.1489575051
 20
-32.0790597168
 30
0.0
 11
0.1380365081
 21
0.4806573598
 31
0.0
 40
0.4371298436
 41
3.6838285386
 42
5.4740777403
  0
ELLIPSE
  5
516
100
AcDbEntity
  8
0
100
AcDbEllipse
 62
7
  6
CONTINUOUS
 10
45.8748716234
 20
-33.0749767471
 30
0.0
 11
0.1466101405
 21
0.4863218924
 31
0.0
 40
0.4295919548
 41
1.3831336601
 42
3.6884296047
  0
ELLIPSE
  5
517
100
AcDbEntity
  8
0
100
AcDbEllipse
 62
7
  6
CONTINUOUS
 10
43.4516382387
 20
-32.8404016503
 30
0.0
 11
0.1466101405
 21
0.4863218924
 31
0.0
 40
0.4295919548
 41
1.3831336601
 42
3.2268218144
  0
ELLIPSE
  5
518
100
AcDbEntity
  8
0
100
AcDbEllipse
 62
7
  6
CONTINUOUS
 10
46.9478397671
 20
-30.3427158108
 30
0.0
 11
0.1385905511
 21
0.4886445041
 31
0.0
 40
0.4267945511
 41
5.4813855451
 42
7.6279435197
  0
ELLIPSE
  5
519
100
AcDbEntity
  8
0
100
AcDbEllipse
 62
7
  6
CONTINUOUS
 10
44.8526188985
 20
-29.2728728737
 30
0.0
 11
0.1385905511
 21
0.4886445041
 31
0.0
 40
0.4267945511
 41
-0.0844220166
 42
1.3447582125
  0
ENDSEC
  0
SECTION
  2
OBJECTS
  0
DICTIONARY
  5
C
100
AcDbDictionary
280
0
281
1
  3
ACAD_GROUP
350
D
  3
ACAD_MLINESTYLE
350
17
  3
ACAD_LAYOUT
350
1A
  3
ACAD_PLOTSETTINGS
350
19
  3
ACAD_PLOTSTYLENAME
350
E
  0
DICTIONARY
  5
D
102
{ACAD_REACTORS
330
C
102
}
100
AcDbDictionary
280
0
281
1
  0
ACDBDICTIONARYWDFLT
  5
E
102
{ACAD_REACTORS
330
C
102
}
100
AcDbDictionary
281
1
  3
Normal
350
F
100
AcDbDictionaryWithDefault
340
F
  0
DICTIONARY
  5
17
102
{ACAD_REACTORS
330
C
102
}
100
AcDbDictionary
280
0
281
1
  3
Standard
350
18
  0
DICTIONARY
  5
19
102
{ACAD_REACTORS
330
C
102
}
100
AcDbDictionary
281
1
  0
DICTIONARY
  5
1A
102
{ACAD_REACTORS
330
C
102
}
100
AcDbDictionary
281
1
  3
Model
350
51A
  3
Layout1
350
51B
  0
ACDBPLACEHOLDER
  5
F
102
{ACAD_REACTORS
330
E
102
}
  0
MLINESTYLE
  5
18
102
{ACAD_REACTORS
330
17
102
}
100
AcDbMlineStyle
  2
STANDARD
 70
0
  3

 62
256
 51
90.0
 52
90.0
 71
2
 49
0.5
 62
256
  6
BYLAYER
 49
-0.5
 62
256
  6
BYLAYER
  0
LAYOUT
  5
51A
102
{ACAD_REACTORS
330
1A
102
}
100
AcDbPlotSettings
  1

  2
none_device
  4
ISO_A4_(297.00_x_210.00_MM)
  6

 40
0.0
 41
0.0
 42
0.0
 43
0.0
 44
297.0
 45
210.0
 46
0.0
 47
0.0
 48
0.0
 49
0.0
140
0.0
141
0.0
142
1.0
143
1.0
 70
1024
 72
1
 73
0
 74
0
  7

 75
0
147
1.0
148
0.0
149
0.0
100
AcDbLayout
  1
Model
 70
0
 71
0
 10
0.0
 20
0.0
 11
297.0
 21
210.0
 12
0.0
 22
0.0
 32
0.0
 14
0.0
 24
0.0
 34
0.0
 15
0.0
 25
0.0
 35
0.0
146
0.0
 13
0.0
 23
0.0
 33
0.0
 16
1.0
 26
0.0
 36
0.0
 17
0.0
 27
1.0
 37
0.0
 76
0
330
21C
345
0
346
0
  0
LAYOUT
  5
51B
102
{ACAD_REACTORS
330
1A
102
}
100
AcDbPlotSettings
  1

  2
none_device
  4
ISO_A4_(297.00_x_210.00_MM)
  6

 40
0.0
 41
0.0
 42
0.0
 43
0.0
 44
297.0
 45
210.0
 46
0.0
 47
0.0
 48
0.0
 49
0.0
140
0.0
141
0.0
142
1.0
143
1.0
 70
0
 72
1
 73
0
 74
0
  7

 75
0
147
1.0
148
0.0
149
0.0
100
AcDbLayout
  1
Layout1
 70
0
 71
1
 10
0.0
 20
0.0
 11
297.0
 21
210.0
 12
0.0
 22
0.0
 32
0.0
 14
0.0
 24
0.0
 34
0.0
 15
0.0
 25
0.0
 35
0.0
146
0.0
 13
0.0
 23
0.0
 33
0.0
 16
1.0
 26
0.0
 36
0.0
 17
0.0
 27
1.0
 37
0.0
 76
0
330
21D
345
0
346
0
  0
ENDSEC
  0
EOF
