  0
SECTION
  2
HEADER
  9
$ACADVER
  1
AC1024
  9
$DWGCODEPAGE
  3
ANSI_1252
  9
$EXTMAX
 10
841.0
 20
594.0
 30
0.0
  9
$EXTMIN
 10
0.0
 20
0.0
 30
0.0
  9
$LIMMIN
 10
0.0
 20
0.0
  9
$LIMMAX
 10
841.0
 20
594.0
  9
$VIEWCTR
 10
420.5
 20
297.0
  9
$VIEWSIZE
 40
594.0
  9
$CLAYER
  8
0
  9
$LTSCALE
 40
46.255
  9
$CELTYPE
  6
BYLAYER
  9
$DIMSCALE
 40
1.0
  9
$DIMASZ
 40
3.0
  9
$DIMEXO
 40
0.5
  9
$DIMDLI
 40
31.958
  9
$DIMEXE
 40
1.5
  9
$DIMCEN
 40
7.569
  9
$DIMLFAC
 40
1.0
  9
$DIMBLK
  1
_FILLED
  9
$DIMALT
 70
0
  9
$DIMALTF
 40
0.0393700787
  9
$DIMTXT
 40
3.0
  9
$DIMTOL
 70
1
  9
$DIMLIM
 70
0
  9
$DIMTFAC
 40
1.0
  9
$DIMTP
 40
0.01
  9
$DIMTM
 40
0.01
  9
$DIMGAP
 40
0.625
  9
$DIMDSEP
 70
44
  9
$AUNITS
 70
0
  9
$PDMODE
 70
3
  9
$PDSIZE
 40
3.0
  9
$HANDSEED
  5
31D
  9
$TILEMODE
 70
1
  9
$MEASUREMENT
 70
1
  9
$INSUNITS
 70
4
  0
ENDSEC
  0
SECTION
  2
CLASSES
  0
CLASS
  1
ACDBDICTIONARYWDFLT
  2
AcDbDictionaryWithDefault
  3
AutoCAD 2000
 90
0
 91
1
280
0
281
0
  0
CLASS
  1
ACDBPLACEHOLDER
  2
AcDbPlaceHolder
  3
AutoCAD 2000
 90
0
 91
1
280
0
281
0
  0
CLASS
  1
LAYOUT
  2
AcDbLayout
  3
AutoCAD 2000
 90
0
 91
0
280
0
281
0
  0
ENDSEC
  0
SECTION
  2
TABLES
  0
TABLE
  2
VPORT
  5
8
100
AcDbSymbolTable
 70
2
  0
VPORT
  5
1F4
100
AcDbSymbolTableRecord
100
AcDbViewportTableRecord
  2
*ACTIVE
 70
0
 10
0.0
 20
0.0
 11
1.0
 21
1.0
 12
420.5
 22
297.0
 13
0.0
 23
0.0
 14
1.0
 24
1.0
 15
0.0
 25
0.0
 16
0.0
 26
0.0
 36
1.0
 17
0.0
 27
0.0
 37
0.0
 40
594.0
 41
1.4158249158
 42
50.0
 43
0.0
 44
0.0
 50
0.0
 51
0.0
 71
0
 72
100
 73
1
 74
1
 75
0
 76
0
 77
0
 78
0
  0
ENDTAB
  0
TABLE
  2
LTYPE
  5
5
100
AcDbSymbolTable
 70
6
  0
LTYPE
  5
14
100
AcDbSymbolTableRecord
100
AcDbLinetypeTableRecord
  2
BYBLOCK
 70
0
  3

 72
65
 73
0
 40
0.0
  0
LTYPE
  5
15
100
AcDbSymbolTableRecord
100
AcDbLinetypeTableRecord
  2
BYLAYER
 70
0
  3

 72
65
 73
0
 40
0.0
  0
LTYPE
  5
16
100
AcDbSymbolTableRecord
100
AcDbLinetypeTableRecord
  2
CONTINUOUS
 70
64
  3
Solid line
 72
65
 73
0
 40
0.0
  0
LTYPE
  5
1F5
100
AcDbSymbolTableRecord
100
AcDbLinetypeTableRecord
  2
CENTER
 70
64
  3
____ _ ____ _ ____ _ ____ _ ____ _ ____ _ ____
 72
65
 73
4
 40
0.6
 49
0.375
 74
0
 49
-0.075
 74
0
 49
0.075
 74
0
 49
-0.075
 74
0
  0
LTYPE
  5
1F6
100
AcDbSymbolTableRecord
100
AcDbLinetypeTableRecord
  2
HIDDEN
 70
64
  3
- - - - - - - - - - - - - - - - - - - -
 72
65
 73
2
 40
0.2
 49
0.1
 74
0
 49
-0.1
 74
0
  0
LTYPE
  5
1F7
100
AcDbSymbolTableRecord
100
AcDbLinetypeTableRecord
  2
PHANTOM
 70
64
  3
_____ _ _ _____ _ _ _____ _ _ _____
 72
65
 73
6
 40
0.8
 49
0.45
 74
0
 49
-0.05
 74
0
 49
0.1
 74
0
 49
-0.05
 74
0
 49
0.1
 74
0
 49
-0.05
 74
0
  0
LTYPE
  5
1F8
100
AcDbSymbolTableRecord
100
AcDbLinetypeTableRecord
  2
DOT
 70
64
  3
. . . . . . . . . . . . . . . . . . . .
 72
65
 73
2
 40
0.2
 49
0.1
 74
0
 49
-0.1
 74
0
  0
LTYPE
  5
1F9
100
AcDbSymbolTableRecord
100
AcDbLinetypeTableRecord
  2
DASHED
 70
64
  3
- - - - - - - - - - - - - - - - - - - -
 72
65
 73
2
 40
0.2
 49
0.1
 74
0
 49
-0.1
 74
0
  0
ENDTAB
  0
TABLE
  2
LAYER
  5
2
100
AcDbSymbolTable
 70
36
  0
LAYER
  5
10
100
AcDbSymbolTableRecord
100
AcDbLayerTableRecord
  2
0
 70
0
 62
7
  6
CONTINUOUS
370
-3
390
F
  0
LAYER
  5
1FA
100
AcDbSymbolTableRecord
100
AcDbLayerTableRecord
  2
DEFAULT_1
 70
0
 62
7
  6
CENTER
370
-3
390
F
  0
LAYER
  5
1FB
100
AcDbSymbolTableRecord
100
AcDbLayerTableRecord
  2
DEFAULT_2
 70
0
 62
7
  6
HIDDEN
370
-3
390
F
  0
LAYER
  5
1FC
100
AcDbSymbolTableRecord
100
AcDbLayerTableRecord
  2
DEFAULT_3
 70
0
 62
7
  6
PHANTOM
370
-3
390
F
  0
LAYER
  5
1FD
100
AcDbSymbolTableRecord
100
AcDbLayerTableRecord
  2
General
 70
0
 62
7
  6
CONTINUOUS
370
-3
390
F
  0
ENDTAB
  0
TABLE
  2
STYLE
  5
3
100
AcDbSymbolTable
 70
1
  0
STYLE
  5
11
100
AcDbSymbolTableRecord
100
AcDbTextStyleTableRecord
  2
STANDARD
 70
0
 40
0.0
 41
0.8
 50
0.0
 71
0
 42
0.2
  3
txt
  4

  0
STYLE
  5
1FE
100
AcDbSymbolTableRecord
100
AcDbTextStyleTableRecord
  2
TEXTSTYLE_1
 70
0
 40
0.0
 41
0.8
 50
0.0
 71
0
 42
0.2
  3
gdt
  4

  0
ENDTAB
  0
TABLE
  2
VIEW
  5
6
100
AcDbSymbolTable
 70
0
  0
ENDTAB
  0
TABLE
  2
UCS
  5
7
100
AcDbSymbolTable
 70
0
  0
ENDTAB
  0
TABLE
  2
APPID
  5
9
100
AcDbSymbolTable
 70
1
  0
APPID
  5
1FF
100
AcDbSymbolTableRecord
100
AcDbRegAppTableRecord
  2
ACAD
 70
0
  0
ENDTAB
  0
TABLE
  2
BLOCK_RECORD
  5
1
100
AcDbSymbolTable
 70
0
  0
BLOCK_RECORD
  5
200
100
AcDbSymbolTableRecord
100
AcDbBlockTableRecord
  2
*Model_Space
  0
BLOCK_RECORD
  5
201
100
AcDbSymbolTableRecord
100
AcDbBlockTableRecord
  2
*Paper_Space
  0
BLOCK_RECORD
  5
202
100
AcDbSymbolTableRecord
100
AcDbBlockTableRecord
  2
_FILLED
  0
ENDTAB
  0
TABLE
  2
DIMSTYLE
  5
A
100
AcDbSymbolTable
 70
1
100
AcDbDimStyleTable
 71
0
  0
DIMSTYLE
105
203
100
AcDbSymbolTableRecord
100
AcDbDimStyleTableRecord
  2
STANDARD
 70
0
  3

  4

 40
1.0
 41
3.0
 42
0.5
 43
0.38
 44
1.5
 45
0.0
 46
0.0
 47
0.01
 48
0.01
140
3.0
141
0.09
142
0.0
143
25.4
144
1.0
145
0.0
146
1.0
147
0.625
 71
1
 72
0
 73
0
 74
0
 75
0
 76
0
 77
1
 78
8
 79
2
170
0
171
1
172
0
173
0
174
0
175
0
176
0
177
0
178
0
270
2
179
2
271
2
272
2
273
2
274
2
275
0
280
0
281
0
282
0
283
1
284
8
285
0
286
0
287
3
288
0
340
11
278
44
341
202
342
202
343
202
344
202
  0
ENDTAB
  0
ENDSEC
  0
SECTION
  2
BLOCKS
  0
BLOCK
  5
20
100
AcDbEntity
  8
0
100
AcDbBlockBegin
  2
*Model_Space
 70
0
 10
0.0
 20
0.0
 30
0.0
  3
*Model_Space
  1

  0
ENDBLK
  5
21
100
AcDbEntity
  8
0
100
AcDbBlockEnd
  0
BLOCK
  5
1C
100
AcDbEntity
  8
0
100
AcDbBlockBegin
  2
*Paper_Space
 70
0
 10
0.0
 20
0.0
 30
0.0
  3
*Paper_Space
  1

  0
ENDBLK
  5
1D
100
AcDbEntity
  8
0
100
AcDbBlockEnd
  0
BLOCK
  5
204
100
AcDbEntity
  8
0
100
AcDbBlockBegin
  2
_FILLED
 70
64
 10
0.0
 20
0.0
  3
_FILLED
  1

  0
SOLID
  5
205
100
AcDbEntity
  8
0
  6
BYBLOCK
 62
0
100
AcDbTrace
 10
0.0
 20
0.0
 11
-1.0
 21
0.3166666667
 12
-1.0
 22
-0.3166666667
 13
-1.0
 23
-0.3166666667
  0
ENDBLK
  5
206
100
AcDbEntity
  8
0
  6
BYBLOCK
 62
0
100
AcDbBlockEnd
  0
ENDSEC
  0
SECTION
  2
ENTITIES
  0
LWPOLYLINE
  5
207
100
AcDbEntity
  8
0
100
AcDbPolyline
 62
7
  6
CONTINUOUS
 90
42
 70
0
 10
281.6920702228
 20
434.7222703825
 10
281.5313544528
 20
434.6615834844
 10
281.3666659358
 20
434.5932592319
 10
281.2043442411
 20
434.5195801796
 10
281.0445099766
 20
434.440598583
 10
280.8872787104
 20
434.3563666068
 10
280.7327612718
 20
434.2669359554
 10
280.5810640897
 20
434.1723575449
 10
280.4322895577
 20
434.0726812197
 10
280.2865364202
 20
433.9679555119
 10
280.214818723
 20
433.913710737
 10
280.1439022779
 20
433.8582291222
 10
280.0045546107
 20
433.7436113789
 10
279.8685812314
 20
433.6241569904
 10
279.7360675286
 20
433.4999193694
 10
279.6070968407
 20
433.3709506703
 10
279.4817508097
 20
433.2373018707
 10
279.3601097081
 20
433.0990228924
 10
279.2422527345
 20
432.9561627584
 10
279.128253783
 20
432.8087634041
 10
279.0182016884
 20
432.6568849785
 10
278.91217287
 20
432.500571994
 10
278.8102430175
 20
432.3398671378
 10
278.7124877627
 20
432.1748120453
 10
278.6189832108
 20
432.0054480772
 10
278.5298063424
 20
431.8318170916
 10
278.4450352941
 20
431.6539621992
 10
278.3647495269
 20
431.4719284868
 10
278.289029888
 20
431.2857636894
 10
278.2179585718
 20
431.0955187861
 10
278.1516189884
 20
430.9012484892
 10
278.0900955439
 20
430.703011583
 10
278.033473345
 20
430.5008710643
 10
277.9818378386
 20
430.2948940191
 10
277.9353117618
 20
430.0853308059
 10
277.8938998743
 20
429.8718866887
 10
277.8577414141
 20
429.6548810593
 10
277.8268990394
 20
429.4342864257
 10
277.8014577841
 20
429.210200969
 10
277.7815089368
 20
428.9827963909
 10
277.7671380402
 20
428.7522476817
 10
277.7584717965
 20
428.520755225
  0
LINE
  5
208
100
AcDbEntity
  8
0
100
AcDbLine
 62
7
  6
CONTINUOUS
 10
282.1670374474
 20
434.8935775921
 11
281.6914044474
 21
434.7224175921
  0
LINE
  5
209
100
AcDbEntity
  8
0
100
AcDbLine
 62
7
  6
CONTINUOUS
 10
284.4849434474
 20
434.9718185921
 11
284.9250294474
 21
435.1301865921
  0
LWPOLYLINE
  5
20A
100
AcDbEntity
  8
0
100
AcDbPolyline
 62
7
  6
CONTINUOUS
 90
47
 70
0
 10
276.4137037856
 20
216.5235240236
 10
276.413851033
 20
216.5120866737
 10
276.4220327026
 20
216.2219069548
 10
276.4387724921
 20
215.9316311271
 10
276.4640565453
 20
215.6416605689
 10
276.4978535306
 20
215.35241066
 10
276.5401145665
 20
215.0643018858
 10
276.5907738543
 20
214.7777524868
 10
276.6497498153
 20
214.4931726025
 10
276.7169465469
 20
214.210959809
 10
276.7922554457
 20
213.9314959192
 10
276.8755568702
 20
213.6551448883
 10
276.9667217449
 20
213.3822516663
 10
277.0656130308
 20
213.1131418375
 10
277.165555715
 20
212.8637391189
 10
277.2790151837
 20
212.6028560979
 10
277.3997549263
 20
212.346624635
 10
277.5276140321
 20
212.0953056009
 10
277.662426993
 20
211.8491460637
 10
277.8040237611
 20
211.6083808504
 10
277.952229507
 20
211.3732342454
 10
278.1068640619
 20
211.1439217769
 10
278.267741023
 20
210.9206520601
 10
278.293809829
 20
210.8858196347
 10
278.4616938271
 20
210.6697817392
 10
278.635360375
 20
210.4602582201
 10
278.8145729689
 20
210.2574674011
 10
278.9991026013
 20
210.0616021071
 10
279.1887216139
 20
209.872838842
 10
279.3831967936
 20
209.6913457477
 10
279.5822628052
 20
209.5173053816
 10
279.7855870521
 20
209.3509363199
 10
279.9928836464
 20
209.1923951811
 10
280.2038378511
 20
209.0418449548
 10
280.418177858
 20
208.8994014303
 10
280.6355964755
 20
208.7651922827
 10
280.8557734505
 20
208.6393387543
 10
281.0783765184
 20
208.521953925
 10
281.3030630436
 20
208.4131408755
 10
281.5294823146
 20
208.3129908111
 10
281.757278551
 20
208.221581234
 10
281.9399944189
 20
208.1548841491
 10
282.1693997823
 20
208.0793348413
 10
282.3991845878
 20
208.0126634762
 10
282.6290330516
 20
207.9548750321
 10
282.8584629914
 20
207.9060067049
 10
282.8605015826
 20
207.905611854
  0
LINE
  5
20B
100
AcDbEntity
  8
0
100
AcDbLine
 62
7
  6
CONTINUOUS
 10
276.4130614474
 20
216.7372405921
 11
276.4137024474
 21
216.5235235921
  0
LINE
  5
20C
100
AcDbEntity
  8
0
100
AcDbLine
 62
7
  6
CONTINUOUS
 10
276.4130614474
 20
216.7372405921
 11
277.7551254474
 21
428.3082445921
  0
LINE
  5
20D
100
AcDbEntity
  8
0
100
AcDbLine
 62
7
  6
CONTINUOUS
 10
277.7551254474
 20
428.3082445921
 11
277.7584704474
 21
428.5207545921
  0
LINE
  5
20E
100
AcDbEntity
  8
0
100
AcDbLine
 62
7
  6
CONTINUOUS
 10
296.2774344474
 20
413.6614245921
 11
296.0922384474
 21
413.5947795921
  0
LINE
  5
20F
100
AcDbEntity
  8
0
100
AcDbLine
 62
7
  6
CONTINUOUS
 10
288.4527084474
 20
415.9702675921
 11
287.2329714474
 21
223.6836905921
  0
LINE
  5
210
100
AcDbEntity
  8
0
100
AcDbLine
 62
7
  6
CONTINUOUS
 10
289.0144384474
 20
417.7652155921
 11
287.7707804474
 21
221.7076145921
  0
LINE
  5
211
100
AcDbEntity
  8
0
100
AcDbLine
 62
7
  6
CONTINUOUS
 10
289.5982794474
 20
247.3740245921
 11
290.6678914474
 21
415.9939085921
  0
LINE
  5
212
100
AcDbEntity
  8
0
100
AcDbLine
 62
7
  6
CONTINUOUS
 10
293.5548124474
 20
415.5183355921
 11
292.4955414474
 21
248.5285545921
  0
LINE
  5
213
100
AcDbEntity
  8
0
100
AcDbLine
 62
7
  6
CONTINUOUS
 10
294.9211074474
 20
250.8491265921
 11
295.9542174474
 21
413.7146685921
  0
LINE
  5
214
100
AcDbEntity
  8
0
100
AcDbLine
 62
7
  6
CONTINUOUS
 10
296.0922384474
 20
413.5947795921
 11
295.0610644474
 21
251.0343645921
  0
LINE
  5
215
100
AcDbEntity
  8
0
100
AcDbLine
 62
7
  6
CONTINUOUS
 10
512.4849504474
 20
197.3272915921
 11
513.0356714474
 21
197.3870035921
  0
LINE
  5
216
100
AcDbEntity
  8
0
100
AcDbLine
 62
7
  6
CONTINUOUS
 10
520.4550564474
 20
168.7636455921
 11
520.6379234474
 21
168.7361755921
  0
LWPOLYLINE
  5
217
100
AcDbEntity
  8
0
100
AcDbPolyline
 62
7
  6
CONTINUOUS
 90
86
 70
0
 10
488.1691491912
 20
192.3640360161
 10
488.23694695
 20
192.353076793
 10
488.3558696421
 20
192.3348364167
 10
488.4763957359
 20
192.3175725346
 10
488.5984574397
 20
192.3012836523
 10
488.721998277
 20
192.285967799
 10
488.7932060553
 20
192.2776557692
 10
488.8649002664
 20
192.269657399
 10
488.9369775009
 20
192.2619829996
 10
489.0095018046
 20
192.2546245518
 10
489.0823737365
 20
192.2475910313
 10
489.1556535007
 20
192.2408755386
 10
489.2292604965
 20
192.2344845638
 10
489.3032345261
 20
192.2284137753
 10
489.3774600497
 20
192.2226715635
 10
489.4520139625
 20
192.2172509412
 10
489.5268324791
 20
192.2121559163
 10
489.6019375944
 20
192.2073843776
 10
489.677267442
 20
192.2029396875
 10
489.752842643
 20
192.198820079
 10
489.8286128405
 20
192.1950278599
 10
489.9045858573
 20
192.191562216
 10
489.9806979047
 20
192.1884255634
 10
490.0569726844
 20
192.1856164734
 10
490.133371484
 20
192.1831361186
 10
490.2098899584
 20
192.1809843999
 10
490.2864932835
 20
192.1791621048
 10
490.3631739812
 20
192.1776692339
 10
490.4399038879
 20
192.1765062294
 10
490.5166678572
 20
192.1756732269
 10
490.5934428869
 20
192.1751704287
 10
490.6702113047
 20
192.1749979407
 10
490.7469551216
 20
192.1751558559
 10
490.8236489801
 20
192.1756441868
 10
490.9002820138
 20
192.1764629964
 10
490.9768227131
 20
192.1776120943
 10
491.0532636954
 20
192.1790915663
 10
491.1295691821
 20
192.1809009289
 10
491.2057567554
 20
192.1830409853
 10
491.2817685995
 20
192.1855105382
 10
491.3576090486
 20
192.1883101015
 10
491.4332310591
 20
192.1914383251
 10
491.508650932
 20
192.1948963761
 10
491.5838109032
 20
192.198682115
 10
491.6587287695
 20
192.2027969922
 10
491.7333446882
 20
192.2072382901
 10
491.8077272678
 20
192.2120110351
 10
491.8817690093
 20
192.2171093231
 10
491.955504489
 20
192.2225363354
 10
492.0288580106
 20
192.2282873201
 10
492.1018834002
 20
192.2343674951
 10
492.174487243
 20
192.2407701041
 10
492.246726324
 20
192.247501251
 10
492.318504055
 20
192.2545530559
 10
492.3906838735
 20
192.2620177796
 10
492.4623547679
 20
192.2698087851
 10
492.5336027694
 20
192.2779369837
 10
492.6043022452
 20
192.2863896339
 10
492.6745678445
 20
192.2951823491
 10
492.7442469802
 20
192.3042979803
 10
492.8134819755
 20
192.3137574372
 10
492.8820939396
 20
192.3235386151
 10
492.9489369501
 20
192.3334689222
 10
493.0151449185
 20
192.3437075141
 10
493.0809032926
 20
192.3542860093
 10
493.1459938729
 20
192.3651723033
 10
493.2106221574
 20
192.3764041333
 10
493.2745503396
 20
192.3879436027
 10
493.3380317807
 20
192.3998405756
 10
493.4007825092
 20
192.412046043
 10
493.4637402973
 20
192.4247544746
 10
493.5261074186
 20
192.4378193594
 10
493.5879390254
 20
192.4512593075
 10
493.6489584091
 20
192.4650191604
 10
493.7094377524
 20
192.479165904
 10
493.7692845464
 20
192.4936863772
 10
493.8284994946
 20
192.5085888091
 10
493.8870820661
 20
192.5238818937
 10
493.9453848756
 20
192.5396725416
 10
494.0030557255
 20
192.5558814472
 10
494.0601032415
 20
192.5725231072
 10
494.1165348903
 20
192.5896130983
 10
494.1723616724
 20
192.6071696309
 10
494.2275929558
 20
192.6252121726
 10
494.2822420888
 20
192.6437634431
 10
494.3364152397
 20
192.6628818312
  0
LWPOLYLINE
  5
218
100
AcDbEntity
  8
0
100
AcDbPolyline
 62
7
  6
CONTINUOUS
 90
86
 70
0
 10
488.5755257616
 20
194.8307865267
 10
488.6285362182
 20
194.8222179078
 10
488.7225077357
 20
194.8078055852
 10
488.8188798094
 20
194.7940023558
 10
488.9175041069
 20
194.7808419243
 10
489.0182150321
 20
194.7683568953
 10
489.0767360594
 20
194.7615258805
 10
489.1358139714
 20
194.7549352033
 10
489.1955255262
 20
194.7485776397
 10
489.2557499182
 20
194.7424673657
 10
489.3165584025
 20
194.7365983694
 10
489.377834265
 20
194.7309831081
 10
489.4396258498
 20
194.7256181241
 10
489.5018397132
 20
194.7205124826
 10
489.5645188198
 20
194.7156635438
 10
489.6275715162
 20
194.7110792322
 10
489.6910249964
 20
194.7067582506
 10
489.7548060355
 20
194.7027062485
 10
489.8189392096
 20
194.6989222796
 10
489.8833525584
 20
194.6954111873
 10
489.948056786
 20
194.6921728581
 10
490.0129943888
 20
194.6892106258
 10
490.0781716739
 20
194.6865246132
 10
490.1435324356
 20
194.6841175059
 10
490.2090730406
 20
194.6819897088
 10
490.2747498436
 20
194.6801428974
 10
490.3405546146
 20
194.6785775092
 10
490.4064472138
 20
194.6772946913
 10
490.4724115121
 20
194.6762948709
 10
490.5384160581
 20
194.6755786261
 10
490.6044376091
 20
194.6751462515
 10
490.6704490944
 20
194.6749979294
 10
490.7364223422
 20
194.6751336661
 10
490.8023379064
 20
194.6755533527
 10
490.8681595232
 20
194.6762566152
 10
490.9338750105
 20
194.677243166
 10
490.9994441551
 20
194.6785121902
 10
491.0648597704
 20
194.6800633247
 10
491.1300698725
 20
194.6818950214
 10
491.1950764193
 20
194.6840069793
 10
491.2598258055
 20
194.686397055
 10
491.3243246407
 20
194.6890650771
 10
491.388505804
 20
194.6920077348
 10
491.4523888014
 20
194.6952253714
 10
491.5159050778
 20
194.6987139361
 10
491.5790768901
 20
194.7024740373
 10
491.6418178782
 20
194.7064997746
 10
491.7041654333
 20
194.7107927372
 10
491.7660319596
 20
194.7153460249
 10
491.8274596072
 20
194.7201618521
 10
491.8883388572
 20
194.7252305412
 10
491.9487333741
 20
194.7305562778
 10
492.0085305852
 20
194.7361279374
 10
492.067798632
 20
194.741950648
 10
492.1270005938
 20
194.7480731131
 10
492.1856145556
 20
194.7544445441
 10
492.243492781
 20
194.7610471655
 10
492.3007385794
 20
194.7678910143
 10
492.3571711749
 20
194.7749523651
 10
492.4129269649
 20
194.782246133
 10
492.4677924676
 20
194.7897418332
 10
492.5219372785
 20
194.7974600318
 10
492.5741490887
 20
194.8052160822
 10
492.6256277713
 20
194.8131763623
 10
492.6761113676
 20
194.8212970485
 10
492.7258224661
 20
194.8296105738
 10
492.774475155
 20
194.8380653119
 10
492.8223176144
 20
194.8467005167
 10
492.8690056236
 20
194.85544934
 10
492.9148463659
 20
194.8643645493
 10
492.9601871142
 20
194.8735162416
 10
493.0043904791
 20
194.8827756852
 10
493.0473516025
 20
194.8921126792
 10
493.089374
 20
194.9015875032
 10
493.1300885122
 20
194.9111104876
 10
493.1695733337
 20
194.9206899745
 10
493.2077935519
 20
194.9303080605
 10
493.2447163711
 20
194.9399461134
 10
493.2805042758
 20
194.9496380575
 10
493.3149040305
 20
194.9593055139
 10
493.3478734108
 20
194.9689222117
 10
493.3793721765
 20
194.9784603377
 10
493.4093587203
 20
194.9878893739
 10
493.4377900871
 20
194.9971757956
 10
493.4646220492
 20
195.006282749
 10
493.4896897437
 20
195.0151266963
  0
LINE
  5
219
100
AcDbEntity
  8
0
100
AcDbLine
 62
7
  6
CONTINUOUS
 10
520.4550564474
 20
168.7636455921
 11
283.0443794474
 21
207.8726665921
  0
LINE
  5
21A
100
AcDbEntity
  8
0
100
AcDbLine
 62
7
  6
CONTINUOUS
 10
429.4639024474
 20
195.4591015921
 11
370.6749064474
 21
205.1435015921
  0
LINE
  5
21B
100
AcDbEntity
  8
0
100
AcDbLine
 62
7
  6
CONTINUOUS
 10
510.4903984474
 20
184.0464175921
 11
289.6729324474
 21
220.4220135921
  0
LINE
  5
21C
100
AcDbEntity
  8
0
100
AcDbLine
 62
7
  6
CONTINUOUS
 10
511.9906484474
 20
184.2931535921
 11
431.5657684474
 21
197.5416655921
  0
LINE
  5
21D
100
AcDbEntity
  8
0
100
AcDbLine
 62
7
  6
CONTINUOUS
 10
368.6038214474
 20
207.9134825921
 11
288.1789414474
 21
221.1619955921
  0
LINE
  5
21E
100
AcDbEntity
  8
0
100
AcDbLine
 62
7
  6
CONTINUOUS
 10
488.1691494474
 20
192.3640355921
 11
451.5930404474
 21
198.3892735921
  0
LINE
  5
21F
100
AcDbEntity
  8
0
100
AcDbLine
 62
7
  6
CONTINUOUS
 10
492.8006354474
 20
192.3119695921
 11
495.6083654474
 21
191.8494485921
  0
LINE
  5
220
100
AcDbEntity
  8
0
100
AcDbLine
 62
7
  6
CONTINUOUS
 10
448.0093204474
 20
199.6905115921
 11
449.0598304474
 21
199.5174595921
  0
LINE
  5
221
100
AcDbEntity
  8
0
100
AcDbLine
 62
7
  6
CONTINUOUS
 10
496.8409434474
 20
192.8007295921
 11
495.3856604474
 21
193.0404605921
  0
LINE
  5
222
100
AcDbEntity
  8
0
100
AcDbLine
 62
7
  6
CONTINUOUS
 10
496.8374814474
 20
193.4457085921
 11
496.6140704474
 21
193.4825115921
  0
LINE
  5
223
100
AcDbEntity
  8
0
100
AcDbLine
 62
7
  6
CONTINUOUS
 10
488.5755254474
 20
194.8307865921
 11
451.9994174474
 21
200.8560245921
  0
LINE
  5
224
100
AcDbEntity
  8
0
100
AcDbLine
 62
7
  6
CONTINUOUS
 10
479.8233934474
 20
196.6140895921
 11
485.6141664474
 21
195.6601665921
  0
LINE
  5
225
100
AcDbEntity
  8
0
100
AcDbLine
 62
7
  6
CONTINUOUS
 10
464.1249684474
 20
199.2001145921
 11
472.0459164474
 21
197.8952845921
  0
LINE
  5
226
100
AcDbEntity
  8
0
100
AcDbLine
 62
7
  6
CONTINUOUS
 10
479.8244104474
 20
196.6173255921
 11
476.2373444474
 21
197.2082285921
  0
LINE
  5
227
100
AcDbEntity
  8
0
100
AcDbLine
 62
7
  6
CONTINUOUS
 10
449.5106684474
 20
202.1335785921
 11
450.0064254474
 21
202.0519115921
  0
LINE
  5
228
100
AcDbEntity
  8
0
100
AcDbLine
 62
7
  6
CONTINUOUS
 10
455.0571304474
 20
201.2199015921
 11
455.4762164474
 21
201.1508645921
  0
LINE
  5
229
100
AcDbEntity
  8
0
100
AcDbLine
 62
7
  6
CONTINUOUS
 10
477.5952924474
 20
197.7308525921
 11
479.9940514474
 21
197.3357005921
  0
LINE
  5
22A
100
AcDbEntity
  8
0
100
AcDbLine
 62
7
  6
CONTINUOUS
 10
459.4130894474
 20
200.7265215921
 11
448.0277884474
 21
202.6020385921
  0
LINE
  5
22B
100
AcDbEntity
  8
0
100
AcDbLine
 62
7
  6
CONTINUOUS
 10
495.6268344474
 20
194.7609755921
 11
484.2415344474
 21
196.6364935921
  0
LINE
  5
22C
100
AcDbEntity
  8
0
100
AcDbLine
 62
7
  6
CONTINUOUS
 10
472.2864924474
 20
199.1584115921
 11
472.8867734474
 21
199.0595265921
  0
LINE
  5
22D
100
AcDbEntity
  8
0
100
AcDbLine
 62
7
  6
CONTINUOUS
 10
479.8503394474
 20
197.9124075921
 11
480.0514344474
 21
197.8792805921
  0
LINE
  5
22E
100
AcDbEntity
  8
0
100
AcDbLine
 62
7
  6
CONTINUOUS
 10
479.8564964474
 20
198.8829165921
 11
480.0182634474
 21
198.8562685921
  0
LINE
  5
22F
100
AcDbEntity
  8
0
100
AcDbLine
 62
7
  6
CONTINUOUS
 10
472.2926484474
 20
200.1289205921
 11
472.8929294474
 21
200.0300355921
  0
LINE
  5
230
100
AcDbEntity
  8
0
100
AcDbLine
 62
7
  6
CONTINUOUS
 10
472.7444564474
 20
200.2853585921
 11
473.3330154474
 21
200.1884045921
  0
LWPOLYLINE
  5
231
100
AcDbEntity
  8
0
100
AcDbPolyline
 62
7
  6
CONTINUOUS
 90
25
 70
0
 10
451.99941714
 20
200.8560243905
 10
451.9380139563
 20
200.8663104116
 10
451.8610738924
 20
200.8796837639
 10
451.7893882526
 20
200.8929333842
 10
451.7536665612
 20
200.899866809
 10
451.7179866865
 20
200.9070193032
 10
451.6467855521
 20
200.9219638569
 10
451.5740003319
 20
200.9381355078
 10
451.5030940189
 20
200.9547486507
 10
451.43884295
 20
200.9705978396
 10
451.3831463222
 20
200.9850612775
 10
451.3252420964
 20
201.0009081478
 10
451.2707512791
 20
201.0166646167
 10
451.2197664403
 20
201.0322477902
 10
451.1722661802
 20
201.0476052513
 10
451.1373806984
 20
201.0594740543
 10
451.0966270008
 20
201.0740763309
 10
451.0587397461
 20
201.0885006744
 10
451.0283795944
 20
201.1007635598
 10
450.9986636015
 20
201.1135342671
 10
450.9783914563
 20
201.1225770914
 10
450.9605719064
 20
201.1307938772
 10
450.9472351415
 20
201.1377552443
 10
450.9344528525
 20
201.1453582121
 10
450.9315049325
 20
201.147196966
  0
LWPOLYLINE
  5
232
100
AcDbEntity
  8
0
100
AcDbPolyline
 62
7
  6
CONTINUOUS
 90
70
 70
0
 10
451.5930405699
 20
198.3892738799
 10
451.5261936179
 20
198.4004935767
 10
451.4600165414
 20
198.4120192348
 10
451.3943086548
 20
198.423889082
 10
451.3293041002
 20
198.4360641608
 10
451.2647767005
 20
198.4485906313
 10
451.2009854505
 20
198.4614220869
 10
451.1377428121
 20
198.4745999226
 10
451.0750876022
 20
198.488121831
 10
451.0129497148
 20
198.5020097149
 10
450.95141207
 20
198.5162523439
 10
450.8904114787
 20
198.5308721499
 10
450.8302443543
 20
198.5458036072
 10
450.7706163979
 20
198.561125967
 10
450.7116258581
 20
198.5768234323
 10
450.6532707017
 20
198.5929055287
 10
450.5955596774
 20
198.6093795649
 10
450.5434793328
 20
198.6247572998
 10
450.491927732
 20
198.6404807066
 10
450.4408873671
 20
198.6565649267
 10
450.3903518814
 20
198.6730229105
 10
450.3403123881
 20
198.689869604
 10
450.290761233
 20
198.7071208515
 10
450.241688152
 20
198.7247948388
 10
450.193081174
 20
198.7429120319
 10
450.1528050768
 20
198.7584102611
 10
450.0991385659
 20
198.7797863089
 10
450.0459968598
 20
198.8018213791
 10
449.9933769569
 20
198.8245516409
 10
449.9412585751
 20
198.8480246063
 10
449.8896160569
 20
198.8722955132
 10
449.8384328767
 20
198.8974212692
 10
449.7876885599
 20
198.9234671008
 10
449.7373983931
 20
198.9504860565
 10
449.6748302753
 20
198.9859311553
 10
449.6361151654
 20
199.008968418
 10
449.5976352141
 20
199.0327726907
 10
449.5594014034
 20
199.0573840828
 10
449.5214209259
 20
199.0828486666
 10
449.4837024202
 20
199.1092157665
 10
449.4462497078
 20
199.1365430597
 10
449.4091304431
 20
199.1648446503
 10
449.3723275504
 20
199.1942017677
 10
449.3298508036
 20
199.2298379077
 10
449.2865490199
 20
199.2682992211
 10
449.2439249646
 20
199.3085048222
 10
449.2021077453
 20
199.3504918988
 10
449.1612150785
 20
199.3943080665
 10
449.1199167135
 20
199.4417240735
 10
449.0799202225
 20
199.4911539751
 10
449.0414002936
 20
199.5425872452
 10
449.0045328817
 20
199.5959975762
 10
448.9862250389
 20
199.6242986542
 10
448.9685076646
 20
199.6529732885
 10
448.951249397
 20
199.6822625848
 10
448.9346173785
 20
199.7119114925
 10
448.9110763631
 20
199.7566277477
 10
448.8888245771
 20
199.8024191151
 10
448.8660007571
 20
199.8538097697
 10
448.8449266389
 20
199.9063535529
 10
448.8257314931
 20
199.9598636139
 10
448.8084880998
 20
200.0142542141
 10
448.7937805426
 20
200.06741216
 10
448.7810425955
 20
200.1210152644
 10
448.7702308246
 20
200.1753398429
 10
448.7614461219
 20
200.2299875595
 10
448.7547688792
 20
200.2842407867
 10
448.7500924879
 20
200.3386800409
 10
448.7474235806
 20
200.393239191
 10
448.746765972
 20
200.4478519341
  0
LINE
  5
233
100
AcDbEntity
  8
0
100
AcDbLine
 62
7
  6
CONTINUOUS
 10
283.0443794474
 20
207.8726665921
 11
282.8605004474
 21
207.9056105921
  0
LINE
  5
234
100
AcDbEntity
  8
0
100
AcDbLine
 62
7
  6
CONTINUOUS
 10
402.8844254474
 20
371.1554585921
 11
403.1594794474
 21
371.2544385921
  0
LINE
  5
235
100
AcDbEntity
  8
0
100
AcDbLine
 62
7
  6
CONTINUOUS
 10
403.5193734474
 20
368.7925185921
 11
404.3445344474
 21
369.0894595921
  0
LINE
  5
236
100
AcDbEntity
  8
0
100
AcDbLine
 62
7
  6
CONTINUOUS
 10
402.3441174474
 20
368.0145965921
 11
402.8942254474
 21
368.2125575921
  0
LINE
  5
237
100
AcDbEntity
  8
0
100
AcDbLine
 62
7
  6
CONTINUOUS
 10
403.5132164474
 20
367.8220095921
 11
404.3383784474
 21
368.1189505921
  0
LINE
  5
238
100
AcDbEntity
  8
0
100
AcDbLine
 62
7
  6
CONTINUOUS
 10
404.3482874474
 20
367.6844465921
 11
405.1734494474
 21
367.9813875921
  0
LINE
  5
239
100
AcDbEntity
  8
0
100
AcDbLine
 62
7
  6
CONTINUOUS
 10
403.5045984474
 20
366.4632965921
 11
404.0547054474
 21
366.6612575921
  0
LINE
  5
23A
100
AcDbEntity
  8
0
100
AcDbLine
 62
7
  6
CONTINUOUS
 10
404.9832354474
 20
365.3215065921
 11
405.2582894474
 21
365.4204875921
  0
LINE
  5
23B
100
AcDbEntity
  8
0
100
AcDbLine
 62
7
  6
CONTINUOUS
 10
522.3357074474
 20
396.0211655921
 11
521.8956214474
 21
395.8627975921
  0
LINE
  5
23C
100
AcDbEntity
  8
0
100
AcDbLine
 62
7
  6
CONTINUOUS
 10
403.5011274474
 20
236.1297005921
 11
402.0569744474
 21
236.2233075921
  0
LINE
  5
23D
100
AcDbEntity
  8
0
100
AcDbLine
 62
7
  6
CONTINUOUS
 10
474.9587554474
 20
202.8826465921
 11
478.3521444474
 21
202.3236475921
  0
LINE
  5
23E
100
AcDbEntity
  8
0
100
AcDbLine
 62
7
  6
CONTINUOUS
 10
431.2524874474
 20
213.8559805921
 11
369.1232064474
 21
224.0906305921
  0
LINE
  5
23F
100
AcDbEntity
  8
0
100
AcDbLine
 62
7
  6
CONTINUOUS
 10
369.6794704474
 20
225.2591005921
 11
431.2604714474
 21
215.1147695921
  0
LINE
  5
240
100
AcDbEntity
  8
0
100
AcDbLine
 62
7
  6
CONTINUOUS
 10
431.2718044474
 20
216.9021035921
 11
373.0901394474
 21
226.4864575921
  0
LINE
  5
241
100
AcDbEntity
  8
0
100
AcDbLine
 62
7
  6
CONTINUOUS
 10
373.6464034474
 20
227.6549275921
 11
431.2797884474
 21
218.1608925921
  0
LINE
  5
242
100
AcDbEntity
  8
0
100
AcDbLine
 62
7
  6
CONTINUOUS
 10
510.9064694474
 20
210.9175905921
 11
431.3170144474
 21
224.0284825921
  0
LINE
  5
243
100
AcDbEntity
  8
0
100
AcDbLine
 62
7
  6
CONTINUOUS
 10
369.1877344474
 20
234.2631325921
 11
289.5982794474
 21
247.3740245921
  0
LINE
  5
244
100
AcDbEntity
  8
0
100
AcDbLine
 62
7
  6
CONTINUOUS
 10
431.9577684474
 20
224.3056125921
 11
372.1951504474
 21
234.1503985921
  0
LINE
  5
245
100
AcDbEntity
  8
0
100
AcDbLine
 62
7
  6
CONTINUOUS
 10
292.4955414474
 20
248.5285545921
 11
372.0686364474
 21
235.4203575921
  0
LINE
  5
246
100
AcDbEntity
  8
0
100
AcDbLine
 62
7
  6
CONTINUOUS
 10
434.0492394474
 20
225.2101995921
 11
510.9168054474
 21
212.5476885921
  0
LINE
  5
247
100
AcDbEntity
  8
0
100
AcDbLine
 62
7
  6
CONTINUOUS
 10
372.0858734474
 20
238.1376575921
 11
294.9211074474
 21
250.8491265921
  0
LINE
  5
248
100
AcDbEntity
  8
0
100
AcDbLine
 62
7
  6
CONTINUOUS
 10
510.9340424474
 20
215.2649885921
 11
434.0664764474
 21
227.9274995921
  0
LINE
  5
249
100
AcDbEntity
  8
0
100
AcDbLine
 62
7
  6
CONTINUOUS
 10
510.9353624474
 20
215.4730635921
 11
433.9333674474
 21
228.1577195921
  0
LINE
  5
24A
100
AcDbEntity
  8
0
100
AcDbLine
 62
7
  6
CONTINUOUS
 10
372.2216224474
 20
238.3235885921
 11
295.0610644474
 21
251.0343645921
  0
LINE
  5
24B
100
AcDbEntity
  8
0
100
AcDbLine
 62
7
  6
CONTINUOUS
 10
403.5024174474
 20
234.3364835921
 11
402.6673464474
 21
234.4740455921
  0
LINE
  5
24C
100
AcDbEntity
  8
0
100
AcDbLine
 62
7
  6
CONTINUOUS
 10
403.5042454474
 20
234.6247635921
 11
403.2174544474
 21
234.6720065921
  0
LINE
  5
24D
100
AcDbEntity
  8
0
100
AcDbLine
 62
7
  6
CONTINUOUS
 10
402.6759654474
 20
235.8327585921
 11
401.5068664474
 21
236.0253465921
  0
LINE
  5
24E
100
AcDbEntity
  8
0
100
AcDbLine
 62
7
  6
CONTINUOUS
 10
404.6801364474
 20
235.5026085921
 11
403.5110364474
 21
235.6951965921
  0
LINE
  5
24F
100
AcDbEntity
  8
0
100
AcDbLine
 62
7
  6
CONTINUOUS
 10
404.3361984474
 20
235.9921375921
 11
403.5011274474
 21
236.1297005921
  0
LINE
  5
250
100
AcDbEntity
  8
0
100
AcDbLine
 62
7
  6
CONTINUOUS
 10
401.5130224474
 20
236.9958555921
 11
402.6821214474
 21
236.8032685921
  0
LINE
  5
251
100
AcDbEntity
  8
0
100
AcDbLine
 62
7
  6
CONTINUOUS
 10
403.5171924474
 20
236.6657055921
 11
404.6862924474
 21
236.4731185921
  0
LINE
  5
252
100
AcDbEntity
  8
0
100
AcDbLine
 62
7
  6
CONTINUOUS
 10
403.5072834474
 20
237.1002095921
 11
403.5199344474
 21
237.0981255921
  0
LINE
  5
253
100
AcDbEntity
  8
0
100
AcDbLine
 62
7
  6
CONTINUOUS
 10
402.6907404474
 20
238.1619805921
 11
403.5258114474
 21
238.0244185921
  0
LINE
  5
254
100
AcDbEntity
  8
0
100
AcDbLine
 62
7
  6
CONTINUOUS
 10
404.3361984474
 20
235.9921375921
 11
404.6825234474
 21
235.8791935921
  0
LINE
  5
255
100
AcDbEntity
  8
0
100
AcDbLine
 62
7
  6
CONTINUOUS
 10
369.0170764474
 20
207.3596455921
 11
369.1877344474
 21
234.2631325921
  0
LINE
  5
256
100
AcDbEntity
  8
0
100
AcDbLine
 62
7
  6
CONTINUOUS
 10
372.0858734474
 20
238.1376575921
 11
372.0686364474
 21
235.4203575921
  0
LINE
  5
257
100
AcDbEntity
  8
0
100
AcDbLine
 62
7
  6
CONTINUOUS
 10
372.2216224474
 20
238.3235885921
 11
372.1951504474
 21
234.1503985921
  0
LINE
  5
258
100
AcDbEntity
  8
0
100
AcDbLine
 62
7
  6
CONTINUOUS
 10
373.8055734474
 20
233.8851085921
 11
373.7490894474
 21
224.9807585921
  0
LINE
  5
259
100
AcDbEntity
  8
0
100
AcDbLine
 62
7
  6
CONTINUOUS
 10
373.8530624474
 20
233.8772855921
 11
373.8458294474
 21
232.7370085921
  0
LINE
  5
25A
100
AcDbEntity
  8
0
100
AcDbLine
 62
7
  6
CONTINUOUS
 10
404.3383784474
 20
368.1189505921
 11
404.0547054474
 21
366.6612575921
  0
LINE
  5
25B
100
AcDbEntity
  8
0
100
AcDbLine
 62
7
  6
CONTINUOUS
 10
531.9982584474
 20
389.5999465921
 11
528.8801724474
 21
388.4778785921
  0
LINE
  5
25C
100
AcDbEntity
  8
0
100
AcDbLine
 62
7
  6
CONTINUOUS
 10
528.5269384474
 20
386.9982235921
 11
528.9670254474
 21
387.1565925921
  0
LINE
  5
25D
100
AcDbEntity
  8
0
100
AcDbLine
 62
7
  6
CONTINUOUS
 10
537.3648094474
 20
373.0407335921
 11
552.0684904474
 21
378.3319725921
  0
LINE
  5
25E
100
AcDbEntity
  8
0
100
AcDbLine
 62
7
  6
CONTINUOUS
 10
558.2818354474
 20
374.1888445921
 11
537.3242604474
 21
366.6470915921
  0
LINE
  5
25F
100
AcDbEntity
  8
0
100
AcDbLine
 62
7
  6
CONTINUOUS
 10
531.9457184474
 20
381.3196475921
 11
537.4295584474
 21
383.2463005921
  0
LINE
  5
260
100
AcDbEntity
  8
0
100
AcDbLine
 62
7
  6
CONTINUOUS
 10
403.5072834474
 20
237.1002095921
 11
403.3040874474
 21
238.0609425921
  0
LINE
  5
261
100
AcDbEntity
  8
0
100
AcDbLine
 62
7
  6
CONTINUOUS
 10
401.5068664474
 20
236.0253465921
 11
401.5130224474
 21
236.9958555921
  0
LINE
  5
262
100
AcDbEntity
  8
0
100
AcDbLine
 62
7
  6
CONTINUOUS
 10
402.3441174474
 20
368.0145965921
 11
402.3502734474
 21
368.9851055921
  0
LINE
  5
263
100
AcDbEntity
  8
0
100
AcDbLine
 62
7
  6
CONTINUOUS
 10
402.0569744474
 20
236.2233075921
 11
402.0613014474
 21
236.9055355921
  0
LINE
  5
264
100
AcDbEntity
  8
0
100
AcDbLine
 62
7
  6
CONTINUOUS
 10
402.8942254474
 20
368.2125575921
 11
402.8985524474
 21
368.8947855921
  0
LINE
  5
265
100
AcDbEntity
  8
0
100
AcDbLine
 62
7
  6
CONTINUOUS
 10
402.6821214474
 20
236.8032685921
 11
402.6907404474
 21
238.1619805921
  0
LINE
  5
266
100
AcDbEntity
  8
0
100
AcDbLine
 62
7
  6
CONTINUOUS
 10
402.6673464474
 20
234.4740455921
 11
402.6759654474
 21
235.8327585921
  0
LINE
  5
267
100
AcDbEntity
  8
0
100
AcDbLine
 62
7
  6
CONTINUOUS
 10
403.5045984474
 20
366.4632965921
 11
403.5132164474
 21
367.8220095921
  0
LINE
  5
268
100
AcDbEntity
  8
0
100
AcDbLine
 62
7
  6
CONTINUOUS
 10
403.5193734474
 20
368.7925185921
 11
403.5279914474
 21
370.1512315921
  0
LINE
  5
269
100
AcDbEntity
  8
0
100
AcDbLine
 62
7
  6
CONTINUOUS
 10
403.5011274474
 20
236.1297005921
 11
403.5072834474
 21
237.1002095921
  0
LINE
  5
26A
100
AcDbEntity
  8
0
100
AcDbLine
 62
7
  6
CONTINUOUS
 10
404.3383784474
 20
368.1189505921
 11
404.3445344474
 21
369.0894595921
  0
LINE
  5
26B
100
AcDbEntity
  8
0
100
AcDbLine
 62
7
  6
CONTINUOUS
 10
403.5258114474
 20
238.0244185921
 11
403.5171924474
 21
236.6657055921
  0
LINE
  5
26C
100
AcDbEntity
  8
0
100
AcDbLine
 62
7
  6
CONTINUOUS
 10
403.5110364474
 20
235.6951965921
 11
403.5024174474
 21
234.3364835921
  0
LINE
  5
26D
100
AcDbEntity
  8
0
100
AcDbLine
 62
7
  6
CONTINUOUS
 10
404.3482874474
 20
367.6844465921
 11
404.3396694474
 21
366.3257335921
  0
LINE
  5
26E
100
AcDbEntity
  8
0
100
AcDbLine
 62
7
  6
CONTINUOUS
 10
404.3630624474
 20
370.0136685921
 11
404.3544444474
 21
368.6549555921
  0
LINE
  5
26F
100
AcDbEntity
  8
0
100
AcDbLine
 62
7
  6
CONTINUOUS
 10
404.3396114474
 20
236.5302255921
 11
404.3361984474
 21
235.9921375921
  0
LINE
  5
270
100
AcDbEntity
  8
0
100
AcDbLine
 62
7
  6
CONTINUOUS
 10
405.1768624474
 20
368.5194755921
 11
405.1734494474
 21
367.9813875921
  0
LINE
  5
271
100
AcDbEntity
  8
0
100
AcDbLine
 62
7
  6
CONTINUOUS
 10
404.6862924474
 20
236.4731185921
 11
404.6801364474
 21
235.5026085921
  0
LINE
  5
272
100
AcDbEntity
  8
0
100
AcDbLine
 62
7
  6
CONTINUOUS
 10
405.5235434474
 20
368.4623685921
 11
405.5173874474
 21
367.4918595921
  0
LINE
  5
273
100
AcDbEntity
  8
0
100
AcDbLine
 62
7
  6
CONTINUOUS
 10
403.5011274474
 20
236.1297005921
 11
403.2174544474
 21
234.6720065921
  0
LINE
  5
274
100
AcDbEntity
  8
0
100
AcDbLine
 62
7
  6
CONTINUOUS
 10
507.8040364474
 20
400.2830065921
 11
505.9285864474
 21
398.7238295921
  0
LINE
  5
275
100
AcDbEntity
  8
0
100
AcDbLine
 62
7
  6
CONTINUOUS
 10
295.2909294474
 20
250.9964975921
 11
294.9211074474
 21
250.8491265921
  0
LINE
  5
276
100
AcDbEntity
  8
0
100
AcDbLine
 62
7
  6
CONTINUOUS
 10
289.5982794474
 20
247.3740245921
 11
292.4955414474
 21
248.5285545921
  0
LINE
  5
277
100
AcDbEntity
  8
0
100
AcDbLine
 62
7
  6
CONTINUOUS
 10
560.8729644474
 20
373.7620045921
 11
537.3145664474
 21
365.1184065921
  0
LINE
  5
278
100
AcDbEntity
  8
0
100
AcDbLine
 62
7
  6
CONTINUOUS
 10
404.3445344474
 20
369.0894595921
 11
404.1413384474
 21
370.0501925921
  0
LINE
  5
279
100
AcDbEntity
  8
0
100
AcDbLine
 62
7
  6
CONTINUOUS
 10
431.1463574474
 20
197.1249945921
 11
431.3170144474
 21
224.0284825921
  0
LINE
  5
27A
100
AcDbEntity
  8
0
100
AcDbLine
 62
7
  6
CONTINUOUS
 10
433.9143004474
 20
225.1518355921
 11
433.9333674474
 21
228.1577195921
  0
LINE
  5
27B
100
AcDbEntity
  8
0
100
AcDbLine
 62
7
  6
CONTINUOUS
 10
434.0664764474
 20
227.9274995921
 11
434.0492394474
 21
225.2101995921
  0
LINE
  5
27C
100
AcDbEntity
  8
0
100
AcDbLine
 62
7
  6
CONTINUOUS
 10
449.5120884474
 20
202.3574965921
 11
449.5103244474
 21
202.0793105921
  0
LWPOLYLINE
  5
27D
100
AcDbEntity
  8
0
100
AcDbPolyline
 62
7
  6
CONTINUOUS
 90
63
 70
0
 10
448.746765972
 20
200.4478519341
 10
448.7472625647
 20
200.4779068795
 10
448.7483684097
 20
200.5079446265
 10
448.7507588328
 20
200.5475334987
 10
448.7542064692
 20
200.5870457986
 10
448.7586952501
 20
200.6263516078
 10
448.7642276408
 20
200.6655229529
 10
448.7687262375
 20
200.6928934929
 10
448.7737329636
 20
200.7201752638
 10
448.7792232731
 20
200.7472552114
 10
448.7852126791
 20
200.7742292617
 10
448.7916709479
 20
200.8009796046
 10
448.7986181453
 20
200.8276071178
 10
448.8060591478
 20
200.8541315751
 10
448.8139830887
 20
200.8805158285
 10
448.822684968
 20
200.907655125
 10
448.8318950171
 20
200.9346262388
 10
448.8415718595
 20
200.9613220977
 10
448.8517433213
 20
200.9878334199
 10
448.8623587046
 20
201.0140423655
 10
448.8734539466
 20
201.0400518258
 10
448.884967597
 20
201.0657323317
 10
448.8969450793
 20
201.0911996932
 10
448.919496427
 20
201.1361783238
 10
448.9433466174
 20
201.1801842981
 10
448.968425724
 20
201.2231754668
 10
448.9946501428
 20
201.2650977643
 10
449.0154049031
 20
201.2963792624
 10
449.0339370878
 20
201.3230563157
 10
449.0529895235
 20
201.3493650862
 10
449.0723127141
 20
201.3749902549
 10
449.0921195908
 20
201.4002432018
 10
449.1121828039
 20
201.4248596655
 10
449.1326958959
 20
201.449102484
 10
449.1534125324
 20
201.4727056118
 10
449.1745457951
 20
201.4959366619
 10
449.2001411212
 20
201.5230105613
 10
449.2262863375
 20
201.5495542158
 10
449.2524865407
 20
201.5751111504
 10
449.2791790628
 20
201.6001531956
 10
449.3060661267
 20
201.6244331883
 10
449.3333992573
 20
201.6482102427
 10
449.3606487904
 20
201.6710648959
 10
449.3882931859
 20
201.6934389439
 10
449.4019270647
 20
201.7041879555
 10
449.4374754087
 20
201.731376445
 10
449.4733726116
 20
201.7576751034
 10
449.5094155128
 20
201.7829951341
 10
449.5457564421
 20
201.8075001377
 10
449.5823226609
 20
201.8311890992
 10
449.6191085209
 20
201.8541051727
 10
449.6561086012
 20
201.8762881903
 10
449.6933094163
 20
201.8977703415
 10
449.7526773207
 20
201.9304709152
 10
449.8126138607
 20
201.9616716508
 10
449.8614226482
 20
201.9858475234
 10
449.9106542386
 20
202.009198228
 10
449.9602950458
 20
202.031763938
 10
450.0103646439
 20
202.0535960929
 10
450.0608793256
 20
202.0747398739
 10
450.1118609795
 20
202.095238487
 10
450.1633276984
 20
202.1151296017
 10
450.2151855031
 20
202.134406545
  0
LINE
  5
27E
100
AcDbEntity
  8
0
100
AcDbLine
 62
7
  6
CONTINUOUS
 10
288.1107764474
 20
221.1796785921
 11
287.2732754474
 21
220.8499405921
  0
LINE
  5
27F
100
AcDbEntity
  8
0
100
AcDbLine
 62
7
  6
CONTINUOUS
 10
368.8499374474
 20
207.9674035921
 11
369.0216854474
 21
208.0863005921
  0
LINE
  5
280
100
AcDbEntity
  8
0
100
AcDbLine
 62
7
  6
CONTINUOUS
 10
372.2207864474
 20
238.1918505921
 11
372.0858734474
 21
238.1376575921
  0
LINE
  5
281
100
AcDbEntity
  8
0
100
AcDbLine
 62
7
  6
CONTINUOUS
 10
369.1877344474
 20
234.2631325921
 11
372.0686364474
 21
235.4203575921
  0
LINE
  5
282
100
AcDbEntity
  8
0
100
AcDbLine
 62
7
  6
CONTINUOUS
 10
402.0471744474
 20
239.1662085921
 11
402.3222274474
 21
239.2651885921
  0
LINE
  5
283
100
AcDbEntity
  8
0
100
AcDbLine
 62
7
  6
CONTINUOUS
 10
402.6821214474
 20
236.8032685921
 11
403.5072834474
 21
237.1002095921
  0
LINE
  5
284
100
AcDbEntity
  8
0
100
AcDbLine
 62
7
  6
CONTINUOUS
 10
401.5068664474
 20
236.0253465921
 11
402.0569744474
 21
236.2233075921
  0
LINE
  5
285
100
AcDbEntity
  8
0
100
AcDbLine
 62
7
  6
CONTINUOUS
 10
402.6759654474
 20
235.8327585921
 11
403.5011274474
 21
236.1297005921
  0
LINE
  5
286
100
AcDbEntity
  8
0
100
AcDbLine
 62
7
  6
CONTINUOUS
 10
403.5110364474
 20
235.6951965921
 11
404.3361984474
 21
235.9921375921
  0
LINE
  5
287
100
AcDbEntity
  8
0
100
AcDbLine
 62
7
  6
CONTINUOUS
 10
402.6673464474
 20
234.4740455921
 11
403.2174544474
 21
234.6720065921
  0
LINE
  5
288
100
AcDbEntity
  8
0
100
AcDbLine
 62
7
  6
CONTINUOUS
 10
404.1459844474
 20
233.3322565921
 11
404.4210384474
 21
233.4312365921
  0
LINE
  5
289
100
AcDbEntity
  8
0
100
AcDbLine
 62
7
  6
CONTINUOUS
 10
507.8040364474
 20
400.2830065921
 11
507.7921984474
 21
398.4168265921
  0
LINE
  5
28A
100
AcDbEntity
  8
0
100
AcDbLine
 62
7
  6
CONTINUOUS
 10
510.9064694474
 20
210.9175905921
 11
511.9760804474
 21
379.5374745921
  0
LINE
  5
28B
100
AcDbEntity
  8
0
100
AcDbLine
 62
7
  6
CONTINUOUS
 10
434.4152324474
 20
228.0783395921
 11
434.0664764474
 21
227.9274995921
  0
LINE
  5
28C
100
AcDbEntity
  8
0
100
AcDbLine
 62
7
  6
CONTINUOUS
 10
431.3170144474
 20
224.0284825921
 11
434.0492394474
 21
225.2101995921
  0
LINE
  5
28D
100
AcDbEntity
  8
0
100
AcDbLine
 62
7
  6
CONTINUOUS
 10
514.2257894474
 20
380.8343045921
 11
513.6485294474
 21
380.7609005921
  0
LINE
  5
28E
100
AcDbEntity
  8
0
100
AcDbLine
 62
7
  6
CONTINUOUS
 10
514.2474314474
 20
381.4345775921
 11
513.2403694474
 21
381.3065195921
  0
LINE
  5
28F
100
AcDbEntity
  8
0
100
AcDbLine
 62
7
  6
CONTINUOUS
 10
404.3383784474
 20
368.1189505921
 11
402.8942254474
 21
368.2125575921
  0
LINE
  5
290
100
AcDbEntity
  8
0
100
AcDbLine
 62
7
  6
CONTINUOUS
 10
404.3396694474
 20
366.3257335921
 11
403.5045984474
 21
366.4632965921
  0
LINE
  5
291
100
AcDbEntity
  8
0
100
AcDbLine
 62
7
  6
CONTINUOUS
 10
404.3414964474
 20
366.6140135921
 11
404.0547054474
 21
366.6612575921
  0
LINE
  5
292
100
AcDbEntity
  8
0
100
AcDbLine
 62
7
  6
CONTINUOUS
 10
403.5132164474
 20
367.8220095921
 11
402.3441174474
 21
368.0145965921
  0
LINE
  5
293
100
AcDbEntity
  8
0
100
AcDbLine
 62
7
  6
CONTINUOUS
 10
405.5173874474
 20
367.4918595921
 11
404.3482874474
 21
367.6844465921
  0
LINE
  5
294
100
AcDbEntity
  8
0
100
AcDbLine
 62
7
  6
CONTINUOUS
 10
405.1734494474
 20
367.9813875921
 11
404.3383784474
 21
368.1189505921
  0
LINE
  5
295
100
AcDbEntity
  8
0
100
AcDbLine
 62
7
  6
CONTINUOUS
 10
404.3544444474
 20
368.6549555921
 11
405.5235434474
 21
368.4623685921
  0
LINE
  5
296
100
AcDbEntity
  8
0
100
AcDbLine
 62
7
  6
CONTINUOUS
 10
402.3502734474
 20
368.9851055921
 11
403.5193734474
 21
368.7925185921
  0
LINE
  5
297
100
AcDbEntity
  8
0
100
AcDbLine
 62
7
  6
CONTINUOUS
 10
404.3445344474
 20
369.0894595921
 11
404.3571854474
 21
369.0873755921
  0
LINE
  5
298
100
AcDbEntity
  8
0
100
AcDbLine
 62
7
  6
CONTINUOUS
 10
403.5279914474
 20
370.1512315921
 11
404.3630624474
 21
370.0136685921
  0
LINE
  5
299
100
AcDbEntity
  8
0
100
AcDbLine
 62
7
  6
CONTINUOUS
 10
405.1734494474
 20
367.9813875921
 11
405.5197754474
 21
367.8684435921
  0
LWPOLYLINE
  5
29A
100
AcDbEntity
  8
0
100
AcDbPolyline
 62
7
  6
CONTINUOUS
 90
46
 70
0
 10
528.5252497321
 20
387.2115634499
 10
528.5149289324
 20
387.4826878345
 10
528.4958857136
 20
387.7559016726
 10
528.468052742
 20
388.0310167659
 10
528.4313724993
 20
388.3077846324
 10
528.3858023992
 20
388.5859004847
 10
528.3313192822
 20
388.865007813
 10
528.2679232232
 20
389.1447036166
 10
528.1956405921
 20
389.4245442712
 10
528.11452632
 20
389.7040519534
 10
528.0958204148
 20
389.7644387824
 10
528.0041255337
 20
390.0427296188
 10
527.9038826285
 20
390.3194210984
 10
527.7952551642
 20
390.593976551
 10
527.7340207555
 20
390.739199236
 10
527.6129388569
 20
391.0094001495
 10
527.4840239453
 20
391.2760798183
 10
527.3475340139
 20
391.5387155858
 10
527.203748131
 20
391.7968010394
 10
527.0529647669
 20
392.0498482264
 10
526.8955002893
 20
392.2973892421
 10
526.7316876782
 20
392.5389772607
 10
526.5618755007
 20
392.7741870922
 10
526.4215171515
 20
392.9580444509
 10
526.2418050038
 20
393.1807739753
 10
526.0571885319
 20
393.3960020146
 10
525.8680537242
 20
393.6034078375
 10
525.6747655114
 20
393.8027255625
 10
525.4776756432
 20
393.9937302383
 10
525.2771312413
 20
394.1762258767
 10
525.0734837847
 20
394.3500355095
 10
524.8670983144
 20
394.514993288
 10
524.7024463986
 20
394.6388915623
 10
524.4919229836
 20
394.7877706787
 10
524.2795115474
 20
394.9275570791
 10
524.0654944191
 20
395.0582056821
 10
523.8501347635
 20
395.1796935738
 10
523.6336744881
 20
395.2920180567
 10
523.4163321617
 20
395.3951944848
 10
523.1983009465
 20
395.4892538758
 10
522.9797465295
 20
395.5742402968
 10
522.9552394701
 20
395.5831970399
 10
522.7363299435
 20
395.6581341086
 10
522.5170867633
 20
395.7241423151
 10
522.2977419946
 20
395.781241945
 10
522.0784519338
 20
395.8294756187
  0
LINE
  5
29B
100
AcDbEntity
  8
0
100
AcDbLine
 62
7
  6
CONTINUOUS
 10
528.5269384474
 20
386.9982235921
 11
528.5252494474
 21
387.2115625921
  0
LINE
  5
29C
100
AcDbEntity
  8
0
100
AcDbLine
 62
7
  6
CONTINUOUS
 10
513.6485294474
 20
380.7609005921
 11
512.4048724474
 21
184.7032995921
  0
LINE
  5
29D
100
AcDbEntity
  8
0
100
AcDbLine
 62
7
  6
CONTINUOUS
 10
512.9666014474
 20
186.4982475921
 11
514.1863384474
 21
378.7848245921
  0
LINE
  5
29E
100
AcDbEntity
  8
0
100
AcDbLine
 62
7
  6
CONTINUOUS
 10
528.5269384474
 20
386.9982235921
 11
527.1848744474
 21
175.4272195921
  0
LINE
  5
29F
100
AcDbEntity
  8
0
100
AcDbLine
 62
7
  6
CONTINUOUS
 10
528.9670254474
 20
387.1565925921
 11
527.6249604474
 21
175.5855875921
  0
LINE
  5
2A0
100
AcDbEntity
  8
0
100
AcDbLine
 62
7
  6
CONTINUOUS
 10
530.7066754474
 20
185.9871185921
 11
531.9982584474
 21
389.5999465921
  0
LINE
  5
2A1
100
AcDbEntity
  8
0
100
AcDbLine
 62
7
  6
CONTINUOUS
 10
537.4295584474
 20
383.2463005921
 11
537.3145664474
 21
365.1184065921
  0
LINE
  5
2A2
100
AcDbEntity
  8
0
100
AcDbLine
 62
7
  6
CONTINUOUS
 10
536.4428404474
 20
227.6943045921
 11
536.3278494474
 21
209.5664095921
  0
LINE
  5
2A3
100
AcDbEntity
  8
0
100
AcDbLine
 62
7
  6
CONTINUOUS
 10
527.1848744474
 20
175.4272195921
 11
527.1804814474
 21
175.2143315921
  0
LINE
  5
2A4
100
AcDbEntity
  8
0
100
AcDbLine
 62
7
  6
CONTINUOUS
 10
477.5952924474
 20
197.7308525921
 11
476.2373444474
 21
197.2082285921
  0
LINE
  5
2A5
100
AcDbEntity
  8
0
100
AcDbLine
 62
7
  6
CONTINUOUS
 10
479.1905454474
 20
196.3767795921
 11
479.8233934474
 21
196.6140895921
  0
LINE
  5
2A6
100
AcDbEntity
  8
0
100
AcDbLine
 62
7
  6
CONTINUOUS
 10
560.0012384474
 20
236.3379025921
 11
536.4428404474
 21
227.6943045921
  0
LINE
  5
2A7
100
AcDbEntity
  8
0
100
AcDbLine
 62
7
  6
CONTINUOUS
 10
431.1463574474
 20
197.1249945921
 11
432.0723374474
 21
197.4582165921
  0
LINE
  5
2A8
100
AcDbEntity
  8
0
100
AcDbLine
 62
7
  6
CONTINUOUS
 10
450.2151855031
 20
202.134406545
 11
450.4196414474
 21
202.2080245921
  0
LINE
  5
2A9
100
AcDbEntity
  8
0
100
AcDbLine
 62
7
  6
CONTINUOUS
 10
448.0093204474
 20
199.6905115921
 11
448.8185574474
 21
199.9817215921
  0
LINE
  5
2AA
100
AcDbEntity
  8
0
100
AcDbLine
 62
7
  6
CONTINUOUS
 10
453.4032614474
 20
200.6247585921
 11
455.4221414474
 21
201.3512685921
  0
LINE
  5
2AB
100
AcDbEntity
  8
0
100
AcDbLine
 62
7
  6
CONTINUOUS
 10
461.0634124474
 20
201.3204035921
 11
459.4130894474
 21
200.7265215921
  0
LINE
  5
2AC
100
AcDbEntity
  8
0
100
AcDbLine
 62
7
  6
CONTINUOUS
 10
554.9435354474
 20
234.0514715921
 11
536.4409234474
 21
227.3931565921
  0
LINE
  5
2AD
100
AcDbEntity
  8
0
100
AcDbLine
 62
7
  6
CONTINUOUS
 10
464.1249684474
 20
199.2001145921
 11
463.4738674474
 21
198.9658105921
  0
LINE
  5
2AE
100
AcDbEntity
  8
0
100
AcDbLine
 62
7
  6
CONTINUOUS
 10
473.3330154474
 20
200.1884045921
 11
472.8929294474
 21
200.0300355921
  0
LINE
  5
2AF
100
AcDbEntity
  8
0
100
AcDbLine
 62
7
  6
CONTINUOUS
 10
473.3268594474
 20
199.2178945921
 11
472.8867734474
 21
199.0595265921
  0
LINE
  5
2B0
100
AcDbEntity
  8
0
100
AcDbLine
 62
7
  6
CONTINUOUS
 10
480.0079414474
 20
198.9374155921
 11
479.8564964474
 21
198.8829165921
  0
LINE
  5
2B1
100
AcDbEntity
  8
0
100
AcDbLine
 62
7
  6
CONTINUOUS
 10
493.6763174474
 20
195.0822865921
 11
493.4896894474
 21
195.0151265921
  0
LINE
  5
2B2
100
AcDbEntity
  8
0
100
AcDbLine
 62
7
  6
CONTINUOUS
 10
472.7444564474
 20
200.2853585921
 11
472.2926484474
 21
200.1289205921
  0
LINE
  5
2B3
100
AcDbEntity
  8
0
100
AcDbLine
 62
7
  6
CONTINUOUS
 10
471.3765744474
 20
197.6639905921
 11
472.0459164474
 21
197.8952845921
  0
LINE
  5
2B4
100
AcDbEntity
  8
0
100
AcDbLine
 62
7
  6
CONTINUOUS
 10
448.9819254474
 20
201.9018955921
 11
449.5103244474
 21
202.0793105921
  0
LINE
  5
2B5
100
AcDbEntity
  8
0
100
AcDbLine
 62
7
  6
CONTINUOUS
 10
409.5748234474
 20
416.4644535921
 11
404.1131884474
 21
415.4960345921
  0
LINE
  5
2B6
100
AcDbEntity
  8
0
100
AcDbLine
 62
7
  6
CONTINUOUS
 10
284.4849434474
 20
434.9718185921
 11
284.3010274474
 21
434.9989115921
  0
LINE
  5
2B7
100
AcDbEntity
  8
0
100
AcDbLine
 62
7
  6
CONTINUOUS
 10
296.0922384474
 20
413.5947795921
 11
511.9665364474
 21
378.0334795921
  0
LINE
  5
2B8
100
AcDbEntity
  8
0
100
AcDbLine
 62
7
  6
CONTINUOUS
 10
511.9671524474
 20
378.1305305921
 11
295.9542174474
 21
413.7146685921
  0
LINE
  5
2B9
100
AcDbEntity
  8
0
100
AcDbLine
 62
7
  6
CONTINUOUS
 10
511.9760804474
 20
379.5374745921
 11
290.6678914474
 21
415.9939085921
  0
LINE
  5
2BA
100
AcDbEntity
  8
0
100
AcDbLine
 62
7
  6
CONTINUOUS
 10
289.4286614474
 20
418.1753615921
 11
513.2403694474
 21
381.3065195921
  0
LINE
  5
2BB
100
AcDbEntity
  8
0
100
AcDbLine
 62
7
  6
CONTINUOUS
 10
560.8729644474
 20
373.7620045921
 11
558.2818354474
 21
374.1888445921
  0
LINE
  5
2BC
100
AcDbEntity
  8
0
100
AcDbLine
 62
7
  6
CONTINUOUS
 10
546.1217744474
 20
376.1919905921
 11
537.3939004474
 21
377.6297465921
  0
LINE
  5
2BD
100
AcDbEntity
  8
0
100
AcDbLine
 62
7
  6
CONTINUOUS
 10
290.9289124474
 20
418.4220975921
 11
511.7463774474
 21
382.0465015921
  0
LINE
  5
2BE
100
AcDbEntity
  8
0
100
AcDbLine
 62
7
  6
CONTINUOUS
 10
537.4295584474
 20
383.2463005921
 11
531.9636444474
 21
384.1467095921
  0
LINE
  5
2BF
100
AcDbEntity
  8
0
100
AcDbLine
 62
7
  6
CONTINUOUS
 10
531.9982584474
 20
389.5999465921
 11
528.4883064474
 21
390.1781465921
  0
LINE
  5
2C0
100
AcDbEntity
  8
0
100
AcDbLine
 62
7
  6
CONTINUOUS
 10
284.4849434474
 20
434.9718185921
 11
521.8956214474
 21
395.8627975921
  0
LINE
  5
2C1
100
AcDbEntity
  8
0
100
AcDbLine
 62
7
  6
CONTINUOUS
 10
522.3357074474
 20
396.0211655921
 11
284.9250294474
 21
435.1301865921
  0
LINE
  5
2C2
100
AcDbEntity
  8
0
100
AcDbLine
 62
7
  6
CONTINUOUS
 10
507.8040364474
 20
400.2830065921
 11
409.5748234474
 21
416.4644535921
  0
LINE
  5
2C3
100
AcDbEntity
  8
0
100
AcDbLine
 62
7
  6
CONTINUOUS
 10
521.8956214474
 20
395.8627975921
 11
522.0784514474
 21
395.8294755921
  0
LINE
  5
2C4
100
AcDbEntity
  8
0
100
AcDbLine
 62
7
  6
CONTINUOUS
 10
560.8729644474
 20
373.7620045921
 11
560.0012384474
 21
236.3379025921
  0
LINE
  5
2C5
100
AcDbEntity
  8
0
100
AcDbLine
 62
7
  6
CONTINUOUS
 10
512.9684714474
 20
185.2521035921
 11
512.4048724474
 21
184.7032995921
  0
LINE
  5
2C6
100
AcDbEntity
  8
0
100
AcDbLine
 62
7
  6
CONTINUOUS
 10
512.2809314474
 20
184.3821805921
 11
512.9706474474
 21
185.0538375921
  0
LINE
  5
2C7
100
AcDbEntity
  8
0
100
AcDbLine
 62
7
  6
CONTINUOUS
 10
512.4418564474
 20
190.5337265921
 11
512.9944394474
 21
190.8868005921
  0
LINE
  5
2C8
100
AcDbEntity
  8
0
100
AcDbLine
 62
7
  6
CONTINUOUS
 10
530.8429244474
 20
207.4686125921
 11
536.3278494474
 21
209.5664095921
  0
LINE
  5
2C9
100
AcDbEntity
  8
0
100
AcDbLine
 62
7
  6
CONTINUOUS
 10
512.4849504474
 20
197.3272915921
 11
513.0366054474
 21
197.5342215921
  0
LINE
  5
2CA
100
AcDbEntity
  8
0
100
AcDbLine
 62
7
  6
CONTINUOUS
 10
496.8129804474
 20
193.5540935921
 11
494.3364154474
 21
192.6628815921
  0
LINE
  5
2CB
100
AcDbEntity
  8
0
100
AcDbLine
 62
7
  6
CONTINUOUS
 10
496.5522574474
 20
192.1891155921
 11
495.6083654474
 21
191.8494485921
  0
LINE
  5
2CC
100
AcDbEntity
  8
0
100
AcDbLine
 62
7
  6
CONTINUOUS
 10
530.7066754474
 20
185.9871185921
 11
527.6840284474
 21
184.8993935921
  0
LINE
  5
2CD
100
AcDbEntity
  8
0
100
AcDbLine
 62
7
  6
CONTINUOUS
 10
527.6249604474
 20
175.5855875921
 11
527.1848744474
 21
175.4272195921
  0
LINE
  5
2CE
100
AcDbEntity
  8
0
100
AcDbLine
 62
7
  6
CONTINUOUS
 10
292.3607874474
 20
418.1862175921
 11
289.4286614474
 21
418.1753615921
  0
LINE
  5
2CF
100
AcDbEntity
  8
0
100
AcDbLine
 62
7
  6
CONTINUOUS
 10
292.3303824474
 20
418.1912265921
 11
289.3682624474
 21
418.1802595921
  0
LWPOLYLINE
  5
2D0
100
AcDbEntity
  8
0
100
AcDbPolyline
 62
7
  6
CONTINUOUS
 90
43
 70
0
 10
523.1767474942
 20
168.987578153
 10
523.3392208472
 20
169.0491527534
 10
523.4998322938
 20
169.1163442576
 10
523.6585125258
 20
169.1891431816
 10
523.8151923392
 20
169.2675425448
 10
523.969801198
 20
169.3515372387
 10
524.122229408
 20
169.4411009447
 10
524.2723410707
 20
169.5361859531
 10
524.4200598417
 20
169.6367772515
 10
524.5653036442
 20
169.7428577099
 10
524.7079835308
 20
169.8544064634
 10
524.8480025909
 20
169.9713970372
 10
524.9852548987
 20
170.0937951875
 10
525.0557920758
 20
170.1598482242
 10
525.1886092091
 20
170.2903908526
 10
525.3183636039
 20
170.4262211034
 10
525.4449363839
 20
170.5672851317
 10
525.5681998783
 20
170.7135161353
 10
525.6880191311
 20
170.8648339537
 10
525.8042535391
 20
171.021145008
 10
525.9167586263
 20
171.182342659
 10
526.0253879492
 20
171.3483080656
 10
526.1299951166
 20
171.5189116263
 10
526.230435895
 20
171.6940150883
 10
526.3265703589
 20
171.873474407
 10
526.4182650329
 20
172.0571434363
 10
526.4386554378
 20
172.0998450069
 10
526.5247206072
 20
172.2884915589
 10
526.6060444871
 20
172.4809597929
 10
526.6824937958
 20
172.6770483399
 10
526.7539410081
 20
172.8765461387
 10
526.8202650502
 20
173.0792330855
 10
526.8813520197
 20
173.2848809939
 10
526.9370959031
 20
173.4932548992
 10
526.987399256
 20
173.7041147406
 10
527.0321738076
 20
173.9172174427
 10
527.0713409432
 20
174.1323194136
 10
527.1048320174
 20
174.3491794576
 10
527.1149663402
 20
174.4236588183
 10
527.1407521233
 20
174.6425240549
 10
527.160738322
 20
174.8626036912
 10
527.1748885338
 20
175.0836741998
 10
527.1804817197
 20
175.214332249
  0
LINE
  5
2D1
100
AcDbEntity
  8
0
100
AcDbLine
 62
7
  6
CONTINUOUS
 10
523.6531354474
 20
169.1586235921
 11
523.1776234474
 21
168.9875075921
  0
ARC
  5
2D2
100
AcDbEntity
  8
0
100
AcDbCircle
 62
7
  6
CONTINUOUS
 10
952.2390794474
 20
-350.2682144079
 40
850.534656
100
AcDbArc
 50
119.879219
 51
120.999624
  0
ARC
  5
2D3
100
AcDbEntity
  8
0
100
AcDbCircle
 62
7
  6
CONTINUOUS
 10
762.3053154474
 20
204.9495855921
 40
306.828302
100
AcDbArc
 50
141.529986
 51
144.747047
  0
ARC
  5
2D4
100
AcDbEntity
  8
0
100
AcDbCircle
 62
7
  6
CONTINUOUS
 10
656.9200854474
 20
353.2471425921
 40
220.290586
100
AcDbArc
 50
229.196122
 51
233.917685
  0
ARC
  5
2D5
100
AcDbEntity
  8
0
100
AcDbCircle
 62
7
  6
CONTINUOUS
 10
680.0439954474
 20
285.3924895921
 40
197.532879
100
AcDbArc
 50
210.867729
 51
216.197356
  0
ARC
  5
2D6
100
AcDbEntity
  8
0
100
AcDbCircle
 62
7
  6
CONTINUOUS
 10
532.7834404474
 20
509.8133715921
 40
129.487213
100
AcDbArc
 50
260.65003
 51
261.773979
  0
ARC
  5
2D7
100
AcDbEntity
  8
0
100
AcDbCircle
 62
7
  6
CONTINUOUS
 10
309.4591174474
 20
531.1948645921
 40
114.28498
100
AcDbArc
 50
259.447412
 51
260.668852
  0
ARC
  5
2D8
100
AcDbEntity
  8
0
100
AcDbCircle
 62
7
  6
CONTINUOUS
 10
526.8335924474
 20
283.3167035921
 40
100.606643
100
AcDbArc
 50
260.65107
 51
262.097081
  0
ARC
  5
2D9
100
AcDbEntity
  8
0
100
AcDbCircle
 62
7
  6
CONTINUOUS
 10
304.0965254474
 20
308.2624215921
 40
89.016676
100
AcDbArc
 50
259.106156
 51
260.675117
  0
ARC
  5
2DA
100
AcDbEntity
  8
0
100
AcDbCircle
 62
7
  6
CONTINUOUS
 10
592.9311824474
 20
378.2951315921
 40
78.746382
100
AcDbArc
 50
177.552172
 51
179.643697
  0
ARC
  5
2DB
100
AcDbEntity
  8
0
100
AcDbCircle
 62
7
  6
CONTINUOUS
 10
588.3644274474
 20
185.9877155921
 40
75.399521
100
AcDbArc
 50
179.612046
 51
181.764903
  0
ARC
  5
2DC
100
AcDbEntity
  8
0
100
AcDbCircle
 62
7
  6
CONTINUOUS
 10
358.7161114474
 20
415.5346445921
 40
70.264769
100
AcDbArc
 50
177.30146
 51
179.644779
  0
ARC
  5
2DD
100
AcDbEntity
  8
0
100
AcDbCircle
 62
7
  6
CONTINUOUS
 10
354.6415764474
 20
223.2244735921
 40
67.410134
100
AcDbArc
 50
179.609682
 51
182.018671
  0
ARC
  5
2DE
100
AcDbEntity
  8
0
100
AcDbCircle
 62
7
  6
CONTINUOUS
 10
283.5661834474
 20
429.4719135921
 40
5.575204
100
AcDbArc
 50
82.426616
 51
109.644006
  0
ARC
  5
2DF
100
AcDbEntity
  8
0
100
AcDbCircle
 62
7
  6
CONTINUOUS
 10
479.0417654474
 20
197.8984225921
 40
2.888067
100
AcDbArc
 50
193.826234
 51
201.409078
  0
ARC
  5
2E0
100
AcDbEntity
  8
0
100
AcDbCircle
 62
7
  6
CONTINUOUS
 10
289.3692454474
 20
417.8173145921
 40
0.36294
100
AcDbArc
 50
80.577865
 51
90.135802
  0
ARC
  5
2E1
100
AcDbEntity
  8
0
100
AcDbCircle
 62
7
  6
CONTINUOUS
 10
368.6614804474
 20
208.2403935921
 40
0.331792
100
AcDbArc
 50
259.997311
 51
304.646389
  0
ARC
  5
2E2
100
AcDbEntity
  8
0
100
AcDbCircle
 62
7
  6
CONTINUOUS
 10
512.0501034474
 20
184.6184545921
 40
0.330386
100
AcDbArc
 50
259.642459
 51
314.308217
  0
ELLIPSE
  5
2E3
100
AcDbEntity
  8
0
100
AcDbEllipse
 62
7
  6
CONTINUOUS
 10
368.6056824474
 20
208.4064345921
 30
0.0
 11
-0.1616240293
 21
0.4805843532
 31
0.0
 40
0.801226
 41
3.3693294479
 42
4.3074964158
  0
ELLIPSE
  5
2E4
100
AcDbEntity
  8
0
100
AcDbEllipse
 62
7
  6
CONTINUOUS
 10
431.5701604474
 20
198.0341955921
 30
0.0
 11
0.1566751003
 21
-0.4810659289
 31
0.0
 40
0.804707
 41
4.3203334399
 42
5.8880991836
  0
ELLIPSE
  5
2E5
100
AcDbEntity
  8
0
100
AcDbEllipse
 62
7
  6
CONTINUOUS
 10
511.9809914474
 20
184.7880025921
 30
0.0
 11
-0.1942681074
 21
0.4754447639
 31
0.0
 40
0.792431
 41
3.451266506
 42
4.2289437004
  0
ELLIPSE
  5
2E6
100
AcDbEntity
  8
0
100
AcDbEllipse
 62
7
  6
CONTINUOUS
 10
513.2244604474
 20
380.8158845921
 30
0.0
 11
0.1448152065
 21
-0.4808155894
 31
0.0
 40
0.828988
 41
1.2149393383
 42
2.7555774092
  0
ELLIPSE
  5
2E7
100
AcDbEntity
  8
0
100
AcDbEllipse
 62
7
  6
CONTINUOUS
 10
289.4383164474
 20
417.6805125921
 30
0.0
 11
-0.1942681074
 21
0.4754447639
 31
0.0
 40
0.792431
 41
5.9728546544
 42
7.370536354
  0
ELLIPSE
  5
2E8
100
AcDbEntity
  8
0
100
AcDbEllipse
 62
7
  6
CONTINUOUS
 10
288.1948474474
 20
221.6526265921
 30
0.0
 11
0.1448152065
 21
-0.4808155894
 31
0.0
 40
0.828988
 41
4.3565319936
 42
5.8971700623
  0
ELLIPSE
  5
2E9
100
AcDbEntity
  8
0
100
AcDbEllipse
 62
7
  6
CONTINUOUS
 10
471.8396244474
 20
200.6225295921
 30
0.0
 11
-5.0790195465
 21
14.113948822
 31
0.0
 40
0.811291
 41
4.1537978737
 42
7.5628537062
  0
ELLIPSE
  5
2EA
100
AcDbEntity
  8
0
100
AcDbEllipse
 62
7
  6
CONTINUOUS
 10
495.6175994474
 20
193.3052145921
 30
0.0
 11
-0.507901907
 21
1.4113949537
 31
0.0
 40
0.811291
 41
2.7167331363
 42
5.8583257899
  0
ELLIPSE
  5
2EB
100
AcDbEntity
  8
0
100
AcDbEllipse
 62
7
  6
CONTINUOUS
 10
471.8186094474
 20
197.3328565921
 30
0.0
 11
1.7127902508
 21
-4.7596263885
 31
0.0
 40
0.811291
 41
5.8583611844
 42
6.9477429127
  0
ELLIPSE
  5
2EC
100
AcDbEntity
  8
0
100
AcDbEllipse
 62
7
  6
CONTINUOUS
 10
471.8189034474
 20
197.3328105921
 30
0.0
 11
1.7127902508
 21
-4.7596263885
 31
0.0
 40
0.811291
 41
4.7689090826
 42
5.8582899974
  0
ELLIPSE
  5
2ED
100
AcDbEntity
  8
0
100
AcDbEllipse
 62
7
  6
CONTINUOUS
 10
448.0185544474
 20
201.1462715921
 30
0.0
 11
-0.507901907
 21
1.4113949537
 31
0.0
 40
0.811291
 41
5.8583257899
 42
8.9999184435
  0
ELLIPSE
  5
2EE
100
AcDbEntity
  8
0
100
AcDbEllipse
 62
7
  6
CONTINUOUS
 10
473.4899474474
 20
201.2164085921
 30
0.0
 11
-5.0790195465
 21
14.113948822
 31
0.0
 40
0.811291
 41
1.279668399
 42
1.4168991483
  0
ELLIPSE
  5
2EF
100
AcDbEntity
  8
0
100
AcDbEllipse
 62
7
  6
CONTINUOUS
 10
475.9654374474
 20
202.1072325921
 30
0.0
 11
-5.0790195465
 21
14.113948822
 31
0.0
 40
0.811291
 41
0.1811471987
 42
1.485773719
  0
ELLIPSE
  5
2F0
100
AcDbEntity
  8
0
100
AcDbEllipse
 62
7
  6
CONTINUOUS
 10
473.4899474474
 20
201.2164085921
 30
0.0
 11
-5.0790195465
 21
14.113948822
 31
0.0
 40
0.811291
 41
4.0165671503
 42
4.093574472
  0
ELLIPSE
  5
2F1
100
AcDbEntity
  8
0
100
AcDbEllipse
 62
7
  6
CONTINUOUS
 10
475.9444214474
 20
198.8175595921
 30
0.0
 11
1.6684628725
 21
-4.636446476
 31
0.0
 40
0.811291
 41
0.813014695
 42
1.4313349729
  0
ELLIPSE
  5
2F2
100
AcDbEntity
  8
0
100
AcDbEllipse
 62
7
  6
CONTINUOUS
 10
476.8118684474
 20
199.1295635921
 30
0.0
 11
-1.6591463089
 21
4.6105566025
 31
0.0
 40
0.811291
 41
1.2970483155
 42
1.6648609324
  0
ELLIPSE
  5
2F3
100
AcDbEntity
  8
0
100
AcDbEllipse
 62
7
  6
CONTINUOUS
 10
476.3717824474
 20
198.9711995921
 30
0.0
 11
-1.6638746262
 21
4.6236958504
 31
0.0
 40
0.811291
 41
1.0440095653
 42
1.2478640538
  0
ELLIPSE
  5
2F4
100
AcDbEntity
  8
0
100
AcDbEllipse
 62
7
  6
CONTINUOUS
 10
476.8118684474
 20
199.1295635921
 30
0.0
 11
-1.6591463089
 21
4.6105566025
 31
0.0
 40
0.811291
 41
0.0917511078
 42
1.0437180784
  0
ELLIPSE
  5
2F5
100
AcDbEntity
  8
0
100
AcDbEllipse
 62
7
  6
CONTINUOUS
 10
450.2189894474
 20
201.9381185921
 30
0.0
 11
0.507901907
 21
-1.4113949537
 31
0.0
 40
0.811291
 41
4.0778786561
 42
4.7839275069
  0
ELLIPSE
  5
2F6
100
AcDbEntity
  8
0
100
AcDbEllipse
 62
7
  6
CONTINUOUS
 10
493.2251434474
 20
194.8536535921
 30
0.0
 11
0.507901907
 21
-1.4113949537
 31
0.0
 40
0.811291
 41
4.0778786561
 42
4.508835835
  0
ELLIPSE
  5
2F7
100
AcDbEntity
  8
0
100
AcDbEllipse
 62
7
  6
CONTINUOUS
 10
454.2617684474
 20
200.9835675921
 30
0.0
 11
-0.507901907
 21
1.4113949537
 31
0.0
 40
0.811291
 41
3.936486736
 42
4.7055428187
  0
ELLIPSE
  5
2F8
100
AcDbEntity
  8
0
100
AcDbEllipse
 62
7
  6
CONTINUOUS
 10
475.9447154474
 20
198.8175135921
 30
0.0
 11
-1.6684628725
 21
4.636446476
 31
0.0
 40
0.811291
 41
5.8583615346
 42
7.7620442314
  0
ELLIPSE
  5
2F9
100
AcDbEntity
  8
0
100
AcDbEllipse
 62
7
  6
CONTINUOUS
 10
475.9444214474
 20
198.8175595921
 30
0.0
 11
-1.6684628725
 21
4.636446476
 31
0.0
 40
0.811291
 41
4.5729276264
 42
5.8582900453
  0
ELLIPSE
  5
2FA
100
AcDbEntity
  8
0
100
AcDbEllipse
 62
7
  6
CONTINUOUS
 10
492.6750334474
 20
194.6556865921
 30
0.0
 11
-0.507901907
 21
1.4113949537
 31
0.0
 40
0.811291
 41
0.7275045648
 42
1.2601624306
  0
ELLIPSE
  5
2FB
100
AcDbEntity
  8
0
100
AcDbEllipse
 62
7
  6
CONTINUOUS
 10
476.8118684474
 20
199.1295635921
 30
0.0
 11
1.4219540358
 21
-3.9514296055
 31
0.0
 40
0.811291
 41
3.280829869
 42
3.3022369617
  0
ELLIPSE
  5
2FC
100
AcDbEntity
  8
0
100
AcDbEllipse
 62
7
  6
CONTINUOUS
 10
476.3714864474
 20
198.9712455921
 30
0.0
 11
-1.421954155
 21
3.9514298439
 31
0.0
 40
0.811291
 41
4.1681843935
 42
4.4068745328
  0
ELLIPSE
  5
2FD
100
AcDbEntity
  8
0
100
AcDbEllipse
 62
7
  6
CONTINUOUS
 10
476.8118684474
 20
199.1295635921
 30
0.0
 11
-1.4219540358
 21
3.9514296055
 31
0.0
 40
0.811291
 41
6.4438296138
 42
8.0462235347
  0
ELLIPSE
  5
2FE
100
AcDbEntity
  8
0
100
AcDbEllipse
 62
7
  6
CONTINUOUS
 10
476.3717824474
 20
198.9711995921
 30
0.0
 11
-1.4219540358
 21
3.9514296055
 31
0.0
 40
0.811291
 41
1.0265917349
 42
1.2652818841
  0
ELLIPSE
  5
2FF
100
AcDbEntity
  8
0
100
AcDbEllipse
 62
7
  6
CONTINUOUS
 10
479.9474814474
 20
200.2579435921
 30
0.0
 11
-1.3882652521
 21
3.8578128815
 31
0.0
 40
0.811291
 41
0.6762337782
 42
1.9667602012
  0
ELLIPSE
  5
300
100
AcDbEntity
  8
0
100
AcDbEllipse
 62
7
  6
CONTINUOUS
 10
373.8335194474
 20
230.7959905921
 30
0.0
 11
-0.6772025824
 21
1.8818598986
 31
0.0
 40
0.811291
 41
2.7167363403
 42
5.8869353764
  0
ELLIPSE
  5
301
100
AcDbEntity
  8
0
100
AcDbEllipse
 62
7
  6
CONTINUOUS
 10
369.6733174474
 20
224.2885905921
 30
0.0
 11
-0.1625408828
 21
-0.9867017865
 31
0.0
 40
0.532666
 41
3.4303312291
 42
5.0011275495
  0
ELLIPSE
  5
302
100
AcDbEntity
  8
0
100
AcDbEllipse
 62
7
  6
CONTINUOUS
 10
429.4762154474
 20
197.4001165921
 30
0.0
 11
-0.6772025824
 21
1.8818598986
 31
0.0
 40
0.811291
 41
8.9999184435
 42
10.5707147703
  0
ELLIPSE
  5
303
100
AcDbEntity
  8
0
100
AcDbEllipse
 62
7
  6
CONTINUOUS
 10
370.6872174474
 20
207.0845195921
 30
0.0
 11
-0.6772025824
 21
1.8818598986
 31
0.0
 40
0.811291
 41
1.1459368095
 42
2.7167331363
  0
ELLIPSE
  5
304
100
AcDbEntity
  8
0
100
AcDbEllipse
 62
7
  6
CONTINUOUS
 10
519.3750804474
 20
180.5933165921
 30
0.0
 11
3.56285882
 21
-11.6850328445
 31
0.0
 40
0.6466
 41
5.9943091866
 42
6.3150370049
  0
ELLIPSE
  5
305
100
AcDbEntity
  8
0
100
AcDbEllipse
 62
7
  6
CONTINUOUS
 10
339.6779634474
 20
244.7797785921
 30
0.0
 11
-61.515209198
 21
-70.7773590088
 31
0.0
 40
0.276992
 41
5.2898038141
 42
5.4797770257
  0
ELLIPSE
  5
306
100
AcDbEntity
  8
0
100
AcDbEllipse
 62
7
  6
CONTINUOUS
 10
338.0877454474
 20
243.9386455921
 30
0.0
 11
79.6216659546
 21
43.6366539001
 31
0.0
 40
0.09181
 41
2.21228829
 42
2.4050408114
  0
ELLIPSE
  5
307
100
AcDbEntity
  8
0
100
AcDbEllipse
 62
7
  6
CONTINUOUS
 10
339.2368244474
 20
424.4327785921
 30
0.0
 11
75.3737411499
 21
-56.7744483948
 31
0.0
 40
0.426725
 41
4.1342613168
 42
4.3270068273
  0
ELLIPSE
  5
308
100
AcDbEntity
  8
0
100
AcDbEllipse
 62
7
  6
CONTINUOUS
 10
340.3819424474
 20
424.4109505921
 30
0.0
 11
48.9248352051
 21
-83.8234024048
 31
0.0
 40
0.481235
 41
4.3166557434
 42
4.5074028488
  0
ELLIPSE
  5
309
100
AcDbEntity
  8
0
100
AcDbEllipse
 62
7
  6
CONTINUOUS
 10
480.9503994474
 20
200.6190045921
 30
0.0
 11
1.5180065632
 21
-4.2183475494
 31
0.0
 40
0.811291
 41
3.9900542963
 42
5.1982094968
  0
ELLIPSE
  5
30A
100
AcDbEntity
  8
0
100
AcDbEllipse
 62
7
  6
CONTINUOUS
 10
553.9307934474
 20
373.1568575921
 30
0.0
 11
1.8623070717
 21
-5.1751146317
 31
0.0
 40
0.811291
 41
1.4793527198
 42
3.1415920028
  0
ELLIPSE
  5
30B
100
AcDbEntity
  8
0
100
AcDbEllipse
 62
7
  6
CONTINUOUS
 10
553.0812304474
 20
239.2265865921
 30
0.0
 11
-1.8623070717
 21
5.1751146317
 31
0.0
 40
0.811291
 41
3.1415920028
 42
3.5325393209
  0
ELLIPSE
  5
30C
100
AcDbEntity
  8
0
100
AcDbEllipse
 62
7
  6
CONTINUOUS
 10
520.9443934474
 20
176.6860895921
 30
0.0
 11
-2.7088103294
 21
7.5274395943
 31
0.0
 40
0.811291
 41
3.1415814796
 42
4.2875294631
  0
ELLIPSE
  5
30D
100
AcDbEntity
  8
0
100
AcDbEllipse
 62
7
  6
CONTINUOUS
 10
522.2864614474
 20
388.2570885921
 30
0.0
 11
-2.7088103294
 21
7.5274395943
 31
0.0
 40
0.811291
 41
4.2875294631
 42
5.8583257899
  0
ELLIPSE
  5
30E
100
AcDbEntity
  8
0
100
AcDbEllipse
 62
7
  6
CONTINUOUS
 10
284.8757864474
 20
427.3661125921
 30
0.0
 11
-2.7088103294
 21
7.5274395943
 31
0.0
 40
0.811291
 41
5.8583257899
 42
6.2831741332
  0
ELLIPSE
  5
30F
100
AcDbEntity
  8
0
100
AcDbEllipse
 62
7
  6
CONTINUOUS
 10
450.6563764474
 20
200.9647455921
 30
0.0
 11
0.4232515991
 21
-1.1761624813
 31
0.0
 40
0.811291
 41
2.8463985091
 42
3.1417091252
  0
ELLIPSE
  5
310
100
AcDbEntity
  8
0
100
AcDbEllipse
 62
7
  6
CONTINUOUS
 10
450.6563764474
 20
200.9647455921
 30
0.0
 11
0.4232515991
 21
-1.1761624813
 31
0.0
 40
0.811291
 41
1.2436110838
 42
2.588211953
  0
ELLIPSE
  5
311
100
AcDbEntity
  8
0
100
AcDbEllipse
 62
7
  6
CONTINUOUS
 10
451.7962294474
 20
199.6226515921
 30
0.0
 11
0.203176111
 21
1.2333772182
 31
0.0
 40
0.532666
 41
6.2831667714
 42
9.424759425
  0
ELLIPSE
  5
312
100
AcDbEntity
  8
0
100
AcDbEllipse
 62
7
  6
CONTINUOUS
 10
488.3723374474
 20
193.5974055921
 30
0.0
 11
0.203176111
 21
1.2333772182
 31
0.0
 40
0.532666
 41
6.2831667714
 42
9.424759425
  0
ELLIPSE
  5
313
100
AcDbEntity
  8
0
100
AcDbEllipse
 62
7
  6
CONTINUOUS
 10
493.9130514474
 20
193.8389975921
 30
0.0
 11
-0.4232515991
 21
1.1761624813
 31
0.0
 40
0.811291
 41
3.1417091252
 42
5.7298046066
  0
ELLIPSE
  5
314
100
AcDbEntity
  8
0
100
AcDbEllipse
 62
7
  6
CONTINUOUS
 10
493.9130514474
 20
193.8389975921
 30
0.0
 11
-0.4232515991
 21
1.1761624813
 31
0.0
 40
0.811291
 41
5.9879911627
 42
6.2833017788
  0
ELLIPSE
  5
315
100
AcDbEntity
  8
0
100
AcDbEllipse
 62
7
  6
CONTINUOUS
 10
403.0965804474
 20
236.2492305921
 30
0.0
 11
-1.3544051647
 21
3.7637197971
 31
0.0
 40
0.811291
 41
0.0
 42
6.2831853072
  0
ELLIPSE
  5
316
100
AcDbEntity
  8
0
100
AcDbEllipse
 62
7
  6
CONTINUOUS
 10
403.9338304474
 20
368.2384845921
 30
0.0
 11
-1.3544051647
 21
3.7637197971
 31
0.0
 40
0.811291
 41
0.0
 42
6.2831853072
  0
ELLIPSE
  5
317
100
AcDbEntity
  8
0
100
AcDbEllipse
 62
7
  6
CONTINUOUS
 10
404.2088854474
 20
368.3374645921
 30
0.0
 11
1.0496640205
 21
-2.9168827534
 31
0.0
 40
0.811291
 41
6.2830759772
 42
9.4246686308
  0
ELLIPSE
  5
318
100
AcDbEntity
  8
0
100
AcDbEllipse
 62
7
  6
CONTINUOUS
 10
403.9338304474
 20
368.2384845921
 30
0.0
 11
1.0496640205
 21
-2.9168827534
 31
0.0
 40
0.811291
 41
0.0
 42
6.2831853072
  0
ELLIPSE
  5
319
100
AcDbEntity
  8
0
100
AcDbEllipse
 62
7
  6
CONTINUOUS
 10
403.3716314474
 20
236.3482145921
 30
0.0
 11
1.0496640205
 21
-2.9168827534
 31
0.0
 40
0.811291
 41
6.2830759772
 42
9.4246686308
  0
ELLIPSE
  5
31A
100
AcDbEntity
  8
0
100
AcDbEllipse
 62
7
  6
CONTINUOUS
 10
403.0965804474
 20
236.2492305921
 30
0.0
 11
1.0496640205
 21
-2.9168827534
 31
0.0
 40
0.811291
 41
0.0
 42
6.2831853072
  0
ENDSEC
  0
SECTION
  2
OBJECTS
  0
DICTIONARY
  5
C
100
AcDbDictionary
280
0
281
1
  3
ACAD_GROUP
350
D
  3
ACAD_MLINESTYLE
350
17
  3
ACAD_LAYOUT
350
1A
  3
ACAD_PLOTSETTINGS
350
19
  3
ACAD_PLOTSTYLENAME
350
E
  0
DICTIONARY
  5
D
102
{ACAD_REACTORS
330
C
102
}
100
AcDbDictionary
280
0
281
1
  0
ACDBDICTIONARYWDFLT
  5
E
102
{ACAD_REACTORS
330
C
102
}
100
AcDbDictionary
281
1
  3
Normal
350
F
100
AcDbDictionaryWithDefault
340
F
  0
DICTIONARY
  5
17
102
{ACAD_REACTORS
330
C
102
}
100
AcDbDictionary
280
0
281
1
  3
Standard
350
18
  0
DICTIONARY
  5
19
102
{ACAD_REACTORS
330
C
102
}
100
AcDbDictionary
281
1
  0
DICTIONARY
  5
1A
102
{ACAD_REACTORS
330
C
102
}
100
AcDbDictionary
281
1
  3
Model
350
31B
  3
Layout1
350
31C
  0
ACDBPLACEHOLDER
  5
F
102
{ACAD_REACTORS
330
E
102
}
  0
MLINESTYLE
  5
18
102
{ACAD_REACTORS
330
17
102
}
100
AcDbMlineStyle
  2
STANDARD
 70
0
  3

 62
256
 51
90.0
 52
90.0
 71
2
 49
0.5
 62
256
  6
BYLAYER
 49
-0.5
 62
256
  6
BYLAYER
  0
LAYOUT
  5
31B
102
{ACAD_REACTORS
330
1A
102
}
100
AcDbPlotSettings
  1

  2
none_device
  4
ISO_A1_(594.00_x_841.00_MM)
  6

 40
0.0
 41
0.0
 42
0.0
 43
0.0
 44
841.0
 45
594.0
 46
0.0
 47
0.0
 48
0.0
 49
0.0
140
0.0
141
0.0
142
1.0
143
1.0
 70
1024
 72
1
 73
0
 74
0
  7

 75
0
147
1.0
148
0.0
149
0.0
100
AcDbLayout
  1
Model
 70
0
 71
0
 10
0.0
 20
0.0
 11
841.0
 21
594.0
 12
0.0
 22
0.0
 32
0.0
 14
0.0
 24
0.0
 34
0.0
 15
0.0
 25
0.0
 35
0.0
146
0.0
 13
0.0
 23
0.0
 33
0.0
 16
1.0
 26
0.0
 36
0.0
 17
0.0
 27
1.0
 37
0.0
 76
0
330
200
345
0
346
0
  0
LAYOUT
  5
31C
102
{ACAD_REACTORS
330
1A
102
}
100
AcDbPlotSettings
  1

  2
none_device
  4
ISO_A1_(594.00_x_841.00_MM)
  6

 40
0.0
 41
0.0
 42
0.0
 43
0.0
 44
841.0
 45
594.0
 46
0.0
 47
0.0
 48
0.0
 49
0.0
140
0.0
141
0.0
142
1.0
143
1.0
 70
0
 72
1
 73
0
 74
0
  7

 75
0
147
1.0
148
0.0
149
0.0
100
AcDbLayout
  1
Layout1
 70
0
 71
1
 10
0.0
 20
0.0
 11
841.0
 21
594.0
 12
0.0
 22
0.0
 32
0.0
 14
0.0
 24
0.0
 34
0.0
 15
0.0
 25
0.0
 35
0.0
146
0.0
 13
0.0
 23
0.0
 33
0.0
 16
1.0
 26
0.0
 36
0.0
 17
0.0
 27
1.0
 37
0.0
 76
0
330
201
345
0
346
0
  0
ENDSEC
  0
EOF
