  0
SECTION
  2
HEADER
  9
$ACADVER
  1
AC1024
  9
$DWGCODEPAGE
  3
ANSI_1252
  9
$EXTMAX
 10
841.0
 20
594.0
 30
0.0
  9
$EXTMIN
 10
0.0
 20
0.0
 30
0.0
  9
$LIMMIN
 10
0.0
 20
0.0
  9
$LIMMAX
 10
841.0
 20
594.0
  9
$VIEWCTR
 10
420.5
 20
297.0
  9
$VIEWSIZE
 40
594.0
  9
$CLAYER
  8
0
  9
$LTSCALE
 40
46.255
  9
$CELTYPE
  6
BYLAYER
  9
$DIMSCALE
 40
1.0
  9
$DIMASZ
 40
3.0
  9
$DIMEXO
 40
0.5
  9
$DIMDLI
 40
31.958
  9
$DIMEXE
 40
1.5
  9
$DIMCEN
 40
7.569
  9
$DIMLFAC
 40
1.0
  9
$DIMBLK
  1
_FILLED
  9
$DIMALT
 70
0
  9
$DIMALTF
 40
0.0393700787
  9
$DIMTXT
 40
3.0
  9
$DIMTOL
 70
1
  9
$DIMLIM
 70
0
  9
$DIMTFAC
 40
1.0
  9
$DIMTP
 40
0.01
  9
$DIMTM
 40
0.01
  9
$DIMGAP
 40
0.625
  9
$DIMDSEP
 70
44
  9
$AUNITS
 70
0
  9
$PDMODE
 70
3
  9
$PDSIZE
 40
3.0
  9
$HANDSEED
  5
2DE
  9
$TILEMODE
 70
1
  9
$MEASUREMENT
 70
1
  9
$INSUNITS
 70
4
  0
ENDSEC
  0
SECTION
  2
CLASSES
  0
CLASS
  1
ACDBDICTIONARYWDFLT
  2
AcDbDictionaryWithDefault
  3
AutoCAD 2000
 90
0
 91
1
280
0
281
0
  0
CLASS
  1
ACDBPLACEHOLDER
  2
AcDbPlaceHolder
  3
AutoCAD 2000
 90
0
 91
1
280
0
281
0
  0
CLASS
  1
LAYOUT
  2
AcDbLayout
  3
AutoCAD 2000
 90
0
 91
0
280
0
281
0
  0
ENDSEC
  0
SECTION
  2
TABLES
  0
TABLE
  2
VPORT
  5
8
100
AcDbSymbolTable
 70
2
  0
VPORT
  5
1F4
100
AcDbSymbolTableRecord
100
AcDbViewportTableRecord
  2
*ACTIVE
 70
0
 10
0.0
 20
0.0
 11
1.0
 21
1.0
 12
420.5
 22
297.0
 13
0.0
 23
0.0
 14
1.0
 24
1.0
 15
0.0
 25
0.0
 16
0.0
 26
0.0
 36
1.0
 17
0.0
 27
0.0
 37
0.0
 40
594.0
 41
1.4158249158
 42
50.0
 43
0.0
 44
0.0
 50
0.0
 51
0.0
 71
0
 72
100
 73
1
 74
1
 75
0
 76
0
 77
0
 78
0
  0
ENDTAB
  0
TABLE
  2
LTYPE
  5
5
100
AcDbSymbolTable
 70
6
  0
LTYPE
  5
14
100
AcDbSymbolTableRecord
100
AcDbLinetypeTableRecord
  2
BYBLOCK
 70
0
  3

 72
65
 73
0
 40
0.0
  0
LTYPE
  5
15
100
AcDbSymbolTableRecord
100
AcDbLinetypeTableRecord
  2
BYLAYER
 70
0
  3

 72
65
 73
0
 40
0.0
  0
LTYPE
  5
16
100
AcDbSymbolTableRecord
100
AcDbLinetypeTableRecord
  2
CONTINUOUS
 70
64
  3
Solid line
 72
65
 73
0
 40
0.0
  0
LTYPE
  5
1F5
100
AcDbSymbolTableRecord
100
AcDbLinetypeTableRecord
  2
CENTER
 70
64
  3
____ _ ____ _ ____ _ ____ _ ____ _ ____ _ ____
 72
65
 73
4
 40
0.6
 49
0.375
 74
0
 49
-0.075
 74
0
 49
0.075
 74
0
 49
-0.075
 74
0
  0
LTYPE
  5
1F6
100
AcDbSymbolTableRecord
100
AcDbLinetypeTableRecord
  2
HIDDEN
 70
64
  3
- - - - - - - - - - - - - - - - - - - -
 72
65
 73
2
 40
0.2
 49
0.1
 74
0
 49
-0.1
 74
0
  0
LTYPE
  5
1F7
100
AcDbSymbolTableRecord
100
AcDbLinetypeTableRecord
  2
PHANTOM
 70
64
  3
_____ _ _ _____ _ _ _____ _ _ _____
 72
65
 73
6
 40
0.8
 49
0.45
 74
0
 49
-0.05
 74
0
 49
0.1
 74
0
 49
-0.05
 74
0
 49
0.1
 74
0
 49
-0.05
 74
0
  0
LTYPE
  5
1F8
100
AcDbSymbolTableRecord
100
AcDbLinetypeTableRecord
  2
DOT
 70
64
  3
. . . . . . . . . . . . . . . . . . . .
 72
65
 73
2
 40
0.2
 49
0.1
 74
0
 49
-0.1
 74
0
  0
LTYPE
  5
1F9
100
AcDbSymbolTableRecord
100
AcDbLinetypeTableRecord
  2
DASHED
 70
64
  3
- - - - - - - - - - - - - - - - - - - -
 72
65
 73
2
 40
0.2
 49
0.1
 74
0
 49
-0.1
 74
0
  0
ENDTAB
  0
TABLE
  2
LAYER
  5
2
100
AcDbSymbolTable
 70
36
  0
LAYER
  5
10
100
AcDbSymbolTableRecord
100
AcDbLayerTableRecord
  2
0
 70
0
 62
7
  6
CONTINUOUS
370
-3
390
F
  0
LAYER
  5
1FA
100
AcDbSymbolTableRecord
100
AcDbLayerTableRecord
  2
DEFAULT_1
 70
0
 62
7
  6
CENTER
370
-3
390
F
  0
LAYER
  5
1FB
100
AcDbSymbolTableRecord
100
AcDbLayerTableRecord
  2
DEFAULT_2
 70
0
 62
7
  6
HIDDEN
370
-3
390
F
  0
LAYER
  5
1FC
100
AcDbSymbolTableRecord
100
AcDbLayerTableRecord
  2
DEFAULT_3
 70
0
 62
7
  6
PHANTOM
370
-3
390
F
  0
LAYER
  5
1FD
100
AcDbSymbolTableRecord
100
AcDbLayerTableRecord
  2
ASSI
 70
0
 62
7
  6
CONTINUOUS
370
-3
390
F
  0
LAYER
  5
1FE
100
AcDbSymbolTableRecord
100
AcDbLayerTableRecord
  2
CLOSED_SHELL
 70
0
 62
7
  6
CONTINUOUS
370
-3
390
F
  0
LAYER
  5
1FF
100
AcDbSymbolTableRecord
100
AcDbLayerTableRecord
  2
COORDINATE
 70
0
 62
7
  6
CONTINUOUS
370
-3
390
F
  0
LAYER
  5
200
100
AcDbSymbolTableRecord
100
AcDbLayerTableRecord
  2
COPY_PUBLISH
 70
0
 62
7
  6
CONTINUOUS
370
-3
390
F
  0
LAYER
  5
201
100
AcDbSymbolTableRecord
100
AcDbLayerTableRecord
  2
COSMETICI
 70
0
 62
7
  6
CONTINUOUS
370
-3
390
F
  0
LAYER
  5
202
100
AcDbSymbolTableRecord
100
AcDbLayerTableRecord
  2
CURVE
 70
0
 62
7
  6
CONTINUOUS
370
-3
390
F
  0
LAYER
  5
203
100
AcDbSymbolTableRecord
100
AcDbLayerTableRecord
  2
DRAFT
 70
0
 62
7
  6
CONTINUOUS
370
-3
390
F
  0
LAYER
  5
204
100
AcDbSymbolTableRecord
100
AcDbLayerTableRecord
  2
GENERAL
 70
0
 62
7
  6
CONTINUOUS
370
-3
390
F
  0
LAYER
  5
205
100
AcDbSymbolTableRecord
100
AcDbLayerTableRecord
  2
IMPORT_IGES
 70
0
 62
7
  6
CONTINUOUS
370
-3
390
F
  0
LAYER
  5
206
100
AcDbSymbolTableRecord
100
AcDbLayerTableRecord
  2
NOTE
 70
0
 62
7
  6
CONTINUOUS
370
-3
390
F
  0
LAYER
  5
207
100
AcDbSymbolTableRecord
100
AcDbLayerTableRecord
  2
PIANI
 70
0
 62
7
  6
CONTINUOUS
370
-3
390
F
  0
LAYER
  5
208
100
AcDbSymbolTableRecord
100
AcDbLayerTableRecord
  2
PUNTI
 70
0
 62
7
  6
CONTINUOUS
370
-3
390
F
  0
LAYER
  5
209
100
AcDbSymbolTableRecord
100
AcDbLayerTableRecord
  2
RACCORDO
 70
0
 62
7
  6
CONTINUOUS
370
-3
390
F
  0
LAYER
  5
20A
100
AcDbSymbolTableRecord
100
AcDbLayerTableRecord
  2
SIMBOLI
 70
0
 62
7
  6
CONTINUOUS
370
-3
390
F
  0
LAYER
  5
20B
100
AcDbSymbolTableRecord
100
AcDbLayerTableRecord
  2
SMUSSO
 70
0
 62
7
  6
CONTINUOUS
370
-3
390
F
  0
LAYER
  5
20C
100
AcDbSymbolTableRecord
100
AcDbLayerTableRecord
  2
SUPERFICI
 70
0
 62
7
  6
CONTINUOUS
370
-3
390
F
  0
LAYER
  5
20D
100
AcDbSymbolTableRecord
100
AcDbLayerTableRecord
  2
TRASH
 70
0
 62
7
  6
CONTINUOUS
370
-3
390
F
  0
ENDTAB
  0
TABLE
  2
STYLE
  5
3
100
AcDbSymbolTable
 70
1
  0
STYLE
  5
11
100
AcDbSymbolTableRecord
100
AcDbTextStyleTableRecord
  2
STANDARD
 70
0
 40
0.0
 41
0.8
 50
0.0
 71
0
 42
0.2
  3
txt
  4

  0
STYLE
  5
20E
100
AcDbSymbolTableRecord
100
AcDbTextStyleTableRecord
  2
TEXTSTYLE_1
 70
0
 40
0.0
 41
0.8
 50
0.0
 71
0
 42
0.2
  3
gdt
  4

  0
ENDTAB
  0
TABLE
  2
VIEW
  5
6
100
AcDbSymbolTable
 70
0
  0
ENDTAB
  0
TABLE
  2
UCS
  5
7
100
AcDbSymbolTable
 70
0
  0
ENDTAB
  0
TABLE
  2
APPID
  5
9
100
AcDbSymbolTable
 70
1
  0
APPID
  5
20F
100
AcDbSymbolTableRecord
100
AcDbRegAppTableRecord
  2
ACAD
 70
0
  0
ENDTAB
  0
TABLE
  2
BLOCK_RECORD
  5
1
100
AcDbSymbolTable
 70
0
  0
BLOCK_RECORD
  5
210
100
AcDbSymbolTableRecord
100
AcDbBlockTableRecord
  2
*Model_Space
  0
BLOCK_RECORD
  5
211
100
AcDbSymbolTableRecord
100
AcDbBlockTableRecord
  2
*Paper_Space
  0
BLOCK_RECORD
  5
212
100
AcDbSymbolTableRecord
100
AcDbBlockTableRecord
  2
_FILLED
  0
ENDTAB
  0
TABLE
  2
DIMSTYLE
  5
A
100
AcDbSymbolTable
 70
1
100
AcDbDimStyleTable
 71
0
  0
DIMSTYLE
105
213
100
AcDbSymbolTableRecord
100
AcDbDimStyleTableRecord
  2
STANDARD
 70
0
  3

  4

 40
1.0
 41
3.0
 42
0.5
 43
0.38
 44
1.5
 45
0.0
 46
0.0
 47
0.01
 48
0.01
140
3.0
141
0.09
142
0.0
143
25.4
144
1.0
145
0.0
146
1.0
147
0.625
 71
1
 72
0
 73
0
 74
0
 75
0
 76
0
 77
1
 78
8
 79
2
170
0
171
1
172
0
173
0
174
0
175
0
176
0
177
0
178
0
270
2
179
2
271
2
272
2
273
2
274
2
275
0
280
0
281
0
282
0
283
1
284
8
285
0
286
0
287
3
288
0
340
11
278
44
341
212
342
212
343
212
344
212
  0
ENDTAB
  0
ENDSEC
  0
SECTION
  2
BLOCKS
  0
BLOCK
  5
20
100
AcDbEntity
  8
0
100
AcDbBlockBegin
  2
*Model_Space
 70
0
 10
0.0
 20
0.0
 30
0.0
  3
*Model_Space
  1

  0
ENDBLK
  5
21
100
AcDbEntity
  8
0
100
AcDbBlockEnd
  0
BLOCK
  5
1C
100
AcDbEntity
  8
0
100
AcDbBlockBegin
  2
*Paper_Space
 70
0
 10
0.0
 20
0.0
 30
0.0
  3
*Paper_Space
  1

  0
ENDBLK
  5
1D
100
AcDbEntity
  8
0
100
AcDbBlockEnd
  0
BLOCK
  5
214
100
AcDbEntity
  8
0
100
AcDbBlockBegin
  2
_FILLED
 70
64
 10
0.0
 20
0.0
  3
_FILLED
  1

  0
SOLID
  5
215
100
AcDbEntity
  8
0
  6
BYBLOCK
 62
0
100
AcDbTrace
 10
0.0
 20
0.0
 11
-1.0
 21
0.3166666667
 12
-1.0
 22
-0.3166666667
 13
-1.0
 23
-0.3166666667
  0
ENDBLK
  5
216
100
AcDbEntity
  8
0
  6
BYBLOCK
 62
0
100
AcDbBlockEnd
  0
ENDSEC
  0
SECTION
  2
ENTITIES
  0
LWPOLYLINE
  5
217
100
AcDbEntity
  8
0
100
AcDbPolyline
 62
7
  6
CONTINUOUS
 90
42
 70
0
 10
266.636544935
 20
432.0379519204
 10
266.475829165
 20
431.9772650223
 10
266.311140648
 20
431.9089407697
 10
266.1488189533
 20
431.8352617174
 10
265.9889846888
 20
431.7562801208
 10
265.8317534225
 20
431.6720481446
 10
265.677235984
 20
431.5826174932
 10
265.5255388019
 20
431.4880390828
 10
265.3767642699
 20
431.3883627575
 10
265.2310111323
 20
431.2836370497
 10
265.1592934352
 20
431.2293922748
 10
265.0883769901
 20
431.17391066
 10
264.9490293229
 20
431.0592929167
 10
264.8130559436
 20
430.9398385283
 10
264.6805422408
 20
430.8156009072
 10
264.5515715529
 20
430.6866322081
 10
264.4262255218
 20
430.5529834085
 10
264.3045844203
 20
430.4147044302
 10
264.1867274466
 20
430.2718442962
 10
264.0727284952
 20
430.1244449419
 10
263.9626764005
 20
429.9725665163
 10
263.8566475822
 20
429.8162535318
 10
263.7547177297
 20
429.6555486756
 10
263.6569624749
 20
429.4904935831
 10
263.563457923
 20
429.321129615
 10
263.4742810546
 20
429.1474986294
 10
263.3895100063
 20
428.969643737
 10
263.3092242391
 20
428.7876100247
 10
263.2335046001
 20
428.6014452272
 10
263.162433284
 20
428.411200324
 10
263.0960937006
 20
428.2169300271
 10
263.034570256
 20
428.0186931208
 10
262.9779480571
 20
427.8165526021
 10
262.9263125507
 20
427.6105755569
 10
262.8797864739
 20
427.4010123438
 10
262.8383745865
 20
427.1875682265
 10
262.8022161262
 20
426.9705625971
 10
262.7713737516
 20
426.7499679635
 10
262.7459324963
 20
426.5258825069
 10
262.725983649
 20
426.2984779287
 10
262.7116127523
 20
426.0679292196
 10
262.7029465086
 20
425.8364367628
  0
LINE
  5
218
100
AcDbEntity
  8
0
100
AcDbLine
 62
7
  6
CONTINUOUS
 10
267.1115121595
 20
432.2092591299
 11
266.6358791595
 21
432.0380991299
  0
LINE
  5
219
100
AcDbEntity
  8
0
100
AcDbLine
 62
7
  6
CONTINUOUS
 10
269.4294181595
 20
432.2875001299
 11
269.8695041595
 21
432.4458681299
  0
LWPOLYLINE
  5
21A
100
AcDbEntity
  8
0
100
AcDbPolyline
 62
7
  6
CONTINUOUS
 90
47
 70
0
 10
261.3581784977
 20
213.8392055614
 10
261.3583257452
 20
213.8277682115
 10
261.3665074148
 20
213.5375884926
 10
261.3832472043
 20
213.2473126649
 10
261.4085312574
 20
212.9573421067
 10
261.4423282428
 20
212.6680921978
 10
261.4845892786
 20
212.3799834236
 10
261.5352485665
 20
212.0934340247
 10
261.5942245275
 20
211.8088541403
 10
261.6614212591
 20
211.5266413469
 10
261.7367301579
 20
211.2471774571
 10
261.8200315824
 20
210.9708264261
 10
261.9111964571
 20
210.6979332041
 10
262.010087743
 20
210.4288233754
 10
262.1100304272
 20
210.1794206567
 10
262.2234898959
 20
209.9185376358
 10
262.3442296385
 20
209.6623061728
 10
262.4720887442
 20
209.4109871388
 10
262.6069017052
 20
209.1648276015
 10
262.7484984733
 20
208.9240623883
 10
262.8967042192
 20
208.6889157832
 10
263.0513387741
 20
208.4596033147
 10
263.2122157352
 20
208.2363335979
 10
263.2382845412
 20
208.2015011725
 10
263.4061685392
 20
207.985463277
 10
263.5798350871
 20
207.7759397579
 10
263.759047681
 20
207.573148939
 10
263.9435773135
 20
207.377283645
 10
264.1331963261
 20
207.1885203799
 10
264.3276715057
 20
207.0070272855
 10
264.5267375174
 20
206.8329869194
 10
264.7300617643
 20
206.6666178578
 10
264.9373583586
 20
206.508076719
 10
265.1483125633
 20
206.3575264926
 10
265.3626525701
 20
206.2150829681
 10
265.5800711877
 20
206.0808738205
 10
265.8002481626
 20
205.9550202921
 10
266.0228512306
 20
205.8376354628
 10
266.2475377557
 20
205.7288224133
 10
266.4739570267
 20
205.628672349
 10
266.7017532632
 20
205.5372627719
 10
266.8844691311
 20
205.4705656869
 10
267.1138744945
 20
205.3950163791
 10
267.3436593
 20
205.328345014
 10
267.5735077637
 20
205.2705565699
 10
267.8029377035
 20
205.2216882427
 10
267.8049762947
 20
205.2212933918
  0
LINE
  5
21B
100
AcDbEntity
  8
0
100
AcDbLine
 62
7
  6
CONTINUOUS
 10
261.3575361595
 20
214.0529221299
 11
261.3581771595
 21
213.8392051299
  0
LINE
  5
21C
100
AcDbEntity
  8
0
100
AcDbLine
 62
7
  6
CONTINUOUS
 10
261.3575361595
 20
214.0529221299
 11
262.6996001595
 21
425.6239261299
  0
LINE
  5
21D
100
AcDbEntity
  8
0
100
AcDbLine
 62
7
  6
CONTINUOUS
 10
273.3971831595
 20
413.2859491299
 11
272.1774461595
 21
220.9993721299
  0
LINE
  5
21E
100
AcDbEntity
  8
0
100
AcDbLine
 62
7
  6
CONTINUOUS
 10
273.9589131595
 20
415.0808971299
 11
272.7152551595
 21
219.0232961299
  0
LINE
  5
21F
100
AcDbEntity
  8
0
100
AcDbLine
 62
7
  6
CONTINUOUS
 10
274.5427541595
 20
244.6897061299
 11
275.6123661595
 21
413.3095901299
  0
LINE
  5
220
100
AcDbEntity
  8
0
100
AcDbLine
 62
7
  6
CONTINUOUS
 10
275.7849411595
 20
413.0239711299
 11
274.7177531595
 21
244.7862021299
  0
LINE
  5
221
100
AcDbEntity
  8
0
100
AcDbLine
 62
7
  6
CONTINUOUS
 10
262.6996001595
 20
425.6239261299
 11
262.7029451595
 21
425.8364361299
  0
LINE
  5
222
100
AcDbEntity
  8
0
100
AcDbLine
 62
7
  6
CONTINUOUS
 10
276.2752091595
 20
413.2003981299
 11
275.7849411595
 21
413.0239711299
  0
LINE
  5
223
100
AcDbEntity
  8
0
100
AcDbLine
 62
7
  6
CONTINUOUS
 10
505.3995311595
 20
166.0793271299
 11
505.5823981595
 21
166.0518571299
  0
LINE
  5
224
100
AcDbEntity
  8
0
100
AcDbLine
 62
7
  6
CONTINUOUS
 10
505.3995311595
 20
166.0793271299
 11
267.9888541595
 21
205.1883481299
  0
LINE
  5
225
100
AcDbEntity
  8
0
100
AcDbLine
 62
7
  6
CONTINUOUS
 10
267.9888541595
 20
205.1883481299
 11
267.8049751595
 21
205.2212921299
  0
LINE
  5
226
100
AcDbEntity
  8
0
100
AcDbLine
 62
7
  6
CONTINUOUS
 10
497.4294251595
 20
194.6429731299
 11
497.9801461595
 21
194.7026851299
  0
LWPOLYLINE
  5
227
100
AcDbEntity
  8
0
100
AcDbPolyline
 62
7
  6
CONTINUOUS
 90
86
 70
0
 10
473.1136239034
 20
189.6797175539
 10
473.1814216622
 20
189.6687583308
 10
473.3003443542
 20
189.6505179545
 10
473.4208704481
 20
189.6332540724
 10
473.5429321519
 20
189.6169651902
 10
473.6664729892
 20
189.6016493368
 10
473.7376807674
 20
189.593337307
 10
473.8093749786
 20
189.5853389368
 10
473.8814522131
 20
189.5776645375
 10
473.9539765168
 20
189.5703060896
 10
474.0268484487
 20
189.5632725692
 10
474.1001282128
 20
189.5565570764
 10
474.1737352087
 20
189.5501661017
 10
474.2477092383
 20
189.5440953131
 10
474.3219347619
 20
189.5383531013
 10
474.3964886747
 20
189.532932479
 10
474.4713071912
 20
189.5278374541
 10
474.5464123066
 20
189.5230659154
 10
474.6217421542
 20
189.5186212254
 10
474.6973173552
 20
189.5145016168
 10
474.7730875527
 20
189.5107093978
 10
474.8490605694
 20
189.5072437538
 10
474.9251726169
 20
189.5041071012
 10
475.0014473965
 20
189.5012980112
 10
475.0778461961
 20
189.4988176564
 10
475.1543646706
 20
189.4966659377
 10
475.2309679957
 20
189.4948436427
 10
475.3076486933
 20
189.4933507717
 10
475.3843786001
 20
189.4921877672
 10
475.4611425694
 20
189.4913547647
 10
475.5379175991
 20
189.4908519665
 10
475.6146860169
 20
189.4906794785
 10
475.6914298338
 20
189.4908373937
 10
475.7681236922
 20
189.4913257246
 10
475.8447567259
 20
189.4921445342
 10
475.9212974253
 20
189.4932936321
 10
475.9977384076
 20
189.4947731041
 10
476.0740438943
 20
189.4965824667
 10
476.1502314675
 20
189.4987225231
 10
476.2262433117
 20
189.5011920761
 10
476.3020837608
 20
189.5039916393
 10
476.3777057713
 20
189.507119863
 10
476.4531256442
 20
189.5105779139
 10
476.5282856154
 20
189.5143636529
 10
476.6032034816
 20
189.51847853
 10
476.6778194004
 20
189.5229198279
 10
476.75220198
 20
189.5276925729
 10
476.8262437215
 20
189.5327908609
 10
476.8999792012
 20
189.5382178733
 10
476.9733327228
 20
189.5439688579
 10
477.0463581124
 20
189.5500490329
 10
477.1189619552
 20
189.5564516419
 10
477.1912010362
 20
189.5631827888
 10
477.2629787671
 20
189.5702345937
 10
477.3351585857
 20
189.5776993175
 10
477.4068294801
 20
189.5854903229
 10
477.4780774816
 20
189.5936185216
 10
477.5487769574
 20
189.6020711718
 10
477.6190425567
 20
189.610863887
 10
477.6887216924
 20
189.6199795181
 10
477.7579566877
 20
189.629438975
 10
477.8265686518
 20
189.6392201529
 10
477.8934116622
 20
189.6491504601
 10
477.9596196307
 20
189.6593890519
 10
478.0253780047
 20
189.6699675471
 10
478.0904685851
 20
189.6808538412
 10
478.1550968695
 20
189.6920856712
 10
478.2190250518
 20
189.7036251405
 10
478.2825064928
 20
189.7155221134
 10
478.3452572214
 20
189.7277275808
 10
478.4082150095
 20
189.7404360124
 10
478.4705821308
 20
189.7535008972
 10
478.5324137376
 20
189.7669408453
 10
478.5934331212
 20
189.7807006982
 10
478.6539124646
 20
189.7948474418
 10
478.7137592586
 20
189.8093679151
 10
478.7729742068
 20
189.8242703469
 10
478.8315567783
 20
189.8395634316
 10
478.8898595877
 20
189.8553540794
 10
478.9475304377
 20
189.871562985
 10
479.0045779537
 20
189.888204645
 10
479.0610096025
 20
189.9052946361
 10
479.1168363846
 20
189.9228511687
 10
479.1720676679
 20
189.9408937105
 10
479.226716801
 20
189.9594449809
 10
479.2808899519
 20
189.978563369
  0
LWPOLYLINE
  5
228
100
AcDbEntity
  8
0
100
AcDbPolyline
 62
7
  6
CONTINUOUS
 90
86
 70
0
 10
473.5200004738
 20
192.1464680645
 10
473.5730109304
 20
192.1378994457
 10
473.6669824479
 20
192.123487123
 10
473.7633545216
 20
192.1096838936
 10
473.8619788191
 20
192.0965234622
 10
473.9626897443
 20
192.0840384332
 10
474.0212107715
 20
192.0772074184
 10
474.0802886835
 20
192.0706167411
 10
474.1400002384
 20
192.0642591775
 10
474.2002246304
 20
192.0581489035
 10
474.2610331147
 20
192.0522799072
 10
474.3223089772
 20
192.0466646459
 10
474.3841005619
 20
192.0412996619
 10
474.4463144254
 20
192.0361940204
 10
474.508993532
 20
192.0313450816
 10
474.5720462284
 20
192.0267607701
 10
474.6354997086
 20
192.0224397885
 10
474.6992807477
 20
192.0183877863
 10
474.7634139218
 20
192.0146038175
 10
474.8278272706
 20
192.0110927251
 10
474.8925314982
 20
192.0078543959
 10
474.957469101
 20
192.0048921636
 10
475.022646386
 20
192.002206151
 10
475.0880071478
 20
191.9997990437
 10
475.1535477528
 20
191.9976712467
 10
475.2192245557
 20
191.9958244352
 10
475.2850293268
 20
191.9942590471
 10
475.350921926
 20
191.9929762291
 10
475.4168862243
 20
191.9919764088
 10
475.4828907703
 20
191.9912601639
 10
475.5489123213
 20
191.9908277893
 10
475.6149238066
 20
191.9906794672
 10
475.6808970543
 20
191.990815204
 10
475.7468126186
 20
191.9912348906
 10
475.8126342354
 20
191.991938153
 10
475.8783497226
 20
191.9929247039
 10
475.9439188673
 20
191.994193728
 10
476.0093344825
 20
191.9957448626
 10
476.0745445847
 20
191.9975765592
 10
476.1395511315
 20
191.9996885171
 10
476.2043005177
 20
192.0020785929
 10
476.2687993529
 20
192.0047466149
 10
476.3329805162
 20
192.0076892726
 10
476.3968635135
 20
192.0109069093
 10
476.46037979
 20
192.0143954739
 10
476.5235516023
 20
192.0181555751
 10
476.5862925904
 20
192.0221813124
 10
476.6486401454
 20
192.0264742751
 10
476.7105066718
 20
192.0310275627
 10
476.7719343194
 20
192.0358433899
 10
476.8328135693
 20
192.040912079
 10
476.8932080862
 20
192.0462378156
 10
476.9530052974
 20
192.0518094753
 10
477.0122733441
 20
192.0576321858
 10
477.0714753059
 20
192.0637546509
 10
477.1300892678
 20
192.0701260819
 10
477.1879674931
 20
192.0767287034
 10
477.2452132915
 20
192.0835725521
 10
477.3016458871
 20
192.0906339029
 10
477.3574016771
 20
192.0979276708
 10
477.4122671798
 20
192.105423371
 10
477.4664119907
 20
192.1131415697
 10
477.5186238009
 20
192.1208976201
 10
477.5701024835
 20
192.1288579001
 10
477.6205860797
 20
192.1369785864
 10
477.6702971783
 20
192.1452921116
 10
477.7189498672
 20
192.1537468498
 10
477.7667923266
 20
192.1623820545
 10
477.8134803358
 20
192.1711308779
 10
477.8593210781
 20
192.1800460871
 10
477.9046618264
 20
192.1891977794
 10
477.9488651913
 20
192.198457223
 10
477.9918263147
 20
192.207794217
 10
478.0338487121
 20
192.217269041
 10
478.0745632244
 20
192.2267920255
 10
478.1140480459
 20
192.2363715124
 10
478.1522682641
 20
192.2459895983
 10
478.1891910832
 20
192.2556276513
 10
478.224978988
 20
192.2653195954
 10
478.2593787426
 20
192.2749870518
 10
478.292348123
 20
192.2846037495
 10
478.3238468886
 20
192.2941418756
 10
478.3538334325
 20
192.3035709118
 10
478.3822647993
 20
192.3128573334
 10
478.4090967613
 20
192.3219642868
 10
478.4341644559
 20
192.3308082342
  0
LINE
  5
229
100
AcDbEntity
  8
0
100
AcDbLine
 62
7
  6
CONTINUOUS
 10
414.4083771595
 20
192.7747831299
 11
355.6193811595
 21
202.4591831299
  0
LINE
  5
22A
100
AcDbEntity
  8
0
100
AcDbLine
 62
7
  6
CONTINUOUS
 10
495.4348731595
 20
181.3620991299
 11
274.6174071595
 21
217.7376951299
  0
LINE
  5
22B
100
AcDbEntity
  8
0
100
AcDbLine
 62
7
  6
CONTINUOUS
 10
496.9351231595
 20
181.6088351299
 11
416.5102431595
 21
194.8573471299
  0
LINE
  5
22C
100
AcDbEntity
  8
0
100
AcDbLine
 62
7
  6
CONTINUOUS
 10
353.5482961595
 20
205.2291641299
 11
273.1234161595
 21
218.4776771299
  0
LINE
  5
22D
100
AcDbEntity
  8
0
100
AcDbLine
 62
7
  6
CONTINUOUS
 10
473.1136241595
 20
189.6797171299
 11
436.5375151595
 21
195.7049551299
  0
LINE
  5
22E
100
AcDbEntity
  8
0
100
AcDbLine
 62
7
  6
CONTINUOUS
 10
477.7451101595
 20
189.6276511299
 11
480.5528401595
 21
189.1651301299
  0
LINE
  5
22F
100
AcDbEntity
  8
0
100
AcDbLine
 62
7
  6
CONTINUOUS
 10
432.9537951595
 20
197.0061931299
 11
434.0043051595
 21
196.8331411299
  0
LINE
  5
230
100
AcDbEntity
  8
0
100
AcDbLine
 62
7
  6
CONTINUOUS
 10
481.7854181595
 20
190.1164111299
 11
480.3301351595
 21
190.3561421299
  0
LINE
  5
231
100
AcDbEntity
  8
0
100
AcDbLine
 62
7
  6
CONTINUOUS
 10
481.7819561595
 20
190.7613901299
 11
481.5585451595
 21
190.7981931299
  0
LINE
  5
232
100
AcDbEntity
  8
0
100
AcDbLine
 62
7
  6
CONTINUOUS
 10
473.5200001595
 20
192.1464681299
 11
436.9438921595
 21
198.1717061299
  0
LINE
  5
233
100
AcDbEntity
  8
0
100
AcDbLine
 62
7
  6
CONTINUOUS
 10
449.0694431595
 20
196.5157961299
 11
456.9903911595
 21
195.2109661299
  0
LINE
  5
234
100
AcDbEntity
  8
0
100
AcDbLine
 62
7
  6
CONTINUOUS
 10
464.7678681595
 20
193.9297711299
 11
470.5586411595
 21
192.9758481299
  0
LINE
  5
235
100
AcDbEntity
  8
0
100
AcDbLine
 62
7
  6
CONTINUOUS
 10
464.7688851595
 20
193.9330071299
 11
461.1818191595
 21
194.5239101299
  0
LINE
  5
236
100
AcDbEntity
  8
0
100
AcDbLine
 62
7
  6
CONTINUOUS
 10
434.4551431595
 20
199.4492601299
 11
434.9509001595
 21
199.3675931299
  0
LINE
  5
237
100
AcDbEntity
  8
0
100
AcDbLine
 62
7
  6
CONTINUOUS
 10
440.0016051595
 20
198.5355831299
 11
440.4206911595
 21
198.4665461299
  0
LINE
  5
238
100
AcDbEntity
  8
0
100
AcDbLine
 62
7
  6
CONTINUOUS
 10
462.5397671595
 20
195.0465341299
 11
464.9385261595
 21
194.6513821299
  0
LINE
  5
239
100
AcDbEntity
  8
0
100
AcDbLine
 62
7
  6
CONTINUOUS
 10
444.3575641595
 20
198.0422031299
 11
432.9722631595
 21
199.9177201299
  0
LINE
  5
23A
100
AcDbEntity
  8
0
100
AcDbLine
 62
7
  6
CONTINUOUS
 10
480.5713091595
 20
192.0766571299
 11
469.1860091595
 21
193.9521751299
  0
LINE
  5
23B
100
AcDbEntity
  8
0
100
AcDbLine
 62
7
  6
CONTINUOUS
 10
457.2309671595
 20
196.4740931299
 11
457.8312481595
 21
196.3752081299
  0
LINE
  5
23C
100
AcDbEntity
  8
0
100
AcDbLine
 62
7
  6
CONTINUOUS
 10
464.7948141595
 20
195.2280891299
 11
464.9959091595
 21
195.1949621299
  0
LINE
  5
23D
100
AcDbEntity
  8
0
100
AcDbLine
 62
7
  6
CONTINUOUS
 10
464.8009711595
 20
196.1985981299
 11
464.9627381595
 21
196.1719501299
  0
LINE
  5
23E
100
AcDbEntity
  8
0
100
AcDbLine
 62
7
  6
CONTINUOUS
 10
457.2371231595
 20
197.4446021299
 11
457.8374041595
 21
197.3457171299
  0
LINE
  5
23F
100
AcDbEntity
  8
0
100
AcDbLine
 62
7
  6
CONTINUOUS
 10
457.6889311595
 20
197.6010401299
 11
458.2774901595
 21
197.5040861299
  0
LINE
  5
240
100
AcDbEntity
  8
0
100
AcDbLine
 62
7
  6
CONTINUOUS
 10
459.9032301595
 20
200.1983281299
 11
463.2966191595
 21
199.6393291299
  0
LINE
  5
241
100
AcDbEntity
  8
0
100
AcDbLine
 62
7
  6
CONTINUOUS
 10
416.1969621595
 20
211.1716621299
 11
354.0676811595
 21
221.4063121299
  0
LINE
  5
242
100
AcDbEntity
  8
0
100
AcDbLine
 62
7
  6
CONTINUOUS
 10
416.1141361595
 20
211.2927671299
 11
354.1518691595
 21
221.4999051299
  0
LWPOLYLINE
  5
243
100
AcDbEntity
  8
0
100
AcDbPolyline
 62
7
  6
CONTINUOUS
 90
25
 70
0
 10
436.9438918522
 20
198.1717059283
 10
436.8824886685
 20
198.1819919494
 10
436.8055486046
 20
198.1953653017
 10
436.7338629648
 20
198.2086149221
 10
436.6981412733
 20
198.2155483468
 10
436.6624613987
 20
198.222700841
 10
436.5912602642
 20
198.2376453947
 10
436.5184750441
 20
198.2538170456
 10
436.447568731
 20
198.2704301885
 10
436.3833176622
 20
198.2862793774
 10
436.3276210344
 20
198.3007428154
 10
436.2697168086
 20
198.3165896856
 10
436.2152259913
 20
198.3323461546
 10
436.1642411525
 20
198.3479293281
 10
436.1167408924
 20
198.3632867891
 10
436.0818554106
 20
198.3751555922
 10
436.041101713
 20
198.3897578687
 10
436.0032144582
 20
198.4041822122
 10
435.9728543066
 20
198.4164450977
 10
435.9431383137
 20
198.4292158049
 10
435.9228661684
 20
198.4382586292
 10
435.9050466185
 20
198.4464754151
 10
435.8917098536
 20
198.4534367821
 10
435.8789275647
 20
198.4610397499
 10
435.8759796447
 20
198.4628785038
  0
LWPOLYLINE
  5
244
100
AcDbEntity
  8
0
100
AcDbPolyline
 62
7
  6
CONTINUOUS
 90
70
 70
0
 10
436.537515282
 20
195.7049554177
 10
436.4706683301
 20
195.7161751145
 10
436.4044912536
 20
195.7277007726
 10
436.338783367
 20
195.7395706199
 10
436.2737788124
 20
195.7517456987
 10
436.2092514127
 20
195.7642721691
 10
436.1454601627
 20
195.7771036248
 10
436.0822175243
 20
195.7902814604
 10
436.0195623144
 20
195.8038033689
 10
435.9574244269
 20
195.8176912527
 10
435.8958867822
 20
195.8319338817
 10
435.8348861909
 20
195.8465536877
 10
435.7747190664
 20
195.8614851451
 10
435.7150911101
 20
195.8768075048
 10
435.6561005703
 20
195.8925049701
 10
435.5977454139
 20
195.9085870665
 10
435.5400343896
 20
195.9250611028
 10
435.487954045
 20
195.9404388376
 10
435.4364024442
 20
195.9561622444
 10
435.3853620793
 20
195.9722464645
 10
435.3348265936
 20
195.9887044484
 10
435.2847871003
 20
196.0055511418
 10
435.2352359451
 20
196.0228023894
 10
435.1861628641
 20
196.0404763766
 10
435.1375558862
 20
196.0585935698
 10
435.097279789
 20
196.0740917989
 10
435.0436132781
 20
196.0954678468
 10
434.990471572
 20
196.1175029169
 10
434.937851669
 20
196.1402331788
 10
434.8857332873
 20
196.1637061441
 10
434.834090769
 20
196.187977051
 10
434.7829075889
 20
196.213102807
 10
434.732163272
 20
196.2391486386
 10
434.6818731052
 20
196.2661675943
 10
434.6193049874
 20
196.3016126931
 10
434.5805898776
 20
196.3246499558
 10
434.5421099262
 20
196.3484542285
 10
434.5038761156
 20
196.3730656206
 10
434.4658956381
 20
196.3985302044
 10
434.4281771323
 20
196.4248973044
 10
434.39072442
 20
196.4522245975
 10
434.3536051553
 20
196.4805261881
 10
434.3168022626
 20
196.5098833055
 10
434.2743255158
 20
196.5455194456
 10
434.231023732
 20
196.5839807589
 10
434.1883996768
 20
196.62418636
 10
434.1465824574
 20
196.6661734366
 10
434.1056897906
 20
196.7099896044
 10
434.0643914257
 20
196.7574056113
 10
434.0243949347
 20
196.8068355129
 10
433.9858750058
 20
196.8582687831
 10
433.9490075939
 20
196.911679114
 10
433.9306997511
 20
196.9399801921
 10
433.9129823768
 20
196.9686548263
 10
433.8957241092
 20
196.9979441226
 10
433.8790920907
 20
197.0275930303
 10
433.8555510753
 20
197.0723092855
 10
433.8332992893
 20
197.1181006529
 10
433.8104754693
 20
197.1694913075
 10
433.7894013511
 20
197.2220350907
 10
433.7702062052
 20
197.2755451518
 10
433.752962812
 20
197.3299357519
 10
433.7382552548
 20
197.3830936979
 10
433.7255173077
 20
197.4366968023
 10
433.7147055367
 20
197.4910213808
 10
433.705920834
 20
197.5456690973
 10
433.6992435914
 20
197.5999223246
 10
433.6945672001
 20
197.6543615787
 10
433.6918982927
 20
197.7089207288
 10
433.6912406842
 20
197.763533472
  0
LINE
  5
245
100
AcDbEntity
  8
0
100
AcDbLine
 62
7
  6
CONTINUOUS
 10
353.9615511595
 20
204.6753271299
 11
354.1322091595
 21
231.5788141299
  0
LINE
  5
246
100
AcDbEntity
  8
0
100
AcDbLine
 62
7
  6
CONTINUOUS
 10
354.2165101595
 20
231.6902511299
 11
354.1518691595
 21
221.4999051299
  0
LINE
  5
247
100
AcDbEntity
  8
0
100
AcDbLine
 62
7
  6
CONTINUOUS
 10
507.2801821595
 20
393.3368471299
 11
506.8400961595
 21
393.1784791299
  0
LINE
  5
248
100
AcDbEntity
  8
0
100
AcDbLine
 62
7
  6
CONTINUOUS
 10
495.8509441595
 20
208.2332721299
 11
416.2614891595
 21
221.3441641299
  0
LINE
  5
249
100
AcDbEntity
  8
0
100
AcDbLine
 62
7
  6
CONTINUOUS
 10
354.1322091595
 20
231.5788141299
 11
274.5427541595
 21
244.6897061299
  0
LINE
  5
24A
100
AcDbEntity
  8
0
100
AcDbLine
 62
7
  6
CONTINUOUS
 10
495.8445471595
 20
208.3596501299
 11
416.1787761595
 21
221.4831131299
  0
LINE
  5
24B
100
AcDbEntity
  8
0
100
AcDbLine
 62
7
  6
CONTINUOUS
 10
354.2165101595
 20
231.6902511299
 11
274.7177531595
 21
244.7862021299
  0
LINE
  5
24C
100
AcDbEntity
  8
0
100
AcDbLine
 62
7
  6
CONTINUOUS
 10
492.7485111595
 20
397.5986881299
 11
490.8730611595
 21
396.0395111299
  0
LINE
  5
24D
100
AcDbEntity
  8
0
100
AcDbLine
 62
7
  6
CONTINUOUS
 10
545.8174391595
 20
371.0776861299
 11
522.2590411595
 21
362.4340881299
  0
LINE
  5
24E
100
AcDbEntity
  8
0
100
AcDbLine
 62
7
  6
CONTINUOUS
 10
516.9427331595
 20
386.9156281299
 11
513.8246471595
 21
385.7935601299
  0
LINE
  5
24F
100
AcDbEntity
  8
0
100
AcDbLine
 62
7
  6
CONTINUOUS
 10
513.4714131595
 20
384.3139051299
 11
513.9115001595
 21
384.4722741299
  0
LINE
  5
250
100
AcDbEntity
  8
0
100
AcDbLine
 62
7
  6
CONTINUOUS
 10
496.9189491595
 20
376.6000151299
 11
496.9117341595
 21
376.5974191299
  0
LINE
  5
251
100
AcDbEntity
  8
0
100
AcDbLine
 62
7
  6
CONTINUOUS
 10
522.3092841595
 20
370.3564151299
 11
537.0129651595
 21
375.6476541299
  0
LINE
  5
252
100
AcDbEntity
  8
0
100
AcDbLine
 62
7
  6
CONTINUOUS
 10
543.2263101595
 20
371.5045261299
 11
522.2687351595
 21
363.9627731299
  0
LINE
  5
253
100
AcDbEntity
  8
0
100
AcDbLine
 62
7
  6
CONTINUOUS
 10
516.8901931595
 20
378.6353291299
 11
522.3740331595
 21
380.5619821299
  0
LINE
  5
254
100
AcDbEntity
  8
0
100
AcDbLine
 62
7
  6
CONTINUOUS
 10
416.1141361595
 20
211.2927671299
 11
416.1787761595
 21
221.4831131299
  0
LINE
  5
255
100
AcDbEntity
  8
0
100
AcDbLine
 62
7
  6
CONTINUOUS
 10
416.0908321595
 20
194.4406761299
 11
416.2614891595
 21
221.3441641299
  0
LINE
  5
256
100
AcDbEntity
  8
0
100
AcDbLine
 62
7
  6
CONTINUOUS
 10
274.5427541595
 20
244.6897061299
 11
274.7652671595
 21
244.7783751299
  0
LINE
  5
257
100
AcDbEntity
  8
0
100
AcDbLine
 62
7
  6
CONTINUOUS
 10
434.4565631595
 20
199.6731781299
 11
434.4547991595
 21
199.3949921299
  0
LWPOLYLINE
  5
258
100
AcDbEntity
  8
0
100
AcDbPolyline
 62
7
  6
CONTINUOUS
 90
63
 70
0
 10
433.6912406842
 20
197.763533472
 10
433.6917372769
 20
197.7935884173
 10
433.6928431219
 20
197.8236261643
 10
433.6952335449
 20
197.8632150365
 10
433.6986811814
 20
197.9027273364
 10
433.7031699623
 20
197.9420331456
 10
433.708702353
 20
197.9812044907
 10
433.7132009497
 20
198.0085750307
 10
433.7182076758
 20
198.0358568017
 10
433.7236979852
 20
198.0629367492
 10
433.7296873913
 20
198.0899107995
 10
433.7361456601
 20
198.1166611424
 10
433.7430928575
 20
198.1432886556
 10
433.75053386
 20
198.1698131129
 10
433.7584578009
 20
198.1961973663
 10
433.7671596802
 20
198.2233366629
 10
433.7763697292
 20
198.2503077766
 10
433.7860465717
 20
198.2770036355
 10
433.7962180335
 20
198.3035149578
 10
433.8068334168
 20
198.3297239034
 10
433.8179286588
 20
198.3557333636
 10
433.8294423092
 20
198.3814138695
 10
433.8414197915
 20
198.4068812311
 10
433.8639711392
 20
198.4518598616
 10
433.8878213296
 20
198.4958658359
 10
433.9129004362
 20
198.5388570046
 10
433.939124855
 20
198.5807793021
 10
433.9598796153
 20
198.6120608002
 10
433.9784118
 20
198.6387378536
 10
433.9974642357
 20
198.665046624
 10
434.0167874263
 20
198.6906717927
 10
434.036594303
 20
198.7159247396
 10
434.056657516
 20
198.7405412033
 10
434.0771706081
 20
198.7647840218
 10
434.0978872446
 20
198.7883871497
 10
434.1190205073
 20
198.8116181997
 10
434.1446158334
 20
198.8386920991
 10
434.1707610497
 20
198.8652357536
 10
434.1969612528
 20
198.8907926882
 10
434.223653775
 20
198.9158347335
 10
434.2505408388
 20
198.9401147261
 10
434.2778739695
 20
198.9638917806
 10
434.3051235026
 20
198.9867464337
 10
434.3327678981
 20
199.0091204817
 10
434.3464017769
 20
199.0198694934
 10
434.3819501209
 20
199.0470579828
 10
434.4178473238
 20
199.0733566413
 10
434.4538902249
 20
199.098676672
 10
434.4902311543
 20
199.1231816755
 10
434.5267973731
 20
199.146870637
 10
434.5635832331
 20
199.1697867106
 10
434.6005833134
 20
199.1919697281
 10
434.6377841284
 20
199.2134518794
 10
434.6971520328
 20
199.246152453
 10
434.7570885729
 20
199.2773531886
 10
434.8058973604
 20
199.3015290613
 10
434.8551289508
 20
199.3248797658
 10
434.904769758
 20
199.3474454758
 10
434.9548393561
 20
199.3692776307
 10
435.0053540378
 20
199.3904214117
 10
435.0563356917
 20
199.4109200249
 10
435.1078024106
 20
199.4308111395
 10
435.1596602152
 20
199.4500880828
  0
LINE
  5
259
100
AcDbEntity
  8
0
100
AcDbLine
 62
7
  6
CONTINUOUS
 10
273.0552511595
 20
218.4953601299
 11
272.2177501595
 21
218.1656221299
  0
LINE
  5
25A
100
AcDbEntity
  8
0
100
AcDbLine
 62
7
  6
CONTINUOUS
 10
353.7944121595
 20
205.2830851299
 11
353.9661601595
 21
205.4019821299
  0
LINE
  5
25B
100
AcDbEntity
  8
0
100
AcDbLine
 62
7
  6
CONTINUOUS
 10
354.1322091595
 20
231.5788141299
 11
354.2160171595
 21
231.6124791299
  0
LINE
  5
25C
100
AcDbEntity
  8
0
100
AcDbLine
 62
7
  6
CONTINUOUS
 10
492.7485111595
 20
397.5986881299
 11
492.7366731595
 21
395.7325081299
  0
LINE
  5
25D
100
AcDbEntity
  8
0
100
AcDbLine
 62
7
  6
CONTINUOUS
 10
495.8445471595
 20
208.3596501299
 11
496.9117341595
 21
376.5974191299
  0
LINE
  5
25E
100
AcDbEntity
  8
0
100
AcDbLine
 62
7
  6
CONTINUOUS
 10
495.8509441595
 20
208.2332721299
 11
496.9205551595
 21
376.8531561299
  0
LINE
  5
25F
100
AcDbEntity
  8
0
100
AcDbLine
 62
7
  6
CONTINUOUS
 10
498.5930041595
 20
378.0765821299
 11
497.3493471595
 21
182.0189811299
  0
LINE
  5
260
100
AcDbEntity
  8
0
100
AcDbLine
 62
7
  6
CONTINUOUS
 10
497.9110761595
 20
183.8139291299
 11
499.1308131595
 21
376.1005061299
  0
LINE
  5
261
100
AcDbEntity
  8
0
100
AcDbLine
 62
7
  6
CONTINUOUS
 10
416.2614891595
 20
221.3441641299
 11
416.4713261595
 21
221.4349211299
  0
LINE
  5
262
100
AcDbEntity
  8
0
100
AcDbLine
 62
7
  6
CONTINUOUS
 10
499.1702641595
 20
378.1499861299
 11
498.5930041595
 21
378.0765821299
  0
LINE
  5
263
100
AcDbEntity
  8
0
100
AcDbLine
 62
7
  6
CONTINUOUS
 10
499.1919061595
 20
378.7502591299
 11
498.1848441595
 21
378.6222011299
  0
LINE
  5
264
100
AcDbEntity
  8
0
100
AcDbLine
 62
7
  6
CONTINUOUS
 10
275.7849411595
 20
413.0239711299
 11
496.9117341595
 21
376.5974191299
  0
LINE
  5
265
100
AcDbEntity
  8
0
100
AcDbLine
 62
7
  6
CONTINUOUS
 10
496.9205551595
 20
376.8531561299
 11
275.6123661595
 21
413.3095901299
  0
LWPOLYLINE
  5
266
100
AcDbEntity
  8
0
100
AcDbPolyline
 62
7
  6
CONTINUOUS
 90
46
 70
0
 10
513.4697244442
 20
384.5272449877
 10
513.4594036446
 20
384.7983693723
 10
513.4403604258
 20
385.0715832104
 10
513.4125274542
 20
385.3466983038
 10
513.3758472114
 20
385.6234661702
 10
513.3302771113
 20
385.9015820226
 10
513.2757939944
 20
386.1806893508
 10
513.2123979354
 20
386.4603851545
 10
513.1401153043
 20
386.740225809
 10
513.0590010322
 20
387.0197334912
 10
513.0402951269
 20
387.0801203202
 10
512.9486002459
 20
387.3584111566
 10
512.8483573406
 20
387.6351026362
 10
512.7397298764
 20
387.9096580888
 10
512.6784954677
 20
388.0548807738
 10
512.5574135691
 20
388.3250816873
 10
512.4284986574
 20
388.5917613561
 10
512.2920087261
 20
388.8543971236
 10
512.1482228431
 20
389.1124825772
 10
511.9974394791
 20
389.3655297643
 10
511.8399750015
 20
389.6130707799
 10
511.6761623904
 20
389.8546587986
 10
511.5063502129
 20
390.08986863
 10
511.3659918636
 20
390.2737259887
 10
511.186279716
 20
390.4964555132
 10
511.0016632441
 20
390.7116835524
 10
510.8125284364
 20
390.9190893754
 10
510.6192402236
 20
391.1184071003
 10
510.4221503553
 20
391.3094117761
 10
510.2216059535
 20
391.4919074145
 10
510.0179584968
 20
391.6657170473
 10
509.8115730266
 20
391.8306748258
 10
509.6469211108
 20
391.9545731001
 10
509.4363976958
 20
392.1034522165
 10
509.2239862596
 20
392.243238617
 10
509.0099691313
 20
392.37388722
 10
508.7946094757
 20
392.4953751116
 10
508.5781492002
 20
392.6076995945
 10
508.3608068739
 20
392.7108760226
 10
508.1427756586
 20
392.8049354136
 10
507.9242212416
 20
392.8899218346
 10
507.8997141822
 20
392.8988785778
 10
507.6808046557
 20
392.9738156464
 10
507.4615614754
 20
393.0398238529
 10
507.2422167068
 20
393.0969234829
 10
507.022926646
 20
393.1451571565
  0
LINE
  5
267
100
AcDbEntity
  8
0
100
AcDbLine
 62
7
  6
CONTINUOUS
 10
513.4714131595
 20
384.3139051299
 11
513.4697241595
 21
384.5272441299
  0
LINE
  5
268
100
AcDbEntity
  8
0
100
AcDbLine
 62
7
  6
CONTINUOUS
 10
513.4714131595
 20
384.3139051299
 11
512.1293491595
 21
172.7429011299
  0
LINE
  5
269
100
AcDbEntity
  8
0
100
AcDbLine
 62
7
  6
CONTINUOUS
 10
513.9115001595
 20
384.4722741299
 11
512.5694351595
 21
172.9012691299
  0
LINE
  5
26A
100
AcDbEntity
  8
0
100
AcDbLine
 62
7
  6
CONTINUOUS
 10
515.6511501595
 20
183.3028001299
 11
516.9427331595
 21
386.9156281299
  0
LINE
  5
26B
100
AcDbEntity
  8
0
100
AcDbLine
 62
7
  6
CONTINUOUS
 10
522.3740331595
 20
380.5619821299
 11
522.2590411595
 21
362.4340881299
  0
LINE
  5
26C
100
AcDbEntity
  8
0
100
AcDbLine
 62
7
  6
CONTINUOUS
 10
521.3873151595
 20
225.0099861299
 11
521.2723241595
 21
206.8820911299
  0
LINE
  5
26D
100
AcDbEntity
  8
0
100
AcDbLine
 62
7
  6
CONTINUOUS
 10
512.1293491595
 20
172.7429011299
 11
512.1249561595
 21
172.5300131299
  0
LINE
  5
26E
100
AcDbEntity
  8
0
100
AcDbLine
 62
7
  6
CONTINUOUS
 10
462.5397671595
 20
195.0465341299
 11
461.1818191595
 21
194.5239101299
  0
LINE
  5
26F
100
AcDbEntity
  8
0
100
AcDbLine
 62
7
  6
CONTINUOUS
 10
515.7873991595
 20
204.7842941299
 11
521.2723241595
 21
206.8820911299
  0
LINE
  5
270
100
AcDbEntity
  8
0
100
AcDbLine
 62
7
  6
CONTINUOUS
 10
464.1350201595
 20
193.6924611299
 11
464.7678681595
 21
193.9297711299
  0
LINE
  5
271
100
AcDbEntity
  8
0
100
AcDbLine
 62
7
  6
CONTINUOUS
 10
544.9457131595
 20
233.6535841299
 11
521.3873151595
 21
225.0099861299
  0
LINE
  5
272
100
AcDbEntity
  8
0
100
AcDbLine
 62
7
  6
CONTINUOUS
 10
416.0908321595
 20
194.4406761299
 11
417.0168121595
 21
194.7738981299
  0
LINE
  5
273
100
AcDbEntity
  8
0
100
AcDbLine
 62
7
  6
CONTINUOUS
 10
435.1596602152
 20
199.4500880828
 11
435.3641161595
 21
199.5237061299
  0
LINE
  5
274
100
AcDbEntity
  8
0
100
AcDbLine
 62
7
  6
CONTINUOUS
 10
432.9537951595
 20
197.0061931299
 11
433.7630321595
 21
197.2974031299
  0
LINE
  5
275
100
AcDbEntity
  8
0
100
AcDbLine
 62
7
  6
CONTINUOUS
 10
438.3477361595
 20
197.9404401299
 11
440.3666161595
 21
198.6669501299
  0
LINE
  5
276
100
AcDbEntity
  8
0
100
AcDbLine
 62
7
  6
CONTINUOUS
 10
446.0078871595
 20
198.6360851299
 11
444.3575641595
 21
198.0422031299
  0
LINE
  5
277
100
AcDbEntity
  8
0
100
AcDbLine
 62
7
  6
CONTINUOUS
 10
539.8880101595
 20
231.3671531299
 11
521.3853981595
 21
224.7088381299
  0
LINE
  5
278
100
AcDbEntity
  8
0
100
AcDbLine
 62
7
  6
CONTINUOUS
 10
449.0694431595
 20
196.5157961299
 11
448.4183421595
 21
196.2814921299
  0
LINE
  5
279
100
AcDbEntity
  8
0
100
AcDbLine
 62
7
  6
CONTINUOUS
 10
458.2774901595
 20
197.5040861299
 11
457.8374041595
 21
197.3457171299
  0
LINE
  5
27A
100
AcDbEntity
  8
0
100
AcDbLine
 62
7
  6
CONTINUOUS
 10
458.2713341595
 20
196.5335761299
 11
457.8312481595
 21
196.3752081299
  0
LINE
  5
27B
100
AcDbEntity
  8
0
100
AcDbLine
 62
7
  6
CONTINUOUS
 10
495.8517621595
 20
208.3622461299
 11
495.8445471595
 21
208.3596501299
  0
LINE
  5
27C
100
AcDbEntity
  8
0
100
AcDbLine
 62
7
  6
CONTINUOUS
 10
464.9524161595
 20
196.2530971299
 11
464.8009711595
 21
196.1985981299
  0
LINE
  5
27D
100
AcDbEntity
  8
0
100
AcDbLine
 62
7
  6
CONTINUOUS
 10
478.6207921595
 20
192.3979681299
 11
478.4341641595
 21
192.3308081299
  0
LINE
  5
27E
100
AcDbEntity
  8
0
100
AcDbLine
 62
7
  6
CONTINUOUS
 10
481.7574551595
 20
190.8697751299
 11
479.2808901595
 21
189.9785631299
  0
LINE
  5
27F
100
AcDbEntity
  8
0
100
AcDbLine
 62
7
  6
CONTINUOUS
 10
457.6889311595
 20
197.6010401299
 11
457.2371231595
 21
197.4446021299
  0
LINE
  5
280
100
AcDbEntity
  8
0
100
AcDbLine
 62
7
  6
CONTINUOUS
 10
456.3210491595
 20
194.9796721299
 11
456.9903911595
 21
195.2109661299
  0
LINE
  5
281
100
AcDbEntity
  8
0
100
AcDbLine
 62
7
  6
CONTINUOUS
 10
433.9264001595
 20
199.2175771299
 11
434.4547991595
 21
199.3949921299
  0
LINE
  5
282
100
AcDbEntity
  8
0
100
AcDbLine
 62
7
  6
CONTINUOUS
 10
394.5192981595
 20
413.7801351299
 11
389.0576631595
 21
412.8117161299
  0
LINE
  5
283
100
AcDbEntity
  8
0
100
AcDbLine
 62
7
  6
CONTINUOUS
 10
277.3052621595
 20
415.5018991299
 11
274.3731361595
 21
415.4910431299
  0
LINE
  5
284
100
AcDbEntity
  8
0
100
AcDbLine
 62
7
  6
CONTINUOUS
 10
277.2748571595
 20
415.5069081299
 11
274.3127371595
 21
415.4959411299
  0
LINE
  5
285
100
AcDbEntity
  8
0
100
AcDbLine
 62
7
  6
CONTINUOUS
 10
269.4294181595
 20
432.2875001299
 11
269.2455021595
 21
432.3145931299
  0
LINE
  5
286
100
AcDbEntity
  8
0
100
AcDbLine
 62
7
  6
CONTINUOUS
 10
274.3731361595
 20
415.4910431299
 11
498.1848441595
 21
378.6222011299
  0
LINE
  5
287
100
AcDbEntity
  8
0
100
AcDbLine
 62
7
  6
CONTINUOUS
 10
545.8174391595
 20
371.0776861299
 11
543.2263101595
 21
371.5045261299
  0
LINE
  5
288
100
AcDbEntity
  8
0
100
AcDbLine
 62
7
  6
CONTINUOUS
 10
531.0662491595
 20
373.5076721299
 11
522.3383751595
 21
374.9454281299
  0
LINE
  5
289
100
AcDbEntity
  8
0
100
AcDbLine
 62
7
  6
CONTINUOUS
 10
275.8733871595
 20
415.7377791299
 11
496.6908521595
 21
379.3621831299
  0
LINE
  5
28A
100
AcDbEntity
  8
0
100
AcDbLine
 62
7
  6
CONTINUOUS
 10
522.3740331595
 20
380.5619821299
 11
516.9081191595
 21
381.4623911299
  0
LINE
  5
28B
100
AcDbEntity
  8
0
100
AcDbLine
 62
7
  6
CONTINUOUS
 10
516.9427331595
 20
386.9156281299
 11
513.4327811595
 21
387.4938281299
  0
LINE
  5
28C
100
AcDbEntity
  8
0
100
AcDbLine
 62
7
  6
CONTINUOUS
 10
269.4294181595
 20
432.2875001299
 11
506.8400961595
 21
393.1784791299
  0
LINE
  5
28D
100
AcDbEntity
  8
0
100
AcDbLine
 62
7
  6
CONTINUOUS
 10
507.2801821595
 20
393.3368471299
 11
269.8695041595
 21
432.4458681299
  0
LINE
  5
28E
100
AcDbEntity
  8
0
100
AcDbLine
 62
7
  6
CONTINUOUS
 10
492.7485111595
 20
397.5986881299
 11
394.5192981595
 21
413.7801351299
  0
LINE
  5
28F
100
AcDbEntity
  8
0
100
AcDbLine
 62
7
  6
CONTINUOUS
 10
506.8400961595
 20
393.1784791299
 11
507.0229261595
 21
393.1451571299
  0
LINE
  5
290
100
AcDbEntity
  8
0
100
AcDbLine
 62
7
  6
CONTINUOUS
 10
545.8174391595
 20
371.0776861299
 11
544.9457131595
 21
233.6535841299
  0
LINE
  5
291
100
AcDbEntity
  8
0
100
AcDbLine
 62
7
  6
CONTINUOUS
 10
497.9129461595
 20
182.5677851299
 11
497.3493471595
 21
182.0189811299
  0
LINE
  5
292
100
AcDbEntity
  8
0
100
AcDbLine
 62
7
  6
CONTINUOUS
 10
497.2254061595
 20
181.6978621299
 11
497.9151221595
 21
182.3695191299
  0
LINE
  5
293
100
AcDbEntity
  8
0
100
AcDbLine
 62
7
  6
CONTINUOUS
 10
497.3863311595
 20
187.8494081299
 11
497.9389141595
 21
188.2024821299
  0
LINE
  5
294
100
AcDbEntity
  8
0
100
AcDbLine
 62
7
  6
CONTINUOUS
 10
497.4294251595
 20
194.6429731299
 11
497.9810801595
 21
194.8499031299
  0
LINE
  5
295
100
AcDbEntity
  8
0
100
AcDbLine
 62
7
  6
CONTINUOUS
 10
481.4967321595
 20
189.5047971299
 11
480.5528401595
 21
189.1651301299
  0
LINE
  5
296
100
AcDbEntity
  8
0
100
AcDbLine
 62
7
  6
CONTINUOUS
 10
515.6511501595
 20
183.3028001299
 11
512.6285031595
 21
182.2150751299
  0
LINE
  5
297
100
AcDbEntity
  8
0
100
AcDbLine
 62
7
  6
CONTINUOUS
 10
512.5694351595
 20
172.9012691299
 11
512.1293491595
 21
172.7429011299
  0
LWPOLYLINE
  5
298
100
AcDbEntity
  8
0
100
AcDbPolyline
 62
7
  6
CONTINUOUS
 90
43
 70
0
 10
508.1212222064
 20
166.3032596908
 10
508.2836955594
 20
166.3648342912
 10
508.4443070059
 20
166.4320257955
 10
508.6029872379
 20
166.5048247194
 10
508.7596670514
 20
166.5832240826
 10
508.9142759102
 20
166.6672187765
 10
509.0667041201
 20
166.7567824826
 10
509.2168157828
 20
166.8518674909
 10
509.3645345539
 20
166.9524587893
 10
509.5097783564
 20
167.0585392478
 10
509.652458243
 20
167.1700880012
 10
509.7924773031
 20
167.287078575
 10
509.9297296109
 20
167.4094767253
 10
510.0002667879
 20
167.475529762
 10
510.1330839213
 20
167.6060723904
 10
510.2628383161
 20
167.7419026413
 10
510.389411096
 20
167.8829666695
 10
510.5126745905
 20
168.0291976731
 10
510.6324938433
 20
168.1805154916
 10
510.7487282513
 20
168.3368265458
 10
510.8612333384
 20
168.4980241968
 10
510.9698626613
 20
168.6639896034
 10
511.0744698287
 20
168.8345931641
 10
511.1749106072
 20
169.0096966261
 10
511.271045071
 20
169.1891559448
 10
511.362739745
 20
169.3728249742
 10
511.38313015
 20
169.4155265447
 10
511.4691953194
 20
169.6041730967
 10
511.5505191993
 20
169.7966413307
 10
511.626968508
 20
169.9927298777
 10
511.6984157203
 20
170.1922276765
 10
511.7647397624
 20
170.3949146234
 10
511.8258267319
 20
170.6005625317
 10
511.8815706153
 20
170.8089364371
 10
511.9318739682
 20
171.0197962784
 10
511.9766485198
 20
171.2328989806
 10
512.0158156554
 20
171.4480009514
 10
512.0493067296
 20
171.6648609954
 10
512.0594410524
 20
171.7393403561
 10
512.0852268355
 20
171.9582055927
 10
512.1052130342
 20
172.178285229
 10
512.1193632459
 20
172.3993557377
 10
512.1249564319
 20
172.5300137868
  0
LINE
  5
299
100
AcDbEntity
  8
0
100
AcDbLine
 62
7
  6
CONTINUOUS
 10
508.5976101595
 20
166.4743051299
 11
508.1220981595
 21
166.3031891299
  0
ARC
  5
29A
100
AcDbEntity
  8
0
100
AcDbCircle
 62
7
  6
CONTINUOUS
 10
937.1835541595
 20
-352.9525328701
 40
850.534656
100
AcDbArc
 50
119.879219
 51
120.999624
  0
ARC
  5
29B
100
AcDbEntity
  8
0
100
AcDbCircle
 62
7
  6
CONTINUOUS
 10
747.2497901595
 20
202.2652671299
 40
306.828302
100
AcDbArc
 50
141.529986
 51
144.747047
  0
ARC
  5
29C
100
AcDbEntity
  8
0
100
AcDbCircle
 62
7
  6
CONTINUOUS
 10
641.8645601595
 20
350.5628241299
 40
220.290586
100
AcDbArc
 50
229.196122
 51
233.917685
  0
ARC
  5
29D
100
AcDbEntity
  8
0
100
AcDbCircle
 62
7
  6
CONTINUOUS
 10
664.9884701595
 20
282.7081711299
 40
197.532879
100
AcDbArc
 50
210.867729
 51
216.197356
  0
ARC
  5
29E
100
AcDbEntity
  8
0
100
AcDbCircle
 62
7
  6
CONTINUOUS
 10
517.7279151595
 20
507.1290531299
 40
129.487213
100
AcDbArc
 50
260.65003
 51
261.773979
  0
ARC
  5
29F
100
AcDbEntity
  8
0
100
AcDbCircle
 62
7
  6
CONTINUOUS
 10
294.4035921595
 20
528.5105461299
 40
114.28498
100
AcDbArc
 50
259.447412
 51
260.668852
  0
ARC
  5
2A0
100
AcDbEntity
  8
0
100
AcDbCircle
 62
7
  6
CONTINUOUS
 10
511.7780671595
 20
280.6323851299
 40
100.606643
100
AcDbArc
 50
260.65107
 51
262.097081
  0
ARC
  5
2A1
100
AcDbEntity
  8
0
100
AcDbCircle
 62
7
  6
CONTINUOUS
 10
289.0410001595
 20
305.5781031299
 40
89.016676
100
AcDbArc
 50
259.106156
 51
260.675117
  0
ARC
  5
2A2
100
AcDbEntity
  8
0
100
AcDbCircle
 62
7
  6
CONTINUOUS
 10
577.8756571595
 20
375.6108131299
 40
78.746382
100
AcDbArc
 50
177.552172
 51
179.643697
  0
ARC
  5
2A3
100
AcDbEntity
  8
0
100
AcDbCircle
 62
7
  6
CONTINUOUS
 10
573.3089021595
 20
183.3033971299
 40
75.399521
100
AcDbArc
 50
179.612046
 51
181.764903
  0
ARC
  5
2A4
100
AcDbEntity
  8
0
100
AcDbCircle
 62
7
  6
CONTINUOUS
 10
343.6605861595
 20
412.8503261299
 40
70.264769
100
AcDbArc
 50
177.30146
 51
179.644779
  0
ARC
  5
2A5
100
AcDbEntity
  8
0
100
AcDbCircle
 62
7
  6
CONTINUOUS
 10
339.5860511595
 20
220.5401551299
 40
67.410134
100
AcDbArc
 50
179.609682
 51
182.018671
  0
ARC
  5
2A6
100
AcDbEntity
  8
0
100
AcDbCircle
 62
7
  6
CONTINUOUS
 10
268.5106581595
 20
426.7875951299
 40
5.575204
100
AcDbArc
 50
82.426616
 51
109.644006
  0
ARC
  5
2A7
100
AcDbEntity
  8
0
100
AcDbCircle
 62
7
  6
CONTINUOUS
 10
463.9862401595
 20
195.2141041299
 40
2.888067
100
AcDbArc
 50
193.826234
 51
201.409078
  0
ARC
  5
2A8
100
AcDbEntity
  8
0
100
AcDbCircle
 62
7
  6
CONTINUOUS
 10
274.3137201595
 20
415.1329961299
 40
0.36294
100
AcDbArc
 50
80.577865
 51
90.135802
  0
ARC
  5
2A9
100
AcDbEntity
  8
0
100
AcDbCircle
 62
7
  6
CONTINUOUS
 10
353.6059551595
 20
205.5560751299
 40
0.331792
100
AcDbArc
 50
259.997311
 51
304.646389
  0
ARC
  5
2AA
100
AcDbEntity
  8
0
100
AcDbCircle
 62
7
  6
CONTINUOUS
 10
496.9945781595
 20
181.9341361299
 40
0.330386
100
AcDbArc
 50
259.642459
 51
314.308217
  0
ELLIPSE
  5
2AB
100
AcDbEntity
  8
0
100
AcDbEllipse
 62
7
  6
CONTINUOUS
 10
353.5501571595
 20
205.7221161299
 30
0.0
 11
-0.1616240293
 21
0.4805843532
 31
0.0
 40
0.801226
 41
3.3693294479
 42
4.3074964158
  0
ELLIPSE
  5
2AC
100
AcDbEntity
  8
0
100
AcDbEllipse
 62
7
  6
CONTINUOUS
 10
416.5146351595
 20
195.3498771299
 30
0.0
 11
0.1566751003
 21
-0.4810659289
 31
0.0
 40
0.804707
 41
4.3203334399
 42
5.8880991836
  0
ELLIPSE
  5
2AD
100
AcDbEntity
  8
0
100
AcDbEllipse
 62
7
  6
CONTINUOUS
 10
496.9254661595
 20
182.1036841299
 30
0.0
 11
-0.1942681074
 21
0.4754447639
 31
0.0
 40
0.792431
 41
3.451266506
 42
4.2289437004
  0
ELLIPSE
  5
2AE
100
AcDbEntity
  8
0
100
AcDbEllipse
 62
7
  6
CONTINUOUS
 10
498.1689351595
 20
378.1315661299
 30
0.0
 11
0.1448152065
 21
-0.4808155894
 31
0.0
 40
0.828988
 41
1.2149393383
 42
2.7555774092
  0
ELLIPSE
  5
2AF
100
AcDbEntity
  8
0
100
AcDbEllipse
 62
7
  6
CONTINUOUS
 10
274.3827911595
 20
414.9961941299
 30
0.0
 11
-0.1942681074
 21
0.4754447639
 31
0.0
 40
0.792431
 41
5.9728546544
 42
7.370536354
  0
ELLIPSE
  5
2B0
100
AcDbEntity
  8
0
100
AcDbEllipse
 62
7
  6
CONTINUOUS
 10
273.1393221595
 20
218.9683081299
 30
0.0
 11
0.1448152065
 21
-0.4808155894
 31
0.0
 40
0.828988
 41
4.3565319936
 42
5.8971700623
  0
ELLIPSE
  5
2B1
100
AcDbEntity
  8
0
100
AcDbEllipse
 62
7
  6
CONTINUOUS
 10
456.7840991595
 20
197.9382111299
 30
0.0
 11
-5.0790195465
 21
14.113948822
 31
0.0
 40
0.811291
 41
4.1537978737
 42
7.5628537062
  0
ELLIPSE
  5
2B2
100
AcDbEntity
  8
0
100
AcDbEllipse
 62
7
  6
CONTINUOUS
 10
480.5620741595
 20
190.6208961299
 30
0.0
 11
-0.507901907
 21
1.4113949537
 31
0.0
 40
0.811291
 41
2.7167331363
 42
5.8583257899
  0
ELLIPSE
  5
2B3
100
AcDbEntity
  8
0
100
AcDbEllipse
 62
7
  6
CONTINUOUS
 10
456.7630841595
 20
194.6485381299
 30
0.0
 11
1.7127902508
 21
-4.7596263885
 31
0.0
 40
0.811291
 41
5.8583611844
 42
6.9477429127
  0
ELLIPSE
  5
2B4
100
AcDbEntity
  8
0
100
AcDbEllipse
 62
7
  6
CONTINUOUS
 10
456.7633781595
 20
194.6484921299
 30
0.0
 11
1.7127902508
 21
-4.7596263885
 31
0.0
 40
0.811291
 41
4.7689090826
 42
5.8582899974
  0
ELLIPSE
  5
2B5
100
AcDbEntity
  8
0
100
AcDbEllipse
 62
7
  6
CONTINUOUS
 10
432.9630291595
 20
198.4619531299
 30
0.0
 11
-0.507901907
 21
1.4113949537
 31
0.0
 40
0.811291
 41
5.8583257899
 42
8.9999184435
  0
ELLIPSE
  5
2B6
100
AcDbEntity
  8
0
100
AcDbEllipse
 62
7
  6
CONTINUOUS
 10
458.4344221595
 20
198.5320901299
 30
0.0
 11
-5.0790195465
 21
14.113948822
 31
0.0
 40
0.811291
 41
1.279668399
 42
1.4168991483
  0
ELLIPSE
  5
2B7
100
AcDbEntity
  8
0
100
AcDbEllipse
 62
7
  6
CONTINUOUS
 10
460.9099121595
 20
199.4229141299
 30
0.0
 11
-5.0790195465
 21
14.113948822
 31
0.0
 40
0.811291
 41
0.1811471987
 42
1.485773719
  0
ELLIPSE
  5
2B8
100
AcDbEntity
  8
0
100
AcDbEllipse
 62
7
  6
CONTINUOUS
 10
458.4344221595
 20
198.5320901299
 30
0.0
 11
-5.0790195465
 21
14.113948822
 31
0.0
 40
0.811291
 41
4.0165671503
 42
4.093574472
  0
ELLIPSE
  5
2B9
100
AcDbEntity
  8
0
100
AcDbEllipse
 62
7
  6
CONTINUOUS
 10
460.8888961595
 20
196.1332411299
 30
0.0
 11
1.6684628725
 21
-4.636446476
 31
0.0
 40
0.811291
 41
0.813014695
 42
1.4313349729
  0
ELLIPSE
  5
2BA
100
AcDbEntity
  8
0
100
AcDbEllipse
 62
7
  6
CONTINUOUS
 10
461.7563431595
 20
196.4452451299
 30
0.0
 11
-1.6591463089
 21
4.6105566025
 31
0.0
 40
0.811291
 41
1.2970483155
 42
1.6648609324
  0
ELLIPSE
  5
2BB
100
AcDbEntity
  8
0
100
AcDbEllipse
 62
7
  6
CONTINUOUS
 10
461.3162571595
 20
196.2868811299
 30
0.0
 11
-1.6638746262
 21
4.6236958504
 31
0.0
 40
0.811291
 41
1.0440095653
 42
1.2478640538
  0
ELLIPSE
  5
2BC
100
AcDbEntity
  8
0
100
AcDbEllipse
 62
7
  6
CONTINUOUS
 10
461.7563431595
 20
196.4452451299
 30
0.0
 11
-1.6591463089
 21
4.6105566025
 31
0.0
 40
0.811291
 41
0.0917511078
 42
1.0437180784
  0
ELLIPSE
  5
2BD
100
AcDbEntity
  8
0
100
AcDbEllipse
 62
7
  6
CONTINUOUS
 10
435.1634641595
 20
199.2538001299
 30
0.0
 11
0.507901907
 21
-1.4113949537
 31
0.0
 40
0.811291
 41
4.0778786561
 42
4.7839275069
  0
ELLIPSE
  5
2BE
100
AcDbEntity
  8
0
100
AcDbEllipse
 62
7
  6
CONTINUOUS
 10
478.1696181595
 20
192.1693351299
 30
0.0
 11
0.507901907
 21
-1.4113949537
 31
0.0
 40
0.811291
 41
4.0778786561
 42
4.508835835
  0
ELLIPSE
  5
2BF
100
AcDbEntity
  8
0
100
AcDbEllipse
 62
7
  6
CONTINUOUS
 10
439.2062431595
 20
198.2992491299
 30
0.0
 11
-0.507901907
 21
1.4113949537
 31
0.0
 40
0.811291
 41
3.936486736
 42
4.7055428187
  0
ELLIPSE
  5
2C0
100
AcDbEntity
  8
0
100
AcDbEllipse
 62
7
  6
CONTINUOUS
 10
460.8891901595
 20
196.1331951299
 30
0.0
 11
-1.6684628725
 21
4.636446476
 31
0.0
 40
0.811291
 41
5.8583615346
 42
7.7620442314
  0
ELLIPSE
  5
2C1
100
AcDbEntity
  8
0
100
AcDbEllipse
 62
7
  6
CONTINUOUS
 10
460.8888961595
 20
196.1332411299
 30
0.0
 11
-1.6684628725
 21
4.636446476
 31
0.0
 40
0.811291
 41
4.5729276264
 42
5.8582900453
  0
ELLIPSE
  5
2C2
100
AcDbEntity
  8
0
100
AcDbEllipse
 62
7
  6
CONTINUOUS
 10
477.6195081595
 20
191.9713681299
 30
0.0
 11
-0.507901907
 21
1.4113949537
 31
0.0
 40
0.811291
 41
0.7275045648
 42
1.2601624306
  0
ELLIPSE
  5
2C3
100
AcDbEntity
  8
0
100
AcDbEllipse
 62
7
  6
CONTINUOUS
 10
461.7563431595
 20
196.4452451299
 30
0.0
 11
1.4219540358
 21
-3.9514296055
 31
0.0
 40
0.811291
 41
3.280829869
 42
3.3022369617
  0
ELLIPSE
  5
2C4
100
AcDbEntity
  8
0
100
AcDbEllipse
 62
7
  6
CONTINUOUS
 10
461.3159611595
 20
196.2869271299
 30
0.0
 11
-1.421954155
 21
3.9514298439
 31
0.0
 40
0.811291
 41
4.1681843935
 42
4.4068745328
  0
ELLIPSE
  5
2C5
100
AcDbEntity
  8
0
100
AcDbEllipse
 62
7
  6
CONTINUOUS
 10
461.7563431595
 20
196.4452451299
 30
0.0
 11
-1.4219540358
 21
3.9514296055
 31
0.0
 40
0.811291
 41
6.4438296138
 42
8.0462235347
  0
ELLIPSE
  5
2C6
100
AcDbEntity
  8
0
100
AcDbEllipse
 62
7
  6
CONTINUOUS
 10
461.3162571595
 20
196.2868811299
 30
0.0
 11
-1.4219540358
 21
3.9514296055
 31
0.0
 40
0.811291
 41
1.0265917349
 42
1.2652818841
  0
ELLIPSE
  5
2C7
100
AcDbEntity
  8
0
100
AcDbEllipse
 62
7
  6
CONTINUOUS
 10
464.8919561595
 20
197.5736251299
 30
0.0
 11
-1.3882652521
 21
3.8578128815
 31
0.0
 40
0.811291
 41
0.6762337782
 42
1.9667602012
  0
ELLIPSE
  5
2C8
100
AcDbEntity
  8
0
100
AcDbEllipse
 62
7
  6
CONTINUOUS
 10
354.6177921595
 20
221.6042721299
 30
0.0
 11
-0.1625408828
 21
-0.9867017865
 31
0.0
 40
0.532666
 41
4.4419511608
 42
5.0011275495
  0
ELLIPSE
  5
2C9
100
AcDbEntity
  8
0
100
AcDbEllipse
 62
7
  6
CONTINUOUS
 10
414.4206901595
 20
194.7157981299
 30
0.0
 11
-0.6772025824
 21
1.8818598986
 31
0.0
 40
0.811291
 41
8.9999184435
 42
10.5707147703
  0
ELLIPSE
  5
2CA
100
AcDbEntity
  8
0
100
AcDbEllipse
 62
7
  6
CONTINUOUS
 10
355.6316921595
 20
204.4002011299
 30
0.0
 11
-0.6772025824
 21
1.8818598986
 31
0.0
 40
0.811291
 41
1.1459368095
 42
2.7167331363
  0
ELLIPSE
  5
2CB
100
AcDbEntity
  8
0
100
AcDbEllipse
 62
7
  6
CONTINUOUS
 10
504.3195551595
 20
177.9089981299
 30
0.0
 11
3.56285882
 21
-11.6850328445
 31
0.0
 40
0.6466
 41
5.9943091866
 42
6.3150370049
  0
ELLIPSE
  5
2CC
100
AcDbEntity
  8
0
100
AcDbEllipse
 62
7
  6
CONTINUOUS
 10
324.6224381595
 20
242.0954601299
 30
0.0
 11
-61.515209198
 21
-70.7773590088
 31
0.0
 40
0.276992
 41
5.2898038141
 42
5.4797770257
  0
ELLIPSE
  5
2CD
100
AcDbEntity
  8
0
100
AcDbEllipse
 62
7
  6
CONTINUOUS
 10
323.0322201595
 20
241.2543271299
 30
0.0
 11
79.6216659546
 21
43.6366539001
 31
0.0
 40
0.09181
 41
2.21228829
 42
2.4050408114
  0
ELLIPSE
  5
2CE
100
AcDbEntity
  8
0
100
AcDbEllipse
 62
7
  6
CONTINUOUS
 10
324.1812991595
 20
421.7484601299
 30
0.0
 11
75.3737411499
 21
-56.7744483948
 31
0.0
 40
0.426725
 41
4.1342613168
 42
4.3270068273
  0
ELLIPSE
  5
2CF
100
AcDbEntity
  8
0
100
AcDbEllipse
 62
7
  6
CONTINUOUS
 10
325.3264171595
 20
421.7266321299
 30
0.0
 11
48.9248352051
 21
-83.8234024048
 31
0.0
 40
0.481235
 41
4.3166557434
 42
4.5074028488
  0
ELLIPSE
  5
2D0
100
AcDbEntity
  8
0
100
AcDbEllipse
 62
7
  6
CONTINUOUS
 10
465.8948741595
 20
197.9346861299
 30
0.0
 11
1.5180065632
 21
-4.2183475494
 31
0.0
 40
0.811291
 41
3.9900542963
 42
5.1982094968
  0
ELLIPSE
  5
2D1
100
AcDbEntity
  8
0
100
AcDbEllipse
 62
7
  6
CONTINUOUS
 10
538.8752681595
 20
370.4725391299
 30
0.0
 11
1.8623070717
 21
-5.1751146317
 31
0.0
 40
0.811291
 41
1.4793527198
 42
3.1415920028
  0
ELLIPSE
  5
2D2
100
AcDbEntity
  8
0
100
AcDbEllipse
 62
7
  6
CONTINUOUS
 10
538.0257051595
 20
236.5422681299
 30
0.0
 11
-1.8623070717
 21
5.1751146317
 31
0.0
 40
0.811291
 41
3.1415920028
 42
3.5325393209
  0
ELLIPSE
  5
2D3
100
AcDbEntity
  8
0
100
AcDbEllipse
 62
7
  6
CONTINUOUS
 10
505.8888681595
 20
174.0017711299
 30
0.0
 11
-2.7088103294
 21
7.5274395943
 31
0.0
 40
0.811291
 41
3.1415814796
 42
4.2875294631
  0
ELLIPSE
  5
2D4
100
AcDbEntity
  8
0
100
AcDbEllipse
 62
7
  6
CONTINUOUS
 10
507.2309361595
 20
385.5727701299
 30
0.0
 11
-2.7088103294
 21
7.5274395943
 31
0.0
 40
0.811291
 41
4.2875294631
 42
5.8583257899
  0
ELLIPSE
  5
2D5
100
AcDbEntity
  8
0
100
AcDbEllipse
 62
7
  6
CONTINUOUS
 10
269.8202611595
 20
424.6817941299
 30
0.0
 11
-2.7088103294
 21
7.5274395943
 31
0.0
 40
0.811291
 41
5.8583257899
 42
6.2831741332
  0
ELLIPSE
  5
2D6
100
AcDbEntity
  8
0
100
AcDbEllipse
 62
7
  6
CONTINUOUS
 10
435.6008511595
 20
198.2804271299
 30
0.0
 11
0.4232515991
 21
-1.1761624813
 31
0.0
 40
0.811291
 41
2.8463985091
 42
3.1417091252
  0
ELLIPSE
  5
2D7
100
AcDbEntity
  8
0
100
AcDbEllipse
 62
7
  6
CONTINUOUS
 10
435.6008511595
 20
198.2804271299
 30
0.0
 11
0.4232515991
 21
-1.1761624813
 31
0.0
 40
0.811291
 41
1.2436110838
 42
2.588211953
  0
ELLIPSE
  5
2D8
100
AcDbEntity
  8
0
100
AcDbEllipse
 62
7
  6
CONTINUOUS
 10
436.7407041595
 20
196.9383331299
 30
0.0
 11
0.203176111
 21
1.2333772182
 31
0.0
 40
0.532666
 41
6.2831667714
 42
9.424759425
  0
ELLIPSE
  5
2D9
100
AcDbEntity
  8
0
100
AcDbEllipse
 62
7
  6
CONTINUOUS
 10
473.3168121595
 20
190.9130871299
 30
0.0
 11
0.203176111
 21
1.2333772182
 31
0.0
 40
0.532666
 41
6.2831667714
 42
9.424759425
  0
ELLIPSE
  5
2DA
100
AcDbEntity
  8
0
100
AcDbEllipse
 62
7
  6
CONTINUOUS
 10
478.8575261595
 20
191.1546791299
 30
0.0
 11
-0.4232515991
 21
1.1761624813
 31
0.0
 40
0.811291
 41
3.1417091252
 42
5.7298046066
  0
ELLIPSE
  5
2DB
100
AcDbEntity
  8
0
100
AcDbEllipse
 62
7
  6
CONTINUOUS
 10
478.8575261595
 20
191.1546791299
 30
0.0
 11
-0.4232515991
 21
1.1761624813
 31
0.0
 40
0.811291
 41
5.9879911627
 42
6.2833017788
  0
ENDSEC
  0
SECTION
  2
OBJECTS
  0
DICTIONARY
  5
C
100
AcDbDictionary
280
0
281
1
  3
ACAD_GROUP
350
D
  3
ACAD_MLINESTYLE
350
17
  3
ACAD_LAYOUT
350
1A
  3
ACAD_PLOTSETTINGS
350
19
  3
ACAD_PLOTSTYLENAME
350
E
  0
DICTIONARY
  5
D
102
{ACAD_REACTORS
330
C
102
}
100
AcDbDictionary
280
0
281
1
  0
ACDBDICTIONARYWDFLT
  5
E
102
{ACAD_REACTORS
330
C
102
}
100
AcDbDictionary
281
1
  3
Normal
350
F
100
AcDbDictionaryWithDefault
340
F
  0
DICTIONARY
  5
17
102
{ACAD_REACTORS
330
C
102
}
100
AcDbDictionary
280
0
281
1
  3
Standard
350
18
  0
DICTIONARY
  5
19
102
{ACAD_REACTORS
330
C
102
}
100
AcDbDictionary
281
1
  0
DICTIONARY
  5
1A
102
{ACAD_REACTORS
330
C
102
}
100
AcDbDictionary
281
1
  3
Model
350
2DC
  3
Layout1
350
2DD
  0
ACDBPLACEHOLDER
  5
F
102
{ACAD_REACTORS
330
E
102
}
  0
MLINESTYLE
  5
18
102
{ACAD_REACTORS
330
17
102
}
100
AcDbMlineStyle
  2
STANDARD
 70
0
  3

 62
256
 51
90.0
 52
90.0
 71
2
 49
0.5
 62
256
  6
BYLAYER
 49
-0.5
 62
256
  6
BYLAYER
  0
LAYOUT
  5
2DC
102
{ACAD_REACTORS
330
1A
102
}
100
AcDbPlotSettings
  1

  2
none_device
  4
ISO_A1_(594.00_x_841.00_MM)
  6

 40
0.0
 41
0.0
 42
0.0
 43
0.0
 44
841.0
 45
594.0
 46
0.0
 47
0.0
 48
0.0
 49
0.0
140
0.0
141
0.0
142
1.0
143
1.0
 70
1024
 72
1
 73
0
 74
0
  7

 75
0
147
1.0
148
0.0
149
0.0
100
AcDbLayout
  1
Model
 70
0
 71
0
 10
0.0
 20
0.0
 11
841.0
 21
594.0
 12
0.0
 22
0.0
 32
0.0
 14
0.0
 24
0.0
 34
0.0
 15
0.0
 25
0.0
 35
0.0
146
0.0
 13
0.0
 23
0.0
 33
0.0
 16
1.0
 26
0.0
 36
0.0
 17
0.0
 27
1.0
 37
0.0
 76
0
330
210
345
0
346
0
  0
LAYOUT
  5
2DD
102
{ACAD_REACTORS
330
1A
102
}
100
AcDbPlotSettings
  1

  2
none_device
  4
ISO_A1_(594.00_x_841.00_MM)
  6

 40
0.0
 41
0.0
 42
0.0
 43
0.0
 44
841.0
 45
594.0
 46
0.0
 47
0.0
 48
0.0
 49
0.0
140
0.0
141
0.0
142
1.0
143
1.0
 70
0
 72
1
 73
0
 74
0
  7

 75
0
147
1.0
148
0.0
149
0.0
100
AcDbLayout
  1
Layout1
 70
0
 71
1
 10
0.0
 20
0.0
 11
841.0
 21
594.0
 12
0.0
 22
0.0
 32
0.0
 14
0.0
 24
0.0
 34
0.0
 15
0.0
 25
0.0
 35
0.0
146
0.0
 13
0.0
 23
0.0
 33
0.0
 16
1.0
 26
0.0
 36
0.0
 17
0.0
 27
1.0
 37
0.0
 76
0
330
211
345
0
346
0
  0
ENDSEC
  0
EOF
