  0
SECTION
  2
HEADER
  9
$ACADVER
  1
AC1024
  9
$DWGCODEPAGE
  3
ANSI_1252
  9
$EXTMAX
 10
841.0
 20
594.0
 30
0.0
  9
$EXTMIN
 10
0.0
 20
0.0
 30
0.0
  9
$LIMMIN
 10
0.0
 20
0.0
  9
$LIMMAX
 10
841.0
 20
594.0
  9
$VIEWCTR
 10
420.5
 20
297.0
  9
$VIEWSIZE
 40
594.0
  9
$CLAYER
  8
0
  9
$LTSCALE
 40
46.255
  9
$CELTYPE
  6
BYLAYER
  9
$DIMSCALE
 40
1.0
  9
$DIMASZ
 40
3.0
  9
$DIMEXO
 40
0.5
  9
$DIMDLI
 40
31.958
  9
$DIMEXE
 40
1.5
  9
$DIMCEN
 40
7.569
  9
$DIMLFAC
 40
1.0
  9
$DIMBLK
  1
_FILLED
  9
$DIMALT
 70
0
  9
$DIMALTF
 40
0.0393700787
  9
$DIMTXT
 40
3.0
  9
$DIMTOL
 70
1
  9
$DIMLIM
 70
0
  9
$DIMTFAC
 40
1.0
  9
$DIMTP
 40
0.01
  9
$DIMTM
 40
0.01
  9
$DIMGAP
 40
0.625
  9
$DIMDSEP
 70
44
  9
$AUNITS
 70
0
  9
$PDMODE
 70
3
  9
$PDSIZE
 40
3.0
  9
$HANDSEED
  5
390
  9
$TILEMODE
 70
1
  9
$MEASUREMENT
 70
1
  9
$INSUNITS
 70
4
  0
ENDSEC
  0
SECTION
  2
CLASSES
  0
CLASS
  1
ACDBDICTIONARYWDFLT
  2
AcDbDictionaryWithDefault
  3
AutoCAD 2000
 90
0
 91
1
280
0
281
0
  0
CLASS
  1
ACDBPLACEHOLDER
  2
AcDbPlaceHolder
  3
AutoCAD 2000
 90
0
 91
1
280
0
281
0
  0
CLASS
  1
LAYOUT
  2
AcDbLayout
  3
AutoCAD 2000
 90
0
 91
0
280
0
281
0
  0
ENDSEC
  0
SECTION
  2
TABLES
  0
TABLE
  2
VPORT
  5
8
100
AcDbSymbolTable
 70
2
  0
VPORT
  5
1F4
100
AcDbSymbolTableRecord
100
AcDbViewportTableRecord
  2
*ACTIVE
 70
0
 10
0.0
 20
0.0
 11
1.0
 21
1.0
 12
420.5
 22
297.0
 13
0.0
 23
0.0
 14
1.0
 24
1.0
 15
0.0
 25
0.0
 16
0.0
 26
0.0
 36
1.0
 17
0.0
 27
0.0
 37
0.0
 40
594.0
 41
1.4158249158
 42
50.0
 43
0.0
 44
0.0
 50
0.0
 51
0.0
 71
0
 72
100
 73
1
 74
1
 75
0
 76
0
 77
0
 78
0
  0
ENDTAB
  0
TABLE
  2
LTYPE
  5
5
100
AcDbSymbolTable
 70
6
  0
LTYPE
  5
14
100
AcDbSymbolTableRecord
100
AcDbLinetypeTableRecord
  2
BYBLOCK
 70
0
  3

 72
65
 73
0
 40
0.0
  0
LTYPE
  5
15
100
AcDbSymbolTableRecord
100
AcDbLinetypeTableRecord
  2
BYLAYER
 70
0
  3

 72
65
 73
0
 40
0.0
  0
LTYPE
  5
16
100
AcDbSymbolTableRecord
100
AcDbLinetypeTableRecord
  2
CONTINUOUS
 70
64
  3
Solid line
 72
65
 73
0
 40
0.0
  0
LTYPE
  5
1F5
100
AcDbSymbolTableRecord
100
AcDbLinetypeTableRecord
  2
CENTER
 70
64
  3
____ _ ____ _ ____ _ ____ _ ____ _ ____ _ ____
 72
65
 73
4
 40
0.6
 49
0.375
 74
0
 49
-0.075
 74
0
 49
0.075
 74
0
 49
-0.075
 74
0
  0
LTYPE
  5
1F6
100
AcDbSymbolTableRecord
100
AcDbLinetypeTableRecord
  2
HIDDEN
 70
64
  3
- - - - - - - - - - - - - - - - - - - -
 72
65
 73
2
 40
0.2
 49
0.1
 74
0
 49
-0.1
 74
0
  0
LTYPE
  5
1F7
100
AcDbSymbolTableRecord
100
AcDbLinetypeTableRecord
  2
PHANTOM
 70
64
  3
_____ _ _ _____ _ _ _____ _ _ _____
 72
65
 73
6
 40
0.8
 49
0.45
 74
0
 49
-0.05
 74
0
 49
0.1
 74
0
 49
-0.05
 74
0
 49
0.1
 74
0
 49
-0.05
 74
0
  0
LTYPE
  5
1F8
100
AcDbSymbolTableRecord
100
AcDbLinetypeTableRecord
  2
DOT
 70
64
  3
. . . . . . . . . . . . . . . . . . . .
 72
65
 73
2
 40
0.2
 49
0.1
 74
0
 49
-0.1
 74
0
  0
LTYPE
  5
1F9
100
AcDbSymbolTableRecord
100
AcDbLinetypeTableRecord
  2
DASHED
 70
64
  3
- - - - - - - - - - - - - - - - - - - -
 72
65
 73
2
 40
0.2
 49
0.1
 74
0
 49
-0.1
 74
0
  0
ENDTAB
  0
TABLE
  2
LAYER
  5
2
100
AcDbSymbolTable
 70
36
  0
LAYER
  5
10
100
AcDbSymbolTableRecord
100
AcDbLayerTableRecord
  2
0
 70
0
 62
7
  6
CONTINUOUS
370
-3
390
F
  0
LAYER
  5
1FA
100
AcDbSymbolTableRecord
100
AcDbLayerTableRecord
  2
DEFAULT_1
 70
0
 62
7
  6
CENTER
370
-3
390
F
  0
LAYER
  5
1FB
100
AcDbSymbolTableRecord
100
AcDbLayerTableRecord
  2
DEFAULT_2
 70
0
 62
7
  6
HIDDEN
370
-3
390
F
  0
LAYER
  5
1FC
100
AcDbSymbolTableRecord
100
AcDbLayerTableRecord
  2
DEFAULT_3
 70
0
 62
7
  6
PHANTOM
370
-3
390
F
  0
LAYER
  5
1FD
100
AcDbSymbolTableRecord
100
AcDbLayerTableRecord
  2
ASSI
 70
0
 62
7
  6
CONTINUOUS
370
-3
390
F
  0
LAYER
  5
1FE
100
AcDbSymbolTableRecord
100
AcDbLayerTableRecord
  2
CLOSED_SHELL
 70
0
 62
7
  6
CONTINUOUS
370
-3
390
F
  0
LAYER
  5
1FF
100
AcDbSymbolTableRecord
100
AcDbLayerTableRecord
  2
COORDINATE
 70
0
 62
7
  6
CONTINUOUS
370
-3
390
F
  0
LAYER
  5
200
100
AcDbSymbolTableRecord
100
AcDbLayerTableRecord
  2
COPY_PUBLISH
 70
0
 62
7
  6
CONTINUOUS
370
-3
390
F
  0
LAYER
  5
201
100
AcDbSymbolTableRecord
100
AcDbLayerTableRecord
  2
COSMETICI
 70
0
 62
7
  6
CONTINUOUS
370
-3
390
F
  0
LAYER
  5
202
100
AcDbSymbolTableRecord
100
AcDbLayerTableRecord
  2
CURVE
 70
0
 62
7
  6
CONTINUOUS
370
-3
390
F
  0
LAYER
  5
203
100
AcDbSymbolTableRecord
100
AcDbLayerTableRecord
  2
DRAFT
 70
0
 62
7
  6
CONTINUOUS
370
-3
390
F
  0
LAYER
  5
204
100
AcDbSymbolTableRecord
100
AcDbLayerTableRecord
  2
GENERAL
 70
0
 62
7
  6
CONTINUOUS
370
-3
390
F
  0
LAYER
  5
205
100
AcDbSymbolTableRecord
100
AcDbLayerTableRecord
  2
IMPORT_IGES
 70
0
 62
7
  6
CONTINUOUS
370
-3
390
F
  0
LAYER
  5
206
100
AcDbSymbolTableRecord
100
AcDbLayerTableRecord
  2
NOTE
 70
0
 62
7
  6
CONTINUOUS
370
-3
390
F
  0
LAYER
  5
207
100
AcDbSymbolTableRecord
100
AcDbLayerTableRecord
  2
PIANI
 70
0
 62
7
  6
CONTINUOUS
370
-3
390
F
  0
LAYER
  5
208
100
AcDbSymbolTableRecord
100
AcDbLayerTableRecord
  2
PUNTI
 70
0
 62
7
  6
CONTINUOUS
370
-3
390
F
  0
LAYER
  5
209
100
AcDbSymbolTableRecord
100
AcDbLayerTableRecord
  2
RACCORDO
 70
0
 62
7
  6
CONTINUOUS
370
-3
390
F
  0
LAYER
  5
20A
100
AcDbSymbolTableRecord
100
AcDbLayerTableRecord
  2
SIMBOLI
 70
0
 62
7
  6
CONTINUOUS
370
-3
390
F
  0
LAYER
  5
20B
100
AcDbSymbolTableRecord
100
AcDbLayerTableRecord
  2
SMUSSO
 70
0
 62
7
  6
CONTINUOUS
370
-3
390
F
  0
LAYER
  5
20C
100
AcDbSymbolTableRecord
100
AcDbLayerTableRecord
  2
SUPERFICI
 70
0
 62
7
  6
CONTINUOUS
370
-3
390
F
  0
LAYER
  5
20D
100
AcDbSymbolTableRecord
100
AcDbLayerTableRecord
  2
TRASH
 70
0
 62
7
  6
CONTINUOUS
370
-3
390
F
  0
ENDTAB
  0
TABLE
  2
STYLE
  5
3
100
AcDbSymbolTable
 70
1
  0
STYLE
  5
11
100
AcDbSymbolTableRecord
100
AcDbTextStyleTableRecord
  2
STANDARD
 70
0
 40
0.0
 41
0.8
 50
0.0
 71
0
 42
0.2
  3
txt
  4

  0
STYLE
  5
20E
100
AcDbSymbolTableRecord
100
AcDbTextStyleTableRecord
  2
TEXTSTYLE_1
 70
0
 40
0.0
 41
0.8
 50
0.0
 71
0
 42
0.2
  3
gdt
  4

  0
ENDTAB
  0
TABLE
  2
VIEW
  5
6
100
AcDbSymbolTable
 70
0
  0
ENDTAB
  0
TABLE
  2
UCS
  5
7
100
AcDbSymbolTable
 70
0
  0
ENDTAB
  0
TABLE
  2
APPID
  5
9
100
AcDbSymbolTable
 70
1
  0
APPID
  5
20F
100
AcDbSymbolTableRecord
100
AcDbRegAppTableRecord
  2
ACAD
 70
0
  0
ENDTAB
  0
TABLE
  2
BLOCK_RECORD
  5
1
100
AcDbSymbolTable
 70
0
  0
BLOCK_RECORD
  5
210
100
AcDbSymbolTableRecord
100
AcDbBlockTableRecord
  2
*Model_Space
  0
BLOCK_RECORD
  5
211
100
AcDbSymbolTableRecord
100
AcDbBlockTableRecord
  2
*Paper_Space
  0
BLOCK_RECORD
  5
212
100
AcDbSymbolTableRecord
100
AcDbBlockTableRecord
  2
_FILLED
  0
ENDTAB
  0
TABLE
  2
DIMSTYLE
  5
A
100
AcDbSymbolTable
 70
1
100
AcDbDimStyleTable
 71
0
  0
DIMSTYLE
105
213
100
AcDbSymbolTableRecord
100
AcDbDimStyleTableRecord
  2
STANDARD
 70
0
  3

  4

 40
1.0
 41
3.0
 42
0.5
 43
0.38
 44
1.5
 45
0.0
 46
0.0
 47
0.01
 48
0.01
140
3.0
141
0.09
142
0.0
143
25.4
144
1.0
145
0.0
146
1.0
147
0.625
 71
1
 72
0
 73
0
 74
0
 75
0
 76
0
 77
1
 78
8
 79
2
170
0
171
1
172
0
173
0
174
0
175
0
176
0
177
0
178
0
270
2
179
2
271
2
272
2
273
2
274
2
275
0
280
0
281
0
282
0
283
1
284
8
285
0
286
0
287
3
288
0
340
11
278
44
341
212
342
212
343
212
344
212
  0
ENDTAB
  0
ENDSEC
  0
SECTION
  2
BLOCKS
  0
BLOCK
  5
20
100
AcDbEntity
  8
0
100
AcDbBlockBegin
  2
*Model_Space
 70
0
 10
0.0
 20
0.0
 30
0.0
  3
*Model_Space
  1

  0
ENDBLK
  5
21
100
AcDbEntity
  8
0
100
AcDbBlockEnd
  0
BLOCK
  5
1C
100
AcDbEntity
  8
0
100
AcDbBlockBegin
  2
*Paper_Space
 70
0
 10
0.0
 20
0.0
 30
0.0
  3
*Paper_Space
  1

  0
ENDBLK
  5
1D
100
AcDbEntity
  8
0
100
AcDbBlockEnd
  0
BLOCK
  5
214
100
AcDbEntity
  8
0
100
AcDbBlockBegin
  2
_FILLED
 70
64
 10
0.0
 20
0.0
  3
_FILLED
  1

  0
SOLID
  5
215
100
AcDbEntity
  8
0
  6
BYBLOCK
 62
0
100
AcDbTrace
 10
0.0
 20
0.0
 11
-1.0
 21
0.3166666667
 12
-1.0
 22
-0.3166666667
 13
-1.0
 23
-0.3166666667
  0
ENDBLK
  5
216
100
AcDbEntity
  8
0
  6
BYBLOCK
 62
0
100
AcDbBlockEnd
  0
ENDSEC
  0
SECTION
  2
ENTITIES
  0
LINE
  5
217
100
AcDbEntity
  8
0
100
AcDbLine
 62
7
  6
CONTINUOUS
 10
251.5698560115
 20
469.7431390863
 11
251.2376090115
 21
469.6388870863
  0
LINE
  5
218
100
AcDbEntity
  8
0
100
AcDbLine
 62
7
  6
CONTINUOUS
 10
253.8901970115
 20
469.9638660863
 11
253.6254650115
 21
469.8807990863
  0
LINE
  5
219
100
AcDbEntity
  8
0
100
AcDbLine
 62
7
  6
CONTINUOUS
 10
259.1510240115
 20
451.3334910863
 11
259.0165210115
 21
451.2912870863
  0
LINE
  5
21A
100
AcDbEntity
  8
0
100
AcDbLine
 62
7
  6
CONTINUOUS
 10
259.2218690115
 20
451.3240110863
 11
259.1614900115
 21
451.3050660863
  0
LINE
  5
21B
100
AcDbEntity
  8
0
100
AcDbLine
 62
7
  6
CONTINUOUS
 10
287.0423490115
 20
442.1158150863
 11
286.3795970115
 21
441.9078590863
  0
LINE
  5
21C
100
AcDbEntity
  8
0
100
AcDbLine
 62
7
  6
CONTINUOUS
 10
246.9140380115
 20
462.7700070863
 11
249.6205500115
 21
178.6601930863
  0
LINE
  5
21D
100
AcDbEntity
  8
0
100
AcDbLine
 62
7
  6
CONTINUOUS
 10
258.2263650115
 20
274.7793950863
 11
257.3753480115
 21
364.1130330863
  0
LINE
  5
21E
100
AcDbEntity
  8
0
100
AcDbLine
 62
7
  6
CONTINUOUS
 10
260.6217660115
 20
186.3017330863
 11
258.0956310115
 21
451.4769810863
  0
LINE
  5
21F
100
AcDbEntity
  8
0
100
AcDbLine
 62
7
  6
CONTINUOUS
 10
261.2504260115
 20
187.5470370863
 11
260.4404330115
 21
272.5741560863
  0
LINE
  5
220
100
AcDbEntity
  8
0
100
AcDbLine
 62
7
  6
CONTINUOUS
 10
259.5519790115
 20
365.8375710863
 11
258.7420250115
 21
450.8606410863
  0
LINE
  5
221
100
AcDbEntity
  8
0
100
AcDbLine
 62
7
  6
CONTINUOUS
 10
506.2174280115
 20
142.7219610863
 11
256.4816110115
 21
170.0634620863
  0
LINE
  5
222
100
AcDbEntity
  8
0
100
AcDbLine
 62
7
  6
CONTINUOUS
 10
280.3115800115
 20
270.3986290863
 11
279.4231260115
 21
363.6620440863
  0
LINE
  5
223
100
AcDbEntity
  8
0
100
AcDbLine
 62
7
  6
CONTINUOUS
 10
281.8765820115
 20
443.3201810863
 11
284.0873720115
 21
211.2475050863
  0
LINE
  5
224
100
AcDbEntity
  8
0
100
AcDbLine
 62
7
  6
CONTINUOUS
 10
286.8605340115
 20
212.3694360863
 11
284.6633380115
 21
443.0150870863
  0
LINE
  5
225
100
AcDbEntity
  8
0
100
AcDbLine
 62
7
  6
CONTINUOUS
 10
288.2892290115
 20
213.8831460863
 11
286.1140520115
 21
442.2174450863
  0
LINE
  5
226
100
AcDbEntity
  8
0
100
AcDbLine
 62
7
  6
CONTINUOUS
 10
286.3795970115
 20
441.9078590863
 11
288.5483600115
 21
214.2469540863
  0
LINE
  5
227
100
AcDbEntity
  8
0
100
AcDbLine
 62
7
  6
CONTINUOUS
 10
316.8456310115
 20
387.4219820863
 11
316.5939920115
 21
385.9645070863
  0
LINE
  5
228
100
AcDbEntity
  8
0
100
AcDbLine
 62
7
  6
CONTINUOUS
 10
259.5496380115
 20
366.0834450863
 11
259.0531900115
 21
365.8921790863
  0
LINE
  5
229
100
AcDbEntity
  8
0
100
AcDbLine
 62
7
  6
CONTINUOUS
 10
315.5425690115
 20
390.5749420863
 11
315.8073010115
 21
390.6580090863
  0
LINE
  5
22A
100
AcDbEntity
  8
0
100
AcDbLine
 62
7
  6
CONTINUOUS
 10
316.0420820115
 20
388.1545010863
 11
316.8362790115
 21
388.4037020863
  0
LINE
  5
22B
100
AcDbEntity
  8
0
100
AcDbLine
 62
7
  6
CONTINUOUS
 10
314.8638420115
 20
387.3028010863
 11
315.3933060115
 21
387.4689350863
  0
LINE
  5
22C
100
AcDbEntity
  8
0
100
AcDbLine
 62
7
  6
CONTINUOUS
 10
316.0514340115
 20
387.1727810863
 11
316.8456310115
 21
387.4219820863
  0
LINE
  5
22D
100
AcDbEntity
  8
0
100
AcDbLine
 62
7
  6
CONTINUOUS
 10
316.8997150115
 20
387.0799100863
 11
317.6939120115
 21
387.3291110863
  0
LINE
  5
22E
100
AcDbEntity
  8
0
100
AcDbLine
 62
7
  6
CONTINUOUS
 10
316.0645270115
 20
385.7983730863
 11
316.5939920115
 21
385.9645070863
  0
LINE
  5
22F
100
AcDbEntity
  8
0
100
AcDbLine
 62
7
  6
CONTINUOUS
 10
317.3992280115
 20
384.6594700863
 11
317.6639610115
 21
384.7425360863
  0
LINE
  5
230
100
AcDbEntity
  8
0
100
AcDbLine
 62
7
  6
CONTINUOUS
 10
503.6260150115
 20
442.6223640863
 11
503.3612830115
 21
442.5392970863
  0
LWPOLYLINE
  5
231
100
AcDbEntity
  8
0
100
AcDbPolyline
 62
7
  6
CONTINUOUS
 90
18
 70
0
 10
398.1407673691
 20
179.7555708624
 10
398.2555122667
 20
179.7435619496
 10
398.3735221506
 20
179.7323111898
 10
398.4944829875
 20
179.7218622057
 10
398.6181721782
 20
179.7122448835
 10
398.7442979352
 20
179.7034902552
 10
398.8727050557
 20
179.6956161318
 10
399.003158389
 20
179.6886435828
 10
399.1354378583
 20
179.682589903
 10
399.2692726021
 20
179.677471716
 10
399.4044952462
 20
179.6732989005
 10
399.5408674485
 20
179.6700821234
 10
399.6781652603
 20
179.6678291428
 10
399.8161472528
 20
179.6665456704
 10
399.9546145459
 20
179.6662347755
 10
400.0933352811
 20
179.6668979042
 10
400.2320867127
 20
179.6685343302
 10
400.3706452915
 20
179.6711412621
  0
LWPOLYLINE
  5
232
100
AcDbEntity
  8
0
100
AcDbPolyline
 62
7
  6
CONTINUOUS
 90
46
 70
0
 10
397.868544967
 20
177.2704360758
 10
398.0023928078
 20
177.2564054552
 10
398.1383087077
 20
177.2433867192
 10
398.2762450109
 20
177.2313730063
 10
398.4160760574
 20
177.2203662142
 10
398.5576333116
 20
177.2103713164
 10
398.7008216348
 20
177.201387853
 10
398.8455060749
 20
177.1934185978
 10
398.9915350116
 20
177.1864670048
 10
399.1387584987
 20
177.1805359395
 10
399.2870270384
 20
177.1756278084
 10
399.4361944435
 20
177.1717445275
 10
399.5860992494
 20
177.1688879464
 10
399.7365873184
 20
177.1670591341
 10
399.8874940317
 20
177.1662586875
 10
400.0386632268
 20
177.1664864716
 10
400.1899335413
 20
177.1677417603
 10
400.3411422812
 20
177.1700231312
 10
400.4921279132
 20
177.1733284916
 10
400.6427285756
 20
177.1776550584
 10
400.7927895135
 20
177.1829996342
 10
400.9421469587
 20
177.1893580961
 10
401.0906481385
 20
177.196726134
 10
401.238132447
 20
177.205098479
 10
401.3844555574
 20
177.2144702324
 10
401.5294732923
 20
177.2248362257
 10
401.6730350459
 20
177.2361904669
 10
401.814992133
 20
177.2485266207
 10
401.9552113848
 20
177.261839393
 10
402.0936099336
 20
177.2761288733
 10
402.2300147094
 20
177.2913863841
 10
402.3643061127
 20
177.3076085317
 10
402.4963613848
 20
177.3247919283
 10
402.6262317859
 20
177.3429587106
 10
402.7536728665
 20
177.3620926351
 10
402.8786206447
 20
177.3822029198
 10
403.0009760045
 20
177.4032956216
 10
403.1064482773
 20
177.4226802249
 10
403.2098481445
 20
177.4428543606
 10
403.311198592
 20
177.4638476304
 10
403.4105026766
 20
177.4856912039
 10
403.4651323943
 20
177.49828791
 10
403.575056146
 20
177.5249910548
 10
403.6824165624
 20
177.5529906188
 10
403.7873023468
 20
177.5824029166
 10
403.8897471109
 20
177.6133510011
  0
LINE
  5
233
100
AcDbEntity
  8
0
100
AcDbLine
 62
7
  6
CONTINUOUS
 10
262.9072930115
 20
185.9871530863
 11
496.2901130115
 21
160.4360050863
  0
LINE
  5
234
100
AcDbEntity
  8
0
100
AcDbLine
 62
7
  6
CONTINUOUS
 10
497.5012240115
 20
161.1915500863
 11
261.6792420115
 21
187.0097410863
  0
LINE
  5
235
100
AcDbEntity
  8
0
100
AcDbLine
 62
7
  6
CONTINUOUS
 10
403.7194670115
 20
176.3624180863
 11
383.6110460115
 21
178.5639220863
  0
LINE
  5
236
100
AcDbEntity
  8
0
100
AcDbLine
 62
7
  6
CONTINUOUS
 10
375.4758980115
 20
179.4545720863
 11
355.3674780115
 21
181.6560760863
  0
LINE
  5
237
100
AcDbEntity
  8
0
100
AcDbLine
 62
7
  6
CONTINUOUS
 10
383.9157520115
 20
178.6634630863
 11
382.4627310115
 21
178.8225430863
  0
LINE
  5
238
100
AcDbEntity
  8
0
100
AcDbLine
 62
7
  6
CONTINUOUS
 10
397.8685450115
 20
177.2704360863
 11
360.7138590115
 21
181.3381940863
  0
LINE
  5
239
100
AcDbEntity
  8
0
100
AcDbLine
 62
7
  6
CONTINUOUS
 10
357.8715960115
 20
183.8470290863
 11
356.2007660115
 21
184.0299540863
  0
LINE
  5
23A
100
AcDbEntity
  8
0
100
AcDbLine
 62
7
  6
CONTINUOUS
 10
398.1407670115
 20
179.7555710863
 11
360.9860810115
 21
183.8233290863
  0
LINE
  5
23B
100
AcDbEntity
  8
0
100
AcDbLine
 62
7
  6
CONTINUOUS
 10
355.3394210115
 20
184.6012360863
 11
366.9048200115
 21
183.3350370863
  0
LINE
  5
23C
100
AcDbEntity
  8
0
100
AcDbLine
 62
7
  6
CONTINUOUS
 10
392.1260120115
 20
180.5737780863
 11
403.6914100115
 21
179.3075780863
  0
LINE
  5
23D
100
AcDbEntity
  8
0
100
AcDbLine
 62
7
  6
CONTINUOUS
 10
379.7684800115
 20
181.9282530863
 11
380.3782560115
 21
181.8614930863
  0
LINE
  5
23E
100
AcDbEntity
  8
0
100
AcDbLine
 62
7
  6
CONTINUOUS
 10
387.4519760115
 20
181.0870510863
 11
387.6732160115
 21
181.0628290863
  0
LINE
  5
23F
100
AcDbEntity
  8
0
100
AcDbLine
 62
7
  6
CONTINUOUS
 10
387.4426240115
 20
182.0687710863
 11
387.6331450115
 21
182.0479120863
  0
LINE
  5
240
100
AcDbEntity
  8
0
100
AcDbLine
 62
7
  6
CONTINUOUS
 10
379.7591280115
 20
182.9099730863
 11
380.3689040115
 21
182.8432140863
  0
LINE
  5
241
100
AcDbEntity
  8
0
100
AcDbLine
 62
7
  6
CONTINUOUS
 10
380.1946070115
 20
183.0415760863
 11
380.7924760115
 21
182.9761210863
  0
LINE
  5
242
100
AcDbEntity
  8
0
100
AcDbLine
 62
7
  6
CONTINUOUS
 10
382.3963520115
 20
185.7905450863
 11
386.0074590115
 21
185.3951950863
  0
LWPOLYLINE
  5
243
100
AcDbEntity
  8
0
100
AcDbPolyline
 62
7
  6
CONTINUOUS
 90
72
 70
0
 10
360.7138586671
 20
181.3381942543
 10
360.64782032
 20
181.3455811439
 10
360.582288937
 20
181.353227447
 10
360.5172980886
 20
181.3611319284
 10
360.452992853
 20
181.3692786322
 10
360.3891979186
 20
181.3776920543
 10
360.3261220705
 20
181.3863469897
 10
360.2635759292
 20
181.3952720035
 10
360.201782016
 20
181.404437971
 10
360.1382109026
 20
181.4142436351
 10
360.0754812998
 20
181.4243093921
 10
360.013308068
 20
181.4346852008
 10
359.9520106176
 20
181.4453220434
 10
359.8912332564
 20
181.4562869447
 10
359.8313638035
 20
181.4675153462
 10
359.7721014301
 20
181.4790688386
 10
359.7134722919
 20
181.4909511637
 10
359.6593736571
 20
181.5023354367
 10
359.605812618
 20
181.5140249878
 10
359.552854153
 20
181.5260142018
 10
359.5004900802
 20
181.5383135264
 10
359.448709113
 20
181.5509351912
 10
359.3975001371
 20
181.563892588
 10
359.3468483993
 20
181.5772013793
 10
359.2967122983
 20
181.5908862519
 10
359.2440699907
 20
181.6058378173
 10
359.191966152
 20
181.6212632927
 10
359.1403966175
 20
181.6371874254
 10
359.0893298534
 20
181.6536462024
 10
359.0387265566
 20
181.6706823031
 10
358.9885519066
 20
181.6883417493
 10
358.9387631722
 20
181.7066787866
 10
358.8892791646
 20
181.7257692911
 10
358.842856027
 20
181.7445250824
 10
358.7967195251
 20
181.7640403462
 10
358.7505720057
 20
181.7845017639
 10
358.7046695867
 20
181.8058636688
 10
358.6588709933
 20
181.828262697
 10
358.6131562455
 20
181.8517927376
 10
358.5675013897
 20
181.8765611299
 10
358.5218964987
 20
181.9026805203
 10
358.4957843233
 20
181.9183036434
 10
358.4421620876
 20
181.9520412756
 10
358.3885410477
 20
181.9882153939
 10
358.3351170441
 20
182.0269718253
 10
358.2821038658
 20
182.0684501831
 10
358.2361453602
 20
182.1071580058
 10
358.1907048796
 20
182.1482711375
 10
358.1461993079
 20
182.1916478477
 10
358.1026157911
 20
182.2375441199
 10
358.0792104168
 20
182.2637716248
 10
358.0563989774
 20
182.2905176945
 10
358.032110111
 20
182.3204062773
 10
358.0085787983
 20
182.3508954166
 10
357.9854814731
 20
182.3824577777
 10
357.963212227
 20
182.4146086198
 10
357.9343698398
 20
182.4591272578
 10
357.9069639626
 20
182.5049659302
 10
357.8810740903
 20
182.5521040799
 10
357.8568235301
 20
182.6004261715
 10
357.8353392121
 20
182.6474630837
 10
357.8154870781
 20
182.6954436314
 10
357.7972976006
 20
182.7443927669
 10
357.7809365782
 20
182.7939274911
 10
357.7667086095
 20
182.8429433012
 10
357.754273456
 20
182.8924067012
 10
357.7435933502
 20
182.9425381624
 10
357.7347569918
 20
182.9930021896
 10
357.726785027
 20
183.0522947211
 10
357.7213605454
 20
183.1118555351
 10
357.7190891032
 20
183.1535438021
 10
357.7180662916
 20
183.1952865082
  0
LWPOLYLINE
  5
244
100
AcDbEntity
  8
0
100
AcDbPolyline
 62
7
  6
CONTINUOUS
 90
38
 70
0
 10
360.9860810689
 20
183.823329041
 10
360.9314380046
 20
183.8294412536
 10
360.8777045362
 20
183.8357120415
 10
360.8248828942
 20
183.8421381279
 10
360.7728436172
 20
183.848733414
 10
360.7218336421
 20
183.8554640469
 10
360.6716439141
 20
183.8623550225
 10
360.6225406908
 20
183.8693668947
 10
360.5742912818
 20
183.8765299916
 10
360.5255136163
 20
183.8840611693
 10
360.4777369199
 20
183.8917358609
 10
360.4313139051
 20
183.8994922538
 10
360.3858880682
 20
183.9073850676
 10
360.3419421959
 20
183.9153243402
 10
360.2990266867
 20
183.9233851409
 10
360.2575603127
 20
183.9314830369
 10
360.2176755602
 20
183.9395800728
 10
360.1813125163
 20
183.9472455646
 10
360.1463093045
 20
183.9548997147
 10
360.1126008
 20
183.9625466103
 10
360.0802282715
 20
183.9701668264
 10
360.049231101
 20
183.9777397777
 10
360.0196496693
 20
183.9852429124
 10
359.9915273001
 20
183.9926509765
 10
359.9649213139
 20
183.9999326881
 10
359.9382077735
 20
184.0075417246
 10
359.9134434802
 20
184.0148963819
 10
359.8905472459
 20
184.0219898956
 10
359.8695851756
 20
184.0287693992
 10
359.8506254943
 20
184.0351755521
 10
359.8337385554
 20
184.0411416217
 10
359.8189933038
 20
184.0465938304
 10
359.8065949544
 20
184.0513953815
 10
359.7968058286
 20
184.0553657498
 10
359.7890574857
 20
184.0586580714
 10
359.7837696721
 20
184.0610133185
 10
359.7805574711
 20
184.0625129541
 10
359.7796513492
 20
184.0629551262
  0
LINE
  5
245
100
AcDbEntity
  8
0
100
AcDbLine
 62
7
  6
CONTINUOUS
 10
316.2666640115
 20
240.0447770863
 11
316.2573110115
 21
241.0264970863
  0
LINE
  5
246
100
AcDbEntity
  8
0
100
AcDbLine
 62
7
  6
CONTINUOUS
 10
314.8638420115
 20
387.3028010863
 11
314.8544890115
 21
388.2845210863
  0
LINE
  5
247
100
AcDbEntity
  8
0
100
AcDbLine
 62
7
  6
CONTINUOUS
 10
315.3933060115
 20
387.4689350863
 11
315.3860910115
 21
388.2263220863
  0
LINE
  5
248
100
AcDbEntity
  8
0
100
AcDbLine
 62
7
  6
CONTINUOUS
 10
316.7961280115
 20
240.2109110863
 11
316.7889130115
 21
240.9682980863
  0
LINE
  5
249
100
AcDbEntity
  8
0
100
AcDbLine
 62
7
  6
CONTINUOUS
 10
317.4673490115
 20
238.5403490863
 11
317.4542560115
 21
239.9147580863
  0
LINE
  5
24A
100
AcDbEntity
  8
0
100
AcDbLine
 62
7
  6
CONTINUOUS
 10
317.4449040115
 20
240.8964780863
 11
317.4318110115
 21
242.2708860863
  0
LINE
  5
24B
100
AcDbEntity
  8
0
100
AcDbLine
 62
7
  6
CONTINUOUS
 10
316.0645270115
 20
385.7983730863
 11
316.0514340115
 21
387.1727810863
  0
LINE
  5
24C
100
AcDbEntity
  8
0
100
AcDbLine
 62
7
  6
CONTINUOUS
 10
316.0420820115
 20
388.1545010863
 11
316.0289890115
 21
389.5289100863
  0
LINE
  5
24D
100
AcDbEntity
  8
0
100
AcDbLine
 62
7
  6
CONTINUOUS
 10
316.8456310115
 20
387.4219820863
 11
316.8362790115
 21
388.4037020863
  0
LINE
  5
24E
100
AcDbEntity
  8
0
100
AcDbLine
 62
7
  6
CONTINUOUS
 10
318.2484530115
 20
240.1639580863
 11
318.2391010115
 21
241.1456790863
  0
LINE
  5
24F
100
AcDbEntity
  8
0
100
AcDbLine
 62
7
  6
CONTINUOUS
 10
316.8772700115
 20
389.4360380863
 11
316.8903630115
 21
388.0616300863
  0
LINE
  5
250
100
AcDbEntity
  8
0
100
AcDbLine
 62
7
  6
CONTINUOUS
 10
316.8997150115
 20
387.0799100863
 11
316.9128080115
 21
385.7055020863
  0
LINE
  5
251
100
AcDbEntity
  8
0
100
AcDbLine
 62
7
  6
CONTINUOUS
 10
318.2800920115
 20
242.1780150863
 11
318.2931850115
 21
240.8036070863
  0
LINE
  5
252
100
AcDbEntity
  8
0
100
AcDbLine
 62
7
  6
CONTINUOUS
 10
318.3025370115
 20
239.8218860863
 11
318.3156300115
 21
238.4474780863
  0
LINE
  5
253
100
AcDbEntity
  8
0
100
AcDbLine
 62
7
  6
CONTINUOUS
 10
319.0905870115
 20
240.7163070863
 11
319.0967340115
 21
240.0710870863
  0
LINE
  5
254
100
AcDbEntity
  8
0
100
AcDbLine
 62
7
  6
CONTINUOUS
 10
317.6877650115
 20
387.9743310863
 11
317.6939120115
 21
387.3291110863
  0
LINE
  5
255
100
AcDbEntity
  8
0
100
AcDbLine
 62
7
  6
CONTINUOUS
 10
318.0779550115
 20
387.9316110863
 11
318.0873070115
 21
386.9498900863
  0
LINE
  5
256
100
AcDbEntity
  8
0
100
AcDbLine
 62
7
  6
CONTINUOUS
 10
319.4807770115
 20
240.6735870863
 11
319.4901290115
 21
239.6918670863
  0
LINE
  5
257
100
AcDbEntity
  8
0
100
AcDbLine
 62
7
  6
CONTINUOUS
 10
316.4778360115
 20
314.3884610863
 11
316.5152000115
 21
314.6450570863
  0
LINE
  5
258
100
AcDbEntity
  8
0
100
AcDbLine
 62
7
  6
CONTINUOUS
 10
318.2484530115
 20
240.1639580863
 11
317.9968140115
 21
238.7064830863
  0
LINE
  5
259
100
AcDbEntity
  8
0
100
AcDbLine
 62
7
  6
CONTINUOUS
 10
510.4870760115
 20
434.0256330863
 11
510.2223440115
 21
433.9425660863
  0
LINE
  5
25A
100
AcDbEntity
  8
0
100
AcDbLine
 62
7
  6
CONTINUOUS
 10
494.9834710115
 20
425.4868750863
 11
495.0432650115
 21
425.5056370863
  0
LINE
  5
25B
100
AcDbEntity
  8
0
100
AcDbLine
 62
7
  6
CONTINUOUS
 10
495.4122870115
 20
424.9495790863
 11
496.3334240115
 21
425.2386100863
  0
LINE
  5
25C
100
AcDbEntity
  8
0
100
AcDbLine
 62
7
  6
CONTINUOUS
 10
510.4921060115
 20
433.4991530863
 11
511.7076780115
 21
433.8547880863
  0
LINE
  5
25D
100
AcDbEntity
  8
0
100
AcDbLine
 62
7
  6
CONTINUOUS
 10
284.0873720115
 20
211.2475050863
 11
474.5840300115
 21
190.3916070863
  0
LINE
  5
25E
100
AcDbEntity
  8
0
100
AcDbLine
 62
7
  6
CONTINUOUS
 10
286.8605340115
 20
212.3694360863
 11
474.5704390115
 21
191.8186370863
  0
LINE
  5
25F
100
AcDbEntity
  8
0
100
AcDbLine
 62
7
  6
CONTINUOUS
 10
474.5545120115
 20
193.4905060863
 11
288.2892290115
 21
213.8831460863
  0
LINE
  5
260
100
AcDbEntity
  8
0
100
AcDbLine
 62
7
  6
CONTINUOUS
 10
288.5483600115
 20
214.2469540863
 11
474.5507720115
 21
193.8830940863
  0
LINE
  5
261
100
AcDbEntity
  8
0
100
AcDbLine
 62
7
  6
CONTINUOUS
 10
318.2391010115
 20
241.1456790863
 11
318.0106530115
 21
242.2075150863
  0
LWPOLYLINE
  5
262
100
AcDbEntity
  8
0
100
AcDbPolyline
 62
7
  6
CONTINUOUS
 90
47
 70
0
 10
357.7180662916
 20
183.1952865082
 10
357.7180644062
 20
183.2216558888
 10
357.7185610526
 20
183.2480195673
 10
357.7195560967
 20
183.2743716852
 10
357.7210489851
 20
183.3007005654
 10
357.7230334822
 20
183.3269310732
 10
357.725511773
 20
183.353119461
 10
357.7284855789
 20
183.3792794369
 10
357.7319513454
 20
183.4053788266
 10
357.7359499051
 20
183.4316717127
 10
357.7404467981
 20
183.4578839679
 10
357.7454357447
 20
183.4839848791
 10
357.7509178049
 20
183.5099866898
 10
357.7568552963
 20
183.5357340268
 10
357.7632754002
 20
183.5613652629
 10
357.7702101211
 20
183.58699557
 10
357.7776249833
 20
183.6124911718
 10
357.7856955606
 20
183.6384028486
 10
357.7942600721
 20
183.6641554732
 10
357.803286233
 20
183.6896598999
 10
357.8127951086
 20
183.7149883369
 10
357.8227152199
 20
183.7399693678
 10
357.8331034453
 20
183.7647593416
 10
357.8440756639
 20
183.789614484
 10
357.8555139385
 20
183.8142587025
 10
357.8678512425
 20
183.839570029
 10
357.8806736358
 20
183.864639244
 10
357.8938071938
 20
183.8891464727
 10
357.9074133273
 20
183.9133941274
 10
357.9219630286
 20
183.9381598405
 10
357.9369801096
 20
183.9626455739
 10
357.9484841827
 20
183.9807573313
 10
357.960248139
 20
183.9987005131
 10
357.9726301838
 20
184.0169594984
 10
357.9852823819
 20
184.0350331516
 10
358.0000061599
 20
184.0554190112
 10
358.0150584662
 20
184.0755629412
 10
358.0300359741
 20
184.094925573
 10
358.0453224087
 20
184.1140456261
 10
358.0607599182
 20
184.1327531402
 10
358.0764863223
 20
184.1512182238
 10
358.0965514047
 20
184.1739530883
 10
358.1170442134
 20
184.1963042992
 10
358.1395885997
 20
184.2199740233
 10
358.162597901
 20
184.2431909746
 10
358.1854615177
 20
184.265365003
 10
358.2087473762
 20
184.2870974696
  0
LWPOLYLINE
  5
263
100
AcDbEntity
  8
0
100
AcDbPolyline
 62
7
  6
CONTINUOUS
 90
44
 70
0
 10
317.3978279127
 20
315.902407593
 10
317.3676626361
 20
315.8869607814
 10
317.3378466304
 20
315.870858762
 10
317.3083910199
 20
315.854108775
 10
317.2791348959
 20
315.8366128303
 10
317.2502686267
 20
315.8184787434
 10
317.2218060992
 20
315.7997167714
 10
317.1919898149
 20
315.7790827906
 10
317.1626599977
 20
315.7577625884
 10
317.1338306198
 20
315.7357687136
 10
317.1053434109
 20
315.7129730322
 10
317.0773924134
 20
315.6895245009
 10
317.0499930833
 20
315.6654395467
 10
317.0281810975
 20
315.6454442897
 10
316.9990070021
 20
315.6174926839
 10
316.9705464534
 20
315.5888072713
 10
316.9428176518
 20
315.5594115352
 10
316.9155997545
 20
315.5290563601
 10
316.8891583213
 20
315.4980246769
 10
316.8635063801
 20
315.4663391717
 10
316.841904902
 20
315.4383428913
 10
316.8209139694
 20
315.409886104
 10
316.8005403155
 20
315.380983167
 10
316.780617942
 20
315.3513862301
 10
316.7613380353
 20
315.3213677406
 10
316.7427079035
 20
315.2909456517
 10
316.7296769762
 20
315.2687609894
 10
316.710655238
 20
315.2349010042
 10
316.6924167141
 20
315.2006078087
 10
316.6749686742
 20
315.16590437
 10
316.6581637658
 20
315.1304786724
 10
316.6421754062
 20
315.0946783269
 10
316.6270071957
 20
315.0585233384
 10
316.6130402134
 20
315.0230263438
 10
316.5998552962
 20
314.987231353
 10
316.5874547788
 20
314.9511571258
 10
316.5757386182
 20
314.9144902727
 10
316.5648245481
 20
314.8775766666
 10
316.5547135309
 20
314.8404347964
 10
316.5450837787
 20
314.8017239891
 10
316.5363168966
 20
314.7628052225
 10
316.5284123515
 20
314.7236958072
 10
316.5213696099
 20
314.6844130539
 10
316.5151881385
 20
314.6449742733
  0
LINE
  5
264
100
AcDbEntity
  8
0
100
AcDbLine
 62
7
  6
CONTINUOUS
 10
442.7846450115
 20
376.6442630863
 11
443.0493770115
 21
376.7273300863
  0
LINE
  5
265
100
AcDbEntity
  8
0
100
AcDbLine
 62
7
  6
CONTINUOUS
 10
443.2841580115
 20
374.2238230863
 11
444.0783550115
 21
374.4730240863
  0
LINE
  5
266
100
AcDbEntity
  8
0
100
AcDbLine
 62
7
  6
CONTINUOUS
 10
442.1059180115
 20
373.3721220863
 11
442.6353820115
 21
373.5382560863
  0
LINE
  5
267
100
AcDbEntity
  8
0
100
AcDbLine
 62
7
  6
CONTINUOUS
 10
443.2935110115
 20
373.2421030863
 11
444.0877070115
 21
373.4913030863
  0
LINE
  5
268
100
AcDbEntity
  8
0
100
AcDbLine
 62
7
  6
CONTINUOUS
 10
444.1417910115
 20
373.1492310863
 11
444.9359880115
 21
373.3984320863
  0
LINE
  5
269
100
AcDbEntity
  8
0
100
AcDbLine
 62
7
  6
CONTINUOUS
 10
443.3066040115
 20
371.8676940863
 11
443.8360680115
 21
372.0338280863
  0
LINE
  5
26A
100
AcDbEntity
  8
0
100
AcDbLine
 62
7
  6
CONTINUOUS
 10
444.6413050115
 20
370.7287910863
 11
444.9060370115
 21
370.8118580863
  0
LWPOLYLINE
  5
26B
100
AcDbEntity
  8
0
100
AcDbPolyline
 62
7
  6
CONTINUOUS
 90
43
 70
0
 10
382.7742610292
 20
231.9517354717
 10
382.7429394378
 20
231.9474460256
 10
382.7115402336
 20
231.9437980875
 10
382.6800742862
 20
231.9407919872
 10
382.6484463193
 20
231.9384210735
 10
382.6167753262
 20
231.9366964833
 10
382.585074532
 20
231.9356180287
 10
382.5438804468
 20
231.935181117
 10
382.5026878332
 20
231.9358304675
 10
382.4615261225
 20
231.9375627907
 10
382.4201433652
 20
231.9403972495
 10
382.3788498881
 20
231.9443198154
 10
382.3376738086
 20
231.9493240807
 10
382.2976536541
 20
231.9552403204
 10
382.2577967502
 20
231.9621711473
 10
382.2181279265
 20
231.9701082761
 10
382.1783218817
 20
231.9791269697
 10
382.1387569335
 20
231.9891506888
 10
382.0994574645
 20
232.000168608
 10
382.0615483887
 20
232.0118162259
 10
382.0239334503
 20
232.0243807473
 10
381.9866331145
 20
232.0378506255
 10
381.9493070424
 20
232.0523592158
 10
381.912342474
 20
232.0677656995
 10
381.875759244
 20
232.0840565523
 10
381.8406202601
 20
232.1007082988
 10
381.8058757614
 20
232.1181678162
 10
381.7715419893
 20
232.1364218046
 10
381.7373137903
 20
232.1556420082
 10
381.7035362208
 20
232.1756436447
 10
381.6702247613
 20
232.1964120079
 10
381.6382852432
 20
232.2173343568
 10
381.6068139099
 20
232.2389542697
 10
381.5758233178
 20
232.2612578302
 10
381.5450471644
 20
232.2844457874
 10
381.5147852539
 20
232.308301052
 10
381.4850493991
 20
232.3328088011
 10
381.4582841964
 20
232.3558166477
 10
381.4319785713
 20
232.3793476386
 10
381.4061408426
 20
232.4033899355
 10
381.3805904186
 20
232.4281180345
 10
381.3555290804
 20
232.4533431984
 10
381.3309625271
 20
232.4790555024
  0
LINE
  5
26C
100
AcDbEntity
  8
0
100
AcDbLine
 62
7
  6
CONTINUOUS
 10
445.4905290115
 20
226.2332800863
 11
444.0382040115
 21
226.2802320863
  0
LINE
  5
26D
100
AcDbEntity
  8
0
100
AcDbLine
 62
7
  6
CONTINUOUS
 10
318.2484530115
 20
240.1639580863
 11
316.7961280115
 21
240.2109110863
  0
LINE
  5
26E
100
AcDbEntity
  8
0
100
AcDbLine
 62
7
  6
CONTINUOUS
 10
318.3156300115
 20
238.4474780863
 11
317.4673490115
 21
238.5403490863
  0
LINE
  5
26F
100
AcDbEntity
  8
0
100
AcDbLine
 62
7
  6
CONTINUOUS
 10
445.5577060115
 20
224.5167990863
 11
444.7094260115
 21
224.6096710863
  0
LINE
  5
270
100
AcDbEntity
  8
0
100
AcDbLine
 62
7
  6
CONTINUOUS
 10
445.5555700115
 20
224.7411340863
 11
445.2388900115
 21
224.7758050863
  0
LINE
  5
271
100
AcDbEntity
  8
0
100
AcDbLine
 62
7
  6
CONTINUOUS
 10
318.3134930115
 20
238.6718130863
 11
317.9968140115
 21
238.7064830863
  0
LINE
  5
272
100
AcDbEntity
  8
0
100
AcDbLine
 62
7
  6
CONTINUOUS
 10
446.7322060115
 20
225.7611880863
 11
445.5446130115
 21
225.8912080863
  0
LINE
  5
273
100
AcDbEntity
  8
0
100
AcDbLine
 62
7
  6
CONTINUOUS
 10
444.6963330115
 20
225.9840790863
 11
443.5087400115
 21
226.1140990863
  0
LINE
  5
274
100
AcDbEntity
  8
0
100
AcDbLine
 62
7
  6
CONTINUOUS
 10
319.4901290115
 20
239.6918670863
 11
318.3025370115
 21
239.8218860863
  0
LINE
  5
275
100
AcDbEntity
  8
0
100
AcDbLine
 62
7
  6
CONTINUOUS
 10
317.4542560115
 20
239.9147580863
 11
316.2666640115
 21
240.0447770863
  0
LINE
  5
276
100
AcDbEntity
  8
0
100
AcDbLine
 62
7
  6
CONTINUOUS
 10
446.3388100115
 20
226.1404090863
 11
445.4905290115
 21
226.2332800863
  0
LINE
  5
277
100
AcDbEntity
  8
0
100
AcDbLine
 62
7
  6
CONTINUOUS
 10
319.0967340115
 20
240.0710870863
 11
318.2484530115
 21
240.1639580863
  0
LINE
  5
278
100
AcDbEntity
  8
0
100
AcDbLine
 62
7
  6
CONTINUOUS
 10
318.2931850115
 20
240.8036070863
 11
319.4807770115
 21
240.6735870863
  0
LINE
  5
279
100
AcDbEntity
  8
0
100
AcDbLine
 62
7
  6
CONTINUOUS
 10
443.4993880115
 20
227.0958190863
 11
444.6869800115
 21
226.9657990863
  0
LINE
  5
27A
100
AcDbEntity
  8
0
100
AcDbLine
 62
7
  6
CONTINUOUS
 10
445.5352610115
 20
226.8729280863
 11
446.7228540115
 21
226.7429080863
  0
LINE
  5
27B
100
AcDbEntity
  8
0
100
AcDbLine
 62
7
  6
CONTINUOUS
 10
316.2573110115
 20
241.0264970863
 11
317.4449040115
 21
240.8964780863
  0
LINE
  5
27C
100
AcDbEntity
  8
0
100
AcDbLine
 62
7
  6
CONTINUOUS
 10
318.2391010115
 20
241.1456790863
 11
318.2899800115
 21
241.1401080863
  0
LINE
  5
27D
100
AcDbEntity
  8
0
100
AcDbLine
 62
7
  6
CONTINUOUS
 10
445.4811770115
 20
227.2150000863
 11
445.5320560115
 21
227.2094300863
  0
LINE
  5
27E
100
AcDbEntity
  8
0
100
AcDbLine
 62
7
  6
CONTINUOUS
 10
444.6738870115
 20
228.3402070863
 11
445.5221680115
 21
228.2473360863
  0
LINE
  5
27F
100
AcDbEntity
  8
0
100
AcDbLine
 62
7
  6
CONTINUOUS
 10
317.4318110115
 20
242.2708860863
 11
318.2800920115
 21
242.1780150863
  0
LINE
  5
280
100
AcDbEntity
  8
0
100
AcDbLine
 62
7
  6
CONTINUOUS
 10
319.0967340115
 20
240.0710870863
 11
319.4873770115
 21
239.9808880863
  0
LINE
  5
281
100
AcDbEntity
  8
0
100
AcDbLine
 62
7
  6
CONTINUOUS
 10
446.3388100115
 20
226.1404090863
 11
446.7294530115
 21
226.0502100863
  0
LINE
  5
282
100
AcDbEntity
  8
0
100
AcDbLine
 62
7
  6
CONTINUOUS
 10
381.1533540115
 20
232.6686780863
 11
381.3305750115
 21
232.4794690863
  0
LINE
  5
283
100
AcDbEntity
  8
0
100
AcDbLine
 62
7
  6
CONTINUOUS
 10
316.8309050115
 20
313.2630300863
 11
317.0081260115
 21
313.0738200863
  0
LINE
  5
284
100
AcDbEntity
  8
0
100
AcDbLine
 62
7
  6
CONTINUOUS
 10
316.8362790115
 20
388.4037020863
 11
316.6078300115
 21
389.4655380863
  0
LINE
  5
285
100
AcDbEntity
  8
0
100
AcDbLine
 62
7
  6
CONTINUOUS
 10
379.3974630115
 20
381.0521330863
 11
379.4348270115
 21
381.3087300863
  0
LINE
  5
286
100
AcDbEntity
  8
0
100
AcDbLine
 62
7
  6
CONTINUOUS
 10
380.8002850115
 20
233.7941100863
 11
380.8376490115
 21
234.0507060863
  0
LINE
  5
287
100
AcDbEntity
  8
0
100
AcDbLine
 62
7
  6
CONTINUOUS
 10
477.2395490115
 20
248.8386200863
 11
497.6094840115
 21
246.6084850863
  0
LINE
  5
288
100
AcDbEntity
  8
0
100
AcDbLine
 62
7
  6
CONTINUOUS
 10
280.3115800115
 20
270.3986290863
 11
259.9416440115
 21
272.6287640863
  0
LINE
  5
289
100
AcDbEntity
  8
0
100
AcDbLine
 62
7
  6
CONTINUOUS
 10
497.1427530115
 20
340.2811530863
 11
496.2222410115
 21
339.9265080863
  0
LINE
  5
28A
100
AcDbEntity
  8
0
100
AcDbLine
 62
7
  6
CONTINUOUS
 10
496.7210300115
 20
339.8719000863
 11
497.1450940115
 21
340.0352790863
  0
LINE
  5
28B
100
AcDbEntity
  8
0
100
AcDbLine
 62
7
  6
CONTINUOUS
 10
512.6093940115
 20
339.2009140863
 11
514.6334520115
 21
339.8049620863
  0
LINE
  5
28C
100
AcDbEntity
  8
0
100
AcDbLine
 62
7
  6
CONTINUOUS
 10
442.1059180115
 20
373.3721220863
 11
442.0965660115
 21
374.3538420863
  0
LINE
  5
28D
100
AcDbEntity
  8
0
100
AcDbLine
 62
7
  6
CONTINUOUS
 10
443.5087400115
 20
226.1140990863
 11
443.4993880115
 21
227.0958190863
  0
LINE
  5
28E
100
AcDbEntity
  8
0
100
AcDbLine
 62
7
  6
CONTINUOUS
 10
442.6353820115
 20
373.5382560863
 11
442.6281670115
 21
374.2956430863
  0
LINE
  5
28F
100
AcDbEntity
  8
0
100
AcDbLine
 62
7
  6
CONTINUOUS
 10
444.0382040115
 20
226.2802320863
 11
444.0309890115
 21
227.0376190863
  0
LINE
  5
290
100
AcDbEntity
  8
0
100
AcDbLine
 62
7
  6
CONTINUOUS
 10
443.2841580115
 20
374.2238230863
 11
443.2710650115
 21
375.5982310863
  0
LINE
  5
291
100
AcDbEntity
  8
0
100
AcDbLine
 62
7
  6
CONTINUOUS
 10
444.7094260115
 20
224.6096710863
 11
444.6963330115
 21
225.9840790863
  0
LINE
  5
292
100
AcDbEntity
  8
0
100
AcDbLine
 62
7
  6
CONTINUOUS
 10
444.6869800115
 20
226.9657990863
 11
444.6738870115
 21
228.3402070863
  0
LINE
  5
293
100
AcDbEntity
  8
0
100
AcDbLine
 62
7
  6
CONTINUOUS
 10
443.3066040115
 20
371.8676940863
 11
443.2935110115
 21
373.2421030863
  0
LINE
  5
294
100
AcDbEntity
  8
0
100
AcDbLine
 62
7
  6
CONTINUOUS
 10
444.0877070115
 20
373.4913030863
 11
444.0783550115
 21
374.4730240863
  0
LINE
  5
295
100
AcDbEntity
  8
0
100
AcDbLine
 62
7
  6
CONTINUOUS
 10
445.4905290115
 20
226.2332800863
 11
445.4811770115
 21
227.2150000863
  0
LINE
  5
296
100
AcDbEntity
  8
0
100
AcDbLine
 62
7
  6
CONTINUOUS
 10
444.1193460115
 20
375.5053600863
 11
444.1324390115
 21
374.1309520863
  0
LINE
  5
297
100
AcDbEntity
  8
0
100
AcDbLine
 62
7
  6
CONTINUOUS
 10
444.1417910115
 20
373.1492310863
 11
444.1548840115
 21
371.7748230863
  0
LINE
  5
298
100
AcDbEntity
  8
0
100
AcDbLine
 62
7
  6
CONTINUOUS
 10
445.5221680115
 20
228.2473360863
 11
445.5352610115
 21
226.8729280863
  0
LINE
  5
299
100
AcDbEntity
  8
0
100
AcDbLine
 62
7
  6
CONTINUOUS
 10
445.5446130115
 20
225.8912080863
 11
445.5577060115
 21
224.5167990863
  0
LINE
  5
29A
100
AcDbEntity
  8
0
100
AcDbLine
 62
7
  6
CONTINUOUS
 10
446.3326630115
 20
226.7856290863
 11
446.3388100115
 21
226.1404090863
  0
LINE
  5
29B
100
AcDbEntity
  8
0
100
AcDbLine
 62
7
  6
CONTINUOUS
 10
444.9298410115
 20
374.0436520863
 11
444.9359880115
 21
373.3984320863
  0
LINE
  5
29C
100
AcDbEntity
  8
0
100
AcDbLine
 62
7
  6
CONTINUOUS
 10
445.3200320115
 20
374.0009320863
 11
445.3293840115
 21
373.0192120863
  0
LINE
  5
29D
100
AcDbEntity
  8
0
100
AcDbLine
 62
7
  6
CONTINUOUS
 10
446.7228540115
 20
226.7429080863
 11
446.7322060115
 21
225.7611880863
  0
LINE
  5
29E
100
AcDbEntity
  8
0
100
AcDbLine
 62
7
  6
CONTINUOUS
 10
443.7199120115
 20
300.4577820863
 11
443.7572770115
 21
300.7143780863
  0
LWPOLYLINE
  5
29F
100
AcDbEntity
  8
0
100
AcDbPolyline
 62
7
  6
CONTINUOUS
 90
44
 70
0
 10
443.7572645106
 20
300.7142955747
 10
443.763445982
 20
300.7537343553
 10
443.7704887236
 20
300.7930171086
 10
443.7783932688
 20
300.8321265239
 10
443.7871601508
 20
300.8710452905
 10
443.796789903
 20
300.9097560978
 10
443.8069009202
 20
300.946897968
 10
443.8178149903
 20
300.9838115742
 10
443.8295311509
 20
301.0204784272
 10
443.8419316684
 20
301.0565526544
 10
443.8551165855
 20
301.0923476452
 10
443.8690835678
 20
301.1278446398
 10
443.8842517783
 20
301.1639996283
 10
443.9002401379
 20
301.1997999738
 10
443.9170450463
 20
301.2352256714
 10
443.9344930862
 20
301.2699291102
 10
443.9527316101
 20
301.3042223056
 10
443.9717533483
 20
301.3380822909
 10
443.9847842756
 20
301.3602669532
 10
444.0034144074
 20
301.390689042
 10
444.0226943141
 20
301.4207075315
 10
444.0426166876
 20
301.4503044684
 10
444.0629903415
 20
301.4792074055
 10
444.0839812741
 20
301.5076641927
 10
444.1055827522
 20
301.5356604731
 10
444.1312346934
 20
301.5673459783
 10
444.1576761267
 20
301.5983776615
 10
444.184894024
 20
301.6287328367
 10
444.2126228255
 20
301.6581285727
 10
444.2410833742
 20
301.6868139853
 10
444.2702574696
 20
301.7147655912
 10
444.2920694554
 20
301.7347608481
 10
444.3194687855
 20
301.7588458023
 10
444.347419783
 20
301.7822943337
 10
444.3759069919
 20
301.805090015
 10
444.4047363698
 20
301.8270838898
 10
444.434066187
 20
301.848404092
 10
444.4638824713
 20
301.8690380728
 10
444.4923449988
 20
301.8878000448
 10
444.521211268
 20
301.9059341317
 10
444.550467392
 20
301.9234300764
 10
444.5799230025
 20
301.9401800634
 10
444.6097390083
 20
301.9562820828
 10
444.6399042848
 20
301.9717288944
  0
LINE
  5
2A0
100
AcDbEntity
  8
0
100
AcDbLine
 62
7
  6
CONTINUOUS
 10
444.0877070115
 20
373.4913030863
 11
443.8360680115
 21
372.0338280863
  0
LINE
  5
2A1
100
AcDbEntity
  8
0
100
AcDbLine
 62
7
  6
CONTINUOUS
 10
514.6334520115
 20
339.8049620863
 11
512.6197670115
 21
338.1115710863
  0
LINE
  5
2A2
100
AcDbEntity
  8
0
100
AcDbLine
 62
7
  6
CONTINUOUS
 10
288.2892290115
 20
213.8831460863
 11
289.0521510115
 21
214.1917990863
  0
LINE
  5
2A3
100
AcDbEntity
  8
0
100
AcDbLine
 62
7
  6
CONTINUOUS
 10
284.0873720115
 20
211.2475050863
 11
286.8605340115
 21
212.3694360863
  0
LINE
  5
2A4
100
AcDbEntity
  8
0
100
AcDbLine
 62
7
  6
CONTINUOUS
 10
316.9453910115
 20
243.3169180863
 11
317.2101230115
 21
243.3999850863
  0
LINE
  5
2A5
100
AcDbEntity
  8
0
100
AcDbLine
 62
7
  6
CONTINUOUS
 10
317.4449040115
 20
240.8964780863
 11
318.2391010115
 21
241.1456790863
  0
LINE
  5
2A6
100
AcDbEntity
  8
0
100
AcDbLine
 62
7
  6
CONTINUOUS
 10
316.2666640115
 20
240.0447770863
 11
316.7961280115
 21
240.2109110863
  0
LINE
  5
2A7
100
AcDbEntity
  8
0
100
AcDbLine
 62
7
  6
CONTINUOUS
 10
317.4542560115
 20
239.9147580863
 11
318.2484530115
 21
240.1639580863
  0
LINE
  5
2A8
100
AcDbEntity
  8
0
100
AcDbLine
 62
7
  6
CONTINUOUS
 10
318.3025370115
 20
239.8218860863
 11
319.0967340115
 21
240.0710870863
  0
LINE
  5
2A9
100
AcDbEntity
  8
0
100
AcDbLine
 62
7
  6
CONTINUOUS
 10
317.4673490115
 20
238.5403490863
 11
317.9968140115
 21
238.7064830863
  0
LINE
  5
2AA
100
AcDbEntity
  8
0
100
AcDbLine
 62
7
  6
CONTINUOUS
 10
318.8020500115
 20
237.4014460863
 11
319.0667830115
 21
237.4845130863
  0
LWPOLYLINE
  5
2AB
100
AcDbEntity
  8
0
100
AcDbPolyline
 62
7
  6
CONTINUOUS
 90
43
 70
0
 10
379.9281405014
 20
379.7370791888
 10
379.9527070597
 20
379.71136688
 10
379.9777683976
 20
379.6861417169
 10
380.003318817
 20
379.6614136219
 10
380.0291565386
 20
379.6373713294
 10
380.0554621609
 20
379.6138403398
 10
380.0822273735
 20
379.5908324874
 10
380.1119632546
 20
379.5663247236
 10
380.1422251778
 20
379.542469452
 10
380.1730012921
 20
379.5192815165
 10
380.2039917864
 20
379.4969780103
 10
380.2354630731
 20
379.4753581233
 10
380.2674027357
 20
379.4544356942
 10
380.3024064161
 20
379.4326402851
 10
380.3379238134
 20
379.4116915174
 10
380.3739368894
 20
379.3916064941
 10
380.4100599713
 20
379.3725898126
 10
380.446631909
 20
379.3544518637
 10
380.4836334258
 20
379.3372080674
 10
380.5185110487
 20
379.3219456488
 10
380.5537285696
 20
379.3074857178
 10
380.5892690271
 20
379.2938396642
 10
380.6247805863
 20
379.2811340747
 10
380.6605751566
 20
379.2692483319
 10
380.6966354388
 20
379.2581922944
 10
380.7383475378
 20
379.2465326816
 10
380.7803576722
 20
379.2359931164
 10
380.8226363334
 20
379.2265866412
 10
380.8647343359
 20
379.2184014374
 10
380.9070364391
 20
379.2113495155
 10
380.9495124059
 20
379.2054404683
 10
380.9882763942
 20
379.2010656429
 10
381.0271361707
 20
379.1976494605
 10
381.0660686767
 20
379.195196928
 10
381.1047801409
 20
379.1937196307
 10
381.1435162104
 20
379.1932003208
 10
381.1822525064
 20
379.1936417151
 10
381.2139531311
 20
379.1947201811
 10
381.2456241776
 20
379.196444767
 10
381.2772522606
 20
379.1988156735
 10
381.3087182587
 20
379.2018217733
 10
381.3401174514
 20
379.2054697138
 10
381.3714390036
 20
379.2097591581
  0
LINE
  5
2AC
100
AcDbEntity
  8
0
100
AcDbLine
 62
7
  6
CONTINUOUS
 10
444.0729810115
 20
299.3323510863
 11
444.2502020115
 21
299.1431410863
  0
LINE
  5
2AD
100
AcDbEntity
  8
0
100
AcDbLine
 62
7
  6
CONTINUOUS
 10
379.7505320115
 20
379.9267020863
 11
379.9277530115
 21
379.7374930863
  0
LINE
  5
2AE
100
AcDbEntity
  8
0
100
AcDbLine
 62
7
  6
CONTINUOUS
 10
445.4811770115
 20
227.2150000863
 11
445.2527290115
 21
228.2768360863
  0
LINE
  5
2AF
100
AcDbEntity
  8
0
100
AcDbLine
 62
7
  6
CONTINUOUS
 10
472.3732390115
 20
422.4642830863
 11
474.5840300115
 21
190.3916070863
  0
LINE
  5
2B0
100
AcDbEntity
  8
0
100
AcDbLine
 62
7
  6
CONTINUOUS
 10
476.3510950115
 20
342.1020350863
 11
477.2395490115
 21
248.8386200863
  0
LINE
  5
2B1
100
AcDbEntity
  8
0
100
AcDbLine
 62
7
  6
CONTINUOUS
 10
445.4905290115
 20
226.2332800863
 11
445.2388900115
 21
224.7758050863
  0
LINE
  5
2B2
100
AcDbEntity
  8
0
100
AcDbLine
 62
7
  6
CONTINUOUS
 10
260.6217660115
 20
186.3017330863
 11
262.4799520115
 21
186.9220820863
  0
LINE
  5
2B3
100
AcDbEntity
  8
0
100
AcDbLine
 62
7
  6
CONTINUOUS
 10
476.3510950115
 20
342.1020350863
 11
496.7210300115
 21
339.8719000863
  0
LINE
  5
2B4
100
AcDbEntity
  8
0
100
AcDbLine
 62
7
  6
CONTINUOUS
 10
279.4231260115
 20
363.6620440863
 11
259.0531900115
 21
365.8921790863
  0
LINE
  5
2B5
100
AcDbEntity
  8
0
100
AcDbLine
 62
7
  6
CONTINUOUS
 10
444.0783550115
 20
374.4730240863
 11
443.8499070115
 21
375.5348600863
  0
LINE
  5
2B6
100
AcDbEntity
  8
0
100
AcDbLine
 62
7
  6
CONTINUOUS
 10
497.9206880115
 20
161.6359750863
 11
497.1106950115
 21
246.6630930863
  0
LINE
  5
2B7
100
AcDbEntity
  8
0
100
AcDbLine
 62
7
  6
CONTINUOUS
 10
496.2222410115
 20
339.9265080863
 11
495.4122870115
 21
424.9495790863
  0
LINE
  5
2B8
100
AcDbEntity
  8
0
100
AcDbLine
 62
7
  6
CONTINUOUS
 10
496.3319380115
 20
425.3944650863
 11
498.8580730115
 21
160.2192170863
  0
LINE
  5
2B9
100
AcDbEntity
  8
0
100
AcDbLine
 62
7
  6
CONTINUOUS
 10
498.4363100115
 20
337.7212690863
 11
499.2873270115
 21
248.3876310863
  0
LINE
  5
2BA
100
AcDbEntity
  8
0
100
AcDbLine
 62
7
  6
CONTINUOUS
 10
512.9288550115
 20
149.8327530863
 11
510.2223440115
 21
433.9425660863
  0
LINE
  5
2BB
100
AcDbEntity
  8
0
100
AcDbLine
 62
7
  6
CONTINUOUS
 10
513.1935870115
 20
149.9158190863
 11
510.4870760115
 21
434.0256330863
  0
LINE
  5
2BC
100
AcDbEntity
  8
0
100
AcDbLine
 62
7
  6
CONTINUOUS
 10
515.3314820115
 20
266.5308380863
 11
513.3208170115
 21
264.5205520863
  0
LINE
  5
2BD
100
AcDbEntity
  8
0
100
AcDbLine
 62
7
  6
CONTINUOUS
 10
444.1874670115
 20
229.3862400863
 11
444.4521990115
 21
229.4693070863
  0
LINE
  5
2BE
100
AcDbEntity
  8
0
100
AcDbLine
 62
7
  6
CONTINUOUS
 10
444.6869800115
 20
226.9657990863
 11
445.4811770115
 21
227.2150000863
  0
LINE
  5
2BF
100
AcDbEntity
  8
0
100
AcDbLine
 62
7
  6
CONTINUOUS
 10
443.5087400115
 20
226.1140990863
 11
444.0382040115
 21
226.2802320863
  0
LINE
  5
2C0
100
AcDbEntity
  8
0
100
AcDbLine
 62
7
  6
CONTINUOUS
 10
444.6963330115
 20
225.9840790863
 11
445.4905290115
 21
226.2332800863
  0
LINE
  5
2C1
100
AcDbEntity
  8
0
100
AcDbLine
 62
7
  6
CONTINUOUS
 10
445.5446130115
 20
225.8912080863
 11
446.3388100115
 21
226.1404090863
  0
LINE
  5
2C2
100
AcDbEntity
  8
0
100
AcDbLine
 62
7
  6
CONTINUOUS
 10
444.7094260115
 20
224.6096710863
 11
445.2388900115
 21
224.7758050863
  0
LINE
  5
2C3
100
AcDbEntity
  8
0
100
AcDbLine
 62
7
  6
CONTINUOUS
 10
446.0441270115
 20
223.4707670863
 11
446.3088590115
 21
223.5538340863
  0
LINE
  5
2C4
100
AcDbEntity
  8
0
100
AcDbLine
 62
7
  6
CONTINUOUS
 10
355.3674780115
 20
181.6560760863
 11
357.4853400115
 21
182.3206120863
  0
LINE
  5
2C5
100
AcDbEntity
  8
0
100
AcDbLine
 62
7
  6
CONTINUOUS
 10
444.0877070115
 20
373.4913030863
 11
442.6353820115
 21
373.5382560863
  0
LINE
  5
2C6
100
AcDbEntity
  8
0
100
AcDbLine
 62
7
  6
CONTINUOUS
 10
316.8456310115
 20
387.4219820863
 11
315.3933060115
 21
387.4689350863
  0
LINE
  5
2C7
100
AcDbEntity
  8
0
100
AcDbLine
 62
7
  6
CONTINUOUS
 10
444.1548840115
 20
371.7748230863
 11
443.3066040115
 21
371.8676940863
  0
LINE
  5
2C8
100
AcDbEntity
  8
0
100
AcDbLine
 62
7
  6
CONTINUOUS
 10
316.9128080115
 20
385.7055020863
 11
316.0645270115
 21
385.7983730863
  0
LINE
  5
2C9
100
AcDbEntity
  8
0
100
AcDbLine
 62
7
  6
CONTINUOUS
 10
316.9106710115
 20
385.9298360863
 11
316.5939920115
 21
385.9645070863
  0
LINE
  5
2CA
100
AcDbEntity
  8
0
100
AcDbLine
 62
7
  6
CONTINUOUS
 10
444.1527480115
 20
371.9991580863
 11
443.8360680115
 21
372.0338280863
  0
LINE
  5
2CB
100
AcDbEntity
  8
0
100
AcDbLine
 62
7
  6
CONTINUOUS
 10
318.0873070115
 20
386.9498900863
 11
316.8997150115
 21
387.0799100863
  0
LINE
  5
2CC
100
AcDbEntity
  8
0
100
AcDbLine
 62
7
  6
CONTINUOUS
 10
316.0514340115
 20
387.1727810863
 11
314.8638420115
 21
387.3028010863
  0
LINE
  5
2CD
100
AcDbEntity
  8
0
100
AcDbLine
 62
7
  6
CONTINUOUS
 10
445.3293840115
 20
373.0192120863
 11
444.1417910115
 21
373.1492310863
  0
LINE
  5
2CE
100
AcDbEntity
  8
0
100
AcDbLine
 62
7
  6
CONTINUOUS
 10
443.2935110115
 20
373.2421030863
 11
442.1059180115
 21
373.3721220863
  0
LINE
  5
2CF
100
AcDbEntity
  8
0
100
AcDbLine
 62
7
  6
CONTINUOUS
 10
444.9359880115
 20
373.3984320863
 11
444.0877070115
 21
373.4913030863
  0
LINE
  5
2D0
100
AcDbEntity
  8
0
100
AcDbLine
 62
7
  6
CONTINUOUS
 10
317.6939120115
 20
387.3291110863
 11
316.8456310115
 21
387.4219820863
  0
LINE
  5
2D1
100
AcDbEntity
  8
0
100
AcDbLine
 62
7
  6
CONTINUOUS
 10
314.8544890115
 20
388.2845210863
 11
316.0420820115
 21
388.1545010863
  0
LINE
  5
2D2
100
AcDbEntity
  8
0
100
AcDbLine
 62
7
  6
CONTINUOUS
 10
442.0965660115
 20
374.3538420863
 11
443.2841580115
 21
374.2238230863
  0
LINE
  5
2D3
100
AcDbEntity
  8
0
100
AcDbLine
 62
7
  6
CONTINUOUS
 10
444.1324390115
 20
374.1309520863
 11
445.3200320115
 21
374.0009320863
  0
LINE
  5
2D4
100
AcDbEntity
  8
0
100
AcDbLine
 62
7
  6
CONTINUOUS
 10
316.8903630115
 20
388.0616300863
 11
318.0779550115
 21
387.9316110863
  0
LINE
  5
2D5
100
AcDbEntity
  8
0
100
AcDbLine
 62
7
  6
CONTINUOUS
 10
444.0783550115
 20
374.4730240863
 11
444.1292340115
 21
374.4674530863
  0
LINE
  5
2D6
100
AcDbEntity
  8
0
100
AcDbLine
 62
7
  6
CONTINUOUS
 10
316.8362790115
 20
388.4037020863
 11
316.8871580115
 21
388.3981320863
  0
LINE
  5
2D7
100
AcDbEntity
  8
0
100
AcDbLine
 62
7
  6
CONTINUOUS
 10
316.0289890115
 20
389.5289100863
 11
316.8772700115
 21
389.4360380863
  0
LINE
  5
2D8
100
AcDbEntity
  8
0
100
AcDbLine
 62
7
  6
CONTINUOUS
 10
443.2710650115
 20
375.5982310863
 11
444.1193460115
 21
375.5053600863
  0
LINE
  5
2D9
100
AcDbEntity
  8
0
100
AcDbLine
 62
7
  6
CONTINUOUS
 10
317.6939120115
 20
387.3291110863
 11
318.0845550115
 21
387.2389120863
  0
LINE
  5
2DA
100
AcDbEntity
  8
0
100
AcDbLine
 62
7
  6
CONTINUOUS
 10
444.9359880115
 20
373.3984320863
 11
445.3266310115
 21
373.3082330863
  0
LINE
  5
2DB
100
AcDbEntity
  8
0
100
AcDbLine
 62
7
  6
CONTINUOUS
 10
514.3117540115
 20
160.4978000863
 11
511.7076780115
 21
433.8547880863
  0
LINE
  5
2DC
100
AcDbEntity
  8
0
100
AcDbLine
 62
7
  6
CONTINUOUS
 10
514.6334520115
 20
339.8049620863
 11
515.3314820115
 21
266.5308380863
  0
LINE
  5
2DD
100
AcDbEntity
  8
0
100
AcDbLine
 62
7
  6
CONTINUOUS
 10
518.9623090115
 20
232.5980060863
 11
519.2896340115
 21
198.2378010863
  0
LINE
  5
2DE
100
AcDbEntity
  8
0
100
AcDbLine
 62
7
  6
CONTINUOUS
 10
517.5968960115
 20
375.9291490863
 11
517.2695700115
 21
410.2893550863
  0
LINE
  5
2DF
100
AcDbEntity
  8
0
100
AcDbLine
 62
7
  6
CONTINUOUS
 10
537.7276620115
 20
248.1981720863
 11
538.2713930115
 21
191.1212520863
  0
LINE
  5
2E0
100
AcDbEntity
  8
0
100
AcDbLine
 62
7
  6
CONTINUOUS
 10
536.5400970115
 20
372.8600010863
 11
535.9714460115
 21
432.5528850863
  0
LINE
  5
2E1
100
AcDbEntity
  8
0
100
AcDbLine
 62
7
  6
CONTINUOUS
 10
540.6712520115
 20
250.6452580863
 11
539.5115860115
 21
372.3785580863
  0
LINE
  5
2E2
100
AcDbEntity
  8
0
100
AcDbLine
 62
7
  6
CONTINUOUS
 10
540.6712520115
 20
250.6452580863
 11
518.9623090115
 21
232.5980060863
  0
LINE
  5
2E3
100
AcDbEntity
  8
0
100
AcDbLine
 62
7
  6
CONTINUOUS
 10
382.7604100115
 20
178.9245220863
 11
382.4627310115
 21
178.8225430863
  0
LINE
  5
2E4
100
AcDbEntity
  8
0
100
AcDbLine
 62
7
  6
CONTINUOUS
 10
383.6110460115
 20
178.5639220863
 11
384.2242830115
 21
178.7642330863
  0
LINE
  5
2E5
100
AcDbEntity
  8
0
100
AcDbLine
 62
7
  6
CONTINUOUS
 10
368.4932130115
 20
183.8334380863
 11
366.9048200115
 21
183.3350370863
  0
LINE
  5
2E6
100
AcDbEntity
  8
0
100
AcDbLine
 62
7
  6
CONTINUOUS
 10
380.7924760115
 20
182.9761210863
 11
380.3689040115
 21
182.8432140863
  0
LINE
  5
2E7
100
AcDbEntity
  8
0
100
AcDbLine
 62
7
  6
CONTINUOUS
 10
380.8018280115
 20
181.9944010863
 11
380.3782560115
 21
181.8614930863
  0
LINE
  5
2E8
100
AcDbEntity
  8
0
100
AcDbLine
 62
7
  6
CONTINUOUS
 10
387.4426240115
 20
182.0687710863
 11
387.6227300115
 21
182.1252840863
  0
LINE
  5
2E9
100
AcDbEntity
  8
0
100
AcDbLine
 62
7
  6
CONTINUOUS
 10
404.9569480115
 20
177.9482140863
 11
403.8897470115
 21
177.6133510863
  0
LINE
  5
2EA
100
AcDbEntity
  8
0
100
AcDbLine
 62
7
  6
CONTINUOUS
 10
403.7194670115
 20
176.3624180863
 11
404.5352440115
 21
176.6183900863
  0
LINE
  5
2EB
100
AcDbEntity
  8
0
100
AcDbLine
 62
7
  6
CONTINUOUS
 10
380.1946070115
 20
183.0415760863
 11
379.7591280115
 21
182.9099730863
  0
LINE
  5
2EC
100
AcDbEntity
  8
0
100
AcDbLine
 62
7
  6
CONTINUOUS
 10
375.4758980115
 20
179.4545720863
 11
376.1264250115
 21
179.6508000863
  0
LINE
  5
2ED
100
AcDbEntity
  8
0
100
AcDbLine
 62
7
  6
CONTINUOUS
 10
511.7849590115
 20
425.7444690863
 11
535.9714460115
 21
432.5528850863
  0
LINE
  5
2EE
100
AcDbEntity
  8
0
100
AcDbLine
 62
7
  6
CONTINUOUS
 10
517.2695700115
 20
410.2893550863
 11
511.9348700115
 21
410.0074720863
  0
LINE
  5
2EF
100
AcDbEntity
  8
0
100
AcDbLine
 62
7
  6
CONTINUOUS
 10
514.2995710115
 20
410.6145150863
 11
511.9302840115
 21
410.4893230863
  0
LINE
  5
2F0
100
AcDbEntity
  8
0
100
AcDbLine
 62
7
  6
CONTINUOUS
 10
539.5115860115
 20
372.3785580863
 11
517.5968960115
 21
375.9291490863
  0
LINE
  5
2F1
100
AcDbEntity
  8
0
100
AcDbLine
 62
7
  6
CONTINUOUS
 10
519.2896340115
 20
198.2378010863
 11
513.9832500115
 21
194.9835230863
  0
LINE
  5
2F2
100
AcDbEntity
  8
0
100
AcDbLine
 62
7
  6
CONTINUOUS
 10
514.1082480115
 20
181.8625010863
 11
538.2713930115
 21
191.1212520863
  0
LINE
  5
2F3
100
AcDbEntity
  8
0
100
AcDbLine
 62
7
  6
CONTINUOUS
 10
514.2995710115
 20
410.6145150863
 11
517.2695700115
 21
410.2893550863
  0
LINE
  5
2F4
100
AcDbEntity
  8
0
100
AcDbLine
 62
7
  6
CONTINUOUS
 10
472.3820090115
 20
421.5439980863
 11
286.3795970115
 21
441.9078590863
  0
LINE
  5
2F5
100
AcDbEntity
  8
0
100
AcDbLine
 62
7
  6
CONTINUOUS
 10
472.3793340115
 20
421.8248060863
 11
286.1140520115
 21
442.2174450863
  0
LINE
  5
2F6
100
AcDbEntity
  8
0
100
AcDbLine
 62
7
  6
CONTINUOUS
 10
472.3732390115
 20
422.4642830863
 11
281.8765820115
 21
443.3201810863
  0
LINE
  5
2F7
100
AcDbEntity
  8
0
100
AcDbLine
 62
7
  6
CONTINUOUS
 10
494.9834710115
 20
425.4868750863
 11
259.1614900115
 21
451.3050660863
  0
LINE
  5
2F8
100
AcDbEntity
  8
0
100
AcDbLine
 62
7
  6
CONTINUOUS
 10
510.4874470115
 20
433.9883800863
 11
511.7076780115
 21
433.8547880863
  0
LINE
  5
2F9
100
AcDbEntity
  8
0
100
AcDbLine
 62
7
  6
CONTINUOUS
 10
510.3781690115
 20
435.3548810863
 11
535.9714460115
 21
432.5528850863
  0
LINE
  5
2FA
100
AcDbEntity
  8
0
100
AcDbLine
 62
7
  6
CONTINUOUS
 10
513.0969540115
 20
160.0612440863
 11
514.3117540115
 21
160.4978000863
  0
LINE
  5
2FB
100
AcDbEntity
  8
0
100
AcDbLine
 62
7
  6
CONTINUOUS
 10
497.9206880115
 20
161.6359750863
 11
498.8418250115
 21
161.9250060863
  0
LINE
  5
2FC
100
AcDbEntity
  8
0
100
AcDbLine
 62
7
  6
CONTINUOUS
 10
497.6461920115
 20
161.2053290863
 11
498.7051210115
 21
161.5375970863
  0
LINE
  5
2FD
100
AcDbEntity
  8
0
100
AcDbLine
 62
7
  6
CONTINUOUS
 10
513.1935870115
 20
149.9158190863
 11
512.9288550115
 21
149.8327530863
  0
LINE
  5
2FE
100
AcDbEntity
  8
0
100
AcDbLine
 62
7
  6
CONTINUOUS
 10
508.8025020115
 20
143.0257540863
 11
508.4714290115
 21
142.9218720863
  0
LINE
  5
2FF
100
AcDbEntity
  8
0
100
AcDbLine
 62
7
  6
CONTINUOUS
 10
253.6254650115
 20
469.8807990863
 11
503.3612830115
 21
442.5392970863
  0
LINE
  5
300
100
AcDbEntity
  8
0
100
AcDbLine
 62
7
  6
CONTINUOUS
 10
503.6260150115
 20
442.6223640863
 11
253.8901970115
 21
469.9638660863
  0
ARC
  5
301
100
AcDbEntity
  8
0
100
AcDbCircle
 62
7
  6
CONTINUOUS
 10
260.9952780115
 20
178.7838170863
 40
11.375557
100
AcDbArc
 50
180.622684
 51
193.081625
  0
ARC
  5
302
100
AcDbEntity
  8
0
100
AcDbCircle
 62
7
  6
CONTINUOUS
 10
260.9458480115
 20
178.7593610863
 40
11.321987
100
AcDbArc
 50
193.017693
 51
199.271118
  0
ARC
  5
303
100
AcDbEntity
  8
0
100
AcDbCircle
 62
7
  6
CONTINUOUS
 10
260.4077570115
 20
178.5689570863
 40
10.751142
100
AcDbArc
 50
199.25969
 51
205.170146
  0
ARC
  5
304
100
AcDbEntity
  8
0
100
AcDbCircle
 62
7
  6
CONTINUOUS
 10
258.7098060115
 20
179.7853900863
 40
10.152886
100
AcDbArc
 50
223.539592
 51
225.282011
  0
ARC
  5
305
100
AcDbEntity
  8
0
100
AcDbCircle
 62
7
  6
CONTINUOUS
 10
258.5660570115
 20
179.6353110863
 40
9.945074
100
AcDbArc
 50
225.262113
 51
231.772266
  0
ARC
  5
306
100
AcDbEntity
  8
0
100
AcDbCircle
 62
7
  6
CONTINUOUS
 10
259.6631960115
 20
178.2161580863
 40
9.927135
100
AcDbArc
 50
205.154949
 51
211.452388
  0
ARC
  5
307
100
AcDbEntity
  8
0
100
AcDbCircle
 62
7
  6
CONTINUOUS
 10
258.2473520115
 20
179.2284980863
 40
9.428218
100
AcDbArc
 50
231.76394
 51
238.448
  0
ARC
  5
308
100
AcDbEntity
  8
0
100
AcDbCircle
 62
7
  6
CONTINUOUS
 10
259.1369210115
 20
177.9041750863
 40
9.315339
100
AcDbArc
 50
211.504425
 51
213.287676
  0
ARC
  5
309
100
AcDbEntity
  8
0
100
AcDbCircle
 62
7
  6
CONTINUOUS
 10
257.8602890115
 20
178.5921750863
 40
8.683304
100
AcDbArc
 50
238.427361
 51
246.170746
  0
ARC
  5
30A
100
AcDbEntity
  8
0
100
AcDbCircle
 62
7
  6
CONTINUOUS
 10
505.3083880115
 20
149.7499680863
 40
7.620737
100
AcDbArc
 50
342.454377
 51
0.622406
  0
ARC
  5
30B
100
AcDbEntity
  8
0
100
AcDbCircle
 62
7
  6
CONTINUOUS
 10
505.5235250115
 20
149.6909690863
 40
7.397629
100
AcDbArc
 50
333.178174
 51
342.38775
  0
ARC
  5
30C
100
AcDbEntity
  8
0
100
AcDbCircle
 62
7
  6
CONTINUOUS
 10
505.6107520115
 20
149.6475510863
 40
7.300171
100
AcDbArc
 50
324.740339
 51
333.173377
  0
ARC
  5
30D
100
AcDbEntity
  8
0
100
AcDbCircle
 62
7
  6
CONTINUOUS
 10
257.3340950115
 20
177.3043540863
 40
7.291818
100
AcDbArc
 50
245.864667
 51
263.285368
  0
ARC
  5
30E
100
AcDbEntity
  8
0
100
AcDbCircle
 62
7
  6
CONTINUOUS
 10
505.6703220115
 20
149.6056580863
 40
7.227329
100
AcDbArc
 50
316.214574
 51
324.738901
  0
ARC
  5
30F
100
AcDbEntity
  8
0
100
AcDbCircle
 62
7
  6
CONTINUOUS
 10
505.6995730115
 20
149.5787900863
 40
7.187613
100
AcDbArc
 50
313.894829
 51
316.20785
  0
ARC
  5
310
100
AcDbEntity
  8
0
100
AcDbCircle
 62
7
  6
CONTINUOUS
 10
506.8713060115
 20
148.2861580863
 40
5.601567
100
AcDbArc
 50
263.297616
 51
284.080231
  0
ARC
  5
311
100
AcDbEntity
  8
0
100
AcDbCircle
 62
7
  6
CONTINUOUS
 10
389.9608530115
 20
183.4162360863
 40
5.339593
100
AcDbArc
 50
180.708428
 51
204.743374
  0
ARC
  5
312
100
AcDbEntity
  8
0
100
AcDbCircle
 62
7
  6
CONTINUOUS
 10
506.9905980115
 20
147.6391440863
 40
4.94423
100
AcDbArc
 50
284.563444
 51
287.427139
  0
ARC
  5
313
100
AcDbEntity
  8
0
100
AcDbCircle
 62
7
  6
CONTINUOUS
 10
506.9166220115
 20
147.5603180863
 40
4.917083
100
AcDbArc
 50
317.204539
 51
319.994236
  0
ARC
  5
314
100
AcDbEntity
  8
0
100
AcDbCircle
 62
7
  6
CONTINUOUS
 10
507.0395810115
 20
147.4922400863
 40
4.789376
100
AcDbArc
 50
287.394387
 51
295.963245
  0
ARC
  5
315
100
AcDbEntity
  8
0
100
AcDbCircle
 62
7
  6
CONTINUOUS
 10
507.0398910115
 20
147.4417860863
 40
4.746066
100
AcDbArc
 50
306.678321
 51
317.243535
  0
ARC
  5
316
100
AcDbEntity
  8
0
100
AcDbCircle
 62
7
  6
CONTINUOUS
 10
507.0937440115
 20
147.3758430863
 40
4.660985
100
AcDbArc
 50
295.991046
 51
306.631593
  0
ARC
  5
317
100
AcDbEntity
  8
0
100
AcDbCircle
 62
7
  6
CONTINUOUS
 10
445.5636150115
 20
300.3721510863
 40
1.798747
100
AcDbArc
 50
223.11664
 51
233.537088
  0
ARC
  5
318
100
AcDbEntity
  8
0
100
AcDbCircle
 62
7
  6
CONTINUOUS
 10
318.3215380115
 20
314.3028290863
 40
1.798747
100
AcDbArc
 50
223.11664
 51
233.537088
  0
ARC
  5
319
100
AcDbEntity
  8
0
100
AcDbCircle
 62
7
  6
CONTINUOUS
 10
361.0981560115
 20
182.9584790863
 40
1.780882
100
AcDbArc
 50
22.177148
 51
28.160719
  0
ARC
  5
31A
100
AcDbEntity
  8
0
100
AcDbCircle
 62
7
  6
CONTINUOUS
 10
381.1853080115
 20
381.0571600863
 40
1.7684
100
AcDbArc
 50
154.135598
 51
171.824472
  0
ARC
  5
31B
100
AcDbEntity
  8
0
100
AcDbCircle
 62
7
  6
CONTINUOUS
 10
382.5880300115
 20
233.7991680863
 40
1.768295
100
AcDbArc
 50
154.135089
 51
171.825013
  0
ARC
  5
31C
100
AcDbEntity
  8
0
100
AcDbCircle
 62
7
  6
CONTINUOUS
 10
445.4712940115
 20
300.2203390863
 40
1.620974
100
AcDbArc
 50
232.972768
 51
277.896194
  0
ARC
  5
31D
100
AcDbEntity
  8
0
100
AcDbCircle
 62
7
  6
CONTINUOUS
 10
318.2292180115
 20
314.1510180863
 40
1.620974
100
AcDbArc
 50
232.972768
 51
277.896194
  0
ARC
  5
31E
100
AcDbEntity
  8
0
100
AcDbCircle
 62
7
  6
CONTINUOUS
 10
382.4425790115
 20
233.8778670863
 40
1.602589
100
AcDbArc
 50
116.79557
 51
154.39824
  0
ARC
  5
31F
100
AcDbEntity
  8
0
100
AcDbCircle
 62
7
  6
CONTINUOUS
 10
381.0397570115
 20
381.1358900863
 40
1.602589
100
AcDbArc
 50
116.79557
 51
154.39824
  0
ARC
  5
320
100
AcDbEntity
  8
0
100
AcDbCircle
 62
7
  6
CONTINUOUS
 10
497.7683090115
 20
248.0235170863
 40
1.423854
100
AcDbArc
 50
263.595848
 51
283.505725
  0
ARC
  5
321
100
AcDbEntity
  8
0
100
AcDbCircle
 62
7
  6
CONTINUOUS
 10
444.2365150115
 20
300.6130220863
 40
1.416808
100
AcDbArc
 50
83.550129
 51
107.274926
  0
ARC
  5
322
100
AcDbEntity
  8
0
100
AcDbCircle
 62
7
  6
CONTINUOUS
 10
381.6726290115
 20
232.8383360863
 40
1.416808
100
AcDbArc
 50
263.550129
 51
287.274926
  0
ARC
  5
323
100
AcDbEntity
  8
0
100
AcDbCircle
 62
7
  6
CONTINUOUS
 10
381.3168880115
 20
233.9493490863
 40
1.416808
100
AcDbArc
 50
83.550129
 51
107.274926
  0
ARC
  5
324
100
AcDbEntity
  8
0
100
AcDbCircle
 62
7
  6
CONTINUOUS
 10
316.9944390115
 20
314.5437010863
 40
1.416808
100
AcDbArc
 50
83.550129
 51
107.274926
  0
ARC
  5
325
100
AcDbEntity
  8
0
100
AcDbCircle
 62
7
  6
CONTINUOUS
 10
380.2698070115
 20
380.0963600863
 40
1.416808
100
AcDbArc
 50
263.550129
 51
287.274926
  0
ARC
  5
326
100
AcDbEntity
  8
0
100
AcDbCircle
 62
7
  6
CONTINUOUS
 10
379.9140660115
 20
381.2073730863
 40
1.416808
100
AcDbArc
 50
83.550129
 51
107.274926
  0
ARC
  5
327
100
AcDbEntity
  8
0
100
AcDbCircle
 62
7
  6
CONTINUOUS
 10
258.8937100115
 20
364.4915980863
 40
1.40948
100
AcDbArc
 50
83.50387
 51
110.932898
  0
ARC
  5
328
100
AcDbEntity
  8
0
100
AcDbCircle
 62
7
  6
CONTINUOUS
 10
528.2205550115
 20
802.5763830863
 40
378.527516
100
AcDbArc
 50
264.777241
 51
265.167455
  0
ARC
  5
329
100
AcDbEntity
  8
0
100
AcDbCircle
 62
7
  6
CONTINUOUS
 10
527.2468550115
 20
511.8294170863
 40
352.75438
100
AcDbArc
 50
264.965406
 51
265.383989
  0
ARC
  5
32A
100
AcDbEntity
  8
0
100
AcDbCircle
 62
7
  6
CONTINUOUS
 10
295.4324180115
 20
722.1586470863
 40
273.244586
100
AcDbArc
 50
262.146399
 51
262.629888
  0
ARC
  5
32B
100
AcDbEntity
  8
0
100
AcDbCircle
 62
7
  6
CONTINUOUS
 10
296.2718240115
 20
436.8616810863
 40
253.08342
100
AcDbArc
 50
261.90222
 51
262.424522
  0
ARC
  5
32C
100
AcDbEntity
  8
0
100
AcDbCircle
 62
7
  6
CONTINUOUS
 10
256.8908770115
 20
462.9052040863
 40
9.977171
100
AcDbArc
 50
167.191716
 51
180.776371
  0
ARC
  5
32D
100
AcDbEntity
  8
0
100
AcDbCircle
 62
7
  6
CONTINUOUS
 10
501.4835510115
 20
433.5462000863
 40
8.811249
100
AcDbArc
 50
41.529334
 51
43.540744
  0
ARC
  5
32E
100
AcDbEntity
  8
0
100
AcDbCircle
 62
7
  6
CONTINUOUS
 10
501.5154790115
 20
433.5735590863
 40
8.769201
100
AcDbArc
 50
34.064303
 51
41.533821
  0
ARC
  5
32F
100
AcDbEntity
  8
0
100
AcDbCircle
 62
7
  6
CONTINUOUS
 10
501.6311140115
 20
433.6517930863
 40
8.629562
100
AcDbArc
 50
26.534914
 51
34.064039
  0
ARC
  5
330
100
AcDbEntity
  8
0
100
AcDbCircle
 62
7
  6
CONTINUOUS
 10
501.8160800115
 20
433.7440280863
 40
8.422835
100
AcDbArc
 50
18.097719
 51
26.535687
  0
ARC
  5
331
100
AcDbEntity
  8
0
100
AcDbCircle
 62
7
  6
CONTINUOUS
 10
255.1492530115
 20
463.2701310863
 40
8.197285
100
AcDbArc
 50
159.23273
 51
166.980266
  0
ARC
  5
332
100
AcDbEntity
  8
0
100
AcDbCircle
 62
7
  6
CONTINUOUS
 10
502.1597840115
 20
433.8487710863
 40
8.063356
100
AcDbArc
 50
0.666518
 51
18.148924
  0
ARC
  5
333
100
AcDbEntity
  8
0
100
AcDbCircle
 62
7
  6
CONTINUOUS
 10
501.4057850115
 20
435.3713500863
 40
7.733828
100
AcDbArc
 50
33.287665
 51
35.418368
  0
ARC
  5
334
100
AcDbEntity
  8
0
100
AcDbCircle
 62
7
  6
CONTINUOUS
 10
253.7987210115
 20
462.5407720863
 40
7.587598
100
AcDbArc
 50
131.714743
 51
133.89781
  0
ARC
  5
335
100
AcDbEntity
  8
0
100
AcDbCircle
 62
7
  6
CONTINUOUS
 10
501.7592080115
 20
435.6325360863
 40
7.294374
100
AcDbArc
 50
35.355313
 51
43.557481
  0
ARC
  5
336
100
AcDbEntity
  8
0
100
AcDbCircle
 62
7
  6
CONTINUOUS
 10
253.5966630115
 20
462.7761950863
 40
7.277358
100
AcDbArc
 50
123.475498
 51
131.760612
  0
ARC
  5
337
100
AcDbEntity
  8
0
100
AcDbCircle
 62
7
  6
CONTINUOUS
 10
254.0561430115
 20
463.6832810863
 40
7.028485
100
AcDbArc
 50
151.392467
 51
159.222294
  0
ARC
  5
338
100
AcDbEntity
  8
0
100
AcDbCircle
 62
7
  6
CONTINUOUS
 10
253.3269070115
 20
463.1834270863
 40
6.788778
100
AcDbArc
 50
114.853629
 51
123.472218
  0
ARC
  5
339
100
AcDbEntity
  8
0
100
AcDbCircle
 62
7
  6
CONTINUOUS
 10
502.2132160115
 20
436.0629900863
 40
6.668606
100
AcDbArc
 50
43.565261
 51
52.247098
  0
ARC
  5
33A
100
AcDbEntity
  8
0
100
AcDbCircle
 62
7
  6
CONTINUOUS
 10
253.1529990115
 20
463.5516060863
 40
6.381525
100
AcDbArc
 50
107.465709
 51
114.826205
  0
ARC
  5
33B
100
AcDbEntity
  8
0
100
AcDbCircle
 62
7
  6
CONTINUOUS
 10
502.5298180115
 20
436.4711390863
 40
6.151919
100
AcDbArc
 50
52.25112
 51
62.348523
  0
ARC
  5
33C
100
AcDbEntity
  8
0
100
AcDbCircle
 62
7
  6
CONTINUOUS
 10
253.0796740115
 20
463.7737910863
 40
6.147552
100
AcDbArc
 50
104.859215
 51
107.435331
  0
ARC
  5
33D
100
AcDbEntity
  8
0
100
AcDbCircle
 62
7
  6
CONTINUOUS
 10
253.1766890115
 20
464.1635050863
 40
6.026248
100
AcDbArc
 50
142.646431
 51
151.397303
  0
ARC
  5
33E
100
AcDbEntity
  8
0
100
AcDbCircle
 62
7
  6
CONTINUOUS
 10
253.0093170115
 20
464.0990740863
 40
5.814795
100
AcDbArc
 50
83.917052
 51
105.011084
  0
ARC
  5
33F
100
AcDbEntity
  8
0
100
AcDbCircle
 62
7
  6
CONTINUOUS
 10
502.7292540115
 20
436.8594710863
 40
5.715093
100
AcDbArc
 50
62.312798
 51
83.650478
  0
ARC
  5
340
100
AcDbEntity
  8
0
100
AcDbCircle
 62
7
  6
CONTINUOUS
 10
252.7327350115
 20
464.4879600863
 40
5.476388
100
AcDbArc
 50
139.99845
 51
142.526641
  0
ARC
  5
341
100
AcDbEntity
  8
0
100
AcDbCircle
 62
7
  6
CONTINUOUS
 10
949.6029220115
 20
-19.7706409137
 40
637.309146
100
AcDbArc
 50
133.877624
 51
135.664202
  0
ARC
  5
342
100
AcDbEntity
  8
0
100
AcDbCircle
 62
7
  6
CONTINUOUS
 10
784.9692350115
 20
405.0492210863
 40
378.379847
100
AcDbArc
 50
220.276385
 51
223.539763
  0
ELLIPSE
  5
343
100
AcDbEntity
  8
0
100
AcDbEllipse
 62
7
  6
CONTINUOUS
 10
324.4368470115
 20
459.2180320863
 30
0.0
 11
97.8413238525
 21
-106.1650772095
 31
0.0
 40
0.37696
 41
4.299735607
 42
4.4496838337
  0
ELLIPSE
  5
344
100
AcDbEntity
  8
0
100
AcDbEllipse
 62
7
  6
CONTINUOUS
 10
332.0625340115
 20
214.1076880863
 30
0.0
 11
108.1248550415
 21
95.3966064453
 31
0.0
 40
0.196066
 41
2.0813512863
 42
2.2259856603
  0
ELLIPSE
  5
345
100
AcDbEntity
  8
0
100
AcDbEllipse
 62
7
  6
CONTINUOUS
 10
388.4244200115
 20
182.9347680863
 30
0.0
 11
1.3402553797
 21
-4.2772216797
 31
0.0
 40
0.831996
 41
3.8400203429
 42
4.3632334126
  0
ELLIPSE
  5
346
100
AcDbEntity
  8
0
100
AcDbEllipse
 62
7
  6
CONTINUOUS
 10
503.7008360115
 20
434.7686000863
 30
0.0
 11
2.3950798512
 21
-7.6330590248
 31
0.0
 40
0.831906
 41
1.22114116
 42
2.7919374868
  0
ELLIPSE
  5
347
100
AcDbEntity
  8
0
100
AcDbEllipse
 62
7
  6
CONTINUOUS
 10
506.4073480115
 20
150.6587820863
 30
0.0
 11
-2.3950798512
 21
7.6330590248
 31
0.0
 40
0.831906
 41
3.1416050058
 42
4.3627338136
  0
ELLIPSE
  5
348
100
AcDbEntity
  8
0
100
AcDbEllipse
 62
7
  6
CONTINUOUS
 10
253.9650110115
 20
462.1101070863
 30
0.0
 11
2.3950798512
 21
-7.6330590248
 31
0.0
 40
0.831906
 41
2.7919374868
 42
3.1416050058
  0
ELLIPSE
  5
349
100
AcDbEntity
  8
0
100
AcDbEllipse
 62
7
  6
CONTINUOUS
 10
494.9881510115
 20
424.9960170863
 30
0.0
 11
0.1496924907
 21
-0.4770661891
 31
0.0
 40
0.831906
 41
1.2211411631
 42
2.7919374836
  0
ELLIPSE
  5
34A
100
AcDbEntity
  8
0
100
AcDbEllipse
 62
7
  6
CONTINUOUS
 10
259.1661680115
 20
450.8142080863
 30
0.0
 11
0.1496924907
 21
-0.4770661891
 31
0.0
 40
0.831906
 41
9.0751227971
 42
10.6459191176
  0
ELLIPSE
  5
34B
100
AcDbEntity
  8
0
100
AcDbEllipse
 62
7
  6
CONTINUOUS
 10
261.6745680115
 20
187.5006020863
 30
0.0
 11
0.1496924907
 21
-0.4770661891
 31
0.0
 40
0.831906
 41
4.3627338167
 42
5.9335301372
  0
ELLIPSE
  5
34C
100
AcDbEntity
  8
0
100
AcDbEllipse
 62
7
  6
CONTINUOUS
 10
497.4965510115
 20
161.6824030863
 30
0.0
 11
0.1496924907
 21
-0.4770661891
 31
0.0
 40
0.831906
 41
5.9335301435
 42
7.504326464
  0
ELLIPSE
  5
34D
100
AcDbEntity
  8
0
100
AcDbEllipse
 62
7
  6
CONTINUOUS
 10
403.7054380115
 20
177.8349990863
 30
0.0
 11
0.449077487
 21
-1.431198597
 31
0.0
 40
0.831906
 41
12.2167154475
 42
15.3583081011
  0
ELLIPSE
  5
34E
100
AcDbEntity
  8
0
100
AcDbEllipse
 62
7
  6
CONTINUOUS
 10
379.5282630115
 20
180.5901710863
 30
0.0
 11
-1.5144174099
 21
4.8264102936
 31
0.0
 40
0.831906
 41
9.0751576131
 42
10.321932514
  0
ELLIPSE
  5
34F
100
AcDbEntity
  8
0
100
AcDbEllipse
 62
7
  6
CONTINUOUS
 10
379.5285610115
 20
180.5901330863
 30
0.0
 11
1.5144174099
 21
-4.8264102936
 31
0.0
 40
0.831906
 41
4.6867204203
 42
5.9334953212
  0
ELLIPSE
  5
350
100
AcDbEntity
  8
0
100
AcDbEllipse
 62
7
  6
CONTINUOUS
 10
355.3534500115
 20
183.1286540863
 30
0.0
 11
0.449077487
 21
-1.431198597
 31
0.0
 40
0.831906
 41
2.7919374868
 42
5.9335301403
  0
ELLIPSE
  5
351
100
AcDbEntity
  8
0
100
AcDbEllipse
 62
7
  6
CONTINUOUS
 10
379.4967120115
 20
183.9178460863
 30
0.0
 11
4.4907746315
 21
-14.3119859695
 31
0.0
 40
0.831906
 41
1.0874095705
 42
4.496465403
  0
ELLIPSE
  5
352
100
AcDbEntity
  8
0
100
AcDbEllipse
 62
7
  6
CONTINUOUS
 10
498.5554800115
 20
162.0146780863
 30
0.0
 11
-0.1496924907
 21
0.4770661891
 31
0.0
 40
0.831906
 41
3.1414711768
 42
3.5307934857
  0
ELLIPSE
  5
353
100
AcDbEntity
  8
0
100
AcDbEllipse
 62
7
  6
CONTINUOUS
 10
383.4992510115
 20
181.8361730863
 30
0.0
 11
1.4752240181
 21
-4.7015018463
 31
0.0
 40
0.831906
 41
1.1221414623
 42
1.5065393234
  0
ELLIPSE
  5
354
100
AcDbEntity
  8
0
100
AcDbEllipse
 62
7
  6
CONTINUOUS
 10
384.3341610115
 20
182.0980220863
 30
0.0
 11
-1.4669864178
 21
4.6752486229
 31
0.0
 40
0.831906
 41
1.3609449765
 42
1.3949198347
  0
ELLIPSE
  5
355
100
AcDbEntity
  8
0
100
AcDbEllipse
 62
7
  6
CONTINUOUS
 10
384.3341610115
 20
182.0980220863
 30
0.0
 11
-1.4669864178
 21
4.6752486229
 31
0.0
 40
0.831906
 41
1.9913158206
 42
2.5089881223
  0
ELLIPSE
  5
356
100
AcDbEntity
  8
0
100
AcDbEllipse
 62
7
  6
CONTINUOUS
 10
383.9105900115
 20
181.9651180863
 30
0.0
 11
-1.4711670876
 21
4.6885724068
 31
0.0
 40
0.831906
 41
1.1192139157
 42
1.3230684042
  0
ELLIPSE
  5
357
100
AcDbEntity
  8
0
100
AcDbEllipse
 62
7
  6
CONTINUOUS
 10
384.3341610115
 20
182.0980220863
 30
0.0
 11
-1.466986537
 21
4.6752490997
 31
0.0
 40
0.831906
 41
0.0811404596
 42
1.1189224206
  0
ELLIPSE
  5
358
100
AcDbEntity
  8
0
100
AcDbEllipse
 62
7
  6
CONTINUOUS
 10
357.4713110115
 20
183.7931890863
 30
0.0
 11
0.449077487
 21
-1.431198597
 31
0.0
 40
0.831906
 41
3.9612647089
 42
5.9335301403
  0
ELLIPSE
  5
359
100
AcDbEntity
  8
0
100
AcDbEllipse
 62
7
  6
CONTINUOUS
 10
381.0851050115
 20
184.4162520863
 30
0.0
 11
-4.4907746315
 21
14.3119859695
 31
0.0
 40
0.831906
 41
1.3548727494
 42
1.412193294
  0
ELLIPSE
  5
35A
100
AcDbEntity
  8
0
100
AcDbEllipse
 62
7
  6
CONTINUOUS
 10
383.4677000115
 20
185.1638560863
 30
0.0
 11
-4.4907746315
 21
14.3119859695
 31
0.0
 40
0.831906
 41
0.1675438228
 42
1.4825539651
  0
ELLIPSE
  5
35B
100
AcDbEntity
  8
0
100
AcDbEllipse
 62
7
  6
CONTINUOUS
 10
381.0851050115
 20
184.4162520863
 30
0.0
 11
-4.4907746315
 21
14.3119859695
 31
0.0
 40
0.831906
 41
4.1716816893
 42
4.1827276188
  0
ELLIPSE
  5
35C
100
AcDbEntity
  8
0
100
AcDbEllipse
 62
7
  6
CONTINUOUS
 10
400.6282900115
 20
178.8441920863
 30
0.0
 11
-0.449077487
 21
1.431198597
 31
0.0
 40
0.831906
 41
0.6469009663
 42
0.722434358
  0
ELLIPSE
  5
35D
100
AcDbEntity
  8
0
100
AcDbEllipse
 62
7
  6
CONTINUOUS
 10
401.1577580115
 20
179.0103300863
 30
0.0
 11
0.449077487
 21
-1.431198597
 31
0.0
 40
0.831906
 41
3.9612647089
 42
3.9976157055
  0
ELLIPSE
  5
35E
100
AcDbEntity
  8
0
100
AcDbEllipse
 62
7
  6
CONTINUOUS
 10
383.4995500115
 20
181.8361430863
 30
0.0
 11
-1.4752240181
 21
4.7015018463
 31
0.0
 40
0.831906
 41
5.933565885
 42
7.6033261817
  0
ELLIPSE
  5
35F
100
AcDbEntity
  8
0
100
AcDbEllipse
 62
7
  6
CONTINUOUS
 10
383.4992510115
 20
181.8361730863
 30
0.0
 11
-1.4752240181
 21
4.7015018463
 31
0.0
 40
0.831906
 41
4.6481319769
 42
5.9334943957
  0
ELLIPSE
  5
360
100
AcDbEntity
  8
0
100
AcDbEllipse
 62
7
  6
CONTINUOUS
 10
384.3341610115
 20
182.0980220863
 30
0.0
 11
1.2572654486
 21
-4.0068731308
 31
0.0
 40
0.831906
 41
3.3560342194
 42
3.3774413121
  0
ELLIPSE
  5
361
100
AcDbEntity
  8
0
100
AcDbEllipse
 62
7
  6
CONTINUOUS
 10
383.9102910115
 20
181.9651480863
 30
0.0
 11
1.2572654486
 21
-4.0068731308
 31
0.0
 40
0.831906
 41
1.1017960846
 42
1.3404862354
  0
ELLIPSE
  5
362
100
AcDbEntity
  8
0
100
AcDbEllipse
 62
7
  6
CONTINUOUS
 10
384.3341610115
 20
182.0980220863
 30
0.0
 11
-1.2572654486
 21
4.0068731308
 31
0.0
 40
0.831906
 41
2.1694009222
 42
2.227840756
  0
ELLIPSE
  5
363
100
AcDbEntity
  8
0
100
AcDbEllipse
 62
7
  6
CONTINUOUS
 10
384.3341610115
 20
182.0980220863
 30
0.0
 11
-1.2572654486
 21
4.0068731308
 31
0.0
 40
0.831906
 41
6.5190339667
 42
7.7072455503
  0
ELLIPSE
  5
364
100
AcDbEntity
  8
0
100
AcDbEllipse
 62
7
  6
CONTINUOUS
 10
383.9105900115
 20
181.9651180863
 30
0.0
 11
-1.2572654486
 21
4.0068731308
 31
0.0
 40
0.831906
 41
1.1017960846
 42
1.3404862354
  0
ELLIPSE
  5
365
100
AcDbEntity
  8
0
100
AcDbEllipse
 62
7
  6
CONTINUOUS
 10
387.3521090115
 20
183.0449820863
 30
0.0
 11
-1.227478385
 21
3.9119427204
 31
0.0
 40
0.831906
 41
0.6412988889
 42
1.7731465945
  0
ELLIPSE
  5
366
100
AcDbEntity
  8
0
100
AcDbEllipse
 62
7
  6
CONTINUOUS
 10
382.2137750115
 20
233.6194530863
 30
0.0
 11
0.4922441244
 21
-1.5687695742
 31
0.0
 40
0.831906
 41
2.9810742789
 42
4.1878272167
  0
ELLIPSE
  5
367
100
AcDbEntity
  8
0
100
AcDbEllipse
 62
7
  6
CONTINUOUS
 10
382.2137750115
 20
233.6194530863
 30
0.0
 11
0.4922441244
 21
-1.5687695742
 31
0.0
 40
0.831906
 41
5.2368219566
 42
6.4435583634
  0
ELLIPSE
  5
368
100
AcDbEntity
  8
0
100
AcDbEllipse
 62
7
  6
CONTINUOUS
 10
381.7859640115
 20
233.4852140863
 30
0.0
 11
0.3525801599
 21
-1.1236640215
 31
0.0
 40
0.831906
 41
0.0
 42
6.2831853072
  0
ELLIPSE
  5
369
100
AcDbEntity
  8
0
100
AcDbEllipse
 62
7
  6
CONTINUOUS
 10
445.1333990115
 20
300.2831260863
 30
0.0
 11
0.4922441244
 21
-1.5687695742
 31
0.0
 40
0.831906
 41
5.2368219566
 42
6.4435583633
  0
ELLIPSE
  5
36A
100
AcDbEntity
  8
0
100
AcDbEllipse
 62
7
  6
CONTINUOUS
 10
445.1333990115
 20
300.2831260863
 30
0.0
 11
0.4922441244
 21
-1.5687695742
 31
0.0
 40
0.831906
 41
2.9810742753
 42
4.1878272167
  0
ELLIPSE
  5
36B
100
AcDbEntity
  8
0
100
AcDbEllipse
 62
7
  6
CONTINUOUS
 10
444.7055890115
 20
300.1488890863
 30
0.0
 11
0.3525801599
 21
-1.1236640215
 31
0.0
 40
0.831906
 41
0.0
 42
6.2831853072
  0
ELLIPSE
  5
36C
100
AcDbEntity
  8
0
100
AcDbEllipse
 62
7
  6
CONTINUOUS
 10
380.8109530115
 20
380.8774790863
 30
0.0
 11
0.4922441244
 21
-1.5687695742
 31
0.0
 40
0.831906
 41
5.2368219566
 42
6.4435583579
  0
ELLIPSE
  5
36D
100
AcDbEntity
  8
0
100
AcDbEllipse
 62
7
  6
CONTINUOUS
 10
380.8109530115
 20
380.8774790863
 30
0.0
 11
0.4922441244
 21
-1.5687695742
 31
0.0
 40
0.831906
 41
2.9810742806
 42
4.1878272167
  0
ELLIPSE
  5
36E
100
AcDbEntity
  8
0
100
AcDbEllipse
 62
7
  6
CONTINUOUS
 10
380.3831420115
 20
380.7432400863
 30
0.0
 11
0.3525801599
 21
-1.1236640215
 31
0.0
 40
0.831906
 41
0.0
 42
6.2831853072
  0
ELLIPSE
  5
36F
100
AcDbEntity
  8
0
100
AcDbEllipse
 62
7
  6
CONTINUOUS
 10
317.8913260115
 20
314.2138050863
 30
0.0
 11
0.4922441244
 21
-1.5687695742
 31
0.0
 40
0.831906
 41
5.2368219566
 42
6.4435583669
  0
ELLIPSE
  5
370
100
AcDbEntity
  8
0
100
AcDbEllipse
 62
7
  6
CONTINUOUS
 10
317.8913260115
 20
314.2138050863
 30
0.0
 11
0.4922441244
 21
-1.5687695742
 31
0.0
 40
0.831906
 41
2.9810742817
 42
4.1878272167
  0
ELLIPSE
  5
371
100
AcDbEntity
  8
0
100
AcDbEllipse
 62
7
  6
CONTINUOUS
 10
317.4635160115
 20
314.0795670863
 30
0.0
 11
0.3525801599
 21
-1.1236640215
 31
0.0
 40
0.831906
 41
0.0
 42
6.2831853072
  0
ELLIPSE
  5
372
100
AcDbEntity
  8
0
100
AcDbEllipse
 62
7
  6
CONTINUOUS
 10
259.9229270115
 20
274.5936520863
 30
0.0
 11
0.5967186093
 21
-1.9102720022
 31
0.0
 40
0.831436
 41
4.3640338678
 42
5.9348301948
  0
ELLIPSE
  5
373
100
AcDbEntity
  8
0
100
AcDbEllipse
 62
7
  6
CONTINUOUS
 10
259.0720590115
 20
363.9271620863
 30
0.0
 11
0.5970667005
 21
-1.9103395939
 31
0.0
 40
0.831421
 41
3.1955622482
 42
4.3638454871
  0
ELLIPSE
  5
374
100
AcDbEntity
  8
0
100
AcDbEllipse
 62
7
  6
CONTINUOUS
 10
496.7397460115
 20
337.9070120863
 30
0.0
 11
-0.5967186093
 21
1.9102720022
 31
0.0
 40
0.831436
 41
4.3640338678
 42
5.9348301945
  0
ELLIPSE
  5
375
100
AcDbEntity
  8
0
100
AcDbEllipse
 62
7
  6
CONTINUOUS
 10
497.5908880115
 20
248.5732610863
 30
0.0
 11
0.5964217186
 21
-1.9102128744
 31
0.0
 40
0.831451
 41
6.2292520895
 42
7.5057877383
  0
ELLIPSE
  5
376
100
AcDbEntity
  8
0
100
AcDbEllipse
 62
7
  6
CONTINUOUS
 10
359.5747060115
 20
183.6167830863
 30
0.0
 11
0.3742312193
 21
-1.1926654577
 31
0.0
 40
0.831906
 41
1.5267468358
 42
1.6600303938
  0
ELLIPSE
  5
377
100
AcDbEntity
  8
0
100
AcDbEllipse
 62
7
  6
CONTINUOUS
 10
360.8499690115
 20
182.5807640863
 30
0.0
 11
0.136039257
 21
1.2425752878
 31
0.0
 40
0.52134
 41
6.2830742407
 42
9.4246668943
  0
ELLIPSE
  5
378
100
AcDbEntity
  8
0
100
AcDbEllipse
 62
7
  6
CONTINUOUS
 10
398.0046550115
 20
178.5130000863
 30
0.0
 11
0.136039257
 21
1.2425752878
 31
0.0
 40
0.52134
 41
6.2830742407
 42
9.4246668943
  0
ELLIPSE
  5
379
100
AcDbEntity
  8
0
100
AcDbEllipse
 62
7
  6
CONTINUOUS
 10
403.5156360115
 20
178.8060530863
 30
0.0
 11
-0.3742312193
 21
1.1926654577
 31
0.0
 40
0.831906
 41
3.1414711607
 42
4.458903721
  0
ELLIPSE
  5
37A
100
AcDbEntity
  8
0
100
AcDbEllipse
 62
7
  6
CONTINUOUS
 10
444.4143820115
 20
300.0575150863
 30
0.0
 11
-0.5987699628
 21
1.9082647562
 31
0.0
 40
0.831906
 41
9.075122794
 42
12.2167154476
  0
ELLIPSE
  5
37B
100
AcDbEntity
  8
0
100
AcDbEllipse
 62
7
  6
CONTINUOUS
 10
444.4143820115
 20
300.0575150863
 30
0.0
 11
0.5987699628
 21
-1.9082647562
 31
0.0
 40
0.831906
 41
3.1414711608
 42
5.9335301405
  0
ELLIPSE
  5
37C
100
AcDbEntity
  8
0
100
AcDbEllipse
 62
7
  6
CONTINUOUS
 10
381.4947590115
 20
233.3938440863
 30
0.0
 11
0.5987699628
 21
-1.9082647562
 31
0.0
 40
0.831906
 41
6.2830638144
 42
9.0751227941
  0
ELLIPSE
  5
37D
100
AcDbEntity
  8
0
100
AcDbEllipse
 62
7
  6
CONTINUOUS
 10
381.4947590115
 20
233.3938440863
 30
0.0
 11
0.5987699628
 21
-1.9082647562
 31
0.0
 40
0.831906
 41
3.1414711608
 42
5.9335301405
  0
ELLIPSE
  5
37E
100
AcDbEntity
  8
0
100
AcDbEllipse
 62
7
  6
CONTINUOUS
 10
317.1723090115
 20
313.9881940863
 30
0.0
 11
-0.5987699628
 21
1.9082647562
 31
0.0
 40
0.831906
 41
9.075122794
 42
12.2167154476
  0
ELLIPSE
  5
37F
100
AcDbEntity
  8
0
100
AcDbEllipse
 62
7
  6
CONTINUOUS
 10
317.1723090115
 20
313.9881940863
 30
0.0
 11
0.5987699628
 21
-1.9082647562
 31
0.0
 40
0.831906
 41
3.1414711608
 42
5.9335301405
  0
ELLIPSE
  5
380
100
AcDbEntity
  8
0
100
AcDbEllipse
 62
7
  6
CONTINUOUS
 10
380.0919370115
 20
380.6518700863
 30
0.0
 11
0.5987699628
 21
-1.9082647562
 31
0.0
 40
0.831906
 41
6.2830638144
 42
9.0751227941
  0
ELLIPSE
  5
381
100
AcDbEntity
  8
0
100
AcDbEllipse
 62
7
  6
CONTINUOUS
 10
380.0919370115
 20
380.6518700863
 30
0.0
 11
0.5987699628
 21
-1.9082647562
 31
0.0
 40
0.831906
 41
3.1414711608
 42
5.9335301405
  0
ELLIPSE
  5
382
100
AcDbEntity
  8
0
100
AcDbEllipse
 62
7
  6
CONTINUOUS
 10
317.8737210115
 20
240.3591840863
 30
0.0
 11
1.1226936579
 21
-3.5779964924
 31
0.0
 40
0.831906
 41
0.0
 42
6.2831853072
  0
ELLIPSE
  5
383
100
AcDbEntity
  8
0
100
AcDbEllipse
 62
7
  6
CONTINUOUS
 10
445.1157980115
 20
226.4285040863
 30
0.0
 11
1.1226936579
 21
-3.5779964924
 31
0.0
 40
0.831906
 41
0.0
 42
6.2831853072
  0
ELLIPSE
  5
384
100
AcDbEntity
  8
0
100
AcDbEllipse
 62
7
  6
CONTINUOUS
 10
443.7129740115
 20
373.6865310863
 30
0.0
 11
1.1226936579
 21
-3.5779964924
 31
0.0
 40
0.831906
 41
0.0
 42
6.2831853072
  0
ELLIPSE
  5
385
100
AcDbEntity
  8
0
100
AcDbEllipse
 62
7
  6
CONTINUOUS
 10
316.4708970115
 20
387.6172020863
 30
0.0
 11
1.1226936579
 21
-3.5779964924
 31
0.0
 40
0.831906
 41
0.0
 42
6.2831853072
  0
ELLIPSE
  5
386
100
AcDbEntity
  8
0
100
AcDbEllipse
 62
7
  6
CONTINUOUS
 10
443.9777060115
 20
373.7695920863
 30
0.0
 11
0.9280934334
 21
-2.9578104019
 31
0.0
 40
0.831906
 41
0.0000960691
 42
3.1416887227
  0
ELLIPSE
  5
387
100
AcDbEntity
  8
0
100
AcDbEllipse
 62
7
  6
CONTINUOUS
 10
443.7129740115
 20
373.6865310863
 30
0.0
 11
0.9280934334
 21
-2.9578104019
 31
0.0
 40
0.831906
 41
0.0
 42
6.2831853072
  0
ELLIPSE
  5
388
100
AcDbEntity
  8
0
100
AcDbEllipse
 62
7
  6
CONTINUOUS
 10
318.1384540115
 20
240.4422530863
 30
0.0
 11
0.9280934334
 21
-2.9578104019
 31
0.0
 40
0.831906
 41
0.0000960691
 42
3.1416887227
  0
ELLIPSE
  5
389
100
AcDbEntity
  8
0
100
AcDbEllipse
 62
7
  6
CONTINUOUS
 10
317.8737210115
 20
240.3591840863
 30
0.0
 11
0.9280934334
 21
-2.9578104019
 31
0.0
 40
0.831906
 41
0.0
 42
6.2831853072
  0
ELLIPSE
  5
38A
100
AcDbEntity
  8
0
100
AcDbEllipse
 62
7
  6
CONTINUOUS
 10
445.3805310115
 20
226.5115730863
 30
0.0
 11
0.9280934334
 21
-2.9578104019
 31
0.0
 40
0.831906
 41
0.0000960691
 42
3.1416887227
  0
ELLIPSE
  5
38B
100
AcDbEntity
  8
0
100
AcDbEllipse
 62
7
  6
CONTINUOUS
 10
445.1157980115
 20
226.4285040863
 30
0.0
 11
0.9280934334
 21
-2.9578104019
 31
0.0
 40
0.831906
 41
0.0
 42
6.2831853072
  0
ELLIPSE
  5
38C
100
AcDbEntity
  8
0
100
AcDbEllipse
 62
7
  6
CONTINUOUS
 10
316.7356290115
 20
387.7002710863
 30
0.0
 11
0.9280934334
 21
-2.9578104019
 31
0.0
 40
0.831906
 41
0.0000960691
 42
3.1416887227
  0
ELLIPSE
  5
38D
100
AcDbEntity
  8
0
100
AcDbEllipse
 62
7
  6
CONTINUOUS
 10
316.4708970115
 20
387.6172020863
 30
0.0
 11
0.9280934334
 21
-2.9578104019
 31
0.0
 40
0.831906
 41
0.0
 42
6.2831853072
  0
ENDSEC
  0
SECTION
  2
OBJECTS
  0
DICTIONARY
  5
C
100
AcDbDictionary
280
0
281
1
  3
ACAD_GROUP
350
D
  3
ACAD_MLINESTYLE
350
17
  3
ACAD_LAYOUT
350
1A
  3
ACAD_PLOTSETTINGS
350
19
  3
ACAD_PLOTSTYLENAME
350
E
  0
DICTIONARY
  5
D
102
{ACAD_REACTORS
330
C
102
}
100
AcDbDictionary
280
0
281
1
  0
ACDBDICTIONARYWDFLT
  5
E
102
{ACAD_REACTORS
330
C
102
}
100
AcDbDictionary
281
1
  3
Normal
350
F
100
AcDbDictionaryWithDefault
340
F
  0
DICTIONARY
  5
17
102
{ACAD_REACTORS
330
C
102
}
100
AcDbDictionary
280
0
281
1
  3
Standard
350
18
  0
DICTIONARY
  5
19
102
{ACAD_REACTORS
330
C
102
}
100
AcDbDictionary
281
1
  0
DICTIONARY
  5
1A
102
{ACAD_REACTORS
330
C
102
}
100
AcDbDictionary
281
1
  3
Model
350
38E
  3
Layout1
350
38F
  0
ACDBPLACEHOLDER
  5
F
102
{ACAD_REACTORS
330
E
102
}
  0
MLINESTYLE
  5
18
102
{ACAD_REACTORS
330
17
102
}
100
AcDbMlineStyle
  2
STANDARD
 70
0
  3

 62
256
 51
90.0
 52
90.0
 71
2
 49
0.5
 62
256
  6
BYLAYER
 49
-0.5
 62
256
  6
BYLAYER
  0
LAYOUT
  5
38E
102
{ACAD_REACTORS
330
1A
102
}
100
AcDbPlotSettings
  1

  2
none_device
  4
ISO_A1_(594.00_x_841.00_MM)
  6

 40
0.0
 41
0.0
 42
0.0
 43
0.0
 44
841.0
 45
594.0
 46
0.0
 47
0.0
 48
0.0
 49
0.0
140
0.0
141
0.0
142
1.0
143
1.0
 70
1024
 72
1
 73
0
 74
0
  7

 75
0
147
1.0
148
0.0
149
0.0
100
AcDbLayout
  1
Model
 70
0
 71
0
 10
0.0
 20
0.0
 11
841.0
 21
594.0
 12
0.0
 22
0.0
 32
0.0
 14
0.0
 24
0.0
 34
0.0
 15
0.0
 25
0.0
 35
0.0
146
0.0
 13
0.0
 23
0.0
 33
0.0
 16
1.0
 26
0.0
 36
0.0
 17
0.0
 27
1.0
 37
0.0
 76
0
330
210
345
0
346
0
  0
LAYOUT
  5
38F
102
{ACAD_REACTORS
330
1A
102
}
100
AcDbPlotSettings
  1

  2
none_device
  4
ISO_A1_(594.00_x_841.00_MM)
  6

 40
0.0
 41
0.0
 42
0.0
 43
0.0
 44
841.0
 45
594.0
 46
0.0
 47
0.0
 48
0.0
 49
0.0
140
0.0
141
0.0
142
1.0
143
1.0
 70
0
 72
1
 73
0
 74
0
  7

 75
0
147
1.0
148
0.0
149
0.0
100
AcDbLayout
  1
Layout1
 70
0
 71
1
 10
0.0
 20
0.0
 11
841.0
 21
594.0
 12
0.0
 22
0.0
 32
0.0
 14
0.0
 24
0.0
 34
0.0
 15
0.0
 25
0.0
 35
0.0
146
0.0
 13
0.0
 23
0.0
 33
0.0
 16
1.0
 26
0.0
 36
0.0
 17
0.0
 27
1.0
 37
0.0
 76
0
330
211
345
0
346
0
  0
ENDSEC
  0
EOF
