  0
SECTION
  2
HEADER
  9
$ACADVER
  1
AC1024
  9
$DWGCODEPAGE
  3
ANSI_1252
  9
$EXTMAX
 10
841.0
 20
594.0
 30
0.0
  9
$EXTMIN
 10
0.0
 20
0.0
 30
0.0
  9
$LIMMIN
 10
0.0
 20
0.0
  9
$LIMMAX
 10
841.0
 20
594.0
  9
$VIEWCTR
 10
420.5
 20
297.0
  9
$VIEWSIZE
 40
594.0
  9
$CLAYER
  8
0
  9
$LTSCALE
 40
46.255
  9
$CELTYPE
  6
BYLAYER
  9
$DIMSCALE
 40
1.0
  9
$DIMASZ
 40
3.0
  9
$DIMEXO
 40
0.5
  9
$DIMDLI
 40
31.958
  9
$DIMEXE
 40
1.5
  9
$DIMCEN
 40
7.569
  9
$DIMLFAC
 40
1.0
  9
$DIMBLK
  1
_FILLED
  9
$DIMALT
 70
0
  9
$DIMALTF
 40
0.0393700787
  9
$DIMTXT
 40
3.0
  9
$DIMTOL
 70
1
  9
$DIMLIM
 70
0
  9
$DIMTFAC
 40
1.0
  9
$DIMTP
 40
0.01
  9
$DIMTM
 40
0.01
  9
$DIMGAP
 40
0.625
  9
$DIMDSEP
 70
44
  9
$AUNITS
 70
0
  9
$PDMODE
 70
3
  9
$PDSIZE
 40
3.0
  9
$HANDSEED
  5
2E1
  9
$TILEMODE
 70
1
  9
$MEASUREMENT
 70
1
  9
$INSUNITS
 70
4
  0
ENDSEC
  0
SECTION
  2
CLASSES
  0
CLASS
  1
ACDBDICTIONARYWDFLT
  2
AcDbDictionaryWithDefault
  3
AutoCAD 2000
 90
0
 91
1
280
0
281
0
  0
CLASS
  1
ACDBPLACEHOLDER
  2
AcDbPlaceHolder
  3
AutoCAD 2000
 90
0
 91
1
280
0
281
0
  0
CLASS
  1
LAYOUT
  2
AcDbLayout
  3
AutoCAD 2000
 90
0
 91
0
280
0
281
0
  0
ENDSEC
  0
SECTION
  2
TABLES
  0
TABLE
  2
VPORT
  5
8
100
AcDbSymbolTable
 70
2
  0
VPORT
  5
1F4
100
AcDbSymbolTableRecord
100
AcDbViewportTableRecord
  2
*ACTIVE
 70
0
 10
0.0
 20
0.0
 11
1.0
 21
1.0
 12
420.5
 22
297.0
 13
0.0
 23
0.0
 14
1.0
 24
1.0
 15
0.0
 25
0.0
 16
0.0
 26
0.0
 36
1.0
 17
0.0
 27
0.0
 37
0.0
 40
594.0
 41
1.4158249158
 42
50.0
 43
0.0
 44
0.0
 50
0.0
 51
0.0
 71
0
 72
100
 73
1
 74
1
 75
0
 76
0
 77
0
 78
0
  0
ENDTAB
  0
TABLE
  2
LTYPE
  5
5
100
AcDbSymbolTable
 70
6
  0
LTYPE
  5
14
100
AcDbSymbolTableRecord
100
AcDbLinetypeTableRecord
  2
BYBLOCK
 70
0
  3

 72
65
 73
0
 40
0.0
  0
LTYPE
  5
15
100
AcDbSymbolTableRecord
100
AcDbLinetypeTableRecord
  2
BYLAYER
 70
0
  3

 72
65
 73
0
 40
0.0
  0
LTYPE
  5
16
100
AcDbSymbolTableRecord
100
AcDbLinetypeTableRecord
  2
CONTINUOUS
 70
64
  3
Solid line
 72
65
 73
0
 40
0.0
  0
LTYPE
  5
1F5
100
AcDbSymbolTableRecord
100
AcDbLinetypeTableRecord
  2
CENTER
 70
64
  3
____ _ ____ _ ____ _ ____ _ ____ _ ____ _ ____
 72
65
 73
4
 40
0.6
 49
0.375
 74
0
 49
-0.075
 74
0
 49
0.075
 74
0
 49
-0.075
 74
0
  0
LTYPE
  5
1F6
100
AcDbSymbolTableRecord
100
AcDbLinetypeTableRecord
  2
HIDDEN
 70
64
  3
- - - - - - - - - - - - - - - - - - - -
 72
65
 73
2
 40
0.2
 49
0.1
 74
0
 49
-0.1
 74
0
  0
LTYPE
  5
1F7
100
AcDbSymbolTableRecord
100
AcDbLinetypeTableRecord
  2
PHANTOM
 70
64
  3
_____ _ _ _____ _ _ _____ _ _ _____
 72
65
 73
6
 40
0.8
 49
0.45
 74
0
 49
-0.05
 74
0
 49
0.1
 74
0
 49
-0.05
 74
0
 49
0.1
 74
0
 49
-0.05
 74
0
  0
LTYPE
  5
1F8
100
AcDbSymbolTableRecord
100
AcDbLinetypeTableRecord
  2
DOT
 70
64
  3
. . . . . . . . . . . . . . . . . . . .
 72
65
 73
2
 40
0.2
 49
0.1
 74
0
 49
-0.1
 74
0
  0
LTYPE
  5
1F9
100
AcDbSymbolTableRecord
100
AcDbLinetypeTableRecord
  2
DASHED
 70
64
  3
- - - - - - - - - - - - - - - - - - - -
 72
65
 73
2
 40
0.2
 49
0.1
 74
0
 49
-0.1
 74
0
  0
ENDTAB
  0
TABLE
  2
LAYER
  5
2
100
AcDbSymbolTable
 70
36
  0
LAYER
  5
10
100
AcDbSymbolTableRecord
100
AcDbLayerTableRecord
  2
0
 70
0
 62
7
  6
CONTINUOUS
370
-3
390
F
  0
LAYER
  5
1FA
100
AcDbSymbolTableRecord
100
AcDbLayerTableRecord
  2
DEFAULT_1
 70
0
 62
7
  6
CENTER
370
-3
390
F
  0
LAYER
  5
1FB
100
AcDbSymbolTableRecord
100
AcDbLayerTableRecord
  2
DEFAULT_2
 70
0
 62
7
  6
HIDDEN
370
-3
390
F
  0
LAYER
  5
1FC
100
AcDbSymbolTableRecord
100
AcDbLayerTableRecord
  2
DEFAULT_3
 70
0
 62
7
  6
PHANTOM
370
-3
390
F
  0
LAYER
  5
1FD
100
AcDbSymbolTableRecord
100
AcDbLayerTableRecord
  2
ASSI
 70
0
 62
7
  6
CONTINUOUS
370
-3
390
F
  0
LAYER
  5
1FE
100
AcDbSymbolTableRecord
100
AcDbLayerTableRecord
  2
CLOSED_SHELL
 70
0
 62
7
  6
CONTINUOUS
370
-3
390
F
  0
LAYER
  5
1FF
100
AcDbSymbolTableRecord
100
AcDbLayerTableRecord
  2
COORDINATE
 70
0
 62
7
  6
CONTINUOUS
370
-3
390
F
  0
LAYER
  5
200
100
AcDbSymbolTableRecord
100
AcDbLayerTableRecord
  2
COPY_PUBLISH
 70
0
 62
7
  6
CONTINUOUS
370
-3
390
F
  0
LAYER
  5
201
100
AcDbSymbolTableRecord
100
AcDbLayerTableRecord
  2
COSMETICI
 70
0
 62
7
  6
CONTINUOUS
370
-3
390
F
  0
LAYER
  5
202
100
AcDbSymbolTableRecord
100
AcDbLayerTableRecord
  2
CURVE
 70
0
 62
7
  6
CONTINUOUS
370
-3
390
F
  0
LAYER
  5
203
100
AcDbSymbolTableRecord
100
AcDbLayerTableRecord
  2
DRAFT
 70
0
 62
7
  6
CONTINUOUS
370
-3
390
F
  0
LAYER
  5
204
100
AcDbSymbolTableRecord
100
AcDbLayerTableRecord
  2
GENERAL
 70
0
 62
7
  6
CONTINUOUS
370
-3
390
F
  0
LAYER
  5
205
100
AcDbSymbolTableRecord
100
AcDbLayerTableRecord
  2
IMPORT_IGES
 70
0
 62
7
  6
CONTINUOUS
370
-3
390
F
  0
LAYER
  5
206
100
AcDbSymbolTableRecord
100
AcDbLayerTableRecord
  2
NOTE
 70
0
 62
7
  6
CONTINUOUS
370
-3
390
F
  0
LAYER
  5
207
100
AcDbSymbolTableRecord
100
AcDbLayerTableRecord
  2
PIANI
 70
0
 62
7
  6
CONTINUOUS
370
-3
390
F
  0
LAYER
  5
208
100
AcDbSymbolTableRecord
100
AcDbLayerTableRecord
  2
PUNTI
 70
0
 62
7
  6
CONTINUOUS
370
-3
390
F
  0
LAYER
  5
209
100
AcDbSymbolTableRecord
100
AcDbLayerTableRecord
  2
RACCORDO
 70
0
 62
7
  6
CONTINUOUS
370
-3
390
F
  0
LAYER
  5
20A
100
AcDbSymbolTableRecord
100
AcDbLayerTableRecord
  2
SIMBOLI
 70
0
 62
7
  6
CONTINUOUS
370
-3
390
F
  0
LAYER
  5
20B
100
AcDbSymbolTableRecord
100
AcDbLayerTableRecord
  2
SMUSSO
 70
0
 62
7
  6
CONTINUOUS
370
-3
390
F
  0
LAYER
  5
20C
100
AcDbSymbolTableRecord
100
AcDbLayerTableRecord
  2
SUPERFICI
 70
0
 62
7
  6
CONTINUOUS
370
-3
390
F
  0
LAYER
  5
20D
100
AcDbSymbolTableRecord
100
AcDbLayerTableRecord
  2
TRASH
 70
0
 62
7
  6
CONTINUOUS
370
-3
390
F
  0
ENDTAB
  0
TABLE
  2
STYLE
  5
3
100
AcDbSymbolTable
 70
1
  0
STYLE
  5
11
100
AcDbSymbolTableRecord
100
AcDbTextStyleTableRecord
  2
STANDARD
 70
0
 40
0.0
 41
0.8
 50
0.0
 71
0
 42
0.2
  3
txt
  4

  0
STYLE
  5
20E
100
AcDbSymbolTableRecord
100
AcDbTextStyleTableRecord
  2
TEXTSTYLE_1
 70
0
 40
0.0
 41
0.8
 50
0.0
 71
0
 42
0.2
  3
gdt
  4

  0
ENDTAB
  0
TABLE
  2
VIEW
  5
6
100
AcDbSymbolTable
 70
0
  0
ENDTAB
  0
TABLE
  2
UCS
  5
7
100
AcDbSymbolTable
 70
0
  0
ENDTAB
  0
TABLE
  2
APPID
  5
9
100
AcDbSymbolTable
 70
1
  0
APPID
  5
20F
100
AcDbSymbolTableRecord
100
AcDbRegAppTableRecord
  2
ACAD
 70
0
  0
ENDTAB
  0
TABLE
  2
BLOCK_RECORD
  5
1
100
AcDbSymbolTable
 70
0
  0
BLOCK_RECORD
  5
210
100
AcDbSymbolTableRecord
100
AcDbBlockTableRecord
  2
*Model_Space
  0
BLOCK_RECORD
  5
211
100
AcDbSymbolTableRecord
100
AcDbBlockTableRecord
  2
*Paper_Space
  0
BLOCK_RECORD
  5
212
100
AcDbSymbolTableRecord
100
AcDbBlockTableRecord
  2
_FILLED
  0
ENDTAB
  0
TABLE
  2
DIMSTYLE
  5
A
100
AcDbSymbolTable
 70
1
100
AcDbDimStyleTable
 71
0
  0
DIMSTYLE
105
213
100
AcDbSymbolTableRecord
100
AcDbDimStyleTableRecord
  2
STANDARD
 70
0
  3

  4

 40
1.0
 41
3.0
 42
0.5
 43
0.38
 44
1.5
 45
0.0
 46
0.0
 47
0.01
 48
0.01
140
3.0
141
0.09
142
0.0
143
25.4
144
1.0
145
0.0
146
1.0
147
0.625
 71
1
 72
0
 73
0
 74
0
 75
0
 76
0
 77
1
 78
8
 79
2
170
0
171
1
172
0
173
0
174
0
175
0
176
0
177
0
178
0
270
2
179
2
271
2
272
2
273
2
274
2
275
0
280
0
281
0
282
0
283
1
284
8
285
0
286
0
287
3
288
0
340
11
278
44
341
212
342
212
343
212
344
212
  0
ENDTAB
  0
ENDSEC
  0
SECTION
  2
BLOCKS
  0
BLOCK
  5
20
100
AcDbEntity
  8
0
100
AcDbBlockBegin
  2
*Model_Space
 70
0
 10
0.0
 20
0.0
 30
0.0
  3
*Model_Space
  1

  0
ENDBLK
  5
21
100
AcDbEntity
  8
0
100
AcDbBlockEnd
  0
BLOCK
  5
1C
100
AcDbEntity
  8
0
100
AcDbBlockBegin
  2
*Paper_Space
 70
0
 10
0.0
 20
0.0
 30
0.0
  3
*Paper_Space
  1

  0
ENDBLK
  5
1D
100
AcDbEntity
  8
0
100
AcDbBlockEnd
  0
BLOCK
  5
214
100
AcDbEntity
  8
0
100
AcDbBlockBegin
  2
_FILLED
 70
64
 10
0.0
 20
0.0
  3
_FILLED
  1

  0
SOLID
  5
215
100
AcDbEntity
  8
0
  6
BYBLOCK
 62
0
100
AcDbTrace
 10
0.0
 20
0.0
 11
-1.0
 21
0.3166666667
 12
-1.0
 22
-0.3166666667
 13
-1.0
 23
-0.3166666667
  0
ENDBLK
  5
216
100
AcDbEntity
  8
0
  6
BYBLOCK
 62
0
100
AcDbBlockEnd
  0
ENDSEC
  0
SECTION
  2
ENTITIES
  0
LINE
  5
217
100
AcDbEntity
  8
0
100
AcDbLine
 62
7
  6
CONTINUOUS
 10
283.6649680592
 20
472.3691027993
 11
283.3327210592
 21
472.2648507993
  0
LINE
  5
218
100
AcDbEntity
  8
0
100
AcDbLine
 62
7
  6
CONTINUOUS
 10
285.9853090592
 20
472.5898297993
 11
285.7205770592
 21
472.5067627993
  0
LINE
  5
219
100
AcDbEntity
  8
0
100
AcDbLine
 62
7
  6
CONTINUOUS
 10
291.2461360592
 20
453.9594547993
 11
291.1116330592
 21
453.9172507993
  0
LINE
  5
21A
100
AcDbEntity
  8
0
100
AcDbLine
 62
7
  6
CONTINUOUS
 10
291.3169810592
 20
453.9499747993
 11
291.2566020592
 21
453.9310297993
  0
LINE
  5
21B
100
AcDbEntity
  8
0
100
AcDbLine
 62
7
  6
CONTINUOUS
 10
314.4031000592
 20
445.3547527993
 11
314.9325640592
 21
445.5208867993
  0
LINE
  5
21C
100
AcDbEntity
  8
0
100
AcDbLine
 62
7
  6
CONTINUOUS
 10
279.0091500592
 20
465.3959707993
 11
281.7156620592
 21
181.2861567993
  0
LINE
  5
21D
100
AcDbEntity
  8
0
100
AcDbLine
 62
7
  6
CONTINUOUS
 10
290.3214770592
 20
277.4053587993
 11
289.4704600592
 21
366.7389967993
  0
LINE
  5
21E
100
AcDbEntity
  8
0
100
AcDbLine
 62
7
  6
CONTINUOUS
 10
292.7168780592
 20
188.9276967993
 11
290.1907430592
 21
454.1029447993
  0
LINE
  5
21F
100
AcDbEntity
  8
0
100
AcDbLine
 62
7
  6
CONTINUOUS
 10
293.3455380592
 20
190.1730007993
 11
292.5355450592
 21
275.2001197993
  0
LINE
  5
220
100
AcDbEntity
  8
0
100
AcDbLine
 62
7
  6
CONTINUOUS
 10
291.6470910592
 20
368.4635347993
 11
290.8371370592
 21
453.4866047993
  0
LWPOLYLINE
  5
221
100
AcDbEntity
  8
0
100
AcDbPolyline
 62
7
  6
CONTINUOUS
 90
46
 70
0
 10
429.9636570147
 20
179.8963997888
 10
430.0975048555
 20
179.8823691682
 10
430.2334207554
 20
179.8693504322
 10
430.3713570586
 20
179.8573367193
 10
430.5111881051
 20
179.8463299272
 10
430.6527453593
 20
179.8363350294
 10
430.7959336825
 20
179.827351566
 10
430.9406181226
 20
179.8193823108
 10
431.0866470593
 20
179.8124307178
 10
431.2338705464
 20
179.8064996525
 10
431.3821390861
 20
179.8015915214
 10
431.5313064912
 20
179.7977082405
 10
431.6812112971
 20
179.7948516594
 10
431.8316993661
 20
179.7930228471
 10
431.9826060794
 20
179.7922224005
 10
432.1337752745
 20
179.7924501846
 10
432.285045589
 20
179.7937054733
 10
432.4362543289
 20
179.7959868442
 10
432.5872399609
 20
179.7992922046
 10
432.7378406233
 20
179.8036187714
 10
432.8879015612
 20
179.8089633472
 10
433.0372590064
 20
179.8153218091
 10
433.1857601862
 20
179.822689847
 10
433.3332444947
 20
179.831062192
 10
433.4795676051
 20
179.8404339454
 10
433.62458534
 20
179.8507999387
 10
433.7681470936
 20
179.8621541798
 10
433.9101041807
 20
179.8744903337
 10
434.0503234325
 20
179.887803106
 10
434.1887219813
 20
179.9020925863
 10
434.3251267571
 20
179.9173500971
 10
434.4594181604
 20
179.9335722447
 10
434.5914734325
 20
179.9507556413
 10
434.7213438336
 20
179.9689224236
 10
434.8487849142
 20
179.9880563481
 10
434.9737326924
 20
180.0081666328
 10
435.0960880522
 20
180.0292593346
 10
435.201560325
 20
180.0486439379
 10
435.3049601922
 20
180.0688180736
 10
435.4063106397
 20
180.0898113434
 10
435.5056147243
 20
180.1116549169
 10
435.560244442
 20
180.124251623
 10
435.6701681937
 20
180.1509547678
 10
435.7775286101
 20
180.1789543318
 10
435.8824143945
 20
180.2083666296
 10
435.9848591586
 20
180.2393147141
  0
LINE
  5
222
100
AcDbEntity
  8
0
100
AcDbLine
 62
7
  6
CONTINUOUS
 10
538.3125400592
 20
145.3479247993
 11
288.5767230592
 21
172.6894257993
  0
LINE
  5
223
100
AcDbEntity
  8
0
100
AcDbLine
 62
7
  6
CONTINUOUS
 10
295.0024050592
 20
188.6131167993
 11
528.3852250592
 21
163.0619687993
  0
LINE
  5
224
100
AcDbEntity
  8
0
100
AcDbLine
 62
7
  6
CONTINUOUS
 10
529.5963360592
 20
163.8175137993
 11
293.7743540592
 21
189.6357047993
  0
LINE
  5
225
100
AcDbEntity
  8
0
100
AcDbLine
 62
7
  6
CONTINUOUS
 10
435.8145790592
 20
178.9883817993
 11
415.7061580592
 21
181.1898857993
  0
LINE
  5
226
100
AcDbEntity
  8
0
100
AcDbLine
 62
7
  6
CONTINUOUS
 10
407.5710100592
 20
182.0805357993
 11
387.4625900592
 21
184.2820397993
  0
LINE
  5
227
100
AcDbEntity
  8
0
100
AcDbLine
 62
7
  6
CONTINUOUS
 10
416.0108640592
 20
181.2894267993
 11
414.5578430592
 21
181.4485067993
  0
LINE
  5
228
100
AcDbEntity
  8
0
100
AcDbLine
 62
7
  6
CONTINUOUS
 10
429.9636570592
 20
179.8963997993
 11
392.8089710592
 21
183.9641577993
  0
LWPOLYLINE
  5
229
100
AcDbEntity
  8
0
100
AcDbPolyline
 62
7
  6
CONTINUOUS
 90
72
 70
0
 10
392.8089707148
 20
183.9641579673
 10
392.7429323677
 20
183.9715448569
 10
392.6774009847
 20
183.97919116
 10
392.6124101363
 20
183.9870956414
 10
392.5481049007
 20
183.9952423452
 10
392.4843099663
 20
184.0036557673
 10
392.4212341182
 20
184.0123107027
 10
392.3586879769
 20
184.0212357165
 10
392.2968940637
 20
184.0304016839
 10
392.2333229503
 20
184.0402073481
 10
392.1705933475
 20
184.0502731051
 10
392.1084201157
 20
184.0606489138
 10
392.0471226653
 20
184.0712857563
 10
391.9863453041
 20
184.0822506577
 10
391.9264758512
 20
184.0934790592
 10
391.8672134778
 20
184.1050325516
 10
391.8085843395
 20
184.1169148767
 10
391.7544857048
 20
184.1282991497
 10
391.7009246656
 20
184.1399887007
 10
391.6479662007
 20
184.1519779148
 10
391.5956021279
 20
184.1642772394
 10
391.5438211607
 20
184.1768989042
 10
391.4926121848
 20
184.189856301
 10
391.441960447
 20
184.2031650923
 10
391.391824346
 20
184.2168499649
 10
391.3391820384
 20
184.2318015303
 10
391.2870781997
 20
184.2472270057
 10
391.2355086652
 20
184.2631511384
 10
391.1844419011
 20
184.2796099154
 10
391.1338386043
 20
184.2966460161
 10
391.0836639543
 20
184.3143054623
 10
391.0338752199
 20
184.3326424996
 10
390.9843912123
 20
184.3517330041
 10
390.9379680747
 20
184.3704887954
 10
390.8918315728
 20
184.3900040592
 10
390.8456840534
 20
184.4104654769
 10
390.7997816344
 20
184.4318273818
 10
390.753983041
 20
184.45422641
 10
390.7082682932
 20
184.4777564506
 10
390.6626134374
 20
184.5025248429
 10
390.6170085464
 20
184.5286442333
 10
390.590896371
 20
184.5442673564
 10
390.5372741353
 20
184.5780049886
 10
390.4836530954
 20
184.6141791069
 10
390.4302290918
 20
184.6529355383
 10
390.3772159135
 20
184.6944138961
 10
390.3312574079
 20
184.7331217188
 10
390.2858169273
 20
184.7742348505
 10
390.2413113556
 20
184.8176115607
 10
390.1977278388
 20
184.8635078329
 10
390.1743224645
 20
184.8897353378
 10
390.1515110251
 20
184.9164814075
 10
390.1272221587
 20
184.9463699903
 10
390.103690846
 20
184.9768591296
 10
390.0805935208
 20
185.0084214907
 10
390.0583242747
 20
185.0405723328
 10
390.0294818875
 20
185.0850909708
 10
390.0020760103
 20
185.1309296432
 10
389.976186138
 20
185.1780677929
 10
389.9519355778
 20
185.2263898845
 10
389.9304512598
 20
185.2734267967
 10
389.9105991258
 20
185.3214073443
 10
389.8924096483
 20
185.3703564799
 10
389.8760486259
 20
185.4198912041
 10
389.8618206572
 20
185.4689070142
 10
389.8493855037
 20
185.5183704142
 10
389.8387053979
 20
185.5685018754
 10
389.8298690395
 20
185.6189659026
 10
389.8218970747
 20
185.6782584341
 10
389.8164725931
 20
185.7378192481
 10
389.8142011509
 20
185.7795075151
 10
389.8131783393
 20
185.8212502212
  0
LINE
  5
22A
100
AcDbEntity
  8
0
100
AcDbLine
 62
7
  6
CONTINUOUS
 10
312.4066920592
 20
273.0245927993
 11
311.5182380592
 21
366.2880077993
  0
LINE
  5
22B
100
AcDbEntity
  8
0
100
AcDbLine
 62
7
  6
CONTINUOUS
 10
313.9716940592
 20
445.9461447993
 11
316.1824840592
 21
213.8734687993
  0
LINE
  5
22C
100
AcDbEntity
  8
0
100
AcDbLine
 62
7
  6
CONTINUOUS
 10
314.4031000592
 20
445.3547527993
 11
316.6082560592
 21
213.8735117993
  0
LINE
  5
22D
100
AcDbEntity
  8
0
100
AcDbLine
 62
7
  6
CONTINUOUS
 10
316.7615020592
 20
445.3206547993
 11
316.7584500592
 21
445.6410507993
  0
LINE
  5
22E
100
AcDbEntity
  8
0
100
AcDbLine
 62
7
  6
CONTINUOUS
 10
291.6447500592
 20
368.7094087993
 11
291.1483020592
 21
368.5181427993
  0
LINE
  5
22F
100
AcDbEntity
  8
0
100
AcDbLine
 62
7
  6
CONTINUOUS
 10
535.7211270592
 20
445.2483277993
 11
535.4563950592
 21
445.1652607993
  0
LINE
  5
230
100
AcDbEntity
  8
0
100
AcDbLine
 62
7
  6
CONTINUOUS
 10
504.0473240592
 20
424.5921807993
 11
504.4718280592
 21
424.7253807993
  0
LINE
  5
231
100
AcDbEntity
  8
0
100
AcDbLine
 62
7
  6
CONTINUOUS
 10
542.5821880592
 20
436.6515967993
 11
542.3174560592
 21
436.5685297993
  0
LINE
  5
232
100
AcDbEntity
  8
0
100
AcDbLine
 62
7
  6
CONTINUOUS
 10
527.0785830592
 20
428.1128387993
 11
527.1383770592
 21
428.1316007993
  0
LINE
  5
233
100
AcDbEntity
  8
0
100
AcDbLine
 62
7
  6
CONTINUOUS
 10
527.5073990592
 20
427.5755427993
 11
528.4285360592
 21
427.8645737993
  0
LINE
  5
234
100
AcDbEntity
  8
0
100
AcDbLine
 62
7
  6
CONTINUOUS
 10
542.5872180592
 20
436.1251167993
 11
543.8027900592
 21
436.4807517993
  0
LWPOLYLINE
  5
235
100
AcDbEntity
  8
0
100
AcDbPolyline
 62
7
  6
CONTINUOUS
 90
18
 70
0
 10
430.2358794168
 20
182.3815345754
 10
430.3506243144
 20
182.3695256626
 10
430.4686341983
 20
182.3582749028
 10
430.5895950352
 20
182.3478259187
 10
430.7132842259
 20
182.3382085965
 10
430.8394099829
 20
182.3294539682
 10
430.9678171034
 20
182.3215798448
 10
431.0982704367
 20
182.3146072958
 10
431.230549906
 20
182.308553616
 10
431.3643846498
 20
182.303435429
 10
431.4996072939
 20
182.2992626135
 10
431.6359794962
 20
182.2960458363
 10
431.773277308
 20
182.2937928558
 10
431.9112593005
 20
182.2925093833
 10
432.0497265936
 20
182.2921984885
 10
432.1884473287
 20
182.2928616172
 10
432.3271987604
 20
182.2944980432
 10
432.4657573392
 20
182.2971049751
  0
LINE
  5
236
100
AcDbEntity
  8
0
100
AcDbLine
 62
7
  6
CONTINUOUS
 10
389.9667080592
 20
186.4729927993
 11
388.2958780592
 21
186.6559177993
  0
LINE
  5
237
100
AcDbEntity
  8
0
100
AcDbLine
 62
7
  6
CONTINUOUS
 10
430.2358790592
 20
182.3815347993
 11
393.0811930592
 21
186.4492927993
  0
LINE
  5
238
100
AcDbEntity
  8
0
100
AcDbLine
 62
7
  6
CONTINUOUS
 10
387.4345330592
 20
187.2271997993
 11
398.9999320592
 21
185.9610007993
  0
LINE
  5
239
100
AcDbEntity
  8
0
100
AcDbLine
 62
7
  6
CONTINUOUS
 10
424.2211240592
 20
183.1997417993
 11
435.7865220592
 21
181.9335417993
  0
LINE
  5
23A
100
AcDbEntity
  8
0
100
AcDbLine
 62
7
  6
CONTINUOUS
 10
411.8635920592
 20
184.5542167993
 11
412.4733680592
 21
184.4874567993
  0
LINE
  5
23B
100
AcDbEntity
  8
0
100
AcDbLine
 62
7
  6
CONTINUOUS
 10
419.5470880592
 20
183.7130147993
 11
419.7683280592
 21
183.6887927993
  0
LINE
  5
23C
100
AcDbEntity
  8
0
100
AcDbLine
 62
7
  6
CONTINUOUS
 10
411.8542400592
 20
185.5359367993
 11
412.4640160592
 21
185.4691777993
  0
LINE
  5
23D
100
AcDbEntity
  8
0
100
AcDbLine
 62
7
  6
CONTINUOUS
 10
419.5377360592
 20
184.6947347993
 11
419.7282570592
 21
184.6738757993
  0
LINE
  5
23E
100
AcDbEntity
  8
0
100
AcDbLine
 62
7
  6
CONTINUOUS
 10
412.2897190592
 20
185.6675397993
 11
412.8875880592
 21
185.6020847993
  0
LINE
  5
23F
100
AcDbEntity
  8
0
100
AcDbLine
 62
7
  6
CONTINUOUS
 10
414.4914640592
 20
188.4165087993
 11
418.1025710592
 21
188.0211587993
  0
LINE
  5
240
100
AcDbEntity
  8
0
100
AcDbLine
 62
7
  6
CONTINUOUS
 10
316.1824840592
 20
213.8734687993
 11
506.6791420592
 21
193.0175707993
  0
LINE
  5
241
100
AcDbEntity
  8
0
100
AcDbLine
 62
7
  6
CONTINUOUS
 10
316.6082560592
 20
213.8735117993
 11
506.2524800592
 21
193.1109397993
  0
LWPOLYLINE
  5
242
100
AcDbEntity
  8
0
100
AcDbPolyline
 62
7
  6
CONTINUOUS
 90
38
 70
0
 10
393.0811931166
 20
186.449292754
 10
393.0265500523
 20
186.4554049666
 10
392.9728165839
 20
186.4616757545
 10
392.9199949419
 20
186.4681018409
 10
392.8679556649
 20
186.474697127
 10
392.8169456898
 20
186.4814277599
 10
392.7667559618
 20
186.4883187355
 10
392.7176527385
 20
186.4953306077
 10
392.6694033295
 20
186.5024937046
 10
392.620625664
 20
186.5100248823
 10
392.5728489676
 20
186.5176995739
 10
392.5264259528
 20
186.5254559668
 10
392.4810001159
 20
186.5333487805
 10
392.4370542436
 20
186.5412880532
 10
392.3941387344
 20
186.5493488539
 10
392.3526723604
 20
186.5574467499
 10
392.3127876079
 20
186.5655437858
 10
392.276424564
 20
186.5732092776
 10
392.2414213522
 20
186.5808634277
 10
392.2077128477
 20
186.5885103233
 10
392.1753403192
 20
186.5961305394
 10
392.1443431487
 20
186.6037034907
 10
392.114761717
 20
186.6112066254
 10
392.0866393478
 20
186.6186146895
 10
392.0600333616
 20
186.6258964011
 10
392.0333198212
 20
186.6335054376
 10
392.0085555279
 20
186.6408600948
 10
391.9856592936
 20
186.6479536086
 10
391.9646972233
 20
186.6547331122
 10
391.945737542
 20
186.6611392651
 10
391.9288506031
 20
186.6671053347
 10
391.9141053515
 20
186.6725575434
 10
391.9017070021
 20
186.6773590945
 10
391.8919178763
 20
186.6813294628
 10
391.8841695334
 20
186.6846217844
 10
391.8788817198
 20
186.6869770315
 10
391.8756695188
 20
186.6884766671
 10
391.8747633969
 20
186.6889188392
  0
LWPOLYLINE
  5
243
100
AcDbEntity
  8
0
100
AcDbPolyline
 62
7
  6
CONTINUOUS
 90
47
 70
0
 10
389.8131783393
 20
185.8212502212
 10
389.8131764539
 20
185.8476196018
 10
389.8136731003
 20
185.8739832803
 10
389.8146681444
 20
185.9003353982
 10
389.8161610328
 20
185.9266642783
 10
389.8181455299
 20
185.9528947862
 10
389.8206238207
 20
185.979083174
 10
389.8235976266
 20
186.0052431499
 10
389.8270633931
 20
186.0313425396
 10
389.8310619528
 20
186.0576354257
 10
389.8355588458
 20
186.0838476809
 10
389.8405477924
 20
186.1099485921
 10
389.8460298526
 20
186.1359504028
 10
389.851967344
 20
186.1616977398
 10
389.8583874479
 20
186.1873289759
 10
389.8653221688
 20
186.212959283
 10
389.872737031
 20
186.2384548848
 10
389.8808076083
 20
186.2643665616
 10
389.8893721198
 20
186.2901191862
 10
389.8983982807
 20
186.3156236129
 10
389.9079071563
 20
186.3409520499
 10
389.9178272676
 20
186.3659330808
 10
389.928215493
 20
186.3907230546
 10
389.9391877116
 20
186.415578197
 10
389.9506259862
 20
186.4402224155
 10
389.9629632902
 20
186.465533742
 10
389.9757856835
 20
186.4906029569
 10
389.9889192415
 20
186.5151101857
 10
390.002525375
 20
186.5393578404
 10
390.0170750763
 20
186.5641235535
 10
390.0320921573
 20
186.5886092869
 10
390.0435962304
 20
186.6067210443
 10
390.0553601867
 20
186.6246642261
 10
390.0677422315
 20
186.6429232114
 10
390.0803944296
 20
186.6609968645
 10
390.0951182076
 20
186.6813827242
 10
390.1101705139
 20
186.7015266542
 10
390.1251480218
 20
186.720889286
 10
390.1404344564
 20
186.7400093391
 10
390.1558719659
 20
186.7587168532
 10
390.17159837
 20
186.7771819368
 10
390.1916634524
 20
186.7999168013
 10
390.2121562611
 20
186.8222680122
 10
390.2347006474
 20
186.8459377363
 10
390.2577099487
 20
186.8691546876
 10
390.2805735654
 20
186.891328716
 10
390.3038594239
 20
186.9130611826
  0
LINE
  5
244
100
AcDbEntity
  8
0
100
AcDbLine
 62
7
  6
CONTINUOUS
 10
509.3346610592
 20
251.4645837993
 11
529.7045960592
 21
249.2344487993
  0
LINE
  5
245
100
AcDbEntity
  8
0
100
AcDbLine
 62
7
  6
CONTINUOUS
 10
312.4066920592
 20
273.0245927993
 11
292.0367560592
 21
275.2547277993
  0
LINE
  5
246
100
AcDbEntity
  8
0
100
AcDbLine
 62
7
  6
CONTINUOUS
 10
529.2378650592
 20
342.9071167993
 11
528.3173530592
 21
342.5524717993
  0
LINE
  5
247
100
AcDbEntity
  8
0
100
AcDbLine
 62
7
  6
CONTINUOUS
 10
528.8161420592
 20
342.4978637993
 11
529.2402060592
 21
342.6612427993
  0
LINE
  5
248
100
AcDbEntity
  8
0
100
AcDbLine
 62
7
  6
CONTINUOUS
 10
544.7045060592
 20
341.8268777993
 11
546.7285640592
 21
342.4309257993
  0
LINE
  5
249
100
AcDbEntity
  8
0
100
AcDbLine
 62
7
  6
CONTINUOUS
 10
546.7285640592
 20
342.4309257993
 11
544.7148790592
 21
340.7375347993
  0
LINE
  5
24A
100
AcDbEntity
  8
0
100
AcDbLine
 62
7
  6
CONTINUOUS
 10
316.1824840592
 20
213.8734687993
 11
316.6066220592
 21
214.0450607993
  0
LINE
  5
24B
100
AcDbEntity
  8
0
100
AcDbLine
 62
7
  6
CONTINUOUS
 10
292.7168780592
 20
188.9276967993
 11
294.5750640592
 21
189.5480457993
  0
LINE
  5
24C
100
AcDbEntity
  8
0
100
AcDbLine
 62
7
  6
CONTINUOUS
 10
508.4462070592
 20
344.7279987993
 11
528.8161420592
 21
342.4978637993
  0
LINE
  5
24D
100
AcDbEntity
  8
0
100
AcDbLine
 62
7
  6
CONTINUOUS
 10
311.5182380592
 20
366.2880077993
 11
291.1483020592
 21
368.5181427993
  0
LINE
  5
24E
100
AcDbEntity
  8
0
100
AcDbLine
 62
7
  6
CONTINUOUS
 10
506.2524800592
 20
193.1109397993
 11
504.0473240592
 21
424.5921807993
  0
LINE
  5
24F
100
AcDbEntity
  8
0
100
AcDbLine
 62
7
  6
CONTINUOUS
 10
504.4683510592
 20
425.0902467993
 11
506.6791420592
 21
193.0175707993
  0
LINE
  5
250
100
AcDbEntity
  8
0
100
AcDbLine
 62
7
  6
CONTINUOUS
 10
508.4462070592
 20
344.7279987993
 11
509.3346610592
 21
251.4645837993
  0
LINE
  5
251
100
AcDbEntity
  8
0
100
AcDbLine
 62
7
  6
CONTINUOUS
 10
530.0158000592
 20
164.2619387993
 11
529.2058070592
 21
249.2890567993
  0
LINE
  5
252
100
AcDbEntity
  8
0
100
AcDbLine
 62
7
  6
CONTINUOUS
 10
528.3173530592
 20
342.5524717993
 11
527.5073990592
 21
427.5755427993
  0
LINE
  5
253
100
AcDbEntity
  8
0
100
AcDbLine
 62
7
  6
CONTINUOUS
 10
528.4270500592
 20
428.0204287993
 11
530.9531850592
 21
162.8451807993
  0
LINE
  5
254
100
AcDbEntity
  8
0
100
AcDbLine
 62
7
  6
CONTINUOUS
 10
530.5314220592
 20
340.3472327993
 11
531.3824390592
 21
251.0135947993
  0
LINE
  5
255
100
AcDbEntity
  8
0
100
AcDbLine
 62
7
  6
CONTINUOUS
 10
547.4265940592
 20
269.1568017993
 11
545.4159290592
 21
267.1465157993
  0
LINE
  5
256
100
AcDbEntity
  8
0
100
AcDbLine
 62
7
  6
CONTINUOUS
 10
414.8555220592
 20
181.5504857993
 11
414.5578430592
 21
181.4485067993
  0
LINE
  5
257
100
AcDbEntity
  8
0
100
AcDbLine
 62
7
  6
CONTINUOUS
 10
415.7061580592
 20
181.1898857993
 11
416.3193950592
 21
181.3901967993
  0
LINE
  5
258
100
AcDbEntity
  8
0
100
AcDbLine
 62
7
  6
CONTINUOUS
 10
387.4625900592
 20
184.2820397993
 11
389.5804520592
 21
184.9465757993
  0
LINE
  5
259
100
AcDbEntity
  8
0
100
AcDbLine
 62
7
  6
CONTINUOUS
 10
400.5883250592
 20
186.4594017993
 11
398.9999320592
 21
185.9610007993
  0
LINE
  5
25A
100
AcDbEntity
  8
0
100
AcDbLine
 62
7
  6
CONTINUOUS
 10
412.8875880592
 20
185.6020847993
 11
412.4640160592
 21
185.4691777993
  0
LINE
  5
25B
100
AcDbEntity
  8
0
100
AcDbLine
 62
7
  6
CONTINUOUS
 10
412.8969400592
 20
184.6203647993
 11
412.4733680592
 21
184.4874567993
  0
LINE
  5
25C
100
AcDbEntity
  8
0
100
AcDbLine
 62
7
  6
CONTINUOUS
 10
419.5377360592
 20
184.6947347993
 11
419.7178420592
 21
184.7512477993
  0
LINE
  5
25D
100
AcDbEntity
  8
0
100
AcDbLine
 62
7
  6
CONTINUOUS
 10
437.0520600592
 20
180.5741777993
 11
435.9848590592
 21
180.2393147993
  0
LINE
  5
25E
100
AcDbEntity
  8
0
100
AcDbLine
 62
7
  6
CONTINUOUS
 10
435.8145790592
 20
178.9883817993
 11
436.6303560592
 21
179.2443537993
  0
LINE
  5
25F
100
AcDbEntity
  8
0
100
AcDbLine
 62
7
  6
CONTINUOUS
 10
412.2897190592
 20
185.6675397993
 11
411.8542400592
 21
185.5359367993
  0
LINE
  5
260
100
AcDbEntity
  8
0
100
AcDbLine
 62
7
  6
CONTINUOUS
 10
407.5710100592
 20
182.0805357993
 11
408.2215370592
 21
182.2767637993
  0
LINE
  5
261
100
AcDbEntity
  8
0
100
AcDbLine
 62
7
  6
CONTINUOUS
 10
543.8800710592
 20
428.3704327993
 11
568.0665580592
 21
435.1788487993
  0
LINE
  5
262
100
AcDbEntity
  8
0
100
AcDbLine
 62
7
  6
CONTINUOUS
 10
549.3646820592
 20
412.9153187993
 11
544.0299820592
 21
412.6334357993
  0
LINE
  5
263
100
AcDbEntity
  8
0
100
AcDbLine
 62
7
  6
CONTINUOUS
 10
546.3946830592
 20
413.2404787993
 11
544.0253960592
 21
413.1152867993
  0
LINE
  5
264
100
AcDbEntity
  8
0
100
AcDbLine
 62
7
  6
CONTINUOUS
 10
571.6066980592
 20
375.0045217993
 11
549.6920080592
 21
378.5551127993
  0
LINE
  5
265
100
AcDbEntity
  8
0
100
AcDbLine
 62
7
  6
CONTINUOUS
 10
545.0239670592
 20
152.4587167993
 11
542.3174560592
 21
436.5685297993
  0
LINE
  5
266
100
AcDbEntity
  8
0
100
AcDbLine
 62
7
  6
CONTINUOUS
 10
545.2886990592
 20
152.5417827993
 11
542.5821880592
 21
436.6515967993
  0
LINE
  5
267
100
AcDbEntity
  8
0
100
AcDbLine
 62
7
  6
CONTINUOUS
 10
546.4068660592
 20
163.1237637993
 11
543.8027900592
 21
436.4807517993
  0
LINE
  5
268
100
AcDbEntity
  8
0
100
AcDbLine
 62
7
  6
CONTINUOUS
 10
546.7285640592
 20
342.4309257993
 11
547.4265940592
 21
269.1568017993
  0
LINE
  5
269
100
AcDbEntity
  8
0
100
AcDbLine
 62
7
  6
CONTINUOUS
 10
551.0574210592
 20
235.2239697993
 11
551.3847460592
 21
200.8637647993
  0
LINE
  5
26A
100
AcDbEntity
  8
0
100
AcDbLine
 62
7
  6
CONTINUOUS
 10
549.6920080592
 20
378.5551127993
 11
549.3646820592
 21
412.9153187993
  0
LINE
  5
26B
100
AcDbEntity
  8
0
100
AcDbLine
 62
7
  6
CONTINUOUS
 10
569.8227740592
 20
250.8241357993
 11
570.3665050592
 21
193.7472157993
  0
LINE
  5
26C
100
AcDbEntity
  8
0
100
AcDbLine
 62
7
  6
CONTINUOUS
 10
568.6352090592
 20
375.4859647993
 11
568.0665580592
 21
435.1788487993
  0
LINE
  5
26D
100
AcDbEntity
  8
0
100
AcDbLine
 62
7
  6
CONTINUOUS
 10
572.7663640592
 20
253.2712217993
 11
551.0574210592
 21
235.2239697993
  0
LINE
  5
26E
100
AcDbEntity
  8
0
100
AcDbLine
 62
7
  6
CONTINUOUS
 10
551.3847460592
 20
200.8637647993
 11
546.0783620592
 21
197.6094867993
  0
LINE
  5
26F
100
AcDbEntity
  8
0
100
AcDbLine
 62
7
  6
CONTINUOUS
 10
546.2033600592
 20
184.4884647993
 11
570.3665050592
 21
193.7472157993
  0
LINE
  5
270
100
AcDbEntity
  8
0
100
AcDbLine
 62
7
  6
CONTINUOUS
 10
506.2524800592
 20
193.1109397993
 11
506.6769840592
 21
193.2441387993
  0
LINE
  5
271
100
AcDbEntity
  8
0
100
AcDbLine
 62
7
  6
CONTINUOUS
 10
546.3946830592
 20
413.2404787993
 11
549.3646820592
 21
412.9153187993
  0
LINE
  5
272
100
AcDbEntity
  8
0
100
AcDbLine
 62
7
  6
CONTINUOUS
 10
504.0473240592
 20
424.5921807993
 11
314.4031000592
 21
445.3547527993
  0
LINE
  5
273
100
AcDbEntity
  8
0
100
AcDbLine
 62
7
  6
CONTINUOUS
 10
504.4714040592
 20
424.7698527993
 11
314.9325640592
 21
445.5208867993
  0
LINE
  5
274
100
AcDbEntity
  8
0
100
AcDbLine
 62
7
  6
CONTINUOUS
 10
504.4683510592
 20
425.0902467993
 11
313.9716940592
 21
445.9461447993
  0
LINE
  5
275
100
AcDbEntity
  8
0
100
AcDbLine
 62
7
  6
CONTINUOUS
 10
527.0785830592
 20
428.1128387993
 11
291.2566020592
 21
453.9310297993
  0
LINE
  5
276
100
AcDbEntity
  8
0
100
AcDbLine
 62
7
  6
CONTINUOUS
 10
572.7663640592
 20
253.2712217993
 11
571.6066980592
 21
375.0045217993
  0
LINE
  5
277
100
AcDbEntity
  8
0
100
AcDbLine
 62
7
  6
CONTINUOUS
 10
545.1920660592
 20
162.6872077993
 11
546.4068660592
 21
163.1237637993
  0
LINE
  5
278
100
AcDbEntity
  8
0
100
AcDbLine
 62
7
  6
CONTINUOUS
 10
530.0158000592
 20
164.2619387993
 11
530.9369370592
 21
164.5509697993
  0
LINE
  5
279
100
AcDbEntity
  8
0
100
AcDbLine
 62
7
  6
CONTINUOUS
 10
529.7413040592
 20
163.8312927993
 11
530.8002330592
 21
164.1635607993
  0
LINE
  5
27A
100
AcDbEntity
  8
0
100
AcDbLine
 62
7
  6
CONTINUOUS
 10
545.2886990592
 20
152.5417827993
 11
545.0239670592
 21
152.4587167993
  0
LINE
  5
27B
100
AcDbEntity
  8
0
100
AcDbLine
 62
7
  6
CONTINUOUS
 10
542.5825590592
 20
436.6143437993
 11
543.8027900592
 21
436.4807517993
  0
LINE
  5
27C
100
AcDbEntity
  8
0
100
AcDbLine
 62
7
  6
CONTINUOUS
 10
542.4732810592
 20
437.9808447993
 11
568.0665580592
 21
435.1788487993
  0
LINE
  5
27D
100
AcDbEntity
  8
0
100
AcDbLine
 62
7
  6
CONTINUOUS
 10
285.7205770592
 20
472.5067627993
 11
535.4563950592
 21
445.1652607993
  0
LINE
  5
27E
100
AcDbEntity
  8
0
100
AcDbLine
 62
7
  6
CONTINUOUS
 10
535.7211270592
 20
445.2483277993
 11
285.9853090592
 21
472.5898297993
  0
LINE
  5
27F
100
AcDbEntity
  8
0
100
AcDbLine
 62
7
  6
CONTINUOUS
 10
540.8976140592
 20
145.6517177993
 11
540.5665410592
 21
145.5478357993
  0
ARC
  5
280
100
AcDbEntity
  8
0
100
AcDbCircle
 62
7
  6
CONTINUOUS
 10
293.0903900592
 20
181.4097807993
 40
11.375557
100
AcDbArc
 50
180.622684
 51
193.081625
  0
ARC
  5
281
100
AcDbEntity
  8
0
100
AcDbCircle
 62
7
  6
CONTINUOUS
 10
293.0409600592
 20
181.3853247993
 40
11.321987
100
AcDbArc
 50
193.017693
 51
199.271118
  0
ARC
  5
282
100
AcDbEntity
  8
0
100
AcDbCircle
 62
7
  6
CONTINUOUS
 10
292.5028690592
 20
181.1949207993
 40
10.751142
100
AcDbArc
 50
199.25969
 51
205.170146
  0
ARC
  5
283
100
AcDbEntity
  8
0
100
AcDbCircle
 62
7
  6
CONTINUOUS
 10
290.8049180592
 20
182.4113537993
 40
10.152886
100
AcDbArc
 50
223.539592
 51
225.282011
  0
ARC
  5
284
100
AcDbEntity
  8
0
100
AcDbCircle
 62
7
  6
CONTINUOUS
 10
290.6611690592
 20
182.2612747993
 40
9.945074
100
AcDbArc
 50
225.262113
 51
231.772266
  0
ARC
  5
285
100
AcDbEntity
  8
0
100
AcDbCircle
 62
7
  6
CONTINUOUS
 10
291.7583080592
 20
180.8421217993
 40
9.927135
100
AcDbArc
 50
205.154949
 51
211.452388
  0
ARC
  5
286
100
AcDbEntity
  8
0
100
AcDbCircle
 62
7
  6
CONTINUOUS
 10
290.3424640592
 20
181.8544617993
 40
9.428218
100
AcDbArc
 50
231.76394
 51
238.448
  0
ARC
  5
287
100
AcDbEntity
  8
0
100
AcDbCircle
 62
7
  6
CONTINUOUS
 10
291.2320330592
 20
180.5301387993
 40
9.315339
100
AcDbArc
 50
211.504425
 51
213.287676
  0
ARC
  5
288
100
AcDbEntity
  8
0
100
AcDbCircle
 62
7
  6
CONTINUOUS
 10
289.9554010592
 20
181.2181387993
 40
8.683304
100
AcDbArc
 50
238.427361
 51
246.170746
  0
ARC
  5
289
100
AcDbEntity
  8
0
100
AcDbCircle
 62
7
  6
CONTINUOUS
 10
537.4035000592
 20
152.3759317993
 40
7.620737
100
AcDbArc
 50
342.454377
 51
0.622406
  0
ARC
  5
28A
100
AcDbEntity
  8
0
100
AcDbCircle
 62
7
  6
CONTINUOUS
 10
537.6186370592
 20
152.3169327993
 40
7.397629
100
AcDbArc
 50
333.178174
 51
342.38775
  0
ARC
  5
28B
100
AcDbEntity
  8
0
100
AcDbCircle
 62
7
  6
CONTINUOUS
 10
537.7058640592
 20
152.2735147993
 40
7.300171
100
AcDbArc
 50
324.740339
 51
333.173377
  0
ARC
  5
28C
100
AcDbEntity
  8
0
100
AcDbCircle
 62
7
  6
CONTINUOUS
 10
289.4292070592
 20
179.9303177993
 40
7.291818
100
AcDbArc
 50
245.864667
 51
263.285368
  0
ARC
  5
28D
100
AcDbEntity
  8
0
100
AcDbCircle
 62
7
  6
CONTINUOUS
 10
537.7654340592
 20
152.2316217993
 40
7.227329
100
AcDbArc
 50
316.214574
 51
324.738901
  0
ARC
  5
28E
100
AcDbEntity
  8
0
100
AcDbCircle
 62
7
  6
CONTINUOUS
 10
537.7946850592
 20
152.2047537993
 40
7.187613
100
AcDbArc
 50
313.894829
 51
316.20785
  0
ARC
  5
28F
100
AcDbEntity
  8
0
100
AcDbCircle
 62
7
  6
CONTINUOUS
 10
538.9664180592
 20
150.9121217993
 40
5.601567
100
AcDbArc
 50
263.297616
 51
284.080231
  0
ARC
  5
290
100
AcDbEntity
  8
0
100
AcDbCircle
 62
7
  6
CONTINUOUS
 10
422.0559650592
 20
186.0421997993
 40
5.339593
100
AcDbArc
 50
180.708428
 51
204.743374
  0
ARC
  5
291
100
AcDbEntity
  8
0
100
AcDbCircle
 62
7
  6
CONTINUOUS
 10
539.0857100592
 20
150.2651077993
 40
4.94423
100
AcDbArc
 50
284.563444
 51
287.427139
  0
ARC
  5
292
100
AcDbEntity
  8
0
100
AcDbCircle
 62
7
  6
CONTINUOUS
 10
539.0117340592
 20
150.1862817993
 40
4.917083
100
AcDbArc
 50
317.204539
 51
319.994236
  0
ARC
  5
293
100
AcDbEntity
  8
0
100
AcDbCircle
 62
7
  6
CONTINUOUS
 10
539.1346930592
 20
150.1182037993
 40
4.789376
100
AcDbArc
 50
287.394387
 51
295.963245
  0
ARC
  5
294
100
AcDbEntity
  8
0
100
AcDbCircle
 62
7
  6
CONTINUOUS
 10
539.1350030592
 20
150.0677497993
 40
4.746066
100
AcDbArc
 50
306.678321
 51
317.243535
  0
ARC
  5
295
100
AcDbEntity
  8
0
100
AcDbCircle
 62
7
  6
CONTINUOUS
 10
539.1888560592
 20
150.0018067993
 40
4.660985
100
AcDbArc
 50
295.991046
 51
306.631593
  0
ARC
  5
296
100
AcDbEntity
  8
0
100
AcDbCircle
 62
7
  6
CONTINUOUS
 10
393.1932680592
 20
185.5844427993
 40
1.780882
100
AcDbArc
 50
22.177148
 51
28.160719
  0
ARC
  5
297
100
AcDbEntity
  8
0
100
AcDbCircle
 62
7
  6
CONTINUOUS
 10
529.8634210592
 20
250.6494807993
 40
1.423854
100
AcDbArc
 50
263.595848
 51
283.505725
  0
ARC
  5
298
100
AcDbEntity
  8
0
100
AcDbCircle
 62
7
  6
CONTINUOUS
 10
290.9888220592
 20
367.1175617993
 40
1.40948
100
AcDbArc
 50
83.50387
 51
110.932898
  0
ARC
  5
299
100
AcDbEntity
  8
0
100
AcDbCircle
 62
7
  6
CONTINUOUS
 10
560.3156670592
 20
805.2023467993
 40
378.527516
100
AcDbArc
 50
264.777241
 51
265.167455
  0
ARC
  5
29A
100
AcDbEntity
  8
0
100
AcDbCircle
 62
7
  6
CONTINUOUS
 10
559.3419670592
 20
514.4553807993
 40
352.75438
100
AcDbArc
 50
264.965406
 51
265.383989
  0
ARC
  5
29B
100
AcDbEntity
  8
0
100
AcDbCircle
 62
7
  6
CONTINUOUS
 10
327.5275300592
 20
724.7846107993
 40
273.244586
100
AcDbArc
 50
262.146399
 51
262.629888
  0
ARC
  5
29C
100
AcDbEntity
  8
0
100
AcDbCircle
 62
7
  6
CONTINUOUS
 10
328.3669360592
 20
439.4876447993
 40
253.08342
100
AcDbArc
 50
261.90222
 51
262.424522
  0
ARC
  5
29D
100
AcDbEntity
  8
0
100
AcDbCircle
 62
7
  6
CONTINUOUS
 10
288.9859890592
 20
465.5311677993
 40
9.977171
100
AcDbArc
 50
167.191716
 51
180.776371
  0
ARC
  5
29E
100
AcDbEntity
  8
0
100
AcDbCircle
 62
7
  6
CONTINUOUS
 10
533.5786630592
 20
436.1721637993
 40
8.811249
100
AcDbArc
 50
41.529334
 51
43.540744
  0
ARC
  5
29F
100
AcDbEntity
  8
0
100
AcDbCircle
 62
7
  6
CONTINUOUS
 10
533.6105910592
 20
436.1995227993
 40
8.769201
100
AcDbArc
 50
34.064303
 51
41.533821
  0
ARC
  5
2A0
100
AcDbEntity
  8
0
100
AcDbCircle
 62
7
  6
CONTINUOUS
 10
533.7262260592
 20
436.2777567993
 40
8.629562
100
AcDbArc
 50
26.534914
 51
34.064039
  0
ARC
  5
2A1
100
AcDbEntity
  8
0
100
AcDbCircle
 62
7
  6
CONTINUOUS
 10
533.9111920592
 20
436.3699917993
 40
8.422835
100
AcDbArc
 50
18.097719
 51
26.535687
  0
ARC
  5
2A2
100
AcDbEntity
  8
0
100
AcDbCircle
 62
7
  6
CONTINUOUS
 10
287.2443650592
 20
465.8960947993
 40
8.197285
100
AcDbArc
 50
159.23273
 51
166.980266
  0
ARC
  5
2A3
100
AcDbEntity
  8
0
100
AcDbCircle
 62
7
  6
CONTINUOUS
 10
534.2548960592
 20
436.4747347993
 40
8.063356
100
AcDbArc
 50
0.666518
 51
18.148924
  0
ARC
  5
2A4
100
AcDbEntity
  8
0
100
AcDbCircle
 62
7
  6
CONTINUOUS
 10
533.5008970592
 20
437.9973137993
 40
7.733828
100
AcDbArc
 50
33.287665
 51
35.418368
  0
ARC
  5
2A5
100
AcDbEntity
  8
0
100
AcDbCircle
 62
7
  6
CONTINUOUS
 10
285.8938330592
 20
465.1667357993
 40
7.587598
100
AcDbArc
 50
131.714743
 51
133.89781
  0
ARC
  5
2A6
100
AcDbEntity
  8
0
100
AcDbCircle
 62
7
  6
CONTINUOUS
 10
533.8543200592
 20
438.2584997993
 40
7.294374
100
AcDbArc
 50
35.355313
 51
43.557481
  0
ARC
  5
2A7
100
AcDbEntity
  8
0
100
AcDbCircle
 62
7
  6
CONTINUOUS
 10
285.6917750592
 20
465.4021587993
 40
7.277358
100
AcDbArc
 50
123.475498
 51
131.760612
  0
ARC
  5
2A8
100
AcDbEntity
  8
0
100
AcDbCircle
 62
7
  6
CONTINUOUS
 10
286.1512550592
 20
466.3092447993
 40
7.028485
100
AcDbArc
 50
151.392467
 51
159.222294
  0
ARC
  5
2A9
100
AcDbEntity
  8
0
100
AcDbCircle
 62
7
  6
CONTINUOUS
 10
285.4220190592
 20
465.8093907993
 40
6.788778
100
AcDbArc
 50
114.853629
 51
123.472218
  0
ARC
  5
2AA
100
AcDbEntity
  8
0
100
AcDbCircle
 62
7
  6
CONTINUOUS
 10
534.3083280592
 20
438.6889537993
 40
6.668606
100
AcDbArc
 50
43.565261
 51
52.247098
  0
ARC
  5
2AB
100
AcDbEntity
  8
0
100
AcDbCircle
 62
7
  6
CONTINUOUS
 10
285.2481110592
 20
466.1775697993
 40
6.381525
100
AcDbArc
 50
107.465709
 51
114.826205
  0
ARC
  5
2AC
100
AcDbEntity
  8
0
100
AcDbCircle
 62
7
  6
CONTINUOUS
 10
534.6249300592
 20
439.0971027993
 40
6.151919
100
AcDbArc
 50
52.25112
 51
62.348523
  0
ARC
  5
2AD
100
AcDbEntity
  8
0
100
AcDbCircle
 62
7
  6
CONTINUOUS
 10
285.1747860592
 20
466.3997547993
 40
6.147552
100
AcDbArc
 50
104.859215
 51
107.435331
  0
ARC
  5
2AE
100
AcDbEntity
  8
0
100
AcDbCircle
 62
7
  6
CONTINUOUS
 10
285.2718010592
 20
466.7894687993
 40
6.026248
100
AcDbArc
 50
142.646431
 51
151.397303
  0
ARC
  5
2AF
100
AcDbEntity
  8
0
100
AcDbCircle
 62
7
  6
CONTINUOUS
 10
285.1044290592
 20
466.7250377993
 40
5.814795
100
AcDbArc
 50
83.917052
 51
105.011084
  0
ARC
  5
2B0
100
AcDbEntity
  8
0
100
AcDbCircle
 62
7
  6
CONTINUOUS
 10
534.8243660592
 20
439.4854347993
 40
5.715093
100
AcDbArc
 50
62.312798
 51
83.650478
  0
ARC
  5
2B1
100
AcDbEntity
  8
0
100
AcDbCircle
 62
7
  6
CONTINUOUS
 10
284.8278470592
 20
467.1139237993
 40
5.476388
100
AcDbArc
 50
139.99845
 51
142.526641
  0
ARC
  5
2B2
100
AcDbEntity
  8
0
100
AcDbCircle
 62
7
  6
CONTINUOUS
 10
981.6980340592
 20
-17.1446772007
 40
637.309146
100
AcDbArc
 50
133.877624
 51
135.664202
  0
ARC
  5
2B3
100
AcDbEntity
  8
0
100
AcDbCircle
 62
7
  6
CONTINUOUS
 10
817.0643470592
 20
407.6751847993
 40
378.379847
100
AcDbArc
 50
220.276385
 51
223.539763
  0
ELLIPSE
  5
2B4
100
AcDbEntity
  8
0
100
AcDbEllipse
 62
7
  6
CONTINUOUS
 10
356.5319590592
 20
461.8439957993
 30
0.0
 11
97.8413238525
 21
-106.1650772095
 31
0.0
 40
0.37696
 41
4.299735607
 42
4.4496838337
  0
ELLIPSE
  5
2B5
100
AcDbEntity
  8
0
100
AcDbEllipse
 62
7
  6
CONTINUOUS
 10
364.1576460592
 20
216.7336517993
 30
0.0
 11
108.1248550415
 21
95.3966064453
 31
0.0
 40
0.196066
 41
2.0813512863
 42
2.2259856603
  0
ELLIPSE
  5
2B6
100
AcDbEntity
  8
0
100
AcDbEllipse
 62
7
  6
CONTINUOUS
 10
420.5195320592
 20
185.5607317993
 30
0.0
 11
1.3402553797
 21
-4.2772216797
 31
0.0
 40
0.831996
 41
3.8400203429
 42
4.3632334126
  0
ELLIPSE
  5
2B7
100
AcDbEntity
  8
0
100
AcDbEllipse
 62
7
  6
CONTINUOUS
 10
535.7959480592
 20
437.3945637993
 30
0.0
 11
2.3950798512
 21
-7.6330590248
 31
0.0
 40
0.831906
 41
1.22114116
 42
2.7919374868
  0
ELLIPSE
  5
2B8
100
AcDbEntity
  8
0
100
AcDbEllipse
 62
7
  6
CONTINUOUS
 10
538.5024600592
 20
153.2847457993
 30
0.0
 11
-2.3950798512
 21
7.6330590248
 31
0.0
 40
0.831906
 41
3.1416050058
 42
4.3627338136
  0
ELLIPSE
  5
2B9
100
AcDbEntity
  8
0
100
AcDbEllipse
 62
7
  6
CONTINUOUS
 10
286.0601230592
 20
464.7360707993
 30
0.0
 11
2.3950798512
 21
-7.6330590248
 31
0.0
 40
0.831906
 41
2.7919374868
 42
3.1416050058
  0
ELLIPSE
  5
2BA
100
AcDbEntity
  8
0
100
AcDbEllipse
 62
7
  6
CONTINUOUS
 10
527.0832630592
 20
427.6219807993
 30
0.0
 11
0.1496924907
 21
-0.4770661891
 31
0.0
 40
0.831906
 41
1.2211411631
 42
2.7919374836
  0
ELLIPSE
  5
2BB
100
AcDbEntity
  8
0
100
AcDbEllipse
 62
7
  6
CONTINUOUS
 10
291.2612800592
 20
453.4401717993
 30
0.0
 11
0.1496924907
 21
-0.4770661891
 31
0.0
 40
0.831906
 41
9.0751227971
 42
10.6459191176
  0
ELLIPSE
  5
2BC
100
AcDbEntity
  8
0
100
AcDbEllipse
 62
7
  6
CONTINUOUS
 10
293.7696800592
 20
190.1265657993
 30
0.0
 11
0.1496924907
 21
-0.4770661891
 31
0.0
 40
0.831906
 41
4.3627338167
 42
5.9335301372
  0
ELLIPSE
  5
2BD
100
AcDbEntity
  8
0
100
AcDbEllipse
 62
7
  6
CONTINUOUS
 10
529.5916630592
 20
164.3083667993
 30
0.0
 11
0.1496924907
 21
-0.4770661891
 31
0.0
 40
0.831906
 41
5.9335301435
 42
7.504326464
  0
ELLIPSE
  5
2BE
100
AcDbEntity
  8
0
100
AcDbEllipse
 62
7
  6
CONTINUOUS
 10
435.8005500592
 20
180.4609627993
 30
0.0
 11
0.449077487
 21
-1.431198597
 31
0.0
 40
0.831906
 41
12.2167154475
 42
15.3583081011
  0
ELLIPSE
  5
2BF
100
AcDbEntity
  8
0
100
AcDbEllipse
 62
7
  6
CONTINUOUS
 10
411.6233750592
 20
183.2161347993
 30
0.0
 11
-1.5144174099
 21
4.8264102936
 31
0.0
 40
0.831906
 41
9.0751576131
 42
10.321932514
  0
ELLIPSE
  5
2C0
100
AcDbEntity
  8
0
100
AcDbEllipse
 62
7
  6
CONTINUOUS
 10
411.6236730592
 20
183.2160967993
 30
0.0
 11
1.5144174099
 21
-4.8264102936
 31
0.0
 40
0.831906
 41
4.6867204203
 42
5.9334953212
  0
ELLIPSE
  5
2C1
100
AcDbEntity
  8
0
100
AcDbEllipse
 62
7
  6
CONTINUOUS
 10
387.4485620592
 20
185.7546177993
 30
0.0
 11
0.449077487
 21
-1.431198597
 31
0.0
 40
0.831906
 41
2.7919374868
 42
5.9335301403
  0
ELLIPSE
  5
2C2
100
AcDbEntity
  8
0
100
AcDbEllipse
 62
7
  6
CONTINUOUS
 10
411.5918240592
 20
186.5438097993
 30
0.0
 11
4.4907746315
 21
-14.3119859695
 31
0.0
 40
0.831906
 41
1.0874095705
 42
4.496465403
  0
ELLIPSE
  5
2C3
100
AcDbEntity
  8
0
100
AcDbEllipse
 62
7
  6
CONTINUOUS
 10
530.6505920592
 20
164.6406417993
 30
0.0
 11
-0.1496924907
 21
0.4770661891
 31
0.0
 40
0.831906
 41
3.1414711768
 42
3.5307934857
  0
ELLIPSE
  5
2C4
100
AcDbEntity
  8
0
100
AcDbEllipse
 62
7
  6
CONTINUOUS
 10
415.5943630592
 20
184.4621367993
 30
0.0
 11
1.4752240181
 21
-4.7015018463
 31
0.0
 40
0.831906
 41
1.1221414623
 42
1.5065393234
  0
ELLIPSE
  5
2C5
100
AcDbEntity
  8
0
100
AcDbEllipse
 62
7
  6
CONTINUOUS
 10
416.4292730592
 20
184.7239857993
 30
0.0
 11
-1.4669864178
 21
4.6752486229
 31
0.0
 40
0.831906
 41
1.3609449765
 42
1.3949198347
  0
ELLIPSE
  5
2C6
100
AcDbEntity
  8
0
100
AcDbEllipse
 62
7
  6
CONTINUOUS
 10
416.4292730592
 20
184.7239857993
 30
0.0
 11
-1.4669864178
 21
4.6752486229
 31
0.0
 40
0.831906
 41
1.9913158206
 42
2.5089881223
  0
ELLIPSE
  5
2C7
100
AcDbEntity
  8
0
100
AcDbEllipse
 62
7
  6
CONTINUOUS
 10
416.0057020592
 20
184.5910817993
 30
0.0
 11
-1.4711670876
 21
4.6885724068
 31
0.0
 40
0.831906
 41
1.1192139157
 42
1.3230684042
  0
ELLIPSE
  5
2C8
100
AcDbEntity
  8
0
100
AcDbEllipse
 62
7
  6
CONTINUOUS
 10
416.4292730592
 20
184.7239857993
 30
0.0
 11
-1.466986537
 21
4.6752490997
 31
0.0
 40
0.831906
 41
0.0811404596
 42
1.1189224206
  0
ELLIPSE
  5
2C9
100
AcDbEntity
  8
0
100
AcDbEllipse
 62
7
  6
CONTINUOUS
 10
389.5664230592
 20
186.4191527993
 30
0.0
 11
0.449077487
 21
-1.431198597
 31
0.0
 40
0.831906
 41
3.9612647089
 42
5.9335301403
  0
ELLIPSE
  5
2CA
100
AcDbEntity
  8
0
100
AcDbEllipse
 62
7
  6
CONTINUOUS
 10
413.1802170592
 20
187.0422157993
 30
0.0
 11
-4.4907746315
 21
14.3119859695
 31
0.0
 40
0.831906
 41
1.3548727494
 42
1.412193294
  0
ELLIPSE
  5
2CB
100
AcDbEntity
  8
0
100
AcDbEllipse
 62
7
  6
CONTINUOUS
 10
415.5628120592
 20
187.7898197993
 30
0.0
 11
-4.4907746315
 21
14.3119859695
 31
0.0
 40
0.831906
 41
0.1675438228
 42
1.4825539651
  0
ELLIPSE
  5
2CC
100
AcDbEntity
  8
0
100
AcDbEllipse
 62
7
  6
CONTINUOUS
 10
413.1802170592
 20
187.0422157993
 30
0.0
 11
-4.4907746315
 21
14.3119859695
 31
0.0
 40
0.831906
 41
4.1716816893
 42
4.1827276188
  0
ELLIPSE
  5
2CD
100
AcDbEntity
  8
0
100
AcDbEllipse
 62
7
  6
CONTINUOUS
 10
432.7234020592
 20
181.4701557993
 30
0.0
 11
-0.449077487
 21
1.431198597
 31
0.0
 40
0.831906
 41
0.6469009663
 42
0.722434358
  0
ELLIPSE
  5
2CE
100
AcDbEntity
  8
0
100
AcDbEllipse
 62
7
  6
CONTINUOUS
 10
433.2528700592
 20
181.6362937993
 30
0.0
 11
0.449077487
 21
-1.431198597
 31
0.0
 40
0.831906
 41
3.9612647089
 42
3.9976157055
  0
ELLIPSE
  5
2CF
100
AcDbEntity
  8
0
100
AcDbEllipse
 62
7
  6
CONTINUOUS
 10
415.5946620592
 20
184.4621067993
 30
0.0
 11
-1.4752240181
 21
4.7015018463
 31
0.0
 40
0.831906
 41
5.933565885
 42
7.6033261817
  0
ELLIPSE
  5
2D0
100
AcDbEntity
  8
0
100
AcDbEllipse
 62
7
  6
CONTINUOUS
 10
415.5943630592
 20
184.4621367993
 30
0.0
 11
-1.4752240181
 21
4.7015018463
 31
0.0
 40
0.831906
 41
4.6481319769
 42
5.9334943957
  0
ELLIPSE
  5
2D1
100
AcDbEntity
  8
0
100
AcDbEllipse
 62
7
  6
CONTINUOUS
 10
416.4292730592
 20
184.7239857993
 30
0.0
 11
1.2572654486
 21
-4.0068731308
 31
0.0
 40
0.831906
 41
3.3560342194
 42
3.3774413121
  0
ELLIPSE
  5
2D2
100
AcDbEntity
  8
0
100
AcDbEllipse
 62
7
  6
CONTINUOUS
 10
416.0054030592
 20
184.5911117993
 30
0.0
 11
1.2572654486
 21
-4.0068731308
 31
0.0
 40
0.831906
 41
1.1017960846
 42
1.3404862354
  0
ELLIPSE
  5
2D3
100
AcDbEntity
  8
0
100
AcDbEllipse
 62
7
  6
CONTINUOUS
 10
416.4292730592
 20
184.7239857993
 30
0.0
 11
-1.2572654486
 21
4.0068731308
 31
0.0
 40
0.831906
 41
2.1694009222
 42
2.227840756
  0
ELLIPSE
  5
2D4
100
AcDbEntity
  8
0
100
AcDbEllipse
 62
7
  6
CONTINUOUS
 10
416.4292730592
 20
184.7239857993
 30
0.0
 11
-1.2572654486
 21
4.0068731308
 31
0.0
 40
0.831906
 41
6.5190339667
 42
7.7072455503
  0
ELLIPSE
  5
2D5
100
AcDbEntity
  8
0
100
AcDbEllipse
 62
7
  6
CONTINUOUS
 10
416.0057020592
 20
184.5910817993
 30
0.0
 11
-1.2572654486
 21
4.0068731308
 31
0.0
 40
0.831906
 41
1.1017960846
 42
1.3404862354
  0
ELLIPSE
  5
2D6
100
AcDbEntity
  8
0
100
AcDbEllipse
 62
7
  6
CONTINUOUS
 10
419.4472210592
 20
185.6709457993
 30
0.0
 11
-1.227478385
 21
3.9119427204
 31
0.0
 40
0.831906
 41
0.6412988889
 42
1.7731465945
  0
ELLIPSE
  5
2D7
100
AcDbEntity
  8
0
100
AcDbEllipse
 62
7
  6
CONTINUOUS
 10
292.0180390592
 20
277.2196157993
 30
0.0
 11
0.5967186093
 21
-1.9102720022
 31
0.0
 40
0.831436
 41
4.3640338678
 42
5.9348301948
  0
ELLIPSE
  5
2D8
100
AcDbEntity
  8
0
100
AcDbEllipse
 62
7
  6
CONTINUOUS
 10
291.1671710592
 20
366.5531257993
 30
0.0
 11
0.5970667005
 21
-1.9103395939
 31
0.0
 40
0.831421
 41
3.1955622482
 42
4.3638454871
  0
ELLIPSE
  5
2D9
100
AcDbEntity
  8
0
100
AcDbEllipse
 62
7
  6
CONTINUOUS
 10
528.8348580592
 20
340.5329757993
 30
0.0
 11
-0.5967186093
 21
1.9102720022
 31
0.0
 40
0.831436
 41
4.3640338678
 42
5.9348301945
  0
ELLIPSE
  5
2DA
100
AcDbEntity
  8
0
100
AcDbEllipse
 62
7
  6
CONTINUOUS
 10
529.6860000592
 20
251.1992247993
 30
0.0
 11
0.5964217186
 21
-1.9102128744
 31
0.0
 40
0.831451
 41
6.2292520895
 42
7.5057877383
  0
ELLIPSE
  5
2DB
100
AcDbEntity
  8
0
100
AcDbEllipse
 62
7
  6
CONTINUOUS
 10
391.6698180592
 20
186.2427467993
 30
0.0
 11
0.3742312193
 21
-1.1926654577
 31
0.0
 40
0.831906
 41
1.5267468358
 42
1.6600303938
  0
ELLIPSE
  5
2DC
100
AcDbEntity
  8
0
100
AcDbEllipse
 62
7
  6
CONTINUOUS
 10
392.9450810592
 20
185.2067277993
 30
0.0
 11
0.136039257
 21
1.2425752878
 31
0.0
 40
0.52134
 41
6.2830742407
 42
9.4246668943
  0
ELLIPSE
  5
2DD
100
AcDbEntity
  8
0
100
AcDbEllipse
 62
7
  6
CONTINUOUS
 10
430.0997670592
 20
181.1389637993
 30
0.0
 11
0.136039257
 21
1.2425752878
 31
0.0
 40
0.52134
 41
6.2830742407
 42
9.4246668943
  0
ELLIPSE
  5
2DE
100
AcDbEntity
  8
0
100
AcDbEllipse
 62
7
  6
CONTINUOUS
 10
435.6107480592
 20
181.4320167993
 30
0.0
 11
-0.3742312193
 21
1.1926654577
 31
0.0
 40
0.831906
 41
3.1414711607
 42
4.458903721
  0
ENDSEC
  0
SECTION
  2
OBJECTS
  0
DICTIONARY
  5
C
100
AcDbDictionary
280
0
281
1
  3
ACAD_GROUP
350
D
  3
ACAD_MLINESTYLE
350
17
  3
ACAD_LAYOUT
350
1A
  3
ACAD_PLOTSETTINGS
350
19
  3
ACAD_PLOTSTYLENAME
350
E
  0
DICTIONARY
  5
D
102
{ACAD_REACTORS
330
C
102
}
100
AcDbDictionary
280
0
281
1
  0
ACDBDICTIONARYWDFLT
  5
E
102
{ACAD_REACTORS
330
C
102
}
100
AcDbDictionary
281
1
  3
Normal
350
F
100
AcDbDictionaryWithDefault
340
F
  0
DICTIONARY
  5
17
102
{ACAD_REACTORS
330
C
102
}
100
AcDbDictionary
280
0
281
1
  3
Standard
350
18
  0
DICTIONARY
  5
19
102
{ACAD_REACTORS
330
C
102
}
100
AcDbDictionary
281
1
  0
DICTIONARY
  5
1A
102
{ACAD_REACTORS
330
C
102
}
100
AcDbDictionary
281
1
  3
Model
350
2DF
  3
Layout1
350
2E0
  0
ACDBPLACEHOLDER
  5
F
102
{ACAD_REACTORS
330
E
102
}
  0
MLINESTYLE
  5
18
102
{ACAD_REACTORS
330
17
102
}
100
AcDbMlineStyle
  2
STANDARD
 70
0
  3

 62
256
 51
90.0
 52
90.0
 71
2
 49
0.5
 62
256
  6
BYLAYER
 49
-0.5
 62
256
  6
BYLAYER
  0
LAYOUT
  5
2DF
102
{ACAD_REACTORS
330
1A
102
}
100
AcDbPlotSettings
  1

  2
none_device
  4
ISO_A1_(594.00_x_841.00_MM)
  6

 40
0.0
 41
0.0
 42
0.0
 43
0.0
 44
841.0
 45
594.0
 46
0.0
 47
0.0
 48
0.0
 49
0.0
140
0.0
141
0.0
142
1.0
143
1.0
 70
1024
 72
1
 73
0
 74
0
  7

 75
0
147
1.0
148
0.0
149
0.0
100
AcDbLayout
  1
Model
 70
0
 71
0
 10
0.0
 20
0.0
 11
841.0
 21
594.0
 12
0.0
 22
0.0
 32
0.0
 14
0.0
 24
0.0
 34
0.0
 15
0.0
 25
0.0
 35
0.0
146
0.0
 13
0.0
 23
0.0
 33
0.0
 16
1.0
 26
0.0
 36
0.0
 17
0.0
 27
1.0
 37
0.0
 76
0
330
210
345
0
346
0
  0
LAYOUT
  5
2E0
102
{ACAD_REACTORS
330
1A
102
}
100
AcDbPlotSettings
  1

  2
none_device
  4
ISO_A1_(594.00_x_841.00_MM)
  6

 40
0.0
 41
0.0
 42
0.0
 43
0.0
 44
841.0
 45
594.0
 46
0.0
 47
0.0
 48
0.0
 49
0.0
140
0.0
141
0.0
142
1.0
143
1.0
 70
0
 72
1
 73
0
 74
0
  7

 75
0
147
1.0
148
0.0
149
0.0
100
AcDbLayout
  1
Layout1
 70
0
 71
1
 10
0.0
 20
0.0
 11
841.0
 21
594.0
 12
0.0
 22
0.0
 32
0.0
 14
0.0
 24
0.0
 34
0.0
 15
0.0
 25
0.0
 35
0.0
146
0.0
 13
0.0
 23
0.0
 33
0.0
 16
1.0
 26
0.0
 36
0.0
 17
0.0
 27
1.0
 37
0.0
 76
0
330
211
345
0
346
0
  0
ENDSEC
  0
EOF
