  0
SECTION
  2
HEADER
  9
$ACADVER
  1
AC1015
  9
$DWGCODEPAGE
  3
ANSI_1252
  9
$EXTMAX
 10
297.0
 20
210.0
 30
0.0
  9
$EXTMIN
 10
0.0
 20
0.0
 30
0.0
  9
$LIMMIN
 10
0.0
 20
0.0
  9
$LIMMAX
 10
297.0
 20
210.0
  9
$VIEWCTR
 10
148.5
 20
105.0
  9
$VIEWSIZE
 40
210.0
  9
$CLAYER
  8
0
  9
$LTSCALE
 40
16.335
  9
$CELTYPE
  6
BYLAYER
  9
$DIMSCALE
 40
1.0
  9
$DIMASZ
 40
3.0
  9
$DIMEXO
 40
1.85625
  9
$DIMDLI
 40
11.286
  9
$DIMEXE
 40
5.346
  9
$DIMCEN
 40
2.673
  9
$DIMLFAC
 40
1.0
  9
$DIMBLK
  1
_FILLED
  9
$DIMTXT
 40
3.0
  9
$DIMTOL
 70
1
  9
$DIMLIM
 70
0
  9
$DIMTFAC
 40
1.0
  9
$DIMTP
 40
0.01
  9
$DIMTM
 40
0.01
  9
$PDMODE
 70
3
  9
$PDSIZE
 40
3.0
  9
$HANDSEED
  5
464
  9
$TILEMODE
 70
1
  9
$MEASUREMENT
 70
1
  9
$INSUNITS
 70
4
  0
ENDSEC
  0
SECTION
  2
CLASSES
  0
CLASS
  1
ACDBDICTIONARYWDFLT
  2
AcDbDictionaryWithDefault
  3
AutoCAD 2000
 90
0
280
0
281
0
  0
CLASS
  1
ACDBPLACEHOLDER
  2
AcDbPlaceHolder
  3
AutoCAD 2000
 90
0
280
0
281
0
  0
CLASS
  1
LAYOUT
  2
AcDbLayout
  3
AutoCAD 2000
 90
0
280
0
281
0
  0
ENDSEC
  0
SECTION
  2
TABLES
  0
TABLE
  2
VPORT
  5
8
100
AcDbSymbolTable
 70
2
  0
VPORT
  5
1F4
100
AcDbSymbolTableRecord
100
AcDbViewportTableRecord
  2
*ACTIVE
 70
0
 10
0.0
 20
0.0
 11
1.0
 21
1.0
 12
148.5
 22
105.0
 13
0.0
 23
0.0
 14
1.0
 24
1.0
 15
0.0
 25
0.0
 16
0.0
 26
0.0
 36
1.0
 17
0.0
 27
0.0
 37
0.0
 40
210.0
 41
1.4142857143
 42
50.0
 43
0.0
 44
0.0
 50
0.0
 51
0.0
 71
0
 72
100
 73
1
 74
1
 75
0
 76
0
 77
0
 78
0
  0
ENDTAB
  0
TABLE
  2
LTYPE
  5
5
100
AcDbSymbolTable
 70
6
  0
LTYPE
  5
14
100
AcDbSymbolTableRecord
100
AcDbLinetypeTableRecord
  2
BYBLOCK
 70
0
  3

 72
65
 73
0
 40
0.0
  0
LTYPE
  5
15
100
AcDbSymbolTableRecord
100
AcDbLinetypeTableRecord
  2
BYLAYER
 70
0
  3

 72
65
 73
0
 40
0.0
  0
LTYPE
  5
16
100
AcDbSymbolTableRecord
100
AcDbLinetypeTableRecord
  2
CONTINUOUS
 70
64
  3
Solid line
 72
65
 73
0
 40
0.0
  0
LTYPE
  5
1F5
100
AcDbSymbolTableRecord
100
AcDbLinetypeTableRecord
  2
CENTER
 70
64
  3
____ _ ____ _ ____ _ ____ _ ____ _ ____ _ ____
 72
65
 73
4
 40
0.6
 49
0.375
 74
0
 49
-0.075
 74
0
 49
0.075
 74
0
 49
-0.075
 74
0
  0
LTYPE
  5
1F6
100
AcDbSymbolTableRecord
100
AcDbLinetypeTableRecord
  2
HIDDEN
 70
64
  3
- - - - - - - - - - - - - - - - - - - -
 72
65
 73
2
 40
0.2
 49
0.1
 74
0
 49
-0.1
 74
0
  0
LTYPE
  5
1F7
100
AcDbSymbolTableRecord
100
AcDbLinetypeTableRecord
  2
PHANTOM
 70
64
  3
_____ _ _ _____ _ _ _____ _ _ _____
 72
65
 73
6
 40
0.8
 49
0.45
 74
0
 49
-0.05
 74
0
 49
0.1
 74
0
 49
-0.05
 74
0
 49
0.1
 74
0
 49
-0.05
 74
0
  0
LTYPE
  5
1F8
100
AcDbSymbolTableRecord
100
AcDbLinetypeTableRecord
  2
DOT
 70
64
  3
. . . . . . . . . . . . . . . . . . . .
 72
65
 73
2
 40
0.2
 49
0.1
 74
0
 49
-0.1
 74
0
  0
LTYPE
  5
1F9
100
AcDbSymbolTableRecord
100
AcDbLinetypeTableRecord
  2
DASHED
 70
64
  3
- - - - - - - - - - - - - - - - - - - -
 72
65
 73
2
 40
0.2
 49
0.1
 74
0
 49
-0.1
 74
0
  0
ENDTAB
  0
TABLE
  2
LAYER
  5
2
100
AcDbSymbolTable
 70
36
  0
LAYER
  5
10
100
AcDbSymbolTableRecord
100
AcDbLayerTableRecord
  2
0
 70
0
 62
7
  6
CONTINUOUS
370
-3
390
F
  0
LAYER
  5
1FA
100
AcDbSymbolTableRecord
100
AcDbLayerTableRecord
  2
DEFAULT_1
 70
0
 62
7
  6
CENTER
370
-3
390
F
  0
LAYER
  5
1FB
100
AcDbSymbolTableRecord
100
AcDbLayerTableRecord
  2
DEFAULT_2
 70
0
 62
7
  6
HIDDEN
370
-3
390
F
  0
LAYER
  5
1FC
100
AcDbSymbolTableRecord
100
AcDbLayerTableRecord
  2
DEFAULT_3
 70
0
 62
7
  6
PHANTOM
370
-3
390
F
  0
LAYER
  5
1FD
100
AcDbSymbolTableRecord
100
AcDbLayerTableRecord
  2
ASSI
 70
0
 62
7
  6
CONTINUOUS
370
-3
390
F
  0
LAYER
  5
1FE
100
AcDbSymbolTableRecord
100
AcDbLayerTableRecord
  2
COORDINATE
 70
0
 62
7
  6
CONTINUOUS
370
-3
390
F
  0
LAYER
  5
1FF
100
AcDbSymbolTableRecord
100
AcDbLayerTableRecord
  2
COORD_ORIGINE
 70
0
 62
7
  6
CONTINUOUS
370
-3
390
F
  0
LAYER
  5
200
100
AcDbSymbolTableRecord
100
AcDbLayerTableRecord
  2
COPY_PUBLISH
 70
0
 62
7
  6
CONTINUOUS
370
-3
390
F
  0
LAYER
  5
201
100
AcDbSymbolTableRecord
100
AcDbLayerTableRecord
  2
COSMETIC
 70
0
 62
7
  6
CONTINUOUS
370
-3
390
F
  0
LAYER
  5
202
100
AcDbSymbolTableRecord
100
AcDbLayerTableRecord
  2
CURVA_ASSE
 70
0
 62
7
  6
CONTINUOUS
370
-3
390
F
  0
LAYER
  5
203
100
AcDbSymbolTableRecord
100
AcDbLayerTableRecord
  2
CURVE
 70
0
 62
7
  6
CONTINUOUS
370
-3
390
F
  0
LAYER
  5
204
100
AcDbSymbolTableRecord
100
AcDbLayerTableRecord
  2
CURVE_GUIDA
 70
0
 62
7
  6
CONTINUOUS
370
-3
390
F
  0
LAYER
  5
205
100
AcDbSymbolTableRecord
100
AcDbLayerTableRecord
  2
CURVE_INC_PUNZONI
 70
0
 62
7
  6
CONTINUOUS
370
-3
390
F
  0
LAYER
  5
206
100
AcDbSymbolTableRecord
100
AcDbLayerTableRecord
  2
DRAFT
 70
0
 62
7
  6
CONTINUOUS
370
-3
390
F
  0
LAYER
  5
207
100
AcDbSymbolTableRecord
100
AcDbLayerTableRecord
  2
IMPORT_IGES
 70
0
 62
7
  6
CONTINUOUS
370
-3
390
F
  0
LAYER
  5
208
100
AcDbSymbolTableRecord
100
AcDbLayerTableRecord
  2
NOTE
 70
0
 62
7
  6
CONTINUOUS
370
-3
390
F
  0
LAYER
  5
209
100
AcDbSymbolTableRecord
100
AcDbLayerTableRecord
  2
PIANI
 70
0
 62
7
  6
CONTINUOUS
370
-3
390
F
  0
LAYER
  5
20A
100
AcDbSymbolTableRecord
100
AcDbLayerTableRecord
  2
PIANI_ORIGINE
 70
0
 62
7
  6
CONTINUOUS
370
-3
390
F
  0
LAYER
  5
20B
100
AcDbSymbolTableRecord
100
AcDbLayerTableRecord
  2
PUNTI
 70
0
 62
7
  6
CONTINUOUS
370
-3
390
F
  0
LAYER
  5
20C
100
AcDbSymbolTableRecord
100
AcDbLayerTableRecord
  2
RACCORDO
 70
0
 62
7
  6
CONTINUOUS
370
-3
390
F
  0
LAYER
  5
20D
100
AcDbSymbolTableRecord
100
AcDbLayerTableRecord
  2
SMUSSO
 70
0
 62
7
  6
CONTINUOUS
370
-3
390
F
  0
LAYER
  5
20E
100
AcDbSymbolTableRecord
100
AcDbLayerTableRecord
  2
SNAPLINE
 70
0
 62
7
  6
CONTINUOUS
370
-3
390
F
  0
LAYER
  5
20F
100
AcDbSymbolTableRecord
100
AcDbLayerTableRecord
  2
SUPERFICI
 70
0
 62
7
  6
CONTINUOUS
370
-3
390
F
  0
LAYER
  5
210
100
AcDbSymbolTableRecord
100
AcDbLayerTableRecord
  2
TRASH
 70
0
 62
7
  6
CONTINUOUS
370
-3
390
F
  0
LAYER
  5
211
100
AcDbSymbolTableRecord
100
AcDbLayerTableRecord
  2
XSEC_DATUMS
 70
0
 62
7
  6
CONTINUOUS
370
-3
390
F
  0
ENDTAB
  0
TABLE
  2
STYLE
  5
3
100
AcDbSymbolTable
 70
1
  0
STYLE
  5
11
100
AcDbSymbolTableRecord
100
AcDbTextStyleTableRecord
  2
STANDARD
 70
0
 40
0.0
 41
0.8
 50
0.0
 71
0
 42
0.2
  3
txt
  4

  0
STYLE
  5
212
100
AcDbSymbolTableRecord
100
AcDbTextStyleTableRecord
  2
TEXTSTYLE_1
 70
0
 40
0.0
 41
0.8
 50
0.0
 71
0
 42
0.2
  3
gdt
  4

  0
ENDTAB
  0
TABLE
  2
VIEW
  5
6
100
AcDbSymbolTable
 70
0
  0
ENDTAB
  0
TABLE
  2
UCS
  5
7
100
AcDbSymbolTable
 70
0
  0
ENDTAB
  0
TABLE
  2
APPID
  5
9
100
AcDbSymbolTable
 70
1
  0
APPID
  5
213
100
AcDbSymbolTableRecord
100
AcDbRegAppTableRecord
  2
ACAD
 70
0
  0
ENDTAB
  0
TABLE
  2
BLOCK_RECORD
  5
1
100
AcDbSymbolTable
 70
0
  0
BLOCK_RECORD
  5
214
100
AcDbSymbolTableRecord
100
AcDbBlockTableRecord
  2
*Model_Space
  0
BLOCK_RECORD
  5
215
100
AcDbSymbolTableRecord
100
AcDbBlockTableRecord
  2
*Paper_Space
  0
ENDTAB
  0
TABLE
  2
DIMSTYLE
  5
A
100
AcDbSymbolTable
 70
1
100
AcDbDimStyleTable
 71
0
  0
DIMSTYLE
105
216
100
AcDbSymbolTableRecord
100
AcDbDimStyleTableRecord
  2
STANDARD
 70
0
  3

  4

 40
1.0
 41
3.0
 42
0.0625
 43
0.38
 44
0.18
 45
0.0
 46
0.0
 47
0.01
 48
0.01
140
3.0
141
0.09
142
0.0
143
25.4
144
1.0
145
0.0
146
1.0
147
0.09
 71
1.0
 72
0.0
 73
0
 74
0
 75
0
 76
0
 77
1
 78
8
170
0
171
2
172
0
173
0
174
0
175
0
176
0
177
0
178
0
270
2
271
2
272
2
273
2
274
2
275
0
280
0
281
0
282
0
283
1
284
8
285
0
286
0
287
3
288
0
340
11
  0
ENDTAB
  0
ENDSEC
  0
SECTION
  2
BLOCKS
  0
BLOCK
  5
20
100
AcDbEntity
  8
0
100
AcDbBlockBegin
  2
*Model_Space
 70
0
 10
0.0
 20
0.0
 30
0.0
  3
*Model_Space
  1

  0
ENDBLK
  5
21
100
AcDbEntity
  8
0
100
AcDbBlockEnd
  0
BLOCK
  5
1C
100
AcDbEntity
  8
0
100
AcDbBlockBegin
  2
*Paper_Space
 70
0
 10
0.0
 20
0.0
 30
0.0
  3
*Paper_Space
  1

  0
ENDBLK
  5
1D
100
AcDbEntity
  8
0
100
AcDbBlockEnd
  0
ENDSEC
  0
SECTION
  2
ENTITIES
  0
LINE
  5
217
100
AcDbEntity
  8
ASSI
100
AcDbLine
 62
7
  6
CONTINUOUS
 10
-58.3494390584
 20
66.6626383577
 11
-60.6828914363
 21
65.4959121687
  0
LINE
  5
218
100
AcDbEntity
  8
RACCORDO
100
AcDbLine
 62
253
  6
CONTINUOUS
 10
-53.8773031034
 20
66.3786204855
 11
-56.2107554813
 21
65.2118942966
  0
LINE
  5
219
100
AcDbEntity
  8
DRAFT
100
AcDbLine
 62
7
  6
CONTINUOUS
 10
-40.1821536554
 20
60.785179981
 11
-41.4714866616
 21
60.1757122646
  0
LINE
  5
21A
100
AcDbEntity
  8
RACCORDO
100
AcDbLine
 62
253
  6
CONTINUOUS
 10
-30.5304386093
 20
60.0823648397
 11
-32.6640996678
 21
59.0611477193
  0
LINE
  5
21B
100
AcDbEntity
  8
DRAFT
100
AcDbLine
 62
7
  6
CONTINUOUS
 10
-28.2615113685
 20
59.1877009892
 11
-13.4928431822
 21
66.1525639921
  0
LINE
  5
21C
100
AcDbEntity
  8
0
100
AcDbLine
 62
7
  6
CONTINUOUS
 10
-49.5075120595
 20
43.3543463797
 11
-49.3871750429
 21
43.4879969143
  0
LINE
  5
21D
100
AcDbEntity
  8
0
100
AcDbLine
 62
7
  6
CONTINUOUS
 10
-51.2887638726
 20
46.3559076824
 11
-51.1290658075
 21
46.435756715
  0
LINE
  5
21E
100
AcDbEntity
  8
0
100
AcDbLine
 62
7
  6
CONTINUOUS
 10
-50.023571146
 20
45.1055344604
 11
-49.941969785
 21
45.1463351409
  0
LINE
  5
21F
100
AcDbEntity
  8
0
100
AcDbLine
 62
7
  6
CONTINUOUS
 10
-50.8048565109
 20
44.3843274969
 11
-50.1296371631
 21
44.7219371708
  0
LINE
  5
220
100
AcDbEntity
  8
0
100
AcDbLine
 62
7
  6
CONTINUOUS
 10
-50.8216703374
 20
44.3324547212
 11
-50.0168941749
 21
44.7348428025
  0
LINE
  5
221
100
AcDbEntity
  8
0
100
AcDbLine
 62
7
  6
CONTINUOUS
 10
-50.0676099532
 20
44.3596665143
 11
-51.1833310297
 21
43.8018059761
  0
LINE
  5
222
100
AcDbEntity
  8
0
100
AcDbLine
 62
7
  6
CONTINUOUS
 10
-50.8216703374
 20
43.4322672407
 11
-49.9571232018
 21
43.8645408085
  0
LINE
  5
223
100
AcDbEntity
  8
0
100
AcDbLine
 62
7
  6
CONTINUOUS
 10
-50.8048565109
 20
43.3693150727
 11
-50.1296371631
 21
43.7069247466
  0
LINE
  5
224
100
AcDbEntity
  8
0
100
AcDbLine
 62
7
  6
CONTINUOUS
 10
-50.023571146
 20
43.2172614399
 11
-49.3871750429
 21
43.5354594914
  0
LINE
  5
225
100
AcDbEntity
  8
0
100
AcDbLine
 62
7
  6
CONTINUOUS
 10
-50.0866703374
 20
43.0647672407
 11
-49.2191662697
 21
43.4985192746
  0
LINE
  5
226
100
AcDbEntity
  8
0
100
AcDbLine
 62
7
  6
CONTINUOUS
 10
-49.6415625646
 20
43.0309217435
 11
-48.8951193881
 21
43.4041433317
  0
LINE
  5
227
100
AcDbEntity
  8
0
100
AcDbLine
 62
7
  6
CONTINUOUS
 10
-50.1296371631
 20
41.8725567093
 11
-50.4124798756
 21
41.7311353531
  0
LINE
  5
228
100
AcDbEntity
  8
0
100
AcDbLine
 62
7
  6
CONTINUOUS
 10
-48.8290890974
 20
41.4365581319
 11
-48.6714438741
 21
41.5153807436
  0
LINE
  5
229
100
AcDbEntity
  8
RACCORDO
100
AcDbLine
 62
7
  6
CONTINUOUS
 10
-22.830193501
 20
56.4720420554
 11
-8.3870998207
 21
63.6359229967
  0
LINE
  5
22A
100
AcDbEntity
  8
RACCORDO
100
AcDbLine
 62
253
  6
CONTINUOUS
 10
-10.7363819501
 20
64.7743333761
 11
-10.6990367179
 21
64.7918914454
  0
LINE
  5
22B
100
AcDbEntity
  8
RACCORDO
100
AcDbLine
 62
7
  6
CONTINUOUS
 10
-9.5616115639
 20
64.2231788684
 11
-24.5178728948
 21
57.3158817523
  0
LINE
  5
22C
100
AcDbEntity
  8
RACCORDO
100
AcDbLine
 62
7
  6
CONTINUOUS
 10
-10.8049956437
 20
64.8579271853
 11
-10.8574242068
 21
64.8348545044
  0
LINE
  5
22D
100
AcDbEntity
  8
RACCORDO
100
AcDbLine
 62
7
  6
CONTINUOUS
 10
-63.8676097308
 20
59.3800673835
 11
-63.8676097308
 21
-25.4904221874
  0
LINE
  5
22E
100
AcDbEntity
  8
RACCORDO
100
AcDbLine
 62
253
  6
CONTINUOUS
 10
-63.2818232932
 20
58.6729606023
 11
-63.2818232932
 21
-26.1975289686
  0
LINE
  5
22F
100
AcDbEntity
  8
0
100
AcDbLine
 62
7
  6
CONTINUOUS
 10
-50.023571146
 20
45.1055344604
 11
-50.1296371631
 21
44.7219371708
  0
LINE
  5
230
100
AcDbEntity
  8
DRAFT
100
AcDbLine
 62
7
  6
CONTINUOUS
 10
-30.5143913563
 20
56.514050377
 11
-31.5601208477
 21
55.2200293577
  0
LINE
  5
231
100
AcDbEntity
  8
DRAFT
100
AcDbLine
 62
7
  6
CONTINUOUS
 10
-29.5812177986
 20
56.0474635982
 11
-30.664102387
 21
54.7720201273
  0
LINE
  5
232
100
AcDbEntity
  8
RACCORDO
100
AcDbLine
 62
7
  6
CONTINUOUS
 10
-15.553415263
 20
47.2166765653
 11
-12.5874571026
 21
48.8168790369
  0
LINE
  5
233
100
AcDbEntity
  8
RACCORDO
100
AcDbLine
 62
253
  6
CONTINUOUS
 10
-15.2937981258
 20
47.0868679967
 11
-12.1297227412
 21
48.7939592559
  0
LINE
  5
234
100
AcDbEntity
  8
DRAFT
100
AcDbLine
 62
7
  6
CONTINUOUS
 10
-11.6998977569
 20
45.2899178122
 11
-11.1597366188
 21
45.5599983813
  0
LINE
  5
235
100
AcDbEntity
  8
0
100
AcDbLine
 62
7
  6
CONTINUOUS
 10
20.4819702176
 20
-59.4382000158
 11
22.0666114259
 21
-59.1730932501
  0
LINE
  5
236
100
AcDbEntity
  8
RACCORDO
100
AcDbLine
 62
7
  6
CONTINUOUS
 10
-57.1051826723
 20
-37.0359069244
 11
29.1618446324
 21
-80.1694205768
  0
LINE
  5
237
100
AcDbEntity
  8
RACCORDO
100
AcDbLine
 62
253
  6
CONTINUOUS
 10
-57.6249690437
 20
-35.9541593236
 11
28.642058261
 21
-79.087672976
  0
LINE
  5
238
100
AcDbEntity
  8
0
100
AcDbLine
 62
7
  6
CONTINUOUS
 10
-50.1296371631
 20
-23.8430567486
 11
-50.023571146
 21
-24.3327200553
  0
LINE
  5
239
100
AcDbEntity
  8
0
100
AcDbLine
 62
7
  6
CONTINUOUS
 10
-49.3907689954
 20
-23.9979301986
 11
-49.3871750429
 21
-24.0145220038
  0
LINE
  5
23A
100
AcDbEntity
  8
0
100
AcDbLine
 62
7
  6
CONTINUOUS
 10
-50.1296371631
 20
45.9798997458
 11
-50.1296371631
 21
44.7219371708
  0
LINE
  5
23B
100
AcDbEntity
  8
0
100
AcDbLine
 62
7
  6
CONTINUOUS
 10
-50.1296371631
 20
43.7069247466
 11
-50.1296371631
 21
41.8725567093
  0
LINE
  5
23C
100
AcDbEntity
  8
0
100
AcDbLine
 62
7
  6
CONTINUOUS
 10
-50.1296371631
 20
-21.5700817494
 11
-50.1296371631
 21
-22.8280443244
  0
LINE
  5
23D
100
AcDbEntity
  8
0
100
AcDbLine
 62
7
  6
CONTINUOUS
 10
-50.1296371631
 20
-23.8430567486
 11
-50.1296371631
 21
-25.6774247859
  0
LINE
  5
23E
100
AcDbEntity
  8
0
100
AcDbLine
 62
7
  6
CONTINUOUS
 10
-50.023571146
 20
-24.4536646587
 11
-50.023571146
 21
-24.3327200553
  0
LINE
  5
23F
100
AcDbEntity
  8
0
100
AcDbLine
 62
7
  6
CONTINUOUS
 10
-50.023571146
 20
-22.4444470348
 11
-50.023571146
 21
-22.0083785532
  0
LINE
  5
240
100
AcDbEntity
  8
0
100
AcDbLine
 62
7
  6
CONTINUOUS
 10
-50.023571146
 20
43.0963168365
 11
-50.023571146
 21
43.2172614399
  0
LINE
  5
241
100
AcDbEntity
  8
0
100
AcDbLine
 62
7
  6
CONTINUOUS
 10
-50.023571146
 20
45.1055344604
 11
-50.023571146
 21
45.541602942
  0
LINE
  5
242
100
AcDbEntity
  8
0
100
AcDbLine
 62
7
  6
CONTINUOUS
 10
-49.3871750429
 20
-24.0619845809
 11
-49.3871750429
 21
-24.0145220038
  0
LINE
  5
243
100
AcDbEntity
  8
0
100
AcDbLine
 62
7
  6
CONTINUOUS
 10
-49.3871750429
 20
43.4879969143
 11
-49.3871750429
 21
43.5354594914
  0
LINE
  5
244
100
AcDbEntity
  8
ASSI
100
AcDbLine
 62
7
  6
CONTINUOUS
 10
2.5555286296
 20
48.2895350873
 11
2.4141072734
 21
48.2188244092
  0
LINE
  5
245
100
AcDbEntity
  8
RACCORDO
100
AcDbLine
 62
7
  6
CONTINUOUS
 10
-1.8291220997
 20
45.9715063548
 11
12.6139715805
 21
53.1353872961
  0
LINE
  5
246
100
AcDbEntity
  8
RACCORDO
100
AcDbLine
 62
7
  6
CONTINUOUS
 10
-3.5168014935
 20
46.8153460517
 11
11.4394598373
 21
53.7226431677
  0
LINE
  5
247
100
AcDbEntity
  8
RACCORDO
100
AcDbLine
 62
7
  6
CONTINUOUS
 10
12.6968003453
 20
53.4372992774
 11
-2.6164110112
 21
46.3651508106
  0
LINE
  5
248
100
AcDbEntity
  8
DRAFT
100
AcDbLine
 62
7
  6
CONTINUOUS
 10
42.5013511723
 20
-47.0589551584
 11
39.4607920132
 21
-47.5075218758
  0
LINE
  5
249
100
AcDbEntity
  8
DRAFT
100
AcDbLine
 62
7
  6
CONTINUOUS
 10
42.5013511723
 20
-48.2018546873
 11
39.4607920132
 21
-48.568003341
  0
LINE
  5
24A
100
AcDbEntity
  8
0
100
AcDbLine
 62
7
  6
CONTINUOUS
 10
-50.023571146
 20
-22.4444470348
 11
-50.1296371631
 21
-22.8280443244
  0
LINE
  5
24B
100
AcDbEntity
  8
DRAFT
100
AcDbLine
 62
7
  6
CONTINUOUS
 10
-0.2614017036
 20
39.5706697856
 11
0.2787594345
 21
39.8407503546
  0
LINE
  5
24C
100
AcDbEntity
  8
RACCORDO
100
AcDbLine
 62
253
  6
CONTINUOUS
 10
7.6127065876
 20
38.9227445915
 11
4.3362106117
 21
37.2718636279
  0
LINE
  5
24D
100
AcDbEntity
  8
RACCORDO
100
AcDbLine
 62
253
  6
CONTINUOUS
 10
8.319705673
 20
37.7033515449
 11
5.9057774538
 21
36.4870802069
  0
LINE
  5
24E
100
AcDbEntity
  8
RACCORDO
100
AcDbLine
 62
7
  6
CONTINUOUS
 10
17.4842699077
 20
36.3148103511
 11
32.4405312386
 21
43.2221074671
  0
LINE
  5
24F
100
AcDbEntity
  8
0
100
AcDbLine
 62
7
  6
CONTINUOUS
 10
22.8111986645
 20
-60.1611714345
 11
22.7377166381
 21
-60.1244304214
  0
LINE
  5
250
100
AcDbEntity
  8
0
100
AcDbLine
 62
7
  6
CONTINUOUS
 10
-49.3136930166
 20
-24.098725594
 11
-49.3871750429
 21
-24.0619845809
  0
LINE
  5
251
100
AcDbEntity
  8
0
100
AcDbLine
 62
7
  6
CONTINUOUS
 10
-50.023571146
 20
-22.0083785532
 11
-49.8703875896
 21
-22.0849703313
  0
LINE
  5
252
100
AcDbEntity
  8
0
100
AcDbLine
 62
7
  6
CONTINUOUS
 10
22.1013205351
 20
-58.0708243937
 11
22.2545040914
 21
-58.1474161718
  0
LINE
  5
253
100
AcDbEntity
  8
0
100
AcDbLine
 62
7
  6
CONTINUOUS
 10
-50.1296371631
 20
43.7069247466
 11
-50.023571146
 21
43.2172614399
  0
LINE
  5
254
100
AcDbEntity
  8
0
100
AcDbLine
 62
7
  6
CONTINUOUS
 10
-49.3907689954
 20
43.5520512965
 11
-49.3871750429
 21
43.5354594914
  0
LINE
  5
255
100
AcDbEntity
  8
DRAFT
100
AcDbLine
 62
7
  6
CONTINUOUS
 10
-30.5143913563
 20
56.5488183952
 11
-30.5143913563
 21
56.514050377
  0
LINE
  5
256
100
AcDbEntity
  8
DRAFT
100
AcDbLine
 62
7
  6
CONTINUOUS
 10
-29.5812177986
 20
56.0822316164
 11
-29.5812177986
 21
56.0474635982
  0
LINE
  5
257
100
AcDbEntity
  8
DRAFT
100
AcDbLine
 62
7
  6
CONTINUOUS
 10
-27.9264842339
 20
53.4032110507
 11
-27.9264842339
 21
55.254864834
  0
LINE
  5
258
100
AcDbEntity
  8
RACCORDO
100
AcDbLine
 62
7
  6
CONTINUOUS
 10
19.1719493015
 20
35.4709706542
 11
33.6150429818
 21
42.6348515955
  0
LINE
  5
259
100
AcDbEntity
  8
DRAFT
100
AcDbLine
 62
253
  6
CONTINUOUS
 10
21.3908688633
 20
36.7085505895
 11
25.7075651191
 21
38.7928431487
  0
LINE
  5
25A
100
AcDbEntity
  8
RACCORDO
100
AcDbLine
 62
7
  6
CONTINUOUS
 10
33.6978717465
 20
42.9367635767
 11
18.38466039
 21
35.8646151099
  0
LINE
  5
25B
100
AcDbEntity
  8
0
100
AcDbLine
 62
7
  6
CONTINUOUS
 10
-49.5075120595
 20
-24.1956351155
 11
-49.3871750429
 21
-24.0619845809
  0
LINE
  5
25C
100
AcDbEntity
  8
RACCORDO
100
AcDbLine
 62
253
  6
CONTINUOUS
 10
30.2807445727
 20
29.6767732487
 11
28.1470835142
 21
28.6555561282
  0
LINE
  5
25D
100
AcDbEntity
  8
DRAFT
100
AcDbLine
 62
7
  6
CONTINUOUS
 10
42.5013511723
 20
-23.8494743369
 11
39.4607920132
 21
-24.2980410544
  0
LINE
  5
25E
100
AcDbEntity
  8
DRAFT
100
AcDbLine
 62
7
  6
CONTINUOUS
 10
42.5013511723
 20
-24.9923738658
 11
39.4607920132
 21
-25.3585225196
  0
LINE
  5
25F
100
AcDbEntity
  8
RACCORDO
100
AcDbLine
 62
253
  6
CONTINUOUS
 10
-14.2854407983
 20
46.6218133857
 11
-14.2854407983
 21
46.5826893329
  0
LINE
  5
260
100
AcDbEntity
  8
RACCORDO
100
AcDbLine
 62
253
  6
CONTINUOUS
 10
32.3897242013
 20
23.2451068331
 11
30.0562718234
 21
22.0783806442
  0
LINE
  5
261
100
AcDbEntity
  8
RACCORDO
100
AcDbLine
 62
7
  6
CONTINUOUS
 10
36.8592167216
 20
25.0632764281
 11
53.4416026398
 21
32.7215717665
  0
LINE
  5
262
100
AcDbEntity
  8
RACCORDO
100
AcDbLine
 62
7
  6
CONTINUOUS
 10
54.6989431478
 20
32.4362278761
 11
37.437482119
 21
24.4643131479
  0
LINE
  5
263
100
AcDbEntity
  8
DRAFT
100
AcDbLine
 62
7
  6
CONTINUOUS
 10
42.5297391403
 20
-48.2160486713
 11
42.5013511723
 21
-48.2018546873
  0
LINE
  5
264
100
AcDbEntity
  8
DRAFT
100
AcDbLine
 62
7
  6
CONTINUOUS
 10
42.5297391403
 20
-47.0731491424
 11
42.5013511723
 21
-47.0589551584
  0
LINE
  5
265
100
AcDbEntity
  8
DRAFT
100
AcDbLine
 62
7
  6
CONTINUOUS
 10
40.6979512903
 20
-44.4961416024
 11
42.5297391403
 21
-45.4120355274
  0
LINE
  5
266
100
AcDbEntity
  8
RACCORDO
100
AcDbLine
 62
7
  6
CONTINUOUS
 10
-8.304271056
 20
63.6730707413
 11
-8.304271056
 21
64.311059133
  0
LINE
  5
267
100
AcDbEntity
  8
0
100
AcDbLine
 62
7
  6
CONTINUOUS
 10
-51.2887638726
 20
-21.1940738128
 11
-51.1290658075
 21
-21.1142247802
  0
LINE
  5
268
100
AcDbEntity
  8
0
100
AcDbLine
 62
7
  6
CONTINUOUS
 10
-50.023571146
 20
-22.4444470348
 11
-49.941969785
 21
-22.4036463543
  0
LINE
  5
269
100
AcDbEntity
  8
0
100
AcDbLine
 62
7
  6
CONTINUOUS
 10
-50.8048565109
 20
-23.1656539983
 11
-50.1296371631
 21
-22.8280443244
  0
LINE
  5
26A
100
AcDbEntity
  8
0
100
AcDbLine
 62
7
  6
CONTINUOUS
 10
-50.8216703374
 20
-23.217526774
 11
-50.0168941749
 21
-22.8151386927
  0
LINE
  5
26B
100
AcDbEntity
  8
0
100
AcDbLine
 62
7
  6
CONTINUOUS
 10
-50.0676099532
 20
-23.1903149809
 11
-51.1833310297
 21
-23.7481755191
  0
LINE
  5
26C
100
AcDbEntity
  8
0
100
AcDbLine
 62
7
  6
CONTINUOUS
 10
-50.8216703374
 20
-24.1177142544
 11
-49.9571232018
 21
-23.6854406867
  0
LINE
  5
26D
100
AcDbEntity
  8
0
100
AcDbLine
 62
7
  6
CONTINUOUS
 10
-50.8048565109
 20
-24.1806664224
 11
-50.1296371631
 21
-23.8430567486
  0
LINE
  5
26E
100
AcDbEntity
  8
0
100
AcDbLine
 62
7
  6
CONTINUOUS
 10
-50.023571146
 20
-24.3327200553
 11
-49.3871750429
 21
-24.0145220038
  0
LINE
  5
26F
100
AcDbEntity
  8
0
100
AcDbLine
 62
7
  6
CONTINUOUS
 10
-50.0866703374
 20
-24.4852142544
 11
-49.2191662697
 21
-24.0514622206
  0
LINE
  5
270
100
AcDbEntity
  8
0
100
AcDbLine
 62
7
  6
CONTINUOUS
 10
-49.6415625646
 20
-24.5190597517
 11
-48.8951193881
 21
-24.1458381635
  0
LINE
  5
271
100
AcDbEntity
  8
0
100
AcDbLine
 62
7
  6
CONTINUOUS
 10
20.8361278084
 20
10.2934618419
 11
20.9958258736
 21
10.3733108745
  0
LINE
  5
272
100
AcDbEntity
  8
RACCORDO
100
AcDbLine
 62
7
  6
CONTINUOUS
 10
54.616114383
 20
32.1343158949
 11
37.9553383674
 21
23.8704481662
  0
LINE
  5
273
100
AcDbEntity
  8
RACCORDO
100
AcDbLine
 62
253
  6
CONTINUOUS
 10
55.753539537
 20
31.5656033179
 11
55.7168404796
 21
31.5477221613
  0
LINE
  5
274
100
AcDbEntity
  8
DRAFT
100
AcDbLine
 62
7
  6
CONTINUOUS
 10
40.0315276882
 20
21.2114166415
 11
58.4733017116
 21
30.1694915452
  0
LINE
  5
275
100
AcDbEntity
  8
0
100
AcDbLine
 62
7
  6
CONTINUOUS
 10
-51.6429214634
 20
-23.3757541753
 11
-50.0582802551
 21
-23.1106474096
  0
LINE
  5
276
100
AcDbEntity
  8
DRAFT
100
AcDbLine
 62
7
  6
CONTINUOUS
 10
25.064201645
 20
28.7247538764
 11
24.0184721535
 21
27.430732857
  0
LINE
  5
277
100
AcDbEntity
  8
DRAFT
100
AcDbLine
 62
7
  6
CONTINUOUS
 10
25.9973752027
 20
28.2581670976
 11
24.9144906143
 21
26.9827236267
  0
LINE
  5
278
100
AcDbEntity
  8
DRAFT
100
AcDbLine
 62
7
  6
CONTINUOUS
 10
41.4726361311
 20
18.9696375031
 11
58.9026751052
 21
27.9481186249
  0
LINE
  5
279
100
AcDbEntity
  8
DRAFT
100
AcDbLine
 62
7
  6
CONTINUOUS
 10
59.5072146287
 20
28.386255544
 11
41.3840228306
 21
19.1223828232
  0
LINE
  5
27A
100
AcDbEntity
  8
DRAFT
100
AcDbLine
 62
7
  6
CONTINUOUS
 10
43.4971001962
 20
14.9824159774
 11
61.8616604472
 21
24.3254371935
  0
LINE
  5
27B
100
AcDbEntity
  8
0
100
AcDbLine
 62
7
  6
CONTINUOUS
 10
-50.1296371631
 20
-25.6774247859
 11
-50.4124798756
 21
-25.8188461421
  0
LINE
  5
27C
100
AcDbEntity
  8
0
100
AcDbLine
 62
7
  6
CONTINUOUS
 10
-48.8290890974
 20
-26.1134233633
 11
-48.6714438741
 21
-26.0346007516
  0
LINE
  5
27D
100
AcDbEntity
  8
0
100
AcDbLine
 62
7
  6
CONTINUOUS
 10
22.1013205351
 20
9.0430886199
 11
22.182921896
 21
9.0838893003
  0
LINE
  5
27E
100
AcDbEntity
  8
0
100
AcDbLine
 62
7
  6
CONTINUOUS
 10
21.3200351701
 20
8.3218816564
 11
21.9952545179
 21
8.6594913303
  0
LINE
  5
27F
100
AcDbEntity
  8
0
100
AcDbLine
 62
7
  6
CONTINUOUS
 10
21.3032213436
 20
8.2700088807
 11
22.1079975061
 21
8.6723969619
  0
LINE
  5
280
100
AcDbEntity
  8
0
100
AcDbLine
 62
7
  6
CONTINUOUS
 10
22.0572817278
 20
8.2972206738
 11
20.9415606513
 21
7.7393601356
  0
LINE
  5
281
100
AcDbEntity
  8
0
100
AcDbLine
 62
7
  6
CONTINUOUS
 10
21.3032213436
 20
7.3698214002
 11
22.1677684792
 21
7.802094968
  0
LINE
  5
282
100
AcDbEntity
  8
0
100
AcDbLine
 62
7
  6
CONTINUOUS
 10
21.3200351701
 20
7.3068692322
 11
21.9952545179
 21
7.6444789061
  0
LINE
  5
283
100
AcDbEntity
  8
0
100
AcDbLine
 62
7
  6
CONTINUOUS
 10
22.1013205351
 20
7.1548155993
 11
22.7377166381
 21
7.4730136509
  0
LINE
  5
284
100
AcDbEntity
  8
0
100
AcDbLine
 62
7
  6
CONTINUOUS
 10
22.0382213436
 20
7.0023214002
 11
22.9057254113
 21
7.4360734341
  0
LINE
  5
285
100
AcDbEntity
  8
0
100
AcDbLine
 62
7
  6
CONTINUOUS
 10
22.4833291165
 20
6.968475903
 11
23.2297722929
 21
7.3416974912
  0
LINE
  5
286
100
AcDbEntity
  8
0
100
AcDbLine
 62
7
  6
CONTINUOUS
 10
21.9952545179
 20
5.8101108688
 11
21.7124118054
 21
5.6686895126
  0
LINE
  5
287
100
AcDbEntity
  8
0
100
AcDbLine
 62
7
  6
CONTINUOUS
 10
23.2958025836
 20
5.3741122914
 11
23.4534478069
 21
5.452934903
  0
LINE
  5
288
100
AcDbEntity
  8
DRAFT
100
AcDbLine
 62
7
  6
CONTINUOUS
 10
59.0988256544
 20
27.2410395348
 11
45.7161033155
 21
20.7333289443
  0
LINE
  5
289
100
AcDbEntity
  8
DRAFT
100
AcDbLine
 62
7
  6
CONTINUOUS
 10
60.8277475302
 20
26.1086731947
 11
42.4377242523
 21
17.2190266648
  0
LINE
  5
28A
100
AcDbEntity
  8
DRAFT
100
AcDbLine
 62
7
  6
CONTINUOUS
 10
42.5013511723
 20
-0.6399935155
 11
39.4607920132
 21
-1.088560233
  0
LINE
  5
28B
100
AcDbEntity
  8
DRAFT
100
AcDbLine
 62
7
  6
CONTINUOUS
 10
42.5013511723
 20
-1.7828930444
 11
39.4607920132
 21
-2.1490416982
  0
LINE
  5
28C
100
AcDbEntity
  8
ASSI
100
AcDbLine
 62
7
  6
CONTINUOUS
 10
2.843099058
 20
48.8865334825
 11
2.843099058
 21
48.2889624931
  0
LINE
  5
28D
100
AcDbEntity
  8
RACCORDO
100
AcDbLine
 62
253
  6
CONTINUOUS
 10
3.404463614
 20
37.7377371268
 11
3.404463614
 21
37.7768611796
  0
LINE
  5
28E
100
AcDbEntity
  8
0
100
AcDbLine
 62
7
  6
CONTINUOUS
 10
6.0853519412
 20
49.8971438254
 11
6.0853519412
 21
50.3839133085
  0
LINE
  5
28F
100
AcDbEntity
  8
ASSI
100
AcDbLine
 62
7
  6
CONTINUOUS
 10
3.4866422929
 20
48.6081646819
 11
3.4866708807
 21
49.2062129785
  0
LINE
  5
290
100
AcDbEntity
  8
ASSI
100
AcDbLine
 62
7
  6
CONTINUOUS
 10
3.6280636222
 20
48.6783107038
 11
3.6280854768
 21
49.1355032818
  0
LINE
  5
291
100
AcDbEntity
  8
DRAFT
100
AcDbLine
 62
7
  6
CONTINUOUS
 10
37.9818771901
 20
17.5388655298
 11
37.815169541
 21
17.4180450162
  0
LINE
  5
292
100
AcDbEntity
  8
DRAFT
100
AcDbLine
 62
7
  6
CONTINUOUS
 10
38.3699213532
 20
16.2037945328
 11
38.6417305407
 21
16.4007868474
  0
LINE
  5
293
100
AcDbEntity
  8
DRAFT
100
AcDbLine
 62
7
  6
CONTINUOUS
 10
59.5072146287
 20
28.386255544
 11
58.9026751052
 21
27.9481186249
  0
LINE
  5
294
100
AcDbEntity
  8
RACCORDO
100
AcDbLine
 62
7
  6
CONTINUOUS
 10
62.4051292016
 20
19.1017217316
 11
45.2278274745
 21
9.8341733735
  0
LINE
  5
295
100
AcDbEntity
  8
RACCORDO
100
AcDbLine
 62
253
  6
CONTINUOUS
 10
61.8616604472
 20
20.9494754363
 11
61.8980363681
 21
20.9679139211
  0
LINE
  5
296
100
AcDbEntity
  8
RACCORDO
100
AcDbLine
 62
253
  6
CONTINUOUS
 10
39.4607920132
 20
11.0493188894
 11
37.1273396353
 21
9.8825927004
  0
LINE
  5
297
100
AcDbEntity
  8
RACCORDO
100
AcDbLine
 62
7
  6
CONTINUOUS
 10
61.8980363681
 20
19.5748582972
 11
44.8785956828
 21
11.1330902483
  0
LINE
  5
298
100
AcDbEntity
  8
DRAFT
100
AcDbLine
 62
253
  6
CONTINUOUS
 10
40.6979512903
 20
10.5830740783
 11
39.4607920132
 21
9.985718665
  0
LINE
  5
299
100
AcDbEntity
  8
RACCORDO
100
AcDbLine
 62
7
  6
CONTINUOUS
 10
62.7098654481
 20
-37.3855989078
 11
61.677565963
 21
-36.8694491653
  0
LINE
  5
29A
100
AcDbEntity
  8
DRAFT
100
AcDbLine
 62
7
  6
CONTINUOUS
 10
42.5297391403
 20
-25.0065678498
 11
42.5013511723
 21
-24.9923738658
  0
LINE
  5
29B
100
AcDbEntity
  8
DRAFT
100
AcDbLine
 62
7
  6
CONTINUOUS
 10
42.5297391403
 20
-23.8636683209
 11
42.5013511723
 21
-23.8494743369
  0
LINE
  5
29C
100
AcDbEntity
  8
DRAFT
100
AcDbLine
 62
7
  6
CONTINUOUS
 10
40.6979512903
 20
-21.286660781
 11
42.5297391403
 21
-22.202554706
  0
LINE
  5
29D
100
AcDbEntity
  8
RACCORDO
100
AcDbLine
 62
7
  6
CONTINUOUS
 10
8.319705673
 20
37.7033515449
 11
8.319705673
 21
37.1317698806
  0
LINE
  5
29E
100
AcDbEntity
  8
DRAFT
100
AcDbLine
 62
7
  6
CONTINUOUS
 10
9.9744392377
 20
34.4527493149
 11
9.9744392377
 21
36.3044030982
  0
LINE
  5
29F
100
AcDbEntity
  8
RACCORDO
100
AcDbLine
 62
7
  6
CONTINUOUS
 10
12.6968003453
 20
53.8105234324
 11
12.6968003453
 21
53.4372992774
  0
LINE
  5
2A0
100
AcDbEntity
  8
0
100
AcDbLine
 62
7
  6
CONTINUOUS
 10
22.6173796215
 20
7.2919005392
 11
22.7377166381
 21
7.4255510738
  0
LINE
  5
2A1
100
AcDbEntity
  8
RACCORDO
100
AcDbLine
 62
7
  6
CONTINUOUS
 10
61.8980363681
 20
18.0930797931
 11
45.389908519
 21
9.1865660941
  0
LINE
  5
2A2
100
AcDbEntity
  8
RACCORDO
100
AcDbLine
 62
253
  6
CONTINUOUS
 10
45.7998505665
 20
2.9102747773
 11
43.7034327003
 21
1.8248226519
  0
LINE
  5
2A3
100
AcDbEntity
  8
DRAFT
100
AcDbLine
 62
7
  6
CONTINUOUS
 10
40.6979512903
 20
1.9228200404
 11
39.4607920132
 21
1.2994703661
  0
LINE
  5
2A4
100
AcDbEntity
  8
0
100
AcDbLine
 62
7
  6
CONTINUOUS
 10
20.4819702176
 20
8.1117814794
 11
22.0666114259
 21
8.3768882451
  0
LINE
  5
2A5
100
AcDbEntity
  8
DRAFT
100
AcDbLine
 62
7
  6
CONTINUOUS
 10
39.9740491573
 20
-60.0135506913
 11
39.4607920132
 21
-59.1283130643
  0
LINE
  5
2A6
100
AcDbEntity
  8
DRAFT
100
AcDbLine
 62
7
  6
CONTINUOUS
 10
0.4392847656
 20
39.220326551
 11
0.2787594345
 21
39.8407503546
  0
LINE
  5
2A7
100
AcDbEntity
  8
0
100
AcDbLine
 62
7
  6
CONTINUOUS
 10
21.9952545179
 20
-59.9055025891
 11
22.1013205351
 21
-60.3951658958
  0
LINE
  5
2A8
100
AcDbEntity
  8
0
100
AcDbLine
 62
7
  6
CONTINUOUS
 10
22.7341226856
 20
-60.0603760392
 11
22.7377166381
 21
-60.0769678443
  0
LINE
  5
2A9
100
AcDbEntity
  8
RACCORDO
100
AcDbLine
 62
7
  6
CONTINUOUS
 10
18.7392184339
 20
36.0283617642
 11
18.7392184339
 21
35.687336088
  0
LINE
  5
2AA
100
AcDbEntity
  8
0
100
AcDbLine
 62
7
  6
CONTINUOUS
 10
22.1013205351
 20
9.0430886199
 11
21.9952545179
 21
8.6594913303
  0
LINE
  5
2AB
100
AcDbEntity
  8
ASSI
100
AcDbLine
 62
7
  6
CONTINUOUS
 10
2.4141072734
 20
48.2188244092
 11
2.3157942152
 21
48.6430066318
  0
LINE
  5
2AC
100
AcDbEntity
  8
ASSI
100
AcDbLine
 62
7
  6
CONTINUOUS
 10
2.5555286296
 20
48.2895350873
 11
2.45834562
 21
48.7088415945
  0
LINE
  5
2AD
100
AcDbEntity
  8
RACCORDO
100
AcDbLine
 62
7
  6
CONTINUOUS
 10
20.3015431336
 20
36.0312575224
 11
20.3015431336
 21
36.7498950842
  0
LINE
  5
2AE
100
AcDbEntity
  8
DRAFT
100
AcDbLine
 62
7
  6
CONTINUOUS
 10
21.3908688633
 20
36.571571115
 11
21.3908688633
 21
36.7085505895
  0
LINE
  5
2AF
100
AcDbEntity
  8
0
100
AcDbLine
 62
7
  6
CONTINUOUS
 10
21.9952545179
 20
9.9174539053
 11
21.9952545179
 21
8.6594913303
  0
LINE
  5
2B0
100
AcDbEntity
  8
0
100
AcDbLine
 62
7
  6
CONTINUOUS
 10
21.9952545179
 20
7.6444789061
 11
21.9952545179
 21
5.8101108688
  0
LINE
  5
2B1
100
AcDbEntity
  8
0
100
AcDbLine
 62
7
  6
CONTINUOUS
 10
21.9952545179
 20
-57.6325275899
 11
21.9952545179
 21
-58.8904901649
  0
LINE
  5
2B2
100
AcDbEntity
  8
0
100
AcDbLine
 62
7
  6
CONTINUOUS
 10
21.9952545179
 20
-59.9055025891
 11
21.9952545179
 21
-61.7398706264
  0
LINE
  5
2B3
100
AcDbEntity
  8
0
100
AcDbLine
 62
7
  6
CONTINUOUS
 10
22.1013205351
 20
-60.5161104992
 11
22.1013205351
 21
-60.3951658958
  0
LINE
  5
2B4
100
AcDbEntity
  8
0
100
AcDbLine
 62
7
  6
CONTINUOUS
 10
22.1013205351
 20
-58.5068928753
 11
22.1013205351
 21
-58.0708243937
  0
LINE
  5
2B5
100
AcDbEntity
  8
0
100
AcDbLine
 62
7
  6
CONTINUOUS
 10
22.1013205351
 20
7.0338709959
 11
22.1013205351
 21
7.1548155993
  0
LINE
  5
2B6
100
AcDbEntity
  8
0
100
AcDbLine
 62
7
  6
CONTINUOUS
 10
22.1013205351
 20
9.0430886199
 11
22.1013205351
 21
9.4791571015
  0
LINE
  5
2B7
100
AcDbEntity
  8
0
100
AcDbLine
 62
7
  6
CONTINUOUS
 10
22.7377166381
 20
-60.1244304214
 11
22.7377166381
 21
-60.0769678443
  0
LINE
  5
2B8
100
AcDbEntity
  8
0
100
AcDbLine
 62
7
  6
CONTINUOUS
 10
22.7377166381
 20
7.4255510738
 11
22.7377166381
 21
7.4730136509
  0
LINE
  5
2B9
100
AcDbEntity
  8
DRAFT
100
AcDbLine
 62
7
  6
CONTINUOUS
 10
25.064201645
 20
28.7595218946
 11
25.064201645
 21
28.7247538764
  0
LINE
  5
2BA
100
AcDbEntity
  8
DRAFT
100
AcDbLine
 62
7
  6
CONTINUOUS
 10
25.7075651191
 20
38.7126842809
 11
25.7075651191
 21
38.7928431487
  0
LINE
  5
2BB
100
AcDbEntity
  8
DRAFT
100
AcDbLine
 62
7
  6
CONTINUOUS
 10
25.9973752027
 20
28.2929351158
 11
25.9973752027
 21
28.2581670976
  0
LINE
  5
2BC
100
AcDbEntity
  8
0
100
AcDbLine
 62
7
  6
CONTINUOUS
 10
43.1365407286
 20
17.556831102
 11
43.9862754128
 21
18.793942175
  0
LINE
  5
2BD
100
AcDbEntity
  8
0
100
AcDbLine
 62
7
  6
CONTINUOUS
 10
22.8111986645
 20
7.3888100606
 11
22.7377166381
 21
7.4255510738
  0
LINE
  5
2BE
100
AcDbEntity
  8
0
100
AcDbLine
 62
7
  6
CONTINUOUS
 10
-49.3136930166
 20
43.4512559012
 11
-49.3871750429
 21
43.4879969143
  0
LINE
  5
2BF
100
AcDbEntity
  8
DRAFT
100
AcDbLine
 62
7
  6
CONTINUOUS
 10
42.5297391403
 20
-1.7970870284
 11
42.5013511723
 21
-1.7828930444
  0
LINE
  5
2C0
100
AcDbEntity
  8
0
100
AcDbLine
 62
7
  6
CONTINUOUS
 10
-50.023571146
 20
45.541602942
 11
-49.8703875896
 21
45.4650111639
  0
LINE
  5
2C1
100
AcDbEntity
  8
0
100
AcDbLine
 62
7
  6
CONTINUOUS
 10
22.1013205351
 20
9.4791571015
 11
22.2545040914
 21
9.4025653233
  0
LINE
  5
2C2
100
AcDbEntity
  8
DRAFT
100
AcDbLine
 62
7
  6
CONTINUOUS
 10
42.5297391403
 20
-0.6541874995
 11
42.5013511723
 21
-0.6399935155
  0
LINE
  5
2C3
100
AcDbEntity
  8
RACCORDO
100
AcDbLine
 62
7
  6
CONTINUOUS
 10
62.4051292016
 20
-9.0441038914
 11
62.7098654481
 21
-9.1964720147
  0
LINE
  5
2C4
100
AcDbEntity
  8
DRAFT
100
AcDbLine
 62
7
  6
CONTINUOUS
 10
40.6979512903
 20
1.9228200404
 11
42.5297391403
 21
1.0069261154
  0
LINE
  5
2C5
100
AcDbEntity
  8
ASSI
100
AcDbLine
 62
7
  6
CONTINUOUS
 10
4.0482968056
 20
48.9253904898
 11
4.0598013112
 21
48.8924557804
  0
LINE
  5
2C6
100
AcDbEntity
  8
0
100
AcDbLine
 62
7
  6
CONTINUOUS
 10
21.9952545179
 20
7.6444789061
 11
22.1013205351
 21
7.1548155993
  0
LINE
  5
2C7
100
AcDbEntity
  8
0
100
AcDbLine
 62
7
  6
CONTINUOUS
 10
22.7341226856
 20
7.489605456
 11
22.7377166381
 21
7.4730136509
  0
LINE
  5
2C8
100
AcDbEntity
  8
DRAFT
100
AcDbLine
 62
7
  6
CONTINUOUS
 10
27.6521087674
 20
25.6139145501
 11
27.6521087674
 21
27.4655683334
  0
LINE
  5
2C9
100
AcDbEntity
  8
RACCORDO
100
AcDbLine
 62
7
  6
CONTINUOUS
 10
62.4051292016
 20
-9.0441038914
 11
46.0805107662
 21
-17.8516100517
  0
LINE
  5
2CA
100
AcDbEntity
  8
RACCORDO
100
AcDbLine
 62
7
  6
CONTINUOUS
 10
61.8980363681
 20
-10.0527458299
 11
46.0805107662
 21
-18.586663773
  0
LINE
  5
2CB
100
AcDbEntity
  8
DRAFT
100
AcDbLine
 62
7
  6
CONTINUOUS
 10
40.6979512903
 20
-21.286660781
 11
39.4607920132
 21
-21.9100104553
  0
LINE
  5
2CC
100
AcDbEntity
  8
RACCORDO
100
AcDbLine
 62
7
  6
CONTINUOUS
 10
61.8980363681
 20
-8.614268596
 11
46.0805107662
 21
-16.4598779029
  0
LINE
  5
2CD
100
AcDbEntity
  8
0
100
AcDbLine
 62
7
  6
CONTINUOUS
 10
42.5616107614
 20
18.853301771
 11
43.9862754128
 21
18.793942175
  0
LINE
  5
2CE
100
AcDbEntity
  8
DRAFT
100
AcDbLine
 62
7
  6
CONTINUOUS
 10
52.3861033332
 20
14.1952437924
 11
51.6640537655
 21
14.3193140035
  0
LINE
  5
2CF
100
AcDbEntity
  8
DRAFT
100
AcDbLine
 62
7
  6
CONTINUOUS
 10
59.3925381672
 20
-44.5387048814
 11
59.5072146287
 21
-44.7364925201
  0
LINE
  5
2D0
100
AcDbEntity
  8
RACCORDO
100
AcDbLine
 62
7
  6
CONTINUOUS
 10
33.6978717465
 20
43.3099877318
 11
33.6978717465
 21
42.9367635767
  0
LINE
  5
2D1
100
AcDbEntity
  8
RACCORDO
100
AcDbLine
 62
253
  6
CONTINUOUS
 10
34.2989125105
 20
-74.9878968705
 11
34.2989125105
 21
9.8825927004
  0
LINE
  5
2D2
100
AcDbEntity
  8
RACCORDO
100
AcDbLine
 62
253
  6
CONTINUOUS
 10
37.1273396353
 20
-74.9878968705
 11
37.1273396353
 21
9.8825927004
  0
LINE
  5
2D3
100
AcDbEntity
  8
0
100
AcDbLine
 62
7
  6
CONTINUOUS
 10
22.1013205351
 20
-58.5068928753
 11
21.9952545179
 21
-58.8904901649
  0
LINE
  5
2D4
100
AcDbEntity
  8
RACCORDO
100
AcDbLine
 62
253
  6
CONTINUOUS
 10
28.642058261
 20
19.6392230554
 11
-57.6249690437
 21
62.7727367078
  0
LINE
  5
2D5
100
AcDbEntity
  8
RACCORDO
100
AcDbLine
 62
253
  6
CONTINUOUS
 10
30.0562718234
 20
22.0783806442
 11
-56.2107554813
 21
65.2118942966
  0
LINE
  5
2D6
100
AcDbEntity
  8
0
100
AcDbLine
 62
7
  6
CONTINUOUS
 10
39.4607920132
 20
-73.8211706815
 11
39.4607920132
 21
11.0493188894
  0
LINE
  5
2D7
100
AcDbEntity
  8
DRAFT
100
AcDbLine
 62
7
  6
CONTINUOUS
 10
40.6979512903
 20
-54.3688312056
 11
40.6979512903
 21
-48.4190227818
  0
LINE
  5
2D8
100
AcDbEntity
  8
DRAFT
100
AcDbLine
 62
7
  6
CONTINUOUS
 10
40.6979512903
 20
-44.4961416024
 11
40.6979512903
 21
-25.2095419604
  0
LINE
  5
2D9
100
AcDbEntity
  8
DRAFT
100
AcDbLine
 62
7
  6
CONTINUOUS
 10
40.6979512903
 20
-21.286660781
 11
40.6979512903
 21
-2.000061139
  0
LINE
  5
2DA
100
AcDbEntity
  8
DRAFT
100
AcDbLine
 62
7
  6
CONTINUOUS
 10
40.6979512903
 20
1.9228200404
 11
40.6979512903
 21
10.5830740783
  0
LINE
  5
2DB
100
AcDbEntity
  8
DRAFT
100
AcDbLine
 62
7
  6
CONTINUOUS
 10
42.5013511723
 20
-0.6399935155
 11
42.5013511723
 21
-1.7828930444
  0
LINE
  5
2DC
100
AcDbEntity
  8
DRAFT
100
AcDbLine
 62
7
  6
CONTINUOUS
 10
42.5013511723
 20
-23.8494743369
 11
42.5013511723
 21
-24.9923738658
  0
LINE
  5
2DD
100
AcDbEntity
  8
DRAFT
100
AcDbLine
 62
7
  6
CONTINUOUS
 10
42.5013511723
 20
-47.0589551584
 11
42.5013511723
 21
-48.2018546873
  0
LINE
  5
2DE
100
AcDbEntity
  8
DRAFT
100
AcDbLine
 62
7
  6
CONTINUOUS
 10
42.5297391403
 20
2.4116694319
 11
42.5297391403
 21
-0.6541874995
  0
LINE
  5
2DF
100
AcDbEntity
  8
DRAFT
100
AcDbLine
 62
7
  6
CONTINUOUS
 10
42.5297391403
 20
-1.7970870284
 11
42.5297391403
 21
-23.8636683209
  0
LINE
  5
2E0
100
AcDbEntity
  8
DRAFT
100
AcDbLine
 62
7
  6
CONTINUOUS
 10
42.5297391403
 20
-25.0065678498
 11
42.5297391403
 21
-47.0731491424
  0
LINE
  5
2E1
100
AcDbEntity
  8
DRAFT
100
AcDbLine
 62
7
  6
CONTINUOUS
 10
42.5297391403
 20
-48.2160486713
 11
42.5297391403
 21
-51.2819056027
  0
LINE
  5
2E2
100
AcDbEntity
  8
DRAFT
100
AcDbLine
 62
7
  6
CONTINUOUS
 10
43.7034327003
 20
-51.8687523827
 11
43.7034327003
 21
1.8248226519
  0
LINE
  5
2E3
100
AcDbEntity
  8
0
100
AcDbLine
 62
7
  6
CONTINUOUS
 10
32.3897242013
 20
23.2451068331
 11
-53.8773031034
 21
66.3786204855
  0
LINE
  5
2E4
100
AcDbEntity
  8
RACCORDO
100
AcDbLine
 62
7
  6
CONTINUOUS
 10
-14.2854407983
 20
46.6218133857
 11
-11.6607737041
 21
45.3094798386
  0
LINE
  5
2E5
100
AcDbEntity
  8
RACCORDO
100
AcDbLine
 62
7
  6
CONTINUOUS
 10
0.4276578619
 20
39.2652640556
 11
3.404463614
 21
37.7768611796
  0
LINE
  5
2E6
100
AcDbEntity
  8
DRAFT
100
AcDbLine
 62
7
  6
CONTINUOUS
 10
-11.1597366188
 20
45.5599983813
 11
0.2787594345
 21
39.8407503546
  0
LINE
  5
2E7
100
AcDbEntity
  8
DRAFT
100
AcDbLine
 62
7
  6
CONTINUOUS
 10
-30.5143913563
 20
56.514050377
 11
-29.5812177986
 21
56.0474635982
  0
LINE
  5
2E8
100
AcDbEntity
  8
DRAFT
100
AcDbLine
 62
7
  6
CONTINUOUS
 10
25.064201645
 20
28.7247538764
 11
25.9973752027
 21
28.2581670976
  0
LINE
  5
2E9
100
AcDbEntity
  8
DRAFT
100
AcDbLine
 62
7
  6
CONTINUOUS
 10
-32.6640996678
 20
57.623672551
 11
-30.5143913563
 21
56.5488183952
  0
LINE
  5
2EA
100
AcDbEntity
  8
DRAFT
100
AcDbLine
 62
7
  6
CONTINUOUS
 10
-29.5812177986
 20
56.0822316164
 11
-13.7721618543
 21
48.1777036442
  0
LINE
  5
2EB
100
AcDbEntity
  8
DRAFT
100
AcDbLine
 62
7
  6
CONTINUOUS
 10
8.319705673
 20
37.1317698806
 11
25.064201645
 21
28.7595218946
  0
LINE
  5
2EC
100
AcDbEntity
  8
DRAFT
100
AcDbLine
 62
7
  6
CONTINUOUS
 10
25.9973752027
 20
28.2929351158
 11
28.1470835142
 21
27.21808096
  0
LINE
  5
2ED
100
AcDbEntity
  8
RACCORDO
100
AcDbLine
 62
7
  6
CONTINUOUS
 10
-32.6640996678
 20
59.0611477193
 11
28.1470835142
 21
28.6555561282
  0
LINE
  5
2EE
100
AcDbEntity
  8
0
100
AcDbLine
 62
7
  6
CONTINUOUS
 10
41.5314145845
 20
18.9999151884
 11
41.5649564455
 21
18.8105022954
  0
LINE
  5
2EF
100
AcDbEntity
  8
RACCORDO
100
AcDbLine
 62
253
  6
CONTINUOUS
 10
45.7998505665
 20
2.9102747773
 11
45.7998505665
 21
-50.7833002573
  0
LINE
  5
2F0
100
AcDbEntity
  8
RACCORDO
100
AcDbLine
 62
7
  6
CONTINUOUS
 10
46.0805107662
 20
3.2576039626
 11
46.0805107662
 21
-50.4359710721
  0
LINE
  5
2F1
100
AcDbEntity
  8
DRAFT
100
AcDbLine
 62
7
  6
CONTINUOUS
 10
40.6979512903
 20
-44.4961416024
 11
39.4607920132
 21
-45.1194912768
  0
LINE
  5
2F2
100
AcDbEntity
  8
RACCORDO
100
AcDbLine
 62
253
  6
CONTINUOUS
 10
-30.5304386093
 20
60.0823648397
 11
30.2807445727
 21
29.6767732487
  0
LINE
  5
2F3
100
AcDbEntity
  8
RACCORDO
100
AcDbLine
 62
7
  6
CONTINUOUS
 10
-30.0955657288
 20
60.1047281693
 11
30.7156174533
 21
29.6991365783
  0
LINE
  5
2F4
100
AcDbEntity
  8
0
100
AcDbLine
 62
7
  6
CONTINUOUS
 10
1.3084879016
 20
48.1777991952
 11
1.9611087226
 21
47.8514887847
  0
LINE
  5
2F5
100
AcDbEntity
  8
0
100
AcDbLine
 62
7
  6
CONTINUOUS
 10
1.3525978466
 20
48.1981706295
 11
2.0037052014
 21
47.8726169521
  0
LINE
  5
2F6
100
AcDbEntity
  8
ASSI
100
AcDbLine
 62
7
  6
CONTINUOUS
 10
1.925895184
 20
48.4629383384
 11
2.4141072734
 21
48.2188244092
  0
LINE
  5
2F7
100
AcDbEntity
  8
RACCORDO
100
AcDbLine
 62
7
  6
CONTINUOUS
 10
62.4051292016
 20
19.1017217316
 11
62.7098654481
 21
18.9493536083
  0
LINE
  5
2F8
100
AcDbEntity
  8
ASSI
100
AcDbLine
 62
7
  6
CONTINUOUS
 10
3.5100182829
 20
49.1945388814
 11
4.0482968056
 21
48.9253904898
  0
LINE
  5
2F9
100
AcDbEntity
  8
DRAFT
100
AcDbLine
 62
7
  6
CONTINUOUS
 10
53.7779821945
 20
15.2520290076
 11
54.3664559204
 21
14.7646730756
  0
LINE
  5
2FA
100
AcDbEntity
  8
DRAFT
100
AcDbLine
 62
7
  6
CONTINUOUS
 10
54.3676782881
 20
15.5447278908
 11
54.4401717255
 21
15.4846910443
  0
LINE
  5
2FB
100
AcDbEntity
  8
RACCORDO
100
AcDbLine
 62
7
  6
CONTINUOUS
 10
54.6989431478
 20
32.8094520311
 11
54.6989431478
 21
32.4362278761
  0
LINE
  5
2FC
100
AcDbEntity
  8
DRAFT
100
AcDbLine
 62
7
  6
CONTINUOUS
 10
57.8801275894
 20
17.5819459225
 11
57.8801275894
 21
16.6603795506
  0
LINE
  5
2FD
100
AcDbEntity
  8
DRAFT
100
AcDbLine
 62
7
  6
CONTINUOUS
 10
57.8801275894
 20
-10.6071809707
 11
57.8801275894
 21
-11.4854460724
  0
LINE
  5
2FE
100
AcDbEntity
  8
DRAFT
100
AcDbLine
 62
7
  6
CONTINUOUS
 10
58.5181158399
 20
-11.1412367747
 11
58.5181158399
 21
-10.2907340951
  0
LINE
  5
2FF
100
AcDbEntity
  8
DRAFT
100
AcDbLine
 62
7
  6
CONTINUOUS
 10
58.5181158399
 20
17.0045888483
 11
58.5181158399
 21
17.898392798
  0
LINE
  5
300
100
AcDbEntity
  8
0
100
AcDbLine
 62
7
  6
CONTINUOUS
 10
22.6173796215
 20
-60.258080956
 11
22.7377166381
 21
-60.1244304214
  0
LINE
  5
301
100
AcDbEntity
  8
RACCORDO
100
AcDbLine
 62
7
  6
CONTINUOUS
 10
61.8980363681
 20
-38.2418727231
 11
46.0805107662
 21
-46.7757906661
  0
LINE
  5
302
100
AcDbEntity
  8
RACCORDO
100
AcDbLine
 62
253
  6
CONTINUOUS
 10
61.8980363681
 20
-39.634928347
 11
61.8616604472
 21
-39.654158231
  0
LINE
  5
303
100
AcDbEntity
  8
0
100
AcDbLine
 62
7
  6
CONTINUOUS
 10
20.8361278084
 20
-57.2565196533
 11
20.9958258736
 21
-57.1766706207
  0
LINE
  5
304
100
AcDbEntity
  8
0
100
AcDbLine
 62
7
  6
CONTINUOUS
 10
22.1013205351
 20
-58.5068928753
 11
22.182921896
 21
-58.4660921948
  0
LINE
  5
305
100
AcDbEntity
  8
0
100
AcDbLine
 62
7
  6
CONTINUOUS
 10
21.3200351701
 20
-59.2280998388
 11
21.9952545179
 21
-58.8904901649
  0
LINE
  5
306
100
AcDbEntity
  8
0
100
AcDbLine
 62
7
  6
CONTINUOUS
 10
21.3032213436
 20
-59.2799726145
 11
22.1079975061
 21
-58.8775845332
  0
LINE
  5
307
100
AcDbEntity
  8
0
100
AcDbLine
 62
7
  6
CONTINUOUS
 10
22.0572817278
 20
-59.2527608214
 11
20.9415606513
 21
-59.8106213596
  0
LINE
  5
308
100
AcDbEntity
  8
0
100
AcDbLine
 62
7
  6
CONTINUOUS
 10
21.3032213436
 20
-60.180160095
 11
22.1677684792
 21
-59.7478865272
  0
LINE
  5
309
100
AcDbEntity
  8
0
100
AcDbLine
 62
7
  6
CONTINUOUS
 10
21.3200351701
 20
-60.243112263
 11
21.9952545179
 21
-59.9055025891
  0
LINE
  5
30A
100
AcDbEntity
  8
0
100
AcDbLine
 62
7
  6
CONTINUOUS
 10
22.1013205351
 20
-60.3951658958
 11
22.7377166381
 21
-60.0769678443
  0
LINE
  5
30B
100
AcDbEntity
  8
0
100
AcDbLine
 62
7
  6
CONTINUOUS
 10
22.0382213436
 20
-60.547660095
 11
22.9057254113
 21
-60.1139080611
  0
LINE
  5
30C
100
AcDbEntity
  8
0
100
AcDbLine
 62
7
  6
CONTINUOUS
 10
22.4833291165
 20
-60.5815055922
 11
23.2297722929
 21
-60.208284004
  0
LINE
  5
30D
100
AcDbEntity
  8
0
100
AcDbLine
 62
7
  6
CONTINUOUS
 10
21.9952545179
 20
-61.7398706264
 11
21.7124118054
 21
-61.8812919826
  0
LINE
  5
30E
100
AcDbEntity
  8
RACCORDO
100
AcDbLine
 62
7
  6
CONTINUOUS
 10
61.8980363681
 20
-36.760094219
 11
46.0805107662
 21
-44.6057035259
  0
LINE
  5
30F
100
AcDbEntity
  8
0
100
AcDbLine
 62
7
  6
CONTINUOUS
 10
-51.6429214634
 20
44.1742273199
 11
-50.0582802551
 21
44.4393340856
  0
LINE
  5
310
100
AcDbEntity
  8
DRAFT
100
AcDbLine
 62
7
  6
CONTINUOUS
 10
7.3975439895
 20
50.989927081
 11
7.8412418359
 21
50.7680781578
  0
LINE
  5
311
100
AcDbEntity
  8
DRAFT
100
AcDbLine
 62
7
  6
CONTINUOUS
 10
28.3986153908
 20
40.4893913803
 11
28.8423132372
 21
40.2675424571
  0
LINE
  5
312
100
AcDbEntity
  8
DRAFT
100
AcDbLine
 62
7
  6
CONTINUOUS
 10
49.399686792
 20
29.9888556797
 11
49.8433846384
 21
29.7670067565
  0
LINE
  5
313
100
AcDbEntity
  8
DRAFT
100
AcDbLine
 62
7
  6
CONTINUOUS
 10
50.627889713
 20
30.156127057
 11
50.2120655781
 21
30.3640391244
  0
LINE
  5
314
100
AcDbEntity
  8
DRAFT
100
AcDbLine
 62
7
  6
CONTINUOUS
 10
29.6268183117
 20
40.6566627576
 11
29.2109941768
 21
40.864574825
  0
LINE
  5
315
100
AcDbEntity
  8
DRAFT
100
AcDbLine
 62
7
  6
CONTINUOUS
 10
8.6257469105
 20
51.1571984582
 11
8.2099227756
 21
51.3651105257
  0
LINE
  5
316
100
AcDbEntity
  8
DRAFT
100
AcDbLine
 62
7
  6
CONTINUOUS
 10
52.658221342
 20
31.1631865128
 11
52.314535527
 21
31.3350294203
  0
LINE
  5
317
100
AcDbEntity
  8
DRAFT
100
AcDbLine
 62
7
  6
CONTINUOUS
 10
31.6571499408
 20
41.6637222134
 11
31.3134641258
 21
41.8355651209
  0
LINE
  5
318
100
AcDbEntity
  8
DRAFT
100
AcDbLine
 62
7
  6
CONTINUOUS
 10
10.6560785396
 20
52.164257914
 11
10.3123927245
 21
52.3361008215
  0
LINE
  5
319
100
AcDbEntity
  8
RACCORDO
100
AcDbLine
 62
7
  6
CONTINUOUS
 10
61.9321247262
 20
23.2116792749
 11
61.8616604472
 21
23.2504927711
  0
LWPOLYLINE
  5
31A
100
AcDbEntity
  8
RACCORDO
100
AcDbPolyline
 62
7
  6
CONTINUOUS
 90
8
 70
0
 10
62.7399936534
 20
22.0012165734
 10
62.7385094835
 20
22.0541444642
 10
62.7040767896
 20
22.2779438092
 10
62.6259475485
 20
22.4932974733
 10
62.5071922366
 20
22.6958306128
 10
62.3503701451
 20
22.8838461867
 10
62.1581767881
 20
23.0559792833
 10
61.9321247262
 20
23.2116792749
  0
LINE
  5
31B
100
AcDbEntity
  8
DRAFT
100
AcDbLine
 62
7
  6
CONTINUOUS
 10
60.5325740926
 20
-10.0543903323
 11
60.5325740926
 21
-9.291547951
  0
LINE
  5
31C
100
AcDbEntity
  8
DRAFT
100
AcDbLine
 62
7
  6
CONTINUOUS
 10
60.5325740926
 20
18.0914352907
 11
60.5325740926
 21
18.8975789422
  0
LINE
  5
31D
100
AcDbEntity
  8
RACCORDO
100
AcDbLine
 62
7
  6
CONTINUOUS
 10
61.8616604472
 20
-43.0301199881
 11
61.8616604472
 21
-39.654158231
  0
LINE
  5
31E
100
AcDbEntity
  8
RACCORDO
100
AcDbLine
 62
7
  6
CONTINUOUS
 10
61.8616604472
 20
20.9494754363
 11
61.8616604472
 21
24.3254371935
  0
LINE
  5
31F
100
AcDbEntity
  8
RACCORDO
100
AcDbLine
 62
253
  6
CONTINUOUS
 10
61.8980363681
 20
20.9679139211
 11
61.8980363681
 21
19.5748582972
  0
LINE
  5
320
100
AcDbEntity
  8
RACCORDO
100
AcDbLine
 62
253
  6
CONTINUOUS
 10
61.8980363681
 20
18.0930797931
 11
61.8980363681
 21
-8.614268596
  0
LINE
  5
321
100
AcDbEntity
  8
RACCORDO
100
AcDbLine
 62
253
  6
CONTINUOUS
 10
61.8980363681
 20
-10.0527458299
 11
61.8980363681
 21
-36.760094219
  0
LINE
  5
322
100
AcDbEntity
  8
RACCORDO
100
AcDbLine
 62
253
  6
CONTINUOUS
 10
61.8980363681
 20
-38.2418727231
 11
61.8980363681
 21
-39.634928347
  0
LINE
  5
323
100
AcDbEntity
  8
RACCORDO
100
AcDbLine
 62
7
  6
CONTINUOUS
 10
62.7098654481
 20
-37.3855989078
 11
62.7098654481
 21
-35.9566569916
  0
LINE
  5
324
100
AcDbEntity
  8
RACCORDO
100
AcDbLine
 62
7
  6
CONTINUOUS
 10
62.7098654481
 20
-9.1964720147
 11
62.7098654481
 21
-7.8108313686
  0
LINE
  5
325
100
AcDbEntity
  8
RACCORDO
100
AcDbLine
 62
7
  6
CONTINUOUS
 10
62.7098654481
 20
18.9493536083
 11
62.7098654481
 21
20.3782955246
  0
LINE
  5
326
100
AcDbEntity
  8
RACCORDO
100
AcDbLine
 62
7
  6
CONTINUOUS
 10
62.7400169671
 20
21.9970326299
 11
62.7400169671
 21
-38.5800719655
  0
LINE
  5
327
100
AcDbEntity
  8
RACCORDO
100
AcDbLine
 62
7
  6
CONTINUOUS
 10
61.9399680951
 20
-39.8068829406
 11
62.1504321872
 21
-39.6595044628
  0
LINE
  5
328
100
AcDbEntity
  8
RACCORDO
100
AcDbLine
 62
7
  6
CONTINUOUS
 10
61.8616604472
 20
-39.851781571
 11
61.9399680951
 21
-39.8068829406
  0
LINE
  5
329
100
AcDbEntity
  8
DRAFT
100
AcDbLine
 62
7
  6
CONTINUOUS
 10
60.8277475302
 20
-43.7794430723
 11
46.0430119731
 21
-51.6009396121
  0
LINE
  5
32A
100
AcDbEntity
  8
DRAFT
100
AcDbLine
 62
7
  6
CONTINUOUS
 10
46.0148625694
 20
-52.074043445
 11
58.4733017116
 21
-45.4858156042
  0
LINE
  5
32B
100
AcDbEntity
  8
DRAFT
100
AcDbLine
 62
7
  6
CONTINUOUS
 10
46.0508021079
 20
-51.3589248351
 11
61.8616604472
 21
-43.0301199881
  0
LINE
  5
32C
100
AcDbEntity
  8
DRAFT
100
AcDbLine
 62
7
  6
CONTINUOUS
 10
59.5072146287
 20
-44.7364925201
 11
46.0356342357
 21
-51.8301425079
  0
LINE
  5
32D
100
AcDbEntity
  8
RACCORDO
100
AcDbLine
 62
253
  6
CONTINUOUS
 10
45.7998505665
 20
-50.7833002573
 11
43.7034327003
 21
-51.8687523827
  0
LINE
  5
32E
100
AcDbEntity
  8
0
100
AcDbLine
 62
7
  6
CONTINUOUS
 10
23.2958025836
 20
-62.1758692038
 11
23.4534478069
 21
-62.0970465921
  0
LINE
  5
32F
100
AcDbEntity
  8
DRAFT
100
AcDbLine
 62
253
  6
CONTINUOUS
 10
40.6979512903
 20
-54.3688312056
 11
39.4607920132
 21
-54.9661866188
  0
LWPOLYLINE
  5
330
100
AcDbEntity
  8
RACCORDO
100
AcDbPolyline
 62
7
  6
CONTINUOUS
 90
6
 70
0
 10
-9.3764079716
 20
64.8498831619
 10
-9.4458429412
 20
64.8828603499
 10
-9.6482236379
 20
64.955324537
 10
-9.8636918994
 20
64.9986788903
 10
-10.0901725489
 20
65.0113039922
 10
-10.3246727451
 20
64.9921551769
  0
LINE
  5
331
100
AcDbEntity
  8
RACCORDO
100
AcDbLine
 62
7
  6
CONTINUOUS
 10
58.4733017116
 20
30.1694915452
 11
55.7168404796
 21
31.5477221613
  0
LINE
  5
332
100
AcDbEntity
  8
RACCORDO
100
AcDbLine
 62
7
  6
CONTINUOUS
 10
-10.7363819501
 20
64.7743333761
 11
-13.4928431822
 21
66.1525639921
  0
LINE
  5
333
100
AcDbEntity
  8
RACCORDO
100
AcDbLine
 62
253
  6
CONTINUOUS
 10
-10.6990367179
 20
64.7918914454
 11
-9.5616115639
 21
64.2231788684
  0
LINE
  5
334
100
AcDbEntity
  8
RACCORDO
100
AcDbLine
 62
253
  6
CONTINUOUS
 10
-8.3870998207
 20
63.6359229967
 11
11.4394598373
 21
53.7226431677
  0
LINE
  5
335
100
AcDbEntity
  8
RACCORDO
100
AcDbLine
 62
253
  6
CONTINUOUS
 10
12.6139715805
 20
53.1353872961
 11
32.4405312386
 21
43.2221074671
  0
LINE
  5
336
100
AcDbEntity
  8
RACCORDO
100
AcDbLine
 62
253
  6
CONTINUOUS
 10
33.6150429818
 20
42.6348515955
 11
53.4416026398
 21
32.7215717665
  0
LINE
  5
337
100
AcDbEntity
  8
RACCORDO
100
AcDbLine
 62
253
  6
CONTINUOUS
 10
54.616114383
 20
32.1343158949
 11
55.753539537
 21
31.5656033179
  0
LINE
  5
338
100
AcDbEntity
  8
RACCORDO
100
AcDbLine
 62
7
  6
CONTINUOUS
 10
55.8303139977
 20
32.2437666062
 11
54.6989431478
 21
32.8094520311
  0
LINE
  5
339
100
AcDbEntity
  8
RACCORDO
100
AcDbLine
 62
7
  6
CONTINUOUS
 10
34.8292425964
 20
42.7443023068
 11
33.6978717465
 21
43.3099877318
  0
LINE
  5
33A
100
AcDbEntity
  8
RACCORDO
100
AcDbLine
 62
7
  6
CONTINUOUS
 10
13.8281711952
 20
53.2448380074
 11
12.6968003453
 21
53.8105234324
  0
LINE
  5
33B
100
AcDbEntity
  8
RACCORDO
100
AcDbLine
 62
7
  6
CONTINUOUS
 10
-7.1729002061
 20
63.7453737081
 11
-8.304271056
 21
64.311059133
  0
LINE
  5
33C
100
AcDbEntity
  8
RACCORDO
100
AcDbLine
 62
7
  6
CONTINUOUS
 10
-9.3849943538
 20
64.854269573
 11
-8.3031315395
 21
64.3133381658
  0
LINE
  5
33D
100
AcDbEntity
  8
RACCORDO
100
AcDbLine
 62
7
  6
CONTINUOUS
 10
-7.1717606896
 20
63.7476527409
 11
12.6979398617
 21
53.8128024652
  0
LINE
  5
33E
100
AcDbEntity
  8
RACCORDO
100
AcDbLine
 62
7
  6
CONTINUOUS
 10
13.8293107116
 20
53.2471170403
 11
33.6990112629
 21
43.3122667646
  0
LINE
  5
33F
100
AcDbEntity
  8
RACCORDO
100
AcDbLine
 62
7
  6
CONTINUOUS
 10
34.8303821128
 20
42.7465813396
 11
54.7000826642
 21
32.811731064
  0
LINE
  5
340
100
AcDbEntity
  8
RACCORDO
100
AcDbLine
 62
7
  6
CONTINUOUS
 10
55.8314535141
 20
32.246045639
 11
57.0487350225
 21
31.6374048848
  0
LWPOLYLINE
  5
341
100
AcDbEntity
  8
RACCORDO
100
AcDbPolyline
 62
7
  6
CONTINUOUS
 90
8
 70
0
 10
57.8991361171
 20
30.4565743425
 10
57.8771778035
 20
30.5584781787
 10
57.7914248237
 20
30.808081685
 10
57.67913355
 20
31.0343702438
 10
57.5421071818
 20
31.2343508135
 10
57.3816982454
 20
31.4068991625
 10
57.1998043132
 20
31.5498939353
 10
57.0478400567
 20
31.6377927059
  0
LWPOLYLINE
  5
342
100
AcDbEntity
  8
RACCORDO
100
AcDbPolyline
 62
7
  6
CONTINUOUS
 90
5
 70
0
 10
62.4788184782
 20
-39.3270859656
 10
62.5945422798
 20
-39.1452740764
 10
62.6767752977
 20
-38.9562140934
 10
62.7253351496
 20
-38.762172856
 10
62.7400095567
 20
-38.5799903507
  0
LWPOLYLINE
  5
343
100
AcDbEntity
  8
RACCORDO
100
AcDbPolyline
 62
7
  6
CONTINUOUS
 90
3
 70
0
 10
62.1504321872
 20
-39.6595044628
 10
62.3302770031
 20
-39.4992106482
 10
62.4788184782
 20
-39.3270859656
  0
LINE
  5
344
100
AcDbEntity
  8
DRAFT
100
AcDbLine
 62
7
  6
CONTINUOUS
 10
58.4733017116
 20
-45.4858156042
 11
59.5072146287
 21
-44.7364925201
  0
LINE
  5
345
100
AcDbEntity
  8
DRAFT
100
AcDbLine
 62
7
  6
CONTINUOUS
 10
60.8277475302
 20
-43.7794430723
 11
61.8616604472
 21
-43.0301199881
  0
LINE
  5
346
100
AcDbEntity
  8
RACCORDO
100
AcDbLine
 62
253
  6
CONTINUOUS
 10
40.2650237234
 20
-62.56701157
 11
40.2575766175
 21
-62.5709479091
  0
LINE
  5
347
100
AcDbEntity
  8
DRAFT
100
AcDbLine
 62
7
  6
CONTINUOUS
 10
40.2575240332
 20
-62.5709756691
 11
39.4607920132
 21
-62.991578104
  0
LINE
  5
348
100
AcDbEntity
  8
RACCORDO
100
AcDbLine
 62
253
  6
CONTINUOUS
 10
58.6655565788
 20
27.8106382761
 11
59.0239966563
 21
27.1924205908
  0
LINE
  5
349
100
AcDbEntity
  8
RACCORDO
100
AcDbLine
 62
7
  6
CONTINUOUS
 10
58.8294178565
 20
27.9056443726
 11
59.203474785
 21
27.2604916036
  0
LINE
  5
34A
100
AcDbEntity
  8
DRAFT
100
AcDbLine
 62
7
  6
CONTINUOUS
 10
61.8616604472
 20
24.3254371935
 11
60.8277475302
 21
26.1086731947
  0
LINE
  5
34B
100
AcDbEntity
  8
DRAFT
100
AcDbLine
 62
7
  6
CONTINUOUS
 10
59.5072146287
 20
28.386255544
 11
58.4733017116
 21
30.1694915452
  0
LINE
  5
34C
100
AcDbEntity
  8
RACCORDO
100
AcDbLine
 62
253
  6
CONTINUOUS
 10
39.4607920132
 20
-73.8211706815
 11
37.1273396353
 21
-74.9878968705
  0
LWPOLYLINE
  5
34D
100
AcDbEntity
  8
RACCORDO
100
AcDbPolyline
 62
7
  6
CONTINUOUS
 90
3
 70
0
 10
-10.3246727451
 20
64.9921551769
 10
-10.5637044657
 20
64.9410310291
 10
-10.8049956437
 20
64.8579271853
  0
LINE
  5
34E
100
AcDbEntity
  8
ASSI
100
AcDbLine
 62
7
  6
CONTINUOUS
 10
36.8618601563
 20
-79.2299086856
 11
34.5284077784
 21
-80.3966348745
  0
ARC
  5
34F
100
AcDbEntity
  8
0
100
AcDbCircle
 62
7
  6
CONTINUOUS
 10
-33.3646829652
 20
-24.4461514859
 40
15.5350070955
100
AcDbArc
 50
178.8805154464
 51
181.1164946862
  0
ARC
  5
350
100
AcDbEntity
  8
0
100
AcDbCircle
 62
7
  6
CONTINUOUS
 10
-49.1882068934
 20
-15.6052558916
 40
8.9253069101
100
AcDbArc
 50
264.2225437041
 51
267.0884479228
  0
ARC
  5
351
100
AcDbEntity
  8
0
100
AcDbCircle
 62
7
  6
CONTINUOUS
 10
-42.1521306205
 20
-22.2155616755
 40
8.0518541451
100
AcDbArc
 50
189.3175606024
 51
189.7925119453
  0
ARC
  5
352
100
AcDbEntity
  8
0
100
AcDbCircle
 62
7
  6
CONTINUOUS
 10
-45.1704971438
 20
-17.3754841298
 40
7.92005644
100
AcDbArc
 50
231.6308965808
 51
235.6307820283
  0
ARC
  5
353
100
AcDbEntity
  8
0
100
AcDbCircle
 62
7
  6
CONTINUOUS
 10
-43.5757590348
 20
-22.2161331166
 40
7.49127769
100
AcDbArc
 50
194.7048226947
 51
195.2031810519
  0
ARC
  5
354
100
AcDbEntity
  8
0
100
AcDbCircle
 62
7
  6
CONTINUOUS
 10
-43.9562637349
 20
-25.4141898419
 40
7.2082686168
100
AcDbArc
 50
161.8239130891
 51
162.2573500263
  0
ARC
  5
355
100
AcDbEntity
  8
0
100
AcDbCircle
 62
7
  6
CONTINUOUS
 10
-46.3584290644
 20
-19.3874228844
 40
6.5035411377
100
AcDbArc
 50
222.1073157184
 51
226.6638372672
  0
ARC
  5
356
100
AcDbEntity
  8
0
100
AcDbCircle
 62
7
  6
CONTINUOUS
 10
-44.5927923097
 20
-25.7530495922
 40
5.638271209
100
AcDbArc
 50
167.0052115978
 51
167.5157734866
  0
ARC
  5
357
100
AcDbEntity
  8
0
100
AcDbCircle
 62
7
  6
CONTINUOUS
 10
-46.5161341731
 20
-23.0727773069
 40
5.135726678
100
AcDbArc
 50
176.6149940728
 51
183.3820652921
  0
ARC
  5
358
100
AcDbEntity
  8
0
100
AcDbCircle
 62
7
  6
CONTINUOUS
 10
-48.6858712955
 20
-24.679292205
 40
1.4982513261
100
AcDbArc
 50
260.7148933599
 51
267.3410198889
  0
ARC
  5
359
100
AcDbEntity
  8
0
100
AcDbCircle
 62
7
  6
CONTINUOUS
 10
-50.0710272471
 20
-21.9336468524
 40
1.4817059614
100
AcDbArc
 50
145.599767279
 51
151.9769542214
  0
ARC
  5
35A
100
AcDbEntity
  8
0
100
AcDbCircle
 62
7
  6
CONTINUOUS
 10
-50.8196770493
 20
-22.1356552078
 40
1.0519489702
100
AcDbArc
 50
104.9023438519
 51
116.4820452494
  0
ARC
  5
35B
100
AcDbEntity
  8
RACCORDO
100
AcDbCircle
 62
7
  6
CONTINUOUS
 10
-38.0183410947
 20
44.2615508202
 40
17.7137415025
100
AcDbArc
 50
63.4315156545
 51
64.6830010622
  0
ARC
  5
35C
100
AcDbEntity
  8
0
100
AcDbCircle
 62
7
  6
CONTINUOUS
 10
-33.3646829651
 20
43.1038300092
 40
15.5350070955
100
AcDbArc
 50
178.8805154464
 51
181.1164946862
  0
ARC
  5
35D
100
AcDbEntity
  8
DRAFT
100
AcDbCircle
 62
7
  6
CONTINUOUS
 10
-38.611337781
 20
51.589681225
 40
8.9949262822
100
AcDbArc
 50
99.7457677265
 51
101.7205402359
  0
ARC
  5
35E
100
AcDbEntity
  8
0
100
AcDbCircle
 62
7
  6
CONTINUOUS
 10
-49.1882068932
 20
51.9447256036
 40
8.9253069102
100
AcDbArc
 50
264.2225437029
 51
267.0884479215
  0
ARC
  5
35F
100
AcDbEntity
  8
DRAFT
100
AcDbCircle
 62
7
  6
CONTINUOUS
 10
-38.6688254095
 20
51.8486306332
 40
8.729698794
100
AcDbArc
 50
101.6963448016
 51
108.2157272202
  0
ARC
  5
360
100
AcDbEntity
  8
RACCORDO
100
AcDbCircle
 62
253
  6
CONTINUOUS
 10
-36.677015967
 20
53.3568399693
 40
8.2137826121
100
AcDbArc
 50
108.3841093715
 51
115.2608043749
  0
ARC
  5
361
100
AcDbEntity
  8
0
100
AcDbCircle
 62
7
  6
CONTINUOUS
 10
-42.1521306205
 20
45.3344198197
 40
8.0518541452
100
AcDbArc
 50
189.3175606024
 51
189.7925119453
  0
ARC
  5
362
100
AcDbEntity
  8
0
100
AcDbCircle
 62
7
  6
CONTINUOUS
 10
-45.1704971438
 20
50.1744973653
 40
7.92005644
100
AcDbArc
 50
231.6308965808
 51
235.6307820283
  0
ARC
  5
363
100
AcDbEntity
  8
0
100
AcDbCircle
 62
7
  6
CONTINUOUS
 10
-43.5757590348
 20
45.3338483785
 40
7.49127769
100
AcDbArc
 50
194.7048226947
 51
195.2031810519
  0
ARC
  5
364
100
AcDbEntity
  8
0
100
AcDbCircle
 62
7
  6
CONTINUOUS
 10
-43.9562637348
 20
42.1357916532
 40
7.2082686169
100
AcDbArc
 50
161.8239130891
 51
162.2573500263
  0
ARC
  5
365
100
AcDbEntity
  8
0
100
AcDbCircle
 62
7
  6
CONTINUOUS
 10
-46.3584290644
 20
48.1625586108
 40
6.5035411377
100
AcDbArc
 50
222.1073157184
 51
226.6638372672
  0
ARC
  5
366
100
AcDbEntity
  8
0
100
AcDbCircle
 62
7
  6
CONTINUOUS
 10
-44.5927923098
 20
41.796931903
 40
5.638271209
100
AcDbArc
 50
167.0052115978
 51
167.5157734866
  0
ARC
  5
367
100
AcDbEntity
  8
0
100
AcDbCircle
 62
7
  6
CONTINUOUS
 10
-46.5161341731
 20
44.4772041883
 40
5.1357266781
100
AcDbArc
 50
176.6149940728
 51
183.3820652921
  0
ARC
  5
368
100
AcDbEntity
  8
0
100
AcDbCircle
 62
7
  6
CONTINUOUS
 10
-48.6858712955
 20
42.8706892902
 40
1.4982513261
100
AcDbArc
 50
260.7148933599
 51
267.3410198889
  0
ARC
  5
369
100
AcDbEntity
  8
0
100
AcDbCircle
 62
7
  6
CONTINUOUS
 10
-50.0710272471
 20
45.6163346428
 40
1.4817059614
100
AcDbArc
 50
145.599767279
 51
151.9769542214
  0
ARC
  5
36A
100
AcDbEntity
  8
RACCORDO
100
AcDbCircle
 62
253
  6
CONTINUOUS
 10
-9.8827878747
 20
63.8707448457
 40
1.1020236485
100
AcDbArc
 50
63.1503934549
 51
67.171109761
  0
ARC
  5
36B
100
AcDbEntity
  8
RACCORDO
100
AcDbCircle
 62
253
  6
CONTINUOUS
 10
-9.8738018543
 20
63.8914491644
 40
1.0794547773
100
AcDbArc
 50
67.1843398297
 51
68.3360783726
  0
ARC
  5
36C
100
AcDbEntity
  8
0
100
AcDbCircle
 62
7
  6
CONTINUOUS
 10
-50.8196770493
 20
45.4143262874
 40
1.0519489702
100
AcDbArc
 50
104.9023438519
 51
116.4820452494
  0
ARC
  5
36D
100
AcDbEntity
  8
RACCORDO
100
AcDbCircle
 62
253
  6
CONTINUOUS
 10
-10.8670876217
 20
64.4617050863
 40
0.3704917896
100
AcDbArc
 50
63.0258244796
 51
67.3869344594
  0
ARC
  5
36E
100
AcDbEntity
  8
RACCORDO
100
AcDbCircle
 62
253
  6
CONTINUOUS
 10
-10.8549960029
 20
64.4914206754
 40
0.3384114638
100
AcDbArc
 50
67.342275845
 51
73.6951330469
  0
ARC
  5
36F
100
AcDbEntity
  8
DRAFT
100
AcDbCircle
 62
7
  6
CONTINUOUS
 10
9.6040624508
 20
0.3305128769
 40
33.1879477159
100
AcDbArc
 50
28.4903284761
 51
28.9613932608
  0
ARC
  5
370
100
AcDbEntity
  8
DRAFT
100
AcDbCircle
 62
7
  6
CONTINUOUS
 10
9.9571270292
 20
0.5007002119
 40
32.7964643696
100
AcDbArc
 50
18.1694814244
 51
28.5232390723
  0
ARC
  5
371
100
AcDbEntity
  8
0
100
AcDbCircle
 62
7
  6
CONTINUOUS
 10
38.7602087159
 20
-60.5085973265
 40
15.5350070955
100
AcDbArc
 50
178.8805154464
 51
181.1164946862
  0
ARC
  5
372
100
AcDbEntity
  8
DRAFT
100
AcDbCircle
 62
7
  6
CONTINUOUS
 10
33.8623716223
 20
-55.8140423845
 40
8.9701705252
100
AcDbArc
 50
313.5053673412
 51
315.9300458225
  0
ARC
  5
373
100
AcDbEntity
  8
0
100
AcDbCircle
 62
7
  6
CONTINUOUS
 10
22.9366847882
 20
-51.6677017321
 40
8.9253069102
100
AcDbArc
 50
264.2225437004
 51
267.088447919
  0
ARC
  5
374
100
AcDbEntity
  8
DRAFT
100
AcDbCircle
 62
7
  6
CONTINUOUS
 10
33.9385155124
 20
-55.8957878654
 40
8.8584606127
100
AcDbArc
 50
308.5890383013
 51
313.5121425752
  0
ARC
  5
375
100
AcDbEntity
  8
0
100
AcDbCircle
 62
7
  6
CONTINUOUS
 10
29.9727610605
 20
-58.278007516
 40
8.0518541452
100
AcDbArc
 50
189.3175606024
 51
189.7925119453
  0
ARC
  5
376
100
AcDbEntity
  8
0
100
AcDbCircle
 62
7
  6
CONTINUOUS
 10
26.9543945372
 20
-53.4379299704
 40
7.92005644
100
AcDbArc
 50
231.6308965808
 51
235.6307820283
  0
ARC
  5
377
100
AcDbEntity
  8
0
100
AcDbCircle
 62
7
  6
CONTINUOUS
 10
28.5491326458
 20
-58.2785789573
 40
7.4912776896
100
AcDbArc
 50
194.7048226947
 51
195.2031810519
  0
ARC
  5
378
100
AcDbEntity
  8
0
100
AcDbCircle
 62
7
  6
CONTINUOUS
 10
28.1686279462
 20
-61.4766356825
 40
7.2082686169
100
AcDbArc
 50
161.8239130891
 51
162.2573500263
  0
ARC
  5
379
100
AcDbEntity
  8
0
100
AcDbCircle
 62
7
  6
CONTINUOUS
 10
25.7664626166
 20
-55.4498687249
 40
6.5035411377
100
AcDbArc
 50
222.1073157184
 51
226.6638372672
  0
ARC
  5
37A
100
AcDbEntity
  8
0
100
AcDbCircle
 62
7
  6
CONTINUOUS
 10
27.5320993709
 20
-61.8154954326
 40
5.6382712086
100
AcDbArc
 50
167.0052115978
 51
167.5157734866
  0
ARC
  5
37B
100
AcDbEntity
  8
0
100
AcDbCircle
 62
7
  6
CONTINUOUS
 10
25.6087575079
 20
-59.1352231474
 40
5.135726678
100
AcDbArc
 50
176.6149940728
 51
183.3820652921
  0
ARC
  5
37C
100
AcDbEntity
  8
ASSI
100
AcDbCircle
 62
7
  6
CONTINUOUS
 10
45.4806602463
 20
-15.6856457061
 40
4.0749094963
100
AcDbArc
 50
355.7756543963
 51
0.0552339309
  0
ARC
  5
37D
100
AcDbEntity
  8
0
100
AcDbCircle
 62
7
  6
CONTINUOUS
 10
23.4390203855
 20
-60.7417380455
 40
1.4982513261
100
AcDbArc
 50
260.7148933599
 51
267.3410198889
  0
ARC
  5
37E
100
AcDbEntity
  8
0
100
AcDbCircle
 62
7
  6
CONTINUOUS
 10
22.0538644339
 20
-57.9960926929
 40
1.4817059614
100
AcDbArc
 50
145.599767279
 51
151.9769542214
  0
ARC
  5
37F
100
AcDbEntity
  8
0
100
AcDbCircle
 62
7
  6
CONTINUOUS
 10
21.3052146318
 20
-58.1981010483
 40
1.0519489702
100
AcDbArc
 50
104.9023438519
 51
116.4820452494
  0
ARC
  5
380
100
AcDbEntity
  8
RACCORDO
100
AcDbCircle
 62
253
  6
CONTINUOUS
 10
61.8977156433
 20
-38.5815922594
 40
0.839714377
100
AcDbArc
 50
354.0958281301
 51
0.11277867
  0
ARC
  5
381
100
AcDbEntity
  8
RACCORDO
100
AcDbCircle
 62
253
  6
CONTINUOUS
 10
22.1122594079
 20
2.909781645
 40
23.6875911638
100
AcDbArc
 50
0.0011927933
 51
0.8204639982
  0
ARC
  5
382
100
AcDbEntity
  8
DRAFT
100
AcDbCircle
 62
7
  6
CONTINUOUS
 10
30.6222000414
 20
14.1055419115
 40
23.4581298903
100
AcDbArc
 50
39.9161459025
 51
40.9960789181
  0
ARC
  5
383
100
AcDbEntity
  8
DRAFT
100
AcDbCircle
 62
7
  6
CONTINUOUS
 10
31.7459113142
 20
14.7767205491
 40
21.5265772326
100
AcDbArc
 50
40.879392541
 51
42.1133360428
  0
ARC
  5
384
100
AcDbEntity
  8
DRAFT
100
AcDbCircle
 62
7
  6
CONTINUOUS
 10
34.4744725888
 20
13.6570804248
 40
20.0513978397
100
AcDbArc
 50
4.5493440855
 51
6.3018079412
  0
ARC
  5
385
100
AcDbEntity
  8
DRAFT
100
AcDbCircle
 62
7
  6
CONTINUOUS
 10
35.1735040602
 20
13.7138120128
 40
19.3500689579
100
AcDbArc
 50
3.3100889113
 51
4.5460652668
  0
ARC
  5
386
100
AcDbEntity
  8
DRAFT
100
AcDbCircle
 62
7
  6
CONTINUOUS
 10
35.4087165033
 20
14.0550618173
 40
18.4082224152
100
AcDbArc
 50
3.7282028847
 51
4.6092792832
  0
ARC
  5
387
100
AcDbEntity
  8
RACCORDO
100
AcDbCircle
 62
253
  6
CONTINUOUS
 10
22.1862087944
 20
13.4895066196
 40
18.0983178883
100
AcDbArc
 50
62.2579169687
 51
63.4323934213
  0
ARC
  5
388
100
AcDbEntity
  8
DRAFT
100
AcDbCircle
 62
7
  6
CONTINUOUS
 10
36.3524908362
 20
14.4832109213
 40
18.0464344734
100
AcDbArc
 50
3.3721658294
 51
4.2722389665
  0
ARC
  5
389
100
AcDbEntity
  8
DRAFT
100
AcDbCircle
 62
7
  6
CONTINUOUS
 10
33.9570946097
 20
16.122506624
 40
17.6876329997
100
AcDbArc
 50
43.3660149226
 51
45.0151042147
  0
ARC
  5
38A
100
AcDbEntity
  8
DRAFT
100
AcDbCircle
 62
7
  6
CONTINUOUS
 10
35.0231210508
 20
16.7947675551
 40
15.7968539573
100
AcDbArc
 50
44.9745012793
 51
46.9235771761
  0
ARC
  5
38B
100
AcDbEntity
  8
0
100
AcDbCircle
 62
7
  6
CONTINUOUS
 10
38.7602087159
 20
7.0413841687
 40
15.5350070955
100
AcDbArc
 50
178.8805154464
 51
181.1164946862
  0
ARC
  5
38C
100
AcDbEntity
  8
DRAFT
100
AcDbCircle
 62
7
  6
CONTINUOUS
 10
35.9169580755
 20
17.2677337435
 40
15.4637284561
100
AcDbArc
 50
45.2860489232
 51
47.2076012862
  0
ARC
  5
38D
100
AcDbEntity
  8
DRAFT
100
AcDbCircle
 62
7
  6
CONTINUOUS
 10
39.3755380581
 20
14.7969081924
 40
13.024469618
100
AcDbArc
 50
355.0448580776
 51
357.3522834885
  0
ARC
  5
38E
100
AcDbEntity
  8
DRAFT
100
AcDbCircle
 62
7
  6
CONTINUOUS
 10
37.2836532619
 20
18.3829170881
 40
11.749386603
100
AcDbArc
 50
49.5284486494
 51
52.4683061094
  0
ARC
  5
38F
100
AcDbEntity
  8
DRAFT
100
AcDbCircle
 62
7
  6
CONTINUOUS
 10
40.6116987338
 20
15.0722713384
 40
11.0779734832
100
AcDbArc
 50
350.4586257924
 51
356.1026659014
  0
ARC
  5
390
100
AcDbEntity
  8
DRAFT
100
AcDbCircle
 62
7
  6
CONTINUOUS
 10
41.761719184
 20
15.431686429
 40
10.5064803185
100
AcDbArc
 50
350.2859208624
 51
353.5032232605
  0
ARC
  5
391
100
AcDbEntity
  8
DRAFT
100
AcDbCircle
 62
7
  6
CONTINUOUS
 10
42.2755194847
 20
15.3476122629
 40
9.9858616328
100
AcDbArc
 50
349.5569205565
 51
350.2639705983
  0
ARC
  5
392
100
AcDbEntity
  8
DRAFT
100
AcDbCircle
 62
7
  6
CONTINUOUS
 10
29.7092026482
 20
12.8093260153
 40
9.8748544919
100
AcDbArc
 50
50.2216374298
 51
54.0435751746
  0
ARC
  5
393
100
AcDbEntity
  8
DRAFT
100
AcDbCircle
 62
7
  6
CONTINUOUS
 10
38.3757728124
 20
19.2411920391
 40
9.7003624096
100
AcDbArc
 50
52.9226396608
 51
56.0327897256
  0
ARC
  5
394
100
AcDbEntity
  8
DRAFT
100
AcDbCircle
 62
7
  6
CONTINUOUS
 10
39.1460823517
 20
19.7250802887
 40
9.3169452627
100
AcDbArc
 50
53.4731863911
 51
57.3943097153
  0
ARC
  5
395
100
AcDbEntity
  8
DRAFT
100
AcDbCircle
 62
7
  6
CONTINUOUS
 10
38.6480414873
 20
19.6394331269
 40
9.2179572775
100
AcDbArc
 50
56.0533228623
 51
56.8215296205
  0
ARC
  5
396
100
AcDbEntity
  8
0
100
AcDbCircle
 62
7
  6
CONTINUOUS
 10
22.9366847879
 20
15.8822797631
 40
8.9253069101
100
AcDbArc
 50
264.2225437029
 51
267.0884479215
  0
ARC
  5
397
100
AcDbEntity
  8
0
100
AcDbCircle
 62
7
  6
CONTINUOUS
 10
29.9727610605
 20
9.2719739792
 40
8.0518541452
100
AcDbArc
 50
189.3175606024
 51
189.7925119453
  0
ARC
  5
398
100
AcDbEntity
  8
0
100
AcDbCircle
 62
7
  6
CONTINUOUS
 10
26.9543945372
 20
14.1120515248
 40
7.92005644
100
AcDbArc
 50
231.6308965808
 51
235.6307820283
  0
ARC
  5
399
100
AcDbEntity
  8
0
100
AcDbCircle
 62
7
  6
CONTINUOUS
 10
28.5491326458
 20
9.2714025379
 40
7.4912776896
100
AcDbArc
 50
194.7048226947
 51
195.2031810519
  0
ARC
  5
39A
100
AcDbEntity
  8
0
100
AcDbCircle
 62
7
  6
CONTINUOUS
 10
28.1686279461
 20
6.0733458127
 40
7.2082686168
100
AcDbArc
 50
161.8239130891
 51
162.2573500263
  0
ARC
  5
39B
100
AcDbEntity
  8
0
100
AcDbCircle
 62
7
  6
CONTINUOUS
 10
25.7664626166
 20
12.1001127703
 40
6.5035411377
100
AcDbArc
 50
222.1073157184
 51
226.6638372672
  0
ARC
  5
39C
100
AcDbEntity
  8
DRAFT
100
AcDbCircle
 62
7
  6
CONTINUOUS
 10
46.537001005
 20
16.0092415985
 40
6.0399620031
100
AcDbArc
 50
256.7313311021
 51
261.3208350198
  0
ARC
  5
39D
100
AcDbEntity
  8
0
100
AcDbCircle
 62
7
  6
CONTINUOUS
 10
27.5320993709
 20
5.7344860625
 40
5.6382712087
100
AcDbArc
 50
167.0052115978
 51
167.5157734866
  0
ARC
  5
39E
100
AcDbEntity
  8
0
100
AcDbCircle
 62
7
  6
CONTINUOUS
 10
25.6087575079
 20
8.4147583478
 40
5.135726678
100
AcDbArc
 50
176.6149940728
 51
183.3820652921
  0
ARC
  5
39F
100
AcDbEntity
  8
0
100
AcDbCircle
 62
7
  6
CONTINUOUS
 10
23.4390203855
 20
6.8082434497
 40
1.4982513261
100
AcDbArc
 50
260.7148933599
 51
267.3410198889
  0
ARC
  5
3A0
100
AcDbEntity
  8
0
100
AcDbCircle
 62
7
  6
CONTINUOUS
 10
22.0538644339
 20
9.5538888023
 40
1.4817059614
100
AcDbArc
 50
145.599767279
 51
151.9769542214
  0
ARC
  5
3A1
100
AcDbEntity
  8
0
100
AcDbCircle
 62
7
  6
CONTINUOUS
 10
21.3052146318
 20
9.3518804469
 40
1.0519489702
100
AcDbArc
 50
104.9023438519
 51
116.4820452494
  0
ARC
  5
3A2
100
AcDbEntity
  8
RACCORDO
100
AcDbCircle
 62
7
  6
CONTINUOUS
 10
59.5828362407
 20
26.1754340225
 40
0.7550629775
100
AcDbArc
 50
332.731288388
 51
339.6009102183
  0
ARC
  5
3A3
100
AcDbEntity
  8
RACCORDO
100
AcDbCircle
 62
253
  6
CONTINUOUS
 10
59.2041232605
 20
26.5755940837
 40
0.7121549501
100
AcDbArc
 50
64.2067926782
 51
69.1425942129
  0
ARC
  5
3A4
100
AcDbEntity
  8
RACCORDO
100
AcDbCircle
 62
7
  6
CONTINUOUS
 10
59.3888676996
 20
26.6430236935
 40
0.6646407559
100
AcDbArc
 50
106.6291952313
 51
115.8737235694
  0
SPLINE
  5
3A5
100
AcDbEntity
  8
0
100
AcDbSpline
 62
7
  6
CONTINUOUS
 70
0
 71
3
 72
9
 73
5
 74
3
 42
0.0000001
 43
0.0000001
 44
0.0000000001
 12
-0.3146349819
 22
0.1676527526
 32
0.0
 13
-0.2882787499
 23
0.2094216566
 33
0.0
 40
0.0
 40
0.0
 40
0.0
 40
0.0
 40
0.2130096085
 40
1.0
 40
1.0
 40
1.0
 40
1.0
 10
-49.8280929503
 20
-25.867045667
 30
0.0
 10
-49.8504330417
 20
-25.8551417846
 30
0.0
 10
-49.9543938822
 20
-25.7975275081
 30
0.0
 10
-50.0540129611
 20
-25.7323623964
 30
0.0
 10
-50.1296371631
 20
-25.6774247859
 30
0.0
 11
-49.8280929503
 21
-25.867045667
 31
0.0
 11
-49.8945253584
 21
-25.8302543909
 31
0.0
 11
-50.1296371631
 21
-25.6774247859
 31
0.0
  0
SPLINE
  5
3A6
100
AcDbEntity
  8
0
100
AcDbSpline
 62
7
  6
CONTINUOUS
 70
0
 71
3
 72
15
 73
11
 74
9
 42
0.0000001
 43
0.0000001
 44
0.0000000001
 12
-2.939478045
 22
2.135399719
 32
0.0
 13
-0.0
 23
3.6332441615
 33
0.0
 40
0.0
 40
0.0
 40
0.0
 40
0.0
 40
0.1166507875
 40
0.2400441641
 40
0.3682594671
 40
0.499036013
 40
0.6299439153
 40
0.7585448031
 40
0.8825520476
 40
1.0
 40
1.0
 40
1.0
 40
1.0
 10
-50.4124798756
 20
-25.8188461421
 30
0.0
 10
-50.5267773519
 20
-25.7358141225
 30
0.0
 10
-50.7495495522
 20
-25.5474109083
 30
0.0
 10
-51.0520989722
 20
-25.2184117117
 30
0.0
 10
-51.3253562758
 20
-24.843334612
 30
0.0
 10
-51.5612402038
 20
-24.4332542836
 30
0.0
 10
-51.7528580942
 20
-24.0002075244
 30
0.0
 10
-51.8945675065
 20
-23.556884253
 30
0.0
 10
-51.9821926835
 20
-23.116388578
 30
0.0
 10
-52.0034701333
 20
-22.8237157929
 30
0.0
 10
-52.0034701333
 20
-22.6814767639
 30
0.0
 11
-50.4124798756
 21
-25.8188461421
 31
0.0
 11
-50.7372560258
 21
-25.5465512347
 31
0.0
 11
-51.0416652375
 21
-25.2174246654
 31
0.0
 11
-51.3165675819
 21
-24.841348505
 31
0.0
 11
-51.5537090779
 21
-24.4296144924
 31
0.0
 11
-51.7459695193
 21
-23.9945849985
 31
0.0
 11
-51.8875762597
 21
-23.5493218441
 31
0.0
 11
-51.9742775369
 21
-23.1071941171
 31
0.0
 11
-52.0034701333
 21
-22.6814767639
 31
0.0
  0
SPLINE
  5
3A7
100
AcDbEntity
  8
0
100
AcDbSpline
 62
7
  6
CONTINUOUS
 70
0
 71
3
 72
13
 73
9
 74
7
 42
0.0000001
 43
0.0000001
 44
0.0000000001
 12
0.0
 22
1.733890101
 32
0.0
 13
1.5560297276
 23
0.7770044582
 33
0.0
 40
0.0
 40
0.0
 40
0.0
 40
0.0
 40
0.2293097471
 40
0.4403083728
 40
0.6335453992
 40
0.8121488115
 40
0.9819867274
 40
1.0
 40
1.0
 40
1.0
 40
1.0
 10
-52.0034701333
 20
-22.6814767639
 30
0.0
 10
-52.0034701333
 20
-22.5489441304
 30
0.0
 10
-51.9862277374
 20
-22.2939145629
 30
0.0
 10
-51.90182582
 20
-21.9356789678
 30
0.0
 10
-51.7612918824
 20
-21.6267001385
 30
0.0
 10
-51.5670652939
 20
-21.3769047956
 30
0.0
 10
-51.3947856234
 20
-21.2488933184
 30
0.0
 10
-51.2981024048
 20
-21.1987483497
 30
0.0
 10
-51.2887593422
 20
-21.1940828854
 30
0.0
 11
-52.0034701333
 21
-22.6814767639
 31
0.0
 11
-51.9742775369
 21
-22.284952007
 31
0.0
 11
-51.8875762597
 21
-21.9295255574
 31
0.0
 11
-51.7459695193
 21
-21.6258691433
 31
0.0
 11
-51.5537090779
 21
-21.3831000907
 31
0.0
 11
-51.3165675819
 21
-21.2085075742
 31
0.0
 11
-51.2887593422
 21
-21.1940828854
 31
0.0
  0
SPLINE
  5
3A8
100
AcDbEntity
  8
0
100
AcDbSpline
 62
7
  6
CONTINUOUS
 70
0
 71
3
 72
11
 73
7
 74
5
 42
0.0000001
 43
0.0000001
 44
0.0000000001
 12
0.3585770888
 22
-0.0893745271
 32
0.0
 13
0.3641339119
 23
-0.0630224474
 33
0.0
 40
0.0
 40
0.0
 40
0.0
 40
0.0
 40
0.2843614962
 40
0.5413138567
 40
0.7772617616
 40
1.0
 40
1.0
 40
1.0
 40
1.0
 10
-51.1833310297
 20
-23.1419577365
 30
0.0
 10
-51.1493425239
 20
-23.1504292946
 30
0.0
 10
-51.0844447709
 20
-23.1657756958
 30
0.0
 10
-50.9908235906
 20
-23.1858555863
 30
0.0
 10
-50.9043137545
 20
-23.202822533
 30
0.0
 10
-50.8487058528
 20
-23.2128476043
 30
0.0
 10
-50.8216703374
 20
-23.217526774
 30
0.0
 11
-51.1833310297
 21
-23.1419577365
 31
0.0
 11
-51.0810749543
 21
-23.1661768913
 31
0.0
 11
-50.9882353586
 21
-23.1861135297
 31
0.0
 11
-50.9026746467
 21
-23.2029108459
 31
0.0
 11
-50.8216703374
 21
-23.217526774
 31
0.0
  0
SPLINE
  5
3A9
100
AcDbEntity
  8
0
100
AcDbSpline
 62
7
  6
CONTINUOUS
 70
0
 71
3
 72
12
 73
8
 74
6
 42
0.0000001
 43
0.0000001
 44
0.0000000001
 12
-0.4846905088
 22
0.3399843163
 32
0.0
 13
-0.4301881365
 23
0.4067583948
 33
0.0
 40
0.0
 40
0.0
 40
0.0
 40
0.0
 40
0.2112889118
 40
0.4160796887
 40
0.6146197839
 40
0.8089140402
 40
1.0
 40
1.0
 40
1.0
 40
1.0
 10
-51.1833310297
 20
-23.1419577365
 30
0.0
 10
-51.2174676064
 20
-23.1180127644
 30
0.0
 10
-51.2840675079
 20
-23.0699620602
 30
0.0
 10
-51.3804369946
 20
-22.996281927
 30
0.0
 10
-51.4720630696
 20
-22.9219957634
 30
0.0
 10
-51.5594133059
 20
-22.8468104779
 30
0.0
 10
-51.6155204925
 20
-22.7954449987
 30
0.0
 10
-51.6429214634
 20
-22.7695363926
 30
0.0
 11
-51.1833310297
 21
-23.1419577365
 31
0.0
 11
-51.2847567846
 21
-23.0687400866
 31
0.0
 11
-51.3810553887
 21
-22.9950726796
 31
0.0
 11
-51.4723403277
 21
-22.9210207452
 31
0.0
 11
-51.5595010713
 21
-22.84595406
 31
0.0
 11
-51.6429214634
 21
-22.7695363926
 31
0.0
  0
SPLINE
  5
3AA
100
AcDbEntity
  8
0
100
AcDbSpline
 62
7
  6
CONTINUOUS
 70
0
 71
3
 72
18
 73
14
 74
12
 42
0.0000001
 43
0.0000001
 44
0.0000000001
 12
0.1278471796
 22
-1.688061552
 32
0.0
 13
0.6956974518
 23
-1.543341103
 33
0.0
 40
0.0
 40
0.0
 40
0.0
 40
0.0
 40
0.0994487293
 40
0.1982410428
 40
0.2951515135
 40
0.389225246
 40
0.480723723
 40
0.5709101839
 40
0.6599274556
 40
0.7471425123
 40
0.8326363975
 40
0.9167966359
 40
1.0
 40
1.0
 40
1.0
 40
1.0
 10
-50.0977497297
 20
-24.534219813
 30
0.0
 10
-50.0935116499
 20
-24.5901783385
 30
0.0
 10
-50.0835547667
 20
-24.7016182863
 30
0.0
 10
-50.0640726645
 20
-24.8670504689
 30
0.0
 10
-50.0402444947
 20
-25.0288495701
 30
0.0
 10
-50.0123604949
 20
-25.1858203064
 30
0.0
 10
-49.9805462606
 20
-25.3381679908
 30
0.0
 10
-49.9447262596
 20
-25.4866913669
 30
0.0
 10
-49.9048456198
 20
-25.631672266
 30
0.0
 10
-49.8610277053
 20
-25.7727424465
 30
0.0
 10
-49.8133976645
 20
-25.9096744805
 30
0.0
 10
-49.7618852353
 20
-26.0427683252
 30
0.0
 10
-49.7246678839
 20
-26.1295958088
 30
0.0
 10
-49.7053730944
 20
-26.1723995327
 30
0.0
 11
-50.0977497297
 21
-24.534219813
 31
0.0
 11
-50.0827345
 21
-24.7019052443
 31
0.0
 11
-50.0631394225
 21
-24.8679984681
 31
0.0
 11
-50.0392007786
 21
-25.0303019171
 31
0.0
 11
-50.0113118114
 21
-25.1870979967
 31
0.0
 11
-49.9796137203
 21
-25.3387173753
 31
0.0
 11
-49.9437832145
 21
-25.4871297258
 31
0.0
 11
-49.9037787543
 21
-25.6324198583
 31
0.0
 11
-49.8599465095
 21
-25.7734095051
 31
0.0
 11
-49.8123621304
 21
-25.910095831
 31
0.0
 11
-49.7609008903
 21
-26.042951887
 31
0.0
 11
-49.7053730944
 21
-26.1723995327
 31
0.0
  0
SPLINE
  5
3AB
100
AcDbEntity
  8
0
100
AcDbSpline
 62
7
  6
CONTINUOUS
 70
0
 71
3
 72
12
 73
8
 74
6
 42
0.0000001
 43
0.0000001
 44
0.0000000001
 12
-0.7538005872
 22
0.1993050875
 32
0.0
 13
-0.7344507813
 23
0.2617630475
 33
0.0
 40
0.0
 40
0.0
 40
0.0
 40
0.0
 40
0.2031922224
 40
0.4037019467
 40
0.6024734814
 40
0.8012652599
 40
1.0
 40
1.0
 40
1.0
 40
1.0
 10
-48.8967198769
 20
-24.1426371859
 30
0.0
 10
-48.9477753491
 20
-24.1291381047
 30
0.0
 10
-49.0490035126
 20
-24.1015206962
 30
0.0
 10
-49.1993897559
 20
-24.0578807598
 30
0.0
 10
-49.3479468231
 20
-24.0121134176
 30
0.0
 10
-49.4952701872
 20
-23.9639841643
 30
0.0
 10
-49.5929089362
 20
-23.9301824394
 30
0.0
 10
-49.6415625646
 20
-23.912841969
 30
0.0
 11
-48.8967198769
 21
-24.1426371859
 31
0.0
 11
-49.0495600661
 21
-24.1009256231
 31
0.0
 11
-49.1997006031
 21
-24.0573430219
 31
0.0
 11
-49.3478096628
 21
-24.0116986862
 31
0.0
 11
-49.495140372
 21
-23.9635504371
 31
0.0
 11
-49.6415625646
 21
-23.912841969
 31
0.0
  0
SPLINE
  5
3AC
100
AcDbEntity
  8
0
100
AcDbSpline
 62
7
  6
CONTINUOUS
 70
0
 71
3
 72
17
 73
13
 74
11
 42
0.0000001
 43
0.0000001
 44
0.0000000001
 12
-0.4446982604
 22
-1.6445147598
 32
0.0
 13
-0.1196409239
 23
-1.6993491691
 33
0.0
 40
0.0
 40
0.0
 40
0.0
 40
0.0
 40
0.0090529507
 40
0.1207745843
 40
0.2322793774
 40
0.3435569181
 40
0.4537381009
 40
0.5629470783
 40
0.67258589
 40
0.7828027636
 40
0.8923984533
 40
1.0
 40
1.0
 40
1.0
 40
1.0
 10
-49.8083521622
 20
-21.8430681912
 30
0.0
 10
-49.809694106
 20
-21.8480307615
 30
0.0
 10
-49.8275446317
 20
-21.9142500897
 30
0.0
 10
-49.8605332816
 20
-22.0419673705
 30
0.0
 10
-49.9043806298
 20
-22.2267989815
 30
0.0
 10
-49.9442978553
 20
-22.4116247128
 30
0.0
 10
-49.9801597923
 20
-22.5959522004
 30
0.0
 10
-50.0120124163
 20
-22.7800707118
 30
0.0
 10
-50.0399330485
 20
-22.9648476815
 30
0.0
 10
-50.0638048281
 20
-23.1504139866
 30
0.0
 10
-50.0833396903
 20
-23.3353232047
 30
0.0
 10
-50.0934585469
 20
-23.4582565225
 30
0.0
 10
-50.0977497297
 20
-23.5192073889
 30
0.0
 11
-49.8083521622
 21
-21.8430681912
 31
0.0
 11
-49.812366243
 21
-21.8579590759
 31
0.0
 11
-49.8599523815
 21
-22.0422381804
 31
0.0
 11
-49.9037855212
 21
-22.2270662352
 31
0.0
 11
-49.9437901038
 21
-22.4123645359
 31
0.0
 11
-49.9796208506
 21
-22.5966126297
 31
0.0
 11
-50.0113190455
 21
-22.7799359258
 31
0.0
 11
-50.0392066137
 21
-22.9646180467
 31
0.0
 11
-50.0631427276
 21
-23.1508466517
 31
0.0
 11
-50.0827355675
 21
-23.3365181003
 31
0.0
 11
-50.0977497297
 21
-23.5192073889
 31
0.0
  0
SPLINE
  5
3AD
100
AcDbEntity
  8
0
100
AcDbSpline
 62
7
  6
CONTINUOUS
 70
0
 71
3
 72
10
 73
6
 74
4
 42
0.0000001
 43
0.0000001
 44
0.0000000001
 12
-0.80417572
 22
-0.4015656697
 32
0.0
 13
-0.8643416125
 23
0.2364359748
 33
0.0
 40
0.0
 40
0.0
 40
0.0
 40
0.0
 40
0.2920401134
 40
0.6328640805
 40
1.0
 40
1.0
 40
1.0
 40
1.0
 10
-48.8290936278
 20
-26.1134142907
 30
0.0
 10
-48.907377484
 20
-26.1525053852
 30
0.0
 10
-49.0879751114
 20
-26.2154626199
 30
0.0
 10
-49.3891746758
 20
-26.2374279103
 30
0.0
 10
-49.5995961435
 20
-26.2013342457
 30
0.0
 10
-49.7053730944
 20
-26.1723995327
 30
0.0
 11
-48.8290936278
 21
-26.1134142907
 31
0.0
 11
-49.0761877325
 21
-26.2001634179
 31
0.0
 11
-49.3805969442
 21
-26.2248807755
 31
0.0
 11
-49.7053730944
 21
-26.1723995327
 31
0.0
  0
SPLINE
  5
3AE
100
AcDbEntity
  8
0
100
AcDbSpline
 62
7
  6
CONTINUOUS
 70
0
 71
3
 72
12
 73
8
 74
6
 42
0.0000001
 43
0.0000001
 44
0.0000000001
 12
-0.4846905088
 22
0.3399843163
 32
0.0
 13
-0.4301881365
 23
0.4067583948
 33
0.0
 40
0.0
 40
0.0
 40
0.0
 40
0.0
 40
0.2112889118
 40
0.4160796887
 40
0.6146197839
 40
0.8089140402
 40
1.0
 40
1.0
 40
1.0
 40
1.0
 10
-51.1833310297
 20
-23.7481755191
 30
0.0
 10
-51.2174676064
 20
-23.7242305471
 30
0.0
 10
-51.2840675079
 20
-23.6761798428
 30
0.0
 10
-51.3804369946
 20
-23.6024997097
 30
0.0
 10
-51.4720630696
 20
-23.5282135461
 30
0.0
 10
-51.5594133059
 20
-23.4530282606
 30
0.0
 10
-51.6155204925
 20
-23.4016627814
 30
0.0
 10
-51.6429214634
 20
-23.3757541753
 30
0.0
 11
-51.1833310297
 21
-23.7481755191
 31
0.0
 11
-51.2847567846
 21
-23.6749578693
 31
0.0
 11
-51.3810553887
 21
-23.6012904623
 31
0.0
 11
-51.4723403277
 21
-23.5272385278
 31
0.0
 11
-51.5595010713
 21
-23.4521718427
 31
0.0
 11
-51.6429214634
 21
-23.3757541753
 31
0.0
  0
SPLINE
  5
3AF
100
AcDbEntity
  8
0
100
AcDbSpline
 62
7
  6
CONTINUOUS
 70
0
 71
3
 72
18
 73
14
 74
12
 42
0.0000001
 43
0.0000001
 44
0.0000000001
 12
-0.6956974515
 22
1.5433411025
 32
0.0
 13
-0.1278471795
 23
1.6880615514
 33
0.0
 40
0.0
 40
0.0
 40
0.0
 40
0.0
 40
0.0832064168
 40
0.1673706447
 40
0.2528685759
 40
0.3400867613
 40
0.4291060942
 40
0.5192954576
 40
0.610797256
 40
0.7048699557
 40
0.8017738049
 40
0.9005573899
 40
1.0
 40
1.0
 40
1.0
 40
1.0
 10
-50.4124798756
 20
-25.8188461421
 30
0.0
 10
-50.431775373
 20
-25.7760408478
 30
0.0
 10
-50.468994232
 20
-25.6892096838
 30
0.0
 10
-50.5205086386
 20
-25.5561098911
 30
0.0
 10
-50.5681402539
 20
-25.4191717309
 30
0.0
 10
-50.6119590349
 20
-25.2780963594
 30
0.0
 10
-50.6518400827
 20
-25.1331108349
 30
0.0
 10
-50.6876602658
 20
-24.9845826915
 30
0.0
 10
-50.7194740454
 20
-24.8322319177
 30
0.0
 10
-50.7473565248
 20
-24.6752633962
 30
0.0
 10
-50.7711824607
 20
-24.5134733158
 30
0.0
 10
-50.7906626472
 20
-24.3480531122
 30
0.0
 10
-50.8006186918
 20
-24.2366215047
 30
0.0
 10
-50.8048565109
 20
-24.1806664224
 30
0.0
 11
-50.4124798756
 21
-25.8188461421
 31
0.0
 11
-50.4680096232
 21
-25.6893937103
 31
0.0
 11
-50.5194730242
 21
-25.5565312487
 31
0.0
 11
-50.5670591627
 21
-25.4198382828
 31
0.0
 11
-50.6108923024
 21
-25.2788433675
 31
0.0
 11
-50.650896885
 21
-25.1335496495
 31
0.0
 11
-50.6867276318
 21
-24.9851323025
 31
0.0
 11
-50.7184258267
 21
-24.8335072013
 31
0.0
 11
-50.7463133949
 21
-24.6767126487
 31
0.0
 11
-50.7702495088
 21
-24.5144201575
 31
0.0
 11
-50.7898423486
 21
-24.3483415488
 31
0.0
 11
-50.8048565109
 21
-24.1806664224
 31
0.0
  0
SPLINE
  5
3B0
100
AcDbEntity
  8
0
100
AcDbSpline
 62
7
  6
CONTINUOUS
 70
0
 71
3
 72
17
 73
13
 74
11
 42
0.0000001
 43
0.0000001
 44
0.0000000001
 12
0.1300619935
 22
1.8473673837
 32
0.0
 13
0.5103374417
 23
1.780270143
 33
0.0
 40
0.0
 40
0.0
 40
0.0
 40
0.0
 40
0.0989862623
 40
0.1998098983
 40
0.3012031679
 40
0.4020589693
 40
0.5025145917
 40
0.6038648314
 40
0.7062244143
 40
0.8087916628
 40
0.9115570984
 40
1.0
 40
1.0
 40
1.0
 40
1.0
 10
-50.8048565109
 20
-23.1656539983
 30
0.0
 10
-50.8005650607
 20
-23.1046993341
 30
0.0
 10
-50.7904453362
 20
-22.9817565811
 30
0.0
 10
-50.7709085425
 20
-22.7968334461
 30
0.0
 10
-50.7470345417
 20
-22.6112560651
 30
0.0
 10
-50.7191124231
 20
-22.4264755964
 30
0.0
 10
-50.6872593651
 20
-22.242359815
 30
0.0
 10
-50.6513976092
 20
-22.0580372501
 30
0.0
 10
-50.6114807967
 20
-21.8732165597
 30
0.0
 10
-50.567634331
 20
-21.6883910533
 30
0.0
 10
-50.522277393
 20
-21.5127908059
 30
0.0
 10
-50.4906887335
 20
-21.3990549247
 30
0.0
 10
-50.4756434921
 20
-21.346570839
 30
0.0
 11
-50.8048565109
 21
-23.1656539983
 31
0.0
 11
-50.7898412812
 21
-22.9829533373
 31
0.0
 11
-50.7702462036
 21
-22.797265036
 31
0.0
 11
-50.7463075598
 21
-22.6110229431
 31
0.0
 11
-50.7184185926
 21
-22.4263378963
 31
0.0
 11
-50.6867205014
 21
-22.2430204265
 31
0.0
 11
-50.6508899957
 21
-22.0587775704
 31
0.0
 11
-50.6108855355
 21
-21.8734829776
 31
0.0
 11
-50.5670532906
 21
-21.6886610859
 31
0.0
 11
-50.5194689116
 21
-21.504390381
 31
0.0
 11
-50.4756434921
 21
-21.346570839
 31
0.0
  0
SPLINE
  5
3B1
100
AcDbEntity
  8
0
100
AcDbSpline
 62
7
  6
CONTINUOUS
 70
0
 71
3
 72
9
 73
5
 74
3
 42
0.0000001
 43
0.0000001
 44
0.0000000001
 12
-0.1642762213
 22
-0.1282951516
 32
0.0
 13
-0.1864235189
 23
-0.0930907056
 33
0.0
 40
0.0
 40
0.0
 40
0.0
 40
0.0
 40
0.8496477921
 40
1.0
 40
1.0
 40
1.0
 40
1.0
 10
-48.6533046575
 20
-26.0021559656
 30
0.0
 10
-48.6998303004
 20
-26.0384911964
 30
0.0
 10
-48.7580882305
 20
-26.0767675178
 30
0.0
 10
-48.8197505653
 20
-26.1087488263
 30
0.0
 10
-48.8290936278
 20
-26.1134142907
 30
0.0
 11
-48.6533046575
 21
-26.0021559656
 31
0.0
 11
-48.8012853882
 21
-26.0989896019
 31
0.0
 11
-48.8290936278
 21
-26.1134142907
 31
0.0
  0
SPLINE
  5
3B2
100
AcDbEntity
  8
0
100
AcDbSpline
 62
7
  6
CONTINUOUS
 70
0
 71
3
 72
12
 73
8
 74
6
 42
0.0000001
 43
0.0000001
 44
0.0000000001
 12
-0.7538005872
 22
0.1993050875
 32
0.0
 13
-0.7344507813
 23
0.2617630475
 33
0.0
 40
0.0
 40
0.0
 40
0.0
 40
0.0
 40
0.2031922224
 40
0.4037019467
 40
0.6024734814
 40
0.8012652599
 40
1.0
 40
1.0
 40
1.0
 40
1.0
 10
-48.8967198769
 20
-24.7488549686
 30
0.0
 10
-48.9477753491
 20
-24.7353558873
 30
0.0
 10
-49.0490035126
 20
-24.7077384789
 30
0.0
 10
-49.1993897559
 20
-24.6640985424
 30
0.0
 10
-49.3479468231
 20
-24.6183312002
 30
0.0
 10
-49.4952701872
 20
-24.570201947
 30
0.0
 10
-49.5929089362
 20
-24.5364002221
 30
0.0
 10
-49.6415625646
 20
-24.5190597517
 30
0.0
 11
-48.8967198769
 21
-24.7488549686
 31
0.0
 11
-49.0495600661
 21
-24.7071434057
 31
0.0
 11
-49.1997006031
 21
-24.6635608046
 31
0.0
 11
-49.3478096628
 21
-24.6179164688
 31
0.0
 11
-49.495140372
 21
-24.5697682198
 31
0.0
 11
-49.6415625646
 21
-24.5190597517
 31
0.0
  0
SPLINE
  5
3B3
100
AcDbEntity
  8
0
100
AcDbSpline
 62
7
  6
CONTINUOUS
 70
0
 71
3
 72
9
 73
5
 74
3
 42
0.0000001
 43
0.0000001
 44
0.0000000001
 12
-0.3146349819
 22
0.1676527526
 32
0.0
 13
-0.2882787499
 23
0.2094216566
 33
0.0
 40
0.0
 40
0.0
 40
0.0
 40
0.0
 40
0.2130096085
 40
1.0
 40
1.0
 40
1.0
 40
1.0
 10
-49.8280929503
 20
41.6829358281
 30
0.0
 10
-49.8504330417
 20
41.6948397105
 30
0.0
 10
-49.9543938822
 20
41.752453987
 30
0.0
 10
-50.0540129611
 20
41.8176190988
 30
0.0
 10
-50.1296371631
 20
41.8725567093
 30
0.0
 11
-49.8280929503
 21
41.6829358281
 31
0.0
 11
-49.8945253584
 21
41.7197271043
 31
0.0
 11
-50.1296371631
 21
41.8725567093
 31
0.0
  0
SPLINE
  5
3B4
100
AcDbEntity
  8
0
100
AcDbSpline
 62
7
  6
CONTINUOUS
 70
0
 71
3
 72
15
 73
11
 74
9
 42
0.0000001
 43
0.0000001
 44
0.0000000001
 12
-2.939478045
 22
2.135399719
 32
0.0
 13
0.0
 23
3.6332441615
 33
0.0
 40
0.0
 40
0.0
 40
0.0
 40
0.0
 40
0.1166507875
 40
0.2400441641
 40
0.3682594671
 40
0.499036013
 40
0.6299439153
 40
0.7585448031
 40
0.8825520476
 40
1.0
 40
1.0
 40
1.0
 40
1.0
 10
-50.4124798756
 20
41.7311353531
 30
0.0
 10
-50.5267773519
 20
41.8141673727
 30
0.0
 10
-50.7495495522
 20
42.0025705869
 30
0.0
 10
-51.0520989722
 20
42.3315697835
 30
0.0
 10
-51.3253562758
 20
42.7066468832
 30
0.0
 10
-51.5612402038
 20
43.1167272116
 30
0.0
 10
-51.7528580942
 20
43.5497739708
 30
0.0
 10
-51.8945675065
 20
43.9930972422
 30
0.0
 10
-51.9821926835
 20
44.4335929172
 30
0.0
 10
-52.0034701333
 20
44.7262657022
 30
0.0
 10
-52.0034701333
 20
44.8685047313
 30
0.0
 11
-50.4124798756
 21
41.7311353531
 31
0.0
 11
-50.7372560258
 21
42.0034302604
 31
0.0
 11
-51.0416652375
 21
42.3325568298
 31
0.0
 11
-51.3165675819
 21
42.7086329902
 31
0.0
 11
-51.5537090779
 21
43.1203670027
 31
0.0
 11
-51.7459695193
 21
43.5553964967
 31
0.0
 11
-51.8875762597
 21
44.0006596511
 31
0.0
 11
-51.9742775369
 21
44.4427873781
 31
0.0
 11
-52.0034701333
 21
44.8685047313
 31
0.0
  0
SPLINE
  5
3B5
100
AcDbEntity
  8
0
100
AcDbSpline
 62
7
  6
CONTINUOUS
 70
0
 71
3
 72
13
 73
9
 74
7
 42
0.0000001
 43
0.0000001
 44
0.0000000001
 12
0.0
 22
1.733890101
 32
0.0
 13
1.5560297276
 23
0.7770044582
 33
0.0
 40
0.0
 40
0.0
 40
0.0
 40
0.0
 40
0.2293097471
 40
0.4403083728
 40
0.6335453992
 40
0.8121488115
 40
0.9819867274
 40
1.0
 40
1.0
 40
1.0
 40
1.0
 10
-52.0034701333
 20
44.8685047313
 30
0.0
 10
-52.0034701333
 20
45.0010373648
 30
0.0
 10
-51.9862277374
 20
45.2560669323
 30
0.0
 10
-51.90182582
 20
45.6143025274
 30
0.0
 10
-51.7612918824
 20
45.9232813567
 30
0.0
 10
-51.5670652939
 20
46.1730766996
 30
0.0
 10
-51.3947856234
 20
46.3010881767
 30
0.0
 10
-51.2981024048
 20
46.3512331454
 30
0.0
 10
-51.2887593422
 20
46.3558986098
 30
0.0
 11
-52.0034701333
 21
44.8685047313
 31
0.0
 11
-51.9742775369
 21
45.2650294881
 31
0.0
 11
-51.8875762597
 21
45.6204559378
 31
0.0
 11
-51.7459695193
 21
45.9241123519
 31
0.0
 11
-51.5537090779
 21
46.1668814045
 31
0.0
 11
-51.3165675819
 21
46.341473921
 31
0.0
 11
-51.2887593422
 21
46.3558986098
 31
0.0
  0
SPLINE
  5
3B6
100
AcDbEntity
  8
0
100
AcDbSpline
 62
7
  6
CONTINUOUS
 70
0
 71
3
 72
11
 73
7
 74
5
 42
0.0000001
 43
0.0000001
 44
0.0000000001
 12
0.3585770888
 22
-0.0893745271
 32
0.0
 13
0.3641339119
 23
-0.0630224474
 33
0.0
 40
0.0
 40
0.0
 40
0.0
 40
0.0
 40
0.2843614962
 40
0.5413138567
 40
0.7772617616
 40
1.0
 40
1.0
 40
1.0
 40
1.0
 10
-51.1833310297
 20
44.4080237587
 30
0.0
 10
-51.1493425239
 20
44.3995522006
 30
0.0
 10
-51.0844447709
 20
44.3842057994
 30
0.0
 10
-50.9908235906
 20
44.3641259089
 30
0.0
 10
-50.9043137545
 20
44.3471589621
 30
0.0
 10
-50.8487058528
 20
44.3371338909
 30
0.0
 10
-50.8216703374
 20
44.3324547212
 30
0.0
 11
-51.1833310297
 21
44.4080237587
 31
0.0
 11
-51.0810749543
 21
44.3838046038
 31
0.0
 11
-50.9882353586
 21
44.3638679655
 31
0.0
 11
-50.9026746467
 21
44.3470706493
 31
0.0
 11
-50.8216703374
 21
44.3324547212
 31
0.0
  0
SPLINE
  5
3B7
100
AcDbEntity
  8
0
100
AcDbSpline
 62
7
  6
CONTINUOUS
 70
0
 71
3
 72
12
 73
8
 74
6
 42
0.0000001
 43
0.0000001
 44
0.0000000001
 12
-0.4846905088
 22
0.3399843163
 32
0.0
 13
-0.4301881365
 23
0.4067583948
 33
0.0
 40
0.0
 40
0.0
 40
0.0
 40
0.0
 40
0.2112889118
 40
0.4160796887
 40
0.6146197839
 40
0.8089140402
 40
1.0
 40
1.0
 40
1.0
 40
1.0
 10
-51.1833310297
 20
44.4080237587
 30
0.0
 10
-51.2174676064
 20
44.4319687308
 30
0.0
 10
-51.2840675079
 20
44.480019435
 30
0.0
 10
-51.3804369946
 20
44.5536995682
 30
0.0
 10
-51.4720630696
 20
44.6279857318
 30
0.0
 10
-51.5594133059
 20
44.7031710173
 30
0.0
 10
-51.6155204925
 20
44.7545364965
 30
0.0
 10
-51.6429214634
 20
44.7804451025
 30
0.0
 11
-51.1833310297
 21
44.4080237587
 31
0.0
 11
-51.2847567846
 21
44.4812414085
 31
0.0
 11
-51.3810553887
 21
44.5549088156
 31
0.0
 11
-51.4723403277
 21
44.62896075
 31
0.0
 11
-51.5595010713
 21
44.7040274351
 31
0.0
 11
-51.6429214634
 21
44.7804451025
 31
0.0
  0
SPLINE
  5
3B8
100
AcDbEntity
  8
0
100
AcDbSpline
 62
7
  6
CONTINUOUS
 70
0
 71
3
 72
18
 73
14
 74
12
 42
0.0000001
 43
0.0000001
 44
0.0000000001
 12
0.1278471796
 22
-1.688061552
 32
0.0
 13
0.6956974518
 23
-1.543341103
 33
0.0
 40
0.0
 40
0.0
 40
0.0
 40
0.0
 40
0.0994487293
 40
0.1982410428
 40
0.2951515135
 40
0.389225246
 40
0.480723723
 40
0.5709101839
 40
0.6599274556
 40
0.7471425123
 40
0.8326363975
 40
0.9167966359
 40
1.0
 40
1.0
 40
1.0
 40
1.0
 10
-50.0977497297
 20
43.0157616822
 30
0.0
 10
-50.0935116499
 20
42.9598031567
 30
0.0
 10
-50.0835547667
 20
42.8483632089
 30
0.0
 10
-50.0640726645
 20
42.6829310263
 30
0.0
 10
-50.0402444947
 20
42.5211319251
 30
0.0
 10
-50.0123604949
 20
42.3641611888
 30
0.0
 10
-49.9805462606
 20
42.2118135044
 30
0.0
 10
-49.9447262596
 20
42.0632901283
 30
0.0
 10
-49.9048456198
 20
41.9183092292
 30
0.0
 10
-49.8610277053
 20
41.7772390487
 30
0.0
 10
-49.8133976645
 20
41.6403070147
 30
0.0
 10
-49.7618852353
 20
41.50721317
 30
0.0
 10
-49.7246678839
 20
41.4203856864
 30
0.0
 10
-49.7053730944
 20
41.3775819625
 30
0.0
 11
-50.0977497297
 21
43.0157616822
 31
0.0
 11
-50.0827345
 21
42.8480762508
 31
0.0
 11
-50.0631394225
 21
42.6819830271
 31
0.0
 11
-50.0392007786
 21
42.5196795781
 31
0.0
 11
-50.0113118114
 21
42.3628834985
 31
0.0
 11
-49.9796137203
 21
42.2112641199
 31
0.0
 11
-49.9437832145
 21
42.0628517694
 31
0.0
 11
-49.9037787543
 21
41.9175616369
 31
0.0
 11
-49.8599465095
 21
41.7765719901
 31
0.0
 11
-49.8123621304
 21
41.6398856641
 31
0.0
 11
-49.7609008903
 21
41.5070296082
 31
0.0
 11
-49.7053730944
 21
41.3775819625
 31
0.0
  0
SPLINE
  5
3B9
100
AcDbEntity
  8
0
100
AcDbSpline
 62
7
  6
CONTINUOUS
 70
0
 71
3
 72
12
 73
8
 74
6
 42
0.0000001
 43
0.0000001
 44
0.0000000001
 12
-0.7538005872
 22
0.1993050875
 32
0.0
 13
-0.7344507813
 23
0.2617630475
 33
0.0
 40
0.0
 40
0.0
 40
0.0
 40
0.0
 40
0.2031922224
 40
0.4037019467
 40
0.6024734814
 40
0.8012652599
 40
1.0
 40
1.0
 40
1.0
 40
1.0
 10
-48.8967198769
 20
43.4073443093
 30
0.0
 10
-48.9477753491
 20
43.4208433905
 30
0.0
 10
-49.0490035126
 20
43.448460799
 30
0.0
 10
-49.1993897559
 20
43.4921007354
 30
0.0
 10
-49.3479468231
 20
43.5378680776
 30
0.0
 10
-49.4952701872
 20
43.5859973309
 30
0.0
 10
-49.5929089362
 20
43.6197990558
 30
0.0
 10
-49.6415625646
 20
43.6371395262
 30
0.0
 11
-48.8967198769
 21
43.4073443093
 31
0.0
 11
-49.0495600661
 21
43.4490558721
 31
0.0
 11
-49.1997006031
 21
43.4926384732
 31
0.0
 11
-49.3478096628
 21
43.538282809
 31
0.0
 11
-49.495140372
 21
43.5864310581
 31
0.0
 11
-49.6415625646
 21
43.6371395262
 31
0.0
  0
SPLINE
  5
3BA
100
AcDbEntity
  8
0
100
AcDbSpline
 62
7
  6
CONTINUOUS
 70
0
 71
3
 72
17
 73
13
 74
11
 42
0.0000001
 43
0.0000001
 44
0.0000000001
 12
-0.4446982604
 22
-1.6445147598
 32
0.0
 13
-0.1196409239
 23
-1.6993491691
 33
0.0
 40
0.0
 40
0.0
 40
0.0
 40
0.0
 40
0.0090529507
 40
0.1207745843
 40
0.2322793774
 40
0.3435569181
 40
0.4537381009
 40
0.5629470783
 40
0.67258589
 40
0.7828027636
 40
0.8923984533
 40
1.0
 40
1.0
 40
1.0
 40
1.0
 10
-49.8083521622
 20
45.706913304
 30
0.0
 10
-49.809694106
 20
45.7019507337
 30
0.0
 10
-49.8275446317
 20
45.6357314055
 30
0.0
 10
-49.8605332816
 20
45.5080141247
 30
0.0
 10
-49.9043806298
 20
45.3231825137
 30
0.0
 10
-49.9442978553
 20
45.1383567824
 30
0.0
 10
-49.9801597923
 20
44.9540292948
 30
0.0
 10
-50.0120124163
 20
44.7699107834
 30
0.0
 10
-50.0399330485
 20
44.5851338137
 30
0.0
 10
-50.0638048281
 20
44.3995675086
 30
0.0
 10
-50.0833396903
 20
44.2146582905
 30
0.0
 10
-50.0934585469
 20
44.0917249726
 30
0.0
 10
-50.0977497297
 20
44.0307741063
 30
0.0
 11
-49.8083521622
 21
45.706913304
 31
0.0
 11
-49.812366243
 21
45.6920224193
 31
0.0
 11
-49.8599523815
 21
45.5077433148
 31
0.0
 11
-49.9037855212
 21
45.32291526
 31
0.0
 11
-49.9437901038
 21
45.1376169593
 31
0.0
 11
-49.9796208506
 21
44.9533688655
 31
0.0
 11
-50.0113190455
 21
44.7700455694
 31
0.0
 11
-50.0392066137
 21
44.5853634485
 31
0.0
 11
-50.0631427276
 21
44.3991348435
 31
0.0
 11
-50.0827355675
 21
44.2134633949
 31
0.0
 11
-50.0977497297
 21
44.0307741063
 31
0.0
  0
SPLINE
  5
3BB
100
AcDbEntity
  8
0
100
AcDbSpline
 62
7
  6
CONTINUOUS
 70
0
 71
3
 72
10
 73
6
 74
4
 42
0.0000001
 43
0.0000001
 44
0.0000000001
 12
-0.80417572
 22
-0.4015656697
 32
0.0
 13
-0.8643416125
 23
0.2364359748
 33
0.0
 40
0.0
 40
0.0
 40
0.0
 40
0.0
 40
0.2920401134
 40
0.6328640805
 40
1.0
 40
1.0
 40
1.0
 40
1.0
 10
-48.8290936278
 20
41.4365672045
 30
0.0
 10
-48.907377484
 20
41.39747611
 30
0.0
 10
-49.0879751114
 20
41.3345188753
 30
0.0
 10
-49.3891746758
 20
41.3125535848
 30
0.0
 10
-49.5995961435
 20
41.3486472495
 30
0.0
 10
-49.7053730944
 20
41.3775819625
 30
0.0
 11
-48.8290936278
 21
41.4365672045
 31
0.0
 11
-49.0761877325
 21
41.3498180773
 31
0.0
 11
-49.3805969442
 21
41.3251007196
 31
0.0
 11
-49.7053730944
 21
41.3775819625
 31
0.0
  0
SPLINE
  5
3BC
100
AcDbEntity
  8
0
100
AcDbSpline
 62
7
  6
CONTINUOUS
 70
0
 71
3
 72
12
 73
8
 74
6
 42
0.0000001
 43
0.0000001
 44
0.0000000001
 12
-0.4846905088
 22
0.3399843163
 32
0.0
 13
-0.4301881365
 23
0.4067583948
 33
0.0
 40
0.0
 40
0.0
 40
0.0
 40
0.0
 40
0.2112889118
 40
0.4160796887
 40
0.6146197839
 40
0.8089140402
 40
1.0
 40
1.0
 40
1.0
 40
1.0
 10
-51.1833310297
 20
43.8018059761
 30
0.0
 10
-51.2174676064
 20
43.8257509481
 30
0.0
 10
-51.2840675079
 20
43.8738016524
 30
0.0
 10
-51.3804369946
 20
43.9474817855
 30
0.0
 10
-51.4720630696
 20
44.0217679491
 30
0.0
 10
-51.5594133059
 20
44.0969532346
 30
0.0
 10
-51.6155204925
 20
44.1483187138
 30
0.0
 10
-51.6429214634
 20
44.1742273199
 30
0.0
 11
-51.1833310297
 21
43.8018059761
 31
0.0
 11
-51.2847567846
 21
43.8750236259
 31
0.0
 11
-51.3810553887
 21
43.9486910329
 31
0.0
 11
-51.4723403277
 21
44.0227429674
 31
0.0
 11
-51.5595010713
 21
44.0978096525
 31
0.0
 11
-51.6429214634
 21
44.1742273199
 31
0.0
  0
SPLINE
  5
3BD
100
AcDbEntity
  8
0
100
AcDbSpline
 62
7
  6
CONTINUOUS
 70
0
 71
3
 72
18
 73
14
 74
12
 42
0.0000001
 43
0.0000001
 44
0.0000000001
 12
-0.6956974515
 22
1.5433411025
 32
0.0
 13
-0.1278471795
 23
1.6880615514
 33
0.0
 40
0.0
 40
0.0
 40
0.0
 40
0.0
 40
0.0832064168
 40
0.1673706447
 40
0.2528685759
 40
0.3400867613
 40
0.4291060942
 40
0.5192954576
 40
0.610797256
 40
0.7048699557
 40
0.8017738049
 40
0.9005573899
 40
1.0
 40
1.0
 40
1.0
 40
1.0
 10
-50.4124798756
 20
41.7311353531
 30
0.0
 10
-50.431775373
 20
41.7739406474
 30
0.0
 10
-50.468994232
 20
41.8607718114
 30
0.0
 10
-50.5205086386
 20
41.9938716041
 30
0.0
 10
-50.5681402539
 20
42.1308097643
 30
0.0
 10
-50.6119590349
 20
42.2718851358
 30
0.0
 10
-50.6518400827
 20
42.4168706603
 30
0.0
 10
-50.6876602658
 20
42.5653988037
 30
0.0
 10
-50.7194740454
 20
42.7177495774
 30
0.0
 10
-50.7473565248
 20
42.874718099
 30
0.0
 10
-50.7711824607
 20
43.0365081794
 30
0.0
 10
-50.7906626472
 20
43.2019283829
 30
0.0
 10
-50.8006186918
 20
43.3133599905
 30
0.0
 10
-50.8048565109
 20
43.3693150727
 30
0.0
 11
-50.4124798756
 21
41.7311353531
 31
0.0
 11
-50.4680096232
 21
41.8605877849
 31
0.0
 11
-50.5194730242
 21
41.9934502465
 31
0.0
 11
-50.5670591627
 21
42.1301432124
 31
0.0
 11
-50.6108923024
 21
42.2711381276
 31
0.0
 11
-50.650896885
 21
42.4164318457
 31
0.0
 11
-50.6867276318
 21
42.5648491927
 31
0.0
 11
-50.7184258267
 21
42.7164742939
 31
0.0
 11
-50.7463133949
 21
42.8732688465
 31
0.0
 11
-50.7702495088
 21
43.0355613377
 31
0.0
 11
-50.7898423486
 21
43.2016399464
 31
0.0
 11
-50.8048565109
 21
43.3693150727
 31
0.0
  0
SPLINE
  5
3BE
100
AcDbEntity
  8
0
100
AcDbSpline
 62
7
  6
CONTINUOUS
 70
0
 71
3
 72
17
 73
13
 74
11
 42
0.0000001
 43
0.0000001
 44
0.0000000001
 12
0.1300619935
 22
1.8473673837
 32
0.0
 13
0.5103374417
 23
1.780270143
 33
0.0
 40
0.0
 40
0.0
 40
0.0
 40
0.0
 40
0.0989862623
 40
0.1998098983
 40
0.3012031679
 40
0.4020589693
 40
0.5025145917
 40
0.6038648314
 40
0.7062244143
 40
0.8087916628
 40
0.9115570984
 40
1.0
 40
1.0
 40
1.0
 40
1.0
 10
-50.8048565109
 20
44.3843274969
 30
0.0
 10
-50.8005650607
 20
44.445282161
 30
0.0
 10
-50.7904453362
 20
44.5682249141
 30
0.0
 10
-50.7709085425
 20
44.7531480491
 30
0.0
 10
-50.7470345417
 20
44.9387254301
 30
0.0
 10
-50.7191124231
 20
45.1235058987
 30
0.0
 10
-50.6872593651
 20
45.3076216802
 30
0.0
 10
-50.6513976092
 20
45.4919442451
 30
0.0
 10
-50.6114807967
 20
45.6767649355
 30
0.0
 10
-50.567634331
 20
45.8615904419
 30
0.0
 10
-50.522277393
 20
46.0371906893
 30
0.0
 10
-50.4906887335
 20
46.1509265705
 30
0.0
 10
-50.4756434921
 20
46.2034106562
 30
0.0
 11
-50.8048565109
 21
44.3843274969
 31
0.0
 11
-50.7898412812
 21
44.5670281579
 31
0.0
 11
-50.7702462036
 21
44.7527164592
 31
0.0
 11
-50.7463075598
 21
44.9389585521
 31
0.0
 11
-50.7184185926
 21
45.1236435989
 31
0.0
 11
-50.6867205014
 21
45.3069610686
 31
0.0
 11
-50.6508899957
 21
45.4912039248
 31
0.0
 11
-50.6108855355
 21
45.6764985176
 31
0.0
 11
-50.5670532906
 21
45.8613204092
 31
0.0
 11
-50.5194689116
 21
46.0455911142
 31
0.0
 11
-50.4756434921
 21
46.2034106562
 31
0.0
  0
SPLINE
  5
3BF
100
AcDbEntity
  8
0
100
AcDbSpline
 62
7
  6
CONTINUOUS
 70
0
 71
3
 72
9
 73
5
 74
3
 42
0.0000001
 43
0.0000001
 44
0.0000000001
 12
-0.1642762213
 22
-0.1282951516
 32
0.0
 13
-0.1864235189
 23
-0.0930907056
 33
0.0
 40
0.0
 40
0.0
 40
0.0
 40
0.0
 40
0.8496477921
 40
1.0
 40
1.0
 40
1.0
 40
1.0
 10
-48.6533046575
 20
41.5478255295
 30
0.0
 10
-48.6998303004
 20
41.5114902988
 30
0.0
 10
-48.7580882305
 20
41.4732139774
 30
0.0
 10
-48.8197505653
 20
41.4412326689
 30
0.0
 10
-48.8290936278
 20
41.4365672045
 30
0.0
 11
-48.6533046575
 21
41.5478255295
 31
0.0
 11
-48.8012853882
 21
41.4509918933
 31
0.0
 11
-48.8290936278
 21
41.4365672045
 31
0.0
  0
SPLINE
  5
3C0
100
AcDbEntity
  8
0
100
AcDbSpline
 62
7
  6
CONTINUOUS
 70
0
 71
3
 72
12
 73
8
 74
6
 42
0.0000001
 43
0.0000001
 44
0.0000000001
 12
-0.7538005872
 22
0.1993050875
 32
0.0
 13
-0.7344507813
 23
0.2617630475
 33
0.0
 40
0.0
 40
0.0
 40
0.0
 40
0.0
 40
0.2031922224
 40
0.4037019467
 40
0.6024734814
 40
0.8012652599
 40
1.0
 40
1.0
 40
1.0
 40
1.0
 10
-48.8967198769
 20
42.8011265266
 30
0.0
 10
-48.9477753491
 20
42.8146256079
 30
0.0
 10
-49.0490035126
 20
42.8422430163
 30
0.0
 10
-49.1993897559
 20
42.8858829528
 30
0.0
 10
-49.3479468231
 20
42.9316502949
 30
0.0
 10
-49.4952701872
 20
42.9797795482
 30
0.0
 10
-49.5929089362
 20
43.0135812731
 30
0.0
 10
-49.6415625646
 20
43.0309217435
 30
0.0
 11
-48.8967198769
 21
42.8011265266
 31
0.0
 11
-49.0495600661
 21
42.8428380894
 31
0.0
 11
-49.1997006031
 21
42.8864206906
 31
0.0
 11
-49.3478096628
 21
42.9320650263
 31
0.0
 11
-49.495140372
 21
42.9802132754
 31
0.0
 11
-49.6415625646
 21
43.0309217435
 31
0.0
  0
SPLINE
  5
3C1
100
AcDbEntity
  8
0
100
AcDbSpline
 62
7
  6
CONTINUOUS
 70
0
 71
3
 72
9
 73
5
 74
3
 42
0.0000001
 43
0.0000001
 44
0.0000000001
 12
-0.3146349819
 22
0.1676527526
 32
0.0
 13
-0.2882787499
 23
0.2094216566
 33
0.0
 40
0.0
 40
0.0
 40
0.0
 40
0.0
 40
0.2130096085
 40
1.0
 40
1.0
 40
1.0
 40
1.0
 10
22.2967987308
 20
-61.9294915076
 30
0.0
 10
22.2744586393
 20
-61.9175876252
 30
0.0
 10
22.1704977988
 20
-61.8599733487
 30
0.0
 10
22.07087872
 20
-61.7948082369
 30
0.0
 10
21.9952545179
 20
-61.7398706264
 30
0.0
 11
22.2967987308
 21
-61.9294915076
 31
0.0
 11
22.2303663226
 21
-61.8927002314
 31
0.0
 11
21.9952545179
 21
-61.7398706264
 31
0.0
  0
SPLINE
  5
3C2
100
AcDbEntity
  8
0
100
AcDbSpline
 62
7
  6
CONTINUOUS
 70
0
 71
3
 72
15
 73
11
 74
9
 42
0.0000001
 43
0.0000001
 44
0.0000000001
 12
-2.939478045
 22
2.135399719
 32
0.0
 13
-0.0
 23
3.6332441615
 33
0.0
 40
0.0
 40
0.0
 40
0.0
 40
0.0
 40
0.1166507875
 40
0.2400441641
 40
0.3682594671
 40
0.499036013
 40
0.6299439153
 40
0.7585448031
 40
0.8825520476
 40
1.0
 40
1.0
 40
1.0
 40
1.0
 10
21.7124118054
 20
-61.8812919826
 30
0.0
 10
21.5981143291
 20
-61.798259963
 30
0.0
 10
21.3753421289
 20
-61.6098567488
 30
0.0
 10
21.0727927088
 20
-61.2808575522
 30
0.0
 10
20.7995354052
 20
-60.9057804525
 30
0.0
 10
20.5636514772
 20
-60.4957001241
 30
0.0
 10
20.3720335868
 20
-60.0626533649
 30
0.0
 10
20.2303241745
 20
-59.6193300935
 30
0.0
 10
20.1426989976
 20
-59.1788344185
 30
0.0
 10
20.1214215477
 20
-58.8861616335
 30
0.0
 10
20.1214215477
 20
-58.7439226044
 30
0.0
 11
21.7124118054
 21
-61.8812919826
 31
0.0
 11
21.3876356552
 21
-61.6089970753
 31
0.0
 11
21.0832264435
 21
-61.2798705059
 31
0.0
 11
20.8083240992
 21
-60.9037943455
 31
0.0
 11
20.5711826031
 21
-60.492060333
 31
0.0
 11
20.3789221617
 21
-60.057030839
 31
0.0
 11
20.2373154214
 21
-59.6117676846
 31
0.0
 11
20.1506141441
 21
-59.1696399576
 31
0.0
 11
20.1214215477
 21
-58.7439226044
 31
0.0
  0
SPLINE
  5
3C3
100
AcDbEntity
  8
0
100
AcDbSpline
 62
7
  6
CONTINUOUS
 70
0
 71
3
 72
13
 73
9
 74
7
 42
0.0000001
 43
0.0000001
 44
0.0000000001
 12
0.0
 22
1.733890101
 32
0.0
 13
1.5560297276
 23
0.7770044582
 33
0.0
 40
0.0
 40
0.0
 40
0.0
 40
0.0
 40
0.2293097471
 40
0.4403083728
 40
0.6335453992
 40
0.8121488115
 40
0.9819867274
 40
1.0
 40
1.0
 40
1.0
 40
1.0
 10
20.1214215477
 20
-58.7439226044
 30
0.0
 10
20.1214215477
 20
-58.6113899709
 30
0.0
 10
20.1386639436
 20
-58.3563604034
 30
0.0
 10
20.2230658611
 20
-57.9981248083
 30
0.0
 10
20.3635997987
 20
-57.689145979
 30
0.0
 10
20.5578263871
 20
-57.4393506361
 30
0.0
 10
20.7301060576
 20
-57.311339159
 30
0.0
 10
20.8267892762
 20
-57.2611941903
 30
0.0
 10
20.8361323388
 20
-57.2565287259
 30
0.0
 11
20.1214215477
 21
-58.7439226044
 31
0.0
 11
20.1506141441
 21
-58.3473978476
 31
0.0
 11
20.2373154214
 21
-57.9919713979
 31
0.0
 11
20.3789221617
 21
-57.6883149838
 31
0.0
 11
20.5711826031
 21
-57.4455459312
 31
0.0
 11
20.8083240992
 21
-57.2709534147
 31
0.0
 11
20.8361323388
 21
-57.2565287259
 31
0.0
  0
SPLINE
  5
3C4
100
AcDbEntity
  8
0
100
AcDbSpline
 62
7
  6
CONTINUOUS
 70
0
 71
3
 72
11
 73
7
 74
5
 42
0.0000001
 43
0.0000001
 44
0.0000000001
 12
0.3585770888
 22
-0.0893745271
 32
0.0
 13
0.3641339119
 23
-0.0630224474
 33
0.0
 40
0.0
 40
0.0
 40
0.0
 40
0.0
 40
0.2843614962
 40
0.5413138567
 40
0.7772617616
 40
1.0
 40
1.0
 40
1.0
 40
1.0
 10
20.9415606513
 20
-59.204403577
 30
0.0
 10
20.9755491572
 20
-59.2128751351
 30
0.0
 10
21.0404469102
 20
-59.2282215363
 30
0.0
 10
21.1340680905
 20
-59.2483014268
 30
0.0
 10
21.2205779265
 20
-59.2652683736
 30
0.0
 10
21.2761858283
 20
-59.2752934448
 30
0.0
 10
21.3032213436
 20
-59.2799726145
 30
0.0
 11
20.9415606513
 21
-59.204403577
 31
0.0
 11
21.0438167268
 21
-59.2286227319
 31
0.0
 11
21.1366563224
 21
-59.2485593702
 31
0.0
 11
21.2222170343
 21
-59.2653566864
 31
0.0
 11
21.3032213436
 21
-59.2799726145
 31
0.0
  0
SPLINE
  5
3C5
100
AcDbEntity
  8
0
100
AcDbSpline
 62
7
  6
CONTINUOUS
 70
0
 71
3
 72
12
 73
8
 74
6
 42
0.0000001
 43
0.0000001
 44
0.0000000001
 12
-0.4846905088
 22
0.3399843163
 32
0.0
 13
-0.4301881365
 23
0.4067583948
 33
0.0
 40
0.0
 40
0.0
 40
0.0
 40
0.0
 40
0.2112889118
 40
0.4160796887
 40
0.6146197839
 40
0.8089140402
 40
1.0
 40
1.0
 40
1.0
 40
1.0
 10
20.9415606513
 20
-59.204403577
 30
0.0
 10
20.9074240746
 20
-59.1804586049
 30
0.0
 10
20.8408241731
 20
-59.1324079007
 30
0.0
 10
20.7444546864
 20
-59.0587277675
 30
0.0
 10
20.6528286114
 20
-58.9844416039
 30
0.0
 10
20.5654783751
 20
-58.9092563184
 30
0.0
 10
20.5093711886
 20
-58.8578908392
 30
0.0
 10
20.4819702176
 20
-58.8319822332
 30
0.0
 11
20.9415606513
 21
-59.204403577
 31
0.0
 11
20.8401348964
 21
-59.1311859272
 31
0.0
 11
20.7438362923
 21
-59.0575185201
 31
0.0
 11
20.6525513533
 21
-58.9834665857
 31
0.0
 11
20.5653906098
 21
-58.9083999006
 31
0.0
 11
20.4819702176
 21
-58.8319822332
 31
0.0
  0
SPLINE
  5
3C6
100
AcDbEntity
  8
0
100
AcDbSpline
 62
7
  6
CONTINUOUS
 70
0
 71
3
 72
18
 73
14
 74
12
 42
0.0000001
 43
0.0000001
 44
0.0000000001
 12
0.1278471796
 22
-1.688061552
 32
0.0
 13
0.6956974518
 23
-1.543341103
 33
0.0
 40
0.0
 40
0.0
 40
0.0
 40
0.0
 40
0.0994487293
 40
0.1982410428
 40
0.2951515135
 40
0.389225246
 40
0.480723723
 40
0.5709101839
 40
0.6599274556
 40
0.7471425123
 40
0.8326363975
 40
0.9167966359
 40
1.0
 40
1.0
 40
1.0
 40
1.0
 10
22.0271419513
 20
-60.5966656535
 30
0.0
 10
22.0313800312
 20
-60.652624179
 30
0.0
 10
22.0413369143
 20
-60.7640641268
 30
0.0
 10
22.0608190165
 20
-60.9294963094
 30
0.0
 10
22.0846471864
 20
-61.0912954106
 30
0.0
 10
22.1125311862
 20
-61.2482661469
 30
0.0
 10
22.1443454205
 20
-61.4006138313
 30
0.0
 10
22.1801654214
 20
-61.5491372074
 30
0.0
 10
22.2200460612
 20
-61.6941181065
 30
0.0
 10
22.2638639757
 20
-61.835188287
 30
0.0
 10
22.3114940166
 20
-61.972120321
 30
0.0
 10
22.3630064457
 20
-62.1052141657
 30
0.0
 10
22.4002237971
 20
-62.1920416493
 30
0.0
 10
22.4195185866
 20
-62.2348453732
 30
0.0
 11
22.0271419513
 21
-60.5966656535
 31
0.0
 11
22.042157181
 21
-60.7643510849
 31
0.0
 11
22.0617522586
 21
-60.9304443086
 31
0.0
 11
22.0856909025
 21
-61.0927477576
 31
0.0
 11
22.1135798696
 21
-61.2495438372
 31
0.0
 11
22.1452779608
 21
-61.4011632158
 31
0.0
 11
22.1811084665
 21
-61.5495755663
 31
0.0
 11
22.2211129268
 21
-61.6948656988
 31
0.0
 11
22.2649451716
 21
-61.8358553456
 31
0.0
 11
22.3125295506
 21
-61.9725416716
 31
0.0
 11
22.3639907908
 21
-62.1053977275
 31
0.0
 11
22.4195185866
 21
-62.2348453732
 31
0.0
  0
SPLINE
  5
3C7
100
AcDbEntity
  8
0
100
AcDbSpline
 62
7
  6
CONTINUOUS
 70
0
 71
3
 72
12
 73
8
 74
6
 42
0.0000001
 43
0.0000001
 44
0.0000000001
 12
-0.7538005872
 22
0.1993050875
 32
0.0
 13
-0.7344507813
 23
0.2617630475
 33
0.0
 40
0.0
 40
0.0
 40
0.0
 40
0.0
 40
0.2031922224
 40
0.4037019467
 40
0.6024734814
 40
0.8012652599
 40
1.0
 40
1.0
 40
1.0
 40
1.0
 10
23.2281718041
 20
-60.2050830264
 30
0.0
 10
23.1771163319
 20
-60.1915839452
 30
0.0
 10
23.0758881684
 20
-60.1639665367
 30
0.0
 10
22.9255019252
 20
-60.1203266003
 30
0.0
 10
22.7769448579
 20
-60.0745592581
 30
0.0
 10
22.6296214938
 20
-60.0264300048
 30
0.0
 10
22.5319827448
 20
-59.9926282799
 30
0.0
 10
22.4833291165
 20
-59.9752878095
 30
0.0
 11
23.2281718041
 21
-60.2050830264
 31
0.0
 11
23.0753316149
 21
-60.1633714636
 31
0.0
 11
22.925191078
 21
-60.1197888625
 31
0.0
 11
22.7770820182
 21
-60.0741445267
 31
0.0
 11
22.629751309
 21
-60.0259962776
 31
0.0
 11
22.4833291165
 21
-59.9752878095
 31
0.0
  0
SPLINE
  5
3C8
100
AcDbEntity
  8
0
100
AcDbSpline
 62
7
  6
CONTINUOUS
 70
0
 71
3
 72
17
 73
13
 74
11
 42
0.0000001
 43
0.0000001
 44
0.0000000001
 12
-0.4446982604
 22
-1.6445147598
 32
0.0
 13
-0.1196409239
 23
-1.6993491691
 33
0.0
 40
0.0
 40
0.0
 40
0.0
 40
0.0
 40
0.0090529507
 40
0.1207745843
 40
0.2322793774
 40
0.3435569181
 40
0.4537381009
 40
0.5629470783
 40
0.67258589
 40
0.7828027636
 40
0.8923984533
 40
1.0
 40
1.0
 40
1.0
 40
1.0
 10
22.3165395188
 20
-57.9055140317
 30
0.0
 10
22.315197575
 20
-57.910476602
 30
0.0
 10
22.2973470493
 20
-57.9766959302
 30
0.0
 10
22.2643583994
 20
-58.104413211
 30
0.0
 10
22.2205110513
 20
-58.289244822
 30
0.0
 10
22.1805938257
 20
-58.4740705533
 30
0.0
 10
22.1447318887
 20
-58.6583980409
 30
0.0
 10
22.1128792647
 20
-58.8425165523
 30
0.0
 10
22.0849586325
 20
-59.027293522
 30
0.0
 10
22.0610868529
 20
-59.2128598271
 30
0.0
 10
22.0415519907
 20
-59.3977690452
 30
0.0
 10
22.0314331341
 20
-59.5207023631
 30
0.0
 10
22.0271419513
 20
-59.5816532294
 30
0.0
 11
22.3165395188
 21
-57.9055140317
 31
0.0
 11
22.312525438
 21
-57.9204049164
 31
0.0
 11
22.2649392995
 21
-58.1046840209
 31
0.0
 11
22.2211061599
 21
-58.2895120757
 31
0.0
 11
22.1811015773
 21
-58.4748103764
 31
0.0
 11
22.1452708304
 21
-58.6590584702
 31
0.0
 11
22.1135726355
 21
-58.8423817663
 31
0.0
 11
22.0856850673
 21
-59.0270638872
 31
0.0
 11
22.0617489535
 21
-59.2132924922
 31
0.0
 11
22.0421561136
 21
-59.3989639408
 31
0.0
 11
22.0271419513
 21
-59.5816532294
 31
0.0
  0
SPLINE
  5
3C9
100
AcDbEntity
  8
0
100
AcDbSpline
 62
7
  6
CONTINUOUS
 70
0
 71
3
 72
10
 73
6
 74
4
 42
0.0000001
 43
0.0000001
 44
0.0000000001
 12
-0.80417572
 22
-0.4015656697
 32
0.0
 13
-0.8643416125
 23
0.2364359748
 33
0.0
 40
0.0
 40
0.0
 40
0.0
 40
0.0
 40
0.2920401134
 40
0.6328640805
 40
1.0
 40
1.0
 40
1.0
 40
1.0
 10
23.2957980532
 20
-62.1758601312
 30
0.0
 10
23.2175141971
 20
-62.2149512257
 30
0.0
 10
23.0369165696
 20
-62.2779084604
 30
0.0
 10
22.7357170052
 20
-62.2998737509
 30
0.0
 10
22.5252955375
 20
-62.2637800862
 30
0.0
 10
22.4195185866
 20
-62.2348453732
 30
0.0
 11
23.2957980532
 21
-62.1758601312
 31
0.0
 11
23.0487039485
 21
-62.2626092584
 31
0.0
 11
22.7442947368
 21
-62.2873266161
 31
0.0
 11
22.4195185866
 21
-62.2348453732
 31
0.0
  0
SPLINE
  5
3CA
100
AcDbEntity
  8
0
100
AcDbSpline
 62
7
  6
CONTINUOUS
 70
0
 71
3
 72
12
 73
8
 74
6
 42
0.0000001
 43
0.0000001
 44
0.0000000001
 12
-0.4846905088
 22
0.3399843163
 32
0.0
 13
-0.4301881365
 23
0.4067583948
 33
0.0
 40
0.0
 40
0.0
 40
0.0
 40
0.0
 40
0.2112889118
 40
0.4160796887
 40
0.6146197839
 40
0.8089140402
 40
1.0
 40
1.0
 40
1.0
 40
1.0
 10
20.9415606513
 20
-59.8106213596
 30
0.0
 10
20.9074240746
 20
-59.7866763876
 30
0.0
 10
20.8408241731
 20
-59.7386256833
 30
0.0
 10
20.7444546864
 20
-59.6649455502
 30
0.0
 10
20.6528286114
 20
-59.5906593866
 30
0.0
 10
20.5654783751
 20
-59.5154741011
 30
0.0
 10
20.5093711886
 20
-59.4641086219
 30
0.0
 10
20.4819702176
 20
-59.4382000158
 30
0.0
 11
20.9415606513
 21
-59.8106213596
 31
0.0
 11
20.8401348964
 21
-59.7374037098
 31
0.0
 11
20.7438362923
 21
-59.6637363028
 31
0.0
 11
20.6525513533
 21
-59.5896843683
 31
0.0
 11
20.5653906098
 21
-59.5146176832
 31
0.0
 11
20.4819702176
 21
-59.4382000158
 31
0.0
  0
SPLINE
  5
3CB
100
AcDbEntity
  8
0
100
AcDbSpline
 62
7
  6
CONTINUOUS
 70
0
 71
3
 72
18
 73
14
 74
12
 42
0.0000001
 43
0.0000001
 44
0.0000000001
 12
-0.6956974515
 22
1.5433411025
 32
0.0
 13
-0.1278471795
 23
1.6880615514
 33
0.0
 40
0.0
 40
0.0
 40
0.0
 40
0.0
 40
0.0832064168
 40
0.1673706447
 40
0.2528685759
 40
0.3400867613
 40
0.4291060942
 40
0.5192954576
 40
0.610797256
 40
0.7048699557
 40
0.8017738049
 40
0.9005573899
 40
1.0
 40
1.0
 40
1.0
 40
1.0
 10
21.7124118054
 20
-61.8812919826
 30
0.0
 10
21.693116308
 20
-61.8384866883
 30
0.0
 10
21.655897449
 20
-61.7516555243
 30
0.0
 10
21.6043830424
 20
-61.6185557316
 30
0.0
 10
21.5567514271
 20
-61.4816175714
 30
0.0
 10
21.5129326461
 20
-61.3405421999
 30
0.0
 10
21.4730515983
 20
-61.1955566754
 30
0.0
 10
21.4372314153
 20
-61.047028532
 30
0.0
 10
21.4054176356
 20
-60.8946777583
 30
0.0
 10
21.3775351562
 20
-60.7377092367
 30
0.0
 10
21.3537092203
 20
-60.5759191563
 30
0.0
 10
21.3342290338
 20
-60.4104989528
 30
0.0
 10
21.3242729892
 20
-60.2990673452
 30
0.0
 10
21.3200351701
 20
-60.243112263
 30
0.0
 11
21.7124118054
 21
-61.8812919826
 31
0.0
 11
21.6568820578
 21
-61.7518395508
 31
0.0
 11
21.6054186568
 21
-61.6189770892
 31
0.0
 11
21.5578325183
 21
-61.4822841233
 31
0.0
 11
21.5139993787
 21
-61.3412892081
 31
0.0
 11
21.4739947961
 21
-61.19599549
 31
0.0
 11
21.4381640493
 21
-61.047578143
 31
0.0
 11
21.4064658543
 21
-60.8959530418
 31
0.0
 11
21.3785782861
 21
-60.7391584892
 31
0.0
 11
21.3546421723
 21
-60.576865998
 31
0.0
 11
21.3350493324
 21
-60.4107873893
 31
0.0
 11
21.3200351701
 21
-60.243112263
 31
0.0
  0
SPLINE
  5
3CC
100
AcDbEntity
  8
0
100
AcDbSpline
 62
7
  6
CONTINUOUS
 70
0
 71
3
 72
17
 73
13
 74
11
 42
0.0000001
 43
0.0000001
 44
0.0000000001
 12
0.1300619935
 22
1.8473673837
 32
0.0
 13
0.5103374417
 23
1.780270143
 33
0.0
 40
0.0
 40
0.0
 40
0.0
 40
0.0
 40
0.0989862623
 40
0.1998098983
 40
0.3012031679
 40
0.4020589693
 40
0.5025145917
 40
0.6038648314
 40
0.7062244143
 40
0.8087916628
 40
0.9115570984
 40
1.0
 40
1.0
 40
1.0
 40
1.0
 10
21.3200351701
 20
-59.2280998388
 30
0.0
 10
21.3243266203
 20
-59.1671451747
 30
0.0
 10
21.3344463448
 20
-59.0442024216
 30
0.0
 10
21.3539831386
 20
-58.8592792866
 30
0.0
 10
21.3778571393
 20
-58.6737019056
 30
0.0
 10
21.405779258
 20
-58.488921437
 30
0.0
 10
21.4376323159
 20
-58.3048056555
 30
0.0
 10
21.4734940719
 20
-58.1204830906
 30
0.0
 10
21.5134108843
 20
-57.9356624002
 30
0.0
 10
21.55725735
 20
-57.7508368938
 30
0.0
 10
21.602614288
 20
-57.5752366464
 30
0.0
 10
21.6342029476
 20
-57.4615007652
 30
0.0
 10
21.649248189
 20
-57.4090166795
 30
0.0
 11
21.3200351701
 21
-59.2280998388
 31
0.0
 11
21.3350503998
 21
-59.0453991778
 31
0.0
 11
21.3546454774
 21
-58.8597108765
 31
0.0
 11
21.3785841213
 21
-58.6734687836
 31
0.0
 11
21.4064730884
 21
-58.4887837368
 31
0.0
 11
21.4381711796
 21
-58.3054662671
 31
0.0
 11
21.4740016853
 21
-58.1212234109
 31
0.0
 11
21.5140061456
 21
-57.9359288181
 31
0.0
 11
21.5578383904
 21
-57.7511069265
 31
0.0
 11
21.6054227694
 21
-57.5668362215
 31
0.0
 11
21.649248189
 21
-57.4090166795
 31
0.0
  0
SPLINE
  5
3CD
100
AcDbEntity
  8
0
100
AcDbSpline
 62
7
  6
CONTINUOUS
 70
0
 71
3
 72
9
 73
5
 74
3
 42
0.0000001
 43
0.0000001
 44
0.0000000001
 12
-0.1642762213
 22
-0.1282951516
 32
0.0
 13
-0.1864235189
 23
-0.0930907056
 33
0.0
 40
0.0
 40
0.0
 40
0.0
 40
0.0
 40
0.8496477921
 40
1.0
 40
1.0
 40
1.0
 40
1.0
 10
23.4715870236
 20
-62.0646018062
 30
0.0
 10
23.4250613807
 20
-62.1009370369
 30
0.0
 10
23.3668034505
 20
-62.1392133583
 30
0.0
 10
23.3051411158
 20
-62.1711946668
 30
0.0
 10
23.2957980532
 20
-62.1758601312
 30
0.0
 11
23.4715870236
 21
-62.0646018062
 31
0.0
 11
23.3236062929
 21
-62.1614354424
 31
0.0
 11
23.2957980532
 21
-62.1758601312
 31
0.0
  0
SPLINE
  5
3CE
100
AcDbEntity
  8
0
100
AcDbSpline
 62
7
  6
CONTINUOUS
 70
0
 71
3
 72
12
 73
8
 74
6
 42
0.0000001
 43
0.0000001
 44
0.0000000001
 12
-0.7538005872
 22
0.1993050875
 32
0.0
 13
-0.7344507813
 23
0.2617630475
 33
0.0
 40
0.0
 40
0.0
 40
0.0
 40
0.0
 40
0.2031922224
 40
0.4037019467
 40
0.6024734814
 40
0.8012652599
 40
1.0
 40
1.0
 40
1.0
 40
1.0
 10
23.2281718041
 20
-60.8113008091
 30
0.0
 10
23.1771163319
 20
-60.7978017278
 30
0.0
 10
23.0758881684
 20
-60.7701843194
 30
0.0
 10
22.9255019252
 20
-60.7265443829
 30
0.0
 10
22.7769448579
 20
-60.6807770408
 30
0.0
 10
22.6296214938
 20
-60.6326477875
 30
0.0
 10
22.5319827448
 20
-60.5988460626
 30
0.0
 10
22.4833291165
 20
-60.5815055922
 30
0.0
 11
23.2281718041
 21
-60.8113008091
 31
0.0
 11
23.0753316149
 21
-60.7695892463
 31
0.0
 11
22.925191078
 21
-60.7260066451
 31
0.0
 11
22.7770820182
 21
-60.6803623094
 31
0.0
 11
22.629751309
 21
-60.6322140603
 31
0.0
 11
22.4833291165
 21
-60.5815055922
 31
0.0
  0
SPLINE
  5
3CF
100
AcDbEntity
  8
0
100
AcDbSpline
 62
7
  6
CONTINUOUS
 70
0
 71
3
 72
9
 73
5
 74
3
 42
0.0000001
 43
0.0000001
 44
0.0000000001
 12
-0.3146349819
 22
0.1676527526
 32
0.0
 13
-0.2882787499
 23
0.2094216566
 33
0.0
 40
0.0
 40
0.0
 40
0.0
 40
0.0
 40
0.2130096085
 40
1.0
 40
1.0
 40
1.0
 40
1.0
 10
22.2967987308
 20
5.6204899876
 30
0.0
 10
22.2744586393
 20
5.63239387
 30
0.0
 10
22.1704977988
 20
5.6900081465
 30
0.0
 10
22.07087872
 20
5.7551732583
 30
0.0
 10
21.9952545179
 20
5.8101108688
 30
0.0
 11
22.2967987308
 21
5.6204899876
 31
0.0
 11
22.2303663226
 21
5.6572812637
 31
0.0
 11
21.9952545179
 21
5.8101108688
 31
0.0
  0
SPLINE
  5
3D0
100
AcDbEntity
  8
0
100
AcDbSpline
 62
7
  6
CONTINUOUS
 70
0
 71
3
 72
13
 73
9
 74
7
 42
0.0000001
 43
0.0000001
 44
0.0000000001
 12
1.5844559186
 22
-0.7699815871
 32
0.0
 13
0.6472073107
 23
-1.6372873306
 33
0.0
 40
0.0
 40
0.0
 40
0.0
 40
0.0
 40
0.0353319757
 40
0.2369535439
 40
0.4430267991
 40
0.6476697239
 40
0.8442018518
 40
1.0
 40
1.0
 40
1.0
 40
1.0
 10
41.6469531827
 20
18.6705853538
 30
0.0
 10
41.6656138354
 20
18.6615170302
 30
0.0
 10
41.7897713334
 20
18.5986738539
 30
0.0
 10
42.0089958073
 20
18.457240832
 30
0.0
 10
42.2786118327
 20
18.2182667545
 30
0.0
 10
42.5104205739
 20
17.9465867706
 30
0.0
 10
42.6878066903
 20
17.6712216187
 30
0.0
 10
42.7767803544
 20
17.4841479368
 30
0.0
 10
42.8103915879
 20
17.3991191587
 30
0.0
 11
41.6469531827
 21
18.6705853538
 31
0.0
 11
41.7024863872
 21
18.6424913817
 31
0.0
 11
42.0013560387
 21
18.4515803403
 31
0.0
 11
42.2731857714
 21
18.2118015569
 31
0.0
 11
42.5069136635
 21
17.938051651
 31
0.0
 11
42.6935495006
 21
17.6470743589
 31
0.0
 11
42.8103915879
 21
17.3991191587
 31
0.0
  0
SPLINE
  5
3D1
100
AcDbEntity
  8
0
100
AcDbSpline
 62
7
  6
CONTINUOUS
 70
0
 71
3
 72
11
 73
7
 74
5
 42
0.0000001
 43
0.0000001
 44
0.0000000001
 12
0.7140436277
 22
-0.1962816068
 32
0.0
 13
0.5772806932
 23
-0.463115251
 33
0.0
 40
0.0
 40
0.0
 40
0.0
 40
0.0
 40
0.2127109835
 40
0.5574818601
 40
0.8962850477
 40
1.0
 40
1.0
 40
1.0
 40
1.0
 10
41.9110020273
 20
19.1957084251
 30
0.0
 10
41.9616303348
 20
19.1817913406
 30
0.0
 10
42.0923634454
 20
19.1383217809
 30
0.0
 10
42.2924586355
 20
19.042707211
 30
0.0
 10
42.4553162231
 20
18.9361507304
 30
0.0
 10
42.5417102879
 20
18.8693835722
 30
0.0
 10
42.5616678344
 20
18.8533729135
 30
0.0
 11
41.9110020273
 21
19.1957084251
 31
0.0
 11
42.0604809128
 21
19.146289483
 31
0.0
 11
42.2909407175
 21
19.037085613
 31
0.0
 11
42.5009305589
 21
18.9003030043
 31
0.0
 11
42.5616678344
 21
18.8533729135
 31
0.0
  0
SPLINE
  5
3D2
100
AcDbEntity
  8
0
100
AcDbSpline
 62
7
  6
CONTINUOUS
 70
0
 71
3
 72
12
 73
8
 74
6
 42
0.0000001
 43
0.0000001
 44
0.0000000001
 12
0.7102149643
 22
-0.5697598852
 32
0.0
 13
0.3629237571
 23
-0.8345245342
 33
0.0
 40
0.0
 40
0.0
 40
0.0
 40
0.0
 40
0.180010187
 40
0.4265761774
 40
0.6489740782
 40
0.8415822725
 40
1.0
 40
1.0
 40
1.0
 40
1.0
 10
42.5616678344
 20
18.8533729135
 30
0.0
 10
42.604283144
 20
18.8191853857
 30
0.0
 10
42.702125702
 20
18.7342571874
 30
0.0
 10
42.8389431872
 20
18.5922304283
 30
0.0
 10
42.963272909
 20
18.4342806412
 30
0.0
 10
43.057256768
 20
18.2876140819
 30
0.0
 10
43.1057182451
 20
18.1925410054
 30
0.0
 10
43.124882764
 20
18.1484731787
 30
0.0
 11
42.5616678344
 21
18.8533729135
 31
0.0
 11
42.6854511961
 21
18.7460072949
 31
0.0
 11
42.8410708957
 21
18.5843613872
 31
0.0
 11
42.9660072417
 21
18.4251394098
 31
0.0
 11
43.0601293924
 21
18.2772764012
 31
0.0
 11
43.124882764
 21
18.1484731787
 31
0.0
  0
SPLINE
  5
3D3
100
AcDbEntity
  8
0
100
AcDbSpline
 62
7
  6
CONTINUOUS
 70
0
 71
3
 72
15
 73
11
 74
9
 42
0.0000001
 43
0.0000001
 44
0.0000000001
 12
-2.939478045
 22
2.135399719
 32
0.0
 13
0.0
 23
3.6332441615
 33
0.0
 40
0.0
 40
0.0
 40
0.0
 40
0.0
 40
0.1166507875
 40
0.2400441641
 40
0.3682594671
 40
0.499036013
 40
0.6299439153
 40
0.7585448031
 40
0.8825520476
 40
1.0
 40
1.0
 40
1.0
 40
1.0
 10
21.7124118054
 20
5.6686895126
 30
0.0
 10
21.5981143291
 20
5.7517215322
 30
0.0
 10
21.3753421289
 20
5.9401247463
 30
0.0
 10
21.0727927088
 20
6.269123943
 30
0.0
 10
20.7995354052
 20
6.6442010427
 30
0.0
 10
20.5636514772
 20
7.0542813711
 30
0.0
 10
20.3720335868
 20
7.4873281303
 30
0.0
 10
20.2303241745
 20
7.9306514017
 30
0.0
 10
20.1426989976
 20
8.3711470767
 30
0.0
 10
20.1214215477
 20
8.6638198617
 30
0.0
 10
20.1214215477
 20
8.8060588908
 30
0.0
 11
21.7124118054
 21
5.6686895126
 31
0.0
 11
21.3876356552
 21
5.9409844199
 31
0.0
 11
21.0832264435
 21
6.2701109893
 31
0.0
 11
20.8083240992
 21
6.6461871496
 31
0.0
 11
20.5711826031
 21
7.0579211622
 31
0.0
 11
20.3789221617
 21
7.4929506562
 31
0.0
 11
20.2373154214
 21
7.9382138106
 31
0.0
 11
20.1506141441
 21
8.3803415376
 31
0.0
 11
20.1214215477
 21
8.8060588908
 31
0.0
  0
SPLINE
  5
3D4
100
AcDbEntity
  8
0
100
AcDbSpline
 62
7
  6
CONTINUOUS
 70
0
 71
3
 72
13
 73
9
 74
7
 42
0.0000001
 43
0.0000001
 44
0.0000000001
 12
0.0
 22
1.733890101
 32
0.0
 13
1.5560297276
 23
0.7770044582
 33
0.0
 40
0.0
 40
0.0
 40
0.0
 40
0.0
 40
0.2293097471
 40
0.4403083728
 40
0.6335453992
 40
0.8121488115
 40
0.9819867274
 40
1.0
 40
1.0
 40
1.0
 40
1.0
 10
20.1214215477
 20
8.8060588908
 30
0.0
 10
20.1214215477
 20
8.9385915243
 30
0.0
 10
20.1386639436
 20
9.1936210918
 30
0.0
 10
20.2230658611
 20
9.5518566869
 30
0.0
 10
20.3635997987
 20
9.8608355162
 30
0.0
 10
20.5578263871
 20
10.110630859
 30
0.0
 10
20.7301060576
 20
10.2386423362
 30
0.0
 10
20.8267892762
 20
10.2887873049
 30
0.0
 10
20.8361323388
 20
10.2934527693
 30
0.0
 11
20.1214215477
 21
8.8060588908
 31
0.0
 11
20.1506141441
 21
9.2025836476
 31
0.0
 11
20.2373154214
 21
9.5580100973
 31
0.0
 11
20.3789221617
 21
9.8616665114
 31
0.0
 11
20.5711826031
 21
10.104435564
 31
0.0
 11
20.8083240992
 21
10.2790280805
 31
0.0
 11
20.8361323388
 21
10.2934527693
 31
0.0
  0
SPLINE
  5
3D5
100
AcDbEntity
  8
0
100
AcDbSpline
 62
7
  6
CONTINUOUS
 70
0
 71
3
 72
11
 73
7
 74
5
 42
0.0000001
 43
0.0000001
 44
0.0000000001
 12
0.3585770888
 22
-0.0893745271
 32
0.0
 13
0.3641339119
 23
-0.0630224474
 33
0.0
 40
0.0
 40
0.0
 40
0.0
 40
0.0
 40
0.2843614962
 40
0.5413138567
 40
0.7772617616
 40
1.0
 40
1.0
 40
1.0
 40
1.0
 10
20.9415606513
 20
8.3455779182
 30
0.0
 10
20.9755491572
 20
8.3371063601
 30
0.0
 10
21.0404469102
 20
8.3217599589
 30
0.0
 10
21.1340680905
 20
8.3016800684
 30
0.0
 10
21.2205779265
 20
8.2847131216
 30
0.0
 10
21.2761858283
 20
8.2746880503
 30
0.0
 10
21.3032213436
 20
8.2700088807
 30
0.0
 11
20.9415606513
 21
8.3455779182
 31
0.0
 11
21.0438167268
 21
8.3213587633
 31
0.0
 11
21.1366563224
 21
8.301422125
 31
0.0
 11
21.2222170343
 21
8.2846248087
 31
0.0
 11
21.3032213436
 21
8.2700088807
 31
0.0
  0
SPLINE
  5
3D6
100
AcDbEntity
  8
0
100
AcDbSpline
 62
7
  6
CONTINUOUS
 70
0
 71
3
 72
12
 73
8
 74
6
 42
0.0000001
 43
0.0000001
 44
0.0000000001
 12
-0.4846905088
 22
0.3399843163
 32
0.0
 13
-0.4301881365
 23
0.4067583948
 33
0.0
 40
0.0
 40
0.0
 40
0.0
 40
0.0
 40
0.2112889118
 40
0.4160796887
 40
0.6146197839
 40
0.8089140402
 40
1.0
 40
1.0
 40
1.0
 40
1.0
 10
20.9415606513
 20
8.3455779182
 30
0.0
 10
20.9074240746
 20
8.3695228903
 30
0.0
 10
20.8408241731
 20
8.4175735945
 30
0.0
 10
20.7444546864
 20
8.4912537276
 30
0.0
 10
20.6528286114
 20
8.5655398912
 30
0.0
 10
20.5654783751
 20
8.6407251767
 30
0.0
 10
20.5093711886
 20
8.6920906559
 30
0.0
 10
20.4819702176
 20
8.717999262
 30
0.0
 11
20.9415606513
 21
8.3455779182
 31
0.0
 11
20.8401348964
 21
8.418795568
 31
0.0
 11
20.7438362923
 21
8.4924629751
 31
0.0
 11
20.6525513533
 21
8.5665149095
 31
0.0
 11
20.5653906098
 21
8.6415815946
 31
0.0
 11
20.4819702176
 21
8.717999262
 31
0.0
  0
SPLINE
  5
3D7
100
AcDbEntity
  8
0
100
AcDbSpline
 62
7
  6
CONTINUOUS
 70
0
 71
3
 72
18
 73
14
 74
12
 42
0.0000001
 43
0.0000001
 44
0.0000000001
 12
0.1278471796
 22
-1.688061552
 32
0.0
 13
0.6956974518
 23
-1.543341103
 33
0.0
 40
0.0
 40
0.0
 40
0.0
 40
0.0
 40
0.0994487293
 40
0.1982410428
 40
0.2951515135
 40
0.389225246
 40
0.480723723
 40
0.5709101839
 40
0.6599274556
 40
0.7471425123
 40
0.8326363975
 40
0.9167966359
 40
1.0
 40
1.0
 40
1.0
 40
1.0
 10
22.0271419513
 20
6.9533158416
 30
0.0
 10
22.0313800312
 20
6.8973573162
 30
0.0
 10
22.0413369143
 20
6.7859173684
 30
0.0
 10
22.0608190165
 20
6.6204851858
 30
0.0
 10
22.0846471864
 20
6.4586860846
 30
0.0
 10
22.1125311862
 20
6.3017153483
 30
0.0
 10
22.1443454205
 20
6.1493676638
 30
0.0
 10
22.1801654214
 20
6.0008442878
 30
0.0
 10
22.2200460612
 20
5.8558633887
 30
0.0
 10
22.2638639757
 20
5.7147932081
 30
0.0
 10
22.3114940166
 20
5.5778611742
 30
0.0
 10
22.3630064457
 20
5.4447673295
 30
0.0
 10
22.4002237971
 20
5.3579398458
 30
0.0
 10
22.4195185866
 20
5.315136122
 30
0.0
 11
22.0271419513
 21
6.9533158416
 31
0.0
 11
22.042157181
 21
6.7856304103
 31
0.0
 11
22.0617522586
 21
6.6195371866
 31
0.0
 11
22.0856909025
 21
6.4572337376
 31
0.0
 11
22.1135798696
 21
6.300437658
 31
0.0
 11
22.1452779608
 21
6.1488182794
 31
0.0
 11
22.1811084665
 21
6.0004059289
 31
0.0
 11
22.2211129268
 21
5.8551157964
 31
0.0
 11
22.2649451716
 21
5.7141261495
 31
0.0
 11
22.3125295506
 21
5.5774398236
 31
0.0
 11
22.3639907908
 21
5.4445837677
 31
0.0
 11
22.4195185866
 21
5.315136122
 31
0.0
  0
SPLINE
  5
3D8
100
AcDbEntity
  8
0
100
AcDbSpline
 62
7
  6
CONTINUOUS
 70
0
 71
3
 72
12
 73
8
 74
6
 42
0.0000001
 43
0.0000001
 44
0.0000000001
 12
-0.7538005872
 22
0.1993050875
 32
0.0
 13
-0.7344507813
 23
0.2617630475
 33
0.0
 40
0.0
 40
0.0
 40
0.0
 40
0.0
 40
0.2031922224
 40
0.4037019467
 40
0.6024734814
 40
0.8012652599
 40
1.0
 40
1.0
 40
1.0
 40
1.0
 10
23.2281718041
 20
7.3448984688
 30
0.0
 10
23.1771163319
 20
7.35839755
 30
0.0
 10
23.0758881684
 20
7.3860149585
 30
0.0
 10
22.9255019252
 20
7.4296548949
 30
0.0
 10
22.7769448579
 20
7.4754222371
 30
0.0
 10
22.6296214938
 20
7.5235514904
 30
0.0
 10
22.5319827448
 20
7.5573532152
 30
0.0
 10
22.4833291165
 20
7.5746936856
 30
0.0
 11
23.2281718041
 21
7.3448984688
 31
0.0
 11
23.0753316149
 21
7.3866100316
 31
0.0
 11
22.925191078
 21
7.4301926327
 31
0.0
 11
22.7770820182
 21
7.4758369685
 31
0.0
 11
22.629751309
 21
7.5239852176
 31
0.0
 11
22.4833291165
 21
7.5746936856
 31
0.0
  0
SPLINE
  5
3D9
100
AcDbEntity
  8
0
100
AcDbSpline
 62
7
  6
CONTINUOUS
 70
0
 71
3
 72
17
 73
13
 74
11
 42
0.0000001
 43
0.0000001
 44
0.0000000001
 12
-0.4446982604
 22
-1.6445147598
 32
0.0
 13
-0.1196409239
 23
-1.6993491691
 33
0.0
 40
0.0
 40
0.0
 40
0.0
 40
0.0
 40
0.0090529507
 40
0.1207745843
 40
0.2322793774
 40
0.3435569181
 40
0.4537381009
 40
0.5629470783
 40
0.67258589
 40
0.7828027636
 40
0.8923984533
 40
1.0
 40
1.0
 40
1.0
 40
1.0
 10
22.3165395188
 20
9.6444674635
 30
0.0
 10
22.315197575
 20
9.6395048931
 30
0.0
 10
22.2973470493
 20
9.573285565
 30
0.0
 10
22.2643583994
 20
9.4455682842
 30
0.0
 10
22.2205110513
 20
9.2607366732
 30
0.0
 10
22.1805938257
 20
9.0759109419
 30
0.0
 10
22.1447318887
 20
8.8915834543
 30
0.0
 10
22.1128792647
 20
8.7074649429
 30
0.0
 10
22.0849586325
 20
8.5226879732
 30
0.0
 10
22.0610868529
 20
8.337121668
 30
0.0
 10
22.0415519907
 20
8.15221245
 30
0.0
 10
22.0314331341
 20
8.0292791321
 30
0.0
 10
22.0271419513
 20
7.9683282658
 30
0.0
 11
22.3165395188
 21
9.6444674635
 31
0.0
 11
22.312525438
 21
9.6295765787
 31
0.0
 11
22.2649392995
 21
9.4452974743
 31
0.0
 11
22.2211061599
 21
9.2604694194
 31
0.0
 11
22.1811015773
 21
9.0751711188
 31
0.0
 11
22.1452708304
 21
8.890923025
 31
0.0
 11
22.1135726355
 21
8.7075997289
 31
0.0
 11
22.0856850673
 21
8.522917608
 31
0.0
 11
22.0617489535
 21
8.336689003
 31
0.0
 11
22.0421561136
 21
8.1510175544
 31
0.0
 11
22.0271419513
 21
7.9683282658
 31
0.0
  0
SPLINE
  5
3DA
100
AcDbEntity
  8
0
100
AcDbSpline
 62
7
  6
CONTINUOUS
 70
0
 71
3
 72
10
 73
6
 74
4
 42
0.0000001
 43
0.0000001
 44
0.0000000001
 12
-0.80417572
 22
-0.4015656697
 32
0.0
 13
-0.8643416125
 23
0.2364359748
 33
0.0
 40
0.0
 40
0.0
 40
0.0
 40
0.0
 40
0.2920401134
 40
0.6328640805
 40
1.0
 40
1.0
 40
1.0
 40
1.0
 10
23.2957980532
 20
5.374121364
 30
0.0
 10
23.2175141971
 20
5.3350302694
 30
0.0
 10
23.0369165696
 20
5.2720730348
 30
0.0
 10
22.7357170052
 20
5.2501077443
 30
0.0
 10
22.5252955375
 20
5.286201409
 30
0.0
 10
22.4195185866
 20
5.315136122
 30
0.0
 11
23.2957980532
 21
5.374121364
 31
0.0
 11
23.0487039485
 21
5.2873722368
 31
0.0
 11
22.7442947368
 21
5.2626548791
 31
0.0
 11
22.4195185866
 21
5.315136122
 31
0.0
  0
SPLINE
  5
3DB
100
AcDbEntity
  8
0
100
AcDbSpline
 62
7
  6
CONTINUOUS
 70
0
 71
3
 72
14
 73
10
 74
8
 42
0.0000001
 43
0.0000001
 44
0.0000000001
 12
1.4643031338
 22
-0.4040326027
 32
0.0
 13
0.7371027379
 23
-1.3261853671
 33
0.0
 40
0.0
 40
0.0
 40
0.0
 40
0.0
 40
0.1062364688
 40
0.2760195211
 40
0.4427226369
 40
0.6024776203
 40
0.751157082
 40
0.8848090456
 40
1.0
 40
1.0
 40
1.0
 40
1.0
 10
41.8416850975
 20
19.1599696895
 30
0.0
 10
41.8935392289
 20
19.1456620238
 30
0.0
 10
42.0262225136
 20
19.1012184348
 30
0.0
 10
42.2286042395
 20
19.0035785548
 30
0.0
 10
42.4385438665
 20
18.864851128
 30
0.0
 10
42.6223467104
 20
18.7092682013
 30
0.0
 10
42.7768085244
 20
18.547049132
 30
0.0
 10
42.9003157856
 20
18.3880191559
 30
0.0
 10
42.9675676904
 20
18.2813493241
 30
0.0
 10
42.995870213
 20
18.2304278048
 30
0.0
 11
41.8416850975
 21
19.1599696895
 31
0.0
 11
41.9947116431
 21
19.1090164115
 31
0.0
 11
42.2270934301
 21
18.9978437906
 31
0.0
 11
42.4384002327
 21
18.8588319248
 31
0.0
 11
42.6235324728
 21
18.7023737812
 31
0.0
 11
42.7790289302
 21
18.5389422994
 31
0.0
 11
42.9031489757
 21
18.3785800151
 31
0.0
 11
42.995870213
 21
18.2304278048
 31
0.0
  0
SPLINE
  5
3DC
100
AcDbEntity
  8
0
100
AcDbSpline
 62
7
  6
CONTINUOUS
 70
0
 71
3
 72
12
 73
8
 74
6
 42
0.0000001
 43
0.0000001
 44
0.0000000001
 12
-0.4846905088
 22
0.3399843163
 32
0.0
 13
-0.4301881365
 23
0.4067583948
 33
0.0
 40
0.0
 40
0.0
 40
0.0
 40
0.0
 40
0.2112889118
 40
0.4160796887
 40
0.6146197839
 40
0.8089140402
 40
1.0
 40
1.0
 40
1.0
 40
1.0
 10
20.9415606513
 20
7.7393601356
 30
0.0
 10
20.9074240746
 20
7.7633051076
 30
0.0
 10
20.8408241731
 20
7.8113558118
 30
0.0
 10
20.7444546864
 20
7.885035945
 30
0.0
 10
20.6528286114
 20
7.9593221086
 30
0.0
 10
20.5654783751
 20
8.0345073941
 30
0.0
 10
20.5093711886
 20
8.0858728733
 30
0.0
 10
20.4819702176
 20
8.1117814794
 30
0.0
 11
20.9415606513
 21
7.7393601356
 31
0.0
 11
20.8401348964
 21
7.8125777854
 31
0.0
 11
20.7438362923
 21
7.8862451924
 31
0.0
 11
20.6525513533
 21
7.9602971269
 31
0.0
 11
20.5653906098
 21
8.035363812
 31
0.0
 11
20.4819702176
 21
8.1117814794
 31
0.0
  0
SPLINE
  5
3DD
100
AcDbEntity
  8
0
100
AcDbSpline
 62
7
  6
CONTINUOUS
 70
0
 71
3
 72
18
 73
14
 74
12
 42
0.0000001
 43
0.0000001
 44
0.0000000001
 12
-0.6956974515
 22
1.5433411025
 32
0.0
 13
-0.1278471795
 23
1.6880615514
 33
0.0
 40
0.0
 40
0.0
 40
0.0
 40
0.0
 40
0.0832064168
 40
0.1673706447
 40
0.2528685759
 40
0.3400867613
 40
0.4291060942
 40
0.5192954576
 40
0.610797256
 40
0.7048699557
 40
0.8017738049
 40
0.9005573899
 40
1.0
 40
1.0
 40
1.0
 40
1.0
 10
21.7124118054
 20
5.6686895126
 30
0.0
 10
21.693116308
 20
5.7114948069
 30
0.0
 10
21.655897449
 20
5.7983259709
 30
0.0
 10
21.6043830424
 20
5.9314257636
 30
0.0
 10
21.5567514271
 20
6.0683639238
 30
0.0
 10
21.5129326461
 20
6.2094392953
 30
0.0
 10
21.4730515983
 20
6.3544248198
 30
0.0
 10
21.4372314153
 20
6.5029529632
 30
0.0
 10
21.4054176356
 20
6.6553037369
 30
0.0
 10
21.3775351562
 20
6.8122722584
 30
0.0
 10
21.3537092203
 20
6.9740623389
 30
0.0
 10
21.3342290338
 20
7.1394825424
 30
0.0
 10
21.3242729892
 20
7.25091415
 30
0.0
 10
21.3200351701
 20
7.3068692322
 30
0.0
 11
21.7124118054
 21
5.6686895126
 31
0.0
 11
21.6568820578
 21
5.7981419444
 31
0.0
 11
21.6054186568
 21
5.931004406
 31
0.0
 11
21.5578325183
 21
6.0676973719
 31
0.0
 11
21.5139993787
 21
6.2086922871
 31
0.0
 11
21.4739947961
 21
6.3539860052
 31
0.0
 11
21.4381640493
 21
6.5024033522
 31
0.0
 11
21.4064658543
 21
6.6540284534
 31
0.0
 11
21.3785782861
 21
6.810823006
 31
0.0
 11
21.3546421723
 21
6.9731154972
 31
0.0
 11
21.3350493324
 21
7.1391941059
 31
0.0
 11
21.3200351701
 21
7.3068692322
 31
0.0
  0
SPLINE
  5
3DE
100
AcDbEntity
  8
0
100
AcDbSpline
 62
7
  6
CONTINUOUS
 70
0
 71
3
 72
17
 73
13
 74
11
 42
0.0000001
 43
0.0000001
 44
0.0000000001
 12
0.1300619935
 22
1.8473673837
 32
0.0
 13
0.5103374417
 23
1.780270143
 33
0.0
 40
0.0
 40
0.0
 40
0.0
 40
0.0
 40
0.0989862623
 40
0.1998098983
 40
0.3012031679
 40
0.4020589693
 40
0.5025145917
 40
0.6038648314
 40
0.7062244143
 40
0.8087916628
 40
0.9115570984
 40
1.0
 40
1.0
 40
1.0
 40
1.0
 10
21.3200351701
 20
8.3218816564
 30
0.0
 10
21.3243266203
 20
8.3828363205
 30
0.0
 10
21.3344463448
 20
8.5057790736
 30
0.0
 10
21.3539831386
 20
8.6907022086
 30
0.0
 10
21.3778571393
 20
8.8762795896
 30
0.0
 10
21.405779258
 20
9.0610600582
 30
0.0
 10
21.4376323159
 20
9.2451758396
 30
0.0
 10
21.4734940719
 20
9.4294984046
 30
0.0
 10
21.5134108843
 20
9.614319095
 30
0.0
 10
21.55725735
 20
9.7991446014
 30
0.0
 10
21.602614288
 20
9.9747448488
 30
0.0
 10
21.6342029476
 20
10.08848073
 30
0.0
 10
21.649248189
 20
10.1409648157
 30
0.0
 11
21.3200351701
 21
8.3218816564
 31
0.0
 11
21.3350503998
 21
8.5045823174
 31
0.0
 11
21.3546454774
 21
8.6902706187
 31
0.0
 11
21.3785841213
 21
8.8765127116
 31
0.0
 11
21.4064730884
 21
9.0611977584
 31
0.0
 11
21.4381711796
 21
9.2445152281
 31
0.0
 11
21.4740016853
 21
9.4287580843
 31
0.0
 11
21.5140061456
 21
9.6140526771
 31
0.0
 11
21.5578383904
 21
9.7988745687
 31
0.0
 11
21.6054227694
 21
9.9831452737
 31
0.0
 11
21.649248189
 21
10.1409648157
 31
0.0
  0
SPLINE
  5
3DF
100
AcDbEntity
  8
0
100
AcDbSpline
 62
7
  6
CONTINUOUS
 70
0
 71
3
 72
9
 73
5
 74
3
 42
0.0000001
 43
0.0000001
 44
0.0000000001
 12
-0.1642762213
 22
-0.1282951516
 32
0.0
 13
-0.1864235189
 23
-0.0930907056
 33
0.0
 40
0.0
 40
0.0
 40
0.0
 40
0.0
 40
0.8496477921
 40
1.0
 40
1.0
 40
1.0
 40
1.0
 10
23.4715870236
 20
5.485379689
 30
0.0
 10
23.4250613807
 20
5.4490444583
 30
0.0
 10
23.3668034505
 20
5.4107681369
 30
0.0
 10
23.3051411158
 20
5.3787868284
 30
0.0
 10
23.2957980532
 20
5.374121364
 30
0.0
 11
23.4715870236
 21
5.485379689
 31
0.0
 11
23.3236062929
 21
5.3885460528
 31
0.0
 11
23.2957980532
 21
5.374121364
 31
0.0
  0
SPLINE
  5
3E0
100
AcDbEntity
  8
0
100
AcDbSpline
 62
7
  6
CONTINUOUS
 70
0
 71
3
 72
12
 73
8
 74
6
 42
0.0000001
 43
0.0000001
 44
0.0000000001
 12
-0.7538005872
 22
0.1993050875
 32
0.0
 13
-0.7344507813
 23
0.2617630475
 33
0.0
 40
0.0
 40
0.0
 40
0.0
 40
0.0
 40
0.2031922224
 40
0.4037019467
 40
0.6024734814
 40
0.8012652599
 40
1.0
 40
1.0
 40
1.0
 40
1.0
 10
23.2281718041
 20
6.7386806861
 30
0.0
 10
23.1771163319
 20
6.7521797673
 30
0.0
 10
23.0758881684
 20
6.7797971758
 30
0.0
 10
22.9255019252
 20
6.8234371123
 30
0.0
 10
22.7769448579
 20
6.8692044544
 30
0.0
 10
22.6296214938
 20
6.9173337077
 30
0.0
 10
22.5319827448
 20
6.9511354326
 30
0.0
 10
22.4833291165
 20
6.968475903
 30
0.0
 11
23.2281718041
 21
6.7386806861
 31
0.0
 11
23.0753316149
 21
6.7803922489
 31
0.0
 11
22.925191078
 21
6.8239748501
 31
0.0
 11
22.7770820182
 21
6.8696191858
 31
0.0
 11
22.629751309
 21
6.9177674349
 31
0.0
 11
22.4833291165
 21
6.968475903
 31
0.0
  0
SPLINE
  5
3E1
100
AcDbEntity
  8
0
100
AcDbSpline
 62
7
  6
CONTINUOUS
 70
0
 71
3
 72
8
 73
4
 74
2
 42
0.0000001
 43
0.0000001
 44
0.0000000001
 12
0.0
 22
-0.105419825
 32
0.0
 13
-0.0113739069
 23
-0.1049567692
 33
0.0
 40
0.0
 40
0.0
 40
0.0
 40
0.0
 40
1.0
 40
1.0
 40
1.0
 40
1.0
 10
42.9862754128
 20
17.5868353939
 30
0.0
 10
42.9862754128
 20
17.5516954522
 30
0.0
 10
42.9845414622
 20
17.5164933533
 30
0.0
 10
42.9807501599
 20
17.4815077635
 30
0.0
 11
42.9862754128
 21
17.5868353939
 31
0.0
 11
42.9807501599
 21
17.4815077635
 31
0.0
  0
SPLINE
  5
3E2
100
AcDbEntity
  8
0
100
AcDbSpline
 62
7
  6
CONTINUOUS
 70
0
 71
3
 72
10
 73
6
 74
4
 42
0.0000001
 43
0.0000001
 44
0.0000000001
 12
0.5518436653
 22
-0.3357149291
 32
0.0
 13
0.4210028359
 23
-0.4898903518
 33
0.0
 40
0.0
 40
0.0
 40
0.0
 40
0.0
 40
0.3534105167
 40
0.6910610321
 40
1.0
 40
1.0
 40
1.0
 40
1.0
 10
42.5056804958
 20
18.6475221277
 30
0.0
 10
42.5706896141
 20
18.6079737322
 30
0.0
 10
42.6933538682
 20
18.5230697597
 30
0.0
 10
42.8564957896
 20
18.3820363489
 30
0.0
 10
42.9525154858
 20
18.2808765447
 30
0.0
 10
42.995870213
 20
18.2304278048
 30
0.0
 11
42.5056804958
 21
18.6475221277
 31
0.0
 11
42.6935560396
 21
18.5178489636
 31
0.0
 11
42.8585984713
 21
18.3752685397
 31
0.0
 11
42.995870213
 21
18.2304278048
 31
0.0
  0
SPLINE
  5
3E3
100
AcDbEntity
  8
0
100
AcDbSpline
 62
7
  6
CONTINUOUS
 70
0
 71
3
 72
9
 73
5
 74
3
 42
0.0000001
 43
0.0000001
 44
0.0000000001
 12
0.1283787156
 22
-0.0829485079
 32
0.0
 13
0.1302838867
 23
-0.0799228282
 33
0.0
 40
0.0
 40
0.0
 40
0.0
 40
0.0
 40
0.5226635613
 40
1.0
 40
1.0
 40
1.0
 40
1.0
 10
42.995870213
 20
18.2304278048
 30
0.0
 10
43.0182365052
 20
18.2159764173
 30
0.0
 10
43.0610474709
 20
18.1883552946
 30
0.0
 10
43.1041530152
 20
18.1611898714
 30
0.0
 10
43.124882764
 20
18.1484731787
 30
0.0
 11
42.995870213
 21
18.2304278048
 31
0.0
 11
43.0630684409
 21
18.1872277953
 31
0.0
 11
43.124882764
 21
18.1484731787
 31
0.0
  0
SPLINE
  5
3E4
100
AcDbEntity
  8
0
100
AcDbSpline
 62
7
  6
CONTINUOUS
 70
0
 71
3
 72
11
 73
7
 74
5
 42
0.0000001
 43
0.0000001
 44
0.0000000001
 12
0.8642880875
 22
0.2638552612
 32
0.0
 13
0.8353441877
 23
-0.3425635899
 33
0.0
 40
0.0
 40
0.0
 40
0.0
 40
0.0
 40
0.2087664228
 40
0.4678542763
 40
0.7311718084
 40
1.0
 40
1.0
 40
1.0
 40
1.0
 10
41.6216607246
 20
18.7130557877
 30
0.0
 10
41.6818055021
 20
18.7314171607
 30
0.0
 10
41.8204710155
 20
18.7608251121
 30
0.0
 10
42.0417623148
 20
18.7661511822
 30
0.0
 10
42.2780546746
 20
18.7285847352
 30
0.0
 10
42.4308258067
 20
18.6782190445
 30
0.0
 10
42.5056804958
 20
18.6475221277
 30
0.0
 11
41.6216607246
 21
18.7130557877
 31
0.0
 11
41.8061402339
 21
18.7524851177
 31
0.0
 11
42.0399662812
 21
18.7590836452
 31
0.0
 11
42.2749037079
 21
18.7227005874
 31
0.0
 11
42.5056804958
 21
18.6475221277
 31
0.0
  0
SPLINE
  5
3E5
100
AcDbEntity
  8
0
100
AcDbSpline
 62
7
  6
CONTINUOUS
 70
0
 71
3
 72
14
 73
10
 74
8
 42
0.0000001
 43
0.0000001
 44
0.0000000001
 12
0.0
 22
1.1946006046
 32
0.0
 13
-0.8817073386
 23
0.8060166088
 33
0.0
 40
0.0
 40
0.0
 40
0.0
 40
0.0
 40
0.1332233404
 40
0.2740144691
 40
0.4200159045
 40
0.5684890876
 40
0.7165250722
 40
0.8612446014
 40
1.0
 40
1.0
 40
1.0
 40
1.0
 10
42.9862754128
 20
17.5868353939
 30
0.0
 10
42.9862754128
 20
17.6398849549
 30
0.0
 10
42.9781345919
 20
17.7490944802
 30
0.0
 10
42.9446888774
 20
17.9133467743
 30
0.0
 10
42.8906675122
 20
18.0784266182
 30
0.0
 10
42.8177435192
 20
18.2392108866
 30
0.0
 10
42.7281578973
 20
18.39076635
 30
0.0
 10
42.6246983093
 20
18.5283886078
 30
0.0
 10
42.5464610468
 20
18.6102424091
 30
0.0
 10
42.5056804958
 20
18.6475221277
 30
0.0
 11
42.9862754128
 21
17.5868353939
 31
0.0
 11
42.975125998
 21
17.7455930515
 31
0.0
 11
42.9420293538
 21
17.9104936524
 31
0.0
 11
42.8880291931
 21
18.0763370055
 31
0.0
 11
42.8148284276
 21
18.2378931897
 31
0.0
 11
42.7247354658
 21
18.3900674811
 31
0.0
 11
42.620591417
 21
18.5280610166
 31
0.0
 11
42.5056804958
 21
18.6475221277
 31
0.0
  0
SPLINE
  5
3E6
100
AcDbEntity
  8
0
100
AcDbSpline
 62
7
  6
CONTINUOUS
 70
0
 71
3
 72
12
 73
8
 74
6
 42
0.0000001
 43
0.0000001
 44
0.0000000001
 12
1.3918500598
 22
-0.8099217521
 32
0.0
 13
0.5926670943
 23
-1.4970258628
 33
0.0
 40
0.0
 40
0.0
 40
0.0
 40
0.0
 40
0.166294522
 40
0.391628228
 40
0.6153979191
 40
0.8302987449
 40
1.0
 40
1.0
 40
1.0
 40
1.0
 10
41.7080926915
 20
18.5648754077
 30
0.0
 10
41.7852450382
 20
18.5199802242
 30
0.0
 10
41.96009838
 20
18.4025513251
 30
0.0
 10
42.2079011546
 20
18.1829114154
 30
0.0
 10
42.4397098958
 20
17.9112314316
 30
0.0
 10
42.6169042389
 20
17.6361639787
 30
0.0
 10
42.7057654889
 20
17.4494319937
 30
0.0
 10
42.7392909388
 20
17.3647496045
 30
0.0
 11
41.7080926915
 21
18.5648754077
 31
0.0
 11
41.9306453606
 21
18.4162250013
 31
0.0
 11
42.2024750933
 21
18.1764462178
 31
0.0
 11
42.4362029853
 21
17.902696312
 31
0.0
 11
42.6228388225
 21
17.6117190198
 31
0.0
 11
42.7392909388
 21
17.3647496045
 31
0.0
  0
SPLINE
  5
3E7
100
AcDbEntity
  8
RACCORDO
100
AcDbSpline
 62
7
  6
CONTINUOUS
 70
0
 71
3
 72
14
 73
10
 74
8
 42
0.0000001
 43
0.0000001
 44
0.0000000001
 12
0.0000000001
 22
31.9266435837
 32
0.0
 13
-28.5560581388
 23
14.2780290692
 33
0.0
 40
0.0
 40
0.0
 40
0.0
 40
0.0
 40
0.1382327043
 40
0.2845087394
 40
0.4350687281
 40
0.5857872832
 40
0.7325232769
 40
0.8715420056
 40
1.0
 40
1.0
 40
1.0
 40
1.0
 10
46.0805107662
 20
3.2576039626
 30
0.0
 10
46.0805107662
 20
4.7287060562
 30
0.0
 10
45.7949350195
 20
7.7602576341
 30
0.0
 10
44.6515877951
 20
12.2625952105
 30
0.0
 10
42.8391278762
 20
16.6838201497
 30
0.0
 10
40.4431080118
 20
20.822826415
 30
0.0
 10
37.5690107033
 20
24.4932647136
 30
0.0
 10
34.3431052187
 20
27.523328669
 30
0.0
 10
31.9383687717
 20
29.0877609191
 30
0.0
 10
30.7156174533
 20
29.6991365783
 30
0.0
 11
46.0805107662
 21
3.2576039626
 31
0.0
 11
45.6939221311
 21
7.6539458005
 31
0.0
 11
44.5603643038
 21
12.184388071
 31
0.0
 11
42.742078731
 21
16.6340943277
 31
0.0
 11
40.3273617699
 21
20.7962915106
 31
0.0
 11
37.4275318246
 21
24.4757239042
 31
0.0
 11
34.1739790663
 21
27.4946312361
 31
0.0
 11
30.7156174533
 21
29.6991365783
 31
0.0
  0
SPLINE
  5
3E8
100
AcDbEntity
  8
RACCORDO
100
AcDbSpline
 62
7
  6
CONTINUOUS
 70
0
 71
3
 72
10
 73
6
 74
4
 42
0.0000001
 43
0.0000001
 44
0.0000000001
 12
-9.08937386
 22
4.299151914
 32
0.0
 13
-9.1190207133
 23
-4.3125818206
 33
0.0
 40
0.0
 40
0.0
 40
0.0
 40
0.0
 40
0.3424868416
 40
0.6833432919
 40
1.0
 40
1.0
 40
1.0
 40
1.0
 10
-30.4434833512
 20
60.2739887414
 30
0.0
 10
-31.4811469996
 20
60.7647897282
 30
0.0
 10
-33.657154891
 20
61.5436206442
 30
0.0
 10
-37.0463408553
 20
61.8131728036
 30
0.0
 10
-39.2201761404
 20
61.2401182642
 30
0.0
 10
-40.1827091673
 20
60.7849156099
 30
0.0
 11
-30.4434833512
 21
60.2739887414
 31
0.0
 11
-33.697506213
 21
61.3961100795
 31
0.0
 11
-37.1136852626
 21
61.6180624828
 31
0.0
 11
-40.1827091673
 21
60.7849156099
 31
0.0
  0
SPLINE
  5
3E9
100
AcDbEntity
  8
RACCORDO
100
AcDbSpline
 62
7
  6
CONTINUOUS
 70
0
 71
3
 72
11
 73
7
 74
5
 42
0.0000001
 43
0.0000001
 44
0.0000000001
 12
12.5039629728
 22
6.6323291505
 32
0.0
 13
-0.0000000001
 23
14.0900242917
 33
0.0
 40
0.0
 40
0.0
 40
0.0
 40
0.0
 40
0.193539738
 40
0.433812003
 40
0.7020877552
 40
1.0
 40
1.0
 40
1.0
 40
1.0
 10
40.264905568
 20
-62.5667888028
 30
0.0
 10
41.0715768071
 20
-62.1389157208
 30
0.0
 10
42.7313965538
 20
-60.8965148831
 30
0.0
 10
44.6426339526
 20
-58.1411332998
 30
0.0
 10
45.8423611094
 20
-54.505620591
 30
0.0
 10
46.0805107662
 20
-51.8351679941
 30
0.0
 10
46.0805107662
 20
-50.4359710721
 30
0.0
 11
40.264905568
 21
-62.5667888028
 31
0.0
 11
42.4572748128
 21
-60.9387716769
 31
0.0
 11
44.4262524656
 21
-58.184802744
 31
0.0
 11
45.6626357767
 21
-54.6127100791
 31
0.0
 11
46.0805107662
 21
-50.4359710721
 31
0.0
  0
SPLINE
  5
3EA
100
AcDbEntity
  8
RACCORDO
100
AcDbSpline
 62
7
  6
CONTINUOUS
 70
0
 71
3
 72
8
 73
4
 74
2
 42
0.0000001
 43
0.0000001
 44
0.0000000001
 12
0.0915782817
 22
0.2456910586
 32
0.0
 13
0.0142714358
 23
0.261732725
 33
0.0
 40
0.0
 40
0.0
 40
0.0
 40
0.0
 40
1.0
 40
1.0
 40
1.0
 40
1.0
 10
60.2905473515
 20
25.9122514175
 30
0.0
 10
60.3210734454
 20
25.994148437
 30
0.0
 10
60.3379426741
 20
26.0812194737
 30
0.0
 10
60.3426998194
 20
26.1684637154
 30
0.0
 11
60.2905473515
 21
25.9122514175
 31
0.0
 11
60.3426998194
 21
26.1684637154
 31
0.0
  0
SPLINE
  5
3EB
100
AcDbEntity
  8
RACCORDO
100
AcDbSpline
 62
7
  6
CONTINUOUS
 70
0
 71
3
 72
12
 73
8
 74
6
 42
0.0000001
 43
0.0000001
 44
0.0000000001
 12
0.1002732179
 22
1.8389728165
 32
0.0
 13
-1.7655968342
 23
-0.5290367686
 33
0.0
 40
0.0
 40
0.0
 40
0.0
 40
0.0
 40
0.2353639598
 40
0.4734388509
 40
0.6901615093
 40
0.8806288349
 40
1.0
 40
1.0
 40
1.0
 40
1.0
 10
60.3426998194
 20
26.1684637154
 30
0.0
 10
60.3505667199
 20
26.3127396901
 30
0.0
 10
60.2997630557
 20
26.6039062093
 30
0.0
 10
60.0882137898
 20
26.9762140614
 30
0.0
 10
59.7802955061
 20
27.2364045516
 30
0.0
 10
59.4612976991
 20
27.3266951933
 30
0.0
 10
59.2689168208
 20
27.3009176756
 30
0.0
 10
59.198663037
 20
27.2798670972
 30
0.0
 11
60.3426998194
 21
26.1684637154
 31
0.0
 11
60.2767443461
 21
26.5933986497
 31
0.0
 11
60.0603982694
 21
26.9707559841
 31
0.0
 11
59.7529308187
 21
27.2202585626
 31
0.0
 11
59.4164594447
 21
27.309068007
 31
0.0
 11
59.198663037
 21
27.2798670972
 31
0.0
  0
SPLINE
  5
3EC
100
AcDbEntity
  8
DRAFT
100
AcDbSpline
 62
7
  6
CONTINUOUS
 70
0
 71
3
 72
11
 73
7
 74
5
 42
0.0000001
 43
0.0000001
 44
0.0000000001
 12
2.9552502962
 22
-0.2605782434
 32
0.0
 13
2.2974323588
 23
1.8782770843
 33
0.0
 40
0.0
 40
0.0
 40
0.0
 40
0.0
 40
0.2294888335
 40
0.5825412301
 40
0.928112482
 40
1.0
 40
1.0
 40
1.0
 40
1.0
 10
44.9963098318
 20
10.7416481759
 30
0.0
 10
45.2223754795
 20
10.7217149102
 30
0.0
 10
45.7995903293
 20
10.7124060797
 30
0.0
 10
46.7096248458
 20
10.8914110725
 30
0.0
 10
47.3916589567
 20
11.250790696
 30
0.0
 10
47.7188444456
 20
11.5029726429
 30
0.0
 10
47.7738966823
 20
11.5479808688
 30
0.0
 11
44.9963098318
 21
10.7416481759
 31
0.0
 11
45.6762222206
 21
10.733261812
 31
0.0
 11
46.6999481084
 21
10.9416593009
 31
0.0
 11
47.6049045629
 21
11.4178240913
 31
0.0
 11
47.7738966823
 21
11.5479808688
 31
0.0
  0
SPLINE
  5
3ED
100
AcDbEntity
  8
DRAFT
100
AcDbSpline
 62
7
  6
CONTINUOUS
 70
0
 71
3
 72
9
 73
5
 74
3
 42
0.0000001
 43
0.0000001
 44
0.0000000001
 12
1.3889463915
 22
1.1355532267
 32
0.0
 13
0.8028384179
 23
1.6035582832
 33
0.0
 40
0.0
 40
0.0
 40
0.0
 40
0.0
 40
0.4711466499
 40
1.0
 40
1.0
 40
1.0
 40
1.0
 10
48.2665247969
 20
11.9505240712
 30
0.0
 10
48.4846572766
 20
12.1288614374
 30
0.0
 10
48.9039882584
 20
12.5609034317
 30
0.0
 10
49.2208879769
 20
13.071133736
 30
0.0
 10
49.3624159058
 20
13.353816126
 30
0.0
 11
48.2665247969
 21
11.9505240712
 31
0.0
 11
48.8570524448
 21
12.5533278897
 31
0.0
 11
49.3624159058
 21
13.353816126
 31
0.0
  0
SPLINE
  5
3EE
100
AcDbEntity
  8
DRAFT
100
AcDbSpline
 62
7
  6
CONTINUOUS
 70
0
 71
3
 72
9
 73
5
 74
3
 42
0.0000001
 43
0.0000001
 44
0.0000000001
 12
0.8132836172
 22
1.4936040741
 32
0.0
 13
0.4020114086
 23
1.6512495187
 33
0.0
 40
0.0
 40
0.0
 40
0.0
 40
0.0
 40
0.2858924006
 40
1.0
 40
1.0
 40
1.0
 40
1.0
 10
49.430582081
 20
12.1002049839
 30
0.0
 10
49.5080859496
 20
12.2425416687
 30
0.0
 10
49.7574448395
 20
12.7523421884
 30
0.0
 10
49.9343762594
 20
13.2923106587
 30
0.0
 10
50.0300693934
 20
13.6853672686
 30
0.0
 11
49.430582081
 21
12.1002049839
 31
0.0
 11
49.6447457524
 21
12.5365036188
 31
0.0
 11
50.0300693934
 21
13.6853672686
 31
0.0
  0
SPLINE
  5
3EF
100
AcDbEntity
  8
DRAFT
100
AcDbSpline
 62
7
  6
CONTINUOUS
 70
0
 71
3
 72
10
 73
6
 74
4
 42
0.0000001
 43
0.0000001
 44
0.0000000001
 12
6.6051921609
 22
0.7196751574
 32
0.0
 13
5.9228352715
 23
-2.9614176357
 33
0.0
 40
0.0
 40
0.0
 40
0.0
 40
0.0
 40
0.1684090581
 40
0.5644343724
 40
1.0
 40
1.0
 40
1.0
 40
1.0
 10
-39.0687276307
 20
58.9828758669
 30
0.0
 10
-38.697936234
 20
59.0232758054
 30
0.0
 10
-37.4463204413
 20
59.0781789272
 30
0.0
 10
-35.2440325009
 20
58.7344126045
 30
0.0
 10
-33.5240274885
 20
58.0536364613
 30
0.0
 10
-32.6640996678
 20
57.623672551
 30
0.0
 11
-39.0687276307
 21
58.9828758669
 31
0.0
 11
-37.9518152832
 21
59.0338772785
 31
0.0
 11
-35.356375683
 21
58.6584446254
 31
0.0
 11
-32.6640996678
 21
57.623672551
 31
0.0
  0
SPLINE
  5
3F0
100
AcDbEntity
  8
ASSI
100
AcDbSpline
 62
7
  6
CONTINUOUS
 70
0
 71
3
 72
8
 73
4
 74
2
 42
0.0000001
 43
0.0000001
 44
0.0000000001
 12
0.0
 22
0.9048693159
 32
0.0
 13
-0.1689713007
 23
0.892693596
 33
0.0
 40
0.0
 40
0.0
 40
0.0
 40
0.0
 40
1.0
 40
1.0
 40
1.0
 40
1.0
 10
49.5555678492
 20
-15.6817174371
 30
0.0
 10
49.5555678492
 20
-15.3800943318
 30
0.0
 10
49.5240535595
 20
-15.0780997079
 30
0.0
 10
49.4677297926
 20
-14.7805351759
 30
0.0
 11
49.5555678492
 21
-15.6817174371
 31
0.0
 11
49.4677297926
 21
-14.7805351759
 31
0.0
  0
SPLINE
  5
3F1
100
AcDbEntity
  8
DRAFT
100
AcDbSpline
 62
7
  6
CONTINUOUS
 70
0
 71
3
 72
11
 73
7
 74
5
 42
0.0000001
 43
0.0000001
 44
0.0000000001
 12
0.0
 22
-10.0341940303
 32
0.0
 13
-6.8993664642
 23
-7.3381330733
 33
0.0
 40
0.0
 40
0.0
 40
0.0
 40
0.0
 40
0.3169576867
 40
0.6061337103
 40
0.8691484235
 40
1.0
 40
1.0
 40
1.0
 40
1.0
 10
42.5297391403
 20
-51.2819056027
 30
0.0
 10
42.5297391403
 20
-52.3420439121
 30
0.0
 10
42.3814712646
 20
-54.3746148884
 30
0.0
 10
41.6488448596
 20
-57.2071842612
 30
0.0
 10
40.6025361098
 20
-59.2615107972
 30
0.0
 10
39.7684611601
 20
-60.2954926334
 30
0.0
 10
39.4675301672
 20
-60.6155613939
 30
0.0
 11
42.5297391403
 21
-51.2819056027
 31
0.0
 11
42.2755097546
 21
-54.4521432175
 31
0.0
 11
41.5224653293
 21
-57.2543721737
 31
0.0
 11
40.2971925797
 21
-59.5918430581
 31
0.0
 11
39.4675301672
 21
-60.6155613939
 31
0.0
  0
SPLINE
  5
3F2
100
AcDbEntity
  8
DRAFT
100
AcDbSpline
 62
7
  6
CONTINUOUS
 70
0
 71
3
 72
10
 73
6
 74
4
 42
0.0000001
 43
0.0000001
 44
0.0000000001
 12
2.6326132964
 22
-8.04820597
 32
0.0
 13
0.0
 23
-8.4634110827
 33
0.0
 40
0.0
 40
0.0
 40
0.0
 40
0.0
 40
0.1648710475
 40
0.5942664578
 40
1.0
 40
1.0
 40
1.0
 40
1.0
 10
41.1183033355
 20
10.7275847009
 30
0.0
 10
41.2629839061
 20
10.2852793181
 30
0.0
 10
41.7490576794
 20
8.6795135288
 30
0.0
 10
42.3434075329
 20
5.9145556088
 30
0.0
 10
42.5297391403
 20
3.5562993511
 30
0.0
 10
42.5297391403
 20
2.4116694319
 30
0.0
 11
41.1183033355
 21
10.7275847009
 31
0.0
 11
41.5224656183
 21
9.3914087742
 31
0.0
 11
42.2755099204
 21
5.8361352838
 31
0.0
 11
42.5297391403
 21
2.4116694319
 31
0.0
  0
SPLINE
  5
3F3
100
AcDbEntity
  8
DRAFT
100
AcDbSpline
 62
7
  6
CONTINUOUS
 70
0
 71
3
 72
10
 73
6
 74
4
 42
0.0000001
 43
0.0000001
 44
0.0000000001
 12
7.6696462002
 22
-3.8348231001
 32
0.0
 13
5.6591189293
 23
-6.4501855246
 33
0.0
 40
0.0
 40
0.0
 40
0.0
 40
0.0
 40
0.3687022211
 40
0.7669993194
 40
1.0
 40
1.0
 40
1.0
 40
1.0
 10
28.1470835142
 20
27.21808096
 30
0.0
 10
29.0896887105
 20
26.7467783618
 30
0.0
 10
30.9589072477
 20
25.5775216106
 30
0.0
 10
33.128396571
 20
23.7029072242
 30
0.0
 10
34.3668396372
 20
22.3876501015
 30
0.0
 10
34.8063658246
 20
21.8866842291
 30
0.0
 11
28.1470835142
 21
27.21808096
 31
0.0
 11
30.8393603995
 21
25.5605763811
 31
0.0
 11
33.4347998605
 21
23.3405693528
 31
0.0
 11
34.8063658246
 21
21.8866842291
 31
0.0
  0
SPLINE
  5
3F4
100
AcDbEntity
  8
DRAFT
100
AcDbSpline
 62
7
  6
CONTINUOUS
 70
0
 71
3
 72
9
 73
5
 74
3
 42
0.0000001
 43
0.0000001
 44
0.0000000001
 12
3.5554168046
 22
-4.0524149241
 32
0.0
 13
2.7950534284
 23
-4.6055178572
 33
0.0
 40
0.0
 40
0.0
 40
0.0
 40
0.0
 40
0.3014649304
 40
1.0
 40
1.0
 40
1.0
 40
1.0
 10
34.8063658246
 20
21.8866842291
 30
0.0
 10
35.163643651
 20
21.4794639015
 30
0.0
 10
36.3102921218
 20
20.0946241133
 30
0.0
 10
37.3310629097
 20
18.6112374422
 30
0.0
 10
37.9818771901
 20
17.5388655298
 30
0.0
 11
34.8063658246
 21
21.8866842291
 31
0.0
 11
35.843552351
 21
20.6355465913
 31
0.0
 11
37.9818771901
 21
17.5388655298
 31
0.0
  0
SPLINE
  5
3F5
100
AcDbEntity
  8
ASSI
100
AcDbSpline
 62
7
  6
CONTINUOUS
 70
0
 71
3
 72
9
 73
5
 74
3
 42
0.0000001
 43
0.0000001
 44
0.0000000001
 12
-0.0483661672
 22
-0.1693419635
 32
0.0
 13
-0.1289447974
 23
-0.1165819709
 33
0.0
 40
0.0
 40
0.0
 40
0.0
 40
0.0
 40
0.1229274463
 40
1.0
 40
1.0
 40
1.0
 40
1.0
 10
4.6395272209
 20
49.7141247204
 30
0.0
 10
4.6375453777
 20
49.7071857953
 30
0.0
 10
4.6197134667
 20
49.6509271496
 30
0.0
 10
4.5872773295
 20
49.5964539943
 30
0.0
 10
4.5495793486
 20
49.5623703787
 30
0.0
 11
4.6395272209
 21
49.7141247204
 31
0.0
 11
4.6329406284
 21
49.6933813129
 31
0.0
 11
4.5495793486
 21
49.5623703787
 31
0.0
  0
SPLINE
  5
3F6
100
AcDbEntity
  8
ASSI
100
AcDbSpline
 62
7
  6
CONTINUOUS
 70
0
 71
3
 72
8
 73
4
 74
2
 42
0.0000001
 43
0.0000001
 44
0.0000000001
 12
-0.0391298686
 22
-0.0353782184
 32
0.0
 13
-0.0455265833
 23
-0.0240118525
 33
0.0
 40
0.0
 40
0.0
 40
0.0
 40
0.0
 40
1.0
 40
1.0
 40
1.0
 40
1.0
 10
4.5495793486
 20
49.5623703787
 30
0.0
 10
4.5365360591
 20
49.5505776392
 30
0.0
 10
4.522385536
 20
49.5404241529
 30
0.0
 10
4.5072100083
 20
49.532420202
 30
0.0
 11
4.5495793486
 21
49.5623703787
 31
0.0
 11
4.5072100083
 21
49.532420202
 31
0.0
  0
SPLINE
  5
3F7
100
AcDbEntity
  8
DRAFT
100
AcDbSpline
 62
7
  6
CONTINUOUS
 70
0
 71
3
 72
10
 73
6
 74
4
 42
0.0000001
 43
0.0000001
 44
0.0000000001
 12
-6.8877263863
 22
3.4438631931
 32
0.0
 13
-7.6330548307
 23
-1.3112875967
 33
0.0
 40
0.0
 40
0.0
 40
0.0
 40
0.0
 40
0.4782460403
 40
0.9057335077
 40
1.0
 40
1.0
 40
1.0
 40
1.0
 10
-32.6640996678
 20
59.0611477193
 30
0.0
 10
-33.7621089582
 20
59.6101523644
 30
0.0
 10
-35.9613070075
 20
60.4423604414
 30
0.0
 10
-38.5577881668
 20
60.6704322605
 30
0.0
 10
-39.8941221462
 20
60.4960013139
 30
0.0
 10
-40.1339692477
 20
60.4547978198
 30
0.0
 11
-32.6640996678
 21
59.0611477193
 31
0.0
 11
-36.1270771532
 21
60.3145676229
 31
0.0
 11
-39.4106447499
 21
60.5494527685
 31
0.0
 11
-40.1339692477
 21
60.4547978198
 31
0.0
  0
SPLINE
  5
3F8
100
AcDbEntity
  8
DRAFT
100
AcDbSpline
 62
7
  6
CONTINUOUS
 70
0
 71
3
 72
14
 73
10
 74
8
 42
0.0000001
 43
0.0000001
 44
0.0000000001
 12
0.0
 22
32.369307837
 32
0.0
 13
-28.9519890832
 23
14.4759945416
 33
0.0
 40
0.0
 40
0.0
 40
0.0
 40
0.0
 40
0.1375863148
 40
0.2839373595
 40
0.4357049695
 40
0.5871175858
 40
0.7346715799
 40
0.8730945675
 40
1.0
 40
1.0
 40
1.0
 40
1.0
 10
43.7034327003
 20
1.8248226519
 30
0.0
 10
43.7034327003
 20
3.3093472448
 30
0.0
 10
43.4136177674
 20
6.3766433507
 30
0.0
 10
42.2534575672
 20
10.948142175
 30
0.0
 10
40.4087878908
 20
15.4509952951
 30
0.0
 10
37.9660659258
 20
19.6734805874
 30
0.0
 10
35.0473627206
 20
23.4038181825
 30
0.0
 10
31.7889076909
 20
26.4675488863
 30
0.0
 10
29.3718050797
 20
28.0431953455
 30
0.0
 10
28.1470835142
 20
28.6555561282
 30
0.0
 11
43.7034327003
 21
1.8248226519
 31
0.0
 11
43.3130911278
 21
6.2612573531
 31
0.0
 11
42.1643631881
 21
10.8571538969
 31
0.0
 11
40.307359621
 21
15.4052633049
 31
0.0
 11
37.8490258459
 21
19.6452618756
 31
0.0
 11
34.8936285963
 21
23.3973160954
 31
0.0
 11
31.6100609996
 21
26.4459985465
 31
0.0
 11
28.1470835142
 21
28.6555561282
 31
0.0
  0
SPLINE
  5
3F9
100
AcDbEntity
  8
DRAFT
100
AcDbSpline
 62
7
  6
CONTINUOUS
 70
0
 71
3
 72
8
 73
4
 74
2
 42
0.0000001
 43
0.0000001
 44
0.0000000001
 12
0.0
 22
0.4393409833
 32
0.0
 13
-0.0599776023
 23
0.4365283269
 33
0.0
 40
0.0
 40
0.0
 40
0.0
 40
0.0
 40
1.0
 40
1.0
 40
1.0
 40
1.0
 10
25.7075651191
 20
38.7928431487
 30
0.0
 10
25.7075651191
 20
38.9392901431
 30
0.0
 10
25.6967324966
 20
39.0858667176
 30
0.0
 10
25.6767399625
 20
39.2313761599
 30
0.0
 11
25.7075651191
 21
38.7928431487
 31
0.0
 11
25.6767399625
 21
39.2313761599
 31
0.0
  0
SPLINE
  5
3FA
100
AcDbEntity
  8
DRAFT
100
AcDbSpline
 62
7
  6
CONTINUOUS
 70
0
 71
3
 72
9
 73
5
 74
3
 42
0.0000001
 43
0.0000001
 44
0.0000000001
 12
0.9349722776
 22
0.7643911677
 32
0.0
 13
0.6712339176
 23
1.0030138825
 33
0.0
 40
0.0
 40
0.0
 40
0.0
 40
0.0
 40
0.6969203139
 40
1.0
 40
1.0
 40
1.0
 40
1.0
 10
47.7738966823
 20
11.5479808688
 30
0.0
 10
47.9910970734
 20
11.725554113
 30
0.0
 10
48.2739426368
 20
12.0156812827
 30
0.0
 10
48.5110801619
 20
12.3410212735
 30
0.0
 10
48.5788926169
 20
12.4423523178
 30
0.0
 11
47.7738966823
 21
11.5479808688
 31
0.0
 11
48.3631384117
 21
12.1470479434
 31
0.0
 11
48.5788926169
 21
12.4423523178
 31
0.0
  0
SPLINE
  5
3FB
100
AcDbEntity
  8
DRAFT
100
AcDbSpline
 62
7
  6
CONTINUOUS
 70
0
 71
3
 72
9
 73
5
 74
3
 42
0.0000001
 43
0.0000001
 44
0.0000000001
 12
0.4593610626
 22
0.686415735
 32
0.0
 13
0.3400203305
 23
0.7523605387
 33
0.0
 40
0.0
 40
0.0
 40
0.0
 40
0.0
 40
0.922932224
 40
1.0
 40
1.0
 40
1.0
 40
1.0
 10
48.5788926169
 20
12.4423523178
 30
0.0
 10
48.7202123259
 20
12.6535240514
 30
0.0
 10
48.8542320489
 20
12.895161998
 30
0.0
 10
48.9690384582
 20
13.145312394
 30
0.0
 10
48.9777733284
 20
13.1646399784
 30
0.0
 11
48.5788926169
 21
12.4423523178
 31
0.0
 11
48.9512285925
 21
13.1068058838
 31
0.0
 11
48.9777733284
 21
13.1646399784
 31
0.0
  0
SPLINE
  5
3FC
100
AcDbEntity
  8
DRAFT
100
AcDbSpline
 62
7
  6
CONTINUOUS
 70
0
 71
3
 72
10
 73
6
 74
4
 42
0.0000001
 43
0.0000001
 44
0.0000000001
 12
2.7743009384
 22
3.2283484445
 32
0.0
 13
-0.0
 23
4.2424265855
 33
0.0
 40
0.0
 40
0.0
 40
0.0
 40
0.0
 40
0.2286803266
 40
0.5919010008
 40
1.0
 40
1.0
 40
1.0
 40
1.0
 10
39.4628737339
 20
-58.350747831
 30
0.0
 10
39.6743497489
 20
-58.1046612388
 30
0.0
 10
40.1446958381
 20
-57.3966175904
 30
0.0
 10
40.5992314627
 20
-56.0417533423
 30
0.0
 10
40.6979512903
 20
-54.9459412202
 30
0.0
 10
40.6979512903
 20
-54.3688312056
 30
0.0
 11
39.4628737339
 21
-58.350747831
 31
0.0
 11
40.0077371369
 21
-57.543541099
 31
0.0
 11
40.5229788356
 21
-56.0912969848
 31
0.0
 11
40.6979512903
 21
-54.3688312056
 31
0.0
  0
LINE
  5
3FD
100
AcDbEntity
  8
DRAFT
100
AcDbLine
 62
7
  6
CONTINUOUS
 10
38.7600514463
 20
16.1766283621
 11
38.4426586115
 21
16.0256486001
  0
SPLINE
  5
3FE
100
AcDbEntity
  8
DRAFT
100
AcDbSpline
 62
7
  6
CONTINUOUS
 70
0
 71
3
 72
8
 73
4
 74
2
 42
0.0000001
 43
0.0000001
 44
0.0000000001
 12
0.0
 22
1.7277242247
 32
0.0
 13
-0.2791134437
 23
1.7082327643
 33
0.0
 40
0.0
 40
0.0
 40
0.0
 40
0.0
 40
1.0
 40
1.0
 40
1.0
 40
1.0
 10
40.6979512903
 20
10.5830740783
 30
0.0
 10
40.6979512903
 20
11.1589821532
 30
0.0
 10
40.6460284456
 20
11.7355791716
 30
0.0
 10
40.552990631
 20
12.304990093
 30
0.0
 11
40.6979512903
 21
10.5830740783
 31
0.0
 11
40.552990631
 21
12.304990093
 31
0.0
  0
SPLINE
  5
3FF
100
AcDbEntity
  8
DRAFT
100
AcDbSpline
 62
7
  6
CONTINUOUS
 70
0
 71
3
 72
10
 73
6
 74
4
 42
0.0000001
 43
0.0000001
 44
0.0000000001
 12
7.6632403839
 22
7.9158534634
 32
0.0
 13
-0.0
 23
10.9680443109
 33
0.0
 40
0.0
 40
0.0
 40
0.0
 40
0.0
 40
0.2981055589
 40
0.6293889546
 40
1.0
 40
1.0
 40
1.0
 40
1.0
 10
40.307359621
 20
-62.0531199563
 30
0.0
 10
41.0688444734
 20
-61.2665333161
 30
0.0
 10
42.3662465203
 20
-59.3195246985
 30
0.0
 10
43.4821764349
 20
-55.8000585505
 30
0.0
 10
43.7034327003
 20
-53.2237118388
 30
0.0
 10
43.7034327003
 20
-51.8687523827
 30
0.0
 11
40.307359621
 21
-62.0531199563
 31
0.0
 11
42.1643631881
 21
-59.3620141155
 31
0.0
 11
43.3130911278
 21
-55.9148455114
 31
0.0
 11
43.7034327003
 21
-51.8687523827
 31
0.0
  0
SPLINE
  5
400
100
AcDbEntity
  8
RACCORDO
100
AcDbSpline
 62
253
  6
CONTINUOUS
 70
0
 71
3
 72
10
 73
6
 74
4
 42
0.0000001
 43
0.0000001
 44
0.0000000001
 12
8.583730216
 22
2.8585347639
 32
0.0
 13
8.0504972781
 23
-4.0252486414
 33
0.0
 40
0.0
 40
0.0
 40
0.0
 40
0.0
 40
0.2267663962
 40
0.5922280016
 40
1.0
 40
1.0
 40
1.0
 40
1.0
 10
-39.2675268595
 20
61.1514200167
 30
0.0
 10
-38.6186930037
 20
61.3674932257
 30
0.0
 10
-36.8539095191
 20
61.7270781524
 30
0.0
 10
-33.818928341
 20
61.460102614
 30
0.0
 10
-31.6246943971
 20
60.6294927339
 30
0.0
 10
-30.5304386093
 20
60.0823648397
 30
0.0
 11
-39.2675268595
 21
61.1514200167
 31
0.0
 11
-37.2624259313
 21
61.5669640549
 31
0.0
 11
-33.9814098932
 21
61.3319644368
 31
0.0
 11
-30.5304386093
 21
60.0823648397
 31
0.0
  0
SPLINE
  5
401
100
AcDbEntity
  8
RACCORDO
100
AcDbSpline
 62
253
  6
CONTINUOUS
 70
0
 71
3
 72
11
 73
7
 74
5
 42
0.0000001
 43
0.0000001
 44
0.0000000001
 12
0.0000000049
 22
-13.6300324212
 32
0.0
 13
-12.095397982
 23
-6.4186045194
 33
0.0
 40
0.0
 40
0.0
 40
0.0
 40
0.0
 40
0.2972189204
 40
0.5636014678
 40
0.8025553461
 40
1.0
 40
1.0
 40
1.0
 40
1.0
 10
45.7998505665
 20
-50.7833002573
 30
0.0
 10
45.799850567
 20
-52.1336680977
 30
0.0
 10
45.5792992876
 20
-54.7044258981
 30
0.0
 10
44.4666249851
 20
-58.2148122054
 30
0.0
 10
42.6665391479
 20
-60.9163719827
 30
0.0
 10
41.0609741378
 20
-62.1443705816
 30
0.0
 10
40.2649169152
 20
-62.5668102975
 30
0.0
 11
45.7998505665
 21
-50.7833002573
 31
0.0
 11
45.4112615741
 21
-54.8157236398
 31
0.0
 11
44.2636087823
 21
-58.2603748173
 31
0.0
 11
42.4139704986
 21
-60.9411500252
 31
0.0
 11
40.2649169152
 21
-62.5668102975
 31
0.0
  0
SPLINE
  5
402
100
AcDbEntity
  8
RACCORDO
100
AcDbSpline
 62
253
  6
CONTINUOUS
 70
0
 71
3
 72
14
 73
10
 74
8
 42
0.0000001
 43
0.0000001
 44
0.0000000001
 12
27.9603865622
 22
-14.7041482054
 32
0.0
 13
0.4516677893
 23
-31.5851877664
 33
0.0
 40
0.0
 40
0.0
 40
0.0
 40
0.0
 40
0.1178682953
 40
0.2596280506
 40
0.4102685705
 40
0.5653848185
 40
0.720328862
 40
0.8702052107
 40
1.0
 40
1.0
 40
1.0
 40
1.0
 10
30.6108351619
 20
29.5074584536
 30
0.0
 10
31.7093828617
 20
28.9297408261
 30
0.0
 10
34.0038287012
 20
27.409484422
 30
0.0
 10
37.1630513149
 20
24.4391760077
 30
0.0
 10
40.076802083
 20
20.7154543592
 30
0.0
 10
42.5128412718
 20
16.5044496722
 30
0.0
 10
44.3541185087
 20
12.0093999298
 30
0.0
 10
45.4831160415
 20
7.5601069659
 30
0.0
 10
45.7778805893
 20
4.6155025072
 30
0.0
 10
45.7974219645
 20
3.2489715769
 30
0.0
 11
30.6108351619
 21
29.5074584536
 31
0.0
 11
33.7318445074
 21
27.4753010001
 31
0.0
 11
37.0129191338
 21
24.4291816393
 31
0.0
 11
39.9568738828
 21
20.6918693508
 31
0.0
 11
42.4140844588
 21
16.4537726457
 31
0.0
 11
44.2636984579
 21
11.9233180674
 31
0.0
 11
45.4112911779
 21
7.3311131242
 31
0.0
 11
45.7974219645
 21
3.2489715769
 31
0.0
  0
SPLINE
  5
403
100
AcDbEntity
  8
ASSI
100
AcDbSpline
 62
7
  6
CONTINUOUS
 70
0
 71
3
 72
9
 73
5
 74
3
 42
0.0000001
 43
0.0000001
 44
0.0000000001
 12
-0.2186889987
 22
-0.1153420181
 32
0.0
 13
-0.2233175354
 23
0.1116587677
 33
0.0
 40
0.0
 40
0.0
 40
0.0
 40
0.0
 40
0.0736261616
 40
1.0
 40
1.0
 40
1.0
 40
1.0
 10
4.5072100083
 20
49.532420202
 30
0.0
 10
4.5018429311
 20
49.529589472
 30
0.0
 10
4.4272052654
 20
49.4947938784
 30
0.0
 10
4.3295876235
 20
49.5137609356
 30
0.0
 10
4.260629116
 20
49.5482401894
 30
0.0
 11
4.5072100083
 21
49.532420202
 31
0.0
 11
4.4907277913
 21
49.5247571772
 31
0.0
 11
4.260629116
 21
49.5482401894
 31
0.0
  0
SPLINE
  5
404
100
AcDbEntity
  8
ASSI
100
AcDbSpline
 62
7
  6
CONTINUOUS
 70
0
 71
3
 72
8
 73
4
 74
2
 42
0.0000001
 43
0.0000001
 44
0.0000000001
 12
-0.0099528034
 22
0.4905688847
 32
0.0
 13
-0.138225968
 23
0.4640050663
 33
0.0
 40
0.0
 40
0.0
 40
0.0
 40
0.0
 40
1.0
 40
1.0
 40
1.0
 40
1.0
 10
5.3361923907
 20
49.5233028332
 30
0.0
 10
5.3328747895
 20
49.6868257948
 30
0.0
 10
5.3044027663
 20
49.8466394799
 30
0.0
 10
5.2583274436
 20
50.0013078353
 30
0.0
 11
5.3361923907
 21
49.5233028332
 31
0.0
 11
5.2583274436
 21
50.0013078353
 31
0.0
  0
SPLINE
  5
405
100
AcDbEntity
  8
ASSI
100
AcDbSpline
 62
7
  6
CONTINUOUS
 70
0
 71
3
 72
8
 73
4
 74
2
 42
0.0000001
 43
0.0000001
 44
0.0000000001
 12
0.4576773401
 22
-0.3704482005
 32
0.0
 13
0.5088274815
 23
-0.2998007073
 33
0.0
 40
0.0
 40
0.0
 40
0.0
 40
0.0
 40
1.0
 40
1.0
 40
1.0
 40
1.0
 10
46.0778302217
 20
-17.2599076204
 30
0.0
 10
46.2303893351
 20
-17.3833903539
 30
0.0
 10
46.3912019788
 20
-17.4966435991
 30
0.0
 10
46.5608111393
 20
-17.5965771682
 30
0.0
 11
46.0778302217
 21
-17.2599076204
 31
0.0
 11
46.5608111393
 21
-17.5965771682
 31
0.0
  0
SPLINE
  5
406
100
AcDbEntity
  8
ASSI
100
AcDbSpline
 62
7
  6
CONTINUOUS
 70
0
 71
3
 72
9
 73
5
 74
3
 42
0.0000001
 43
0.0000001
 44
0.0000000001
 12
0.4197177873
 22
-0.3309828246
 32
0.0
 13
0.4604955229
 23
-0.2731912371
 33
0.0
 40
0.0
 40
0.0
 40
0.0
 40
0.0
 40
0.3711737952
 40
1.0
 40
1.0
 40
1.0
 40
1.0
 10
46.0774034711
 20
-17.3140541384
 30
0.0
 10
46.1293328858
 20
-17.3550048554
 30
0.0
 10
46.2717415083
 20
-17.4622591123
 30
0.0
 10
46.4209725529
 20
-17.5606406098
 30
0.0
 10
46.5174964369
 20
-17.6179038794
 30
0.0
 11
46.0774034711
 21
-17.3140541384
 31
0.0
 11
46.2359895086
 21
-17.4334023946
 31
0.0
 11
46.5174964369
 21
-17.6179038794
 31
0.0
  0
SPLINE
  5
407
100
AcDbEntity
  8
ASSI
100
AcDbSpline
 62
7
  6
CONTINUOUS
 70
0
 71
3
 72
9
 73
5
 74
3
 42
0.0000001
 43
0.0000001
 44
0.0000000001
 12
-0.0119846584
 22
0.4800812621
 32
0.0
 13
-0.1347891924
 23
0.4606707705
 33
0.0
 40
0.0
 40
0.0
 40
0.0
 40
0.0
 40
0.4491946643
 40
1.0
 40
1.0
 40
1.0
 40
1.0
 10
5.4784120363
 20
49.594747666
 30
0.0
 10
5.4766175548
 20
49.6666309798
 30
0.0
 10
5.4608786325
 20
49.8263979078
 30
0.0
 10
5.4255883504
 20
49.9827476581
 30
0.0
 10
5.400840815
 20
50.0673276309
 30
0.0
 11
5.4784120363
 21
49.594747666
 31
0.0
 11
5.4585328828
 21
49.809474379
 31
0.0
 11
5.400840815
 21
50.0673276309
 31
0.0
  0
SPLINE
  5
408
100
AcDbEntity
  8
RACCORDO
100
AcDbSpline
 62
253
  6
CONTINUOUS
 70
0
 71
3
 72
9
 73
5
 74
3
 42
0.0000001
 43
0.0000001
 44
0.0000000001
 12
-0.0020159707
 22
-0.4602152241
 32
0.0
 13
-0.4111533907
 23
-0.2128808999
 33
0.0
 40
0.0
 40
0.0
 40
0.0
 40
0.0
 40
0.4279958991
 40
1.0
 40
1.0
 40
1.0
 40
1.0
 10
46.080496967
 20
3.257604023
 30
0.0
 10
46.080209358
 20
3.1919472801
 30
0.0
 10
46.0109878278
 20
3.0378304515
 30
0.0
 10
45.878244375
 20
2.9508643599
 30
0.0
 10
45.7998505665
 20
2.9102747773
 30
0.0
 11
46.080496967
 21
3.257604023
 31
0.0
 11
46.009320319
 21
3.0723252437
 31
0.0
 11
45.7998505665
 21
2.9102747773
 31
0.0
  0
SPLINE
  5
409
100
AcDbEntity
  8
RACCORDO
100
AcDbSpline
 62
253
  6
CONTINUOUS
 70
0
 71
3
 72
11
 73
7
 74
5
 42
0.0000001
 43
0.0000001
 44
0.0000000001
 12
-0.5989489018
 22
1.0267593953
 32
0.0
 13
-1.1847174833
 23
-0.1364961501
 33
0.0
 40
0.0
 40
0.0
 40
0.0
 40
0.0
 40
0.1578304719
 40
0.5590143682
 40
0.96852868
 40
1.0
 40
1.0
 40
1.0
 40
1.0
 10
57.6054885921
 20
30.6052124041
 30
0.0
 10
57.5739777961
 20
30.6592303774
 30
0.0
 10
57.4480118272
 20
30.8419239009
 30
0.0
 10
57.1321838769
 20
31.0863314719
 30
0.0
 10
56.7887716139
 20
31.1261441053
 30
0.0
 10
56.6142149603
 20
31.1087204609
 30
0.0
 10
56.6017867526
 20
31.1072885563
 30
0.0
 11
57.6054885921
 21
30.6052124041
 31
0.0
 11
57.4983583083
 21
30.759074448
 31
0.0
 11
57.1186842561
 21
31.0435155167
 31
0.0
 11
56.639156545
 21
31.1110124515
 31
0.0
 11
56.6017867526
 21
31.1072885563
 31
0.0
  0
SPLINE
  5
40A
100
AcDbEntity
  8
RACCORDO
100
AcDbSpline
 62
7
  6
CONTINUOUS
 70
0
 71
3
 72
9
 73
5
 74
3
 42
0.0000001
 43
0.0000001
 44
0.0000000001
 12
3.4655331512
 22
1.6866533633
 32
0.0
 13
3.4660786209
 23
1.6855321332
 33
0.0
 40
0.0
 40
0.0
 40
0.0
 40
0.0
 40
0.3094686841
 40
1.0
 40
1.0
 40
1.0
 40
1.0
 10
42.2616673556
 20
19.052752911
 30
0.0
 10
42.6191586836
 20
19.2267417099
 30
0.0
 10
43.7743631731
 20
19.7889044888
 30
0.0
 10
44.9296564241
 20
20.3508848504
 30
0.0
 10
45.7274683678
 20
20.7388557577
 30
0.0
 11
42.2616673556
 21
19.052752911
 31
0.0
 11
43.3341664109
 21
19.5746677905
 31
0.0
 11
45.7274683678
 21
20.7388557577
 31
0.0
  0
SPLINE
  5
40B
100
AcDbEntity
  8
RACCORDO
100
AcDbSpline
 62
253
  6
CONTINUOUS
 70
0
 71
3
 72
11
 73
7
 74
5
 42
0.0000001
 43
0.0000001
 44
0.0000000001
 12
0.8802143883
 22
0.6931779574
 32
0.0
 13
-0.541866459
 23
0.9814973576
 33
0.0
 40
0.0
 40
0.0
 40
0.0
 40
0.0
 40
0.1488645522
 40
0.5347816043
 40
0.8777868997
 40
1.0
 40
1.0
 40
1.0
 40
1.0
 10
61.8620966108
 20
21.7768070536
 30
0.0
 10
61.9057741843
 20
21.8112035957
 30
0.0
 10
62.0562288338
 20
21.9437027238
 30
0.0
 10
62.2549258214
 20
22.2217300272
 30
0.0
 10
62.2471614403
 20
22.5606533926
 30
0.0
 10
62.1767636753
 20
22.7197422572
 30
0.0
 10
62.154689282
 20
22.7597262022
 30
0.0
 11
61.8620966108
 21
21.7768070536
 31
0.0
 11
61.987258658
 21
21.8878280473
 31
0.0
 11
62.2165258223
 21
22.251966475
 31
0.0
 11
62.2091853493
 21
22.6343513475
 31
0.0
 11
62.154689282
 21
22.7597262022
 31
0.0
  0
SPLINE
  5
40C
100
AcDbEntity
  8
RACCORDO
100
AcDbSpline
 62
253
  6
CONTINUOUS
 70
0
 71
3
 72
9
 73
5
 74
3
 42
0.0000001
 43
0.0000001
 44
0.0000000001
 12
-0.2128812797
 22
0.3855976137
 32
0.0
 13
-0.3440536544
 23
0.2749553114
 33
0.0
 40
0.0
 40
0.0
 40
0.0
 40
0.0
 40
0.688468493
 40
1.0
 40
1.0
 40
1.0
 40
1.0
 10
62.154689282
 20
22.7597262022
 30
0.0
 10
62.1058352641
 20
22.8482168048
 30
0.0
 10
62.0093990851
 20
22.9638809554
 30
0.0
 10
61.898475256
 20
23.0607780099
 30
0.0
 10
61.8627474049
 20
23.0893304241
 30
0.0
 11
62.154689282
 21
22.7597262022
 31
0.0
 11
61.9661817376
 21
22.9985836571
 31
0.0
 11
61.8627474049
 21
23.0893304241
 31
0.0
  0
SPLINE
  5
40D
100
AcDbEntity
  8
RACCORDO
100
AcDbSpline
 62
253
  6
CONTINUOUS
 70
0
 71
3
 72
9
 73
5
 74
3
 42
0.0000001
 43
0.0000001
 44
0.0000000001
 12
-0.4054069403
 22
0.1975029603
 32
0.0
 13
-0.4016788623
 23
-0.1922523399
 33
0.0
 40
0.0
 40
0.0
 40
0.0
 40
0.0
 40
0.3843301092
 40
1.0
 40
1.0
 40
1.0
 40
1.0
 10
30.7152977522
 20
29.6984803431
 30
0.0
 10
30.6633610543
 20
29.7237824546
 30
0.0
 10
30.512293599
 20
29.7603438922
 30
0.0
 10
30.3631784198
 20
29.7162279145
 30
0.0
 10
30.2807445593
 20
29.6767732555
 30
0.0
 11
30.7152977522
 21
29.6984803431
 31
0.0
 11
30.5475298811
 21
29.7399689458
 31
0.0
 11
30.2807445593
 21
29.6767732555
 31
0.0
  0
SPLINE
  5
40E
100
AcDbEntity
  8
RACCORDO
100
AcDbSpline
 62
253
  6
CONTINUOUS
 70
0
 71
3
 72
9
 73
5
 74
3
 42
0.0000001
 43
0.0000001
 44
0.0000000001
 12
-0.4054069303
 22
0.1975029645
 32
0.0
 13
-0.4016788539
 23
-0.1922523359
 33
0.0
 40
0.0
 40
0.0
 40
0.0
 40
0.0
 40
0.3843300477
 40
1.0
 40
1.0
 40
1.0
 40
1.0
 10
-30.0958854282
 20
60.1040719343
 30
0.0
 10
-30.1478221165
 20
60.1293740422
 30
0.0
 10
-30.298889565
 20
60.1659354866
 30
0.0
 10
-30.4480047424
 20
60.1218195019
 30
0.0
 10
-30.5304386093
 20
60.0823648397
 30
0.0
 11
-30.0958854282
 21
60.1040719343
 31
0.0
 11
-30.2636532667
 21
60.1455605359
 31
0.0
 11
-30.5304386093
 21
60.0823648397
 31
0.0
  0
SPLINE
  5
40F
100
AcDbEntity
  8
RACCORDO
100
AcDbSpline
 62
253
  6
CONTINUOUS
 70
0
 71
3
 72
9
 73
5
 74
3
 42
0.0000001
 43
0.0000001
 44
0.0000000001
 12
-0.0020159676
 22
-0.460215215
 32
0.0
 13
-0.4111533811
 23
-0.2128808949
 33
0.0
 40
0.0
 40
0.0
 40
0.0
 40
0.0
 40
0.4279959736
 40
1.0
 40
1.0
 40
1.0
 40
1.0
 10
46.0804969671
 20
-50.4359710116
 30
0.0
 10
46.0802093584
 20
-50.5016277646
 30
0.0
 10
46.0109878214
 20
-50.6557445921
 30
0.0
 10
45.8782443631
 20
-50.7427106644
 30
0.0
 10
45.7998505666
 20
-50.7833002407
 30
0.0
 11
46.0804969671
 21
-50.4359710116
 31
0.0
 11
46.0093202995
 21
-50.6212498154
 31
0.0
 11
45.7998505666
 21
-50.7833002407
 31
0.0
  0
SPLINE
  5
410
100
AcDbEntity
  8
DRAFT
100
AcDbSpline
 62
7
  6
CONTINUOUS
 70
0
 71
3
 72
10
 73
6
 74
4
 42
0.0000001
 43
0.0000001
 44
0.0000000001
 12
0.589887781
 22
0.2923124706
 32
0.0
 13
0.5895024606
 23
0.293088764
 33
0.0
 40
0.0
 40
0.0
 40
0.0
 40
0.0
 40
0.3339480272
 40
0.6672815113
 40
1.0
 40
1.0
 40
1.0
 40
1.0
 10
53.7779821945
 20
15.2520290076
 30
0.0
 10
53.8436461481
 20
15.2845680652
 30
0.0
 10
53.9748391235
 20
15.3496147487
 30
0.0
 10
54.1714046235
 20
15.447180816
 30
0.0
 10
54.3022988321
 20
15.5122225406
 30
0.0
 10
54.3676782881
 20
15.5447278908
 30
0.0
 11
53.7779821945
 21
15.2520290076
 31
0.0
 11
53.9749528217
 21
15.3496890182
 31
0.0
 11
54.1715183395
 21
15.4472552585
 31
0.0
 11
54.3676782881
 21
15.5447278908
 31
0.0
  0
SPLINE
  5
411
100
AcDbEntity
  8
RACCORDO
100
AcDbSpline
 62
253
  6
CONTINUOUS
 70
0
 71
3
 72
8
 73
4
 74
2
 42
0.0000001
 43
0.0000001
 44
0.0000000001
 12
0.081123513
 22
0.1564378969
 32
0.0
 13
-0.0012232672
 23
0.174142143
 33
0.0
 40
0.0
 40
0.0
 40
0.0
 40
0.0
 40
1.0
 40
1.0
 40
1.0
 40
1.0
 10
61.8636022184
 20
-39.8064754761
 30
0.0
 10
61.8906433894
 20
-39.7543295105
 30
0.0
 10
61.8984441239
 20
-39.692975728
 30
0.0
 10
61.8980363681
 20
-39.634928347
 30
0.0
 11
61.8636022184
 21
-39.8064754761
 31
0.0
 11
61.8980363681
 21
-39.634928347
 31
0.0
  0
SPLINE
  5
412
100
AcDbEntity
  8
RACCORDO
100
AcDbSpline
 62
253
  6
CONTINUOUS
 70
0
 71
3
 72
8
 73
4
 74
2
 42
0.0000001
 43
0.0000001
 44
0.0000000001
 12
0.0782185097
 22
0.0021319852
 32
0.0
 13
0.0767782321
 23
-0.0223469667
 33
0.0
 40
0.0
 40
0.0
 40
0.0
 40
0.0
 40
1.0
 40
1.0
 40
1.0
 40
1.0
 10
-10.8382065377
 20
64.8271599731
 30
0.0
 10
-10.8121337011
 20
64.8278706348
 30
0.0
 10
-10.7855803247
 20
64.8236707088
 30
0.0
 10
-10.7599875807
 20
64.8162217199
 30
0.0
 11
-10.8382065377
 21
64.8271599731
 31
0.0
 11
-10.7599875807
 21
64.8162217199
 31
0.0
  0
SPLINE
  5
413
100
AcDbEntity
  8
DRAFT
100
AcDbSpline
 62
7
  6
CONTINUOUS
 70
0
 71
3
 72
8
 73
4
 74
2
 42
0.0000001
 43
0.0000001
 44
0.0000000001
 12
0.0
 22
0.5249440795
 32
0.0
 13
-0.0872277438
 23
0.5195392991
 33
0.0
 40
0.0
 40
0.0
 40
0.0
 40
0.0
 40
1.0
 40
1.0
 40
1.0
 40
1.0
 10
21.3908688633
 20
36.7085505895
 30
0.0
 10
21.3908688633
 20
36.8835319493
 30
0.0
 10
21.3748058365
 20
37.0587035012
 30
0.0
 10
21.3457299219
 20
37.2318832676
 30
0.0
 11
21.3908688633
 21
36.7085505895
 31
0.0
 11
21.3457299219
 21
37.2318832676
 31
0.0
  0
SPLINE
  5
414
100
AcDbEntity
  8
RACCORDO
100
AcDbSpline
 62
253
  6
CONTINUOUS
 70
0
 71
3
 72
9
 73
5
 74
3
 42
0.0000001
 43
0.0000001
 44
0.0000000001
 12
0.0927878275
 22
0.0452506914
 32
0.0
 13
0.101457569
 23
0.0176609841
 33
0.0
 40
0.0
 40
0.0
 40
0.0
 40
0.0
 40
0.4776498716
 40
1.0
 40
1.0
 40
1.0
 40
1.0
 10
59.0988618639
 20
27.2409652864
 30
0.0
 10
59.1136352285
 20
27.2481699487
 30
0.0
 10
59.1455808067
 20
27.2611768287
 30
0.0
 10
59.178977569
 20
27.2693897939
 30
0.0
 10
59.196643027
 20
27.2724648664
 30
0.0
 11
59.0988618639
 21
27.2409652864
 31
0.0
 11
59.1444839179
 21
27.2595016891
 31
0.0
 11
59.196643027
 21
27.2724648664
 31
0.0
  0
SPLINE
  5
415
100
AcDbEntity
  8
RACCORDO
100
AcDbSpline
 62
253
  6
CONTINUOUS
 70
0
 71
3
 72
9
 73
5
 74
3
 42
0.0000001
 43
0.0000001
 44
0.0000000001
 12
0.2623771097
 22
0.045672669
 32
0.0
 13
0.2484735168
 23
-0.0944601885
 33
0.0
 40
0.0
 40
0.0
 40
0.0
 40
0.0
 40
0.3629376
 40
1.0
 40
1.0
 40
1.0
 40
1.0
 10
59.196643027
 20
27.2724648664
 30
0.0
 10
59.2283851999
 20
27.2779903093
 30
0.0
 10
59.317807169
 20
27.2824062311
 30
0.0
 10
59.4049169552
 20
27.2611401172
 30
0.0
 10
59.4576813335
 20
27.2410811057
 30
0.0
 11
59.196643027
 21
27.2724648664
 31
0.0
 11
59.2929898203
 21
27.2778127846
 31
0.0
 11
59.4576813335
 21
27.2410811057
 31
0.0
  0
SPLINE
  5
416
100
AcDbEntity
  8
RACCORDO
100
AcDbSpline
 62
253
  6
CONTINUOUS
 70
0
 71
3
 72
13
 73
9
 74
7
 42
0.0000001
 43
0.0000001
 44
0.0000000001
 12
1.1500945152
 22
-0.554745893
 32
0.0
 13
0.1654696536
 23
-1.265261614
 33
0.0
 40
0.0
 40
0.0
 40
0.0
 40
0.0
 40
0.102057976
 40
0.2690507529
 40
0.4488623056
 40
0.6354535971
 40
0.8215016704
 40
1.0
 40
1.0
 40
1.0
 40
1.0
 10
59.513999227
 20
27.2167972951
 30
0.0
 10
59.5531246664
 20
27.1979252141
 30
0.0
 10
59.6519283473
 20
27.1392434539
 30
0.0
 10
59.7970501793
 20
27.013885726
 30
0.0
 10
59.9410071735
 20
26.8376675663
 30
0.0
 10
60.059960144
 20
26.6343691193
 30
0.0
 10
60.1468793919
 20
26.4160457572
 30
0.0
 10
60.1811006884
 20
26.2643230845
 30
0.0
 10
60.1909460406
 20
26.1890407229
 30
0.0
 11
59.513999227
 21
27.2167972951
 31
0.0
 11
59.6263820014
 21
27.1510379933
 31
0.0
 11
59.7886100242
 21
27.0133574503
 31
0.0
 11
59.934362096
 21
26.8365874363
 31
0.0
 11
60.0546945255
 21
26.6315401946
 31
0.0
 11
60.1420088709
 21
26.4111500089
 31
0.0
 11
60.1909460406
 21
26.1890407229
 31
0.0
  0
SPLINE
  5
417
100
AcDbEntity
  8
RACCORDO
100
AcDbSpline
 62
253
  6
CONTINUOUS
 70
0
 71
3
 72
10
 73
6
 74
4
 42
0.0000001
 43
0.0000001
 44
0.0000000001
 12
0.0527556222
 22
-0.4033951979
 32
0.0
 13
-0.1306463228
 23
-0.386276637
 33
0.0
 40
0.0
 40
0.0
 40
0.0
 40
0.0
 40
0.5177181178
 40
0.9810764703
 40
1.0
 40
1.0
 40
1.0
 40
1.0
 10
60.1909460406
 20
26.1890407229
 30
0.0
 10
60.2000502211
 20
26.1194257221
 30
0.0
 10
60.2061040086
 20
25.9858975694
 30
0.0
 10
60.1831596297
 20
25.8511191933
 30
0.0
 10
60.1625370296
 20
25.7889020456
 30
0.0
 10
60.1617129331
 20
25.7864654732
 30
0.0
 11
60.1909460406
 21
26.1890407229
 31
0.0
 11
60.1984851802
 21
25.9788610887
 31
0.0
 11
60.164140674
 21
25.793788821
 31
0.0
 11
60.1617129331
 21
25.7864654732
 31
0.0
  0
SPLINE
  5
418
100
AcDbEntity
  8
RACCORDO
100
AcDbSpline
 62
253
  6
CONTINUOUS
 70
0
 71
3
 72
10
 73
6
 74
4
 42
0.0000001
 43
0.0000001
 44
0.0000000001
 12
-0.7865891402
 22
0.3967981122
 32
0.0
 13
-0.8589776639
 23
-0.1931123982
 33
0.0
 40
0.0
 40
0.0
 40
0.0
 40
0.0
 40
0.0934005877
 40
0.758864826
 40
1.0
 40
1.0
 40
1.0
 40
1.0
 10
57.047223688
 20
31.6378243684
 30
0.0
 10
57.022734392
 20
31.6501780941
 30
0.0
 10
56.8201514845
 20
31.7429462733
 30
0.0
 10
56.5184878879
 20
31.7778814432
 30
0.0
 10
56.2551016661
 20
31.7360198392
 30
0.0
 10
56.1860584232
 20
31.7204977753
 30
0.0
 11
57.047223688
 21
31.6378243684
 31
0.0
 11
56.972467851
 21
31.6720100905
 31
0.0
 11
56.3959260026
 21
31.7530862571
 31
0.0
 11
56.1860584232
 21
31.7204977753
 31
0.0
  0
SPLINE
  5
419
100
AcDbEntity
  8
RACCORDO
100
AcDbSpline
 62
253
  6
CONTINUOUS
 70
0
 71
3
 72
8
 73
4
 74
2
 42
0.0000001
 43
0.0000001
 44
0.0000000001
 12
-0.4498780303
 22
-0.1011400284
 32
0.0
 13
-0.4121170777
 23
-0.2003058204
 33
0.0
 40
0.0
 40
0.0
 40
0.0
 40
0.0
 40
1.0
 40
1.0
 40
1.0
 40
1.0
 10
56.1860584232
 20
31.7204977753
 30
0.0
 10
56.0360990798
 20
31.6867844325
 30
0.0
 10
55.8909118962
 20
31.6323719247
 30
0.0
 10
55.753539537
 20
31.5656033179
 30
0.0
 11
56.1860584232
 21
31.7204977753
 31
0.0
 11
55.753539537
 21
31.5656033179
 31
0.0
  0
SPLINE
  5
41A
100
AcDbEntity
  8
RACCORDO
100
AcDbSpline
 62
253
  6
CONTINUOUS
 70
0
 71
3
 72
10
 73
6
 74
4
 42
0.0000001
 43
0.0000001
 44
0.0000000001
 12
-0.0902839666
 22
-0.8714122186
 32
0.0
 13
-0.6736920024
 23
-0.546096101
 33
0.0
 40
0.0
 40
0.0
 40
0.0
 40
0.0
 40
0.1553461532
 40
0.7648702446
 40
1.0
 40
1.0
 40
1.0
 40
1.0
 10
62.7329756125
 20
-38.6679694482
 30
0.0
 10
62.7283005236
 20
-38.7130929602
 30
0.0
 10
62.6871293553
 20
-38.9327496418
 30
0.0
 10
62.5154573851
 20
-39.1796139747
 30
0.0
 10
62.3338294919
 20
-39.3440993621
 30
0.0
 10
62.2810278133
 20
-39.3869005096
 30
0.0
 11
62.7329756125
 21
-38.6679694482
 31
0.0
 11
62.7078585796
 21
-38.8010460311
 31
0.0
 11
62.4321123838
 21
-39.2491104765
 31
0.0
 11
62.2810278133
 21
-39.3869005096
 31
0.0
  0
SPLINE
  5
41B
100
AcDbEntity
  8
RACCORDO
100
AcDbSpline
 62
253
  6
CONTINUOUS
 70
0
 71
3
 72
8
 73
4
 74
2
 42
0.0000001
 43
0.0000001
 44
0.0000000001
 12
-0.355830661
 22
-0.2884370542
 32
0.0
 13
-0.4033859562
 23
-0.2124316779
 33
0.0
 40
0.0
 40
0.0
 40
0.0
 40
0.0
 40
1.0
 40
1.0
 40
1.0
 40
1.0
 10
62.2810278133
 20
-39.3869005096
 30
0.0
 10
62.1624175929
 20
-39.4830461944
 30
0.0
 10
62.0324983535
 20
-39.5641177878
 30
0.0
 10
61.8980363681
 20
-39.634928347
 30
0.0
 11
62.2810278133
 21
-39.3869005096
 31
0.0
 11
61.8980363681
 21
-39.634928347
 31
0.0
  0
SPLINE
  5
41C
100
AcDbEntity
  8
RACCORDO
100
AcDbSpline
 62
253
  6
CONTINUOUS
 70
0
 71
3
 72
8
 73
4
 74
2
 42
0.0000001
 43
0.0000001
 44
0.0000000001
 12
0.2154153639
 22
0.1016329865
 32
0.0
 13
0.2263750503
 23
0.0783118358
 33
0.0
 40
0.0
 40
0.0
 40
0.0
 40
0.0
 40
1.0
 40
1.0
 40
1.0
 40
1.0
 10
-10.6990367179
 20
64.7918914454
 30
0.0
 10
-10.6272315966
 20
64.8257691075
 30
0.0
 10
-10.553383981
 20
64.8563079454
 30
0.0
 10
-10.477925631
 20
64.8824118907
 30
0.0
 11
-10.6990367179
 21
64.7918914454
 31
0.0
 11
-10.477925631
 21
64.8824118907
 31
0.0
  0
SPLINE
  5
41D
100
AcDbEntity
  8
RACCORDO
100
AcDbSpline
 62
253
  6
CONTINUOUS
 70
0
 71
3
 72
9
 73
5
 74
3
 42
0.0000001
 43
0.0000001
 44
0.0000000001
 12
0.9655191832
 22
0.3340102174
 32
0.0
 13
0.9493400146
 23
-0.3771223294
 33
0.0
 40
0.0
 40
0.0
 40
0.0
 40
0.0
 40
0.4324949875
 40
1.0
 40
1.0
 40
1.0
 40
1.0
 10
-10.477925631
 20
64.8824118907
 30
0.0
 10
-10.3387315619
 20
64.9305644723
 30
0.0
 10
-10.0042191173
 20
65.0070089691
 30
0.0
 10
-9.6548936503
 20
64.9659964863
 30
0.0
 10
-9.475308578
 20
64.8946568822
 30
0.0
 11
-10.477925631
 21
64.8824118907
 31
0.0
 11
-10.0466108467
 21
64.9747176428
 31
0.0
 11
-9.475308578
 21
64.8946568822
 31
0.0
  0
SPLINE
  5
41E
100
AcDbEntity
  8
RACCORDO
100
AcDbSpline
 62
253
  6
CONTINUOUS
 70
0
 71
3
 72
8
 73
4
 74
2
 42
0.0000001
 43
0.0000001
 44
0.0000000001
 12
0.2089339243
 22
0.106241135
 32
0.0
 13
0.1991339433
 23
0.1247169854
 33
0.0
 40
0.0
 40
0.0
 40
0.0
 40
0.0
 40
1.0
 40
1.0
 40
1.0
 40
1.0
 10
61.8980363681
 20
20.9679139211
 30
0.0
 10
61.9676810096
 20
21.0033276328
 30
0.0
 10
62.0361618731
 20
21.041459492
 30
0.0
 10
62.1025398542
 20
21.0830318205
 30
0.0
 11
61.8980363681
 21
20.9679139211
 31
0.0
 11
62.1025398542
 21
21.0830318205
 31
0.0
  0
SPLINE
  5
41F
100
AcDbEntity
  8
RACCORDO
100
AcDbSpline
 62
253
  6
CONTINUOUS
 70
0
 71
3
 72
10
 73
6
 74
4
 42
0.0000001
 43
0.0000001
 44
0.0000000001
 12
0.9786146754
 22
0.6129034065
 32
0.0
 13
-0.0026436253
 23
1.1723258367
 33
0.0
 40
0.0
 40
0.0
 40
0.0
 40
0.0
 40
0.3631864778
 40
0.8124567946
 40
1.0
 40
1.0
 40
1.0
 40
1.0
 10
62.1025398542
 20
21.0830318205
 30
0.0
 10
62.2210130599
 20
21.1572312303
 30
0.0
 10
62.4710547139
 20
21.3477348187
 30
0.0
 10
62.7046644214
 20
21.6750170213
 30
0.0
 10
62.7374493236
 20
21.9235995388
 30
0.0
 10
62.737284059
 20
21.9968867872
 30
0.0
 11
62.1025398542
 21
21.0830318205
 31
0.0
 11
62.4325230789
 21
21.3426169444
 31
0.0
 11
62.7080796209
 21
21.780666731
 31
0.0
 11
62.737284059
 21
21.9968867872
 31
0.0
  0
SPLINE
  5
420
100
AcDbEntity
  8
RACCORDO
100
AcDbSpline
 62
253
  6
CONTINUOUS
 70
0
 71
3
 72
8
 73
4
 74
2
 42
0.0000001
 43
0.0000001
 44
0.0000000001
 12
-0.1242172484
 22
0.1282050444
 32
0.0
 13
-0.158205817
 23
0.0777638521
 33
0.0
 40
0.0
 40
0.0
 40
0.0
 40
0.0
 40
1.0
 40
1.0
 40
1.0
 40
1.0
 10
55.8948889477
 20
31.4599396416
 30
0.0
 10
55.8534831982
 20
31.5026746564
 30
0.0
 10
55.8062748094
 20
31.5396820339
 30
0.0
 10
55.753539537
 20
31.5656033179
 30
0.0
 11
55.8948889477
 21
31.4599396416
 31
0.0
 11
55.753539537
 21
31.5656033179
 31
0.0
  0
SPLINE
  5
421
100
AcDbEntity
  8
RACCORDO
100
AcDbSpline
 62
253
  6
CONTINUOUS
 70
0
 71
3
 72
8
 73
4
 74
2
 42
0.0000001
 43
0.0000001
 44
0.0000000001
 12
0.0675087402
 22
-0.2024001927
 32
0.0
 13
-0.0014745991
 23
-0.2114664622
 33
0.0
 40
0.0
 40
0.0
 40
0.0
 40
0.0
 40
1.0
 40
1.0
 40
1.0
 40
1.0
 10
61.8627595214
 20
21.176600201
 30
0.0
 10
61.8852624348
 20
21.1091334701
 30
0.0
 10
61.8985279437
 20
21.0384027635
 30
0.0
 10
61.8980364107
 20
20.9679139427
 30
0.0
 11
61.8627595214
 21
21.176600201
 31
0.0
 11
61.8980364107
 21
20.9679139427
 31
0.0
  0
SPLINE
  5
422
100
AcDbEntity
  8
ASSI
100
AcDbSpline
 62
7
  6
CONTINUOUS
 70
0
 71
3
 72
8
 73
4
 74
2
 42
0.0000001
 43
0.0000001
 44
0.0000000001
 12
0.1508362672
 22
-0.0754181336
 32
0.0
 13
0.1692982364
 23
0.0134676378
 33
0.0
 40
0.0
 40
0.0
 40
0.0
 40
0.0
 40
1.0
 40
1.0
 40
1.0
 40
1.0
 10
4.4020518604
 20
49.6189501734
 30
0.0
 10
4.4523306161
 20
49.5938107956
 30
0.0
 10
4.5116096464
 20
49.5762688251
 30
0.0
 10
4.5680423918
 20
49.5807580377
 30
0.0
 11
4.4020518604
 21
49.6189501734
 31
0.0
 11
4.5680423918
 21
49.5807580377
 31
0.0
  0
SPLINE
  5
423
100
AcDbEntity
  8
0
100
AcDbSpline
 62
7
  6
CONTINUOUS
 70
0
 71
3
 72
11
 73
7
 74
5
 42
0.0000001
 43
0.0000001
 44
0.0000000001
 12
0.0
 22
3.027944847
 32
0.0
 13
-1.9341672895
 23
2.334988671
 33
0.0
 40
0.0
 40
0.0
 40
0.0
 40
0.0
 40
0.2352255441
 40
0.4870808209
 40
0.7456501518
 40
1.0
 40
1.0
 40
1.0
 40
1.0
 10
-48.4325808883
 20
42.588085362
 30
0.0
 10
-48.4325808883
 20
42.82550202
 30
0.0
 10
-48.4869580107
 20
43.3178145387
 30
0.0
 10
-48.6999164866
 20
44.0429328094
 30
0.0
 10
-49.033941077
 20
44.7424708615
 30
0.0
 10
-49.3292560079
 20
45.1704474432
 30
0.0
 10
-49.4932410601
 20
45.3684154479
 30
0.0
 11
-48.4325808883
 21
42.588085362
 31
0.0
 11
-48.5048631262
 21
43.296658085
 31
0.0
 11
-48.7167839248
 21
44.0292249859
 31
0.0
 11
-49.0539012319
 21
44.7358628408
 31
0.0
 11
-49.4932410601
 21
45.3684154479
 31
0.0
  0
SPLINE
  5
424
100
AcDbEntity
  8
0
100
AcDbSpline
 62
7
  6
CONTINUOUS
 70
0
 71
3
 72
8
 73
4
 74
2
 42
0.0000001
 43
0.0000001
 44
0.0000000001
 12
-0.3137768097
 22
0.3788014096
 32
0.0
 13
-0.3574880884
 23
0.3378624488
 33
0.0
 40
0.0
 40
0.0
 40
0.0
 40
0.0
 40
1.0
 40
1.0
 40
1.0
 40
1.0
 10
-49.4932410601
 20
45.3684154479
 30
0.0
 10
-49.59783333
 20
45.4946825844
 30
0.0
 10
-49.7095619578
 20
45.6151486513
 30
0.0
 10
-49.8287246539
 20
45.7277694676
 30
0.0
 11
-49.4932410601
 21
45.3684154479
 31
0.0
 11
-49.8287246539
 21
45.7277694676
 31
0.0
  0
SPLINE
  5
425
100
AcDbEntity
  8
0
100
AcDbSpline
 62
7
  6
CONTINUOUS
 70
0
 71
3
 72
12
 73
8
 74
6
 42
0.0000001
 43
0.0000001
 44
0.0000000001
 12
-1.6597060336
 22
1.5685902917
 32
0.0
 13
-2.0574283357
 23
-1.0250810968
 33
0.0
 40
0.0
 40
0.0
 40
0.0
 40
0.0
 40
0.1030319933
 40
0.3916494942
 40
0.6458336001
 40
0.8701786499
 40
1.0
 40
1.0
 40
1.0
 40
1.0
 10
-49.8287246539
 20
45.7277694676
 30
0.0
 10
-49.8857255942
 20
45.7816411291
 30
0.0
 10
-50.1088659329
 20
45.9795966938
 30
0.0
 10
-50.5181334921
 20
46.2579236522
 30
0.0
 10
-51.0739980184
 20
46.4588537982
 30
0.0
 10
-51.5477843482
 20
46.465647436
 30
0.0
 10
-51.806568094
 20
46.3758277864
 30
0.0
 10
-51.8956008021
 20
46.3314686491
 30
0.0
 11
-49.8287246539
 21
45.7277694676
 31
0.0
 11
-50.0048631262
 21
45.8837753921
 31
0.0
 11
-50.5539012319
 21
46.2468217451
 31
0.0
 11
-51.1029393375
 21
46.4328134978
 31
0.0
 11
-51.6145614036
 21
46.4290756196
 31
0.0
 11
-51.8956008021
 21
46.3314686491
 31
0.0
  0
SPLINE
  5
426
100
AcDbEntity
  8
0
100
AcDbSpline
 62
7
  6
CONTINUOUS
 70
0
 71
3
 72
11
 73
7
 74
5
 42
0.0000001
 43
0.0000001
 44
0.0000000001
 12
0.0
 22
-1.8865811492
 32
0.0
 13
-1.7019854425
 23
-0.8479873023
 33
0.0
 40
0.0
 40
0.0
 40
0.0
 40
0.0
 40
0.3394409699
 40
0.6373997744
 40
0.9025320094
 40
1.0
 40
1.0
 40
1.0
 40
1.0
 10
23.6923107927
 20
6.5256395215
 30
0.0
 10
23.6923107927
 20
6.3121785431
 30
0.0
 10
23.6525316044
 20
5.9090648263
 30
0.0
 10
23.4468496125
 20
5.37082034
 30
0.0
 10
23.1653398073
 20
5.0500305801
 30
0.0
 10
22.9679863864
 20
4.9311271173
 30
0.0
 10
22.9126900194
 20
4.9035765779
 30
0.0
 11
23.6923107927
 21
6.5256395215
 31
0.0
 11
23.6200285549
 21
5.8893490363
 31
0.0
 11
23.4081077563
 21
5.368702934
 31
0.0
 11
23.0709904492
 21
4.9991823862
 31
0.0
 11
22.9126900194
 21
4.9035765779
 31
0.0
  0
SPLINE
  5
427
100
AcDbEntity
  8
0
100
AcDbSpline
 62
7
  6
CONTINUOUS
 70
0
 71
3
 72
11
 73
7
 74
5
 42
0.0000001
 43
0.0000001
 44
0.0000000001
 12
0.0
 22
-1.8865811492
 32
0.0
 13
-1.7019854425
 23
-0.8479873023
 33
0.0
 40
0.0
 40
0.0
 40
0.0
 40
0.0
 40
0.3394409699
 40
0.6373997744
 40
0.9025320094
 40
1.0
 40
1.0
 40
1.0
 40
1.0
 10
-48.4325808883
 20
-24.9618961332
 30
0.0
 10
-48.4325808883
 20
-25.1753571116
 30
0.0
 10
-48.4723600767
 20
-25.5784708284
 30
0.0
 10
-48.6780420685
 20
-26.1167153146
 30
0.0
 10
-48.9595518737
 20
-26.4375050746
 30
0.0
 10
-49.1569052946
 20
-26.5564085373
 30
0.0
 10
-49.2122016616
 20
-26.5839590768
 30
0.0
 11
-48.4325808883
 21
-24.9618961332
 31
0.0
 11
-48.5048631262
 21
-25.5981866184
 31
0.0
 11
-48.7167839248
 21
-26.1188327207
 31
0.0
 11
-49.0539012319
 21
-26.4883532685
 31
0.0
 11
-49.2122016616
 21
-26.5839590768
 31
0.0
  0
SPLINE
  5
428
100
AcDbEntity
  8
0
100
AcDbSpline
 62
7
  6
CONTINUOUS
 70
0
 71
3
 72
11
 73
7
 74
5
 42
0.0000001
 43
0.0000001
 44
0.0000000001
 12
0.0
 22
3.027944847
 32
0.0
 13
-1.9341672895
 23
2.334988671
 33
0.0
 40
0.0
 40
0.0
 40
0.0
 40
0.0
 40
0.2352255441
 40
0.4870808209
 40
0.7456501518
 40
1.0
 40
1.0
 40
1.0
 40
1.0
 10
23.6923107927
 20
-61.0243419737
 30
0.0
 10
23.6923107927
 20
-60.7869253157
 30
0.0
 10
23.6379336704
 20
-60.294612797
 30
0.0
 10
23.4249751944
 20
-59.5694945263
 30
0.0
 10
23.090950604
 20
-58.8699564742
 30
0.0
 10
22.7956356731
 20
-58.4419798925
 30
0.0
 10
22.631650621
 20
-58.2440118878
 30
0.0
 11
23.6923107927
 21
-61.0243419737
 31
0.0
 11
23.6200285549
 21
-60.3157692507
 31
0.0
 11
23.4081077563
 21
-59.5832023498
 31
0.0
 11
23.0709904492
 21
-58.8765644949
 31
0.0
 11
22.631650621
 21
-58.2440118878
 31
0.0
  0
SPLINE
  5
429
100
AcDbEntity
  8
0
100
AcDbSpline
 62
7
  6
CONTINUOUS
 70
0
 71
3
 72
8
 73
4
 74
2
 42
0.0000001
 43
0.0000001
 44
0.0000000001
 12
-0.3137768097
 22
0.3788014096
 32
0.0
 13
-0.3574880884
 23
0.3378624488
 33
0.0
 40
0.0
 40
0.0
 40
0.0
 40
0.0
 40
1.0
 40
1.0
 40
1.0
 40
1.0
 10
22.631650621
 20
-58.2440118878
 30
0.0
 10
22.5270583511
 20
-58.1177447513
 30
0.0
 10
22.4153297232
 20
-57.9972786844
 30
0.0
 10
22.2961670271
 20
-57.8846578681
 30
0.0
 11
22.631650621
 21
-58.2440118878
 31
0.0
 11
22.2961670271
 21
-57.8846578681
 31
0.0
  0
SPLINE
  5
42A
100
AcDbEntity
  8
0
100
AcDbSpline
 62
7
  6
CONTINUOUS
 70
0
 71
3
 72
12
 73
8
 74
6
 42
0.0000001
 43
0.0000001
 44
0.0000000001
 12
-1.6597060336
 22
1.5685902917
 32
0.0
 13
-2.0574283357
 23
-1.0250810968
 33
0.0
 40
0.0
 40
0.0
 40
0.0
 40
0.0
 40
0.1030319933
 40
0.3916494942
 40
0.6458336001
 40
0.8701786499
 40
1.0
 40
1.0
 40
1.0
 40
1.0
 10
22.2961670271
 20
-57.8846578681
 30
0.0
 10
22.2391660868
 20
-57.8307862066
 30
0.0
 10
22.0160257482
 20
-57.6328306419
 30
0.0
 10
21.6067581889
 20
-57.3545036835
 30
0.0
 10
21.0508936626
 20
-57.1535735375
 30
0.0
 10
20.5771073328
 20
-57.1467798997
 30
0.0
 10
20.3183235871
 20
-57.2365995493
 30
0.0
 10
20.229290879
 20
-57.2809586866
 30
0.0
 11
22.2961670271
 21
-57.8846578681
 31
0.0
 11
22.1200285549
 21
-57.7286519436
 31
0.0
 11
21.5709904492
 21
-57.3656055906
 31
0.0
 11
21.0219523435
 21
-57.1796138379
 31
0.0
 11
20.5103302774
 21
-57.1833517161
 31
0.0
 11
20.229290879
 21
-57.2809586866
 31
0.0
  0
SPLINE
  5
42B
100
AcDbEntity
  8
0
100
AcDbSpline
 62
7
  6
CONTINUOUS
 70
0
 71
3
 72
14
 73
10
 74
8
 42
0.0000001
 43
0.0000001
 44
0.0000000001
 12
0.0
 22
14.7133219561
 32
0.0
 13
-13.1599952275
 23
6.5799976137
 33
0.0
 40
0.0
 40
0.0
 40
0.0
 40
0.0
 40
0.1375292621
 40
0.2840848061
 40
0.4355534719
 40
0.5872669423
 40
0.7345302724
 40
0.8731477684
 40
1.0
 40
1.0
 40
1.0
 40
1.0
 10
39.4607920132
 20
11.0493188894
 30
0.0
 10
39.4607920132
 20
11.7238229935
 30
0.0
 10
39.329043164
 20
13.1187682812
 30
0.0
 10
38.8017645372
 20
15.1960018689
 30
0.0
 10
37.9629205409
 20
17.2436579535
 30
0.0
 10
36.8532890892
 20
19.1617824716
 30
0.0
 10
35.5259901418
 20
20.858129302
 30
0.0
 10
34.0454744032
 20
22.2503497217
 30
0.0
 10
32.9461824555
 20
22.966877706
 30
0.0
 10
32.3897242013
 20
23.2451068331
 30
0.0
 11
39.4607920132
 21
11.0493188894
 31
0.0
 11
39.28350558
 21
13.0650499227
 31
0.0
 11
38.7605361626
 21
15.1569902183
 31
0.0
 11
37.9181076313
 21
17.2202411544
 31
0.0
 11
36.7984628703
 21
19.1513427138
 31
0.0
 11
35.4577455431
 21
20.8534614006
 31
0.0
 11
33.9631848149
 21
22.2412458766
 31
0.0
 11
32.3897242013
 21
23.2451068331
 31
0.0
  0
SPLINE
  5
42C
100
AcDbEntity
  8
0
100
AcDbSpline
 62
7
  6
CONTINUOUS
 70
0
 71
3
 72
11
 73
7
 74
5
 42
0.0000001
 43
0.0000001
 44
0.0000000001
 12
-4.1412572325
 22
2.0706286162
 32
0.0
 13
-4.1588376331
 23
-2.0820439822
 33
0.0
 40
0.0
 40
0.0
 40
0.0
 40
0.0
 40
0.3614173717
 40
0.6850347852
 40
0.9849381792
 40
1.0
 40
1.0
 40
1.0
 40
1.0
 10
-53.8773031034
 20
66.3786204855
 30
0.0
 10
-54.3762105383
 20
66.628074203
 30
0.0
 10
-55.3762439217
 20
67.006556177
 30
0.0
 10
-56.9139750013
 20
67.1415295697
 30
0.0
 10
-57.8893876739
 20
66.8876909192
 30
0.0
 10
-58.3280974204
 20
66.6732938235
 30
0.0
 10
-58.3489773094
 20
66.662840699
 30
0.0
 11
-53.8773031034
 21
66.3786204855
 31
0.0
 11
-55.450763717
 21
66.9482201425
 31
0.0
 11
-56.9453244452
 21
67.0549963948
 31
0.0
 11
-58.2860417724
 21
66.6935950351
 31
0.0
 11
-58.3489773094
 21
66.662840699
 31
0.0
  0
SPLINE
  5
42D
100
AcDbEntity
  8
RACCORDO
100
AcDbSpline
 62
7
  6
CONTINUOUS
 70
0
 71
3
 72
15
 73
11
 74
9
 42
0.0000001
 43
0.0000001
 44
0.0000000001
 12
-0.0
 22
-13.9859829713
 32
0.0
 13
12.5094434624
 23
-6.2547217312
 33
0.0
 40
0.0
 40
0.0
 40
0.0
 40
0.0
 40
0.1226191802
 40
0.2495466124
 40
0.3785470167
 40
0.5081454137
 40
0.6366703026
 40
0.7625626819
 40
0.8842840488
 40
1.0
 40
1.0
 40
1.0
 40
1.0
 10
-63.8676097308
 20
-25.4904221874
 30
0.0
 10
-63.8676097308
 20
-26.0620721097
 30
0.0
 10
-63.7727611074
 20
-27.2267825
 30
0.0
 10
-63.3857565586
 20
-28.9534734482
 30
0.0
 10
-62.7731760473
 20
-30.6480670106
 30
0.0
 10
-61.958364333
 20
-32.2632317042
 30
0.0
 10
-60.9635553272
 20
-33.7570253633
 30
0.0
 10
-59.8118826212
 20
-35.0862650953
 30
0.0
 10
-58.5318043992
 20
-36.204230557
 30
0.0
 10
-57.587696722
 20
-36.7946498996
 30
0.0
 10
-57.1051826723
 20
-37.0359069244
 30
0.0
 11
-63.8676097308
 21
-25.4904221874
 31
0.0
 11
-63.7357018212
 21
-27.2002914824
 31
0.0
 11
-63.3522082922
 21
-28.93357887
 31
0.0
 11
-62.7409315387
 21
-30.6310679564
 31
0.0
 11
-61.9244971371
 21
-32.2493423915
 31
0.0
 11
-60.9261362269
 21
-33.7441501989
 31
0.0
 11
-59.7695819066
 21
-35.0717599173
 31
0.0
 11
-58.4823756688
 21
-36.1858702832
 31
0.0
 11
-57.1051826723
 21
-37.0359069244
 31
0.0
  0
SPLINE
  5
42E
100
AcDbEntity
  8
RACCORDO
100
AcDbSpline
 62
7
  6
CONTINUOUS
 70
0
 71
3
 72
12
 73
8
 74
6
 42
0.0000001
 43
0.0000001
 44
0.0000000001
 12
-6.4877358447
 22
-3.2438679223
 32
0.0
 13
0.0
 23
-7.2535091844
 33
0.0
 40
0.0
 40
0.0
 40
0.0
 40
0.0
 40
0.1728513508
 40
0.3544696933
 40
0.5518145037
 40
0.7678644428
 40
1.0
 40
1.0
 40
1.0
 40
1.0
 10
-60.6828914363
 20
65.4959121687
 30
0.0
 10
-61.0566960712
 20
65.3090098513
 30
0.0
 10
-61.7776879258
 20
64.8263888892
 30
0.0
 10
-62.676291106
 20
63.8228778649
 30
0.0
 10
-63.3601449228
 20
62.5423008104
 30
0.0
 10
-63.7808266171
 20
61.0281405973
 30
0.0
 10
-63.8676097308
 20
59.9413331823
 30
0.0
 10
-63.8676097308
 20
59.3800673835
 30
0.0
 11
-60.6828914363
 21
65.4959121687
 31
0.0
 11
-61.7256728107
 21
64.799802668
 31
0.0
 11
-62.6089763949
 21
63.8224392117
 31
0.0
 11
-63.2917668413
 21
62.5643356643
 31
0.0
 11
-63.7226387538
 21
61.0576123421
 31
0.0
 11
-63.8676097308
 21
59.3800673835
 31
0.0
  0
SPLINE
  5
42F
100
AcDbEntity
  8
RACCORDO
100
AcDbSpline
 62
7
  6
CONTINUOUS
 70
0
 71
3
 72
11
 73
7
 74
5
 42
0.0000001
 43
0.0000001
 44
0.0000000001
 12
4.9738161426
 22
-2.4869080713
 32
0.0
 13
4.9738161426
 23
2.4869080713
 33
0.0
 40
0.0
 40
0.0
 40
0.0
 40
0.0
 40
0.281233171
 40
0.5375775947
 40
0.7739321312
 40
1.0
 40
1.0
 40
1.0
 40
1.0
 10
29.1618446324
 20
-80.1694205768
 30
0.0
 10
29.6281119943
 20
-80.4025542577
 30
0.0
 10
30.5642416785
 20
-80.7674216542
 30
0.0
 10
31.9945010425
 20
-80.9871418674
 30
0.0
 10
33.3346658803
 20
-80.8710440055
 30
0.0
 10
34.1536011067
 20
-80.5840382104
 30
0.0
 10
34.5284077784
 20
-80.3966348745
 30
0.0
 11
29.1618446324
 21
-80.1694205768
 31
0.0
 11
30.6232747027
 21
-80.7262250694
 31
0.0
 11
32.0336426655
 21
-80.9334096235
 31
0.0
 11
33.3425424141
 21
-80.8139163155
 31
0.0
 11
34.5284077784
 21
-80.3966348745
 31
0.0
  0
SPLINE
  5
430
100
AcDbEntity
  8
0
100
AcDbSpline
 62
7
  6
CONTINUOUS
 70
0
 71
3
 72
11
 73
7
 74
5
 42
0.0000001
 43
0.0000001
 44
0.0000000001
 12
1.7019854425
 22
0.8479873023
 32
0.0
 13
0.0
 23
1.8865811492
 33
0.0
 40
0.0
 40
0.0
 40
0.0
 40
0.0
 40
0.0974679906
 40
0.3626002256
 40
0.6605590301
 40
1.0
 40
1.0
 40
1.0
 40
1.0
 10
22.9126900194
 20
-62.6464049173
 30
0.0
 10
22.9679863864
 20
-62.6188543778
 30
0.0
 10
23.1653398073
 20
-62.4999509151
 30
0.0
 10
23.4468496125
 20
-62.1791611552
 30
0.0
 10
23.6525316044
 20
-61.6409166689
 30
0.0
 10
23.6923107927
 20
-61.2378029521
 30
0.0
 10
23.6923107927
 20
-61.0243419737
 30
0.0
 11
22.9126900194
 21
-62.6464049173
 31
0.0
 11
23.0709904492
 21
-62.550799109
 31
0.0
 11
23.4081077563
 21
-62.1812785612
 31
0.0
 11
23.6200285549
 21
-61.6606324589
 31
0.0
 11
23.6923107927
 21
-61.0243419737
 31
0.0
  0
SPLINE
  5
431
100
AcDbEntity
  8
0
100
AcDbSpline
 62
7
  6
CONTINUOUS
 70
0
 71
3
 72
12
 73
8
 74
6
 42
0.0000001
 43
0.0000001
 44
0.0000000001
 12
2.0574283357
 22
1.0250810968
 32
0.0
 13
1.6597060336
 23
-1.5685902917
 33
0.0
 40
0.0
 40
0.0
 40
0.0
 40
0.0
 40
0.1298213501
 40
0.3541663999
 40
0.6083505058
 40
0.8969680067
 40
1.0
 40
1.0
 40
1.0
 40
1.0
 10
-51.8956008021
 20
-21.2185128461
 30
0.0
 10
-51.806568094
 20
-21.1741537087
 30
0.0
 10
-51.5477843482
 20
-21.0843340592
 30
0.0
 10
-51.0739980184
 20
-21.091127697
 30
0.0
 10
-50.5181334921
 20
-21.292057843
 30
0.0
 10
-50.1088659329
 20
-21.5703848014
 30
0.0
 10
-49.8857255942
 20
-21.7683403661
 30
0.0
 10
-49.8287246539
 20
-21.8222120276
 30
0.0
 11
-51.8956008021
 21
-21.2185128461
 31
0.0
 11
-51.6145614036
 21
-21.1209058755
 31
0.0
 11
-51.1029393375
 21
-21.1171679974
 31
0.0
 11
-50.5539012319
 21
-21.3031597501
 31
0.0
 11
-50.0048631262
 21
-21.6662061031
 31
0.0
 11
-49.8287246539
 21
-21.8222120276
 31
0.0
  0
SPLINE
  5
432
100
AcDbEntity
  8
0
100
AcDbSpline
 62
7
  6
CONTINUOUS
 70
0
 71
3
 72
8
 73
4
 74
2
 42
0.0000001
 43
0.0000001
 44
0.0000000001
 12
0.3574880884
 22
-0.3378624488
 32
0.0
 13
0.3137768097
 23
-0.3788014096
 33
0.0
 40
0.0
 40
0.0
 40
0.0
 40
0.0
 40
1.0
 40
1.0
 40
1.0
 40
1.0
 10
-49.8287246539
 20
-21.8222120276
 30
0.0
 10
-49.7095619578
 20
-21.9348328439
 30
0.0
 10
-49.59783333
 20
-22.0552989108
 30
0.0
 10
-49.4932410601
 20
-22.1815660473
 30
0.0
 11
-49.8287246539
 21
-21.8222120276
 31
0.0
 11
-49.4932410601
 21
-22.1815660473
 31
0.0
  0
SPLINE
  5
433
100
AcDbEntity
  8
0
100
AcDbSpline
 62
7
  6
CONTINUOUS
 70
0
 71
3
 72
11
 73
7
 74
5
 42
0.0000001
 43
0.0000001
 44
0.0000000001
 12
1.9341672895
 22
-2.334988671
 32
0.0
 13
0.0
 23
-3.027944847
 33
0.0
 40
0.0
 40
0.0
 40
0.0
 40
0.0
 40
0.2543498482
 40
0.5129191791
 40
0.7647744559
 40
1.0
 40
1.0
 40
1.0
 40
1.0
 10
-49.4932410601
 20
-22.1815660473
 30
0.0
 10
-49.3292560079
 20
-22.379534052
 30
0.0
 10
-49.033941077
 20
-22.8075106337
 30
0.0
 10
-48.6999164866
 20
-23.5070486858
 30
0.0
 10
-48.4869580107
 20
-24.2321669564
 30
0.0
 10
-48.4325808883
 20
-24.7244794751
 30
0.0
 10
-48.4325808883
 20
-24.9618961332
 30
0.0
 11
-49.4932410601
 21
-22.1815660473
 31
0.0
 11
-49.0539012319
 21
-22.8141186543
 31
0.0
 11
-48.7167839248
 21
-23.5207565093
 31
0.0
 11
-48.5048631262
 21
-24.2533234101
 31
0.0
 11
-48.4325808883
 21
-24.9618961332
 31
0.0
  0
SPLINE
  5
434
100
AcDbEntity
  8
0
100
AcDbSpline
 62
7
  6
CONTINUOUS
 70
0
 71
3
 72
12
 73
8
 74
6
 42
0.0000001
 43
0.0000001
 44
0.0000000001
 12
2.0574283357
 22
1.0250810968
 32
0.0
 13
1.6597060336
 23
-1.5685902917
 33
0.0
 40
0.0
 40
0.0
 40
0.0
 40
0.0
 40
0.1298213501
 40
0.3541663999
 40
0.6083505058
 40
0.8969680067
 40
1.0
 40
1.0
 40
1.0
 40
1.0
 10
20.229290879
 20
10.2690228086
 30
0.0
 10
20.3183235871
 20
10.3133819459
 30
0.0
 10
20.5771073328
 20
10.4032015955
 30
0.0
 10
21.0508936626
 20
10.3964079577
 30
0.0
 10
21.6067581889
 20
10.1954778117
 30
0.0
 10
22.0160257482
 20
9.9171508533
 30
0.0
 10
22.2391660868
 20
9.7191952886
 30
0.0
 10
22.2961670271
 20
9.6653236271
 30
0.0
 11
20.229290879
 21
10.2690228086
 31
0.0
 11
20.5103302774
 21
10.3666297791
 31
0.0
 11
21.0219523435
 21
10.3703676573
 31
0.0
 11
21.5709904492
 21
10.1843759046
 31
0.0
 11
22.1200285549
 21
9.8213295516
 31
0.0
 11
22.2961670271
 21
9.6653236271
 31
0.0
  0
SPLINE
  5
435
100
AcDbEntity
  8
0
100
AcDbSpline
 62
7
  6
CONTINUOUS
 70
0
 71
3
 72
8
 73
4
 74
2
 42
0.0000001
 43
0.0000001
 44
0.0000000001
 12
0.3574880884
 22
-0.3378624488
 32
0.0
 13
0.3137768097
 23
-0.3788014096
 33
0.0
 40
0.0
 40
0.0
 40
0.0
 40
0.0
 40
1.0
 40
1.0
 40
1.0
 40
1.0
 10
22.2961670271
 20
9.6653236271
 30
0.0
 10
22.4153297232
 20
9.5527028108
 30
0.0
 10
22.5270583511
 20
9.4322367439
 30
0.0
 10
22.631650621
 20
9.3059696073
 30
0.0
 11
22.2961670271
 21
9.6653236271
 31
0.0
 11
22.631650621
 21
9.3059696073
 31
0.0
  0
SPLINE
  5
436
100
AcDbEntity
  8
0
100
AcDbSpline
 62
7
  6
CONTINUOUS
 70
0
 71
3
 72
11
 73
7
 74
5
 42
0.0000001
 43
0.0000001
 44
0.0000000001
 12
1.9341672895
 22
-2.334988671
 32
0.0
 13
0.0
 23
-3.027944847
 33
0.0
 40
0.0
 40
0.0
 40
0.0
 40
0.0
 40
0.2543498482
 40
0.5129191791
 40
0.7647744559
 40
1.0
 40
1.0
 40
1.0
 40
1.0
 10
22.631650621
 20
9.3059696073
 30
0.0
 10
22.7956356731
 20
9.1080016027
 30
0.0
 10
23.090950604
 20
8.680025021
 30
0.0
 10
23.4249751944
 20
7.9804869688
 30
0.0
 10
23.6379336704
 20
7.2553686982
 30
0.0
 10
23.6923107927
 20
6.7630561795
 30
0.0
 10
23.6923107927
 20
6.5256395215
 30
0.0
 11
22.631650621
 21
9.3059696073
 31
0.0
 11
23.0709904492
 21
8.6734170003
 31
0.0
 11
23.4081077563
 21
7.9667791454
 31
0.0
 11
23.6200285549
 21
7.2342122445
 31
0.0
 11
23.6923107927
 21
6.5256395215
 31
0.0
  0
SPLINE
  5
437
100
AcDbEntity
  8
0
100
AcDbSpline
 62
7
  6
CONTINUOUS
 70
0
 71
3
 72
11
 73
7
 74
5
 42
0.0000001
 43
0.0000001
 44
0.0000000001
 12
1.7019854425
 22
0.8479873023
 32
0.0
 13
-0.0
 23
1.8865811492
 33
0.0
 40
0.0
 40
0.0
 40
0.0
 40
0.0
 40
0.0974679906
 40
0.3626002256
 40
0.6605590301
 40
1.0
 40
1.0
 40
1.0
 40
1.0
 10
-49.2122016616
 20
40.9660224184
 30
0.0
 10
-49.1569052946
 20
40.9935729579
 30
0.0
 10
-48.9595518737
 20
41.1124764206
 30
0.0
 10
-48.6780420685
 20
41.4332661805
 30
0.0
 10
-48.4723600767
 20
41.9715106668
 30
0.0
 10
-48.4325808883
 20
42.3746243836
 30
0.0
 10
-48.4325808883
 20
42.588085362
 30
0.0
 11
-49.2122016616
 21
40.9660224184
 31
0.0
 11
-49.0539012319
 21
41.0616282267
 31
0.0
 11
-48.7167839248
 21
41.4311487745
 31
0.0
 11
-48.5048631262
 21
41.9517948768
 31
0.0
 11
-48.4325808883
 21
42.588085362
 31
0.0
  0
SPLINE
  5
438
100
AcDbEntity
  8
0
100
AcDbSpline
 62
7
  6
CONTINUOUS
 70
0
 71
3
 72
11
 73
7
 74
5
 42
0.0000001
 43
0.0000001
 44
0.0000000001
 12
5.6562216791
 22
2.8316811927
 32
0.0
 13
0.0
 23
6.297115668
 33
0.0
 40
0.0
 40
0.0
 40
0.0
 40
0.0
 40
0.2085141479
 40
0.4440618469
 40
0.7066954089
 40
1.0
 40
1.0
 40
1.0
 40
1.0
 10
36.8613984073
 20
-79.2301110269
 30
0.0
 10
37.2545324885
 20
-79.0332958299
 30
0.0
 10
38.016674263
 20
-78.4627534231
 30
0.0
 10
38.8530275123
 20
-77.207753194
 30
0.0
 10
39.3602222718
 20
-75.6083880582
 30
0.0
 10
39.4607920132
 20
-74.436828327
 30
0.0
 10
39.4607920132
 20
-73.8211706815
 30
0.0
 11
36.8613984073
 21
-79.2301110269
 31
0.0
 11
37.9181076313
 21
-78.4494085647
 31
0.0
 11
38.7605361626
 21
-77.2285861599
 31
0.0
 11
39.28350558
 21
-75.6596152817
 31
0.0
 11
39.4607920132
 21
-73.8211706815
 31
0.0
  0
SPLINE
  5
439
100
AcDbEntity
  8
0
100
AcDbSpline
 62
7
  6
CONTINUOUS
 70
0
 71
3
 72
16
 73
12
 74
10
 42
0.0000001
 43
0.0000001
 44
0.0000000001
 12
0.0
 22
-5.7997384459
 32
0.0
 13
5.2322532796
 23
2.6068873639
 33
0.0
 40
0.0
 40
0.0
 40
0.0
 40
0.0
 40
0.1228072578
 40
0.2542966162
 40
0.3892912682
 40
0.522083
 40
0.6472939488
 40
0.7607842163
 40
0.8607345731
 40
0.9489516065
 40
1.0
 40
1.0
 40
1.0
 40
1.0
 10
-52.6752215754
 20
44.7094057055
 30
0.0
 10
-52.6752215754
 20
44.4719890475
 30
0.0
 10
-52.620844453
 20
43.9796765288
 30
0.0
 10
-52.4078859771
 20
43.2545582581
 30
0.0
 10
-52.0738613867
 20
42.555020206
 30
0.0
 10
-51.6404637715
 20
41.9269313068
 30
0.0
 10
-51.1354316394
 20
41.4107193914
 30
0.0
 10
-50.5896689716
 20
41.0395674153
 30
0.0
 10
-50.0338044453
 20
40.8386372693
 30
0.0
 10
-49.5600181155
 20
40.8318436315
 30
0.0
 10
-49.3012343698
 20
40.9216632811
 30
0.0
 10
-49.2122016616
 20
40.9660224184
 30
0.0
 11
-52.6752215754
 21
44.7094057055
 31
0.0
 11
-52.6029393375
 21
44.0008329825
 31
0.0
 11
-52.3910185389
 21
43.2682660816
 31
0.0
 11
-52.0539012319
 21
42.5616282267
 31
0.0
 11
-51.6145614036
 21
41.9290756196
 31
0.0
 11
-51.1029393375
 21
41.4137156754
 31
0.0
 11
-50.5539012319
 21
41.0506693224
 31
0.0
 11
-50.0048631262
 21
40.8646775697
 31
0.0
 11
-49.4932410601
 21
40.8684154479
 31
0.0
 11
-49.2122016616
 21
40.9660224184
 31
0.0
  0
SPLINE
  5
43A
100
AcDbEntity
  8
0
100
AcDbSpline
 62
7
  6
CONTINUOUS
 70
0
 71
3
 72
11
 73
7
 74
5
 42
0.0000001
 43
0.0000001
 44
0.0000000001
 12
0.0
 22
1.8865811492
 32
0.0
 13
1.7019854425
 23
0.8479873023
 33
0.0
 40
0.0
 40
0.0
 40
0.0
 40
0.0
 40
0.3394409699
 40
0.6373997744
 40
0.9025320094
 40
1.0
 40
1.0
 40
1.0
 40
1.0
 10
19.4496701056
 20
8.646959865
 30
0.0
 10
19.4496701056
 20
8.8604208434
 30
0.0
 10
19.489449294
 20
9.2635345602
 30
0.0
 10
19.6951312858
 20
9.8017790464
 30
0.0
 10
19.9766410911
 20
10.1225688064
 30
0.0
 10
20.1739945119
 20
10.2414722691
 30
0.0
 10
20.229290879
 20
10.2690228086
 30
0.0
 11
19.4496701056
 21
8.646959865
 31
0.0
 11
19.5219523435
 21
9.2832503502
 31
0.0
 11
19.7338731421
 21
9.8038964525
 31
0.0
 11
20.0709904492
 21
10.1734170003
 31
0.0
 11
20.229290879
 21
10.2690228086
 31
0.0
  0
SPLINE
  5
43B
100
AcDbEntity
  8
0
100
AcDbSpline
 62
7
  6
CONTINUOUS
 70
0
 71
3
 72
11
 73
7
 74
5
 42
0.0000001
 43
0.0000001
 44
0.0000000001
 12
0.0
 22
1.8865811492
 32
0.0
 13
1.7019854425
 23
0.8479873023
 33
0.0
 40
0.0
 40
0.0
 40
0.0
 40
0.0
 40
0.3394409699
 40
0.6373997744
 40
0.9025320094
 40
1.0
 40
1.0
 40
1.0
 40
1.0
 10
-52.6752215754
 20
-22.8405757897
 30
0.0
 10
-52.6752215754
 20
-22.6271148113
 30
0.0
 10
-52.6354423871
 20
-22.2240010945
 30
0.0
 10
-52.4297603952
 20
-21.6857566082
 30
0.0
 10
-52.14825059
 20
-21.3649668483
 30
0.0
 10
-51.9508971691
 20
-21.2460633855
 30
0.0
 10
-51.8956008021
 20
-21.2185128461
 30
0.0
 11
-52.6752215754
 21
-22.8405757897
 31
0.0
 11
-52.6029393375
 21
-22.2042853045
 31
0.0
 11
-52.3910185389
 21
-21.6836392022
 31
0.0
 11
-52.0539012319
 21
-21.3141186543
 31
0.0
 11
-51.8956008021
 21
-21.2185128461
 31
0.0
  0
SPLINE
  5
43C
100
AcDbEntity
  8
0
100
AcDbSpline
 62
7
  6
CONTINUOUS
 70
0
 71
3
 72
16
 73
12
 74
10
 42
0.0000001
 43
0.0000001
 44
0.0000000001
 12
0.0
 22
-5.7997384459
 32
0.0
 13
5.2322532796
 23
2.6068873639
 33
0.0
 40
0.0
 40
0.0
 40
0.0
 40
0.0
 40
0.1228072578
 40
0.2542966162
 40
0.3892912682
 40
0.522083
 40
0.6472939488
 40
0.7607842163
 40
0.8607345731
 40
0.9489516065
 40
1.0
 40
1.0
 40
1.0
 40
1.0
 10
19.4496701056
 20
-58.9030216302
 30
0.0
 10
19.4496701056
 20
-59.1404382882
 30
0.0
 10
19.504047228
 20
-59.6327508069
 30
0.0
 10
19.717005704
 20
-60.3578690776
 30
0.0
 10
20.0510302943
 20
-61.0574071297
 30
0.0
 10
20.4844279096
 20
-61.6854960289
 30
0.0
 10
20.9894600416
 20
-62.2017079443
 30
0.0
 10
21.5352227094
 20
-62.5728599204
 30
0.0
 10
22.0910872357
 20
-62.7737900664
 30
0.0
 10
22.5648735655
 20
-62.7805837042
 30
0.0
 10
22.8236573113
 20
-62.6907640546
 30
0.0
 10
22.9126900194
 20
-62.6464049173
 30
0.0
 11
19.4496701056
 21
-58.9030216302
 31
0.0
 11
19.5219523435
 21
-59.6115943532
 31
0.0
 11
19.7338731421
 21
-60.3441612541
 31
0.0
 11
20.0709904492
 21
-61.050799109
 31
0.0
 11
20.5103302774
 21
-61.6833517161
 31
0.0
 11
21.0219523435
 21
-62.1987116603
 31
0.0
 11
21.5709904492
 21
-62.5617580133
 31
0.0
 11
22.1200285549
 21
-62.747749766
 31
0.0
 11
22.631650621
 21
-62.7440118878
 31
0.0
 11
22.9126900194
 21
-62.6464049173
 31
0.0
  0
SPLINE
  5
43D
100
AcDbEntity
  8
RACCORDO
100
AcDbSpline
 62
253
  6
CONTINUOUS
 70
0
 71
3
 72
16
 73
12
 74
10
 42
0.0000001
 43
0.0000001
 44
0.0000000001
 12
0.0
 22
-11.7754793073
 32
0.0
 13
10.5323088795
 23
-5.2661544398
 33
0.0
 40
0.0
 40
0.0
 40
0.0
 40
0.0
 40
0.1059954035
 40
0.2180170371
 40
0.3342182645
 40
0.4524711939
 40
0.5705586514
 40
0.686239439
 40
0.7974746867
 40
0.9024936313
 40
1.0
 40
1.0
 40
1.0
 40
1.0
 10
-63.2818232932
 20
-26.1975289686
 30
0.0
 10
-63.2818232932
 20
-26.613577862
 30
0.0
 10
-63.2192258217
 20
-27.4700697163
 30
0.0
 10
-62.9614094742
 20
-28.7592376526
 30
0.0
 10
-62.5443928362
 20
-30.0566583882
 30
0.0
 10
-61.9806127015
 20
-31.3232319645
 30
0.0
 10
-61.2869057746
 20
-32.52126228
 30
0.0
 10
-60.483902675
 20
-33.6151222449
 30
0.0
 10
-59.5952491202
 20
-34.5723240736
 30
0.0
 10
-58.6476036977
 20
-35.3642125833
 30
0.0
 10
-57.9672914413
 20
-35.7829981248
 30
0.0
 10
-57.6249690437
 20
-35.9541593236
 30
0.0
 11
-63.2818232932
 21
-26.1975289686
 31
0.0
 11
-63.1959998273
 21
-27.4427215112
 31
0.0
 11
-62.9408693969
 21
-28.7369222342
 31
0.0
 11
-62.5240792413
 21
-30.0402256059
 31
0.0
 11
-61.958370043
 21
-31.3126199484
 31
0.0
 11
-61.2608745234
 21
-32.5155711168
 31
0.0
 11
-60.4529343031
 21
-33.612299208
 31
0.0
 11
-59.5589764915
 21
-34.5696612873
 31
0.0
 11
-58.6064599504
 21
-35.3583383616
 31
0.0
 11
-57.6249690437
 21
-35.9541593236
 31
0.0
  0
SPLINE
  5
43E
100
AcDbEntity
  8
RACCORDO
100
AcDbSpline
 62
253
  6
CONTINUOUS
 70
0
 71
3
 72
16
 73
12
 74
10
 42
0.0000001
 43
0.0000001
 44
0.0000000001
 12
-7.8297632022
 22
3.9148816011
 32
0.0
 13
0.0
 23
-8.7539413839
 33
0.0
 40
0.0
 40
0.0
 40
0.0
 40
0.0
 40
0.1204849548
 40
0.230896473
 40
0.3332776608
 40
0.4312956712
 40
0.5296963898
 40
0.6331002964
 40
0.7450006474
 40
0.8672198523
 40
1.0
 40
1.0
 40
1.0
 40
1.0
 10
-57.6249690437
 20
62.7727367078
 30
0.0
 10
-57.9394252656
 20
62.9299648188
 30
0.0
 10
-58.5685559868
 20
63.1832854699
 30
0.0
 10
-59.532964782
 20
63.3587130909
 30
0.0
 10
-60.4485221445
 20
63.3016199011
 30
0.0
 10
-61.281828265
 20
63.0066632317
 30
0.0
 10
-61.997630096
 20
62.483173616
 30
0.0
 10
-62.5693551078
 20
61.7555567186
 30
0.0
 10
-62.9829340192
 20
60.8532706672
 30
0.0
 10
-63.2311729036
 20
59.8061142847
 30
0.0
 10
-63.2818232932
 20
59.0604104789
 30
0.0
 10
-63.2818232932
 20
58.6729606023
 30
0.0
 11
-57.6249690437
 21
62.7727367078
 31
0.0
 11
-58.6066272141
 21
63.1584539433
 31
0.0
 11
-59.5591811174
 21
63.3222612088
 31
0.0
 11
-60.4531699958
 21
63.2587940424
 31
0.0
 11
-61.2611258129
 21
62.9699225117
 31
0.0
 11
-61.9585799755
 21
62.4643955325
 31
0.0
 11
-62.5242144985
 21
61.7576921528
 31
0.0
 11
-62.9409406145
 21
60.8711849658
 31
0.0
 11
-63.1960294996
 21
59.8321396597
 31
0.0
 11
-63.2818232932
 21
58.6729606023
 31
0.0
  0
SPLINE
  5
43F
100
AcDbEntity
  8
RACCORDO
100
AcDbSpline
 62
253
  6
CONTINUOUS
 70
0
 71
3
 72
13
 73
9
 74
7
 42
0.0000001
 43
0.0000001
 44
0.0000000001
 12
5.6575714722
 22
2.8260141697
 32
0.0
 13
-0.0000000006
 23
6.3048999042
 33
0.0
 40
0.0
 40
0.0
 40
0.0
 40
0.0
 40
0.0129793992
 40
0.1837290659
 40
0.3631645382
 40
0.5573472527
 40
0.7694430338
 40
1.0
 40
1.0
 40
1.0
 40
1.0
 10
34.5283994787
 20
-80.3966182589
 30
0.0
 10
34.5528767717
 20
-80.3843916035
 30
0.0
 10
34.8974363499
 20
-80.2074835408
 30
0.0
 10
35.5219165236
 20
-79.7508219902
 30
0.0
 10
36.2365296572
 20
-78.8414894291
 30
0.0
 10
36.753555161
 20
-77.7138239541
 30
0.0
 10
37.0639707367
 20
-76.4047642692
 30
0.0
 10
37.1273396353
 20
-75.4724430685
 30
0.0
 10
37.1273396353
 20
-74.9878968705
 30
0.0
 11
34.5283994787
 21
-80.3966182589
 31
0.0
 11
34.6014161961
 21
-80.3591264314
 31
0.0
 11
35.473110769
 21
-79.7273598199
 31
0.0
 11
36.1801134242
 21
-78.8441620626
 31
0.0
 11
36.7010555089
 21
-77.736219759
 31
0.0
 11
37.0199849035
 21
-76.4375658409
 31
0.0
 11
37.1273396353
 21
-74.9878968705
 31
0.0
  0
SPLINE
  5
440
100
AcDbEntity
  8
RACCORDO
100
AcDbSpline
 62
253
  6
CONTINUOUS
 70
0
 71
3
 72
16
 73
12
 74
10
 42
0.0000001
 43
0.0000001
 44
0.0000000001
 12
0.0
 22
11.7754793073
 32
0.0
 13
-10.5323088795
 23
5.2661544398
 33
0.0
 40
0.0
 40
0.0
 40
0.0
 40
0.0
 40
0.1059954035
 40
0.2180170371
 40
0.3342182645
 40
0.4524711939
 40
0.5705586514
 40
0.686239439
 40
0.7974746867
 40
0.9024936313
 40
1.0
 40
1.0
 40
1.0
 40
1.0
 10
34.2989125105
 20
9.8825927004
 30
0.0
 10
34.2989125105
 20
10.2986415938
 30
0.0
 10
34.236315039
 20
11.1551334481
 30
0.0
 10
33.9784986916
 20
12.4443013844
 30
0.0
 10
33.5614820535
 20
13.74172212
 30
0.0
 10
32.9977019188
 20
15.0082956963
 30
0.0
 10
32.3039949919
 20
16.2063260118
 30
0.0
 10
31.5009918923
 20
17.3001859767
 30
0.0
 10
30.6123383376
 20
18.2573878054
 30
0.0
 10
29.664692915
 20
19.0492763151
 30
0.0
 10
28.9843806586
 20
19.4680618566
 30
0.0
 10
28.642058261
 20
19.6392230554
 30
0.0
 11
34.2989125105
 21
9.8825927004
 31
0.0
 11
34.2130890446
 21
11.127785243
 31
0.0
 11
33.9579586142
 21
12.421985966
 31
0.0
 11
33.5411684586
 21
13.7252893377
 31
0.0
 11
32.9754592603
 21
14.9976836802
 31
0.0
 11
32.2779637407
 21
16.2006348486
 31
0.0
 11
31.4700235204
 21
17.2973629398
 31
0.0
 11
30.5760657088
 21
18.2547250191
 31
0.0
 11
29.6235491677
 21
19.0434020934
 31
0.0
 11
28.642058261
 21
19.6392230554
 31
0.0
  0
SPLINE
  5
441
100
AcDbEntity
  8
0
100
AcDbSpline
 62
7
  6
CONTINUOUS
 70
0
 71
3
 72
11
 73
7
 74
5
 42
0.0000001
 43
0.0000001
 44
0.0000000001
 12
-1.7019854425
 22
-0.8479873023
 32
0.0
 13
0.0
 23
-1.8865811492
 33
0.0
 40
0.0
 40
0.0
 40
0.0
 40
0.0
 40
0.0974679906
 40
0.3626002256
 40
0.6605590301
 40
1.0
 40
1.0
 40
1.0
 40
1.0
 10
20.229290879
 20
-57.2809586866
 30
0.0
 10
20.1739945119
 20
-57.308509226
 30
0.0
 10
19.9766410911
 20
-57.4274126888
 30
0.0
 10
19.6951312858
 20
-57.7482024487
 30
0.0
 10
19.489449294
 20
-58.286446935
 30
0.0
 10
19.4496701056
 20
-58.6895606518
 30
0.0
 10
19.4496701056
 20
-58.9030216302
 30
0.0
 11
20.229290879
 21
-57.2809586866
 31
0.0
 11
20.0709904492
 21
-57.3765644949
 31
0.0
 11
19.7338731421
 21
-57.7460850427
 31
0.0
 11
19.5219523435
 21
-58.266731145
 31
0.0
 11
19.4496701056
 21
-58.9030216302
 31
0.0
  0
SPLINE
  5
442
100
AcDbEntity
  8
RACCORDO
100
AcDbSpline
 62
253
  6
CONTINUOUS
 70
0
 71
3
 72
16
 73
12
 74
10
 42
0.0000001
 43
0.0000001
 44
0.0000000001
 12
7.8297632022
 22
-3.9148816011
 32
0.0
 13
0.0
 23
8.7539413839
 33
0.0
 40
0.0
 40
0.0
 40
0.0
 40
0.0
 40
0.1204849548
 40
0.230896473
 40
0.3332776608
 40
0.4312956712
 40
0.5296963898
 40
0.6331002964
 40
0.7450006474
 40
0.8672198523
 40
1.0
 40
1.0
 40
1.0
 40
1.0
 10
28.642058261
 20
-79.087672976
 30
0.0
 10
28.9565144829
 20
-79.2449010869
 30
0.0
 10
29.5856452041
 20
-79.498221738
 30
0.0
 10
30.5500539994
 20
-79.6736493591
 30
0.0
 10
31.4656113618
 20
-79.6165561693
 30
0.0
 10
32.2989174823
 20
-79.3215994999
 30
0.0
 10
33.0147193133
 20
-78.7981098842
 30
0.0
 10
33.5864443251
 20
-78.0704929868
 30
0.0
 10
34.0000232365
 20
-77.1682069354
 30
0.0
 10
34.2482621209
 20
-76.1210505529
 30
0.0
 10
34.2989125105
 20
-75.3753467471
 30
0.0
 10
34.2989125105
 20
-74.9878968705
 30
0.0
 11
28.642058261
 21
-79.087672976
 31
0.0
 11
29.6237164314
 21
-79.4733902115
 31
0.0
 11
30.5762703348
 21
-79.637197477
 31
0.0
 11
31.4702592131
 21
-79.5737303106
 31
0.0
 11
32.2782150302
 21
-79.2848587798
 31
0.0
 11
32.9756691928
 21
-78.7793318007
 31
0.0
 11
33.5413037158
 21
-78.072628421
 31
0.0
 11
33.9580298318
 21
-77.186121234
 31
0.0
 11
34.2131187169
 21
-76.1470759279
 31
0.0
 11
34.2989125105
 21
-74.9878968705
 31
0.0
  0
SPLINE
  5
443
100
AcDbEntity
  8
0
100
AcDbSpline
 62
7
  6
CONTINUOUS
 70
0
 71
3
 72
16
 73
12
 74
10
 42
0.0000001
 43
0.0000001
 44
0.0000000001
 12
-5.2322532796
 22
-2.6068873639
 32
0.0
 13
-0.0
 23
5.7997384459
 33
0.0
 40
0.0
 40
0.0
 40
0.0
 40
0.0
 40
0.0510483935
 40
0.1392654269
 40
0.2392157837
 40
0.3527060512
 40
0.477917
 40
0.6107087318
 40
0.7457033838
 40
0.8771927422
 40
1.0
 40
1.0
 40
1.0
 40
1.0
 10
-49.2122016616
 20
-26.5839590768
 30
0.0
 10
-49.3012343698
 20
-26.6283182141
 30
0.0
 10
-49.5600181155
 20
-26.7181378637
 30
0.0
 10
-50.0338044453
 20
-26.7113442259
 30
0.0
 10
-50.5896689716
 20
-26.5104140799
 30
0.0
 10
-51.1354316394
 20
-26.1392621038
 30
0.0
 10
-51.6404637715
 20
-25.6230501884
 30
0.0
 10
-52.0738613867
 20
-24.9949612892
 30
0.0
 10
-52.4078859771
 20
-24.295423237
 30
0.0
 10
-52.620844453
 20
-23.5703049664
 30
0.0
 10
-52.6752215754
 20
-23.0779924477
 30
0.0
 10
-52.6752215754
 20
-22.8405757897
 30
0.0
 11
-49.2122016616
 21
-26.5839590768
 31
0.0
 11
-49.4932410601
 21
-26.6815660473
 31
0.0
 11
-50.0048631262
 21
-26.6853039255
 31
0.0
 11
-50.5539012319
 21
-26.4993121728
 31
0.0
 11
-51.1029393375
 21
-26.1362658198
 31
0.0
 11
-51.6145614036
 21
-25.6209058755
 31
0.0
 11
-52.0539012319
 21
-24.9883532685
 31
0.0
 11
-52.3910185389
 21
-24.2817154136
 31
0.0
 11
-52.6029393375
 21
-23.5491485127
 31
0.0
 11
-52.6752215754
 21
-22.8405757897
 31
0.0
  0
SPLINE
  5
444
100
AcDbEntity
  8
RACCORDO
100
AcDbSpline
 62
253
  6
CONTINUOUS
 70
0
 71
3
 72
16
 73
12
 74
10
 42
0.0000001
 43
0.0000001
 44
0.0000000001
 12
0.0000000008
 22
14.7193485239
 32
0.0
 13
-13.1653855543
 23
6.5826927752
 33
0.0
 40
0.0
 40
0.0
 40
0.0
 40
0.0
 40
0.1060385634
 40
0.2180490873
 40
0.3342336799
 40
0.4524647277
 40
0.5705327728
 40
0.6861997112
 40
0.7974269167
 40
0.9024423262
 40
1.0
 40
1.0
 40
1.0
 40
1.0
 10
37.1273396353
 20
9.8825927004
 30
0.0
 10
37.1273396353
 20
10.4028655578
 30
0.0
 10
37.0490415329
 20
11.4736376106
 30
0.0
 10
36.726708046
 20
13.0851600275
 30
0.0
 10
36.2054678243
 20
14.7066891314
 30
0.0
 10
35.5008547489
 20
16.2896421697
 30
0.0
 10
34.6338805607
 20
17.7869584895
 30
0.0
 10
33.6302867897
 20
19.1541465579
 30
0.0
 10
32.5196228001
 20
20.3506205379
 30
0.0
 10
31.3349650004
 20
21.3406609433
 30
0.0
 10
30.484399953
 20
21.8643165794
 30
0.0
 10
30.0562718234
 20
22.0783806442
 30
0.0
 11
37.1273396353
 21
9.8825927004
 31
0.0
 11
37.0199717988
 21
11.4397140068
 31
0.0
 11
36.7010314346
 21
13.057292776
 31
0.0
 11
36.1800783956
 21
14.6861759297
 31
0.0
 11
35.4730663212
 21
16.2763716176
 31
0.0
 11
34.6013632237
 21
17.779826624
 31
0.0
 11
33.5916026493
 21
19.1506047871
 31
0.0
 11
32.474297831
 21
20.3472783428
 31
0.0
 11
31.283748967
 21
21.3331599153
 31
0.0
 11
30.0562718234
 21
22.0783806442
 31
0.0
  0
SPLINE
  5
445
100
AcDbEntity
  8
RACCORDO
100
AcDbSpline
 62
253
  6
CONTINUOUS
 70
0
 71
3
 72
11
 73
7
 74
5
 42
0.0000001
 43
0.0000001
 44
0.0000000001
 12
-4.1479311022
 22
2.0739655514
 32
0.0
 13
-4.1613912329
 23
-2.0786533272
 33
0.0
 40
0.0
 40
0.0
 40
0.0
 40
0.0
 40
0.2843953326
 40
0.5448793505
 40
0.7864123342
 40
1.0
 40
1.0
 40
1.0
 40
1.0
 10
-56.2107554813
 20
65.2118942966
 30
0.0
 10
-56.6039728965
 20
65.4085030042
 30
0.0
 10
-57.3905056484
 20
65.7251627487
 30
0.0
 10
-58.5960758467
 20
65.9443822463
 30
0.0
 10
-59.7127928853
 20
65.8746702034
 30
0.0
 10
-60.3866068442
 20
65.6438882956
 30
0.0
 10
-60.6828807909
 20
65.4958967248
 30
0.0
 11
-56.2107554813
 21
65.2118942966
 31
0.0
 11
-57.4383069684
 21
65.694171833
 31
0.0
 11
-58.6288476444
 21
65.8988215957
 31
0.0
 11
-59.7461469825
 21
65.819436702
 31
0.0
 11
-60.6828807909
 21
65.4958967248
 31
0.0
  0
SPLINE
  5
446
100
AcDbEntity
  8
0
100
AcDbSpline
 62
7
  6
CONTINUOUS
 70
0
 71
3
 72
16
 73
12
 74
10
 42
0.0000001
 43
0.0000001
 44
0.0000000001
 12
-5.2322532796
 22
-2.6068873639
 32
0.0
 13
-0.0
 23
5.7997384459
 33
0.0
 40
0.0
 40
0.0
 40
0.0
 40
0.0
 40
0.0510483935
 40
0.1392654269
 40
0.2392157837
 40
0.3527060512
 40
0.477917
 40
0.6107087318
 40
0.7457033838
 40
0.8771927422
 40
1.0
 40
1.0
 40
1.0
 40
1.0
 10
22.9126900194
 20
4.9035765779
 30
0.0
 10
22.8236573113
 20
4.8592174406
 30
0.0
 10
22.5648735655
 20
4.769397791
 30
0.0
 10
22.0910872357
 20
4.7761914288
 30
0.0
 10
21.5352227094
 20
4.9771215748
 30
0.0
 10
20.9894600416
 20
5.3482735509
 30
0.0
 10
20.4844279096
 20
5.8644854662
 30
0.0
 10
20.0510302943
 20
6.4925743655
 30
0.0
 10
19.717005704
 20
7.1921124176
 30
0.0
 10
19.504047228
 20
7.9172306882
 30
0.0
 10
19.4496701056
 20
8.4095432069
 30
0.0
 10
19.4496701056
 20
8.646959865
 30
0.0
 11
22.9126900194
 21
4.9035765779
 31
0.0
 11
22.631650621
 21
4.8059696073
 31
0.0
 11
22.1200285549
 21
4.8022317292
 31
0.0
 11
21.5709904492
 21
4.9882234819
 31
0.0
 11
21.0219523435
 21
5.3512698349
 31
0.0
 11
20.5103302774
 21
5.8666297791
 31
0.0
 11
20.0709904492
 21
6.4991823862
 31
0.0
 11
19.7338731421
 21
7.2058202411
 31
0.0
 11
19.5219523435
 21
7.9383871419
 31
0.0
 11
19.4496701056
 21
8.646959865
 31
0.0
  0
SPLINE
  5
447
100
AcDbEntity
  8
0
100
AcDbSpline
 62
7
  6
CONTINUOUS
 70
0
 71
3
 72
11
 73
7
 74
5
 42
0.0000001
 43
0.0000001
 44
0.0000000001
 12
-1.7019854425
 22
-0.8479873023
 32
0.0
 13
0.0
 23
-1.8865811492
 33
0.0
 40
0.0
 40
0.0
 40
0.0
 40
0.0
 40
0.0974679906
 40
0.3626002256
 40
0.6605590301
 40
1.0
 40
1.0
 40
1.0
 40
1.0
 10
-51.8956008021
 20
46.3314686491
 30
0.0
 10
-51.9508971691
 20
46.3039181097
 30
0.0
 10
-52.14825059
 20
46.1850146469
 30
0.0
 10
-52.4297603952
 20
45.864224887
 30
0.0
 10
-52.6354423871
 20
45.3259804007
 30
0.0
 10
-52.6752215754
 20
44.9228666839
 30
0.0
 10
-52.6752215754
 20
44.7094057055
 30
0.0
 11
-51.8956008021
 21
46.3314686491
 31
0.0
 11
-52.0539012319
 21
46.2358628408
 31
0.0
 11
-52.3910185389
 21
45.866342293
 31
0.0
 11
-52.6029393375
 21
45.3456961907
 31
0.0
 11
-52.6752215754
 21
44.7094057055
 31
0.0
  0
SPLINE
  5
448
100
AcDbEntity
  8
RACCORDO
100
AcDbSpline
 62
253
  6
CONTINUOUS
 70
0
 71
3
 72
11
 73
7
 74
5
 42
0.0000001
 43
0.0000001
 44
0.0000000001
 12
0.0
 22
-1.2579152593
 32
0.0
 13
1.135046876
 23
-0.5650889087
 33
0.0
 40
0.0
 40
0.0
 40
0.0
 40
0.0
 40
0.339388487
 40
0.6373012225
 40
0.902392464
 40
1.0
 40
1.0
 40
1.0
 40
1.0
 10
-57.6249690437
 20
-35.9541593236
 30
0.0
 10
-57.6249690437
 20
-36.0964666425
 30
0.0
 10
-57.5984505785
 20
-36.3652096469
 30
0.0
 10
-57.4613253734
 20
-36.72403725
 30
0.0
 10
-57.2736180713
 20
-36.9379523674
 30
0.0
 10
-57.141968549
 20
-37.0172323739
 30
0.0
 10
-57.1050388394
 20
-37.0356180192
 30
0.0
 11
-57.6249690437
 21
-35.9541593236
 31
0.0
 11
-57.5767808851
 21
-36.3783529804
 31
0.0
 11
-57.4355003527
 21
-36.7254503819
 31
0.0
 11
-57.2107554813
 21
-36.9717974138
 31
0.0
 11
-57.1050388394
 21
-37.0356180192
 31
0.0
  0
SPLINE
  5
449
100
AcDbEntity
  8
RACCORDO
100
AcDbSpline
 62
253
  6
CONTINUOUS
 70
0
 71
3
 72
11
 73
7
 74
5
 42
0.0000001
 43
0.0000001
 44
0.0000000001
 12
-0.0
 22
-1.2579152592
 32
0.0
 13
1.1350468771
 23
-0.5650889085
 33
0.0
 40
0.0
 40
0.0
 40
0.0
 40
0.0
 40
0.3393884681
 40
0.6373012024
 40
0.9023924589
 40
1.0
 40
1.0
 40
1.0
 40
1.0
 10
28.642058261
 20
-79.087672976
 30
0.0
 10
28.642058261
 20
-79.2299802869
 30
0.0
 10
28.668576724
 20
-79.4987232826
 30
0.0
 10
28.805701921
 20
-79.8575508858
 30
0.0
 10
28.9934092244
 20
-80.0714660138
 30
0.0
 10
29.1250587538
 20
-80.1507460252
 30
0.0
 10
29.1619884654
 20
-80.1691316715
 30
0.0
 11
28.642058261
 21
-79.087672976
 31
0.0
 11
28.6902464139
 21
-79.5118666094
 31
0.0
 11
28.8315269385
 21
-79.8589640124
 31
0.0
 11
29.0562718181
 21
-80.1053110624
 31
0.0
 11
29.1619884654
 21
-80.1691316715
 31
0.0
  0
SPLINE
  5
44A
100
AcDbEntity
  8
RACCORDO
100
AcDbSpline
 62
253
  6
CONTINUOUS
 70
0
 71
3
 72
13
 73
9
 74
7
 42
0.0000001
 43
0.0000001
 44
0.0000000001
 12
2.6028004938
 22
-1.3014002469
 32
0.0
 13
2.6028004938
 23
1.3014002469
 33
0.0
 40
0.0
 40
0.0
 40
0.0
 40
0.0
 40
0.1524570658
 40
0.32173371
 40
0.5
 40
0.67826629
 40
0.8475429342
 40
1.0
 40
1.0
 40
1.0
 40
1.0
 10
34.2989125105
 20
-74.9878968705
 30
0.0
 10
34.4311842859
 20
-75.0540327582
 30
0.0
 10
34.7257703489
 20
-75.1631569812
 30
0.0
 10
35.2026556651
 20
-75.2591277535
 30
0.0
 10
35.7131260729
 20
-75.2919014193
 30
0.0
 10
36.2235964808
 20
-75.2591277535
 30
0.0
 10
36.7004817969
 20
-75.1631569812
 30
0.0
 10
36.9950678599
 20
-75.0540327582
 30
0.0
 10
37.1273396353
 20
-74.9878968705
 30
0.0
 11
34.2989125105
 21
-74.9878968705
 31
0.0
 11
34.7131260729
 21
-75.1468154931
 31
0.0
 11
35.1954879827
 21
-75.2467159156
 31
0.0
 11
35.7131260729
 21
-75.2807900893
 31
0.0
 11
36.2307641631
 21
-75.2467159156
 31
0.0
 11
36.7131260729
 21
-75.1468154931
 31
0.0
 11
37.1273396353
 21
-74.9878968705
 31
0.0
  0
SPLINE
  5
44B
100
AcDbEntity
  8
RACCORDO
100
AcDbSpline
 62
253
  6
CONTINUOUS
 70
0
 71
3
 72
13
 73
9
 74
7
 42
0.0000001
 43
0.0000001
 44
0.0000000001
 12
2.6028004934
 22
-1.3014002467
 32
0.0
 13
2.6028004934
 23
1.3014002467
 33
0.0
 40
0.0
 40
0.0
 40
0.0
 40
0.0
 40
0.1524570562
 40
0.3217336973
 40
0.4999999965
 40
0.6782662971
 40
0.8475429416
 40
1.0
 40
1.0
 40
1.0
 40
1.0
 10
34.2989125105
 20
9.8825927004
 30
0.0
 10
34.4311842775
 20
9.8164568169
 30
0.0
 10
34.7257703279
 20
9.7073325964
 30
0.0
 10
35.2026556397
 20
9.6113618202
 30
0.0
 10
35.7131260638
 20
9.5785881504
 30
0.0
 10
36.2235964913
 20
9.6113618178
 30
0.0
 10
36.70048181
 20
9.7073325944
 30
0.0
 10
36.9950678663
 20
9.8164568147
 30
0.0
 10
37.1273396353
 20
9.8825926992
 30
0.0
 11
34.2989125105
 21
9.8825927004
 31
0.0
 11
34.7131260457
 21
9.7236740856
 31
0.0
 11
35.1954879458
 21
9.6237736602
 31
0.0
 11
35.7131260623
 21
9.5896994816
 31
0.0
 11
36.2307641835
 21
9.623773658
 31
0.0
 11
36.7131260933
 21
9.7236740837
 31
0.0
 11
37.1273396353
 21
9.8825926992
 31
0.0
  0
SPLINE
  5
44C
100
AcDbEntity
  8
RACCORDO
100
AcDbSpline
 62
253
  6
CONTINUOUS
 70
0
 71
3
 72
13
 73
9
 74
7
 42
0.0000001
 43
0.0000001
 44
0.0000000001
 12
0.0
 22
2.9415663124
 32
0.0
 13
2.6310168939
 23
1.315508447
 33
0.0
 40
0.0
 40
0.0
 40
0.0
 40
0.0
 40
0.1614219316
 40
0.3342559043
 40
0.511697351
 40
0.6862432064
 40
0.8508246292
 40
1.0
 40
1.0
 40
1.0
 40
1.0
 10
28.642058261
 20
19.6392230554
 30
0.0
 10
28.642058261
 20
19.7975008275
 30
0.0
 10
28.6783084834
 20
20.1257085414
 30
0.0
 10
28.8202865359
 20
20.6091237606
 30
0.0
 10
29.0429478406
 20
21.0754709346
 30
0.0
 10
29.3319582668
 20
21.4942385585
 30
0.0
 10
29.6683783685
 20
21.8382378395
 30
0.0
 10
29.9254441832
 20
22.0129668241
 30
0.0
 10
30.0562718234
 20
22.0783806442
 30
0.0
 11
28.642058261
 21
19.6392230554
 31
0.0
 11
28.6902464196
 21
20.1116048708
 31
0.0
 11
28.831526952
 21
20.5999828047
 31
0.0
 11
29.0562718234
 21
21.071074708
 31
0.0
 11
29.3491650422
 21
21.492776446
 31
0.0
 11
29.6902464196
 21
21.8363497422
 31
0.0
 11
30.0562718234
 21
22.0783806442
 31
0.0
  0
SPLINE
  5
44D
100
AcDbEntity
  8
RACCORDO
100
AcDbSpline
 62
253
  6
CONTINUOUS
 70
0
 71
3
 72
13
 73
9
 74
7
 42
0.0000001
 43
0.0000001
 44
0.0000000001
 12
0.0
 22
2.941566313
 32
0.0
 13
2.6310168944
 23
1.3155084472
 33
0.0
 40
0.0
 40
0.0
 40
0.0
 40
0.0
 40
0.1614219216
 40
0.3342558914
 40
0.5116973474
 40
0.6862432131
 40
0.8508246361
 40
1.0
 40
1.0
 40
1.0
 40
1.0
 10
-57.6249690437
 20
62.7727367078
 30
0.0
 10
-57.6249690437
 20
62.93101447
 30
0.0
 10
-57.588718825
 20
63.2592221713
 30
0.0
 10
-57.4467407788
 20
63.7426373887
 30
0.0
 10
-57.2240794702
 20
64.2089845796
 30
0.0
 10
-56.9350690321
 20
64.6277522193
 30
0.0
 10
-56.5986489254
 20
64.971751501
 30
0.0
 10
-56.3415831146
 20
65.146480479
 30
0.0
 10
-56.2107554804
 20
65.2118942961
 30
0.0
 11
-57.6249690437
 21
62.7727367078
 31
0.0
 11
-57.5767808909
 21
63.2451184941
 31
0.0
 11
-57.4355003662
 21
63.7334964217
 31
0.0
 11
-57.2107554866
 21
64.2045883513
 31
0.0
 11
-56.9178622496
 21
64.626290114
 31
0.0
 11
-56.5767808691
 21
64.9698634079
 31
0.0
 11
-56.2107554804
 21
65.2118942961
 31
0.0
  0
SPLINE
  5
44E
100
AcDbEntity
  8
RACCORDO
100
AcDbSpline
 62
253
  6
CONTINUOUS
 70
0
 71
3
 72
10
 73
6
 74
4
 42
0.0000001
 43
0.0000001
 44
0.0000000001
 12
-0.8588211978
 22
0.4294105989
 32
0.0
 13
0.0
 23
0.9645276564
 33
0.0
 40
0.0
 40
0.0
 40
0.0
 40
0.0
 40
0.3950875622
 40
0.7212632404
 40
1.0
 40
1.0
 40
1.0
 40
1.0
 10
-63.2818232932
 20
58.6729606023
 30
0.0
 10
-63.3949264843
 20
58.7295121978
 30
0.0
 10
-63.5929791037
 20
58.8525506048
 30
0.0
 10
-63.8110077314
 20
59.0959660203
 30
0.0
 10
-63.8676097308
 20
59.2904509456
 30
0.0
 10
-63.8676097308
 20
59.3800673835
 30
0.0
 11
-63.2818232932
 21
58.6729606023
 31
0.0
 11
-63.5996605384
 21
58.8800673835
 31
0.0
 11
-63.7994613834
 21
59.1212483384
 31
0.0
 11
-63.8676097308
 21
59.3800673835
 31
0.0
  0
SPLINE
  5
44F
100
AcDbEntity
  8
RACCORDO
100
AcDbSpline
 62
253
  6
CONTINUOUS
 70
0
 71
3
 72
10
 73
6
 74
4
 42
0.0000001
 43
0.0000001
 44
0.0000000001
 12
-0.8588211977
 22
0.4294105988
 32
0.0
 13
0.0000000012
 23
0.9645276562
 33
0.0
 40
0.0
 40
0.0
 40
0.0
 40
0.0
 40
0.3950875408
 40
0.721263219
 40
1.0
 40
1.0
 40
1.0
 40
1.0
 10
-63.2818232932
 20
-26.1975289686
 30
0.0
 10
-63.3949264782
 20
-26.1409773761
 30
0.0
 10
-63.5929790919
 20
-26.0179389737
 30
0.0
 10
-63.8110077247
 20
-25.774523564
 30
0.0
 10
-63.8676097309
 20
-25.5800386321
 30
0.0
 10
-63.8676097308
 20
-25.4904221874
 30
0.0
 11
-63.2818232932
 21
-26.1975289686
 31
0.0
 11
-63.5996605227
 21
-25.990422201
 31
0.0
 11
-63.7994613735
 21
-25.749241251
 31
0.0
 11
-63.8676097308
 21
-25.4904221874
 31
0.0
  0
ELLIPSE
  5
450
100
AcDbEntity
  8
RACCORDO
100
AcDbEllipse
 62
7
  6
CONTINUOUS
 10
54.5797384621
 20
29.5178011987
 30
0.0
 11
1.3048917676
 21
2.7015425106
 31
0.0
 40
0.6016116119
 41
6.3161740916
 42
6.9422219079
  0
ELLIPSE
  5
451
100
AcDbEntity
  8
RACCORDO
100
AcDbEllipse
 62
7
  6
CONTINUOUS
 10
59.7400169671
 20
20.6176373123
 30
0.0
 11
2.999929097
 21
-0.0421585494
 31
0.0
 40
0.4892375088
 41
-0.7610696355
 42
-0.1350218192
  0
ELLIPSE
  5
452
100
AcDbEntity
  8
RACCORDO
100
AcDbEllipse
 62
7
  6
CONTINUOUS
 10
33.5786670609
 20
40.0183368994
 30
0.0
 11
1.3048917676
 21
2.7015425106
 31
0.0
 40
0.6016116119
 41
6.3161740916
 42
6.9422219079
  0
ELLIPSE
  5
453
100
AcDbEntity
  8
RACCORDO
100
AcDbEllipse
 62
7
  6
CONTINUOUS
 10
12.5775956596
 20
50.5188726
 30
0.0
 11
1.3048917676
 21
2.7015425106
 31
0.0
 40
0.6016116119
 41
6.3161740916
 42
6.9422219079
  0
ELLIPSE
  5
454
100
AcDbEntity
  8
RACCORDO
100
AcDbEllipse
 62
7
  6
CONTINUOUS
 10
-8.4234757416
 20
61.0194083006
 30
0.0
 11
1.3048917676
 21
2.7015425106
 31
0.0
 40
0.6016116119
 41
0.0329887844
 42
0.6590366007
  0
ELLIPSE
  5
455
100
AcDbEntity
  8
RACCORDO
100
AcDbEllipse
 62
7
  6
CONTINUOUS
 10
59.7400169671
 20
-35.7173152039
 30
0.0
 11
2.999929097
 21
-0.0421585494
 31
0.0
 40
0.4892375088
 41
-0.7610696355
 42
-0.1350218192
  0
ELLIPSE
  5
456
100
AcDbEntity
  8
RACCORDO
100
AcDbEllipse
 62
7
  6
CONTINUOUS
 10
59.7400169671
 20
-7.5714895809
 30
0.0
 11
2.999929097
 21
-0.0421585494
 31
0.0
 40
0.4892375088
 41
-0.7610696355
 42
-0.1350218192
  0
ELLIPSE
  5
457
100
AcDbEntity
  8
RACCORDO
100
AcDbEllipse
 62
7
  6
CONTINUOUS
 10
-9.5992799327
 20
61.6073103962
 30
0.0
 11
1.3798615415
 21
2.6640387682
 31
0.0
 40
0.6229838795
 41
0.0501043133
 42
0.6761521296
  0
ELLIPSE
  5
458
100
AcDbEntity
  8
RACCORDO
100
AcDbEllipse
 62
7
  6
CONTINUOUS
 10
59.7400169671
 20
-37.2006766269
 30
0.0
 11
2.9999182366
 21
0.043377328
 31
0.0
 40
0.5106100819
 41
-0.775327905
 42
-0.1492800887
  0
ELLIPSE
  5
459
100
AcDbEntity
  8
RACCORDO
100
AcDbEllipse
 62
7
  6
CONTINUOUS
 10
53.403934271
 20
30.1057032943
 30
0.0
 11
1.3798615415
 21
2.6640387682
 31
0.0
 40
0.6229838795
 41
0.0501043133
 42
0.6761521296
  0
ELLIPSE
  5
45A
100
AcDbEntity
  8
RACCORDO
100
AcDbEllipse
 62
7
  6
CONTINUOUS
 10
32.4028628698
 20
40.6062389949
 30
0.0
 11
1.3798615415
 21
2.6640387682
 31
0.0
 40
0.6229838795
 41
0.0501043133
 42
0.6761521296
  0
ELLIPSE
  5
45B
100
AcDbEntity
  8
RACCORDO
100
AcDbEllipse
 62
7
  6
CONTINUOUS
 10
11.4017914685
 20
51.1067746955
 30
0.0
 11
1.3798615415
 21
2.6640387682
 31
0.0
 40
0.6229838795
 41
0.0501043133
 42
0.6761521296
  0
ELLIPSE
  5
45C
100
AcDbEntity
  8
RACCORDO
100
AcDbEllipse
 62
7
  6
CONTINUOUS
 10
59.7400169671
 20
-9.0115497337
 30
0.0
 11
2.9999182366
 21
0.043377328
 31
0.0
 40
0.5106100819
 41
-0.775327905
 42
-0.1492800887
  0
ELLIPSE
  5
45D
100
AcDbEntity
  8
RACCORDO
100
AcDbEllipse
 62
7
  6
CONTINUOUS
 10
59.7400169671
 20
19.1342758893
 30
0.0
 11
2.9999182366
 21
0.043377328
 31
0.0
 40
0.5106100819
 41
-0.775327905
 42
-0.1492800887
  0
ELLIPSE
  5
45E
100
AcDbEntity
  8
RACCORDO
100
AcDbEllipse
 62
7
  6
CONTINUOUS
 10
7.6124911796
 20
38.0566949718
 30
0.0
 11
-0.4471615512
 21
0.8944566536
 31
0.0
 40
0.6125552124
 41
-2.255296188
 42
-0.6848044481
  0
ELLIPSE
  5
45F
100
AcDbEntity
  8
RACCORDO
100
AcDbEllipse
 62
7
  6
CONTINUOUS
 10
-14.6389941889
 20
46.4374784256
 30
0.0
 11
0.4999863728
 21
0.0072295547
 31
0.0
 40
0.5106100819
 41
0.7780151293
 42
1.2412305144
  0
ELLIPSE
  5
460
100
AcDbEntity
  8
RACCORDO
100
AcDbEllipse
 62
7
  6
CONTINUOUS
 10
3.0509102234
 20
37.5925262194
 30
0.0
 11
0.4999863728
 21
0.0072295547
 31
0.0
 40
0.5106100819
 41
0.3147997442
 42
0.7780151293
  0
ELLIPSE
  5
461
100
AcDbEntity
  8
RACCORDO
100
AcDbEllipse
 62
7
  6
CONTINUOUS
 10
-12.1295073332
 20
47.9276942282
 30
0.0
 11
-0.4474018214
 21
0.8946702271
 31
0.0
 40
0.6121897086
 41
-0.684633879
 42
0.0199943986
  0
ENDSEC
  0
SECTION
  2
OBJECTS
  0
DICTIONARY
  5
C
100
AcDbDictionary
280
0
281
1
  3
ACAD_GROUP
350
D
  3
ACAD_MLINESTYLE
350
17
  3
ACAD_LAYOUT
350
1A
  3
ACAD_PLOTSETTINGS
350
19
  3
ACAD_PLOTSTYLENAME
350
E
  0
DICTIONARY
  5
D
102
{ACAD_REACTORS
330
C
102
}
100
AcDbDictionary
280
0
281
1
  0
ACDBDICTIONARYWDFLT
  5
E
102
{ACAD_REACTORS
330
C
102
}
100
AcDbDictionary
281
1
  3
Normal
350
F
100
AcDbDictionaryWithDefault
340
F
  0
DICTIONARY
  5
17
102
{ACAD_REACTORS
330
C
102
}
100
AcDbDictionary
280
0
281
1
  3
Standard
350
18
  0
DICTIONARY
  5
19
102
{ACAD_REACTORS
330
C
102
}
100
AcDbDictionary
281
1
  0
DICTIONARY
  5
1A
102
{ACAD_REACTORS
330
C
102
}
100
AcDbDictionary
281
1
  3
Model
350
462
  3
Layout1
350
463
  0
ACDBPLACEHOLDER
  5
F
102
{ACAD_REACTORS
330
E
102
}
  0
MLINESTYLE
  5
18
102
{ACAD_REACTORS
330
17
102
}
100
AcDbMlineStyle
  2
STANDARD
 70
0
  3

 62
256
 51
90.0
 52
90.0
 71
2
 49
0.5
 62
256
  6
BYLAYER
 49
-0.5
 62
256
  6
BYLAYER
  0
LAYOUT
  5
462
102
{ACAD_REACTORS
330
1A
102
}
100
AcDbPlotSettings
  1

  2
none_device
  4
ISO_A4_(297.00_x_210.00_MM)
  6

 40
0.0
 41
0.0
 42
0.0
 43
0.0
 44
297.0
 45
210.0
 46
0.0
 47
0.0
 48
0.0
 49
0.0
140
0.0
141
0.0
142
1.0
143
1.0
 70
1024
 72
1
 73
0
 74
0
  7

 75
0
147
1.0
148
0.0
149
0.0
100
AcDbLayout
  1
Model
 70
0
 71
0
 10
0.0
 20
0.0
 11
297.0
 21
210.0
 12
0.0
 22
0.0
 32
0.0
 14
0.0
 24
0.0
 34
0.0
 15
0.0
 25
0.0
 35
0.0
146
0.0
 13
0.0
 23
0.0
 33
0.0
 16
1.0
 26
0.0
 36
0.0
 17
0.0
 27
1.0
 37
0.0
 76
0
330
214
345
0
346
0
  0
LAYOUT
  5
463
102
{ACAD_REACTORS
330
1A
102
}
100
AcDbPlotSettings
  1

  2
none_device
  4
ISO_A4_(297.00_x_210.00_MM)
  6

 40
0.0
 41
0.0
 42
0.0
 43
0.0
 44
297.0
 45
210.0
 46
0.0
 47
0.0
 48
0.0
 49
0.0
140
0.0
141
0.0
142
1.0
143
1.0
 70
0
 72
1
 73
0
 74
0
  7

 75
0
147
1.0
148
0.0
149
0.0
100
AcDbLayout
  1
Layout1
 70
0
 71
1
 10
0.0
 20
0.0
 11
297.0
 21
210.0
 12
0.0
 22
0.0
 32
0.0
 14
0.0
 24
0.0
 34
0.0
 15
0.0
 25
0.0
 35
0.0
146
0.0
 13
0.0
 23
0.0
 33
0.0
 16
1.0
 26
0.0
 36
0.0
 17
0.0
 27
1.0
 37
0.0
 76
0
330
215
345
0
346
0
  0
ENDSEC
  0
EOF
