  0
SECTION
  2
HEADER
  9
$ACADVER
  1
AC1015
  9
$DWGCODEPAGE
  3
ANSI_1252
  9
$EXTMAX
 10
297.0
 20
210.0
 30
0.0
  9
$EXTMIN
 10
0.0
 20
0.0
 30
0.0
  9
$LIMMIN
 10
0.0
 20
0.0
  9
$LIMMAX
 10
297.0
 20
210.0
  9
$VIEWCTR
 10
148.5
 20
105.0
  9
$VIEWSIZE
 40
210.0
  9
$CLAYER
  8
0
  9
$LTSCALE
 40
16.335
  9
$CELTYPE
  6
BYLAYER
  9
$DIMSCALE
 40
1.0
  9
$DIMASZ
 40
3.0
  9
$DIMEXO
 40
1.85625
  9
$DIMDLI
 40
11.286
  9
$DIMEXE
 40
5.346
  9
$DIMCEN
 40
2.673
  9
$DIMLFAC
 40
1.0
  9
$DIMBLK
  1
_FILLED
  9
$DIMTXT
 40
3.0
  9
$DIMTOL
 70
1
  9
$DIMLIM
 70
0
  9
$DIMTFAC
 40
1.0
  9
$DIMTP
 40
0.01
  9
$DIMTM
 40
0.01
  9
$PDMODE
 70
3
  9
$PDSIZE
 40
3.0
  9
$HANDSEED
  5
4A6
  9
$TILEMODE
 70
1
  9
$MEASUREMENT
 70
1
  9
$INSUNITS
 70
4
  0
ENDSEC
  0
SECTION
  2
CLASSES
  0
CLASS
  1
ACDBDICTIONARYWDFLT
  2
AcDbDictionaryWithDefault
  3
AutoCAD 2000
 90
0
280
0
281
0
  0
CLASS
  1
ACDBPLACEHOLDER
  2
AcDbPlaceHolder
  3
AutoCAD 2000
 90
0
280
0
281
0
  0
CLASS
  1
LAYOUT
  2
AcDbLayout
  3
AutoCAD 2000
 90
0
280
0
281
0
  0
ENDSEC
  0
SECTION
  2
TABLES
  0
TABLE
  2
VPORT
  5
8
100
AcDbSymbolTable
 70
2
  0
VPORT
  5
1F4
100
AcDbSymbolTableRecord
100
AcDbViewportTableRecord
  2
*ACTIVE
 70
0
 10
0.0
 20
0.0
 11
1.0
 21
1.0
 12
148.5
 22
105.0
 13
0.0
 23
0.0
 14
1.0
 24
1.0
 15
0.0
 25
0.0
 16
0.0
 26
0.0
 36
1.0
 17
0.0
 27
0.0
 37
0.0
 40
210.0
 41
1.4142857143
 42
50.0
 43
0.0
 44
0.0
 50
0.0
 51
0.0
 71
0
 72
100
 73
1
 74
1
 75
0
 76
0
 77
0
 78
0
  0
ENDTAB
  0
TABLE
  2
LTYPE
  5
5
100
AcDbSymbolTable
 70
6
  0
LTYPE
  5
14
100
AcDbSymbolTableRecord
100
AcDbLinetypeTableRecord
  2
BYBLOCK
 70
0
  3

 72
65
 73
0
 40
0.0
  0
LTYPE
  5
15
100
AcDbSymbolTableRecord
100
AcDbLinetypeTableRecord
  2
BYLAYER
 70
0
  3

 72
65
 73
0
 40
0.0
  0
LTYPE
  5
16
100
AcDbSymbolTableRecord
100
AcDbLinetypeTableRecord
  2
CONTINUOUS
 70
64
  3
Solid line
 72
65
 73
0
 40
0.0
  0
LTYPE
  5
1F5
100
AcDbSymbolTableRecord
100
AcDbLinetypeTableRecord
  2
CENTER
 70
64
  3
____ _ ____ _ ____ _ ____ _ ____ _ ____ _ ____
 72
65
 73
4
 40
0.6
 49
0.375
 74
0
 49
-0.075
 74
0
 49
0.075
 74
0
 49
-0.075
 74
0
  0
LTYPE
  5
1F6
100
AcDbSymbolTableRecord
100
AcDbLinetypeTableRecord
  2
HIDDEN
 70
64
  3
- - - - - - - - - - - - - - - - - - - -
 72
65
 73
2
 40
0.2
 49
0.1
 74
0
 49
-0.1
 74
0
  0
LTYPE
  5
1F7
100
AcDbSymbolTableRecord
100
AcDbLinetypeTableRecord
  2
PHANTOM
 70
64
  3
_____ _ _ _____ _ _ _____ _ _ _____
 72
65
 73
6
 40
0.8
 49
0.45
 74
0
 49
-0.05
 74
0
 49
0.1
 74
0
 49
-0.05
 74
0
 49
0.1
 74
0
 49
-0.05
 74
0
  0
LTYPE
  5
1F8
100
AcDbSymbolTableRecord
100
AcDbLinetypeTableRecord
  2
DOT
 70
64
  3
. . . . . . . . . . . . . . . . . . . .
 72
65
 73
2
 40
0.2
 49
0.1
 74
0
 49
-0.1
 74
0
  0
LTYPE
  5
1F9
100
AcDbSymbolTableRecord
100
AcDbLinetypeTableRecord
  2
DASHED
 70
64
  3
- - - - - - - - - - - - - - - - - - - -
 72
65
 73
2
 40
0.2
 49
0.1
 74
0
 49
-0.1
 74
0
  0
ENDTAB
  0
TABLE
  2
LAYER
  5
2
100
AcDbSymbolTable
 70
36
  0
LAYER
  5
10
100
AcDbSymbolTableRecord
100
AcDbLayerTableRecord
  2
0
 70
0
 62
7
  6
CONTINUOUS
370
-3
390
F
  0
LAYER
  5
1FA
100
AcDbSymbolTableRecord
100
AcDbLayerTableRecord
  2
DEFAULT_1
 70
0
 62
7
  6
CENTER
370
-3
390
F
  0
LAYER
  5
1FB
100
AcDbSymbolTableRecord
100
AcDbLayerTableRecord
  2
DEFAULT_2
 70
0
 62
7
  6
HIDDEN
370
-3
390
F
  0
LAYER
  5
1FC
100
AcDbSymbolTableRecord
100
AcDbLayerTableRecord
  2
DEFAULT_3
 70
0
 62
7
  6
PHANTOM
370
-3
390
F
  0
LAYER
  5
1FD
100
AcDbSymbolTableRecord
100
AcDbLayerTableRecord
  2
ASSI
 70
0
 62
7
  6
CONTINUOUS
370
-3
390
F
  0
LAYER
  5
1FE
100
AcDbSymbolTableRecord
100
AcDbLayerTableRecord
  2
COORDINATE
 70
0
 62
7
  6
CONTINUOUS
370
-3
390
F
  0
LAYER
  5
1FF
100
AcDbSymbolTableRecord
100
AcDbLayerTableRecord
  2
COORD_ORIGINE
 70
0
 62
7
  6
CONTINUOUS
370
-3
390
F
  0
LAYER
  5
200
100
AcDbSymbolTableRecord
100
AcDbLayerTableRecord
  2
COPY_PUBLISH
 70
0
 62
7
  6
CONTINUOUS
370
-3
390
F
  0
LAYER
  5
201
100
AcDbSymbolTableRecord
100
AcDbLayerTableRecord
  2
COSMETIC
 70
0
 62
7
  6
CONTINUOUS
370
-3
390
F
  0
LAYER
  5
202
100
AcDbSymbolTableRecord
100
AcDbLayerTableRecord
  2
CURVA_ASSE
 70
0
 62
7
  6
CONTINUOUS
370
-3
390
F
  0
LAYER
  5
203
100
AcDbSymbolTableRecord
100
AcDbLayerTableRecord
  2
CURVE
 70
0
 62
7
  6
CONTINUOUS
370
-3
390
F
  0
LAYER
  5
204
100
AcDbSymbolTableRecord
100
AcDbLayerTableRecord
  2
CURVE_GUIDA
 70
0
 62
7
  6
CONTINUOUS
370
-3
390
F
  0
LAYER
  5
205
100
AcDbSymbolTableRecord
100
AcDbLayerTableRecord
  2
CURVE_INC_PUNZONI
 70
0
 62
7
  6
CONTINUOUS
370
-3
390
F
  0
LAYER
  5
206
100
AcDbSymbolTableRecord
100
AcDbLayerTableRecord
  2
DRAFT
 70
0
 62
7
  6
CONTINUOUS
370
-3
390
F
  0
LAYER
  5
207
100
AcDbSymbolTableRecord
100
AcDbLayerTableRecord
  2
IMPORT_IGES
 70
0
 62
7
  6
CONTINUOUS
370
-3
390
F
  0
LAYER
  5
208
100
AcDbSymbolTableRecord
100
AcDbLayerTableRecord
  2
NOTE
 70
0
 62
7
  6
CONTINUOUS
370
-3
390
F
  0
LAYER
  5
209
100
AcDbSymbolTableRecord
100
AcDbLayerTableRecord
  2
PIANI
 70
0
 62
7
  6
CONTINUOUS
370
-3
390
F
  0
LAYER
  5
20A
100
AcDbSymbolTableRecord
100
AcDbLayerTableRecord
  2
PIANI_ORIGINE
 70
0
 62
7
  6
CONTINUOUS
370
-3
390
F
  0
LAYER
  5
20B
100
AcDbSymbolTableRecord
100
AcDbLayerTableRecord
  2
PUNTI
 70
0
 62
7
  6
CONTINUOUS
370
-3
390
F
  0
LAYER
  5
20C
100
AcDbSymbolTableRecord
100
AcDbLayerTableRecord
  2
RACCORDO
 70
0
 62
7
  6
CONTINUOUS
370
-3
390
F
  0
LAYER
  5
20D
100
AcDbSymbolTableRecord
100
AcDbLayerTableRecord
  2
SMUSSO
 70
0
 62
7
  6
CONTINUOUS
370
-3
390
F
  0
LAYER
  5
20E
100
AcDbSymbolTableRecord
100
AcDbLayerTableRecord
  2
SUPERFICI
 70
0
 62
7
  6
CONTINUOUS
370
-3
390
F
  0
LAYER
  5
20F
100
AcDbSymbolTableRecord
100
AcDbLayerTableRecord
  2
TRASH
 70
0
 62
7
  6
CONTINUOUS
370
-3
390
F
  0
LAYER
  5
210
100
AcDbSymbolTableRecord
100
AcDbLayerTableRecord
  2
XSEC_DATUMS
 70
0
 62
7
  6
CONTINUOUS
370
-3
390
F
  0
ENDTAB
  0
TABLE
  2
STYLE
  5
3
100
AcDbSymbolTable
 70
1
  0
STYLE
  5
11
100
AcDbSymbolTableRecord
100
AcDbTextStyleTableRecord
  2
STANDARD
 70
0
 40
0.0
 41
0.8
 50
0.0
 71
0
 42
0.2
  3
txt
  4

  0
STYLE
  5
211
100
AcDbSymbolTableRecord
100
AcDbTextStyleTableRecord
  2
TEXTSTYLE_1
 70
0
 40
0.0
 41
0.8
 50
0.0
 71
0
 42
0.2
  3
gdt
  4

  0
ENDTAB
  0
TABLE
  2
VIEW
  5
6
100
AcDbSymbolTable
 70
0
  0
ENDTAB
  0
TABLE
  2
UCS
  5
7
100
AcDbSymbolTable
 70
0
  0
ENDTAB
  0
TABLE
  2
APPID
  5
9
100
AcDbSymbolTable
 70
1
  0
APPID
  5
212
100
AcDbSymbolTableRecord
100
AcDbRegAppTableRecord
  2
ACAD
 70
0
  0
ENDTAB
  0
TABLE
  2
BLOCK_RECORD
  5
1
100
AcDbSymbolTable
 70
0
  0
BLOCK_RECORD
  5
213
100
AcDbSymbolTableRecord
100
AcDbBlockTableRecord
  2
*Model_Space
  0
BLOCK_RECORD
  5
214
100
AcDbSymbolTableRecord
100
AcDbBlockTableRecord
  2
*Paper_Space
  0
ENDTAB
  0
TABLE
  2
DIMSTYLE
  5
A
100
AcDbSymbolTable
 70
1
100
AcDbDimStyleTable
 71
0
  0
DIMSTYLE
105
215
100
AcDbSymbolTableRecord
100
AcDbDimStyleTableRecord
  2
STANDARD
 70
0
  3

  4

 40
1.0
 41
3.0
 42
0.0625
 43
0.38
 44
0.18
 45
0.0
 46
0.0
 47
0.01
 48
0.01
140
3.0
141
0.09
142
0.0
143
25.4
144
1.0
145
0.0
146
1.0
147
0.09
 71
1.0
 72
0.0
 73
0
 74
0
 75
0
 76
0
 77
1
 78
8
170
0
171
2
172
0
173
0
174
0
175
0
176
0
177
0
178
0
270
2
271
2
272
2
273
2
274
2
275
0
280
0
281
0
282
0
283
1
284
8
285
0
286
0
287
3
288
0
340
11
  0
ENDTAB
  0
ENDSEC
  0
SECTION
  2
BLOCKS
  0
BLOCK
  5
20
100
AcDbEntity
  8
0
100
AcDbBlockBegin
  2
*Model_Space
 70
0
 10
0.0
 20
0.0
 30
0.0
  3
*Model_Space
  1

  0
ENDBLK
  5
21
100
AcDbEntity
  8
0
100
AcDbBlockEnd
  0
BLOCK
  5
1C
100
AcDbEntity
  8
0
100
AcDbBlockBegin
  2
*Paper_Space
 70
0
 10
0.0
 20
0.0
 30
0.0
  3
*Paper_Space
  1

  0
ENDBLK
  5
1D
100
AcDbEntity
  8
0
100
AcDbBlockEnd
  0
ENDSEC
  0
SECTION
  2
ENTITIES
  0
LINE
  5
216
100
AcDbEntity
  8
ASSI
100
AcDbLine
 62
7
  6
CONTINUOUS
 10
-64.7182087812
 20
70.6989165735
 11
-67.0516611591
 21
69.5321903846
  0
LINE
  5
217
100
AcDbEntity
  8
RACCORDO
100
AcDbLine
 62
253
  6
CONTINUOUS
 10
-60.2460728262
 20
70.4148987014
 11
-62.5795252041
 21
69.2481725124
  0
LINE
  5
218
100
AcDbEntity
  8
DRAFT
100
AcDbLine
 62
7
  6
CONTINUOUS
 10
-47.8402563844
 20
64.2119904805
 11
-46.5509233733
 21
64.8214581992
  0
LINE
  5
219
100
AcDbEntity
  8
RACCORDO
100
AcDbLine
 62
253
  6
CONTINUOUS
 10
-46.5509916053
 20
64.8214259455
 11
-46.5508114566
 21
64.8215111011
  0
LINE
  5
21A
100
AcDbEntity
  8
RACCORDO
100
AcDbLine
 62
7
  6
CONTINUOUS
 10
-70.2363794536
 20
63.4163455993
 11
-70.2363794536
 21
-21.4541439716
  0
LINE
  5
21B
100
AcDbEntity
  8
RACCORDO
100
AcDbLine
 62
253
  6
CONTINUOUS
 10
-69.6505930159
 20
62.7092388181
 11
-69.6505930159
 21
-22.1612507527
  0
LINE
  5
21C
100
AcDbEntity
  8
0
100
AcDbLine
 62
7
  6
CONTINUOUS
 10
-55.8762817822
 20
47.3906245955
 11
-55.7559447656
 21
47.5242751302
  0
LINE
  5
21D
100
AcDbEntity
  8
0
100
AcDbLine
 62
7
  6
CONTINUOUS
 10
-57.6575335954
 20
50.3921858983
 11
-57.4978355302
 21
50.4720349309
  0
LINE
  5
21E
100
AcDbEntity
  8
0
100
AcDbLine
 62
7
  6
CONTINUOUS
 10
-56.3923408687
 20
49.1418126762
 11
-56.3107395077
 21
49.1826133567
  0
LINE
  5
21F
100
AcDbEntity
  8
0
100
AcDbLine
 62
7
  6
CONTINUOUS
 10
-57.1736262336
 20
48.4206057127
 11
-56.4984068859
 21
48.7582153866
  0
LINE
  5
220
100
AcDbEntity
  8
0
100
AcDbLine
 62
7
  6
CONTINUOUS
 10
-57.1904400601
 20
48.3687329371
 11
-56.3856638976
 21
48.7711210183
  0
LINE
  5
221
100
AcDbEntity
  8
0
100
AcDbLine
 62
7
  6
CONTINUOUS
 10
-56.4363796759
 20
48.3959447302
 11
-57.5521007524
 21
47.8380841919
  0
LINE
  5
222
100
AcDbEntity
  8
RACCORDO
100
AcDbLine
 62
253
  6
CONTINUOUS
 10
-39.0328693906
 20
63.0974259351
 11
-36.8992083321
 21
64.1186430556
  0
LINE
  5
223
100
AcDbEntity
  8
RACCORDO
100
AcDbLine
 62
253
  6
CONTINUOUS
 10
-2.9584034566
 20
75.5770425145
 11
-2.9211874625
 21
75.5946652028
  0
LINE
  5
224
100
AcDbEntity
  8
DRAFT
100
AcDbLine
 62
7
  6
CONTINUOUS
 10
-34.6406707844
 20
63.2291740516
 11
-5.6276175713
 21
76.9116495719
  0
LINE
  5
225
100
AcDbEntity
  8
RACCORDO
100
AcDbLine
 62
7
  6
CONTINUOUS
 10
-1.7882456629
 20
75.028194303
 11
-31.133494513
 21
61.4755859159
  0
LINE
  5
226
100
AcDbEntity
  8
RACCORDO
100
AcDbLine
 62
7
  6
CONTINUOUS
 10
-3.0294874298
 20
75.6600198626
 11
-3.0797604913
 21
75.6377210319
  0
LINE
  5
227
100
AcDbEntity
  8
0
100
AcDbLine
 62
7
  6
CONTINUOUS
 10
-56.3923408687
 20
49.1418126762
 11
-56.4984068859
 21
48.7582153866
  0
LINE
  5
228
100
AcDbEntity
  8
DRAFT
100
AcDbLine
 62
7
  6
CONTINUOUS
 10
-36.883161079
 20
60.5503285929
 11
-37.9288905704
 21
59.2563075735
  0
LINE
  5
229
100
AcDbEntity
  8
DRAFT
100
AcDbLine
 62
7
  6
CONTINUOUS
 10
-35.9499875213
 20
60.0837418141
 11
-37.0328721097
 21
58.8082983432
  0
LINE
  5
22A
100
AcDbEntity
  8
0
100
AcDbLine
 62
7
  6
CONTINUOUS
 10
-57.1904400601
 20
47.4685454566
 11
-56.3258929246
 21
47.9008190244
  0
LINE
  5
22B
100
AcDbEntity
  8
0
100
AcDbLine
 62
7
  6
CONTINUOUS
 10
-57.1736262336
 20
47.4055932886
 11
-56.4984068859
 21
47.7432029625
  0
LINE
  5
22C
100
AcDbEntity
  8
0
100
AcDbLine
 62
7
  6
CONTINUOUS
 10
-56.3923408687
 20
47.2535396557
 11
-55.7559447656
 21
47.5717377072
  0
LINE
  5
22D
100
AcDbEntity
  8
0
100
AcDbLine
 62
7
  6
CONTINUOUS
 10
-56.4554400601
 20
47.1010454566
 11
-55.5879359924
 21
47.5347974904
  0
LINE
  5
22E
100
AcDbEntity
  8
0
100
AcDbLine
 62
7
  6
CONTINUOUS
 10
-56.0103322873
 20
47.0671999594
 11
-55.2638891109
 21
47.4404215476
  0
LINE
  5
22F
100
AcDbEntity
  8
0
100
AcDbLine
 62
7
  6
CONTINUOUS
 10
-56.4984068859
 20
45.9088349252
 11
-56.7812495983
 21
45.7674135689
  0
LINE
  5
230
100
AcDbEntity
  8
0
100
AcDbLine
 62
7
  6
CONTINUOUS
 10
-55.1978588201
 20
45.4728363478
 11
-55.0402135968
 21
45.5516589594
  0
LINE
  5
231
100
AcDbEntity
  8
RACCORDO
100
AcDbLine
 62
7
  6
CONTINUOUS
 10
-28.9521113282
 20
60.3848943235
 11
-0.6137339197
 21
74.4409384314
  0
LINE
  5
232
100
AcDbEntity
  8
0
100
AcDbLine
 62
7
  6
CONTINUOUS
 10
-56.4984068859
 20
50.0161779616
 11
-56.4984068859
 21
48.7582153866
  0
LINE
  5
233
100
AcDbEntity
  8
0
100
AcDbLine
 62
7
  6
CONTINUOUS
 10
-56.4984068859
 20
47.7432029625
 11
-56.4984068859
 21
45.9088349252
  0
LINE
  5
234
100
AcDbEntity
  8
0
100
AcDbLine
 62
7
  6
CONTINUOUS
 10
-56.4984068859
 20
-17.5338035335
 11
-56.4984068859
 21
-18.7917661086
  0
LINE
  5
235
100
AcDbEntity
  8
0
100
AcDbLine
 62
7
  6
CONTINUOUS
 10
-56.4984068859
 20
-19.8067785327
 11
-56.4984068859
 21
-21.64114657
  0
LINE
  5
236
100
AcDbEntity
  8
0
100
AcDbLine
 62
7
  6
CONTINUOUS
 10
-56.3923408687
 20
-20.4173864429
 11
-56.3923408687
 21
-20.2964418395
  0
LINE
  5
237
100
AcDbEntity
  8
0
100
AcDbLine
 62
7
  6
CONTINUOUS
 10
-56.3923408687
 20
-18.408168819
 11
-56.3923408687
 21
-17.9721003373
  0
LINE
  5
238
100
AcDbEntity
  8
0
100
AcDbLine
 62
7
  6
CONTINUOUS
 10
-56.3923408687
 20
47.1325950523
 11
-56.3923408687
 21
47.2535396557
  0
LINE
  5
239
100
AcDbEntity
  8
0
100
AcDbLine
 62
7
  6
CONTINUOUS
 10
-56.3923408687
 20
49.1418126762
 11
-56.3923408687
 21
49.5778811579
  0
LINE
  5
23A
100
AcDbEntity
  8
0
100
AcDbLine
 62
7
  6
CONTINUOUS
 10
-55.7559447656
 20
-20.025706365
 11
-55.7559447656
 21
-19.9782437879
  0
LINE
  5
23B
100
AcDbEntity
  8
0
100
AcDbLine
 62
7
  6
CONTINUOUS
 10
-55.7559447656
 20
47.5242751302
 11
-55.7559447656
 21
47.5717377072
  0
LINE
  5
23C
100
AcDbEntity
  8
RACCORDO
100
AcDbLine
 62
7
  6
CONTINUOUS
 10
-21.9221849857
 20
51.2529547811
 11
-18.9562268253
 21
52.8531572528
  0
LINE
  5
23D
100
AcDbEntity
  8
RACCORDO
100
AcDbLine
 62
253
  6
CONTINUOUS
 10
-21.6625678485
 20
51.1231462126
 11
-18.4984924639
 21
52.8302374718
  0
LINE
  5
23E
100
AcDbEntity
  8
0
100
AcDbLine
 62
7
  6
CONTINUOUS
 10
14.1132004949
 20
-55.4019218
 11
15.6978417032
 21
-55.1368150343
  0
LINE
  5
23F
100
AcDbEntity
  8
RACCORDO
100
AcDbLine
 62
7
  6
CONTINUOUS
 10
-63.4739523951
 20
-32.9996287086
 11
22.7930749097
 21
-76.133142361
  0
LINE
  5
240
100
AcDbEntity
  8
RACCORDO
100
AcDbLine
 62
253
  6
CONTINUOUS
 10
-63.9937387664
 20
-31.9178811078
 11
22.2732885383
 21
-75.0513947602
  0
LINE
  5
241
100
AcDbEntity
  8
0
100
AcDbLine
 62
7
  6
CONTINUOUS
 10
-56.4984068859
 20
-19.8067785327
 11
-56.3923408687
 21
-20.2964418395
  0
LINE
  5
242
100
AcDbEntity
  8
0
100
AcDbLine
 62
7
  6
CONTINUOUS
 10
-55.7595387182
 20
-19.9616519828
 11
-55.7559447656
 21
-19.9782437879
  0
LINE
  5
243
100
AcDbEntity
  8
0
100
AcDbLine
 62
7
  6
CONTINUOUS
 10
-56.3923408687
 20
-18.408168819
 11
-56.4984068859
 21
-18.7917661086
  0
LINE
  5
244
100
AcDbEntity
  8
DRAFT
100
AcDbLine
 62
7
  6
CONTINUOUS
 10
-18.0686674796
 20
49.3261960281
 11
-17.3870849853
 21
49.6669872753
  0
LINE
  5
245
100
AcDbEntity
  8
ASSI
100
AcDbLine
 62
7
  6
CONTINUOUS
 10
10.3288945306
 20
59.396881115
 11
10.1874731744
 21
59.3261704369
  0
LINE
  5
246
100
AcDbEntity
  8
RACCORDO
100
AcDbLine
 62
7
  6
CONTINUOUS
 10
-7.9510399269
 20
49.8843586229
 11
20.3873374815
 21
63.9404027308
  0
LINE
  5
247
100
AcDbEntity
  8
RACCORDO
100
AcDbLine
 62
7
  6
CONTINUOUS
 10
-10.1324231118
 20
50.9750502153
 11
19.2128257383
 21
64.5276586024
  0
LINE
  5
248
100
AcDbEntity
  8
RACCORDO
100
AcDbLine
 62
7
  6
CONTINUOUS
 10
20.2580982704
 20
64.1443746931
 11
-9.2320326295
 21
50.5248549742
  0
LINE
  5
249
100
AcDbEntity
  8
DRAFT
100
AcDbLine
 62
7
  6
CONTINUOUS
 10
36.1325814496
 20
-43.0226769425
 11
33.0920222905
 21
-43.47124366
  0
LINE
  5
24A
100
AcDbEntity
  8
DRAFT
100
AcDbLine
 62
7
  6
CONTINUOUS
 10
36.1325814496
 20
-44.1655764714
 11
33.0920222905
 21
-44.5317251252
  0
LINE
  5
24B
100
AcDbEntity
  8
DRAFT
100
AcDbLine
 62
7
  6
CONTINUOUS
 10
-6.6301714263
 20
43.6069480014
 11
-5.948588932
 21
43.9477392486
  0
LINE
  5
24C
100
AcDbEntity
  8
0
100
AcDbLine
 62
7
  6
CONTINUOUS
 10
16.4424289417
 20
-56.1248932187
 11
16.3689469154
 21
-56.0881522055
  0
LINE
  5
24D
100
AcDbEntity
  8
0
100
AcDbLine
 62
7
  6
CONTINUOUS
 10
-55.6824627393
 20
-20.0624473782
 11
-55.7559447656
 21
-20.025706365
  0
LINE
  5
24E
100
AcDbEntity
  8
0
100
AcDbLine
 62
7
  6
CONTINUOUS
 10
-56.3923408687
 20
-17.9721003373
 11
-56.2391573123
 21
-18.0486921155
  0
LINE
  5
24F
100
AcDbEntity
  8
0
100
AcDbLine
 62
7
  6
CONTINUOUS
 10
15.7325508123
 20
-54.0345461778
 11
15.8857343687
 21
-54.111137956
  0
LINE
  5
250
100
AcDbEntity
  8
0
100
AcDbLine
 62
7
  6
CONTINUOUS
 10
-56.4984068859
 20
47.7432029625
 11
-56.3923408687
 21
47.2535396557
  0
LINE
  5
251
100
AcDbEntity
  8
0
100
AcDbLine
 62
7
  6
CONTINUOUS
 10
-55.7595387182
 20
47.5883295124
 11
-55.7559447656
 21
47.5717377072
  0
LINE
  5
252
100
AcDbEntity
  8
DRAFT
100
AcDbLine
 62
7
  6
CONTINUOUS
 10
-36.883161079
 20
60.5850966111
 11
-36.883161079
 21
60.5503285929
  0
LINE
  5
253
100
AcDbEntity
  8
DRAFT
100
AcDbLine
 62
7
  6
CONTINUOUS
 10
-35.9499875213
 20
60.1185098323
 11
-35.9499875213
 21
60.0837418141
  0
LINE
  5
254
100
AcDbEntity
  8
DRAFT
100
AcDbLine
 62
7
  6
CONTINUOUS
 10
-34.2952539566
 20
57.4394892666
 11
-34.2952539566
 21
59.2911430499
  0
LINE
  5
255
100
AcDbEntity
  8
RACCORDO
100
AcDbLine
 62
253
  6
CONTINUOUS
 10
-2.032559111
 20
41.3081418438
 11
1.2439368649
 21
42.9590228074
  0
LINE
  5
256
100
AcDbEntity
  8
RACCORDO
100
AcDbLine
 62
253
  6
CONTINUOUS
 10
-0.4629922689
 20
40.5233584228
 11
1.9509359503
 21
41.7396297608
  0
LINE
  5
257
100
AcDbEntity
  8
0
100
AcDbLine
 62
7
  6
CONTINUOUS
 10
-55.8762817822
 20
-20.1593568996
 11
-55.7559447656
 21
-20.025706365
  0
LINE
  5
258
100
AcDbEntity
  8
0
100
AcDbLine
 62
7
  6
CONTINUOUS
 10
13.4462384369
 20
40.6484702338
 11
13.3048170807
 21
40.5777595557
  0
LINE
  5
259
100
AcDbEntity
  8
0
100
AcDbLine
 62
7
  6
CONTINUOUS
 10
13.6230151322
 20
40.5600818862
 11
13.481593776
 21
40.489371208
  0
LINE
  5
25A
100
AcDbEntity
  8
0
100
AcDbLine
 62
7
  6
CONTINUOUS
 10
13.151611061
 20
39.9481845882
 11
13.0101897048
 21
39.8774739101
  0
LINE
  5
25B
100
AcDbEntity
  8
RACCORDO
100
AcDbLine
 62
7
  6
CONTINUOUS
 10
13.0500314743
 20
39.3838229223
 11
41.3884088828
 21
53.4398670302
  0
LINE
  5
25C
100
AcDbEntity
  8
DRAFT
100
AcDbLine
 62
253
  6
CONTINUOUS
 10
29.1642347643
 20
47.8158966172
 11
33.4809310201
 21
49.9001891764
  0
LINE
  5
25D
100
AcDbEntity
  8
RACCORDO
100
AcDbLine
 62
7
  6
CONTINUOUS
 10
10.8686482895
 20
40.4745145147
 11
40.2138971396
 21
54.0271229018
  0
LINE
  5
25E
100
AcDbEntity
  8
RACCORDO
100
AcDbLine
 62
7
  6
CONTINUOUS
 10
41.2591696716
 20
53.6438389924
 11
11.7690387718
 21
40.0243192736
  0
LINE
  5
25F
100
AcDbEntity
  8
RACCORDO
100
AcDbLine
 62
253
  6
CONTINUOUS
 10
-20.5127891648
 20
50.7318255856
 11
-20.5127891648
 21
50.5482568707
  0
LINE
  5
260
100
AcDbEntity
  8
RACCORDO
100
AcDbLine
 62
253
  6
CONTINUOUS
 10
21.7783137915
 20
32.6918343441
 11
23.91197485
 21
33.7130514646
  0
LINE
  5
261
100
AcDbEntity
  8
DRAFT
100
AcDbLine
 62
7
  6
CONTINUOUS
 10
36.1325814496
 20
-19.8131961211
 11
33.0920222905
 21
-20.2617628386
  0
LINE
  5
262
100
AcDbEntity
  8
DRAFT
100
AcDbLine
 62
7
  6
CONTINUOUS
 10
36.1325814496
 20
-20.95609565
 11
33.0920222905
 21
-21.3222443037
  0
LINE
  5
263
100
AcDbEntity
  8
DRAFT
100
AcDbLine
 62
7
  6
CONTINUOUS
 10
36.1609694176
 20
-44.1797704554
 11
36.1325814496
 21
-44.1655764714
  0
LINE
  5
264
100
AcDbEntity
  8
DRAFT
100
AcDbLine
 62
7
  6
CONTINUOUS
 10
36.1609694176
 20
-43.0368709265
 11
36.1325814496
 21
-43.0226769425
  0
LINE
  5
265
100
AcDbEntity
  8
DRAFT
100
AcDbLine
 62
7
  6
CONTINUOUS
 10
34.3291815676
 20
-40.4598633866
 11
36.1609694176
 21
-41.3757573116
  0
LINE
  5
266
100
AcDbEntity
  8
0
100
AcDbLine
 62
7
  6
CONTINUOUS
 10
13.3048170807
 20
40.5777595557
 11
12.9218013571
 21
40.0690766457
  0
LINE
  5
267
100
AcDbEntity
  8
0
100
AcDbLine
 62
7
  6
CONTINUOUS
 10
13.0101897048
 20
39.8774739101
 11
13.481593776
 21
40.489371208
  0
LINE
  5
268
100
AcDbEntity
  8
0
100
AcDbLine
 62
7
  6
CONTINUOUS
 10
13.151611061
 20
39.9481845882
 11
13.6230151322
 21
40.5600818862
  0
LINE
  5
269
100
AcDbEntity
  8
RACCORDO
100
AcDbLine
 62
7
  6
CONTINUOUS
 10
30.331786019
 20
29.2637100791
 11
61.2149685408
 21
43.5265872012
  0
LINE
  5
26A
100
AcDbEntity
  8
RACCORDO
100
AcDbLine
 62
7
  6
CONTINUOUS
 10
62.2602410729
 20
43.1433032918
 11
30.9104964337
 21
28.6649523226
  0
LINE
  5
26B
100
AcDbEntity
  8
DRAFT
100
AcDbLine
 62
7
  6
CONTINUOUS
 10
-7.1785049718
 20
51.4732420981
 11
-7.1785049718
 21
50.2675416558
  0
LINE
  5
26C
100
AcDbEntity
  8
DRAFT
100
AcDbLine
 62
7
  6
CONTINUOUS
 10
-6.5405167214
 20
50.5839885314
 11
-6.5405167214
 21
51.7678862143
  0
LINE
  5
26D
100
AcDbEntity
  8
DRAFT
100
AcDbLine
 62
7
  6
CONTINUOUS
 10
18.6954319223
 20
32.7610320923
 11
17.6497024308
 21
31.4670110729
  0
LINE
  5
26E
100
AcDbEntity
  8
RACCORDO
100
AcDbLine
 62
253
  6
CONTINUOUS
 10
26.0209544786
 20
27.281385049
 11
23.6875021007
 21
26.11465886
  0
LINE
  5
26F
100
AcDbEntity
  8
0
100
AcDbLine
 62
7
  6
CONTINUOUS
 10
-57.6575335954
 20
-17.1577955969
 11
-57.4978355302
 21
-17.0779465643
  0
LINE
  5
270
100
AcDbEntity
  8
0
100
AcDbLine
 62
7
  6
CONTINUOUS
 10
-56.3923408687
 20
-18.408168819
 11
-56.3107395077
 21
-18.3673681385
  0
LINE
  5
271
100
AcDbEntity
  8
0
100
AcDbLine
 62
7
  6
CONTINUOUS
 10
-57.1736262336
 20
-19.1293757824
 11
-56.4984068859
 21
-18.7917661086
  0
LINE
  5
272
100
AcDbEntity
  8
0
100
AcDbLine
 62
7
  6
CONTINUOUS
 10
-57.1904400601
 20
-19.1812485581
 11
-56.3856638976
 21
-18.7788604769
  0
LINE
  5
273
100
AcDbEntity
  8
0
100
AcDbLine
 62
7
  6
CONTINUOUS
 10
-56.4363796759
 20
-19.154036765
 11
-57.5521007524
 21
-19.7118973033
  0
LINE
  5
274
100
AcDbEntity
  8
0
100
AcDbLine
 62
7
  6
CONTINUOUS
 10
-57.1904400601
 20
-20.0814360386
 11
-56.3258929246
 21
-19.6491624708
  0
LINE
  5
275
100
AcDbEntity
  8
0
100
AcDbLine
 62
7
  6
CONTINUOUS
 10
-57.1736262336
 20
-20.1443882066
 11
-56.4984068859
 21
-19.8067785327
  0
LINE
  5
276
100
AcDbEntity
  8
0
100
AcDbLine
 62
7
  6
CONTINUOUS
 10
-56.3923408687
 20
-20.2964418395
 11
-55.7559447656
 21
-19.9782437879
  0
LINE
  5
277
100
AcDbEntity
  8
0
100
AcDbLine
 62
7
  6
CONTINUOUS
 10
-56.4554400601
 20
-20.4489360386
 11
-55.5879359924
 21
-20.0151840047
  0
LINE
  5
278
100
AcDbEntity
  8
0
100
AcDbLine
 62
7
  6
CONTINUOUS
 10
-56.0103322873
 20
-20.4827815358
 11
-55.2638891109
 21
-20.1095599476
  0
LINE
  5
279
100
AcDbEntity
  8
0
100
AcDbLine
 62
7
  6
CONTINUOUS
 10
14.4673580857
 20
14.3297400578
 11
14.6270561509
 21
14.4095890904
  0
LINE
  5
27A
100
AcDbEntity
  8
RACCORDO
100
AcDbLine
 62
7
  6
CONTINUOUS
 10
62.389480284
 20
42.9393313296
 11
31.7361166367
 21
27.7350369809
  0
LINE
  5
27B
100
AcDbEntity
  8
DRAFT
100
AcDbLine
 62
7
  6
CONTINUOUS
 10
33.6680523549
 20
25.2400249715
 11
66.1548079028
 21
41.0204368348
  0
LINE
  5
27C
100
AcDbEntity
  8
RACCORDO
100
AcDbLine
 62
253
  6
CONTINUOUS
 10
63.5224220836
 20
42.3728604298
 11
63.4855937881
 21
42.3550438922
  0
LINE
  5
27D
100
AcDbEntity
  8
0
100
AcDbLine
 62
7
  6
CONTINUOUS
 10
-58.0116911862
 20
-19.3394759594
 11
-56.4270499778
 21
-19.0743691937
  0
LINE
  5
27E
100
AcDbEntity
  8
DRAFT
100
AcDbLine
 62
7
  6
CONTINUOUS
 10
-4.5260584687
 20
51.5831746755
 11
-4.5260584687
 21
52.6982297923
  0
LINE
  5
27F
100
AcDbEntity
  8
RACCORDO
100
AcDbLine
 62
253
  6
CONTINUOUS
 10
-2.8228847525
 20
41.7078236883
 11
-2.8228847525
 21
41.8868733795
  0
LINE
  5
280
100
AcDbEntity
  8
RACCORDO
100
AcDbLine
 62
7
  6
CONTINUOUS
 10
-0.530905155
 20
74.478086176
 11
-0.530905155
 21
75.1160745677
  0
LINE
  5
281
100
AcDbEntity
  8
DRAFT
100
AcDbLine
 62
7
  6
CONTINUOUS
 10
19.6286054799
 20
32.2944453134
 11
18.5457208915
 21
31.0190018425
  0
LINE
  5
282
100
AcDbEntity
  8
DRAFT
100
AcDbLine
 62
7
  6
CONTINUOUS
 10
35.1204458408
 20
22.9775428873
 11
66.6312358528
 21
39.0187117593
  0
LINE
  5
283
100
AcDbEntity
  8
DRAFT
100
AcDbLine
 62
7
  6
CONTINUOUS
 10
37.1242704744
 20
19.0293533809
 11
69.3881744527
 21
35.4437044605
  0
LINE
  5
284
100
AcDbEntity
  8
DRAFT
100
AcDbLine
 62
7
  6
CONTINUOUS
 10
35.0234485325
 20
23.1449208322
 11
67.1129722698
 21
39.3678477568
  0
LINE
  5
285
100
AcDbEntity
  8
0
100
AcDbLine
 62
7
  6
CONTINUOUS
 10
-56.4984068859
 20
-21.64114657
 11
-56.7812495983
 21
-21.7825679263
  0
LINE
  5
286
100
AcDbEntity
  8
0
100
AcDbLine
 62
7
  6
CONTINUOUS
 10
-55.1978588201
 20
-22.0771451474
 11
-55.0402135968
 21
-21.9983225358
  0
LINE
  5
287
100
AcDbEntity
  8
0
100
AcDbLine
 62
7
  6
CONTINUOUS
 10
15.7325508123
 20
13.0793668357
 11
15.8141521733
 21
13.1201675162
  0
LINE
  5
288
100
AcDbEntity
  8
0
100
AcDbLine
 62
7
  6
CONTINUOUS
 10
14.9512654474
 20
12.3581598722
 11
15.6264847952
 21
12.6957695461
  0
LINE
  5
289
100
AcDbEntity
  8
0
100
AcDbLine
 62
7
  6
CONTINUOUS
 10
14.9344516209
 20
12.3062870966
 11
15.7392277834
 21
12.7086751778
  0
LINE
  5
28A
100
AcDbEntity
  8
0
100
AcDbLine
 62
7
  6
CONTINUOUS
 10
15.6885120051
 20
12.3334988896
 11
14.5727909286
 21
11.7756383514
  0
LINE
  5
28B
100
AcDbEntity
  8
0
100
AcDbLine
 62
7
  6
CONTINUOUS
 10
14.9344516209
 20
11.4060996161
 11
15.7989987565
 21
11.8383731839
  0
LINE
  5
28C
100
AcDbEntity
  8
0
100
AcDbLine
 62
7
  6
CONTINUOUS
 10
14.9512654474
 20
11.3431474481
 11
15.6264847952
 21
11.680757122
  0
LINE
  5
28D
100
AcDbEntity
  8
0
100
AcDbLine
 62
7
  6
CONTINUOUS
 10
15.7325508123
 20
11.1910938152
 11
16.3689469154
 21
11.5092918667
  0
LINE
  5
28E
100
AcDbEntity
  8
0
100
AcDbLine
 62
7
  6
CONTINUOUS
 10
15.6694516209
 20
11.0385996161
 11
16.5369556886
 21
11.4723516499
  0
LINE
  5
28F
100
AcDbEntity
  8
0
100
AcDbLine
 62
7
  6
CONTINUOUS
 10
16.1145593937
 20
11.0047541189
 11
16.8610025702
 21
11.3779757071
  0
LINE
  5
290
100
AcDbEntity
  8
0
100
AcDbLine
 62
7
  6
CONTINUOUS
 10
15.6264847952
 20
9.8463890846
 11
15.3436420827
 21
9.7049677284
  0
LINE
  5
291
100
AcDbEntity
  8
0
100
AcDbLine
 62
7
  6
CONTINUOUS
 10
16.9270328609
 20
9.4103905073
 11
17.0846780842
 21
9.4892131189
  0
LINE
  5
292
100
AcDbEntity
  8
DRAFT
100
AcDbLine
 62
7
  6
CONTINUOUS
 10
59.1176585276
 20
34.5383079097
 11
66.8192782128
 21
38.3255667494
  0
LINE
  5
293
100
AcDbEntity
  8
DRAFT
100
AcDbLine
 62
7
  6
CONTINUOUS
 10
68.4300100857
 20
37.0962935384
 11
36.0606574294
 21
21.2711396022
  0
LINE
  5
294
100
AcDbEntity
  8
DRAFT
100
AcDbLine
 62
7
  6
CONTINUOUS
 10
36.1325814496
 20
3.3962847003
 11
33.0920222905
 21
2.9477179829
  0
LINE
  5
295
100
AcDbEntity
  8
DRAFT
100
AcDbLine
 62
7
  6
CONTINUOUS
 10
36.1325814496
 20
2.2533851714
 11
33.0920222905
 21
1.8872365177
  0
LINE
  5
296
100
AcDbEntity
  8
DRAFT
100
AcDbLine
 62
7
  6
CONTINUOUS
 10
36.1609694176
 20
-20.970289634
 11
36.1325814496
 21
-20.95609565
  0
LINE
  5
297
100
AcDbEntity
  8
DRAFT
100
AcDbLine
 62
7
  6
CONTINUOUS
 10
36.1609694176
 20
-19.8273901051
 11
36.1325814496
 21
-19.8131961211
  0
LINE
  5
298
100
AcDbEntity
  8
DRAFT
100
AcDbLine
 62
7
  6
CONTINUOUS
 10
34.3291815676
 20
-17.2503825652
 11
36.1609694176
 21
-18.1662764902
  0
LINE
  5
299
100
AcDbEntity
  8
RACCORDO
100
AcDbLine
 62
7
  6
CONTINUOUS
 10
1.9509359503
 20
41.7396297608
 11
1.9509359503
 21
41.1680480965
  0
LINE
  5
29A
100
AcDbEntity
  8
DRAFT
100
AcDbLine
 62
7
  6
CONTINUOUS
 10
3.605669515
 20
40.3406813141
 11
3.605669515
 21
38.4890275308
  0
LINE
  5
29B
100
AcDbEntity
  8
0
100
AcDbLine
 62
7
  6
CONTINUOUS
 10
16.2486098988
 20
11.328178755
 11
16.3689469154
 21
11.4618292896
  0
LINE
  5
29C
100
AcDbEntity
  8
DRAFT
100
AcDbLine
 62
7
  6
CONTINUOUS
 10
31.6131074673
 20
21.5751437457
 11
31.4463998183
 21
21.454323232
  0
LINE
  5
29D
100
AcDbEntity
  8
DRAFT
100
AcDbLine
 62
7
  6
CONTINUOUS
 10
32.0011516305
 20
20.2400727486
 11
32.272960818
 21
20.4370650633
  0
LINE
  5
29E
100
AcDbEntity
  8
DRAFT
100
AcDbLine
 62
7
  6
CONTINUOUS
 10
67.1129722698
 20
39.3678477568
 11
66.6312358528
 21
39.0187117593
  0
LINE
  5
29F
100
AcDbEntity
  8
RACCORDO
100
AcDbLine
 62
7
  6
CONTINUOUS
 10
69.7268515432
 20
30.2220039062
 11
38.9256518715
 21
13.6040500516
  0
LINE
  5
2A0
100
AcDbEntity
  8
RACCORDO
100
AcDbLine
 62
7
  6
CONTINUOUS
 10
69.4245503736
 20
29.3238517686
 11
39.0765037806
 21
12.9503843961
  0
LINE
  5
2A1
100
AcDbEntity
  8
RACCORDO
100
AcDbLine
 62
253
  6
CONTINUOUS
 10
69.3881744527
 20
32.1745981628
 11
69.4245503736
 21
32.1931949313
  0
LINE
  5
2A2
100
AcDbEntity
  8
DRAFT
100
AcDbLine
 62
7
  6
CONTINUOUS
 10
38.9899306496
 20
15.0644285804
 11
38.6007452467
 21
14.8683353218
  0
LINE
  5
2A3
100
AcDbEntity
  8
RACCORDO
100
AcDbLine
 62
253
  6
CONTINUOUS
 10
33.0920222905
 20
15.0855971052
 11
30.7585699126
 21
13.9188709163
  0
LINE
  5
2A4
100
AcDbEntity
  8
RACCORDO
100
AcDbLine
 62
7
  6
CONTINUOUS
 10
69.4245503736
 20
30.8056302727
 11
38.4302682386
 21
15.4322378408
  0
LINE
  5
2A5
100
AcDbEntity
  8
DRAFT
100
AcDbLine
 62
253
  6
CONTINUOUS
 10
34.3291815676
 20
14.7925573749
 11
33.0920222905
 21
14.1952019616
  0
LINE
  5
2A6
100
AcDbEntity
  8
DRAFT
100
AcDbLine
 62
7
  6
CONTINUOUS
 10
33.6052794491
 20
-55.9772725006
 11
33.0920222905
 21
-55.0920348484
  0
LINE
  5
2A7
100
AcDbEntity
  8
DRAFT
100
AcDbLine
 62
7
  6
CONTINUOUS
 10
-5.7460359384
 20
43.1648802575
 11
-5.948588932
 21
43.9477392486
  0
LINE
  5
2A8
100
AcDbEntity
  8
0
100
AcDbLine
 62
7
  6
CONTINUOUS
 10
15.6264847952
 20
-55.8692243732
 11
15.7325508123
 21
-56.35888768
  0
LINE
  5
2A9
100
AcDbEntity
  8
0
100
AcDbLine
 62
7
  6
CONTINUOUS
 10
16.3653529629
 20
-56.0240978233
 11
16.3689469154
 21
-56.0406896285
  0
LINE
  5
2AA
100
AcDbEntity
  8
ASSI
100
AcDbLine
 62
7
  6
CONTINUOUS
 10
10.616464959
 20
59.6915489171
 11
10.616464959
 21
59.1116849369
  0
LINE
  5
2AB
100
AcDbEntity
  8
0
100
AcDbLine
 62
7
  6
CONTINUOUS
 10
12.8334130095
 20
39.9658622577
 11
12.8334130095
 21
39.4921321547
  0
LINE
  5
2AC
100
AcDbEntity
  8
0
100
AcDbLine
 62
7
  6
CONTINUOUS
 10
13.0101897048
 20
39.403743807
 11
13.0101897048
 21
39.8774739101
  0
LINE
  5
2AD
100
AcDbEntity
  8
0
100
AcDbLine
 62
7
  6
CONTINUOUS
 10
13.151611061
 20
39.4342071461
 11
13.151611061
 21
39.9481845882
  0
LINE
  5
2AE
100
AcDbEntity
  8
0
100
AcDbLine
 62
7
  6
CONTINUOUS
 10
13.8587178422
 20
60.7021592601
 11
13.8587178422
 21
61.1889287432
  0
LINE
  5
2AF
100
AcDbEntity
  8
ASSI
100
AcDbLine
 62
7
  6
CONTINUOUS
 10
11.2599937416
 20
59.4131729481
 11
11.260021256
 21
59.9887645418
  0
LINE
  5
2B0
100
AcDbEntity
  8
IMPORT_IGES
100
AcDbLine
 62
7
  6
CONTINUOUS
 10
11.4014423542
 20
60.0540774915
 11
11.4014150709
 21
59.48331897
  0
LINE
  5
2B1
100
AcDbEntity
  8
ASSI
100
AcDbLine
 62
7
  6
CONTINUOUS
 10
11.4014150709
 20
59.48331897
 11
11.4014423542
 21
60.0540774915
  0
LINE
  5
2B2
100
AcDbEntity
  8
0
100
AcDbLine
 62
7
  6
CONTINUOUS
 10
15.7325508123
 20
13.0793668357
 11
15.6264847952
 21
12.6957695461
  0
LINE
  5
2B3
100
AcDbEntity
  8
RACCORDO
100
AcDbLine
 62
253
  6
CONTINUOUS
 10
39.4310808438
 20
6.9465529932
 11
37.3346629776
 21
5.8611008678
  0
LINE
  5
2B4
100
AcDbEntity
  8
DRAFT
100
AcDbLine
 62
7
  6
CONTINUOUS
 10
34.3291815676
 20
5.9590982563
 11
33.0920222905
 21
5.3357485819
  0
LINE
  5
2B5
100
AcDbEntity
  8
0
100
AcDbLine
 62
7
  6
CONTINUOUS
 10
14.1132004949
 20
12.1480596952
 11
15.6978417032
 21
12.4131664609
  0
LINE
  5
2B6
100
AcDbEntity
  8
RACCORDO
100
AcDbLine
 62
7
  6
CONTINUOUS
 10
69.2040799685
 20
-25.6386771898
 11
70.2363794536
 21
-26.1548269323
  0
LINE
  5
2B7
100
AcDbEntity
  8
0
100
AcDbLine
 62
7
  6
CONTINUOUS
 10
15.6264847952
 20
13.9537321211
 11
15.6264847952
 21
12.6957695461
  0
LINE
  5
2B8
100
AcDbEntity
  8
0
100
AcDbLine
 62
7
  6
CONTINUOUS
 10
15.6264847952
 20
11.680757122
 11
15.6264847952
 21
9.8463890846
  0
LINE
  5
2B9
100
AcDbEntity
  8
0
100
AcDbLine
 62
7
  6
CONTINUOUS
 10
15.6264847952
 20
-53.5962493741
 11
15.6264847952
 21
-54.8542119491
  0
LINE
  5
2BA
100
AcDbEntity
  8
0
100
AcDbLine
 62
7
  6
CONTINUOUS
 10
15.6264847952
 20
-55.8692243732
 11
15.6264847952
 21
-57.7035924105
  0
LINE
  5
2BB
100
AcDbEntity
  8
0
100
AcDbLine
 62
7
  6
CONTINUOUS
 10
15.7325508123
 20
-56.4798322834
 11
15.7325508123
 21
-56.35888768
  0
LINE
  5
2BC
100
AcDbEntity
  8
0
100
AcDbLine
 62
7
  6
CONTINUOUS
 10
15.7325508123
 20
-54.4706146595
 11
15.7325508123
 21
-54.0345461778
  0
LINE
  5
2BD
100
AcDbEntity
  8
0
100
AcDbLine
 62
7
  6
CONTINUOUS
 10
15.7325508123
 20
11.0701492118
 11
15.7325508123
 21
11.1910938152
  0
LINE
  5
2BE
100
AcDbEntity
  8
0
100
AcDbLine
 62
7
  6
CONTINUOUS
 10
15.7325508123
 20
13.0793668357
 11
15.7325508123
 21
13.5154353174
  0
LINE
  5
2BF
100
AcDbEntity
  8
0
100
AcDbLine
 62
7
  6
CONTINUOUS
 10
16.3689469154
 20
-56.0881522055
 11
16.3689469154
 21
-56.0406896285
  0
LINE
  5
2C0
100
AcDbEntity
  8
0
100
AcDbLine
 62
7
  6
CONTINUOUS
 10
16.3689469154
 20
11.4618292896
 11
16.3689469154
 21
11.5092918667
  0
LINE
  5
2C1
100
AcDbEntity
  8
DRAFT
100
AcDbLine
 62
7
  6
CONTINUOUS
 10
18.6954319223
 20
32.7958001105
 11
18.6954319223
 21
32.7610320923
  0
LINE
  5
2C2
100
AcDbEntity
  8
DRAFT
100
AcDbLine
 62
7
  6
CONTINUOUS
 10
19.6286054799
 20
32.3292133316
 11
19.6286054799
 21
32.2944453134
  0
LINE
  5
2C3
100
AcDbEntity
  8
RACCORDO
100
AcDbLine
 62
7
  6
CONTINUOUS
 10
20.4701662463
 20
64.615538867
 11
20.4701662463
 21
63.9870024738
  0
LINE
  5
2C4
100
AcDbEntity
  8
DRAFT
100
AcDbLine
 62
7
  6
CONTINUOUS
 10
21.2833390447
 20
29.650192766
 11
21.2833390447
 21
31.5018465493
  0
LINE
  5
2C5
100
AcDbEntity
  8
0
100
AcDbLine
 62
7
  6
CONTINUOUS
 10
36.7923145331
 20
21.6288417292
 11
37.6175056901
 21
22.8302203909
  0
LINE
  5
2C6
100
AcDbEntity
  8
0
100
AcDbLine
 62
7
  6
CONTINUOUS
 10
16.4424289417
 20
11.4250882765
 11
16.3689469154
 21
11.4618292896
  0
LINE
  5
2C7
100
AcDbEntity
  8
0
100
AcDbLine
 62
7
  6
CONTINUOUS
 10
-55.6824627393
 20
47.487534117
 11
-55.7559447656
 21
47.5242751302
  0
LINE
  5
2C8
100
AcDbEntity
  8
DRAFT
100
AcDbLine
 62
7
  6
CONTINUOUS
 10
36.1609694176
 20
2.2391911874
 11
36.1325814496
 21
2.2533851714
  0
LINE
  5
2C9
100
AcDbEntity
  8
0
100
AcDbLine
 62
7
  6
CONTINUOUS
 10
-56.3923408687
 20
49.5778811579
 11
-56.2391573123
 21
49.5012893797
  0
LINE
  5
2CA
100
AcDbEntity
  8
0
100
AcDbLine
 62
7
  6
CONTINUOUS
 10
15.7325508123
 20
13.5154353174
 11
15.8857343687
 21
13.4388435392
  0
LINE
  5
2CB
100
AcDbEntity
  8
DRAFT
100
AcDbLine
 62
7
  6
CONTINUOUS
 10
36.1609694176
 20
3.3820907163
 11
36.1325814496
 21
3.3962847003
  0
LINE
  5
2CC
100
AcDbEntity
  8
DRAFT
100
AcDbLine
 62
7
  6
CONTINUOUS
 10
34.3291815676
 20
5.9590982563
 11
36.1609694176
 21
5.0432043313
  0
LINE
  5
2CD
100
AcDbEntity
  8
0
100
AcDbLine
 62
7
  6
CONTINUOUS
 10
15.6264847952
 20
11.680757122
 11
15.7325508123
 21
11.1910938152
  0
LINE
  5
2CE
100
AcDbEntity
  8
0
100
AcDbLine
 62
7
  6
CONTINUOUS
 10
16.3653529629
 20
11.5258836719
 11
16.3689469154
 21
11.5092918667
  0
LINE
  5
2CF
100
AcDbEntity
  8
DRAFT
100
AcDbLine
 62
7
  6
CONTINUOUS
 10
25.4232586051
 20
46.3302904779
 11
25.4232586051
 21
45.5210347958
  0
LINE
  5
2D0
100
AcDbEntity
  8
RACCORDO
100
AcDbLine
 62
7
  6
CONTINUOUS
 10
26.5125843349
 20
46.8333771989
 11
26.5125843349
 21
46.0613483884
  0
LINE
  5
2D1
100
AcDbEntity
  8
RACCORDO
100
AcDbLine
 62
253
  6
CONTINUOUS
 10
27.9301427878
 20
-70.9516186546
 11
27.9301427878
 21
13.9188709163
  0
LINE
  5
2D2
100
AcDbEntity
  8
RACCORDO
100
AcDbLine
 62
7
  6
CONTINUOUS
 10
28.0749090346
 20
46.836272957
 11
28.0749090346
 21
47.5549105189
  0
LINE
  5
2D3
100
AcDbEntity
  8
RACCORDO
100
AcDbLine
 62
7
  6
CONTINUOUS
 10
69.4245503736
 20
2.6165033795
 11
39.7117410434
 21
-12.121269094
  0
LINE
  5
2D4
100
AcDbEntity
  8
0
100
AcDbLine
 62
7
  6
CONTINUOUS
 10
36.1928410386
 20
22.8895799868
 11
37.6175056901
 21
22.8302203909
  0
LINE
  5
2D5
100
AcDbEntity
  8
0
100
AcDbLine
 62
7
  6
CONTINUOUS
 10
12.6341205086
 20
40.4238426874
 11
12.8334130095
 21
39.9658622577
  0
LINE
  5
2D6
100
AcDbEntity
  8
0
100
AcDbLine
 62
7
  6
CONTINUOUS
 10
12.9218013571
 20
40.0690766457
 11
12.7470205681
 21
40.4759836763
  0
LINE
  5
2D7
100
AcDbEntity
  8
0
100
AcDbLine
 62
7
  6
CONTINUOUS
 10
13.0311919245
 20
40.2143581805
 11
12.8903765982
 21
40.5421902416
  0
LINE
  5
2D8
100
AcDbEntity
  8
ASSI
100
AcDbLine
 62
7
  6
CONTINUOUS
 10
10.1874731744
 20
59.3261704369
 11
10.1524563317
 21
59.4772543563
  0
LINE
  5
2D9
100
AcDbEntity
  8
IMPORT_IGES
100
AcDbLine
 62
7
  6
CONTINUOUS
 10
10.2950077365
 20
59.543089319
 11
10.3288945306
 21
59.396881115
  0
LINE
  5
2DA
100
AcDbEntity
  8
ASSI
100
AcDbLine
 62
7
  6
CONTINUOUS
 10
10.3288945306
 20
59.396881115
 11
10.2950077365
 21
59.543089319
  0
LINE
  5
2DB
100
AcDbEntity
  8
DRAFT
100
AcDbLine
 62
7
  6
CONTINUOUS
 10
29.1642347643
 20
47.3765865496
 11
29.1642347643
 21
47.8158966172
  0
LINE
  5
2DC
100
AcDbEntity
  8
RACCORDO
100
AcDbLine
 62
253
  6
CONTINUOUS
 10
30.7585699126
 20
-70.9516186546
 11
30.7585699126
 21
13.9188709163
  0
LINE
  5
2DD
100
AcDbEntity
  8
0
100
AcDbLine
 62
7
  6
CONTINUOUS
 10
33.0920222905
 20
-69.7848924657
 11
33.0920222905
 21
15.0855971052
  0
LINE
  5
2DE
100
AcDbEntity
  8
DRAFT
100
AcDbLine
 62
7
  6
CONTINUOUS
 10
33.4809310201
 20
28.600477778
 11
33.4809310201
 21
29.8520641959
  0
LINE
  5
2DF
100
AcDbEntity
  8
DRAFT
100
AcDbLine
 62
7
  6
CONTINUOUS
 10
33.4809310201
 20
49.5176997156
 11
33.4809310201
 21
49.9001891764
  0
LINE
  5
2E0
100
AcDbEntity
  8
DRAFT
100
AcDbLine
 62
7
  6
CONTINUOUS
 10
34.3291815676
 20
-50.5057580705
 11
34.3291815676
 21
-44.382744566
  0
LINE
  5
2E1
100
AcDbEntity
  8
DRAFT
100
AcDbLine
 62
7
  6
CONTINUOUS
 10
34.3291815676
 20
-40.4598633866
 11
34.3291815676
 21
-21.1732637445
  0
LINE
  5
2E2
100
AcDbEntity
  8
DRAFT
100
AcDbLine
 62
7
  6
CONTINUOUS
 10
34.3291815676
 20
-17.2503825652
 11
34.3291815676
 21
2.0362170769
  0
LINE
  5
2E3
100
AcDbEntity
  8
DRAFT
100
AcDbLine
 62
7
  6
CONTINUOUS
 10
34.3291815676
 20
5.9590982563
 11
34.3291815676
 21
14.7925573749
  0
LINE
  5
2E4
100
AcDbEntity
  8
0
100
AcDbLine
 62
7
  6
CONTINUOUS
 10
15.7325508123
 20
-54.4706146595
 11
15.6264847952
 21
-54.8542119491
  0
LINE
  5
2E5
100
AcDbEntity
  8
RACCORDO
100
AcDbLine
 62
7
  6
CONTINUOUS
 10
69.7268515432
 20
2.0761782832
 11
39.7117410434
 21
-14.1176624289
  0
LINE
  5
2E6
100
AcDbEntity
  8
RACCORDO
100
AcDbLine
 62
7
  6
CONTINUOUS
 10
69.4245503736
 20
1.1780261456
 11
39.7117410434
 21
-14.8527161502
  0
LINE
  5
2E7
100
AcDbEntity
  8
DRAFT
100
AcDbLine
 62
7
  6
CONTINUOUS
 10
34.3291815676
 20
-17.2503825652
 11
33.0920222905
 21
-17.8737322395
  0
LINE
  5
2E8
100
AcDbEntity
  8
ASSI
100
AcDbLine
 62
7
  6
CONTINUOUS
 10
46.1257298509
 20
-9.8576776604
 11
45.9843084947
 21
-9.9283857404
  0
LINE
  5
2E9
100
AcDbEntity
  8
ASSI
100
AcDbLine
 62
7
  6
CONTINUOUS
 10
46.1257298509
 20
-10.5079042559
 11
45.9843084947
 21
-10.5786149341
  0
LINE
  5
2EA
100
AcDbEntity
  8
DRAFT
100
AcDbLine
 62
7
  6
CONTINUOUS
 10
60.1594692342
 20
25.3025898202
 11
59.4374196665
 21
25.4266600312
  0
LINE
  5
2EB
100
AcDbEntity
  8
DRAFT
100
AcDbLine
 62
7
  6
CONTINUOUS
 10
40.3614238569
 20
14.3786819768
 11
38.4616017734
 21
15.3285930185
  0
LINE
  5
2EC
100
AcDbEntity
  8
RACCORDO
100
AcDbLine
 62
253
  6
CONTINUOUS
 10
22.2732885383
 20
23.6755012713
 11
-63.9937387664
 21
66.8090149237
  0
LINE
  5
2ED
100
AcDbEntity
  8
DRAFT
100
AcDbLine
 62
7
  6
CONTINUOUS
 10
41.6448453643
 20
15.0711173239
 11
39.6814317147
 21
16.0528241487
  0
LINE
  5
2EE
100
AcDbEntity
  8
RACCORDO
100
AcDbLine
 62
7
  6
CONTINUOUS
 10
69.7231816375
 20
2.2908988689
 11
70.2363794536
 21
2.0342999608
  0
LINE
  5
2EF
100
AcDbEntity
  8
RACCORDO
100
AcDbLine
 62
253
  6
CONTINUOUS
 10
23.6875021007
 20
26.11465886
 11
-62.5795252041
 21
69.2481725124
  0
LINE
  5
2F0
100
AcDbEntity
  8
ASSI
100
AcDbLine
 62
7
  6
CONTINUOUS
 10
11.8216627066
 20
60.0327365175
 11
11.9231794115
 21
59.7421179294
  0
LINE
  5
2F1
100
AcDbEntity
  8
DRAFT
100
AcDbLine
 62
7
  6
CONTINUOUS
 10
36.1325814496
 20
3.3962847003
 11
36.1325814496
 21
2.2533851714
  0
LINE
  5
2F2
100
AcDbEntity
  8
DRAFT
100
AcDbLine
 62
7
  6
CONTINUOUS
 10
36.1325814496
 20
-19.8131961211
 11
36.1325814496
 21
-20.95609565
  0
LINE
  5
2F3
100
AcDbEntity
  8
DRAFT
100
AcDbLine
 62
7
  6
CONTINUOUS
 10
36.1325814496
 20
-43.0226769425
 11
36.1325814496
 21
-44.1655764714
  0
LINE
  5
2F4
100
AcDbEntity
  8
DRAFT
100
AcDbLine
 62
7
  6
CONTINUOUS
 10
36.1609694176
 20
6.4479476478
 11
36.1609694176
 21
3.3820907163
  0
LINE
  5
2F5
100
AcDbEntity
  8
DRAFT
100
AcDbLine
 62
7
  6
CONTINUOUS
 10
36.1609694176
 20
2.2391911874
 11
36.1609694176
 21
-19.8273901051
  0
LINE
  5
2F6
100
AcDbEntity
  8
DRAFT
100
AcDbLine
 62
7
  6
CONTINUOUS
 10
36.1609694176
 20
-20.970289634
 11
36.1609694176
 21
-43.0368709265
  0
LINE
  5
2F7
100
AcDbEntity
  8
DRAFT
100
AcDbLine
 62
7
  6
CONTINUOUS
 10
36.1609694176
 20
-44.1797704554
 11
36.1609694176
 21
-47.2456273868
  0
LINE
  5
2F8
100
AcDbEntity
  8
DRAFT
100
AcDbLine
 62
7
  6
CONTINUOUS
 10
37.3346629776
 20
-47.8324741669
 11
37.3346629776
 21
5.8611008678
  0
LINE
  5
2F9
100
AcDbEntity
  8
RACCORDO
100
AcDbLine
 62
253
  6
CONTINUOUS
 10
39.4310808438
 20
6.9465529932
 11
39.4310808438
 21
-46.7470220415
  0
LINE
  5
2FA
100
AcDbEntity
  8
RACCORDO
100
AcDbLine
 62
7
  6
CONTINUOUS
 10
39.7117410434
 20
7.2938821784
 11
39.7117410434
 21
-46.3996928562
  0
LINE
  5
2FB
100
AcDbEntity
  8
RACCORDO
100
AcDbLine
 62
7
  6
CONTINUOUS
 10
41.4712376475
 20
54.1150031664
 11
41.4712376475
 21
53.4864667732
  0
LINE
  5
2FC
100
AcDbEntity
  8
DRAFT
100
AcDbLine
 62
7
  6
CONTINUOUS
 10
45.8134304827
 20
17.3201646297
 11
44.0321423484
 21
18.2108086968
  0
LINE
  5
2FD
100
AcDbEntity
  8
0
100
AcDbLine
 62
7
  6
CONTINUOUS
 10
26.0209544786
 20
27.281385049
 11
-60.2460728262
 21
70.4148987014
  0
LINE
  5
2FE
100
AcDbEntity
  8
RACCORDO
100
AcDbLine
 62
7
  6
CONTINUOUS
 10
-20.5127891648
 20
50.7318255856
 11
-17.8850987647
 21
49.4179803856
  0
LINE
  5
2FF
100
AcDbEntity
  8
RACCORDO
100
AcDbLine
 62
7
  6
CONTINUOUS
 10
-5.800588972
 20
43.3757254892
 11
-2.8228847525
 21
41.8868733795
  0
LINE
  5
300
100
AcDbEntity
  8
DRAFT
100
AcDbLine
 62
7
  6
CONTINUOUS
 10
-17.3870849853
 20
49.6669872753
 11
-5.948588932
 21
43.9477392486
  0
LINE
  5
301
100
AcDbEntity
  8
DRAFT
100
AcDbLine
 62
7
  6
CONTINUOUS
 10
-36.883161079
 20
60.5503285929
 11
-35.9499875213
 21
60.0837418141
  0
LINE
  5
302
100
AcDbEntity
  8
DRAFT
100
AcDbLine
 62
7
  6
CONTINUOUS
 10
18.6954319223
 20
32.7610320923
 11
19.6286054799
 21
32.2944453134
  0
LINE
  5
303
100
AcDbEntity
  8
DRAFT
100
AcDbLine
 62
7
  6
CONTINUOUS
 10
-39.0328693906
 20
61.6599507669
 11
-36.883161079
 21
60.5850966111
  0
LINE
  5
304
100
AcDbEntity
  8
DRAFT
100
AcDbLine
 62
7
  6
CONTINUOUS
 10
-35.9499875213
 20
60.1185098323
 11
-20.140931577
 21
52.2139818601
  0
LINE
  5
305
100
AcDbEntity
  8
DRAFT
100
AcDbLine
 62
7
  6
CONTINUOUS
 10
1.9509359503
 20
41.1680480965
 11
18.6954319223
 21
32.7958001105
  0
LINE
  5
306
100
AcDbEntity
  8
DRAFT
100
AcDbLine
 62
7
  6
CONTINUOUS
 10
19.6286054799
 20
32.3292133316
 11
21.7783137915
 21
31.2543591758
  0
LINE
  5
307
100
AcDbEntity
  8
RACCORDO
100
AcDbLine
 62
7
  6
CONTINUOUS
 10
-39.0328693906
 20
63.0974259351
 11
21.7783137915
 21
32.6918343441
  0
LINE
  5
308
100
AcDbEntity
  8
RACCORDO
100
AcDbLine
 62
253
  6
CONTINUOUS
 10
-36.8992083321
 20
64.1186430556
 11
23.91197485
 21
33.7130514646
  0
LINE
  5
309
100
AcDbEntity
  8
RACCORDO
100
AcDbLine
 62
7
  6
CONTINUOUS
 10
-36.4643354515
 20
64.1410063852
 11
24.3468477305
 21
33.7354147942
  0
LINE
  5
30A
100
AcDbEntity
  8
0
100
AcDbLine
 62
7
  6
CONTINUOUS
 10
13.481593776
 20
40.489371208
 11
13.3048170807
 21
40.5777595557
  0
LINE
  5
30B
100
AcDbEntity
  8
0
100
AcDbLine
 62
7
  6
CONTINUOUS
 10
13.6230151322
 20
40.5600818862
 11
13.4462384369
 21
40.6484702338
  0
LINE
  5
30C
100
AcDbEntity
  8
DRAFT
100
AcDbLine
 62
7
  6
CONTINUOUS
 10
66.9982897502
 20
-33.1379863302
 11
67.1129722698
 21
-33.3357844176
  0
LINE
  5
30D
100
AcDbEntity
  8
0
100
AcDbLine
 62
7
  6
CONTINUOUS
 10
35.168682471
 20
23.0020986642
 11
35.1961703037
 21
22.8468732306
  0
LINE
  5
30E
100
AcDbEntity
  8
ASSI
100
AcDbLine
 62
7
  6
CONTINUOUS
 10
45.9843084947
 20
-10.5786149341
 11
45.9843084947
 21
-9.9283883385
  0
LINE
  5
30F
100
AcDbEntity
  8
IMPORT_IGES
100
AcDbLine
 62
7
  6
CONTINUOUS
 10
46.1257298509
 20
-9.8576750623
 11
46.1257298509
 21
-10.5079042559
  0
LINE
  5
310
100
AcDbEntity
  8
ASSI
100
AcDbLine
 62
7
  6
CONTINUOUS
 10
46.1257298509
 20
-10.5079042559
 11
46.1257298509
 21
-9.8576776604
  0
LINE
  5
311
100
AcDbEntity
  8
DRAFT
100
AcDbLine
 62
7
  6
CONTINUOUS
 10
51.0377490266
 20
21.6856412552
 11
50.9818238545
 21
21.4579805006
  0
LINE
  5
312
100
AcDbEntity
  8
DRAFT
100
AcDbLine
 62
7
  6
CONTINUOUS
 10
51.4707670372
 20
21.9004213808
 11
51.4161405944
 21
21.6780475061
  0
LINE
  5
313
100
AcDbEntity
  8
0
100
AcDbLine
 62
7
  6
CONTINUOUS
 10
16.2486098988
 20
-56.2218027402
 11
16.3689469154
 21
-56.0881522055
  0
LINE
  5
314
100
AcDbEntity
  8
DRAFT
100
AcDbLine
 62
7
  6
CONTINUOUS
 10
34.3291815676
 20
-40.4598633866
 11
33.0920222905
 21
-41.0832130609
  0
LINE
  5
315
100
AcDbEntity
  8
0
100
AcDbLine
 62
7
  6
CONTINUOUS
 10
14.4673580857
 20
-53.2202414374
 11
14.6270561509
 21
-53.1403924048
  0
LINE
  5
316
100
AcDbEntity
  8
0
100
AcDbLine
 62
7
  6
CONTINUOUS
 10
15.7325508123
 20
-54.4706146595
 11
15.8141521733
 21
-54.429813979
  0
LINE
  5
317
100
AcDbEntity
  8
0
100
AcDbLine
 62
7
  6
CONTINUOUS
 10
14.9512654474
 20
-55.191821623
 11
15.6264847952
 21
-54.8542119491
  0
LINE
  5
318
100
AcDbEntity
  8
0
100
AcDbLine
 62
7
  6
CONTINUOUS
 10
14.9344516209
 20
-55.2436943986
 11
15.7392277834
 21
-54.8413063174
  0
LINE
  5
319
100
AcDbEntity
  8
0
100
AcDbLine
 62
7
  6
CONTINUOUS
 10
15.6885120051
 20
-55.2164826055
 11
14.5727909286
 21
-55.7743431438
  0
LINE
  5
31A
100
AcDbEntity
  8
RACCORDO
100
AcDbLine
 62
7
  6
CONTINUOUS
 10
69.4245503736
 20
-25.5293222435
 11
39.7117410434
 21
-40.267094717
  0
LINE
  5
31B
100
AcDbEntity
  8
DRAFT
100
AcDbLine
 62
7
  6
CONTINUOUS
 10
43.6392048043
 20
33.6390564627
 11
43.2120719768
 21
33.9927947998
  0
LINE
  5
31C
100
AcDbEntity
  8
DRAFT
100
AcDbLine
 62
7
  6
CONTINUOUS
 10
50.0405160644
 20
19.6007742775
 11
49.9044677794
 21
20.2906492932
  0
LINE
  5
31D
100
AcDbEntity
  8
RACCORDO
100
AcDbLine
 62
7
  6
CONTINUOUS
 10
62.4723090488
 20
43.6144674658
 11
62.4723090488
 21
42.9859310726
  0
LINE
  5
31E
100
AcDbEntity
  8
RACCORDO
100
AcDbLine
 62
7
  6
CONTINUOUS
 10
69.4647933039
 20
-28.5722908954
 11
69.6752415932
 21
-28.4260420405
  0
LINE
  5
31F
100
AcDbEntity
  8
RACCORDO
100
AcDbLine
 62
7
  6
CONTINUOUS
 10
69.3881744527
 20
-28.6158681079
 11
69.4647933039
 21
-28.5722908954
  0
LINE
  5
320
100
AcDbEntity
  8
RACCORDO
100
AcDbLine
 62
7
  6
CONTINUOUS
 10
69.4245503736
 20
-27.0111007476
 11
39.7117410434
 21
-43.0418430433
  0
LINE
  5
321
100
AcDbEntity
  8
DRAFT
100
AcDbLine
 62
7
  6
CONTINUOUS
 10
39.6449374954
 20
-48.0490652855
 11
66.1548079028
 21
-34.0302091286
  0
LINE
  5
322
100
AcDbEntity
  8
DRAFT
100
AcDbLine
 62
7
  6
CONTINUOUS
 10
39.6737873637
 20
-47.5800186831
 11
68.4300100857
 21
-32.3812680151
  0
LINE
  5
323
100
AcDbEntity
  8
DRAFT
100
AcDbLine
 62
7
  6
CONTINUOUS
 10
67.1129722698
 20
-33.3357844176
 11
39.6666600708
 21
-47.8016711812
  0
LINE
  5
324
100
AcDbEntity
  8
DRAFT
100
AcDbLine
 62
7
  6
CONTINUOUS
 10
39.681647543
 20
-47.3355740689
 11
69.3881744527
 21
-31.6868433042
  0
LINE
  5
325
100
AcDbEntity
  8
RACCORDO
100
AcDbLine
 62
253
  6
CONTINUOUS
 10
69.4245503736
 20
-28.3986654062
 11
69.3881744527
 21
-28.4177370065
  0
LINE
  5
326
100
AcDbEntity
  8
RACCORDO
100
AcDbLine
 62
253
  6
CONTINUOUS
 10
39.4310808438
 20
-46.7470220415
 11
37.3346629776
 21
-47.8324741669
  0
LINE
  5
327
100
AcDbEntity
  8
0
100
AcDbLine
 62
7
  6
CONTINUOUS
 10
14.9344516209
 20
-56.1438818791
 11
15.7989987565
 21
-55.7116083113
  0
LINE
  5
328
100
AcDbEntity
  8
0
100
AcDbLine
 62
7
  6
CONTINUOUS
 10
14.9512654474
 20
-56.2068340471
 11
15.6264847952
 21
-55.8692243732
  0
LINE
  5
329
100
AcDbEntity
  8
0
100
AcDbLine
 62
7
  6
CONTINUOUS
 10
15.7325508123
 20
-56.35888768
 11
16.3689469154
 21
-56.0406896285
  0
LINE
  5
32A
100
AcDbEntity
  8
0
100
AcDbLine
 62
7
  6
CONTINUOUS
 10
15.6694516209
 20
-56.5113818791
 11
16.5369556886
 21
-56.0776298453
  0
LINE
  5
32B
100
AcDbEntity
  8
0
100
AcDbLine
 62
7
  6
CONTINUOUS
 10
16.1145593937
 20
-56.5452273763
 11
16.8610025702
 21
-56.1720057881
  0
LINE
  5
32C
100
AcDbEntity
  8
0
100
AcDbLine
 62
7
  6
CONTINUOUS
 10
15.6264847952
 20
-57.7035924105
 11
15.3436420827
 21
-57.8450137668
  0
LINE
  5
32D
100
AcDbEntity
  8
0
100
AcDbLine
 62
7
  6
CONTINUOUS
 10
16.9270328609
 20
-58.1395909879
 11
17.0846780842
 21
-58.0607683763
  0
LINE
  5
32E
100
AcDbEntity
  8
DRAFT
100
AcDbLine
 62
253
  6
CONTINUOUS
 10
34.3291815676
 20
-50.5057580705
 11
33.0920222905
 21
-51.1031134837
  0
LINE
  5
32F
100
AcDbEntity
  8
0
100
AcDbLine
 62
7
  6
CONTINUOUS
 10
-58.0116911862
 20
48.2105055357
 11
-56.4270499778
 21
48.4756123014
  0
LINE
  5
330
100
AcDbEntity
  8
0
100
AcDbLine
 62
7
  6
CONTINUOUS
 10
9.3961812892
 20
59.1279814796
 11
10.038017149
 21
58.8070635497
  0
LINE
  5
331
100
AcDbEntity
  8
0
100
AcDbLine
 62
7
  6
CONTINUOUS
 10
9.4402912342
 20
59.148352914
 11
10.0806136278
 21
58.8281917172
  0
LINE
  5
332
100
AcDbEntity
  8
ASSI
100
AcDbLine
 62
7
  6
CONTINUOUS
 10
10.013583294
 20
59.4131181854
 11
10.1874731744
 21
59.3261704369
  0
LINE
  5
333
100
AcDbEntity
  8
RACCORDO
100
AcDbLine
 62
7
  6
CONTINUOUS
 10
69.7231816375
 20
30.4367244919
 11
70.2363794536
 21
30.1801255838
  0
LINE
  5
334
100
AcDbEntity
  8
ASSI
100
AcDbLine
 62
7
  6
CONTINUOUS
 10
11.5977061274
 20
60.1447186059
 11
11.8216627066
 21
60.0327365175
  0
LINE
  5
335
100
AcDbEntity
  8
DRAFT
100
AcDbLine
 62
7
  6
CONTINUOUS
 10
15.4852373771
 20
61.9401093654
 11
15.9181502623
 21
61.7236529228
  0
LINE
  5
336
100
AcDbEntity
  8
DRAFT
100
AcDbLine
 62
7
  6
CONTINUOUS
 10
36.4863087784
 20
51.4395736648
 11
36.9192216636
 21
51.2231172222
  0
LINE
  5
337
100
AcDbEntity
  8
DRAFT
100
AcDbLine
 62
7
  6
CONTINUOUS
 10
57.4873801796
 20
40.9390379641
 11
57.9202930648
 21
40.7225815215
  0
LINE
  5
338
100
AcDbEntity
  8
DRAFT
100
AcDbLine
 62
7
  6
CONTINUOUS
 10
58.7047981394
 20
41.111701822
 11
58.2997589656
 21
41.3142214088
  0
LINE
  5
339
100
AcDbEntity
  8
DRAFT
100
AcDbLine
 62
7
  6
CONTINUOUS
 10
37.7037267381
 20
51.6122375226
 11
37.2986875644
 21
51.8147571095
  0
LINE
  5
33A
100
AcDbEntity
  8
DRAFT
100
AcDbLine
 62
7
  6
CONTINUOUS
 10
16.7026553369
 20
62.1127732232
 11
16.2976161632
 21
62.3152928101
  0
LINE
  5
33B
100
AcDbEntity
  8
DRAFT
100
AcDbLine
 62
7
  6
CONTINUOUS
 10
61.5513480955
 20
26.3593750353
 11
61.952200526
 21
26.0274013187
  0
LINE
  5
33C
100
AcDbEntity
  8
DRAFT
100
AcDbLine
 62
7
  6
CONTINUOUS
 10
62.1410441891
 20
26.6520739185
 11
62.2135376265
 21
26.592037072
  0
LINE
  5
33D
100
AcDbEntity
  8
DRAFT
100
AcDbLine
 62
7
  6
CONTINUOUS
 10
65.6534934904
 20
28.935158258
 11
65.6534934904
 21
28.024333787
  0
LINE
  5
33E
100
AcDbEntity
  8
DRAFT
100
AcDbLine
 62
7
  6
CONTINUOUS
 10
65.6534934904
 20
0.7460313648
 11
65.6534934904
 21
-0.121491836
  0
LINE
  5
33F
100
AcDbEntity
  8
DRAFT
100
AcDbLine
 62
7
  6
CONTINUOUS
 10
66.2914817409
 20
0.2227174616
 11
66.2914817409
 21
1.0624782403
  0
LINE
  5
340
100
AcDbEntity
  8
DRAFT
100
AcDbLine
 62
7
  6
CONTINUOUS
 10
66.2914817409
 20
28.3685430846
 11
66.2914817409
 21
29.2516051335
  0
LINE
  5
341
100
AcDbEntity
  8
DRAFT
100
AcDbLine
 62
7
  6
CONTINUOUS
 10
68.3059399936
 20
1.309563904
 11
68.3059399936
 21
2.0616643845
  0
LINE
  5
342
100
AcDbEntity
  8
DRAFT
100
AcDbLine
 62
7
  6
CONTINUOUS
 10
68.3059399936
 20
29.455389527
 11
68.3059399936
 21
30.2507912777
  0
LINE
  5
343
100
AcDbEntity
  8
RACCORDO
100
AcDbLine
 62
7
  6
CONTINUOUS
 10
69.3881744527
 20
-31.6868433042
 11
69.3881744527
 21
-28.4177370065
  0
LINE
  5
344
100
AcDbEntity
  8
RACCORDO
100
AcDbLine
 62
7
  6
CONTINUOUS
 10
69.3881744527
 20
32.1745981628
 11
69.3881744527
 21
35.4437044605
  0
LINE
  5
345
100
AcDbEntity
  8
RACCORDO
100
AcDbLine
 62
253
  6
CONTINUOUS
 10
69.4245503736
 20
32.1931949313
 11
69.4245503736
 21
30.8056302727
  0
LINE
  5
346
100
AcDbEntity
  8
RACCORDO
100
AcDbLine
 62
253
  6
CONTINUOUS
 10
69.4245503736
 20
29.3238517686
 11
69.4245503736
 21
2.6165033795
  0
LINE
  5
347
100
AcDbEntity
  8
RACCORDO
100
AcDbLine
 62
253
  6
CONTINUOUS
 10
69.4245503736
 20
1.1780261456
 11
69.4245503736
 21
-25.5293222435
  0
LINE
  5
348
100
AcDbEntity
  8
RACCORDO
100
AcDbLine
 62
253
  6
CONTINUOUS
 10
69.4245503736
 20
-27.0111007476
 11
69.4245503736
 21
-28.3986654062
  0
LINE
  5
349
100
AcDbEntity
  8
RACCORDO
100
AcDbLine
 62
253
  6
CONTINUOUS
 10
69.7231816375
 20
30.4367244919
 11
69.7231816375
 21
30.2220039062
  0
LINE
  5
34A
100
AcDbEntity
  8
RACCORDO
100
AcDbLine
 62
253
  6
CONTINUOUS
 10
69.7231816375
 20
2.2908988689
 11
69.7231816375
 21
2.0761782832
  0
LINE
  5
34B
100
AcDbEntity
  8
RACCORDO
100
AcDbLine
 62
7
  6
CONTINUOUS
 10
70.2363794536
 20
-26.1548269323
 11
70.2363794536
 21
-24.7258850161
  0
LINE
  5
34C
100
AcDbEntity
  8
RACCORDO
100
AcDbLine
 62
7
  6
CONTINUOUS
 10
70.2363794536
 20
2.0342999608
 11
70.2363794536
 21
3.4199406069
  0
LINE
  5
34D
100
AcDbEntity
  8
RACCORDO
100
AcDbLine
 62
7
  6
CONTINUOUS
 10
70.2363794536
 20
30.1801255838
 11
70.2363794536
 21
31.6090675001
  0
LINE
  5
34E
100
AcDbEntity
  8
RACCORDO
100
AcDbLine
 62
7
  6
CONTINUOUS
 10
70.2665309726
 20
33.2274613044
 11
70.2665309726
 21
-27.3489566805
  0
LWPOLYLINE
  5
34F
100
AcDbEntity
  8
RACCORDO
100
AcDbPolyline
 62
7
  6
CONTINUOUS
 90
7
 70
0
 10
69.6752415932
 20
-28.4260420405
 10
69.855147176
 20
-28.266853116
 10
70.0038404049
 20
-28.0957876618
 10
70.1198082519
 20
-27.9149734844
 10
70.2023772678
 20
-27.7268348482
 10
70.2513669026
 20
-27.5336229656
 10
70.2665236557
 20
-27.3491338529
  0
LINE
  5
350
100
AcDbEntity
  8
DRAFT
100
AcDbLine
 62
7
  6
CONTINUOUS
 10
66.1548079028
 20
-34.0302091286
 11
67.1129722698
 21
-33.3357844176
  0
LINE
  5
351
100
AcDbEntity
  8
DRAFT
100
AcDbLine
 62
7
  6
CONTINUOUS
 10
68.4300100857
 20
-32.3812680151
 11
69.3881744527
 21
-31.6868433042
  0
LINE
  5
352
100
AcDbEntity
  8
RACCORDO
100
AcDbLine
 62
253
  6
CONTINUOUS
 10
33.8960350265
 20
-58.5308492371
 11
33.8888054211
 21
-58.5346704712
  0
LINE
  5
353
100
AcDbEntity
  8
DRAFT
100
AcDbLine
 62
7
  6
CONTINUOUS
 10
33.0920222905
 20
-58.9552998882
 11
33.8887543189
 21
-58.5346974488
  0
LWPOLYLINE
  5
354
100
AcDbEntity
  8
RACCORDO
100
AcDbPolyline
 62
7
  6
CONTINUOUS
 90
6
 70
0
 10
-1.6024738255
 20
75.6546153458
 10
-1.6754598072
 20
75.689143106
 10
-1.8772420929
 20
75.7607098415
 10
-2.0919926089
 20
75.803233649
 10
-2.3176514032
 20
75.8151038072
 10
-2.5512352692
 20
75.7952871895
  0
LINE
  5
355
100
AcDbEntity
  8
DRAFT
100
AcDbLine
 62
7
  6
CONTINUOUS
 10
60.7351297684
 20
42.1187612778
 11
60.4022289146
 21
42.2852117047
  0
LINE
  5
356
100
AcDbEntity
  8
DRAFT
100
AcDbLine
 62
7
  6
CONTINUOUS
 10
39.7340583672
 20
52.6192969784
 11
39.4011575134
 21
52.7857474053
  0
LINE
  5
357
100
AcDbEntity
  8
DRAFT
100
AcDbLine
 62
7
  6
CONTINUOUS
 10
18.732986966
 20
63.119832679
 11
18.4000861121
 21
63.286283106
  0
LINE
  5
358
100
AcDbEntity
  8
RACCORDO
100
AcDbLine
 62
7
  6
CONTINUOUS
 10
66.1548079028
 20
41.0204368348
 11
63.4855937881
 21
42.3550438922
  0
LINE
  5
359
100
AcDbEntity
  8
RACCORDO
100
AcDbLine
 62
7
  6
CONTINUOUS
 10
-2.9584034566
 20
75.5770425145
 11
-5.6276175713
 21
76.9116495719
  0
LINE
  5
35A
100
AcDbEntity
  8
RACCORDO
100
AcDbLine
 62
253
  6
CONTINUOUS
 10
-2.9211874625
 20
75.5946652028
 11
-1.7882456629
 21
75.028194303
  0
LINE
  5
35B
100
AcDbEntity
  8
RACCORDO
100
AcDbLine
 62
253
  6
CONTINUOUS
 10
-0.6137339197
 20
74.4409384314
 11
19.2128257383
 21
64.5276586024
  0
LINE
  5
35C
100
AcDbEntity
  8
RACCORDO
100
AcDbLine
 62
253
  6
CONTINUOUS
 10
20.3873374815
 20
63.9404027308
 11
40.2138971396
 21
54.0271229018
  0
LINE
  5
35D
100
AcDbEntity
  8
RACCORDO
100
AcDbLine
 62
253
  6
CONTINUOUS
 10
41.3884088828
 20
53.4398670302
 11
61.2149685408
 21
43.5265872012
  0
LINE
  5
35E
100
AcDbEntity
  8
RACCORDO
100
AcDbLine
 62
253
  6
CONTINUOUS
 10
62.389480284
 20
42.9393313296
 11
63.5224220836
 21
42.3728604298
  0
LINE
  5
35F
100
AcDbEntity
  8
RACCORDO
100
AcDbLine
 62
253
  6
CONTINUOUS
 10
20.2375629779
 20
64.103304108
 11
20.4701662463
 21
63.9870024738
  0
LINE
  5
360
100
AcDbEntity
  8
RACCORDO
100
AcDbLine
 62
253
  6
CONTINUOUS
 10
41.2386343791
 20
53.6027684074
 11
41.4712376475
 21
53.4864667732
  0
LINE
  5
361
100
AcDbEntity
  8
RACCORDO
100
AcDbLine
 62
253
  6
CONTINUOUS
 10
62.2397057803
 20
43.1022327068
 11
62.4723090488
 21
42.9859310726
  0
LINE
  5
362
100
AcDbEntity
  8
RACCORDO
100
AcDbLine
 62
7
  6
CONTINUOUS
 10
63.6036798987
 20
43.0487820409
 11
62.4723090488
 21
43.6144674658
  0
LINE
  5
363
100
AcDbEntity
  8
RACCORDO
100
AcDbLine
 62
7
  6
CONTINUOUS
 10
42.6026084974
 20
53.5493177415
 11
41.4712376475
 21
54.1150031664
  0
LINE
  5
364
100
AcDbEntity
  8
RACCORDO
100
AcDbLine
 62
7
  6
CONTINUOUS
 10
21.6015370962
 20
64.0498534421
 11
20.4701662463
 21
64.615538867
  0
LINE
  5
365
100
AcDbEntity
  8
RACCORDO
100
AcDbLine
 62
7
  6
CONTINUOUS
 10
0.6004656949
 20
74.5503891427
 11
-0.530905155
 21
75.1160745677
  0
LINE
  5
366
100
AcDbEntity
  8
RACCORDO
100
AcDbLine
 62
7
  6
CONTINUOUS
 10
-1.6109146824
 20
75.6589281224
 11
-0.5297656385
 21
75.1183536005
  0
LINE
  5
367
100
AcDbEntity
  8
RACCORDO
100
AcDbLine
 62
7
  6
CONTINUOUS
 10
0.6016052114
 20
74.5526681755
 11
20.4713057627
 21
64.6178178999
  0
LINE
  5
368
100
AcDbEntity
  8
RACCORDO
100
AcDbLine
 62
7
  6
CONTINUOUS
 10
21.6026766126
 20
64.0521324749
 11
41.4723771639
 21
54.1172821993
  0
LINE
  5
369
100
AcDbEntity
  8
RACCORDO
100
AcDbLine
 62
7
  6
CONTINUOUS
 10
42.6037480138
 20
53.5515967743
 11
62.4734485652
 21
43.6167464986
  0
LINE
  5
36A
100
AcDbEntity
  8
RACCORDO
100
AcDbLine
 62
7
  6
CONTINUOUS
 10
63.6048194151
 20
43.0510610737
 11
64.8213869266
 21
42.4427773179
  0
LINE
  5
36B
100
AcDbEntity
  8
RACCORDO
100
AcDbLine
 62
7
  6
CONTINUOUS
 10
69.4588572866
 20
34.4442167833
 11
69.3881744527
 21
34.483168154
  0
LWPOLYLINE
  5
36C
100
AcDbEntity
  8
RACCORDO
100
AcDbPolyline
 62
7
  6
CONTINUOUS
 90
8
 70
0
 10
70.266508088
 20
33.2316609794
 10
70.2650515807
 20
33.2842308238
 10
70.2307660375
 20
33.5083869989
 10
70.1527940286
 20
33.7241650139
 10
70.0341273695
 20
33.9271957608
 10
69.8773151715
 20
34.1156863565
 10
69.6850532179
 20
34.2882213472
 10
69.4588572866
 20
34.4442167833
  0
LINE
  5
36D
100
AcDbEntity
  8
RACCORDO
100
AcDbLine
 62
253
  6
CONTINUOUS
 10
33.0920222905
 20
-69.7848924657
 11
30.7585699126
 21
-70.9516186546
  0
LWPOLYLINE
  5
36E
100
AcDbEntity
  8
RACCORDO
100
AcDbPolyline
 62
7
  6
CONTINUOUS
 90
3
 70
0
 10
-2.5512352692
 20
75.7952871895
 10
-2.7892646522
 20
75.7435917617
 10
-3.0294874298
 20
75.6600198626
  0
LINE
  5
36F
100
AcDbEntity
  8
RACCORDO
100
AcDbLine
 62
253
  6
CONTINUOUS
 10
66.4489150849
 20
38.9130029261
 11
66.7965716192
 21
38.3133841016
  0
LINE
  5
370
100
AcDbEntity
  8
RACCORDO
100
AcDbLine
 62
7
  6
CONTINUOUS
 10
66.6139612591
 20
39.0086960207
 11
66.9795500348
 21
38.3781486548
  0
LWPOLYLINE
  5
371
100
AcDbEntity
  8
RACCORDO
100
AcDbPolyline
 62
7
  6
CONTINUOUS
 90
8
 70
0
 10
65.6738814541
 20
41.2609000592
 10
65.6518372468
 20
41.3629294465
 10
65.5658501477
 20
41.6126246227
 10
65.4532332205
 20
41.8390990033
 10
65.3157577136
 20
42.0393565497
 10
65.1547949978
 20
42.2121956176
 10
64.9722614136
 20
42.3554562665
 10
64.820531358
 20
42.4431454681
  0
LINE
  5
372
100
AcDbEntity
  8
ASSI
100
AcDbLine
 62
7
  6
CONTINUOUS
 10
30.4930904336
 20
-75.1936304697
 11
28.1596380557
 21
-76.3603566587
  0
LINE
  5
373
100
AcDbEntity
  8
DRAFT
100
AcDbLine
 62
7
  6
CONTINUOUS
 10
69.3881744527
 20
35.4437044605
 11
68.4300100857
 21
37.0962935384
  0
LINE
  5
374
100
AcDbEntity
  8
DRAFT
100
AcDbLine
 62
7
  6
CONTINUOUS
 10
67.1129722698
 20
39.3678477568
 11
66.1548079028
 21
41.0204368348
  0
ARC
  5
375
100
AcDbEntity
  8
DRAFT
100
AcDbCircle
 62
7
  6
CONTINUOUS
 10
3.2353403946
 20
4.3668173019
 40
33.1878933192
100
AcDbArc
 50
28.5026862187
 51
28.9613935188
  0
ARC
  5
376
100
AcDbEntity
  8
DRAFT
100
AcDbCircle
 62
7
  6
CONTINUOUS
 10
3.5660051796
 20
4.5263945059
 40
32.8211613057
100
AcDbArc
 50
18.4608120084
 51
28.5333364836
  0
ARC
  5
377
100
AcDbEntity
  8
0
100
AcDbCircle
 62
7
  6
CONTINUOUS
 10
-39.7334526878
 20
-20.4098732701
 40
15.5350070955
100
AcDbArc
 50
178.8805154464
 51
181.1164946862
  0
ARC
  5
378
100
AcDbEntity
  8
0
100
AcDbCircle
 62
7
  6
CONTINUOUS
 10
-55.5569766161
 20
-11.5689776757
 40
8.9253069101
100
AcDbArc
 50
264.2225437041
 51
267.0884479228
  0
ARC
  5
379
100
AcDbEntity
  8
0
100
AcDbCircle
 62
7
  6
CONTINUOUS
 10
-48.5209003437
 20
-18.1792834597
 40
8.0518541446
100
AcDbArc
 50
189.3175606024
 51
189.7925119453
  0
ARC
  5
37A
100
AcDbEntity
  8
0
100
AcDbCircle
 62
7
  6
CONTINUOUS
 10
-51.5392668665
 20
-13.339205914
 40
7.92005644
100
AcDbArc
 50
231.6308965808
 51
235.6307820283
  0
ARC
  5
37B
100
AcDbEntity
  8
0
100
AcDbCircle
 62
7
  6
CONTINUOUS
 10
-49.9445287575
 20
-18.1798549008
 40
7.49127769
100
AcDbArc
 50
194.7048226947
 51
195.2031810519
  0
ARC
  5
37C
100
AcDbEntity
  8
0
100
AcDbCircle
 62
7
  6
CONTINUOUS
 10
-50.3250334576
 20
-21.3779116261
 40
7.2082686168
100
AcDbArc
 50
161.8239130891
 51
162.2573500263
  0
ARC
  5
37D
100
AcDbEntity
  8
0
100
AcDbCircle
 62
7
  6
CONTINUOUS
 10
-52.7271987871
 20
-15.3511446685
 40
6.5035411377
100
AcDbArc
 50
222.1073157184
 51
226.6638372672
  0
ARC
  5
37E
100
AcDbEntity
  8
0
100
AcDbCircle
 62
7
  6
CONTINUOUS
 10
-50.9615620329
 20
-21.7167713763
 40
5.6382712086
100
AcDbArc
 50
167.0052115978
 51
167.5157734866
  0
ARC
  5
37F
100
AcDbEntity
  8
0
100
AcDbCircle
 62
7
  6
CONTINUOUS
 10
-52.8849038958
 20
-19.036499091
 40
5.1357266781
100
AcDbArc
 50
176.6149940728
 51
183.3820652921
  0
ARC
  5
380
100
AcDbEntity
  8
0
100
AcDbCircle
 62
7
  6
CONTINUOUS
 10
-55.0546410183
 20
-20.6430139891
 40
1.4982513261
100
AcDbArc
 50
260.7148933599
 51
267.3410198889
  0
ARC
  5
381
100
AcDbEntity
  8
0
100
AcDbCircle
 62
7
  6
CONTINUOUS
 10
-56.4397969698
 20
-17.8973686366
 40
1.4817059614
100
AcDbArc
 50
145.599767279
 51
151.9769542214
  0
ARC
  5
382
100
AcDbEntity
  8
0
100
AcDbCircle
 62
7
  6
CONTINUOUS
 10
-57.188446772
 20
-18.0993769919
 40
1.0519489702
100
AcDbArc
 50
104.9023438519
 51
116.4820452494
  0
ARC
  5
383
100
AcDbEntity
  8
DRAFT
100
AcDbCircle
 62
7
  6
CONTINUOUS
 10
0.6157635799
 20
121.3970600798
 40
111.9131789141
100
AcDbArc
 50
296.7466247956
 51
296.9958955655
  0
ARC
  5
384
100
AcDbEntity
  8
RACCORDO
100
AcDbCircle
 62
7
  6
CONTINUOUS
 10
-44.3877062059
 20
48.2966402538
 40
17.7150710474
100
AcDbArc
 50
63.4315130271
 51
64.682958552
  0
ARC
  5
385
100
AcDbEntity
  8
0
100
AcDbCircle
 62
7
  6
CONTINUOUS
 10
-39.7334526878
 20
47.1401082251
 40
15.5350070955
100
AcDbArc
 50
178.8805154464
 51
181.1164946862
  0
ARC
  5
386
100
AcDbEntity
  8
DRAFT
100
AcDbCircle
 62
7
  6
CONTINUOUS
 10
-44.9901086205
 20
55.6210917817
 40
8.9989345899
100
AcDbArc
 50
97.4754241539
 51
101.6736886651
  0
ARC
  5
387
100
AcDbEntity
  8
0
100
AcDbCircle
 62
7
  6
CONTINUOUS
 10
-55.5569766193
 20
55.9810038197
 40
8.9253069101
100
AcDbArc
 50
264.2225437246
 51
267.0884479433
  0
ARC
  5
388
100
AcDbEntity
  8
DRAFT
100
AcDbCircle
 62
7
  6
CONTINUOUS
 10
-45.0953940288
 20
56.1096754272
 40
8.4991547566
100
AcDbArc
 50
101.6450458329
 51
108.3012553607
  0
ARC
  5
389
100
AcDbEntity
  8
0
100
AcDbCircle
 62
7
  6
CONTINUOUS
 10
-48.5209003437
 20
49.3706980355
 40
8.0518541447
100
AcDbArc
 50
189.3175606024
 51
189.7925119453
  0
ARC
  5
38A
100
AcDbEntity
  8
0
100
AcDbCircle
 62
7
  6
CONTINUOUS
 10
-51.5392668665
 20
54.2107755812
 40
7.92005644
100
AcDbArc
 50
231.6308965808
 51
235.6307820283
  0
ARC
  5
38B
100
AcDbEntity
  8
0
100
AcDbCircle
 62
7
  6
CONTINUOUS
 10
-49.9445287575
 20
49.3701265944
 40
7.49127769
100
AcDbArc
 50
194.7048226947
 51
195.2031810519
  0
ARC
  5
38C
100
AcDbEntity
  8
0
100
AcDbCircle
 62
7
  6
CONTINUOUS
 10
-50.3250334576
 20
46.1720698691
 40
7.2082686169
100
AcDbArc
 50
161.8239130891
 51
162.2573500263
  0
ARC
  5
38D
100
AcDbEntity
  8
0
100
AcDbCircle
 62
7
  6
CONTINUOUS
 10
-52.7271987871
 20
52.1988368267
 40
6.5035411377
100
AcDbArc
 50
222.1073157184
 51
226.6638372672
  0
ARC
  5
38E
100
AcDbEntity
  8
0
100
AcDbCircle
 62
7
  6
CONTINUOUS
 10
-50.9615620329
 20
45.8332101189
 40
5.6382712086
100
AcDbArc
 50
167.0052115978
 51
167.5157734866
  0
ARC
  5
38F
100
AcDbEntity
  8
0
100
AcDbCircle
 62
7
  6
CONTINUOUS
 10
-52.8849038958
 20
48.5134824042
 40
5.1357266781
100
AcDbArc
 50
176.6149940728
 51
183.3820652921
  0
ARC
  5
390
100
AcDbEntity
  8
0
100
AcDbCircle
 62
7
  6
CONTINUOUS
 10
-55.0546410183
 20
46.9069675061
 40
1.4982513261
100
AcDbArc
 50
260.7148933599
 51
267.3410198889
  0
ARC
  5
391
100
AcDbEntity
  8
0
100
AcDbCircle
 62
7
  6
CONTINUOUS
 10
-56.4397969698
 20
49.6526128586
 40
1.4817059614
100
AcDbArc
 50
145.599767279
 51
151.9769542214
  0
ARC
  5
392
100
AcDbEntity
  8
RACCORDO
100
AcDbCircle
 62
253
  6
CONTINUOUS
 10
-2.1128228534
 20
74.666884747
 40
1.1114821529
100
AcDbArc
 50
63.1608320252
 51
64.1430507907
  0
ARC
  5
393
100
AcDbEntity
  8
RACCORDO
100
AcDbCircle
 62
253
  6
CONTINUOUS
 10
-2.0997160108
 20
74.6947947286
 40
1.0806501932
100
AcDbArc
 50
64.1230304736
 51
67.9903950938
  0
ARC
  5
394
100
AcDbEntity
  8
0
100
AcDbCircle
 62
7
  6
CONTINUOUS
 10
-57.188446772
 20
49.4506045033
 40
1.0519489702
100
AcDbArc
 50
104.9023438519
 51
116.4820452494
  0
ARC
  5
395
100
AcDbEntity
  8
RACCORDO
100
AcDbCircle
 62
253
  6
CONTINUOUS
 10
-3.0889838497
 20
75.2627169847
 40
0.3719479472
100
AcDbArc
 50
63.183870384
 51
67.5179684171
  0
ARC
  5
396
100
AcDbEntity
  8
RACCORDO
100
AcDbCircle
 62
253
  6
CONTINUOUS
 10
-3.0769728113
 20
75.2924364449
 40
0.33989434
100
AcDbArc
 50
67.4730715969
 51
73.8369728776
  0
ARC
  5
397
100
AcDbEntity
  8
RACCORDO
100
AcDbCircle
 62
7
  6
CONTINUOUS
 10
16.5832668618
 20
-46.4004698268
 40
23.1284741947
100
AcDbArc
 50
359.119679957
 51
0.0019247761
  0
ARC
  5
398
100
AcDbEntity
  8
0
100
AcDbCircle
 62
7
  6
CONTINUOUS
 10
16.5679150675
 20
-47.6314235164
 40
8.9253069101
100
AcDbArc
 50
264.2225436876
 51
267.0884479063
  0
ARC
  5
399
100
AcDbEntity
  8
DRAFT
100
AcDbCircle
 62
7
  6
CONTINUOUS
 10
27.5781689675
 20
-51.8811622361
 40
8.8375486877
100
AcDbArc
 50
308.6142189143
 51
316.6610971327
  0
ARC
  5
39A
100
AcDbEntity
  8
0
100
AcDbCircle
 62
7
  6
CONTINUOUS
 10
23.6039913377
 20
-54.2417293001
 40
8.0518541451
100
AcDbArc
 50
189.3175606024
 51
189.7925119453
  0
ARC
  5
39B
100
AcDbEntity
  8
0
100
AcDbCircle
 62
7
  6
CONTINUOUS
 10
20.5856248145
 20
-49.4016517545
 40
7.92005644
100
AcDbArc
 50
231.6308965808
 51
235.6307820283
  0
ARC
  5
39C
100
AcDbEntity
  8
0
100
AcDbCircle
 62
7
  6
CONTINUOUS
 10
22.180362923
 20
-54.2423007414
 40
7.4912776895
100
AcDbArc
 50
194.7048226947
 51
195.2031810519
  0
ARC
  5
39D
100
AcDbEntity
  8
0
100
AcDbCircle
 62
7
  6
CONTINUOUS
 10
21.799858223
 20
-57.4403574665
 40
7.2082686163
100
AcDbArc
 50
161.8239130891
 51
162.2573500263
  0
ARC
  5
39E
100
AcDbEntity
  8
0
100
AcDbCircle
 62
7
  6
CONTINUOUS
 10
19.3976928939
 20
-51.413590509
 40
6.5035411377
100
AcDbArc
 50
222.1073157184
 51
226.6638372672
  0
ARC
  5
39F
100
AcDbEntity
  8
0
100
AcDbCircle
 62
7
  6
CONTINUOUS
 10
21.1633296481
 20
-57.7792172168
 40
5.6382712086
100
AcDbArc
 50
167.0052115978
 51
167.5157734866
  0
ARC
  5
3A0
100
AcDbEntity
  8
0
100
AcDbCircle
 62
7
  6
CONTINUOUS
 10
19.2399877852
 20
-55.0989449315
 40
5.135726678
100
AcDbArc
 50
176.6149940728
 51
183.3820652921
  0
ARC
  5
3A1
100
AcDbEntity
  8
0
100
AcDbCircle
 62
7
  6
CONTINUOUS
 10
17.0702506628
 20
-56.7054598296
 40
1.4982513261
100
AcDbArc
 50
260.7148933599
 51
267.3410198889
  0
ARC
  5
3A2
100
AcDbEntity
  8
0
100
AcDbCircle
 62
7
  6
CONTINUOUS
 10
15.6850947112
 20
-53.9598144771
 40
1.4817059614
100
AcDbArc
 50
145.599767279
 51
151.9769542214
  0
ARC
  5
3A3
100
AcDbEntity
  8
0
100
AcDbCircle
 62
7
  6
CONTINUOUS
 10
14.9364449091
 20
-54.1618228324
 40
1.0519489702
100
AcDbArc
 50
104.9023438519
 51
116.4820452494
  0
ARC
  5
3A4
100
AcDbEntity
  8
DRAFT
100
AcDbCircle
 62
7
  6
CONTINUOUS
 10
6.840900296
 20
6.9767680315
 40
28.7293537072
100
AcDbArc
 50
40.4625197398
 51
40.9666734333
  0
ARC
  5
3A5
100
AcDbEntity
  8
RACCORDO
100
AcDbCircle
 62
253
  6
CONTINUOUS
 10
15.7836598234
 20
6.9460411893
 40
23.6474210259
100
AcDbArc
 50
0.0012400592
 51
0.8245581641
  0
ARC
  5
3A6
100
AcDbEntity
  8
RACCORDO
100
AcDbCircle
 62
253
  6
CONTINUOUS
 10
15.4662746672
 20
16.8659586832
 40
18.8457558452
100
AcDbArc
 50
59.8744406983
 51
62.2436577076
  0
ARC
  5
3A7
100
AcDbEntity
  8
RACCORDO
100
AcDbCircle
 62
253
  6
CONTINUOUS
 10
15.8315976276
 20
17.5541661564
 40
18.0666009658
100
AcDbArc
 50
62.2524762054
 51
63.4322978688
  0
ARC
  5
3A8
100
AcDbEntity
  8
DRAFT
100
AcDbCircle
 62
7
  6
CONTINUOUS
 10
23.8627008389
 20
17.3331827424
 40
9.1969418656
100
AcDbArc
 50
51.6303234996
 51
55.5505844839
  0
ARC
  5
3A9
100
AcDbEntity
  8
0
100
AcDbCircle
 62
7
  6
CONTINUOUS
 10
16.5679150645
 20
19.918557979
 40
8.9253069101
100
AcDbArc
 50
264.2225437067
 51
267.0884479253
  0
ARC
  5
3AA
100
AcDbEntity
  8
0
100
AcDbCircle
 62
7
  6
CONTINUOUS
 10
23.6039913377
 20
13.3082521951
 40
8.0518541451
100
AcDbArc
 50
189.3175606024
 51
189.7925119453
  0
ARC
  5
3AB
100
AcDbEntity
  8
0
100
AcDbCircle
 62
7
  6
CONTINUOUS
 10
20.5856248145
 20
18.1483297407
 40
7.92005644
100
AcDbArc
 50
231.6308965808
 51
235.6307820283
  0
ARC
  5
3AC
100
AcDbEntity
  8
0
100
AcDbCircle
 62
7
  6
CONTINUOUS
 10
22.180362923
 20
13.3076807537
 40
7.4912776895
100
AcDbArc
 50
194.7048226947
 51
195.2031810519
  0
ARC
  5
3AD
100
AcDbEntity
  8
0
100
AcDbCircle
 62
7
  6
CONTINUOUS
 10
21.799858223
 20
10.1096240287
 40
7.2082686163
100
AcDbArc
 50
161.8239130891
 51
162.2573500263
  0
ARC
  5
3AE
100
AcDbEntity
  8
0
100
AcDbCircle
 62
7
  6
CONTINUOUS
 10
19.3976928939
 20
16.1363909862
 40
6.5035411377
100
AcDbArc
 50
222.1073157184
 51
226.6638372672
  0
ARC
  5
3AF
100
AcDbEntity
  8
0
100
AcDbCircle
 62
7
  6
CONTINUOUS
 10
21.1633296481
 20
9.7707642784
 40
5.6382712086
100
AcDbArc
 50
167.0052115978
 51
167.5157734866
  0
ARC
  5
3B0
100
AcDbEntity
  8
0
100
AcDbCircle
 62
7
  6
CONTINUOUS
 10
19.2399877852
 20
12.4510365637
 40
5.135726678
100
AcDbArc
 50
176.6149940728
 51
183.3820652921
  0
ARC
  5
3B1
100
AcDbEntity
  8
0
100
AcDbCircle
 62
7
  6
CONTINUOUS
 10
17.0702506628
 20
10.8445216655
 40
1.4982513261
100
AcDbArc
 50
260.7148933599
 51
267.3410198889
  0
ARC
  5
3B2
100
AcDbEntity
  8
0
100
AcDbCircle
 62
7
  6
CONTINUOUS
 10
15.6850947112
 20
13.5901670181
 40
1.4817059614
100
AcDbArc
 50
145.599767279
 51
151.9769542214
  0
ARC
  5
3B3
100
AcDbEntity
  8
0
100
AcDbCircle
 62
7
  6
CONTINUOUS
 10
14.9364449091
 20
13.3881586627
 40
1.0519489702
100
AcDbArc
 50
104.9023438519
 51
116.4820452494
  0
ARC
  5
3B4
100
AcDbEntity
  8
0
100
AcDbCircle
 62
7
  6
CONTINUOUS
 10
32.3914389931
 20
-56.4723191106
 40
15.5350070955
100
AcDbArc
 50
178.8805154464
 51
181.1164946862
  0
ARC
  5
3B5
100
AcDbEntity
  8
DRAFT
100
AcDbCircle
 62
7
  6
CONTINUOUS
 10
38.1520708899
 20
25.0077763086
 40
23.7764990393
100
AcDbArc
 50
39.248142877
 51
40.2955593436
  0
ARC
  5
3B6
100
AcDbEntity
  8
DRAFT
100
AcDbCircle
 62
7
  6
CONTINUOUS
 10
39.2459290816
 20
25.6454723083
 40
21.889404169
100
AcDbArc
 50
40.1533267933
 51
41.3436734799
  0
ARC
  5
3B7
100
AcDbEntity
  8
DRAFT
100
AcDbCircle
 62
7
  6
CONTINUOUS
 10
41.6619465746
 20
24.7017063683
 40
20.6406339387
100
AcDbArc
 50
6.2645333082
 51
6.9441046481
  0
ARC
  5
3B8
100
AcDbEntity
  8
DRAFT
100
AcDbCircle
 62
7
  6
CONTINUOUS
 10
42.2557350956
 20
24.7651351659
 40
20.0434698997
100
AcDbArc
 50
4.549114998
 51
6.269517451
  0
ARC
  5
3B9
100
AcDbEntity
  8
DRAFT
100
AcDbCircle
 62
7
  6
CONTINUOUS
 10
42.7805070389
 20
24.8087756664
 40
19.5168899434
100
AcDbArc
 50
4.0478802591
 51
4.5435916327
  0
ARC
  5
3BA
100
AcDbEntity
  8
DRAFT
100
AcDbCircle
 62
7
  6
CONTINUOUS
 10
43.0475318461
 20
25.1526587029
 40
18.5431221777
100
AcDbArc
 50
3.731229598
 51
5.3346598041
  0
ARC
  5
3BB
100
AcDbEntity
  8
DRAFT
100
AcDbCircle
 62
7
  6
CONTINUOUS
 10
43.9902935737
 20
25.5815593555
 40
18.1822921913
100
AcDbArc
 50
3.3753422121
 51
5.0135486519
  0
ARC
  5
3BC
100
AcDbEntity
  8
DRAFT
100
AcDbCircle
 62
7
  6
CONTINUOUS
 10
41.4778171571
 20
26.9882285042
 40
18.0372118192
100
AcDbArc
 50
42.4716596878
 51
44.0684336234
  0
ARC
  5
3BD
100
AcDbEntity
  8
DRAFT
100
AcDbCircle
 62
7
  6
CONTINUOUS
 10
42.5074060145
 20
27.608799758
 40
16.208666814
100
AcDbArc
 50
43.9791773291
 51
45.839067197
  0
ARC
  5
3BE
100
AcDbEntity
  8
DRAFT
100
AcDbCircle
 62
7
  6
CONTINUOUS
 10
43.4003922541
 20
28.077954153
 40
15.8788592692
100
AcDbArc
 50
44.2681728299
 51
46.098279166
  0
ARC
  5
3BF
100
AcDbEntity
  8
0
100
AcDbCircle
 62
7
  6
CONTINUOUS
 10
32.3914389931
 20
11.0776623846
 40
15.5350070955
100
AcDbArc
 50
178.8805154464
 51
181.1164946862
  0
ARC
  5
3C0
100
AcDbEntity
  8
DRAFT
100
AcDbCircle
 62
7
  6
CONTINUOUS
 10
57.7873687376
 20
31.6084639933
 40
13.9716101671
100
AcDbArc
 50
232.9895512616
 51
235.8896531677
  0
ARC
  5
3C1
100
AcDbEntity
  8
DRAFT
100
AcDbCircle
 62
7
  6
CONTINUOUS
 10
46.9017955437
 20
25.9181516353
 40
13.2719564509
100
AcDbArc
 50
356.242050582
 51
357.3416314802
  0
ARC
  5
3C2
100
AcDbEntity
  8
DRAFT
100
AcDbCircle
 62
7
  6
CONTINUOUS
 10
44.7791760891
 20
29.1548437658
 40
12.184891095
100
AcDbArc
 50
48.1806673145
 51
50.9450831921
  0
ARC
  5
3C3
100
AcDbEntity
  8
DRAFT
100
AcDbCircle
 62
7
  6
CONTINUOUS
 10
56.0849915236
 20
30.5663609816
 40
11.9912102998
100
AcDbArc
 50
234.8450466325
 51
238.9743887029
  0
ARC
  5
3C4
100
AcDbEntity
  8
DRAFT
100
AcDbCircle
 62
7
  6
CONTINUOUS
 10
48.1530412324
 20
26.2020883635
 40
11.3109896006
100
AcDbArc
 50
351.9724817357
 51
356.0689871168
  0
ARC
  5
3C5
100
AcDbEntity
  8
DRAFT
100
AcDbCircle
 62
7
  6
CONTINUOUS
 10
49.4111516331
 20
26.5551734923
 40
10.6314444032
100
AcDbArc
 50
351.1908436955
 51
353.4923657914
  0
ARC
  5
3C6
100
AcDbEntity
  8
DRAFT
100
AcDbCircle
 62
7
  6
CONTINUOUS
 10
45.9195607492
 20
30.0341507056
 40
10.0896044274
100
AcDbArc
 50
51.2543181244
 51
54.832718649
  0
ARC
  5
3C7
100
AcDbEntity
  8
DRAFT
100
AcDbCircle
 62
7
  6
CONTINUOUS
 10
46.6367115194
 20
30.4367225882
 40
9.8032142486
100
AcDbArc
 50
51.761813379
 51
55.3649586516
  0
ARC
  5
3C8
100
AcDbEntity
  8
DRAFT
100
AcDbCircle
 62
7
  6
CONTINUOUS
 10
55.0146046465
 20
29.1741591176
 40
8.2186747628
100
AcDbArc
 50
244.200602631
 51
245.7082788243
  0
ARC
  5
3C9
100
AcDbEntity
  8
DRAFT
100
AcDbCircle
 62
7
  6
CONTINUOUS
 10
54.084025749
 20
28.4784891133
 40
7.6753630387
100
AcDbArc
 50
246.1604630289
 51
248.5544596406
  0
ARC
  5
3CA
100
AcDbEntity
  8
DRAFT
100
AcDbCircle
 62
7
  6
CONTINUOUS
 10
53.3765385407
 20
27.6001771006
 40
5.7883194794
100
AcDbArc
 50
253.7997225389
 51
255.8003110237
  0
ARC
  5
3CB
100
AcDbEntity
  8
ASSI
100
AcDbCircle
 62
7
  6
CONTINUOUS
 10
45.1738679556
 20
-10.6471997161
 40
0.9188020328
100
AcDbArc
 50
115.9159471246
 51
123.7170300649
  0
ARC
  5
3CC
100
AcDbEntity
  8
DRAFT
100
AcDbCircle
 62
7
  6
CONTINUOUS
 10
62.3974206218
 20
37.2051134311
 40
23.484070036
100
AcDbArc
 50
191.3730227614
 51
193.7365355831
  0
ARC
  5
3CD
100
AcDbEntity
  8
DRAFT
100
AcDbCircle
 62
7
  6
CONTINUOUS
 10
61.2530928605
 20
36.7211390367
 40
21.6203455704
100
AcDbArc
 50
190.3027370833
 51
192.82885125
  0
ARC
  5
3CE
100
AcDbEntity
  8
DRAFT
100
AcDbCircle
 62
7
  6
CONTINUOUS
 10
60.2035594531
 20
33.6200494112
 40
19.7362600768
100
AcDbArc
 50
225.9782463704
 51
230.7233420633
  0
ARC
  5
3CF
100
AcDbEntity
  8
DRAFT
100
AcDbCircle
 62
7
  6
CONTINUOUS
 10
59.8174643058
 20
36.2011381534
 40
18.1683444903
100
AcDbArc
 50
187.8980322122
 51
190.7555999479
  0
ARC
  5
3D0
100
AcDbEntity
  8
DRAFT
100
AcDbCircle
 62
7
  6
CONTINUOUS
 10
58.84768585
 20
35.7585616826
 40
17.77922448
100
AcDbArc
 50
187.5269904355
 51
190.5148180965
  0
ARC
  5
3D1
100
AcDbEntity
  8
DRAFT
100
AcDbCircle
 62
7
  6
CONTINUOUS
 10
57.6606578252
 20
35.3012634636
 40
15.8779588231
100
AcDbArc
 50
185.7031532207
 51
189.0056207194
  0
ARC
  5
3D2
100
AcDbEntity
  8
DRAFT
100
AcDbCircle
 62
7
  6
CONTINUOUS
 10
58.2957905054
 20
32.2904684114
 40
14.8222588543
100
AcDbArc
 50
231.4314200796
 51
233.0071469488
  0
ARC
  5
3D3
100
AcDbEntity
  8
DRAFT
100
AcDbCircle
 62
7
  6
CONTINUOUS
 10
55.3975856186
 20
34.4606919829
 40
12.1944934494
100
AcDbArc
 50
182.1989528578
 51
184.7816143709
  0
ARC
  5
3D4
100
AcDbEntity
  8
DRAFT
100
AcDbCircle
 62
7
  6
CONTINUOUS
 10
30.4290693094
 20
49.8995057559
 40
3.0518617872
100
AcDbArc
 50
0.0128305644
 51
2.7994198759
  0
ARC
  5
3D5
100
AcDbEntity
  8
DRAFT
100
AcDbCircle
 62
7
  6
CONTINUOUS
 10
26.1730172389
 20
47.8140756035
 40
2.9912180798
100
AcDbArc
 50
0.0348809093
 51
4.5780988061
  0
ARC
  5
3D6
100
AcDbEntity
  8
RACCORDO
100
AcDbCircle
 62
7
  6
CONTINUOUS
 10
67.1256458906
 20
37.6821842852
 40
0.7133110991
100
AcDbArc
 50
96.7402172123
 51
101.8553286005
  0
SPLINE
  5
3D7
100
AcDbEntity
  8
0
100
AcDbSpline
 62
7
  6
CONTINUOUS
 70
0
 71
3
 72
9
 73
5
 74
3
 42
0.0000001
 43
0.0000001
 44
0.0000000001
 12
-0.3146349819
 22
0.1676527526
 32
0.0
 13
-0.2882787499
 23
0.2094216566
 33
0.0
 40
0.0
 40
0.0
 40
0.0
 40
0.0
 40
0.2130096085
 40
1.0
 40
1.0
 40
1.0
 40
1.0
 10
-56.196862673
 20
-21.8307674512
 30
0.0
 10
-56.2192027644
 20
-21.8188635688
 30
0.0
 10
-56.3231636049
 20
-21.7612492923
 30
0.0
 10
-56.4227826838
 20
-21.6960841805
 30
0.0
 10
-56.4984068859
 20
-21.64114657
 30
0.0
 11
-56.196862673
 21
-21.8307674512
 31
0.0
 11
-56.2632950811
 21
-21.7939761751
 31
0.0
 11
-56.4984068859
 21
-21.64114657
 31
0.0
  0
SPLINE
  5
3D8
100
AcDbEntity
  8
0
100
AcDbSpline
 62
7
  6
CONTINUOUS
 70
0
 71
3
 72
15
 73
11
 74
9
 42
0.0000001
 43
0.0000001
 44
0.0000000001
 12
-2.939478045
 22
2.135399719
 32
0.0
 13
0.0
 23
3.6332441615
 33
0.0
 40
0.0
 40
0.0
 40
0.0
 40
0.0
 40
0.1166507875
 40
0.2400441641
 40
0.3682594671
 40
0.499036013
 40
0.6299439153
 40
0.7585448031
 40
0.8825520476
 40
1.0
 40
1.0
 40
1.0
 40
1.0
 10
-56.7812495983
 20
-21.7825679263
 30
0.0
 10
-56.8955470746
 20
-21.6995359066
 30
0.0
 10
-57.1183192749
 20
-21.5111326925
 30
0.0
 10
-57.420868695
 20
-21.1821334958
 30
0.0
 10
-57.6941259986
 20
-20.8070563961
 30
0.0
 10
-57.9300099266
 20
-20.3969760677
 30
0.0
 10
-58.121627817
 20
-19.9639293085
 30
0.0
 10
-58.2633372292
 20
-19.5206060371
 30
0.0
 10
-58.3509624062
 20
-19.0801103621
 30
0.0
 10
-58.372239856
 20
-18.7874375771
 30
0.0
 10
-58.372239856
 20
-18.645198548
 30
0.0
 11
-56.7812495983
 21
-21.7825679263
 31
0.0
 11
-57.1060257486
 21
-21.5102730189
 31
0.0
 11
-57.4104349602
 21
-21.1811464496
 31
0.0
 11
-57.6853373046
 21
-20.8050702892
 31
0.0
 11
-57.9224788006
 21
-20.3933362766
 31
0.0
 11
-58.114739242
 21
-19.9583067826
 31
0.0
 11
-58.2563459824
 21
-19.5130436282
 31
0.0
 11
-58.3430472597
 21
-19.0709159012
 31
0.0
 11
-58.372239856
 21
-18.645198548
 31
0.0
  0
SPLINE
  5
3D9
100
AcDbEntity
  8
0
100
AcDbSpline
 62
7
  6
CONTINUOUS
 70
0
 71
3
 72
13
 73
9
 74
7
 42
0.0000001
 43
0.0000001
 44
0.0000000001
 12
0.0
 22
1.733890101
 32
0.0
 13
1.5560297276
 23
0.7770044582
 33
0.0
 40
0.0
 40
0.0
 40
0.0
 40
0.0
 40
0.2293097471
 40
0.4403083728
 40
0.6335453992
 40
0.8121488115
 40
0.9819867274
 40
1.0
 40
1.0
 40
1.0
 40
1.0
 10
-58.372239856
 20
-18.645198548
 30
0.0
 10
-58.372239856
 20
-18.5126659145
 30
0.0
 10
-58.3549974602
 20
-18.2576363471
 30
0.0
 10
-58.2705955427
 20
-17.8994007519
 30
0.0
 10
-58.1300616051
 20
-17.5904219226
 30
0.0
 10
-57.9358350166
 20
-17.3406265798
 30
0.0
 10
-57.7635553462
 20
-17.2126151026
 30
0.0
 10
-57.6668721275
 20
-17.1624701339
 30
0.0
 10
-57.657529065
 20
-17.1578046695
 30
0.0
 11
-58.372239856
 21
-18.645198548
 31
0.0
 11
-58.3430472597
 21
-18.2486737912
 31
0.0
 11
-58.2563459824
 21
-17.8932473415
 31
0.0
 11
-58.114739242
 21
-17.5895909274
 31
0.0
 11
-57.9224788006
 21
-17.3468218749
 31
0.0
 11
-57.6853373046
 21
-17.1722293583
 31
0.0
 11
-57.657529065
 21
-17.1578046695
 31
0.0
  0
SPLINE
  5
3DA
100
AcDbEntity
  8
0
100
AcDbSpline
 62
7
  6
CONTINUOUS
 70
0
 71
3
 72
11
 73
7
 74
5
 42
0.0000001
 43
0.0000001
 44
0.0000000001
 12
0.3585770888
 22
-0.0893745271
 32
0.0
 13
0.3641339119
 23
-0.0630224474
 33
0.0
 40
0.0
 40
0.0
 40
0.0
 40
0.0
 40
0.2843614962
 40
0.5413138567
 40
0.7772617616
 40
1.0
 40
1.0
 40
1.0
 40
1.0
 10
-57.5521007524
 20
-19.1056795206
 30
0.0
 10
-57.5181122466
 20
-19.1141510787
 30
0.0
 10
-57.4532144936
 20
-19.12949748
 30
0.0
 10
-57.3595933133
 20
-19.1495773704
 30
0.0
 10
-57.2730834772
 20
-19.1665443172
 30
0.0
 10
-57.2174755755
 20
-19.1765693885
 30
0.0
 10
-57.1904400601
 20
-19.1812485581
 30
0.0
 11
-57.5521007524
 21
-19.1056795206
 31
0.0
 11
-57.449844677
 21
-19.1298986755
 31
0.0
 11
-57.3570050814
 21
-19.1498353138
 31
0.0
 11
-57.2714443694
 21
-19.1666326301
 31
0.0
 11
-57.1904400601
 21
-19.1812485581
 31
0.0
  0
SPLINE
  5
3DB
100
AcDbEntity
  8
0
100
AcDbSpline
 62
7
  6
CONTINUOUS
 70
0
 71
3
 72
12
 73
8
 74
6
 42
0.0000001
 43
0.0000001
 44
0.0000000001
 12
-0.4846905088
 22
0.3399843163
 32
0.0
 13
-0.4301881365
 23
0.4067583948
 33
0.0
 40
0.0
 40
0.0
 40
0.0
 40
0.0
 40
0.2112889118
 40
0.4160796887
 40
0.6146197839
 40
0.8089140402
 40
1.0
 40
1.0
 40
1.0
 40
1.0
 10
-57.5521007524
 20
-19.1056795206
 30
0.0
 10
-57.5862373291
 20
-19.0817345485
 30
0.0
 10
-57.6528372307
 20
-19.0336838443
 30
0.0
 10
-57.7492067174
 20
-18.9600037112
 30
0.0
 10
-57.8408327923
 20
-18.8857175476
 30
0.0
 10
-57.9281830287
 20
-18.8105322621
 30
0.0
 10
-57.9842902152
 20
-18.7591667829
 30
0.0
 10
-58.0116911862
 20
-18.7332581768
 30
0.0
 11
-57.5521007524
 21
-19.1056795206
 31
0.0
 11
-57.6535265074
 21
-19.0324618708
 31
0.0
 11
-57.7498251115
 21
-18.9587944638
 31
0.0
 11
-57.8411100504
 21
-18.8847425293
 31
0.0
 11
-57.928270794
 21
-18.8096758442
 31
0.0
 11
-58.0116911862
 21
-18.7332581768
 31
0.0
  0
SPLINE
  5
3DC
100
AcDbEntity
  8
0
100
AcDbSpline
 62
7
  6
CONTINUOUS
 70
0
 71
3
 72
18
 73
14
 74
12
 42
0.0000001
 43
0.0000001
 44
0.0000000001
 12
0.1278471796
 22
-1.688061552
 32
0.0
 13
0.6956974518
 23
-1.543341103
 33
0.0
 40
0.0
 40
0.0
 40
0.0
 40
0.0
 40
0.0994487293
 40
0.1982410428
 40
0.2951515135
 40
0.389225246
 40
0.480723723
 40
0.5709101839
 40
0.6599274556
 40
0.7471425123
 40
0.8326363975
 40
0.9167966359
 40
1.0
 40
1.0
 40
1.0
 40
1.0
 10
-56.4665194524
 20
-20.4979415972
 30
0.0
 10
-56.4622813726
 20
-20.5539001226
 30
0.0
 10
-56.4523244894
 20
-20.6653400704
 30
0.0
 10
-56.4328423873
 20
-20.830772253
 30
0.0
 10
-56.4090142174
 20
-20.9925713542
 30
0.0
 10
-56.3811302176
 20
-21.1495420905
 30
0.0
 10
-56.3493159833
 20
-21.301889775
 30
0.0
 10
-56.3134959823
 20
-21.4504131511
 30
0.0
 10
-56.2736153426
 20
-21.5953940501
 30
0.0
 10
-56.229797428
 20
-21.7364642307
 30
0.0
 10
-56.1821673872
 20
-21.8733962646
 30
0.0
 10
-56.130654958
 20
-22.0064901093
 30
0.0
 10
-56.0934376066
 20
-22.093317593
 30
0.0
 10
-56.0741428172
 20
-22.1361213169
 30
0.0
 11
-56.4665194524
 21
-20.4979415972
 31
0.0
 11
-56.4515042228
 21
-20.6656270285
 31
0.0
 11
-56.4319091452
 21
-20.8317202522
 31
0.0
 11
-56.4079705013
 21
-20.9940237012
 31
0.0
 11
-56.3800815341
 21
-21.1508197809
 31
0.0
 11
-56.348383443
 21
-21.3024391595
 31
0.0
 11
-56.3125529372
 21
-21.4508515099
 31
0.0
 11
-56.272548477
 21
-21.5961416425
 31
0.0
 11
-56.2287162322
 21
-21.7371312893
 31
0.0
 11
-56.1811318532
 21
-21.8738176152
 31
0.0
 11
-56.129670613
 21
-22.0066736711
 31
0.0
 11
-56.0741428172
 21
-22.1361213169
 31
0.0
  0
SPLINE
  5
3DD
100
AcDbEntity
  8
0
100
AcDbSpline
 62
7
  6
CONTINUOUS
 70
0
 71
3
 72
12
 73
8
 74
6
 42
0.0000001
 43
0.0000001
 44
0.0000000001
 12
-0.7538005872
 22
0.1993050875
 32
0.0
 13
-0.7344507813
 23
0.2617630475
 33
0.0
 40
0.0
 40
0.0
 40
0.0
 40
0.0
 40
0.2031922224
 40
0.4037019467
 40
0.6024734814
 40
0.8012652599
 40
1.0
 40
1.0
 40
1.0
 40
1.0
 10
-55.2654895996
 20
-20.1063589701
 30
0.0
 10
-55.3165450718
 20
-20.0928598888
 30
0.0
 10
-55.4177732353
 20
-20.0652424804
 30
0.0
 10
-55.5681594786
 20
-20.0216025439
 30
0.0
 10
-55.7167165459
 20
-19.9758352017
 30
0.0
 10
-55.8640399099
 20
-19.9277059485
 30
0.0
 10
-55.9616786589
 20
-19.8939042236
 30
0.0
 10
-56.0103322873
 20
-19.8765637532
 30
0.0
 11
-55.2654895996
 21
-20.1063589701
 31
0.0
 11
-55.4183297888
 21
-20.0646474072
 31
0.0
 11
-55.5684703258
 21
-20.0210648061
 31
0.0
 11
-55.7165793856
 21
-19.9754204703
 31
0.0
 11
-55.8639100947
 21
-19.9272722213
 31
0.0
 11
-56.0103322873
 21
-19.8765637532
 31
0.0
  0
SPLINE
  5
3DE
100
AcDbEntity
  8
0
100
AcDbSpline
 62
7
  6
CONTINUOUS
 70
0
 71
3
 72
17
 73
13
 74
11
 42
0.0000001
 43
0.0000001
 44
0.0000000001
 12
-0.4446982604
 22
-1.6445147598
 32
0.0
 13
-0.1196409239
 23
-1.6993491691
 33
0.0
 40
0.0
 40
0.0
 40
0.0
 40
0.0
 40
0.0090529507
 40
0.1207745843
 40
0.2322793774
 40
0.3435569181
 40
0.4537381009
 40
0.5629470783
 40
0.67258589
 40
0.7828027636
 40
0.8923984533
 40
1.0
 40
1.0
 40
1.0
 40
1.0
 10
-56.1771218849
 20
-17.8067899754
 30
0.0
 10
-56.1784638287
 20
-17.8117525457
 30
0.0
 10
-56.1963143544
 20
-17.8779718738
 30
0.0
 10
-56.2293030044
 20
-18.0056891546
 30
0.0
 10
-56.2731503525
 20
-18.1905207656
 30
0.0
 10
-56.313067578
 20
-18.3753464969
 30
0.0
 10
-56.348929515
 20
-18.5596739846
 30
0.0
 10
-56.3807821391
 20
-18.7437924959
 30
0.0
 10
-56.4087027712
 20
-18.9285694657
 30
0.0
 10
-56.4325745508
 20
-19.1141357708
 30
0.0
 10
-56.4521094131
 20
-19.2990449888
 30
0.0
 10
-56.4622282696
 20
-19.4219783067
 30
0.0
 10
-56.4665194524
 20
-19.482929173
 30
0.0
 11
-56.1771218849
 21
-17.8067899754
 31
0.0
 11
-56.1811359658
 21
-17.8216808601
 31
0.0
 11
-56.2287221043
 21
-18.0059599645
 31
0.0
 11
-56.2725552439
 21
-18.1907880194
 31
0.0
 11
-56.3125598265
 21
-18.3760863201
 31
0.0
 11
-56.3483905733
 21
-18.5603344138
 31
0.0
 11
-56.3800887682
 21
-18.74365771
 31
0.0
 11
-56.4079763365
 21
-18.9283398308
 31
0.0
 11
-56.4319124503
 21
-19.1145684358
 31
0.0
 11
-56.4515052902
 21
-19.3002398845
 31
0.0
 11
-56.4665194524
 21
-19.482929173
 31
0.0
  0
SPLINE
  5
3DF
100
AcDbEntity
  8
0
100
AcDbSpline
 62
7
  6
CONTINUOUS
 70
0
 71
3
 72
10
 73
6
 74
4
 42
0.0000001
 43
0.0000001
 44
0.0000000001
 12
-0.80417572
 22
-0.4015656697
 32
0.0
 13
-0.8643416125
 23
0.2364359748
 33
0.0
 40
0.0
 40
0.0
 40
0.0
 40
0.0
 40
0.2920401134
 40
0.6328640805
 40
1.0
 40
1.0
 40
1.0
 40
1.0
 10
-55.1978633505
 20
-22.0771360748
 30
0.0
 10
-55.2761472067
 20
-22.1162271694
 30
0.0
 10
-55.4567448342
 20
-22.179184404
 30
0.0
 10
-55.7579443986
 20
-22.2011496945
 30
0.0
 10
-55.9683658663
 20
-22.1650560299
 30
0.0
 10
-56.0741428172
 20
-22.1361213169
 30
0.0
 11
-55.1978633505
 21
-22.0771360748
 31
0.0
 11
-55.4449574553
 21
-22.1638852021
 31
0.0
 11
-55.7493666669
 21
-22.1886025597
 31
0.0
 11
-56.0741428172
 21
-22.1361213169
 31
0.0
  0
SPLINE
  5
3E0
100
AcDbEntity
  8
0
100
AcDbSpline
 62
7
  6
CONTINUOUS
 70
0
 71
3
 72
12
 73
8
 74
6
 42
0.0000001
 43
0.0000001
 44
0.0000000001
 12
-0.4846905088
 22
0.3399843163
 32
0.0
 13
-0.4301881365
 23
0.4067583948
 33
0.0
 40
0.0
 40
0.0
 40
0.0
 40
0.0
 40
0.2112889118
 40
0.4160796887
 40
0.6146197839
 40
0.8089140402
 40
1.0
 40
1.0
 40
1.0
 40
1.0
 10
-57.5521007524
 20
-19.7118973033
 30
0.0
 10
-57.5862373291
 20
-19.6879523312
 30
0.0
 10
-57.6528372307
 20
-19.639901627
 30
0.0
 10
-57.7492067174
 20
-19.5662214938
 30
0.0
 10
-57.8408327923
 20
-19.4919353302
 30
0.0
 10
-57.9281830287
 20
-19.4167500447
 30
0.0
 10
-57.9842902152
 20
-19.3653845655
 30
0.0
 10
-58.0116911862
 20
-19.3394759594
 30
0.0
 11
-57.5521007524
 21
-19.7118973033
 31
0.0
 11
-57.6535265074
 21
-19.6386796534
 31
0.0
 11
-57.7498251115
 21
-19.5650122464
 31
0.0
 11
-57.8411100504
 21
-19.490960312
 31
0.0
 11
-57.928270794
 21
-19.4158936268
 31
0.0
 11
-58.0116911862
 21
-19.3394759594
 31
0.0
  0
SPLINE
  5
3E1
100
AcDbEntity
  8
0
100
AcDbSpline
 62
7
  6
CONTINUOUS
 70
0
 71
3
 72
18
 73
14
 74
12
 42
0.0000001
 43
0.0000001
 44
0.0000000001
 12
-0.6956974515
 22
1.5433411025
 32
0.0
 13
-0.1278471795
 23
1.6880615514
 33
0.0
 40
0.0
 40
0.0
 40
0.0
 40
0.0
 40
0.0832064168
 40
0.1673706447
 40
0.2528685759
 40
0.3400867613
 40
0.4291060942
 40
0.5192954576
 40
0.610797256
 40
0.7048699557
 40
0.8017738049
 40
0.9005573899
 40
1.0
 40
1.0
 40
1.0
 40
1.0
 10
-56.7812495983
 20
-21.7825679263
 30
0.0
 10
-56.8005450957
 20
-21.7397626319
 30
0.0
 10
-56.8377639547
 20
-21.6529314679
 30
0.0
 10
-56.8892783613
 20
-21.5198316753
 30
0.0
 10
-56.9369099766
 20
-21.382893515
 30
0.0
 10
-56.9807287576
 20
-21.2418181436
 30
0.0
 10
-57.0206098055
 20
-21.0968326191
 30
0.0
 10
-57.0564299885
 20
-20.9483044757
 30
0.0
 10
-57.0882437682
 20
-20.7959537019
 30
0.0
 10
-57.1161262475
 20
-20.6389851804
 30
0.0
 10
-57.1399521834
 20
-20.4771950999
 30
0.0
 10
-57.15943237
 20
-20.3117748964
 30
0.0
 10
-57.1693884146
 20
-20.2003432888
 30
0.0
 10
-57.1736262336
 20
-20.1443882066
 30
0.0
 11
-56.7812495983
 21
-21.7825679263
 31
0.0
 11
-56.836779346
 21
-21.6531154944
 31
0.0
 11
-56.8882427469
 21
-21.5202530329
 31
0.0
 11
-56.9358288854
 21
-21.3835600669
 31
0.0
 11
-56.9796620251
 21
-21.2425651517
 31
0.0
 11
-57.0196666077
 21
-21.0972714336
 31
0.0
 11
-57.0554973545
 21
-20.9488540867
 31
0.0
 11
-57.0871955494
 21
-20.7972289854
 31
0.0
 11
-57.1150831176
 21
-20.6404344328
 31
0.0
 11
-57.1390192315
 21
-20.4781419416
 31
0.0
 11
-57.1586120714
 21
-20.3120633329
 31
0.0
 11
-57.1736262336
 21
-20.1443882066
 31
0.0
  0
SPLINE
  5
3E2
100
AcDbEntity
  8
0
100
AcDbSpline
 62
7
  6
CONTINUOUS
 70
0
 71
3
 72
17
 73
13
 74
11
 42
0.0000001
 43
0.0000001
 44
0.0000000001
 12
0.1300619935
 22
1.8473673837
 32
0.0
 13
0.5103374417
 23
1.780270143
 33
0.0
 40
0.0
 40
0.0
 40
0.0
 40
0.0
 40
0.0989862623
 40
0.1998098983
 40
0.3012031679
 40
0.4020589693
 40
0.5025145917
 40
0.6038648314
 40
0.7062244143
 40
0.8087916628
 40
0.9115570984
 40
1.0
 40
1.0
 40
1.0
 40
1.0
 10
-57.1736262336
 20
-19.1293757824
 30
0.0
 10
-57.1693347834
 20
-19.0684211183
 30
0.0
 10
-57.159215059
 20
-18.9454783652
 30
0.0
 10
-57.1396782652
 20
-18.7605552302
 30
0.0
 10
-57.1158042644
 20
-18.5749778492
 30
0.0
 10
-57.0878821458
 20
-18.3901973806
 30
0.0
 10
-57.0560290878
 20
-18.2060815992
 30
0.0
 10
-57.0201673319
 20
-18.0217590342
 30
0.0
 10
-56.9802505194
 20
-17.8369383439
 30
0.0
 10
-56.9364040537
 20
-17.6521128374
 30
0.0
 10
-56.8910471158
 20
-17.4765125901
 30
0.0
 10
-56.8594584562
 20
-17.3627767088
 30
0.0
 10
-56.8444132148
 20
-17.3102926231
 30
0.0
 11
-57.1736262336
 21
-19.1293757824
 31
0.0
 11
-57.158611004
 21
-18.9466751215
 31
0.0
 11
-57.1390159264
 21
-18.7609868201
 31
0.0
 11
-57.1150772825
 21
-18.5747447272
 31
0.0
 11
-57.0871883153
 21
-18.3900596805
 31
0.0
 11
-57.0554902242
 21
-18.2067422107
 31
0.0
 11
-57.0196597184
 21
-18.0224993545
 31
0.0
 11
-56.9796552582
 21
-17.8372047617
 31
0.0
 11
-56.9358230134
 21
-17.6523828701
 31
0.0
 11
-56.8882386344
 21
-17.4681121652
 31
0.0
 11
-56.8444132148
 21
-17.3102926231
 31
0.0
  0
SPLINE
  5
3E3
100
AcDbEntity
  8
0
100
AcDbSpline
 62
7
  6
CONTINUOUS
 70
0
 71
3
 72
9
 73
5
 74
3
 42
0.0000001
 43
0.0000001
 44
0.0000000001
 12
-0.1642762213
 22
-0.1282951516
 32
0.0
 13
-0.1864235189
 23
-0.0930907056
 33
0.0
 40
0.0
 40
0.0
 40
0.0
 40
0.0
 40
0.8496477921
 40
1.0
 40
1.0
 40
1.0
 40
1.0
 10
-55.0220743802
 20
-21.9658777498
 30
0.0
 10
-55.0686000231
 20
-22.0022129806
 30
0.0
 10
-55.1268579533
 20
-22.0404893019
 30
0.0
 10
-55.188520288
 20
-22.0724706104
 30
0.0
 10
-55.1978633505
 20
-22.0771360748
 30
0.0
 11
-55.0220743802
 21
-21.9658777498
 31
0.0
 11
-55.1700551109
 21
-22.062711386
 31
0.0
 11
-55.1978633505
 21
-22.0771360748
 31
0.0
  0
SPLINE
  5
3E4
100
AcDbEntity
  8
0
100
AcDbSpline
 62
7
  6
CONTINUOUS
 70
0
 71
3
 72
12
 73
8
 74
6
 42
0.0000001
 43
0.0000001
 44
0.0000000001
 12
-0.7538005872
 22
0.1993050875
 32
0.0
 13
-0.7344507813
 23
0.2617630475
 33
0.0
 40
0.0
 40
0.0
 40
0.0
 40
0.0
 40
0.2031922224
 40
0.4037019467
 40
0.6024734814
 40
0.8012652599
 40
1.0
 40
1.0
 40
1.0
 40
1.0
 10
-55.2654895996
 20
-20.7125767527
 30
0.0
 10
-55.3165450718
 20
-20.6990776715
 30
0.0
 10
-55.4177732353
 20
-20.671460263
 30
0.0
 10
-55.5681594786
 20
-20.6278203266
 30
0.0
 10
-55.7167165459
 20
-20.5820529844
 30
0.0
 10
-55.8640399099
 20
-20.5339237311
 30
0.0
 10
-55.9616786589
 20
-20.5001220062
 30
0.0
 10
-56.0103322873
 20
-20.4827815358
 30
0.0
 11
-55.2654895996
 21
-20.7125767527
 31
0.0
 11
-55.4183297888
 21
-20.6708651899
 31
0.0
 11
-55.5684703258
 21
-20.6272825887
 31
0.0
 11
-55.7165793856
 21
-20.581638253
 31
0.0
 11
-55.8639100947
 21
-20.5334900039
 31
0.0
 11
-56.0103322873
 21
-20.4827815358
 31
0.0
  0
SPLINE
  5
3E5
100
AcDbEntity
  8
0
100
AcDbSpline
 62
7
  6
CONTINUOUS
 70
0
 71
3
 72
9
 73
5
 74
3
 42
0.0000001
 43
0.0000001
 44
0.0000000001
 12
-0.3146349819
 22
0.1676527526
 32
0.0
 13
-0.2882787499
 23
0.2094216566
 33
0.0
 40
0.0
 40
0.0
 40
0.0
 40
0.0
 40
0.2130096085
 40
1.0
 40
1.0
 40
1.0
 40
1.0
 10
-56.196862673
 20
45.719214044
 30
0.0
 10
-56.2192027644
 20
45.7311179264
 30
0.0
 10
-56.3231636049
 20
45.7887322029
 30
0.0
 10
-56.4227826838
 20
45.8538973147
 30
0.0
 10
-56.4984068859
 20
45.9088349252
 30
0.0
 11
-56.196862673
 21
45.719214044
 31
0.0
 11
-56.2632950811
 21
45.7560053201
 31
0.0
 11
-56.4984068859
 21
45.9088349252
 31
0.0
  0
SPLINE
  5
3E6
100
AcDbEntity
  8
0
100
AcDbSpline
 62
7
  6
CONTINUOUS
 70
0
 71
3
 72
15
 73
11
 74
9
 42
0.0000001
 43
0.0000001
 44
0.0000000001
 12
-2.939478045
 22
2.135399719
 32
0.0
 13
0.0
 23
3.6332441615
 33
0.0
 40
0.0
 40
0.0
 40
0.0
 40
0.0
 40
0.1166507875
 40
0.2400441641
 40
0.3682594671
 40
0.499036013
 40
0.6299439153
 40
0.7585448031
 40
0.8825520476
 40
1.0
 40
1.0
 40
1.0
 40
1.0
 10
-56.7812495983
 20
45.7674135689
 30
0.0
 10
-56.8955470746
 20
45.8504455886
 30
0.0
 10
-57.1183192749
 20
46.0388488027
 30
0.0
 10
-57.420868695
 20
46.3678479993
 30
0.0
 10
-57.6941259986
 20
46.7429250991
 30
0.0
 10
-57.9300099266
 20
47.1530054274
 30
0.0
 10
-58.121627817
 20
47.5860521867
 30
0.0
 10
-58.2633372292
 20
48.029375458
 30
0.0
 10
-58.3509624062
 20
48.4698711331
 30
0.0
 10
-58.372239856
 20
48.7625439181
 30
0.0
 10
-58.372239856
 20
48.9047829471
 30
0.0
 11
-56.7812495983
 21
45.7674135689
 31
0.0
 11
-57.1060257486
 21
46.0397084763
 31
0.0
 11
-57.4104349602
 21
46.3688350456
 31
0.0
 11
-57.6853373046
 21
46.744911206
 31
0.0
 11
-57.9224788006
 21
47.1566452186
 31
0.0
 11
-58.114739242
 21
47.5916747125
 31
0.0
 11
-58.2563459824
 21
48.036937867
 31
0.0
 11
-58.3430472597
 21
48.479065594
 31
0.0
 11
-58.372239856
 21
48.9047829471
 31
0.0
  0
SPLINE
  5
3E7
100
AcDbEntity
  8
0
100
AcDbSpline
 62
7
  6
CONTINUOUS
 70
0
 71
3
 72
13
 73
9
 74
7
 42
0.0000001
 43
0.0000001
 44
0.0000000001
 12
0.0
 22
1.733890101
 32
0.0
 13
1.5560297276
 23
0.7770044582
 33
0.0
 40
0.0
 40
0.0
 40
0.0
 40
0.0
 40
0.2293097471
 40
0.4403083728
 40
0.6335453992
 40
0.8121488115
 40
0.9819867274
 40
1.0
 40
1.0
 40
1.0
 40
1.0
 10
-58.372239856
 20
48.9047829471
 30
0.0
 10
-58.372239856
 20
49.0373155806
 30
0.0
 10
-58.3549974602
 20
49.2923451481
 30
0.0
 10
-58.2705955427
 20
49.6505807433
 30
0.0
 10
-58.1300616051
 20
49.9595595725
 30
0.0
 10
-57.9358350166
 20
50.2093549154
 30
0.0
 10
-57.7635553462
 20
50.3373663926
 30
0.0
 10
-57.6668721275
 20
50.3875113613
 30
0.0
 10
-57.657529065
 20
50.3921768257
 30
0.0
 11
-58.372239856
 21
48.9047829471
 31
0.0
 11
-58.3430472597
 21
49.301307704
 31
0.0
 11
-58.2563459824
 21
49.6567341537
 31
0.0
 11
-58.114739242
 21
49.9603905678
 31
0.0
 11
-57.9224788006
 21
50.2031596203
 31
0.0
 11
-57.6853373046
 21
50.3777521369
 31
0.0
 11
-57.657529065
 21
50.3921768257
 31
0.0
  0
SPLINE
  5
3E8
100
AcDbEntity
  8
0
100
AcDbSpline
 62
7
  6
CONTINUOUS
 70
0
 71
3
 72
11
 73
7
 74
5
 42
0.0000001
 43
0.0000001
 44
0.0000000001
 12
0.3585770888
 22
-0.0893745271
 32
0.0
 13
0.3641339119
 23
-0.0630224474
 33
0.0
 40
0.0
 40
0.0
 40
0.0
 40
0.0
 40
0.2843614962
 40
0.5413138567
 40
0.7772617616
 40
1.0
 40
1.0
 40
1.0
 40
1.0
 10
-57.5521007524
 20
48.4443019746
 30
0.0
 10
-57.5181122466
 20
48.4358304165
 30
0.0
 10
-57.4532144936
 20
48.4204840152
 30
0.0
 10
-57.3595933133
 20
48.4004041247
 30
0.0
 10
-57.2730834772
 20
48.383437178
 30
0.0
 10
-57.2174755755
 20
48.3734121067
 30
0.0
 10
-57.1904400601
 20
48.3687329371
 30
0.0
 11
-57.5521007524
 21
48.4443019746
 31
0.0
 11
-57.449844677
 21
48.4200828197
 31
0.0
 11
-57.3570050814
 21
48.4001461813
 31
0.0
 11
-57.2714443694
 21
48.3833488651
 31
0.0
 11
-57.1904400601
 21
48.3687329371
 31
0.0
  0
SPLINE
  5
3E9
100
AcDbEntity
  8
0
100
AcDbSpline
 62
7
  6
CONTINUOUS
 70
0
 71
3
 72
12
 73
8
 74
6
 42
0.0000001
 43
0.0000001
 44
0.0000000001
 12
-0.4846905088
 22
0.3399843163
 32
0.0
 13
-0.4301881365
 23
0.4067583948
 33
0.0
 40
0.0
 40
0.0
 40
0.0
 40
0.0
 40
0.2112889118
 40
0.4160796887
 40
0.6146197839
 40
0.8089140402
 40
1.0
 40
1.0
 40
1.0
 40
1.0
 10
-57.5521007524
 20
48.4443019746
 30
0.0
 10
-57.5862373291
 20
48.4682469466
 30
0.0
 10
-57.6528372307
 20
48.5162976509
 30
0.0
 10
-57.7492067174
 20
48.589977784
 30
0.0
 10
-57.8408327923
 20
48.6642639476
 30
0.0
 10
-57.9281830287
 20
48.7394492331
 30
0.0
 10
-57.9842902152
 20
48.7908147123
 30
0.0
 10
-58.0116911862
 20
48.8167233184
 30
0.0
 11
-57.5521007524
 21
48.4443019746
 31
0.0
 11
-57.6535265074
 21
48.5175196244
 31
0.0
 11
-57.7498251115
 21
48.5911870314
 31
0.0
 11
-57.8411100504
 21
48.6652389659
 31
0.0
 11
-57.928270794
 21
48.740305651
 31
0.0
 11
-58.0116911862
 21
48.8167233184
 31
0.0
  0
SPLINE
  5
3EA
100
AcDbEntity
  8
0
100
AcDbSpline
 62
7
  6
CONTINUOUS
 70
0
 71
3
 72
18
 73
14
 74
12
 42
0.0000001
 43
0.0000001
 44
0.0000000001
 12
0.1278471796
 22
-1.688061552
 32
0.0
 13
0.6956974518
 23
-1.543341103
 33
0.0
 40
0.0
 40
0.0
 40
0.0
 40
0.0
 40
0.0994487293
 40
0.1982410428
 40
0.2951515135
 40
0.389225246
 40
0.480723723
 40
0.5709101839
 40
0.6599274556
 40
0.7471425123
 40
0.8326363975
 40
0.9167966359
 40
1.0
 40
1.0
 40
1.0
 40
1.0
 10
-56.4665194524
 20
47.052039898
 30
0.0
 10
-56.4622813726
 20
46.9960813726
 30
0.0
 10
-56.4523244894
 20
46.8846414248
 30
0.0
 10
-56.4328423873
 20
46.7192092422
 30
0.0
 10
-56.4090142174
 20
46.5574101409
 30
0.0
 10
-56.3811302176
 20
46.4004394047
 30
0.0
 10
-56.3493159833
 20
46.2480917202
 30
0.0
 10
-56.3134959823
 20
46.0995683441
 30
0.0
 10
-56.2736153426
 20
45.9545874451
 30
0.0
 10
-56.229797428
 20
45.8135172645
 30
0.0
 10
-56.1821673872
 20
45.6765852306
 30
0.0
 10
-56.130654958
 20
45.5434913859
 30
0.0
 10
-56.0934376066
 20
45.4566639022
 30
0.0
 10
-56.0741428172
 20
45.4138601783
 30
0.0
 11
-56.4665194524
 21
47.052039898
 31
0.0
 11
-56.4515042228
 21
46.8843544667
 31
0.0
 11
-56.4319091452
 21
46.718261243
 31
0.0
 11
-56.4079705013
 21
46.555957794
 31
0.0
 11
-56.3800815341
 21
46.3991617143
 31
0.0
 11
-56.348383443
 21
46.2475423357
 31
0.0
 11
-56.3125529372
 21
46.0991299853
 31
0.0
 11
-56.272548477
 21
45.9538398527
 31
0.0
 11
-56.2287162322
 21
45.8128502059
 31
0.0
 11
-56.1811318532
 21
45.67616388
 31
0.0
 11
-56.129670613
 21
45.5433078241
 31
0.0
 11
-56.0741428172
 21
45.4138601783
 31
0.0
  0
SPLINE
  5
3EB
100
AcDbEntity
  8
0
100
AcDbSpline
 62
7
  6
CONTINUOUS
 70
0
 71
3
 72
12
 73
8
 74
6
 42
0.0000001
 43
0.0000001
 44
0.0000000001
 12
-0.7538005872
 22
0.1993050875
 32
0.0
 13
-0.7344507813
 23
0.2617630475
 33
0.0
 40
0.0
 40
0.0
 40
0.0
 40
0.0
 40
0.2031922224
 40
0.4037019467
 40
0.6024734814
 40
0.8012652599
 40
1.0
 40
1.0
 40
1.0
 40
1.0
 10
-55.2654895996
 20
47.4436225251
 30
0.0
 10
-55.3165450718
 20
47.4571216064
 30
0.0
 10
-55.4177732353
 20
47.4847390148
 30
0.0
 10
-55.5681594786
 20
47.5283789513
 30
0.0
 10
-55.7167165459
 20
47.5741462934
 30
0.0
 10
-55.8640399099
 20
47.6222755467
 30
0.0
 10
-55.9616786589
 20
47.6560772716
 30
0.0
 10
-56.0103322873
 20
47.673417742
 30
0.0
 11
-55.2654895996
 21
47.4436225251
 31
0.0
 11
-55.4183297888
 21
47.4853340879
 31
0.0
 11
-55.5684703258
 21
47.5289166891
 31
0.0
 11
-55.7165793856
 21
47.5745610248
 31
0.0
 11
-55.8639100947
 21
47.6227092739
 31
0.0
 11
-56.0103322873
 21
47.673417742
 31
0.0
  0
SPLINE
  5
3EC
100
AcDbEntity
  8
0
100
AcDbSpline
 62
7
  6
CONTINUOUS
 70
0
 71
3
 72
17
 73
13
 74
11
 42
0.0000001
 43
0.0000001
 44
0.0000000001
 12
-0.4446982604
 22
-1.6445147598
 32
0.0
 13
-0.1196409239
 23
-1.6993491691
 33
0.0
 40
0.0
 40
0.0
 40
0.0
 40
0.0
 40
0.0090529507
 40
0.1207745843
 40
0.2322793774
 40
0.3435569181
 40
0.4537381009
 40
0.5629470783
 40
0.67258589
 40
0.7828027636
 40
0.8923984533
 40
1.0
 40
1.0
 40
1.0
 40
1.0
 10
-56.1771218849
 20
49.7431915198
 30
0.0
 10
-56.1784638287
 20
49.7382289495
 30
0.0
 10
-56.1963143544
 20
49.6720096214
 30
0.0
 10
-56.2293030044
 20
49.5442923406
 30
0.0
 10
-56.2731503525
 20
49.3594607296
 30
0.0
 10
-56.313067578
 20
49.1746349983
 30
0.0
 10
-56.348929515
 20
48.9903075106
 30
0.0
 10
-56.3807821391
 20
48.8061889993
 30
0.0
 10
-56.4087027712
 20
48.6214120295
 30
0.0
 10
-56.4325745508
 20
48.4358457244
 30
0.0
 10
-56.4521094131
 20
48.2509365064
 30
0.0
 10
-56.4622282696
 20
48.1280031885
 30
0.0
 10
-56.4665194524
 20
48.0670523221
 30
0.0
 11
-56.1771218849
 21
49.7431915198
 31
0.0
 11
-56.1811359658
 21
49.7283006351
 31
0.0
 11
-56.2287221043
 21
49.5440215307
 31
0.0
 11
-56.2725552439
 21
49.3591934758
 31
0.0
 11
-56.3125598265
 21
49.1738951751
 31
0.0
 11
-56.3483905733
 21
48.9896470814
 31
0.0
 11
-56.3800887682
 21
48.8063237852
 31
0.0
 11
-56.4079763365
 21
48.6216416644
 31
0.0
 11
-56.4319124503
 21
48.4354130594
 31
0.0
 11
-56.4515052902
 21
48.2497416107
 31
0.0
 11
-56.4665194524
 21
48.0670523221
 31
0.0
  0
SPLINE
  5
3ED
100
AcDbEntity
  8
0
100
AcDbSpline
 62
7
  6
CONTINUOUS
 70
0
 71
3
 72
10
 73
6
 74
4
 42
0.0000001
 43
0.0000001
 44
0.0000000001
 12
-0.80417572
 22
-0.4015656697
 32
0.0
 13
-0.8643416125
 23
0.2364359748
 33
0.0
 40
0.0
 40
0.0
 40
0.0
 40
0.0
 40
0.2920401134
 40
0.6328640805
 40
1.0
 40
1.0
 40
1.0
 40
1.0
 10
-55.1978633505
 20
45.4728454204
 30
0.0
 10
-55.2761472067
 20
45.4337543258
 30
0.0
 10
-55.4567448342
 20
45.3707970912
 30
0.0
 10
-55.7579443986
 20
45.3488318007
 30
0.0
 10
-55.9683658663
 20
45.3849254653
 30
0.0
 10
-56.0741428172
 20
45.4138601783
 30
0.0
 11
-55.1978633505
 21
45.4728454204
 31
0.0
 11
-55.4449574553
 21
45.3860962931
 31
0.0
 11
-55.7493666669
 21
45.3613789355
 31
0.0
 11
-56.0741428172
 21
45.4138601783
 31
0.0
  0
SPLINE
  5
3EE
100
AcDbEntity
  8
0
100
AcDbSpline
 62
7
  6
CONTINUOUS
 70
0
 71
3
 72
12
 73
8
 74
6
 42
0.0000001
 43
0.0000001
 44
0.0000000001
 12
-0.4846905088
 22
0.3399843163
 32
0.0
 13
-0.4301881365
 23
0.4067583948
 33
0.0
 40
0.0
 40
0.0
 40
0.0
 40
0.0
 40
0.2112889118
 40
0.4160796887
 40
0.6146197839
 40
0.8089140402
 40
1.0
 40
1.0
 40
1.0
 40
1.0
 10
-57.5521007524
 20
47.8380841919
 30
0.0
 10
-57.5862373291
 20
47.862029164
 30
0.0
 10
-57.6528372307
 20
47.9100798682
 30
0.0
 10
-57.7492067174
 20
47.9837600014
 30
0.0
 10
-57.8408327923
 20
48.058046165
 30
0.0
 10
-57.9281830287
 20
48.1332314505
 30
0.0
 10
-57.9842902152
 20
48.1845969297
 30
0.0
 10
-58.0116911862
 20
48.2105055357
 30
0.0
 11
-57.5521007524
 21
47.8380841919
 31
0.0
 11
-57.6535265074
 21
47.9113018417
 31
0.0
 11
-57.7498251115
 21
47.9849692488
 31
0.0
 11
-57.8411100504
 21
48.0590211832
 31
0.0
 11
-57.928270794
 21
48.1340878683
 31
0.0
 11
-58.0116911862
 21
48.2105055357
 31
0.0
  0
SPLINE
  5
3EF
100
AcDbEntity
  8
0
100
AcDbSpline
 62
7
  6
CONTINUOUS
 70
0
 71
3
 72
18
 73
14
 74
12
 42
0.0000001
 43
0.0000001
 44
0.0000000001
 12
-0.6956974515
 22
1.5433411025
 32
0.0
 13
-0.1278471795
 23
1.6880615514
 33
0.0
 40
0.0
 40
0.0
 40
0.0
 40
0.0
 40
0.0832064168
 40
0.1673706447
 40
0.2528685759
 40
0.3400867613
 40
0.4291060942
 40
0.5192954576
 40
0.610797256
 40
0.7048699557
 40
0.8017738049
 40
0.9005573899
 40
1.0
 40
1.0
 40
1.0
 40
1.0
 10
-56.7812495983
 20
45.7674135689
 30
0.0
 10
-56.8005450957
 20
45.8102188633
 30
0.0
 10
-56.8377639547
 20
45.8970500272
 30
0.0
 10
-56.8892783613
 20
46.0301498199
 30
0.0
 10
-56.9369099766
 20
46.1670879802
 30
0.0
 10
-56.9807287576
 20
46.3081633516
 30
0.0
 10
-57.0206098055
 20
46.4531488761
 30
0.0
 10
-57.0564299885
 20
46.6016770195
 30
0.0
 10
-57.0882437682
 20
46.7540277933
 30
0.0
 10
-57.1161262475
 20
46.9109963148
 30
0.0
 10
-57.1399521834
 20
47.0727863953
 30
0.0
 10
-57.15943237
 20
47.2382065988
 30
0.0
 10
-57.1693884146
 20
47.3496382064
 30
0.0
 10
-57.1736262336
 20
47.4055932886
 30
0.0
 11
-56.7812495983
 21
45.7674135689
 31
0.0
 11
-56.836779346
 21
45.8968660008
 31
0.0
 11
-56.8882427469
 21
46.0297284623
 31
0.0
 11
-56.9358288854
 21
46.1664214283
 31
0.0
 11
-56.9796620251
 21
46.3074163435
 31
0.0
 11
-57.0196666077
 21
46.4527100616
 31
0.0
 11
-57.0554973545
 21
46.6011274085
 31
0.0
 11
-57.0871955494
 21
46.7527525097
 31
0.0
 11
-57.1150831176
 21
46.9095470624
 31
0.0
 11
-57.1390192315
 21
47.0718395535
 31
0.0
 11
-57.1586120714
 21
47.2379181623
 31
0.0
 11
-57.1736262336
 21
47.4055932886
 31
0.0
  0
SPLINE
  5
3F0
100
AcDbEntity
  8
0
100
AcDbSpline
 62
7
  6
CONTINUOUS
 70
0
 71
3
 72
17
 73
13
 74
11
 42
0.0000001
 43
0.0000001
 44
0.0000000001
 12
0.1300619935
 22
1.8473673837
 32
0.0
 13
0.5103374417
 23
1.780270143
 33
0.0
 40
0.0
 40
0.0
 40
0.0
 40
0.0
 40
0.0989862623
 40
0.1998098983
 40
0.3012031679
 40
0.4020589693
 40
0.5025145917
 40
0.6038648314
 40
0.7062244143
 40
0.8087916628
 40
0.9115570984
 40
1.0
 40
1.0
 40
1.0
 40
1.0
 10
-57.1736262336
 20
48.4206057127
 30
0.0
 10
-57.1693347834
 20
48.4815603769
 30
0.0
 10
-57.159215059
 20
48.60450313
 30
0.0
 10
-57.1396782652
 20
48.789426265
 30
0.0
 10
-57.1158042644
 20
48.9750036459
 30
0.0
 10
-57.0878821458
 20
49.1597841146
 30
0.0
 10
-57.0560290878
 20
49.343899896
 30
0.0
 10
-57.0201673319
 20
49.528222461
 30
0.0
 10
-56.9802505194
 20
49.7130431513
 30
0.0
 10
-56.9364040537
 20
49.8978686578
 30
0.0
 10
-56.8910471158
 20
50.0734689051
 30
0.0
 10
-56.8594584562
 20
50.1872047863
 30
0.0
 10
-56.8444132148
 20
50.2396888721
 30
0.0
 11
-57.1736262336
 21
48.4206057127
 31
0.0
 11
-57.158611004
 21
48.6033063737
 31
0.0
 11
-57.1390159264
 21
48.7889946751
 31
0.0
 11
-57.1150772825
 21
48.9752367679
 31
0.0
 11
-57.0871883153
 21
49.1599218147
 31
0.0
 11
-57.0554902242
 21
49.3432392845
 31
0.0
 11
-57.0196597184
 21
49.5274821407
 31
0.0
 11
-56.9796552582
 21
49.7127767335
 31
0.0
 11
-56.9358230134
 21
49.8975986251
 31
0.0
 11
-56.8882386344
 21
50.08186933
 31
0.0
 11
-56.8444132148
 21
50.2396888721
 31
0.0
  0
SPLINE
  5
3F1
100
AcDbEntity
  8
0
100
AcDbSpline
 62
7
  6
CONTINUOUS
 70
0
 71
3
 72
9
 73
5
 74
3
 42
0.0000001
 43
0.0000001
 44
0.0000000001
 12
-0.1642762213
 22
-0.1282951516
 32
0.0
 13
-0.1864235189
 23
-0.0930907056
 33
0.0
 40
0.0
 40
0.0
 40
0.0
 40
0.0
 40
0.8496477921
 40
1.0
 40
1.0
 40
1.0
 40
1.0
 10
-55.0220743802
 20
45.5841037454
 30
0.0
 10
-55.0686000231
 20
45.5477685146
 30
0.0
 10
-55.1268579533
 20
45.5094921933
 30
0.0
 10
-55.188520288
 20
45.4775108847
 30
0.0
 10
-55.1978633505
 20
45.4728454204
 30
0.0
 11
-55.0220743802
 21
45.5841037454
 31
0.0
 11
-55.1700551109
 21
45.4872701092
 31
0.0
 11
-55.1978633505
 21
45.4728454204
 31
0.0
  0
SPLINE
  5
3F2
100
AcDbEntity
  8
0
100
AcDbSpline
 62
7
  6
CONTINUOUS
 70
0
 71
3
 72
12
 73
8
 74
6
 42
0.0000001
 43
0.0000001
 44
0.0000000001
 12
-0.7538005872
 22
0.1993050875
 32
0.0
 13
-0.7344507813
 23
0.2617630475
 33
0.0
 40
0.0
 40
0.0
 40
0.0
 40
0.0
 40
0.2031922224
 40
0.4037019467
 40
0.6024734814
 40
0.8012652599
 40
1.0
 40
1.0
 40
1.0
 40
1.0
 10
-55.2654895996
 20
46.8374047425
 30
0.0
 10
-55.3165450718
 20
46.8509038237
 30
0.0
 10
-55.4177732353
 20
46.8785212322
 30
0.0
 10
-55.5681594786
 20
46.9221611686
 30
0.0
 10
-55.7167165459
 20
46.9679285108
 30
0.0
 10
-55.8640399099
 20
47.0160577641
 30
0.0
 10
-55.9616786589
 20
47.049859489
 30
0.0
 10
-56.0103322873
 20
47.0671999594
 30
0.0
 11
-55.2654895996
 21
46.8374047425
 31
0.0
 11
-55.4183297888
 21
46.8791163053
 31
0.0
 11
-55.5684703258
 21
46.9226989064
 31
0.0
 11
-55.7165793856
 21
46.9683432422
 31
0.0
 11
-55.8639100947
 21
47.0164914913
 31
0.0
 11
-56.0103322873
 21
47.0671999594
 31
0.0
  0
SPLINE
  5
3F3
100
AcDbEntity
  8
0
100
AcDbSpline
 62
7
  6
CONTINUOUS
 70
0
 71
3
 72
9
 73
5
 74
3
 42
0.0000001
 43
0.0000001
 44
0.0000000001
 12
-0.3146349819
 22
0.1676527526
 32
0.0
 13
-0.2882787499
 23
0.2094216566
 33
0.0
 40
0.0
 40
0.0
 40
0.0
 40
0.0
 40
0.2130096085
 40
1.0
 40
1.0
 40
1.0
 40
1.0
 10
15.928029008
 20
-57.8932132917
 30
0.0
 10
15.9056889166
 20
-57.8813094093
 30
0.0
 10
15.8017280761
 20
-57.8236951328
 30
0.0
 10
15.7021089973
 20
-57.758530021
 30
0.0
 10
15.6264847952
 20
-57.7035924105
 30
0.0
 11
15.928029008
 21
-57.8932132917
 31
0.0
 11
15.8615965999
 21
-57.8564220156
 31
0.0
 11
15.6264847952
 21
-57.7035924105
 31
0.0
  0
SPLINE
  5
3F4
100
AcDbEntity
  8
0
100
AcDbSpline
 62
7
  6
CONTINUOUS
 70
0
 71
3
 72
15
 73
11
 74
9
 42
0.0000001
 43
0.0000001
 44
0.0000000001
 12
-2.939478045
 22
2.135399719
 32
0.0
 13
0.0
 23
3.6332441615
 33
0.0
 40
0.0
 40
0.0
 40
0.0
 40
0.0
 40
0.1166507875
 40
0.2400441641
 40
0.3682594671
 40
0.499036013
 40
0.6299439153
 40
0.7585448031
 40
0.8825520476
 40
1.0
 40
1.0
 40
1.0
 40
1.0
 10
15.3436420827
 20
-57.8450137668
 30
0.0
 10
15.2293446064
 20
-57.7619817471
 30
0.0
 10
15.0065724061
 20
-57.573578533
 30
0.0
 10
14.7040229861
 20
-57.2445793364
 30
0.0
 10
14.4307656825
 20
-56.8695022366
 30
0.0
 10
14.1948817545
 20
-56.4594219083
 30
0.0
 10
14.0032638641
 20
-56.026375149
 30
0.0
 10
13.8615544518
 20
-55.5830518777
 30
0.0
 10
13.7739292749
 20
-55.1425562026
 30
0.0
 10
13.752651825
 20
-54.8498834176
 30
0.0
 10
13.752651825
 20
-54.7076443886
 30
0.0
 11
15.3436420827
 21
-57.8450137668
 31
0.0
 11
15.0188659325
 21
-57.5727188594
 31
0.0
 11
14.7144567208
 21
-57.2435922901
 31
0.0
 11
14.4395543764
 21
-56.8675161297
 31
0.0
 11
14.2024128804
 21
-56.4557821171
 31
0.0
 11
14.010152439
 21
-56.0207526232
 31
0.0
 11
13.8685456986
 21
-55.5754894687
 31
0.0
 11
13.7818444214
 21
-55.1333617417
 31
0.0
 11
13.752651825
 21
-54.7076443886
 31
0.0
  0
SPLINE
  5
3F5
100
AcDbEntity
  8
0
100
AcDbSpline
 62
7
  6
CONTINUOUS
 70
0
 71
3
 72
13
 73
9
 74
7
 42
0.0000001
 43
0.0000001
 44
0.0000000001
 12
0.0
 22
1.733890101
 32
0.0
 13
1.5560297276
 23
0.7770044582
 33
0.0
 40
0.0
 40
0.0
 40
0.0
 40
0.0
 40
0.2293097471
 40
0.4403083728
 40
0.6335453992
 40
0.8121488115
 40
0.9819867274
 40
1.0
 40
1.0
 40
1.0
 40
1.0
 10
13.752651825
 20
-54.7076443886
 30
0.0
 10
13.752651825
 20
-54.5751117551
 30
0.0
 10
13.7698942209
 20
-54.3200821876
 30
0.0
 10
13.8542961383
 20
-53.9618465924
 30
0.0
 10
13.9948300759
 20
-53.6528677632
 30
0.0
 10
14.1890566644
 20
-53.4030724203
 30
0.0
 10
14.3613363349
 20
-53.2750609431
 30
0.0
 10
14.4580195535
 20
-53.2249159744
 30
0.0
 10
14.4673626161
 20
-53.22025051
 30
0.0
 11
13.752651825
 21
-54.7076443886
 31
0.0
 11
13.7818444214
 21
-54.3111196317
 31
0.0
 11
13.8685456986
 21
-53.955693182
 31
0.0
 11
14.010152439
 21
-53.6520367679
 31
0.0
 11
14.2024128804
 21
-53.4092677154
 31
0.0
 11
14.4395543764
 21
-53.2346751988
 31
0.0
 11
14.4673626161
 21
-53.22025051
 31
0.0
  0
SPLINE
  5
3F6
100
AcDbEntity
  8
0
100
AcDbSpline
 62
7
  6
CONTINUOUS
 70
0
 71
3
 72
11
 73
7
 74
5
 42
0.0000001
 43
0.0000001
 44
0.0000000001
 12
0.3585770888
 22
-0.0893745271
 32
0.0
 13
0.3641339119
 23
-0.0630224474
 33
0.0
 40
0.0
 40
0.0
 40
0.0
 40
0.0
 40
0.2843614962
 40
0.5413138567
 40
0.7772617616
 40
1.0
 40
1.0
 40
1.0
 40
1.0
 10
14.5727909286
 20
-55.1681253611
 30
0.0
 10
14.6067794345
 20
-55.1765969192
 30
0.0
 10
14.6716771874
 20
-55.1919433205
 30
0.0
 10
14.7652983677
 20
-55.212023211
 30
0.0
 10
14.8518082038
 20
-55.2289901577
 30
0.0
 10
14.9074161055
 20
-55.239015229
 30
0.0
 10
14.9344516209
 20
-55.2436943986
 30
0.0
 11
14.5727909286
 21
-55.1681253611
 31
0.0
 11
14.675047004
 21
-55.192344516
 31
0.0
 11
14.7678865997
 21
-55.2122811544
 31
0.0
 11
14.8534473116
 21
-55.2290784706
 31
0.0
 11
14.9344516209
 21
-55.2436943986
 31
0.0
  0
SPLINE
  5
3F7
100
AcDbEntity
  8
0
100
AcDbSpline
 62
7
  6
CONTINUOUS
 70
0
 71
3
 72
12
 73
8
 74
6
 42
0.0000001
 43
0.0000001
 44
0.0000000001
 12
-0.4846905088
 22
0.3399843163
 32
0.0
 13
-0.4301881365
 23
0.4067583948
 33
0.0
 40
0.0
 40
0.0
 40
0.0
 40
0.0
 40
0.2112889118
 40
0.4160796887
 40
0.6146197839
 40
0.8089140402
 40
1.0
 40
1.0
 40
1.0
 40
1.0
 10
14.5727909286
 20
-55.1681253611
 30
0.0
 10
14.5386543519
 20
-55.1441803891
 30
0.0
 10
14.4720544504
 20
-55.0961296848
 30
0.0
 10
14.3756849637
 20
-55.0224495517
 30
0.0
 10
14.2840588887
 20
-54.9481633881
 30
0.0
 10
14.1967086524
 20
-54.8729781026
 30
0.0
 10
14.1406014658
 20
-54.8216126234
 30
0.0
 10
14.1132004949
 20
-54.7957040173
 30
0.0
 11
14.5727909286
 21
-55.1681253611
 31
0.0
 11
14.4713651737
 21
-55.0949077113
 31
0.0
 11
14.3750665696
 21
-55.0212403043
 31
0.0
 11
14.2837816306
 21
-54.9471883698
 31
0.0
 11
14.196620887
 21
-54.8721216847
 31
0.0
 11
14.1132004949
 21
-54.7957040173
 31
0.0
  0
SPLINE
  5
3F8
100
AcDbEntity
  8
0
100
AcDbSpline
 62
7
  6
CONTINUOUS
 70
0
 71
3
 72
18
 73
14
 74
12
 42
0.0000001
 43
0.0000001
 44
0.0000000001
 12
0.1278471796
 22
-1.688061552
 32
0.0
 13
0.6956974518
 23
-1.543341103
 33
0.0
 40
0.0
 40
0.0
 40
0.0
 40
0.0
 40
0.0994487293
 40
0.1982410428
 40
0.2951515135
 40
0.389225246
 40
0.480723723
 40
0.5709101839
 40
0.6599274556
 40
0.7471425123
 40
0.8326363975
 40
0.9167966359
 40
1.0
 40
1.0
 40
1.0
 40
1.0
 10
15.6583722286
 20
-56.5603874377
 30
0.0
 10
15.6626103084
 20
-56.6163459631
 30
0.0
 10
15.6725671916
 20
-56.7277859109
 30
0.0
 10
15.6920492938
 20
-56.8932180935
 30
0.0
 10
15.7158774636
 20
-57.0550171948
 30
0.0
 10
15.7437614634
 20
-57.211987931
 30
0.0
 10
15.7755756977
 20
-57.3643356155
 30
0.0
 10
15.8113956987
 20
-57.5128589916
 30
0.0
 10
15.8512763385
 20
-57.6578398906
 30
0.0
 10
15.895094253
 20
-57.7989100712
 30
0.0
 10
15.9427242938
 20
-57.9358421051
 30
0.0
 10
15.994236723
 20
-58.0689359498
 30
0.0
 10
16.0314540744
 20
-58.1557634335
 30
0.0
 10
16.0507488639
 20
-58.1985671574
 30
0.0
 11
15.6583722286
 21
-56.5603874377
 31
0.0
 11
15.6733874583
 21
-56.728072869
 31
0.0
 11
15.6929825358
 21
-56.8941660927
 31
0.0
 11
15.7169211797
 21
-57.0564695417
 31
0.0
 11
15.7448101469
 21
-57.2132656214
 31
0.0
 11
15.7765082381
 21
-57.364885
 31
0.0
 11
15.8123387438
 21
-57.5132973504
 31
0.0
 11
15.852343204
 21
-57.658587483
 31
0.0
 11
15.8961754488
 21
-57.7995771298
 31
0.0
 11
15.9437598279
 21
-57.9362634557
 31
0.0
 11
15.995221068
 21
-58.0691195116
 31
0.0
 11
16.0507488639
 21
-58.1985671574
 31
0.0
  0
SPLINE
  5
3F9
100
AcDbEntity
  8
0
100
AcDbSpline
 62
7
  6
CONTINUOUS
 70
0
 71
3
 72
12
 73
8
 74
6
 42
0.0000001
 43
0.0000001
 44
0.0000000001
 12
-0.7538005872
 22
0.1993050875
 32
0.0
 13
-0.7344507813
 23
0.2617630475
 33
0.0
 40
0.0
 40
0.0
 40
0.0
 40
0.0
 40
0.2031922224
 40
0.4037019467
 40
0.6024734814
 40
0.8012652599
 40
1.0
 40
1.0
 40
1.0
 40
1.0
 10
16.8594020814
 20
-56.1688048106
 30
0.0
 10
16.8083466092
 20
-56.1553057293
 30
0.0
 10
16.7071184457
 20
-56.1276883209
 30
0.0
 10
16.5567322024
 20
-56.0840483844
 30
0.0
 10
16.4081751352
 20
-56.0382810423
 30
0.0
 10
16.2608517711
 20
-55.990151789
 30
0.0
 10
16.1632130221
 20
-55.9563500641
 30
0.0
 10
16.1145593937
 20
-55.9390095937
 30
0.0
 11
16.8594020814
 21
-56.1688048106
 31
0.0
 11
16.7065618922
 21
-56.1270932478
 31
0.0
 11
16.5564213552
 21
-56.0835106466
 31
0.0
 11
16.4083122955
 21
-56.0378663109
 31
0.0
 11
16.2609815863
 21
-55.9897180618
 31
0.0
 11
16.1145593937
 21
-55.9390095937
 31
0.0
  0
SPLINE
  5
3FA
100
AcDbEntity
  8
0
100
AcDbSpline
 62
7
  6
CONTINUOUS
 70
0
 71
3
 72
17
 73
13
 74
11
 42
0.0000001
 43
0.0000001
 44
0.0000000001
 12
-0.4446982604
 22
-1.6445147598
 32
0.0
 13
-0.1196409239
 23
-1.6993491691
 33
0.0
 40
0.0
 40
0.0
 40
0.0
 40
0.0
 40
0.0090529507
 40
0.1207745843
 40
0.2322793774
 40
0.3435569181
 40
0.4537381009
 40
0.5629470783
 40
0.67258589
 40
0.7828027636
 40
0.8923984533
 40
1.0
 40
1.0
 40
1.0
 40
1.0
 10
15.9477697961
 20
-53.8692358159
 30
0.0
 10
15.9464278523
 20
-53.8741983862
 30
0.0
 10
15.9285773266
 20
-53.9404177143
 30
0.0
 10
15.8955886767
 20
-54.0681349951
 30
0.0
 10
15.8517413285
 20
-54.2529666061
 30
0.0
 10
15.811824103
 20
-54.4377923374
 30
0.0
 10
15.775962166
 20
-54.6221198251
 30
0.0
 10
15.744109542
 20
-54.8062383364
 30
0.0
 10
15.7161889098
 20
-54.9910153062
 30
0.0
 10
15.6923171302
 20
-55.1765816113
 30
0.0
 10
15.672782268
 20
-55.3614908293
 30
0.0
 10
15.6626634114
 20
-55.4844241472
 30
0.0
 10
15.6583722286
 20
-55.5453750136
 30
0.0
 11
15.9477697961
 21
-53.8692358159
 31
0.0
 11
15.9437557153
 21
-53.8841267006
 31
0.0
 11
15.8961695768
 21
-54.068405805
 31
0.0
 11
15.8523364371
 21
-54.2532338599
 31
0.0
 11
15.8123318545
 21
-54.4385321606
 31
0.0
 11
15.7765011077
 21
-54.6227802543
 31
0.0
 11
15.7448029128
 21
-54.8061035505
 31
0.0
 11
15.7169153446
 21
-54.9907856713
 31
0.0
 11
15.6929792307
 21
-55.1770142763
 31
0.0
 11
15.6733863909
 21
-55.362685725
 31
0.0
 11
15.6583722286
 21
-55.5453750136
 31
0.0
  0
SPLINE
  5
3FB
100
AcDbEntity
  8
0
100
AcDbSpline
 62
7
  6
CONTINUOUS
 70
0
 71
3
 72
10
 73
6
 74
4
 42
0.0000001
 43
0.0000001
 44
0.0000000001
 12
-0.80417572
 22
-0.4015656697
 32
0.0
 13
-0.8643416125
 23
0.2364359748
 33
0.0
 40
0.0
 40
0.0
 40
0.0
 40
0.0
 40
0.2920401134
 40
0.6328640805
 40
1.0
 40
1.0
 40
1.0
 40
1.0
 10
16.9270283305
 20
-58.1395819153
 30
0.0
 10
16.8487444743
 20
-58.1786730099
 30
0.0
 10
16.6681468469
 20
-58.2416302445
 30
0.0
 10
16.3669472825
 20
-58.263595535
 30
0.0
 10
16.1565258148
 20
-58.2275018704
 30
0.0
 10
16.0507488639
 20
-58.1985671574
 30
0.0
 11
16.9270283305
 21
-58.1395819153
 31
0.0
 11
16.6799342258
 21
-58.2263310426
 31
0.0
 11
16.3755250141
 21
-58.2510484002
 31
0.0
 11
16.0507488639
 21
-58.1985671574
 31
0.0
  0
SPLINE
  5
3FC
100
AcDbEntity
  8
0
100
AcDbSpline
 62
7
  6
CONTINUOUS
 70
0
 71
3
 72
12
 73
8
 74
6
 42
0.0000001
 43
0.0000001
 44
0.0000000001
 12
-0.4846905088
 22
0.3399843163
 32
0.0
 13
-0.4301881365
 23
0.4067583948
 33
0.0
 40
0.0
 40
0.0
 40
0.0
 40
0.0
 40
0.2112889118
 40
0.4160796887
 40
0.6146197839
 40
0.8089140402
 40
1.0
 40
1.0
 40
1.0
 40
1.0
 10
14.5727909286
 20
-55.7743431438
 30
0.0
 10
14.5386543519
 20
-55.7503981717
 30
0.0
 10
14.4720544504
 20
-55.7023474675
 30
0.0
 10
14.3756849637
 20
-55.6286673343
 30
0.0
 10
14.2840588887
 20
-55.5543811707
 30
0.0
 10
14.1967086524
 20
-55.4791958852
 30
0.0
 10
14.1406014658
 20
-55.427830406
 30
0.0
 10
14.1132004949
 20
-55.4019218
 30
0.0
 11
14.5727909286
 21
-55.7743431438
 31
0.0
 11
14.4713651737
 21
-55.701125494
 31
0.0
 11
14.3750665696
 21
-55.6274580869
 31
0.0
 11
14.2837816306
 21
-55.5534061525
 31
0.0
 11
14.196620887
 21
-55.4783394674
 31
0.0
 11
14.1132004949
 21
-55.4019218
 31
0.0
  0
SPLINE
  5
3FD
100
AcDbEntity
  8
0
100
AcDbSpline
 62
7
  6
CONTINUOUS
 70
0
 71
3
 72
18
 73
14
 74
12
 42
0.0000001
 43
0.0000001
 44
0.0000000001
 12
-0.6956974515
 22
1.5433411025
 32
0.0
 13
-0.1278471795
 23
1.6880615514
 33
0.0
 40
0.0
 40
0.0
 40
0.0
 40
0.0
 40
0.0832064168
 40
0.1673706447
 40
0.2528685759
 40
0.3400867613
 40
0.4291060942
 40
0.5192954576
 40
0.610797256
 40
0.7048699557
 40
0.8017738049
 40
0.9005573899
 40
1.0
 40
1.0
 40
1.0
 40
1.0
 10
15.3436420827
 20
-57.8450137668
 30
0.0
 10
15.3243465853
 20
-57.8022084724
 30
0.0
 10
15.2871277263
 20
-57.7153773085
 30
0.0
 10
15.2356133197
 20
-57.5822775158
 30
0.0
 10
15.1879817044
 20
-57.4453393555
 30
0.0
 10
15.1441629234
 20
-57.3042639841
 30
0.0
 10
15.1042818756
 20
-57.1592784596
 30
0.0
 10
15.0684616925
 20
-57.0107503162
 30
0.0
 10
15.0366479129
 20
-56.8583995424
 30
0.0
 10
15.0087654335
 20
-56.7014310209
 30
0.0
 10
14.9849394976
 20
-56.5396409404
 30
0.0
 10
14.9654593111
 20
-56.3742207369
 30
0.0
 10
14.9555032665
 20
-56.2627891293
 30
0.0
 10
14.9512654474
 20
-56.2068340471
 30
0.0
 11
15.3436420827
 21
-57.8450137668
 31
0.0
 11
15.2881123351
 21
-57.7155613349
 31
0.0
 11
15.2366489341
 21
-57.5826988734
 31
0.0
 11
15.1890627956
 21
-57.4460059074
 31
0.0
 11
15.145229656
 21
-57.3050109922
 31
0.0
 11
15.1052250733
 21
-57.1597172741
 31
0.0
 11
15.0693943265
 21
-57.0112999272
 31
0.0
 11
15.0376961316
 21
-56.859674826
 31
0.0
 11
15.0098085634
 21
-56.7028802733
 31
0.0
 11
14.9858724495
 21
-56.5405877822
 31
0.0
 11
14.9662796097
 21
-56.3745091734
 31
0.0
 11
14.9512654474
 21
-56.2068340471
 31
0.0
  0
SPLINE
  5
3FE
100
AcDbEntity
  8
0
100
AcDbSpline
 62
7
  6
CONTINUOUS
 70
0
 71
3
 72
17
 73
13
 74
11
 42
0.0000001
 43
0.0000001
 44
0.0000000001
 12
0.1300619935
 22
1.8473673837
 32
0.0
 13
0.5103374417
 23
1.780270143
 33
0.0
 40
0.0
 40
0.0
 40
0.0
 40
0.0
 40
0.0989862623
 40
0.1998098983
 40
0.3012031679
 40
0.4020589693
 40
0.5025145917
 40
0.6038648314
 40
0.7062244143
 40
0.8087916628
 40
0.9115570984
 40
1.0
 40
1.0
 40
1.0
 40
1.0
 10
14.9512654474
 20
-55.191821623
 30
0.0
 10
14.9555568976
 20
-55.1308669588
 30
0.0
 10
14.9656766221
 20
-55.0079242057
 30
0.0
 10
14.9852134158
 20
-54.8230010707
 30
0.0
 10
15.0090874166
 20
-54.6374236898
 30
0.0
 10
15.0370095352
 20
-54.4526432211
 30
0.0
 10
15.0688625932
 20
-54.2685274397
 30
0.0
 10
15.1047243491
 20
-54.0842048747
 30
0.0
 10
15.1446411616
 20
-53.8993841844
 30
0.0
 10
15.1884876273
 20
-53.7145586779
 30
0.0
 10
15.2338445653
 20
-53.5389584306
 30
0.0
 10
15.2654332249
 20
-53.4252225494
 30
0.0
 10
15.2804784662
 20
-53.3727384636
 30
0.0
 11
14.9512654474
 21
-55.191821623
 31
0.0
 11
14.9662806771
 21
-55.009120962
 31
0.0
 11
14.9858757547
 21
-54.8234326606
 31
0.0
 11
15.0098143985
 21
-54.6371905678
 31
0.0
 11
15.0377033657
 21
-54.452505521
 31
0.0
 11
15.0694014569
 21
-54.2691880512
 31
0.0
 11
15.1052319626
 21
-54.084945195
 31
0.0
 11
15.1452364228
 21
-53.8996506022
 31
0.0
 11
15.1890686677
 21
-53.7148287106
 31
0.0
 11
15.2366530467
 21
-53.5305580057
 31
0.0
 11
15.2804784662
 21
-53.3727384636
 31
0.0
  0
SPLINE
  5
3FF
100
AcDbEntity
  8
0
100
AcDbSpline
 62
7
  6
CONTINUOUS
 70
0
 71
3
 72
9
 73
5
 74
3
 42
0.0000001
 43
0.0000001
 44
0.0000000001
 12
-0.1642762213
 22
-0.1282951516
 32
0.0
 13
-0.1864235189
 23
-0.0930907056
 33
0.0
 40
0.0
 40
0.0
 40
0.0
 40
0.0
 40
0.8496477921
 40
1.0
 40
1.0
 40
1.0
 40
1.0
 10
17.1028173008
 20
-58.0283235903
 30
0.0
 10
17.0562916579
 20
-58.0646588211
 30
0.0
 10
16.9980337278
 20
-58.1029351424
 30
0.0
 10
16.936371393
 20
-58.134916451
 30
0.0
 10
16.9270283305
 20
-58.1395819153
 30
0.0
 11
17.1028173008
 21
-58.0283235903
 31
0.0
 11
16.9548365701
 21
-58.1251572265
 31
0.0
 11
16.9270283305
 21
-58.1395819153
 31
0.0
  0
SPLINE
  5
400
100
AcDbEntity
  8
0
100
AcDbSpline
 62
7
  6
CONTINUOUS
 70
0
 71
3
 72
12
 73
8
 74
6
 42
0.0000001
 43
0.0000001
 44
0.0000000001
 12
-0.7538005872
 22
0.1993050875
 32
0.0
 13
-0.7344507813
 23
0.2617630475
 33
0.0
 40
0.0
 40
0.0
 40
0.0
 40
0.0
 40
0.2031922224
 40
0.4037019467
 40
0.6024734814
 40
0.8012652599
 40
1.0
 40
1.0
 40
1.0
 40
1.0
 10
16.8594020814
 20
-56.7750225932
 30
0.0
 10
16.8083466092
 20
-56.761523512
 30
0.0
 10
16.7071184457
 20
-56.7339061035
 30
0.0
 10
16.5567322024
 20
-56.6902661671
 30
0.0
 10
16.4081751352
 20
-56.6444988249
 30
0.0
 10
16.2608517711
 20
-56.5963695716
 30
0.0
 10
16.1632130221
 20
-56.5625678467
 30
0.0
 10
16.1145593937
 20
-56.5452273763
 30
0.0
 11
16.8594020814
 21
-56.7750225932
 31
0.0
 11
16.7065618922
 21
-56.7333110304
 31
0.0
 11
16.5564213552
 21
-56.6897284293
 31
0.0
 11
16.4083122955
 21
-56.6440840935
 31
0.0
 11
16.2609815863
 21
-56.5959358444
 31
0.0
 11
16.1145593937
 21
-56.5452273763
 31
0.0
  0
SPLINE
  5
401
100
AcDbEntity
  8
0
100
AcDbSpline
 62
7
  6
CONTINUOUS
 70
0
 71
3
 72
9
 73
5
 74
3
 42
0.0000001
 43
0.0000001
 44
0.0000000001
 12
-0.3146349819
 22
0.1676527526
 32
0.0
 13
-0.2882787499
 23
0.2094216566
 33
0.0
 40
0.0
 40
0.0
 40
0.0
 40
0.0
 40
0.2130096085
 40
1.0
 40
1.0
 40
1.0
 40
1.0
 10
15.928029008
 20
9.6567682035
 30
0.0
 10
15.9056889166
 20
9.6686720859
 30
0.0
 10
15.8017280761
 20
9.7262863624
 30
0.0
 10
15.7021089973
 20
9.7914514741
 30
0.0
 10
15.6264847952
 20
9.8463890846
 30
0.0
 11
15.928029008
 21
9.6567682035
 31
0.0
 11
15.8615965999
 21
9.6935594796
 31
0.0
 11
15.6264847952
 21
9.8463890846
 31
0.0
  0
SPLINE
  5
402
100
AcDbEntity
  8
0
100
AcDbSpline
 62
7
  6
CONTINUOUS
 70
0
 71
3
 72
13
 73
9
 74
7
 42
0.0000001
 43
0.0000001
 44
0.0000000001
 12
1.5667657257
 22
-0.7613051305
 32
0.0
 13
0.6555848346
 23
-1.6126242047
 33
0.0
 40
0.0
 40
0.0
 40
0.0
 40
0.0
 40
0.0357770001
 40
0.2396791535
 40
0.448083348
 40
0.6550410332
 40
0.8537961786
 40
1.0
 40
1.0
 40
1.0
 40
1.0
 10
35.2781123659
 20
22.7068981167
 30
0.0
 10
35.2967970918
 20
22.6978190454
 30
0.0
 10
35.4209794079
 20
22.6349663939
 30
0.0
 10
35.6402260846
 20
22.4935190479
 30
0.0
 10
35.90984211
 20
22.2545449703
 30
0.0
 10
36.1416508512
 20
21.9828649865
 30
0.0
 10
36.315460547
 20
21.7130516872
 30
0.0
 10
36.4023154371
 20
21.5323379993
 30
0.0
 10
36.4342651065
 20
21.4537473922
 30
0.0
 11
35.2781123659
 21
22.7068981167
 31
0.0
 11
35.3337166645
 21
22.6787695975
 31
0.0
 11
35.632586316
 21
22.4878585562
 31
0.0
 11
35.9044160487
 21
22.2480797727
 31
0.0
 11
36.1381439407
 21
21.9743298669
 31
0.0
 11
36.3247797779
 21
21.6833525747
 31
0.0
 11
36.4342651065
 21
21.4537473922
 31
0.0
  0
SPLINE
  5
403
100
AcDbEntity
  8
0
100
AcDbSpline
 62
7
  6
CONTINUOUS
 70
0
 71
3
 72
11
 73
7
 74
5
 42
0.0000001
 43
0.0000001
 44
0.0000000001
 12
0.6581430037
 22
-0.205010886
 32
0.0
 13
0.5374170512
 23
-0.4311352094
 33
0.0
 40
0.0
 40
0.0
 40
0.0
 40
0.0
 40
0.1543127481
 40
0.5246574742
 40
0.8885918498
 40
1.0
 40
1.0
 40
1.0
 40
1.0
 10
35.5912983426
 20
23.2176003223
 30
0.0
 10
35.6251516278
 20
23.2070550579
 30
0.0
 10
35.7390100328
 20
23.1672333836
 30
0.0
 10
35.9236889128
 20
23.0789854269
 30
0.0
 10
36.0865465004
 20
22.9724289463
 30
0.0
 10
36.1729405652
 20
22.9056617881
 30
0.0
 10
36.1928981117
 20
22.8896511293
 30
0.0
 11
35.5912983426
 21
23.2176003223
 31
0.0
 11
35.69171119
 21
23.1825676988
 31
0.0
 11
35.9221709947
 21
23.0733638288
 31
0.0
 11
36.1321608362
 21
22.9365812202
 31
0.0
 11
36.1928981117
 21
22.8896511293
 31
0.0
  0
SPLINE
  5
404
100
AcDbEntity
  8
0
100
AcDbSpline
 62
7
  6
CONTINUOUS
 70
0
 71
3
 72
12
 73
8
 74
6
 42
0.0000001
 43
0.0000001
 44
0.0000000001
 12
0.7102149643
 22
-0.5697598852
 32
0.0
 13
0.3629237571
 23
-0.8345245342
 33
0.0
 40
0.0
 40
0.0
 40
0.0
 40
0.0
 40
0.180010187
 40
0.4265761774
 40
0.6489740782
 40
0.8415822725
 40
1.0
 40
1.0
 40
1.0
 40
1.0
 10
36.1928981117
 20
22.8896511293
 30
0.0
 10
36.2355134212
 20
22.8554636015
 30
0.0
 10
36.3333559793
 20
22.7705354032
 30
0.0
 10
36.4701734645
 20
22.6285086442
 30
0.0
 10
36.5945031863
 20
22.470558857
 30
0.0
 10
36.6884870452
 20
22.3238922978
 30
0.0
 10
36.7369485223
 20
22.2288192213
 30
0.0
 10
36.7561130413
 20
22.1847513945
 30
0.0
 11
36.1928981117
 21
22.8896511293
 31
0.0
 11
36.3166814734
 21
22.7822855108
 31
0.0
 11
36.472301173
 21
22.620639603
 31
0.0
 11
36.5972375189
 21
22.4614176256
 31
0.0
 11
36.6913596697
 21
22.313554617
 31
0.0
 11
36.7561130413
 21
22.1847513945
 31
0.0
  0
SPLINE
  5
405
100
AcDbEntity
  8
0
100
AcDbSpline
 62
7
  6
CONTINUOUS
 70
0
 71
3
 72
15
 73
11
 74
9
 42
0.0000001
 43
0.0000001
 44
0.0000000001
 12
-2.939478045
 22
2.135399719
 32
0.0
 13
0.0
 23
3.6332441615
 33
0.0
 40
0.0
 40
0.0
 40
0.0
 40
0.0
 40
0.1166507875
 40
0.2400441641
 40
0.3682594671
 40
0.499036013
 40
0.6299439153
 40
0.7585448031
 40
0.8825520476
 40
1.0
 40
1.0
 40
1.0
 40
1.0
 10
15.3436420827
 20
9.7049677284
 30
0.0
 10
15.2293446064
 20
9.787999748
 30
0.0
 10
15.0065724061
 20
9.9764029622
 30
0.0
 10
14.7040229861
 20
10.3054021588
 30
0.0
 10
14.4307656825
 20
10.6804792585
 30
0.0
 10
14.1948817545
 20
11.0905595869
 30
0.0
 10
14.0032638641
 20
11.5236063462
 30
0.0
 10
13.8615544518
 20
11.9669296175
 30
0.0
 10
13.7739292749
 20
12.4074252926
 30
0.0
 10
13.752651825
 20
12.7000980776
 30
0.0
 10
13.752651825
 20
12.8423371066
 30
0.0
 11
15.3436420827
 21
9.7049677284
 31
0.0
 11
15.0188659325
 21
9.9772626358
 31
0.0
 11
14.7144567208
 21
10.3063892051
 31
0.0
 11
14.4395543764
 21
10.6824653655
 31
0.0
 11
14.2024128804
 21
11.0941993781
 31
0.0
 11
14.010152439
 21
11.529228872
 31
0.0
 11
13.8685456986
 21
11.9744920265
 31
0.0
 11
13.7818444214
 21
12.4166197534
 31
0.0
 11
13.752651825
 21
12.8423371066
 31
0.0
  0
SPLINE
  5
406
100
AcDbEntity
  8
0
100
AcDbSpline
 62
7
  6
CONTINUOUS
 70
0
 71
3
 72
13
 73
9
 74
7
 42
0.0000001
 43
0.0000001
 44
0.0000000001
 12
0.0
 22
1.733890101
 32
0.0
 13
1.5560297276
 23
0.7770044582
 33
0.0
 40
0.0
 40
0.0
 40
0.0
 40
0.0
 40
0.2293097471
 40
0.4403083728
 40
0.6335453992
 40
0.8121488115
 40
0.9819867274
 40
1.0
 40
1.0
 40
1.0
 40
1.0
 10
13.752651825
 20
12.8423371066
 30
0.0
 10
13.752651825
 20
12.9748697401
 30
0.0
 10
13.7698942209
 20
13.2298993076
 30
0.0
 10
13.8542961383
 20
13.5881349028
 30
0.0
 10
13.9948300759
 20
13.897113732
 30
0.0
 10
14.1890566644
 20
14.1469090749
 30
0.0
 10
14.3613363349
 20
14.2749205521
 30
0.0
 10
14.4580195535
 20
14.3250655208
 30
0.0
 10
14.4673626161
 20
14.3297309851
 30
0.0
 11
13.752651825
 21
12.8423371066
 31
0.0
 11
13.7818444214
 21
13.2388618635
 31
0.0
 11
13.8685456986
 21
13.5942883132
 31
0.0
 11
14.010152439
 21
13.8979447273
 31
0.0
 11
14.2024128804
 21
14.1407137798
 31
0.0
 11
14.4395543764
 21
14.3153062964
 31
0.0
 11
14.4673626161
 21
14.3297309851
 31
0.0
  0
SPLINE
  5
407
100
AcDbEntity
  8
0
100
AcDbSpline
 62
7
  6
CONTINUOUS
 70
0
 71
3
 72
11
 73
7
 74
5
 42
0.0000001
 43
0.0000001
 44
0.0000000001
 12
0.3585770888
 22
-0.0893745271
 32
0.0
 13
0.3641339119
 23
-0.0630224474
 33
0.0
 40
0.0
 40
0.0
 40
0.0
 40
0.0
 40
0.2843614962
 40
0.5413138567
 40
0.7772617616
 40
1.0
 40
1.0
 40
1.0
 40
1.0
 10
14.5727909286
 20
12.3818561341
 30
0.0
 10
14.6067794345
 20
12.373384576
 30
0.0
 10
14.6716771874
 20
12.3580381747
 30
0.0
 10
14.7652983677
 20
12.3379582842
 30
0.0
 10
14.8518082038
 20
12.3209913375
 30
0.0
 10
14.9074161055
 20
12.3109662662
 30
0.0
 10
14.9344516209
 20
12.3062870966
 30
0.0
 11
14.5727909286
 21
12.3818561341
 31
0.0
 11
14.675047004
 21
12.3576369792
 31
0.0
 11
14.7678865997
 21
12.3377003408
 31
0.0
 11
14.8534473116
 21
12.3209030246
 31
0.0
 11
14.9344516209
 21
12.3062870966
 31
0.0
  0
SPLINE
  5
408
100
AcDbEntity
  8
0
100
AcDbSpline
 62
7
  6
CONTINUOUS
 70
0
 71
3
 72
12
 73
8
 74
6
 42
0.0000001
 43
0.0000001
 44
0.0000000001
 12
-0.4846905088
 22
0.3399843163
 32
0.0
 13
-0.4301881365
 23
0.4067583948
 33
0.0
 40
0.0
 40
0.0
 40
0.0
 40
0.0
 40
0.2112889118
 40
0.4160796887
 40
0.6146197839
 40
0.8089140402
 40
1.0
 40
1.0
 40
1.0
 40
1.0
 10
14.5727909286
 20
12.3818561341
 30
0.0
 10
14.5386543519
 20
12.4058011061
 30
0.0
 10
14.4720544504
 20
12.4538518103
 30
0.0
 10
14.3756849637
 20
12.5275319435
 30
0.0
 10
14.2840588887
 20
12.6018181071
 30
0.0
 10
14.1967086524
 20
12.6770033926
 30
0.0
 10
14.1406014658
 20
12.7283688718
 30
0.0
 10
14.1132004949
 20
12.7542774779
 30
0.0
 11
14.5727909286
 21
12.3818561341
 31
0.0
 11
14.4713651737
 21
12.4550737839
 31
0.0
 11
14.3750665696
 21
12.5287411909
 31
0.0
 11
14.2837816306
 21
12.6027931254
 31
0.0
 11
14.196620887
 21
12.6778598105
 31
0.0
 11
14.1132004949
 21
12.7542774779
 31
0.0
  0
SPLINE
  5
409
100
AcDbEntity
  8
0
100
AcDbSpline
 62
7
  6
CONTINUOUS
 70
0
 71
3
 72
18
 73
14
 74
12
 42
0.0000001
 43
0.0000001
 44
0.0000000001
 12
0.1278471796
 22
-1.688061552
 32
0.0
 13
0.6956974518
 23
-1.543341103
 33
0.0
 40
0.0
 40
0.0
 40
0.0
 40
0.0
 40
0.0994487293
 40
0.1982410428
 40
0.2951515135
 40
0.389225246
 40
0.480723723
 40
0.5709101839
 40
0.6599274556
 40
0.7471425123
 40
0.8326363975
 40
0.9167966359
 40
1.0
 40
1.0
 40
1.0
 40
1.0
 10
15.6583722286
 20
10.9895940575
 30
0.0
 10
15.6626103084
 20
10.9336355321
 30
0.0
 10
15.6725671916
 20
10.8221955843
 30
0.0
 10
15.6920492938
 20
10.6567634016
 30
0.0
 10
15.7158774636
 20
10.4949643004
 30
0.0
 10
15.7437614634
 20
10.3379935642
 30
0.0
 10
15.7755756977
 20
10.1856458797
 30
0.0
 10
15.8113956987
 20
10.0371225036
 30
0.0
 10
15.8512763385
 20
9.8921416045
 30
0.0
 10
15.895094253
 20
9.751071424
 30
0.0
 10
15.9427242938
 20
9.6141393901
 30
0.0
 10
15.994236723
 20
9.4810455453
 30
0.0
 10
16.0314540744
 20
9.3942180617
 30
0.0
 10
16.0507488639
 20
9.3514143378
 30
0.0
 11
15.6583722286
 21
10.9895940575
 31
0.0
 11
15.6733874583
 21
10.8219086262
 31
0.0
 11
15.6929825358
 21
10.6558154024
 31
0.0
 11
15.7169211797
 21
10.4935119534
 31
0.0
 11
15.7448101469
 21
10.3367158738
 31
0.0
 11
15.7765082381
 21
10.1850964952
 31
0.0
 11
15.8123387438
 21
10.0366841448
 31
0.0
 11
15.852343204
 21
9.8913940122
 31
0.0
 11
15.8961754488
 21
9.7504043654
 31
0.0
 11
15.9437598279
 21
9.6137180395
 31
0.0
 11
15.995221068
 21
9.4808619836
 31
0.0
 11
16.0507488639
 21
9.3514143378
 31
0.0
  0
SPLINE
  5
40A
100
AcDbEntity
  8
0
100
AcDbSpline
 62
7
  6
CONTINUOUS
 70
0
 71
3
 72
12
 73
8
 74
6
 42
0.0000001
 43
0.0000001
 44
0.0000000001
 12
-0.7538005872
 22
0.1993050875
 32
0.0
 13
-0.7344507813
 23
0.2617630475
 33
0.0
 40
0.0
 40
0.0
 40
0.0
 40
0.0
 40
0.2031922224
 40
0.4037019467
 40
0.6024734814
 40
0.8012652599
 40
1.0
 40
1.0
 40
1.0
 40
1.0
 10
16.8594020814
 20
11.3811766846
 30
0.0
 10
16.8083466092
 20
11.3946757658
 30
0.0
 10
16.7071184457
 20
11.4222931743
 30
0.0
 10
16.5567322024
 20
11.4659331108
 30
0.0
 10
16.4081751352
 20
11.5117004529
 30
0.0
 10
16.2608517711
 20
11.5598297062
 30
0.0
 10
16.1632130221
 20
11.5936314311
 30
0.0
 10
16.1145593937
 20
11.6109719015
 30
0.0
 11
16.8594020814
 21
11.3811766846
 31
0.0
 11
16.7065618922
 21
11.4228882474
 31
0.0
 11
16.5564213552
 21
11.4664708486
 31
0.0
 11
16.4083122955
 21
11.5121151843
 31
0.0
 11
16.2609815863
 21
11.5602634334
 31
0.0
 11
16.1145593937
 21
11.6109719015
 31
0.0
  0
SPLINE
  5
40B
100
AcDbEntity
  8
0
100
AcDbSpline
 62
7
  6
CONTINUOUS
 70
0
 71
3
 72
17
 73
13
 74
11
 42
0.0000001
 43
0.0000001
 44
0.0000000001
 12
-0.4446982604
 22
-1.6445147598
 32
0.0
 13
-0.1196409239
 23
-1.6993491691
 33
0.0
 40
0.0
 40
0.0
 40
0.0
 40
0.0
 40
0.0090529507
 40
0.1207745843
 40
0.2322793774
 40
0.3435569181
 40
0.4537381009
 40
0.5629470783
 40
0.67258589
 40
0.7828027636
 40
0.8923984533
 40
1.0
 40
1.0
 40
1.0
 40
1.0
 10
15.9477697961
 20
13.6807456793
 30
0.0
 10
15.9464278523
 20
13.675783109
 30
0.0
 10
15.9285773266
 20
13.6095637809
 30
0.0
 10
15.8955886767
 20
13.4818465001
 30
0.0
 10
15.8517413285
 20
13.297014889
 30
0.0
 10
15.811824103
 20
13.1121891577
 30
0.0
 10
15.775962166
 20
12.9278616701
 30
0.0
 10
15.744109542
 20
12.7437431588
 30
0.0
 10
15.7161889098
 20
12.558966189
 30
0.0
 10
15.6923171302
 20
12.3733998839
 30
0.0
 10
15.672782268
 20
12.1884906659
 30
0.0
 10
15.6626634114
 20
12.065557348
 30
0.0
 10
15.6583722286
 20
12.0046064816
 30
0.0
 11
15.9477697961
 21
13.6807456793
 31
0.0
 11
15.9437557153
 21
13.6658547946
 31
0.0
 11
15.8961695768
 21
13.4815756901
 31
0.0
 11
15.8523364371
 21
13.2967476353
 31
0.0
 11
15.8123318545
 21
13.1114493346
 31
0.0
 11
15.7765011077
 21
12.9272012408
 31
0.0
 11
15.7448029128
 21
12.7438779447
 31
0.0
 11
15.7169153446
 21
12.5591958239
 31
0.0
 11
15.6929792307
 21
12.3729672188
 31
0.0
 11
15.6733863909
 21
12.1872957702
 31
0.0
 11
15.6583722286
 21
12.0046064816
 31
0.0
  0
SPLINE
  5
40C
100
AcDbEntity
  8
0
100
AcDbSpline
 62
7
  6
CONTINUOUS
 70
0
 71
3
 72
10
 73
6
 74
4
 42
0.0000001
 43
0.0000001
 44
0.0000000001
 12
-0.80417572
 22
-0.4015656697
 32
0.0
 13
-0.8643416125
 23
0.2364359748
 33
0.0
 40
0.0
 40
0.0
 40
0.0
 40
0.0
 40
0.2920401134
 40
0.6328640805
 40
1.0
 40
1.0
 40
1.0
 40
1.0
 10
16.9270283305
 20
9.4103995799
 30
0.0
 10
16.8487444743
 20
9.3713084853
 30
0.0
 10
16.6681468469
 20
9.3083512506
 30
0.0
 10
16.3669472825
 20
9.2863859602
 30
0.0
 10
16.1565258148
 20
9.3224796248
 30
0.0
 10
16.0507488639
 20
9.3514143378
 30
0.0
 11
16.9270283305
 21
9.4103995799
 31
0.0
 11
16.6799342258
 21
9.3236504526
 31
0.0
 11
16.3755250141
 21
9.298933095
 31
0.0
 11
16.0507488639
 21
9.3514143378
 31
0.0
  0
SPLINE
  5
40D
100
AcDbEntity
  8
0
100
AcDbSpline
 62
7
  6
CONTINUOUS
 70
0
 71
3
 72
14
 73
10
 74
8
 42
0.0000001
 43
0.0000001
 44
0.0000000001
 12
1.4017721163
 22
-0.437409502
 32
0.0
 13
0.7126192611
 23
-1.2821350238
 33
0.0
 40
0.0
 40
0.0
 40
0.0
 40
0.0
 40
0.0755294141
 40
0.2511457067
 40
0.4235762453
 40
0.5888199345
 40
0.74260758
 40
0.8808514273
 40
1.0
 40
1.0
 40
1.0
 40
1.0
 10
35.5213174715
 20
23.1820181588
 30
0.0
 10
35.556609147
 20
23.171005731
 30
0.0
 10
35.6726367362
 20
23.1301710949
 30
0.0
 10
35.8598345168
 20
23.0398567706
 30
0.0
 10
36.0697741438
 20
22.9011293438
 30
0.0
 10
36.2535769877
 20
22.7455464171
 30
0.0
 10
36.4080388017
 20
22.5833273479
 30
0.0
 10
36.5315460629
 20
22.4242973718
 30
0.0
 10
36.5987979676
 20
22.31762754
 30
0.0
 10
36.6271004902
 20
22.2667060206
 30
0.0
 11
35.5213174715
 21
23.1820181588
 31
0.0
 11
35.6259419204
 21
23.1452946273
 31
0.0
 11
35.8583237074
 21
23.0341220065
 31
0.0
 11
36.06963051
 21
22.8951101407
 31
0.0
 11
36.25476275
 21
22.7386519971
 31
0.0
 11
36.4102592074
 21
22.5752205153
 31
0.0
 11
36.5343792529
 21
22.414858231
 31
0.0
 11
36.6271004902
 21
22.2667060206
 31
0.0
  0
SPLINE
  5
40E
100
AcDbEntity
  8
0
100
AcDbSpline
 62
7
  6
CONTINUOUS
 70
0
 71
3
 72
12
 73
8
 74
6
 42
0.0000001
 43
0.0000001
 44
0.0000000001
 12
-0.4846905088
 22
0.3399843163
 32
0.0
 13
-0.4301881365
 23
0.4067583948
 33
0.0
 40
0.0
 40
0.0
 40
0.0
 40
0.0
 40
0.2112889118
 40
0.4160796887
 40
0.6146197839
 40
0.8089140402
 40
1.0
 40
1.0
 40
1.0
 40
1.0
 10
14.5727909286
 20
11.7756383514
 30
0.0
 10
14.5386543519
 20
11.7995833235
 30
0.0
 10
14.4720544504
 20
11.8476340277
 30
0.0
 10
14.3756849637
 20
11.9213141608
 30
0.0
 10
14.2840588887
 20
11.9956003244
 30
0.0
 10
14.1967086524
 20
12.0707856099
 30
0.0
 10
14.1406014658
 20
12.1221510891
 30
0.0
 10
14.1132004949
 20
12.1480596952
 30
0.0
 11
14.5727909286
 21
11.7756383514
 31
0.0
 11
14.4713651737
 21
11.8488560012
 31
0.0
 11
14.3750665696
 21
11.9225234083
 31
0.0
 11
14.2837816306
 21
11.9965753427
 31
0.0
 11
14.196620887
 21
12.0716420278
 31
0.0
 11
14.1132004949
 21
12.1480596952
 31
0.0
  0
SPLINE
  5
40F
100
AcDbEntity
  8
0
100
AcDbSpline
 62
7
  6
CONTINUOUS
 70
0
 71
3
 72
18
 73
14
 74
12
 42
0.0000001
 43
0.0000001
 44
0.0000000001
 12
-0.6956974515
 22
1.5433411025
 32
0.0
 13
-0.1278471795
 23
1.6880615514
 33
0.0
 40
0.0
 40
0.0
 40
0.0
 40
0.0
 40
0.0832064168
 40
0.1673706447
 40
0.2528685759
 40
0.3400867613
 40
0.4291060942
 40
0.5192954576
 40
0.610797256
 40
0.7048699557
 40
0.8017738049
 40
0.9005573899
 40
1.0
 40
1.0
 40
1.0
 40
1.0
 10
15.3436420827
 20
9.7049677284
 30
0.0
 10
15.3243465853
 20
9.7477730227
 30
0.0
 10
15.2871277263
 20
9.8346041867
 30
0.0
 10
15.2356133197
 20
9.9677039794
 30
0.0
 10
15.1879817044
 20
10.1046421397
 30
0.0
 10
15.1441629234
 20
10.2457175111
 30
0.0
 10
15.1042818756
 20
10.3907030356
 30
0.0
 10
15.0684616925
 20
10.539231179
 30
0.0
 10
15.0366479129
 20
10.6915819528
 30
0.0
 10
15.0087654335
 20
10.8485504743
 30
0.0
 10
14.9849394976
 20
11.0103405548
 30
0.0
 10
14.9654593111
 20
11.1757607583
 30
0.0
 10
14.9555032665
 20
11.2871923658
 30
0.0
 10
14.9512654474
 20
11.3431474481
 30
0.0
 11
15.3436420827
 21
9.7049677284
 31
0.0
 11
15.2881123351
 21
9.8344201603
 31
0.0
 11
15.2366489341
 21
9.9672826218
 31
0.0
 11
15.1890627956
 21
10.1039755878
 31
0.0
 11
15.145229656
 21
10.244970503
 31
0.0
 11
15.1052250733
 21
10.3902642211
 31
0.0
 11
15.0693943265
 21
10.538681568
 31
0.0
 11
15.0376961316
 21
10.6903066692
 31
0.0
 11
15.0098085634
 21
10.8471012219
 31
0.0
 11
14.9858724495
 21
11.009393713
 31
0.0
 11
14.9662796097
 21
11.1754723218
 31
0.0
 11
14.9512654474
 21
11.3431474481
 31
0.0
  0
SPLINE
  5
410
100
AcDbEntity
  8
0
100
AcDbSpline
 62
7
  6
CONTINUOUS
 70
0
 71
3
 72
17
 73
13
 74
11
 42
0.0000001
 43
0.0000001
 44
0.0000000001
 12
0.1300619935
 22
1.8473673837
 32
0.0
 13
0.5103374417
 23
1.780270143
 33
0.0
 40
0.0
 40
0.0
 40
0.0
 40
0.0
 40
0.0989862623
 40
0.1998098983
 40
0.3012031679
 40
0.4020589693
 40
0.5025145917
 40
0.6038648314
 40
0.7062244143
 40
0.8087916628
 40
0.9115570984
 40
1.0
 40
1.0
 40
1.0
 40
1.0
 10
14.9512654474
 20
12.3581598722
 30
0.0
 10
14.9555568976
 20
12.4191145364
 30
0.0
 10
14.9656766221
 20
12.5420572895
 30
0.0
 10
14.9852134158
 20
12.7269804244
 30
0.0
 10
15.0090874166
 20
12.9125578054
 30
0.0
 10
15.0370095352
 20
13.0973382741
 30
0.0
 10
15.0688625932
 20
13.2814540555
 30
0.0
 10
15.1047243491
 20
13.4657766205
 30
0.0
 10
15.1446411616
 20
13.6505973108
 30
0.0
 10
15.1884876273
 20
13.8354228172
 30
0.0
 10
15.2338445653
 20
14.0110230646
 30
0.0
 10
15.2654332249
 20
14.1247589458
 30
0.0
 10
15.2804784662
 20
14.1772430315
 30
0.0
 11
14.9512654474
 21
12.3581598722
 31
0.0
 11
14.9662806771
 21
12.5408605332
 31
0.0
 11
14.9858757547
 21
12.7265488345
 31
0.0
 11
15.0098143985
 21
12.9127909274
 31
0.0
 11
15.0377033657
 21
13.0974759742
 31
0.0
 11
15.0694014569
 21
13.280793444
 31
0.0
 11
15.1052319626
 21
13.4650363002
 31
0.0
 11
15.1452364228
 21
13.6503308929
 31
0.0
 11
15.1890686677
 21
13.8351527846
 31
0.0
 11
15.2366530467
 21
14.0194234895
 31
0.0
 11
15.2804784662
 21
14.1772430315
 31
0.0
  0
SPLINE
  5
411
100
AcDbEntity
  8
0
100
AcDbSpline
 62
7
  6
CONTINUOUS
 70
0
 71
3
 72
9
 73
5
 74
3
 42
0.0000001
 43
0.0000001
 44
0.0000000001
 12
-0.1642762213
 22
-0.1282951516
 32
0.0
 13
-0.1864235189
 23
-0.0930907056
 33
0.0
 40
0.0
 40
0.0
 40
0.0
 40
0.0
 40
0.8496477921
 40
1.0
 40
1.0
 40
1.0
 40
1.0
 10
17.1028173008
 20
9.5216579049
 30
0.0
 10
17.0562916579
 20
9.4853226741
 30
0.0
 10
16.9980337278
 20
9.4470463527
 30
0.0
 10
16.936371393
 20
9.4150650442
 30
0.0
 10
16.9270283305
 20
9.4103995799
 30
0.0
 11
17.1028173008
 21
9.5216579049
 31
0.0
 11
16.9548365701
 21
9.4248242686
 31
0.0
 11
16.9270283305
 21
9.4103995799
 31
0.0
  0
SPLINE
  5
412
100
AcDbEntity
  8
0
100
AcDbSpline
 62
7
  6
CONTINUOUS
 70
0
 71
3
 72
12
 73
8
 74
6
 42
0.0000001
 43
0.0000001
 44
0.0000000001
 12
-0.7538005872
 22
0.1993050875
 32
0.0
 13
-0.7344507813
 23
0.2617630475
 33
0.0
 40
0.0
 40
0.0
 40
0.0
 40
0.0
 40
0.2031922224
 40
0.4037019467
 40
0.6024734814
 40
0.8012652599
 40
1.0
 40
1.0
 40
1.0
 40
1.0
 10
16.8594020814
 20
10.774958902
 30
0.0
 10
16.8083466092
 20
10.7884579832
 30
0.0
 10
16.7071184457
 20
10.8160753917
 30
0.0
 10
16.5567322024
 20
10.8597153281
 30
0.0
 10
16.4081751352
 20
10.9054826703
 30
0.0
 10
16.2608517711
 20
10.9536119236
 30
0.0
 10
16.1632130221
 20
10.9874136485
 30
0.0
 10
16.1145593937
 20
11.0047541189
 30
0.0
 11
16.8594020814
 21
10.774958902
 31
0.0
 11
16.7065618922
 21
10.8166704648
 31
0.0
 11
16.5564213552
 21
10.8602530659
 31
0.0
 11
16.4083122955
 21
10.9058974017
 31
0.0
 11
16.2609815863
 21
10.9540456508
 31
0.0
 11
16.1145593937
 21
11.0047541189
 31
0.0
  0
SPLINE
  5
413
100
AcDbEntity
  8
0
100
AcDbSpline
 62
7
  6
CONTINUOUS
 70
0
 71
3
 72
10
 73
6
 74
4
 42
0.0000001
 43
0.0000001
 44
0.0000000001
 12
0.5518436653
 22
-0.3357149291
 32
0.0
 13
0.4210028359
 23
-0.4898903518
 33
0.0
 40
0.0
 40
0.0
 40
0.0
 40
0.0
 40
0.3534105167
 40
0.6910610321
 40
1.0
 40
1.0
 40
1.0
 40
1.0
 10
36.136910773
 20
22.6838003436
 30
0.0
 10
36.2019198913
 20
22.644251948
 30
0.0
 10
36.3245841455
 20
22.5593479756
 30
0.0
 10
36.4877260669
 20
22.4183145648
 30
0.0
 10
36.583745763
 20
22.3171547605
 30
0.0
 10
36.6271004902
 20
22.2667060206
 30
0.0
 11
36.136910773
 21
22.6838003436
 31
0.0
 11
36.3247863169
 21
22.5541271795
 31
0.0
 11
36.4898287486
 21
22.4115467555
 31
0.0
 11
36.6271004902
 21
22.2667060206
 31
0.0
  0
SPLINE
  5
414
100
AcDbEntity
  8
0
100
AcDbSpline
 62
7
  6
CONTINUOUS
 70
0
 71
3
 72
9
 73
5
 74
3
 42
0.0000001
 43
0.0000001
 44
0.0000000001
 12
0.1283787156
 22
-0.0829485079
 32
0.0
 13
0.1302838867
 23
-0.0799228282
 33
0.0
 40
0.0
 40
0.0
 40
0.0
 40
0.0
 40
0.5226635613
 40
1.0
 40
1.0
 40
1.0
 40
1.0
 10
36.6271004902
 20
22.2667060206
 30
0.0
 10
36.6494667825
 20
22.2522546331
 30
0.0
 10
36.6922777482
 20
22.2246335104
 30
0.0
 10
36.7353832925
 20
22.1974680872
 30
0.0
 10
36.7561130413
 20
22.1847513945
 30
0.0
 11
36.6271004902
 21
22.2667060206
 31
0.0
 11
36.6942987182
 21
22.2235060111
 31
0.0
 11
36.7561130413
 21
22.1847513945
 31
0.0
  0
SPLINE
  5
415
100
AcDbEntity
  8
0
100
AcDbSpline
 62
7
  6
CONTINUOUS
 70
0
 71
3
 72
11
 73
7
 74
5
 42
0.0000001
 43
0.0000001
 44
0.0000000001
 12
0.8643029643
 22
0.2638786714
 32
0.0
 13
0.835364039
 23
-0.3425717307
 33
0.0
 40
0.0
 40
0.0
 40
0.0
 40
0.0
 40
0.2087852254
 40
0.4678669221
 40
0.7311781968
 40
1.0
 40
1.0
 40
1.0
 40
1.0
 10
35.2528704628
 20
22.749327733
 30
0.0
 10
35.3130216926
 20
22.767692389
 30
0.0
 10
35.4516941005
 20
22.7971031548
 30
0.0
 10
35.672992592
 20
22.802429398
 30
0.0
 10
35.9092849519
 20
22.7648629511
 30
0.0
 10
36.0620560839
 20
22.7144972604
 30
0.0
 10
36.136910773
 20
22.6838003436
 30
0.0
 11
35.2528704628
 21
22.749327733
 31
0.0
 11
35.4373705112
 21
22.7887633336
 31
0.0
 11
35.6711965584
 21
22.7953618611
 31
0.0
 11
35.9061339851
 21
22.7589788033
 31
0.0
 11
36.136910773
 21
22.6838003436
 31
0.0
  0
SPLINE
  5
416
100
AcDbEntity
  8
0
100
AcDbSpline
 62
7
  6
CONTINUOUS
 70
0
 71
3
 72
14
 73
10
 74
8
 42
0.0000001
 43
0.0000001
 44
0.0000000001
 12
0.0
 22
1.1946006046
 32
0.0
 13
-0.8817073386
 23
0.8060166088
 33
0.0
 40
0.0
 40
0.0
 40
0.0
 40
0.0
 40
0.1332233404
 40
0.2740144691
 40
0.4200159045
 40
0.5684890876
 40
0.7165250722
 40
0.8612446014
 40
1.0
 40
1.0
 40
1.0
 40
1.0
 10
36.6175056901
 20
21.6231136097
 30
0.0
 10
36.6175056901
 20
21.6761631707
 30
0.0
 10
36.6093648692
 20
21.7853726961
 30
0.0
 10
36.5759191546
 20
21.9496249901
 30
0.0
 10
36.5218977895
 20
22.1147048341
 30
0.0
 10
36.4489737965
 20
22.2754891024
 30
0.0
 10
36.3593881746
 20
22.4270445658
 30
0.0
 10
36.2559285866
 20
22.5646668236
 30
0.0
 10
36.1776913241
 20
22.646520625
 30
0.0
 10
36.136910773
 20
22.6838003436
 30
0.0
 11
36.6175056901
 21
21.6231136097
 31
0.0
 11
36.6063562753
 21
21.7818712674
 31
0.0
 11
36.5732596311
 21
21.9467718683
 31
0.0
 11
36.5192594704
 21
22.1126152214
 31
0.0
 11
36.4460587049
 21
22.2741714056
 31
0.0
 11
36.3559657431
 21
22.4263456969
 31
0.0
 11
36.2518216943
 21
22.5643392324
 31
0.0
 11
36.136910773
 21
22.6838003436
 31
0.0
  0
SPLINE
  5
417
100
AcDbEntity
  8
0
100
AcDbSpline
 62
7
  6
CONTINUOUS
 70
0
 71
3
 72
12
 73
8
 74
6
 42
0.0000001
 43
0.0000001
 44
0.0000000001
 12
1.3753134215
 22
-0.8001222392
 32
0.0
 13
0.5995996729
 23
-1.4734550615
 33
0.0
 40
0.0
 40
0.0
 40
0.0
 40
0.0
 40
0.1684288134
 40
0.3964847019
 40
0.6229576811
 40
0.8404546532
 40
1.0
 40
1.0
 40
1.0
 40
1.0
 10
35.3391505891
 20
22.6012539207
 30
0.0
 10
35.4163647249
 20
22.5563327076
 30
0.0
 10
35.5912787882
 20
22.4388737424
 30
0.0
 10
35.8391314319
 20
22.2191896312
 30
0.0
 10
36.0709401731
 20
21.9475096474
 30
0.0
 10
36.2446218288
 20
21.6778951112
 30
0.0
 10
36.3313999888
 20
21.4974086334
 30
0.0
 10
36.3632877681
 20
21.4190476671
 30
0.0
 11
35.3391505891
 21
22.6012539207
 31
0.0
 11
35.5618756379
 21
22.4525032171
 31
0.0
 11
35.8337053705
 21
22.2127244337
 31
0.0
 11
36.0674332626
 21
21.9389745278
 31
0.0
 11
36.2540690998
 21
21.6479972357
 31
0.0
 11
36.3632877681
 21
21.4190476671
 31
0.0
  0
SPLINE
  5
418
100
AcDbEntity
  8
0
100
AcDbSpline
 62
7
  6
CONTINUOUS
 70
0
 71
3
 72
11
 73
7
 74
5
 42
0.0000001
 43
0.0000001
 44
0.0000000001
 12
0.0
 22
3.027944847
 32
0.0
 13
-1.9341672895
 23
2.334988671
 33
0.0
 40
0.0
 40
0.0
 40
0.0
 40
0.0
 40
0.2352255441
 40
0.4870808209
 40
0.7456501518
 40
1.0
 40
1.0
 40
1.0
 40
1.0
 10
-54.801350611
 20
46.6243635778
 30
0.0
 10
-54.801350611
 20
46.8617802359
 30
0.0
 10
-54.8557277334
 20
47.3540927546
 30
0.0
 10
-55.0686862094
 20
48.0792110252
 30
0.0
 10
-55.4027107998
 20
48.7787490774
 30
0.0
 10
-55.6980257307
 20
49.2067256591
 30
0.0
 10
-55.8620107828
 20
49.4046936637
 30
0.0
 11
-54.801350611
 21
46.6243635778
 31
0.0
 11
-54.8736328489
 21
47.3329363009
 31
0.0
 11
-55.0855536475
 21
48.0655032017
 31
0.0
 11
-55.4226709546
 21
48.7721410567
 31
0.0
 11
-55.8620107828
 21
49.4046936637
 31
0.0
  0
SPLINE
  5
419
100
AcDbEntity
  8
0
100
AcDbSpline
 62
7
  6
CONTINUOUS
 70
0
 71
3
 72
8
 73
4
 74
2
 42
0.0000001
 43
0.0000001
 44
0.0000000001
 12
-0.3137768097
 22
0.3788014096
 32
0.0
 13
-0.3574880884
 23
0.3378624488
 33
0.0
 40
0.0
 40
0.0
 40
0.0
 40
0.0
 40
1.0
 40
1.0
 40
1.0
 40
1.0
 10
-55.8620107828
 20
49.4046936637
 30
0.0
 10
-55.9666030527
 20
49.5309608003
 30
0.0
 10
-56.0783316805
 20
49.6514268672
 30
0.0
 10
-56.1974943766
 20
49.7640476834
 30
0.0
 11
-55.8620107828
 21
49.4046936637
 31
0.0
 11
-56.1974943766
 21
49.7640476834
 31
0.0
  0
SPLINE
  5
41A
100
AcDbEntity
  8
0
100
AcDbSpline
 62
7
  6
CONTINUOUS
 70
0
 71
3
 72
12
 73
8
 74
6
 42
0.0000001
 43
0.0000001
 44
0.0000000001
 12
-1.6597060336
 22
1.5685902917
 32
0.0
 13
-2.0574283357
 23
-1.0250810968
 33
0.0
 40
0.0
 40
0.0
 40
0.0
 40
0.0
 40
0.1030319933
 40
0.3916494942
 40
0.6458336001
 40
0.8701786499
 40
1.0
 40
1.0
 40
1.0
 40
1.0
 10
-56.1974943766
 20
49.7640476834
 30
0.0
 10
-56.254495317
 20
49.8179193449
 30
0.0
 10
-56.4776356556
 20
50.0158749096
 30
0.0
 10
-56.8869032148
 20
50.294201868
 30
0.0
 10
-57.4427677411
 20
50.495132014
 30
0.0
 10
-57.9165540709
 20
50.5019256519
 30
0.0
 10
-58.1753378167
 20
50.4121060023
 30
0.0
 10
-58.2643705248
 20
50.367746865
 30
0.0
 11
-56.1974943766
 21
49.7640476834
 31
0.0
 11
-56.3736328489
 21
49.920053608
 31
0.0
 11
-56.9226709546
 21
50.283099961
 31
0.0
 11
-57.4717090603
 21
50.4690917137
 31
0.0
 11
-57.9833311264
 21
50.4653538355
 31
0.0
 11
-58.2643705248
 21
50.367746865
 31
0.0
  0
SPLINE
  5
41B
100
AcDbEntity
  8
0
100
AcDbSpline
 62
7
  6
CONTINUOUS
 70
0
 71
3
 72
11
 73
7
 74
5
 42
0.0000001
 43
0.0000001
 44
0.0000000001
 12
0.0
 22
-1.8865811492
 32
0.0
 13
-1.7019854425
 23
-0.8479873023
 33
0.0
 40
0.0
 40
0.0
 40
0.0
 40
0.0
 40
0.3394409699
 40
0.6373997744
 40
0.9025320094
 40
1.0
 40
1.0
 40
1.0
 40
1.0
 10
17.32354107
 20
10.5619177373
 30
0.0
 10
17.32354107
 20
10.348456759
 30
0.0
 10
17.2837618817
 20
9.9453430421
 30
0.0
 10
17.0780798898
 20
9.4070985559
 30
0.0
 10
16.7965700846
 20
9.0863087959
 30
0.0
 10
16.5992166637
 20
8.9674053332
 30
0.0
 10
16.5439202967
 20
8.9398547937
 30
0.0
 11
17.32354107
 21
10.5619177373
 31
0.0
 11
17.2512588321
 21
9.9256272521
 31
0.0
 11
17.0393380335
 21
9.4049811499
 31
0.0
 11
16.7022207264
 21
9.035460602
 31
0.0
 11
16.5439202967
 21
8.9398547937
 31
0.0
  0
SPLINE
  5
41C
100
AcDbEntity
  8
0
100
AcDbSpline
 62
7
  6
CONTINUOUS
 70
0
 71
3
 72
11
 73
7
 74
5
 42
0.0000001
 43
0.0000001
 44
0.0000000001
 12
0.0
 22
-1.8865811492
 32
0.0
 13
-1.7019854425
 23
-0.8479873023
 33
0.0
 40
0.0
 40
0.0
 40
0.0
 40
0.0
 40
0.3394409699
 40
0.6373997744
 40
0.9025320094
 40
1.0
 40
1.0
 40
1.0
 40
1.0
 10
-54.801350611
 20
-20.9256179174
 30
0.0
 10
-54.801350611
 20
-21.1390788957
 30
0.0
 10
-54.8411297994
 20
-21.5421926125
 30
0.0
 10
-55.0468117912
 20
-22.0804370988
 30
0.0
 10
-55.3283215965
 20
-22.4012268588
 30
0.0
 10
-55.5256750173
 20
-22.5201303215
 30
0.0
 10
-55.5809713844
 20
-22.5476808609
 30
0.0
 11
-54.801350611
 21
-20.9256179174
 31
0.0
 11
-54.8736328489
 21
-21.5619084025
 31
0.0
 11
-55.0855536475
 21
-22.0825545048
 31
0.0
 11
-55.4226709546
 21
-22.4520750527
 31
0.0
 11
-55.5809713844
 21
-22.5476808609
 31
0.0
  0
SPLINE
  5
41D
100
AcDbEntity
  8
0
100
AcDbSpline
 62
7
  6
CONTINUOUS
 70
0
 71
3
 72
11
 73
7
 74
5
 42
0.0000001
 43
0.0000001
 44
0.0000000001
 12
0.0
 22
3.027944847
 32
0.0
 13
-1.9341672895
 23
2.334988671
 33
0.0
 40
0.0
 40
0.0
 40
0.0
 40
0.0
 40
0.2352255441
 40
0.4870808209
 40
0.7456501518
 40
1.0
 40
1.0
 40
1.0
 40
1.0
 10
17.32354107
 20
-56.9880637579
 30
0.0
 10
17.32354107
 20
-56.7506470998
 30
0.0
 10
17.2691639476
 20
-56.2583345811
 30
0.0
 10
17.0562054717
 20
-55.5332163105
 30
0.0
 10
16.7221808813
 20
-54.8336782583
 30
0.0
 10
16.4268659504
 20
-54.4057016766
 30
0.0
 10
16.2628808982
 20
-54.207733672
 30
0.0
 11
17.32354107
 21
-56.9880637579
 31
0.0
 11
17.2512588321
 21
-56.2794910348
 31
0.0
 11
17.0393380335
 21
-55.546924134
 31
0.0
 11
16.7022207264
 21
-54.840286279
 31
0.0
 11
16.2628808982
 21
-54.207733672
 31
0.0
  0
SPLINE
  5
41E
100
AcDbEntity
  8
0
100
AcDbSpline
 62
7
  6
CONTINUOUS
 70
0
 71
3
 72
8
 73
4
 74
2
 42
0.0000001
 43
0.0000001
 44
0.0000000001
 12
-0.3137768097
 22
0.3788014096
 32
0.0
 13
-0.3574880884
 23
0.3378624488
 33
0.0
 40
0.0
 40
0.0
 40
0.0
 40
0.0
 40
1.0
 40
1.0
 40
1.0
 40
1.0
 10
16.2628808982
 20
-54.207733672
 30
0.0
 10
16.1582886283
 20
-54.0814665354
 30
0.0
 10
16.0465600005
 20
-53.9610004685
 30
0.0
 10
15.9273973044
 20
-53.8483796523
 30
0.0
 11
16.2628808982
 21
-54.207733672
 31
0.0
 11
15.9273973044
 21
-53.8483796523
 31
0.0
  0
SPLINE
  5
41F
100
AcDbEntity
  8
0
100
AcDbSpline
 62
7
  6
CONTINUOUS
 70
0
 71
3
 72
12
 73
8
 74
6
 42
0.0000001
 43
0.0000001
 44
0.0000000001
 12
-1.6597060336
 22
1.5685902917
 32
0.0
 13
-2.0574283357
 23
-1.0250810968
 33
0.0
 40
0.0
 40
0.0
 40
0.0
 40
0.0
 40
0.1030319933
 40
0.3916494942
 40
0.6458336001
 40
0.8701786499
 40
1.0
 40
1.0
 40
1.0
 40
1.0
 10
15.9273973044
 20
-53.8483796523
 30
0.0
 10
15.8703963641
 20
-53.7945079908
 30
0.0
 10
15.6472560254
 20
-53.5965524261
 30
0.0
 10
15.2379884662
 20
-53.3182254677
 30
0.0
 10
14.6821239399
 20
-53.1172953217
 30
0.0
 10
14.2083376101
 20
-53.1105016838
 30
0.0
 10
13.9495538643
 20
-53.2003213334
 30
0.0
 10
13.8605211562
 20
-53.2446804707
 30
0.0
 11
15.9273973044
 21
-53.8483796523
 31
0.0
 11
15.7512588321
 21
-53.6923737277
 31
0.0
 11
15.2022207264
 21
-53.3293273747
 31
0.0
 11
14.6531826208
 21
-53.143335622
 31
0.0
 11
14.1415605547
 21
-53.1470735002
 31
0.0
 11
13.8605211562
 21
-53.2446804707
 31
0.0
  0
SPLINE
  5
420
100
AcDbEntity
  8
0
100
AcDbSpline
 62
7
  6
CONTINUOUS
 70
0
 71
3
 72
14
 73
10
 74
8
 42
0.0000001
 43
0.0000001
 44
0.0000000001
 12
0.0
 22
14.7133219561
 32
0.0
 13
-13.1599952275
 23
6.5799976137
 33
0.0
 40
0.0
 40
0.0
 40
0.0
 40
0.0
 40
0.1375292621
 40
0.2840848061
 40
0.4355534719
 40
0.5872669423
 40
0.7345302724
 40
0.8731477684
 40
1.0
 40
1.0
 40
1.0
 40
1.0
 10
33.0920222905
 20
15.0855971052
 30
0.0
 10
33.0920222905
 20
15.7601012093
 30
0.0
 10
32.9602734413
 20
17.155046497
 30
0.0
 10
32.4329948145
 20
19.2322800847
 30
0.0
 10
31.5941508182
 20
21.2799361693
 30
0.0
 10
30.4845193665
 20
23.1980606875
 30
0.0
 10
29.1572204191
 20
24.8944075178
 30
0.0
 10
27.6767046805
 20
26.2866279375
 30
0.0
 10
26.5774127328
 20
27.0031559219
 30
0.0
 10
26.0209544786
 20
27.281385049
 30
0.0
 11
33.0920222905
 21
15.0855971052
 31
0.0
 11
32.9147358573
 21
17.1013281386
 31
0.0
 11
32.3917664399
 21
19.1932684341
 31
0.0
 11
31.5493379086
 21
21.2565193703
 31
0.0
 11
30.4296931476
 21
23.1876209296
 31
0.0
 11
29.0889758204
 21
24.8897396165
 31
0.0
 11
27.5944150922
 21
26.2775240924
 31
0.0
 11
26.0209544786
 21
27.281385049
 31
0.0
  0
SPLINE
  5
421
100
AcDbEntity
  8
0
100
AcDbSpline
 62
7
  6
CONTINUOUS
 70
0
 71
3
 72
11
 73
7
 74
5
 42
0.0000001
 43
0.0000001
 44
0.0000000001
 12
-4.1412572325
 22
2.0706286162
 32
0.0
 13
-4.1588376331
 23
-2.0820439822
 33
0.0
 40
0.0
 40
0.0
 40
0.0
 40
0.0
 40
0.3614173717
 40
0.6850347852
 40
0.9849381792
 40
1.0
 40
1.0
 40
1.0
 40
1.0
 10
-60.2460728262
 20
70.4148987014
 30
0.0
 10
-60.7449802611
 20
70.6643524188
 30
0.0
 10
-61.7450136444
 20
71.0428343928
 30
0.0
 10
-63.2827447241
 20
71.1778077856
 30
0.0
 10
-64.2581573966
 20
70.9239691351
 30
0.0
 10
-64.6968671431
 20
70.7095720393
 30
0.0
 10
-64.7177470321
 20
70.6991189149
 30
0.0
 11
-60.2460728262
 21
70.4148987014
 31
0.0
 11
-61.8195334397
 21
70.9844983584
 31
0.0
 11
-63.3140941679
 21
71.0912746106
 31
0.0
 11
-64.6548114951
 21
70.729873251
 31
0.0
 11
-64.7177470321
 21
70.6991189149
 31
0.0
  0
SPLINE
  5
422
100
AcDbEntity
  8
RACCORDO
100
AcDbSpline
 62
7
  6
CONTINUOUS
 70
0
 71
3
 72
15
 73
11
 74
9
 42
0.0000001
 43
0.0000001
 44
0.0000000001
 12
-0.0
 22
-13.9859829713
 32
0.0
 13
12.5094434624
 23
-6.2547217312
 33
0.0
 40
0.0
 40
0.0
 40
0.0
 40
0.0
 40
0.1226191802
 40
0.2495466124
 40
0.3785470167
 40
0.5081454137
 40
0.6366703026
 40
0.7625626819
 40
0.8842840488
 40
1.0
 40
1.0
 40
1.0
 40
1.0
 10
-70.2363794536
 20
-21.4541439716
 30
0.0
 10
-70.2363794536
 20
-22.0257938938
 30
0.0
 10
-70.1415308301
 20
-23.1905042842
 30
0.0
 10
-69.7545262814
 20
-24.9171952323
 30
0.0
 10
-69.14194577
 20
-26.6117887948
 30
0.0
 10
-68.3271340558
 20
-28.2269534884
 30
0.0
 10
-67.3323250499
 20
-29.7207471475
 30
0.0
 10
-66.1806523439
 20
-31.0499868794
 30
0.0
 10
-64.9005741219
 20
-32.1679523412
 30
0.0
 10
-63.9564664447
 20
-32.7583716838
 30
0.0
 10
-63.4739523951
 20
-32.9996287086
 30
0.0
 11
-70.2363794536
 21
-21.4541439716
 31
0.0
 11
-70.104471544
 21
-23.1640132666
 31
0.0
 11
-69.7209780149
 21
-24.8973006542
 31
0.0
 11
-69.1097012614
 21
-26.5947897405
 31
0.0
 11
-68.2932668599
 21
-28.2130641756
 31
0.0
 11
-67.2949059496
 21
-29.7078719831
 31
0.0
 11
-66.1383516294
 21
-31.0354817014
 31
0.0
 11
-64.8511453915
 21
-32.1495920674
 31
0.0
 11
-63.4739523951
 21
-32.9996287086
 31
0.0
  0
SPLINE
  5
423
100
AcDbEntity
  8
RACCORDO
100
AcDbSpline
 62
7
  6
CONTINUOUS
 70
0
 71
3
 72
12
 73
8
 74
6
 42
0.0000001
 43
0.0000001
 44
0.0000000001
 12
-6.4877358447
 22
-3.2438679223
 32
0.0
 13
0.0
 23
-7.2535091844
 33
0.0
 40
0.0
 40
0.0
 40
0.0
 40
0.0
 40
0.1728513508
 40
0.3544696933
 40
0.5518145037
 40
0.7678644428
 40
1.0
 40
1.0
 40
1.0
 40
1.0
 10
-67.0516611591
 20
69.5321903846
 30
0.0
 10
-67.4254657939
 20
69.3452880671
 30
0.0
 10
-68.1464576485
 20
68.862667105
 30
0.0
 10
-69.0450608287
 20
67.8591560808
 30
0.0
 10
-69.7289146455
 20
66.5785790263
 30
0.0
 10
-70.1495963399
 20
65.0644188131
 30
0.0
 10
-70.2363794536
 20
63.9776113981
 30
0.0
 10
-70.2363794536
 20
63.4163455993
 30
0.0
 11
-67.0516611591
 21
69.5321903846
 31
0.0
 11
-68.0944425335
 21
68.8360808838
 31
0.0
 11
-68.9777461176
 21
67.8587174276
 31
0.0
 11
-69.6605365641
 21
66.6006138802
 31
0.0
 11
-70.0914084765
 21
65.0938905579
 31
0.0
 11
-70.2363794536
 21
63.4163455993
 31
0.0
  0
SPLINE
  5
424
100
AcDbEntity
  8
RACCORDO
100
AcDbSpline
 62
7
  6
CONTINUOUS
 70
0
 71
3
 72
11
 73
7
 74
5
 42
0.0000001
 43
0.0000001
 44
0.0000000001
 12
4.9738161426
 22
-2.4869080713
 32
0.0
 13
4.9738161426
 23
2.4869080713
 33
0.0
 40
0.0
 40
0.0
 40
0.0
 40
0.0
 40
0.281233171
 40
0.5375775947
 40
0.7739321312
 40
1.0
 40
1.0
 40
1.0
 40
1.0
 10
22.7930749097
 20
-76.133142361
 30
0.0
 10
23.2593422715
 20
-76.3662760419
 30
0.0
 10
24.1954719557
 20
-76.7311434383
 30
0.0
 10
25.6257313198
 20
-76.9508636515
 30
0.0
 10
26.9658961576
 20
-76.8347657896
 30
0.0
 10
27.7848313839
 20
-76.5477599946
 30
0.0
 10
28.1596380557
 20
-76.3603566587
 30
0.0
 11
22.7930749097
 21
-76.133142361
 31
0.0
 11
24.25450498
 21
-76.6899468536
 31
0.0
 11
25.6648729428
 21
-76.8971314077
 31
0.0
 11
26.9737726914
 21
-76.7776380997
 31
0.0
 11
28.1596380557
 21
-76.3603566587
 31
0.0
  0
SPLINE
  5
425
100
AcDbEntity
  8
0
100
AcDbSpline
 62
7
  6
CONTINUOUS
 70
0
 71
3
 72
11
 73
7
 74
5
 42
0.0000001
 43
0.0000001
 44
0.0000000001
 12
1.7019854425
 22
0.8479873023
 32
0.0
 13
0.0
 23
1.8865811492
 33
0.0
 40
0.0
 40
0.0
 40
0.0
 40
0.0
 40
0.0974679906
 40
0.3626002256
 40
0.6605590301
 40
1.0
 40
1.0
 40
1.0
 40
1.0
 10
16.5439202967
 20
-58.6101267015
 30
0.0
 10
16.5992166637
 20
-58.582576162
 30
0.0
 10
16.7965700846
 20
-58.4636726993
 30
0.0
 10
17.0780798898
 20
-58.1428829393
 30
0.0
 10
17.2837618817
 20
-57.6046384531
 30
0.0
 10
17.32354107
 20
-57.2015247362
 30
0.0
 10
17.32354107
 20
-56.9880637579
 30
0.0
 11
16.5439202967
 21
-58.6101267015
 31
0.0
 11
16.7022207264
 21
-58.5145208932
 31
0.0
 11
17.0393380335
 21
-58.1450003453
 31
0.0
 11
17.2512588321
 21
-57.6243542431
 31
0.0
 11
17.32354107
 21
-56.9880637579
 31
0.0
  0
SPLINE
  5
426
100
AcDbEntity
  8
0
100
AcDbSpline
 62
7
  6
CONTINUOUS
 70
0
 71
3
 72
12
 73
8
 74
6
 42
0.0000001
 43
0.0000001
 44
0.0000000001
 12
2.0574283357
 22
1.0250810968
 32
0.0
 13
1.6597060336
 23
-1.5685902917
 33
0.0
 40
0.0
 40
0.0
 40
0.0
 40
0.0
 40
0.1298213501
 40
0.3541663999
 40
0.6083505058
 40
0.8969680067
 40
1.0
 40
1.0
 40
1.0
 40
1.0
 10
-58.2643705248
 20
-17.1822346302
 30
0.0
 10
-58.1753378167
 20
-17.1378754929
 30
0.0
 10
-57.9165540709
 20
-17.0480558433
 30
0.0
 10
-57.4427677411
 20
-17.0548494812
 30
0.0
 10
-56.8869032148
 20
-17.2557796272
 30
0.0
 10
-56.4776356556
 20
-17.5341065856
 30
0.0
 10
-56.254495317
 20
-17.7320621502
 30
0.0
 10
-56.1974943766
 20
-17.7859338117
 30
0.0
 11
-58.2643705248
 21
-17.1822346302
 31
0.0
 11
-57.9833311264
 21
-17.0846276597
 31
0.0
 11
-57.4717090603
 21
-17.0808897815
 31
0.0
 11
-56.9226709546
 21
-17.2668815342
 31
0.0
 11
-56.3736328489
 21
-17.6299278872
 31
0.0
 11
-56.1974943766
 21
-17.7859338117
 31
0.0
  0
SPLINE
  5
427
100
AcDbEntity
  8
0
100
AcDbSpline
 62
7
  6
CONTINUOUS
 70
0
 71
3
 72
8
 73
4
 74
2
 42
0.0000001
 43
0.0000001
 44
0.0000000001
 12
0.3574880884
 22
-0.3378624488
 32
0.0
 13
0.3137768097
 23
-0.3788014096
 33
0.0
 40
0.0
 40
0.0
 40
0.0
 40
0.0
 40
1.0
 40
1.0
 40
1.0
 40
1.0
 10
-56.1974943766
 20
-17.7859338117
 30
0.0
 10
-56.0783316805
 20
-17.898554628
 30
0.0
 10
-55.9666030527
 20
-18.0190206949
 30
0.0
 10
-55.8620107828
 20
-18.1452878315
 30
0.0
 11
-56.1974943766
 21
-17.7859338117
 31
0.0
 11
-55.8620107828
 21
-18.1452878315
 31
0.0
  0
SPLINE
  5
428
100
AcDbEntity
  8
0
100
AcDbSpline
 62
7
  6
CONTINUOUS
 70
0
 71
3
 72
11
 73
7
 74
5
 42
0.0000001
 43
0.0000001
 44
0.0000000001
 12
1.9341672895
 22
-2.334988671
 32
0.0
 13
0.0
 23
-3.027944847
 33
0.0
 40
0.0
 40
0.0
 40
0.0
 40
0.0
 40
0.2543498482
 40
0.5129191791
 40
0.7647744559
 40
1.0
 40
1.0
 40
1.0
 40
1.0
 10
-55.8620107828
 20
-18.1452878315
 30
0.0
 10
-55.6980257307
 20
-18.3432558361
 30
0.0
 10
-55.4027107998
 20
-18.7712324178
 30
0.0
 10
-55.0686862094
 20
-19.47077047
 30
0.0
 10
-54.8557277334
 20
-20.1958887406
 30
0.0
 10
-54.801350611
 20
-20.6882012593
 30
0.0
 10
-54.801350611
 20
-20.9256179174
 30
0.0
 11
-55.8620107828
 21
-18.1452878315
 31
0.0
 11
-55.4226709546
 21
-18.7778404385
 31
0.0
 11
-55.0855536475
 21
-19.4844782935
 31
0.0
 11
-54.8736328489
 21
-20.2170451943
 31
0.0
 11
-54.801350611
 21
-20.9256179174
 31
0.0
  0
SPLINE
  5
429
100
AcDbEntity
  8
0
100
AcDbSpline
 62
7
  6
CONTINUOUS
 70
0
 71
3
 72
12
 73
8
 74
6
 42
0.0000001
 43
0.0000001
 44
0.0000000001
 12
2.0574283357
 22
1.0250810968
 32
0.0
 13
1.6597060336
 23
-1.5685902917
 33
0.0
 40
0.0
 40
0.0
 40
0.0
 40
0.0
 40
0.1298213501
 40
0.3541663999
 40
0.6083505058
 40
0.8969680067
 40
1.0
 40
1.0
 40
1.0
 40
1.0
 10
13.8605211562
 20
14.3053010245
 30
0.0
 10
13.9495538643
 20
14.3496601618
 30
0.0
 10
14.2083376101
 20
14.4394798114
 30
0.0
 10
14.6821239399
 20
14.4326861735
 30
0.0
 10
15.2379884662
 20
14.2317560275
 30
0.0
 10
15.6472560254
 20
13.9534290691
 30
0.0
 10
15.8703963641
 20
13.7554735044
 30
0.0
 10
15.9273973044
 20
13.7016018429
 30
0.0
 11
13.8605211562
 21
14.3053010245
 31
0.0
 11
14.1415605547
 21
14.402907995
 31
0.0
 11
14.6531826208
 21
14.4066458731
 31
0.0
 11
15.2022207264
 21
14.2206541204
 31
0.0
 11
15.7512588321
 21
13.8576077675
 31
0.0
 11
15.9273973044
 21
13.7016018429
 31
0.0
  0
SPLINE
  5
42A
100
AcDbEntity
  8
0
100
AcDbSpline
 62
7
  6
CONTINUOUS
 70
0
 71
3
 72
8
 73
4
 74
2
 42
0.0000001
 43
0.0000001
 44
0.0000000001
 12
0.3574880884
 22
-0.3378624488
 32
0.0
 13
0.3137768097
 23
-0.3788014096
 33
0.0
 40
0.0
 40
0.0
 40
0.0
 40
0.0
 40
1.0
 40
1.0
 40
1.0
 40
1.0
 10
15.9273973044
 20
13.7016018429
 30
0.0
 10
16.0465600005
 20
13.5889810267
 30
0.0
 10
16.1582886283
 20
13.4685149597
 30
0.0
 10
16.2628808982
 20
13.3422478232
 30
0.0
 11
15.9273973044
 21
13.7016018429
 31
0.0
 11
16.2628808982
 21
13.3422478232
 31
0.0
  0
SPLINE
  5
42B
100
AcDbEntity
  8
0
100
AcDbSpline
 62
7
  6
CONTINUOUS
 70
0
 71
3
 72
11
 73
7
 74
5
 42
0.0000001
 43
0.0000001
 44
0.0000000001
 12
1.9341672895
 22
-2.334988671
 32
0.0
 13
0.0
 23
-3.027944847
 33
0.0
 40
0.0
 40
0.0
 40
0.0
 40
0.0
 40
0.2543498482
 40
0.5129191791
 40
0.7647744559
 40
1.0
 40
1.0
 40
1.0
 40
1.0
 10
16.2628808982
 20
13.3422478232
 30
0.0
 10
16.4268659504
 20
13.1442798186
 30
0.0
 10
16.7221808813
 20
12.7163032369
 30
0.0
 10
17.0562054717
 20
12.0167651847
 30
0.0
 10
17.2691639476
 20
11.2916469141
 30
0.0
 10
17.32354107
 20
10.7993343954
 30
0.0
 10
17.32354107
 20
10.5619177373
 30
0.0
 11
16.2628808982
 21
13.3422478232
 31
0.0
 11
16.7022207264
 21
12.7096952162
 31
0.0
 11
17.0393380335
 21
12.0030573612
 31
0.0
 11
17.2512588321
 21
11.2704904604
 31
0.0
 11
17.32354107
 21
10.5619177373
 31
0.0
  0
SPLINE
  5
42C
100
AcDbEntity
  8
0
100
AcDbSpline
 62
7
  6
CONTINUOUS
 70
0
 71
3
 72
11
 73
7
 74
5
 42
0.0000001
 43
0.0000001
 44
0.0000000001
 12
1.7019854425
 22
0.8479873023
 32
0.0
 13
-0.0
 23
1.8865811492
 33
0.0
 40
0.0
 40
0.0
 40
0.0
 40
0.0
 40
0.0974679906
 40
0.3626002256
 40
0.6605590301
 40
1.0
 40
1.0
 40
1.0
 40
1.0
 10
-55.5809713844
 20
45.0023006342
 30
0.0
 10
-55.5256750173
 20
45.0298511737
 30
0.0
 10
-55.3283215965
 20
45.1487546364
 30
0.0
 10
-55.0468117912
 20
45.4695443964
 30
0.0
 10
-54.8411297994
 20
46.0077888826
 30
0.0
 10
-54.801350611
 20
46.4109025995
 30
0.0
 10
-54.801350611
 20
46.6243635778
 30
0.0
 11
-55.5809713844
 21
45.0023006342
 31
0.0
 11
-55.4226709546
 21
45.0979064425
 31
0.0
 11
-55.0855536475
 21
45.4674269904
 31
0.0
 11
-54.8736328489
 21
45.9880730926
 31
0.0
 11
-54.801350611
 21
46.6243635778
 31
0.0
  0
SPLINE
  5
42D
100
AcDbEntity
  8
0
100
AcDbSpline
 62
7
  6
CONTINUOUS
 70
0
 71
3
 72
11
 73
7
 74
5
 42
0.0000001
 43
0.0000001
 44
0.0000000001
 12
5.6562216791
 22
2.8316811927
 32
0.0
 13
-0.0
 23
6.297115668
 33
0.0
 40
0.0
 40
0.0
 40
0.0
 40
0.0
 40
0.2085141479
 40
0.4440618469
 40
0.7066954089
 40
1.0
 40
1.0
 40
1.0
 40
1.0
 10
30.4926286846
 20
-75.1938328111
 30
0.0
 10
30.8857627658
 20
-74.9970176141
 30
0.0
 10
31.6479045403
 20
-74.4264752072
 30
0.0
 10
32.4842577896
 20
-73.1714749781
 30
0.0
 10
32.9914525491
 20
-71.5721098423
 30
0.0
 10
33.0920222905
 20
-70.4005501111
 30
0.0
 10
33.0920222905
 20
-69.7848924657
 30
0.0
 11
30.4926286846
 21
-75.1938328111
 31
0.0
 11
31.5493379086
 21
-74.4131303488
 31
0.0
 11
32.3917664399
 21
-73.192307944
 31
0.0
 11
32.9147358573
 21
-71.6233370659
 31
0.0
 11
33.0920222905
 21
-69.7848924657
 31
0.0
  0
SPLINE
  5
42E
100
AcDbEntity
  8
0
100
AcDbSpline
 62
7
  6
CONTINUOUS
 70
0
 71
3
 72
16
 73
12
 74
10
 42
0.0000001
 43
0.0000001
 44
0.0000000001
 12
0.0
 22
-5.7997384459
 32
0.0
 13
5.2322532796
 23
2.6068873639
 33
0.0
 40
0.0
 40
0.0
 40
0.0
 40
0.0
 40
0.1228072578
 40
0.2542966162
 40
0.3892912682
 40
0.522083
 40
0.6472939488
 40
0.7607842163
 40
0.8607345731
 40
0.9489516065
 40
1.0
 40
1.0
 40
1.0
 40
1.0
 10
-59.0439912981
 20
48.7456839214
 30
0.0
 10
-59.0439912981
 20
48.5082672633
 30
0.0
 10
-58.9896141758
 20
48.0159547446
 30
0.0
 10
-58.7766556998
 20
47.290836474
 30
0.0
 10
-58.4426311094
 20
46.5912984218
 30
0.0
 10
-58.0092334942
 20
45.9632095226
 30
0.0
 10
-57.5042013622
 20
45.4469976072
 30
0.0
 10
-56.9584386943
 20
45.0758456312
 30
0.0
 10
-56.402574168
 20
44.8749154852
 30
0.0
 10
-55.9287878382
 20
44.8681218473
 30
0.0
 10
-55.6700040925
 20
44.9579414969
 30
0.0
 10
-55.5809713844
 20
45.0023006342
 30
0.0
 11
-59.0439912981
 21
48.7456839214
 31
0.0
 11
-58.9717090603
 21
48.0371111983
 31
0.0
 11
-58.7597882617
 21
47.3045442975
 31
0.0
 11
-58.4226709546
 21
46.5979064425
 31
0.0
 11
-57.9833311264
 21
45.9653538355
 31
0.0
 11
-57.4717090603
 21
45.4499938912
 31
0.0
 11
-56.9226709546
 21
45.0869475382
 31
0.0
 11
-56.3736328489
 21
44.9009557856
 31
0.0
 11
-55.8620107828
 21
44.9046936637
 31
0.0
 11
-55.5809713844
 21
45.0023006342
 31
0.0
  0
SPLINE
  5
42F
100
AcDbEntity
  8
0
100
AcDbSpline
 62
7
  6
CONTINUOUS
 70
0
 71
3
 72
11
 73
7
 74
5
 42
0.0000001
 43
0.0000001
 44
0.0000000001
 12
0.0
 22
1.8865811492
 32
0.0
 13
1.7019854425
 23
0.8479873023
 33
0.0
 40
0.0
 40
0.0
 40
0.0
 40
0.0
 40
0.3394409699
 40
0.6373997744
 40
0.9025320094
 40
1.0
 40
1.0
 40
1.0
 40
1.0
 10
13.0809003829
 20
12.6832380809
 30
0.0
 10
13.0809003829
 20
12.8966990592
 30
0.0
 10
13.1206795712
 20
13.2998127761
 30
0.0
 10
13.3263615631
 20
13.8380572623
 30
0.0
 10
13.6078713683
 20
14.1588470223
 30
0.0
 10
13.8052247892
 20
14.277750485
 30
0.0
 10
13.8605211562
 20
14.3053010245
 30
0.0
 11
13.0809003829
 21
12.6832380809
 31
0.0
 11
13.1531826208
 21
13.3195285661
 31
0.0
 11
13.3651034194
 21
13.8401746683
 31
0.0
 11
13.7022207264
 21
14.2096952162
 31
0.0
 11
13.8605211562
 21
14.3053010245
 31
0.0
  0
SPLINE
  5
430
100
AcDbEntity
  8
0
100
AcDbSpline
 62
7
  6
CONTINUOUS
 70
0
 71
3
 72
11
 73
7
 74
5
 42
0.0000001
 43
0.0000001
 44
0.0000000001
 12
0.0
 22
1.8865811492
 32
0.0
 13
1.7019854425
 23
0.8479873023
 33
0.0
 40
0.0
 40
0.0
 40
0.0
 40
0.0
 40
0.3394409699
 40
0.6373997744
 40
0.9025320094
 40
1.0
 40
1.0
 40
1.0
 40
1.0
 10
-59.0439912981
 20
-18.8042975738
 30
0.0
 10
-59.0439912981
 20
-18.5908365955
 30
0.0
 10
-59.0042121098
 20
-18.1877228786
 30
0.0
 10
-58.7985301179
 20
-17.6494783924
 30
0.0
 10
-58.5170203127
 20
-17.3286886324
 30
0.0
 10
-58.3196668918
 20
-17.2097851697
 30
0.0
 10
-58.2643705248
 20
-17.1822346302
 30
0.0
 11
-59.0439912981
 21
-18.8042975738
 31
0.0
 11
-58.9717090603
 21
-18.1680070886
 31
0.0
 11
-58.7597882617
 21
-17.6473609864
 31
0.0
 11
-58.4226709546
 21
-17.2778404385
 31
0.0
 11
-58.2643705248
 21
-17.1822346302
 31
0.0
  0
SPLINE
  5
431
100
AcDbEntity
  8
0
100
AcDbSpline
 62
7
  6
CONTINUOUS
 70
0
 71
3
 72
16
 73
12
 74
10
 42
0.0000001
 43
0.0000001
 44
0.0000000001
 12
0.0
 22
-5.7997384459
 32
0.0
 13
5.2322532796
 23
2.6068873639
 33
0.0
 40
0.0
 40
0.0
 40
0.0
 40
0.0
 40
0.1228072578
 40
0.2542966162
 40
0.3892912682
 40
0.522083
 40
0.6472939488
 40
0.7607842163
 40
0.8607345731
 40
0.9489516065
 40
1.0
 40
1.0
 40
1.0
 40
1.0
 10
13.0809003829
 20
-54.8667434143
 30
0.0
 10
13.0809003829
 20
-55.1041600724
 30
0.0
 10
13.1352775053
 20
-55.5964725911
 30
0.0
 10
13.3482359812
 20
-56.3215908617
 30
0.0
 10
13.6822605716
 20
-57.0211289139
 30
0.0
 10
14.1156581868
 20
-57.6492178131
 30
0.0
 10
14.6206903189
 20
-58.1654297285
 30
0.0
 10
15.1664529867
 20
-58.5365817045
 30
0.0
 10
15.722317513
 20
-58.7375118505
 30
0.0
 10
16.1961038428
 20
-58.7443054884
 30
0.0
 10
16.4548875885
 20
-58.6544858388
 30
0.0
 10
16.5439202967
 20
-58.6101267015
 30
0.0
 11
13.0809003829
 21
-54.8667434143
 31
0.0
 11
13.1531826208
 21
-55.5753161374
 31
0.0
 11
13.3651034194
 21
-56.3078830382
 31
0.0
 11
13.7022207264
 21
-57.0145208932
 31
0.0
 11
14.1415605547
 21
-57.6470735002
 31
0.0
 11
14.6531826208
 21
-58.1624334445
 31
0.0
 11
15.2022207264
 21
-58.5254797975
 31
0.0
 11
15.7512588321
 21
-58.7114715501
 31
0.0
 11
16.2628808982
 21
-58.707733672
 31
0.0
 11
16.5439202967
 21
-58.6101267015
 31
0.0
  0
SPLINE
  5
432
100
AcDbEntity
  8
RACCORDO
100
AcDbSpline
 62
253
  6
CONTINUOUS
 70
0
 71
3
 72
16
 73
12
 74
10
 42
0.0000001
 43
0.0000001
 44
0.0000000001
 12
0.0
 22
-11.7754793073
 32
0.0
 13
10.5323088795
 23
-5.2661544398
 33
0.0
 40
0.0
 40
0.0
 40
0.0
 40
0.0
 40
0.1059954035
 40
0.2180170371
 40
0.3342182645
 40
0.4524711939
 40
0.5705586514
 40
0.686239439
 40
0.7974746867
 40
0.9024936313
 40
1.0
 40
1.0
 40
1.0
 40
1.0
 10
-69.6505930159
 20
-22.1612507527
 30
0.0
 10
-69.6505930159
 20
-22.5772996462
 30
0.0
 10
-69.5879955444
 20
-23.4337915005
 30
0.0
 10
-69.330179197
 20
-24.7229594367
 30
0.0
 10
-68.9131625589
 20
-26.0203801724
 30
0.0
 10
-68.3493824242
 20
-27.2869537486
 30
0.0
 10
-67.6556754973
 20
-28.4849840641
 30
0.0
 10
-66.8526723977
 20
-29.5788440291
 30
0.0
 10
-65.964018843
 20
-30.5360458578
 30
0.0
 10
-65.0163734204
 20
-31.3279343674
 30
0.0
 10
-64.336061164
 20
-31.746719909
 30
0.0
 10
-63.9937387664
 20
-31.9178811078
 30
0.0
 11
-69.6505930159
 21
-22.1612507527
 31
0.0
 11
-69.56476955
 21
-23.4064432953
 31
0.0
 11
-69.3096391196
 21
-24.7006440184
 31
0.0
 11
-68.892848964
 21
-26.00394739
 31
0.0
 11
-68.3271397657
 21
-27.2763417325
 31
0.0
 11
-67.6296442462
 21
-28.4792929009
 31
0.0
 11
-66.8217040258
 21
-29.5760209922
 31
0.0
 11
-65.9277462142
 21
-30.5333830714
 31
0.0
 11
-64.9752296731
 21
-31.3220601458
 31
0.0
 11
-63.9937387664
 21
-31.9178811078
 31
0.0
  0
SPLINE
  5
433
100
AcDbEntity
  8
RACCORDO
100
AcDbSpline
 62
253
  6
CONTINUOUS
 70
0
 71
3
 72
16
 73
12
 74
10
 42
0.0000001
 43
0.0000001
 44
0.0000000001
 12
-7.8297632022
 22
3.9148816011
 32
0.0
 13
-0.0
 23
-8.7539413839
 33
0.0
 40
0.0
 40
0.0
 40
0.0
 40
0.0
 40
0.1204849548
 40
0.230896473
 40
0.3332776608
 40
0.4312956712
 40
0.5296963898
 40
0.6331002964
 40
0.7450006474
 40
0.8672198523
 40
1.0
 40
1.0
 40
1.0
 40
1.0
 10
-63.9937387664
 20
66.8090149237
 30
0.0
 10
-64.3081949883
 20
66.9662430346
 30
0.0
 10
-64.9373257095
 20
67.2195636857
 30
0.0
 10
-65.9017345048
 20
67.3949913068
 30
0.0
 10
-66.8172918672
 20
67.337898117
 30
0.0
 10
-67.6505979877
 20
67.0429414475
 30
0.0
 10
-68.3663998187
 20
66.5194518319
 30
0.0
 10
-68.9381248305
 20
65.7918349344
 30
0.0
 10
-69.3517037419
 20
64.8895488831
 30
0.0
 10
-69.5999426263
 20
63.8423925006
 30
0.0
 10
-69.6505930159
 20
63.0966886948
 30
0.0
 10
-69.6505930159
 20
62.7092388181
 30
0.0
 11
-63.9937387664
 21
66.8090149237
 31
0.0
 11
-64.9753969368
 21
67.1947321591
 31
0.0
 11
-65.9279508402
 21
67.3585394247
 31
0.0
 11
-66.8219397185
 21
67.2950722583
 31
0.0
 11
-67.6298955356
 21
67.0062007275
 31
0.0
 11
-68.3273496982
 21
66.5006737484
 31
0.0
 11
-68.8929842212
 21
65.7939703687
 31
0.0
 11
-69.3097103372
 21
64.9074631816
 31
0.0
 11
-69.5647992223
 21
63.8684178756
 31
0.0
 11
-69.6505930159
 21
62.7092388181
 31
0.0
  0
SPLINE
  5
434
100
AcDbEntity
  8
RACCORDO
100
AcDbSpline
 62
253
  6
CONTINUOUS
 70
0
 71
3
 72
13
 73
9
 74
7
 42
0.0000001
 43
0.0000001
 44
0.0000000001
 12
5.6575714722
 22
2.8260141697
 32
0.0
 13
-0.0000000006
 23
6.3048999042
 33
0.0
 40
0.0
 40
0.0
 40
0.0
 40
0.0
 40
0.0129793992
 40
0.1837290659
 40
0.3631645382
 40
0.5573472527
 40
0.7694430338
 40
1.0
 40
1.0
 40
1.0
 40
1.0
 10
28.159629756
 20
-76.3603400431
 30
0.0
 10
28.184107049
 20
-76.3481133877
 30
0.0
 10
28.5286666272
 20
-76.1712053249
 30
0.0
 10
29.1531468009
 20
-75.7145437744
 30
0.0
 10
29.8677599344
 20
-74.8052112132
 30
0.0
 10
30.3847854383
 20
-73.6775457382
 30
0.0
 10
30.695201014
 20
-72.3684860533
 30
0.0
 10
30.7585699126
 20
-71.4361648527
 30
0.0
 10
30.7585699126
 20
-70.9516186546
 30
0.0
 11
28.159629756
 21
-76.3603400431
 31
0.0
 11
28.2326464734
 21
-76.3228482156
 31
0.0
 11
29.1043410463
 21
-75.691081604
 31
0.0
 11
29.8113437015
 21
-74.8078838468
 31
0.0
 11
30.3322857861
 21
-73.6999415431
 31
0.0
 11
30.6512151808
 21
-72.4012876251
 31
0.0
 11
30.7585699126
 21
-70.9516186546
 31
0.0
  0
SPLINE
  5
435
100
AcDbEntity
  8
RACCORDO
100
AcDbSpline
 62
253
  6
CONTINUOUS
 70
0
 71
3
 72
16
 73
12
 74
10
 42
0.0000001
 43
0.0000001
 44
0.0000000001
 12
0.0
 22
11.7754793073
 32
0.0
 13
-10.5323088795
 23
5.2661544398
 33
0.0
 40
0.0
 40
0.0
 40
0.0
 40
0.0
 40
0.1059954035
 40
0.2180170371
 40
0.3342182645
 40
0.4524711939
 40
0.5705586514
 40
0.686239439
 40
0.7974746867
 40
0.9024936313
 40
1.0
 40
1.0
 40
1.0
 40
1.0
 10
27.9301427878
 20
13.9188709163
 30
0.0
 10
27.9301427878
 20
14.3349198097
 30
0.0
 10
27.8675453163
 20
15.191411664
 30
0.0
 10
27.6097289688
 20
16.4805796002
 30
0.0
 10
27.1927123308
 20
17.7780003359
 30
0.0
 10
26.6289321961
 20
19.0445739121
 30
0.0
 10
25.9352252692
 20
20.2426042277
 30
0.0
 10
25.1322221696
 20
21.3364641926
 30
0.0
 10
24.2435686148
 20
22.2936660213
 30
0.0
 10
23.2959231923
 20
23.0855545309
 30
0.0
 10
22.6156109359
 20
23.5043400725
 30
0.0
 10
22.2732885383
 20
23.6755012713
 30
0.0
 11
27.9301427878
 21
13.9188709163
 31
0.0
 11
27.8443193219
 21
15.1640634589
 31
0.0
 11
27.5891888915
 21
16.4582641819
 31
0.0
 11
27.1723987359
 21
17.7615675535
 31
0.0
 11
26.6066895376
 21
19.033961896
 31
0.0
 11
25.909194018
 21
20.2369130644
 31
0.0
 11
25.1012537977
 21
21.3336411557
 31
0.0
 11
24.2072959861
 21
22.2910032349
 31
0.0
 11
23.254779445
 21
23.0796803093
 31
0.0
 11
22.2732885383
 21
23.6755012713
 31
0.0
  0
SPLINE
  5
436
100
AcDbEntity
  8
0
100
AcDbSpline
 62
7
  6
CONTINUOUS
 70
0
 71
3
 72
11
 73
7
 74
5
 42
0.0000001
 43
0.0000001
 44
0.0000000001
 12
-1.7019854425
 22
-0.8479873023
 32
0.0
 13
0.0
 23
-1.8865811492
 33
0.0
 40
0.0
 40
0.0
 40
0.0
 40
0.0
 40
0.0974679906
 40
0.3626002256
 40
0.6605590301
 40
1.0
 40
1.0
 40
1.0
 40
1.0
 10
13.8605211562
 20
-53.2446804707
 30
0.0
 10
13.8052247892
 20
-53.2722310102
 30
0.0
 10
13.6078713683
 20
-53.3911344729
 30
0.0
 10
13.3263615631
 20
-53.7119242329
 30
0.0
 10
13.1206795712
 20
-54.2501687191
 30
0.0
 10
13.0809003829
 20
-54.653282436
 30
0.0
 10
13.0809003829
 20
-54.8667434143
 30
0.0
 11
13.8605211562
 21
-53.2446804707
 31
0.0
 11
13.7022207264
 21
-53.340286279
 31
0.0
 11
13.3651034194
 21
-53.7098068269
 31
0.0
 11
13.1531826208
 21
-54.2304529291
 31
0.0
 11
13.0809003829
 21
-54.8667434143
 31
0.0
  0
SPLINE
  5
437
100
AcDbEntity
  8
RACCORDO
100
AcDbSpline
 62
253
  6
CONTINUOUS
 70
0
 71
3
 72
16
 73
12
 74
10
 42
0.0000001
 43
0.0000001
 44
0.0000000001
 12
7.8297632022
 22
-3.9148816011
 32
0.0
 13
-0.0
 23
8.7539413839
 33
0.0
 40
0.0
 40
0.0
 40
0.0
 40
0.0
 40
0.1204849548
 40
0.230896473
 40
0.3332776608
 40
0.4312956712
 40
0.5296963898
 40
0.6331002964
 40
0.7450006474
 40
0.8672198523
 40
1.0
 40
1.0
 40
1.0
 40
1.0
 10
22.2732885383
 20
-75.0513947602
 30
0.0
 10
22.5877447602
 20
-75.2086228711
 30
0.0
 10
23.2168754814
 20
-75.4619435222
 30
0.0
 10
24.1812842766
 20
-75.6373711433
 30
0.0
 10
25.0968416391
 20
-75.5802779535
 30
0.0
 10
25.9301477596
 20
-75.285321284
 30
0.0
 10
26.6459495906
 20
-74.7618316683
 30
0.0
 10
27.2176746024
 20
-74.0342147709
 30
0.0
 10
27.6312535138
 20
-73.1319287196
 30
0.0
 10
27.8794923981
 20
-72.084772337
 30
0.0
 10
27.9301427878
 20
-71.3390685313
 30
0.0
 10
27.9301427878
 20
-70.9516186546
 30
0.0
 11
22.2732885383
 21
-75.0513947602
 31
0.0
 11
23.2549467087
 21
-75.4371119956
 31
0.0
 11
24.207500612
 21
-75.6009192612
 31
0.0
 11
25.1014894904
 21
-75.5374520947
 31
0.0
 11
25.9094453075
 21
-75.248580564
 31
0.0
 11
26.6068994701
 21
-74.7430535849
 31
0.0
 11
27.1725339931
 21
-74.0363502052
 31
0.0
 11
27.5892601091
 21
-73.1498430181
 31
0.0
 11
27.8443489942
 21
-72.1107977121
 31
0.0
 11
27.9301427878
 21
-70.9516186546
 31
0.0
  0
SPLINE
  5
438
100
AcDbEntity
  8
0
100
AcDbSpline
 62
7
  6
CONTINUOUS
 70
0
 71
3
 72
16
 73
12
 74
10
 42
0.0000001
 43
0.0000001
 44
0.0000000001
 12
-5.2322532796
 22
-2.6068873639
 32
0.0
 13
0.0
 23
5.7997384459
 33
0.0
 40
0.0
 40
0.0
 40
0.0
 40
0.0
 40
0.0510483935
 40
0.1392654269
 40
0.2392157837
 40
0.3527060512
 40
0.477917
 40
0.6107087318
 40
0.7457033838
 40
0.8771927422
 40
1.0
 40
1.0
 40
1.0
 40
1.0
 10
-55.5809713844
 20
-22.5476808609
 30
0.0
 10
-55.6700040925
 20
-22.5920399983
 30
0.0
 10
-55.9287878382
 20
-22.6818596478
 30
0.0
 10
-56.402574168
 20
-22.67506601
 30
0.0
 10
-56.9584386943
 20
-22.474135864
 30
0.0
 10
-57.5042013622
 20
-22.102983888
 30
0.0
 10
-58.0092334942
 20
-21.5867719726
 30
0.0
 10
-58.4426311094
 20
-20.9586830734
 30
0.0
 10
-58.7766556998
 20
-20.2591450212
 30
0.0
 10
-58.9896141758
 20
-19.5340267506
 30
0.0
 10
-59.0439912981
 20
-19.0417142319
 30
0.0
 10
-59.0439912981
 20
-18.8042975738
 30
0.0
 11
-55.5809713844
 21
-22.5476808609
 31
0.0
 11
-55.8620107828
 21
-22.6452878315
 31
0.0
 11
-56.3736328489
 21
-22.6490257096
 31
0.0
 11
-56.9226709546
 21
-22.4630339569
 31
0.0
 11
-57.4717090603
 21
-22.099987604
 31
0.0
 11
-57.9833311264
 21
-21.5846276597
 31
0.0
 11
-58.4226709546
 21
-20.9520750527
 31
0.0
 11
-58.7597882617
 21
-20.2454371977
 31
0.0
 11
-58.9717090603
 21
-19.5128702969
 31
0.0
 11
-59.0439912981
 21
-18.8042975738
 31
0.0
  0
SPLINE
  5
439
100
AcDbEntity
  8
RACCORDO
100
AcDbSpline
 62
253
  6
CONTINUOUS
 70
0
 71
3
 72
16
 73
12
 74
10
 42
0.0000001
 43
0.0000001
 44
0.0000000001
 12
0.0000000008
 22
14.7193485239
 32
0.0
 13
-13.1653855543
 23
6.5826927752
 33
0.0
 40
0.0
 40
0.0
 40
0.0
 40
0.0
 40
0.1060385634
 40
0.2180490873
 40
0.3342336799
 40
0.4524647277
 40
0.5705327728
 40
0.6861997112
 40
0.7974269167
 40
0.9024423262
 40
1.0
 40
1.0
 40
1.0
 40
1.0
 10
30.7585699126
 20
13.9188709163
 30
0.0
 10
30.7585699126
 20
14.4391437736
 30
0.0
 10
30.6802718102
 20
15.5099158264
 30
0.0
 10
30.3579383233
 20
17.1214382433
 30
0.0
 10
29.8366981016
 20
18.7429673472
 30
0.0
 10
29.1320850262
 20
20.3259203856
 30
0.0
 10
28.265110838
 20
21.8232367054
 30
0.0
 10
27.261517067
 20
23.1904247738
 30
0.0
 10
26.1508530774
 20
24.3868987537
 30
0.0
 10
24.9661952777
 20
25.3769391592
 30
0.0
 10
24.1156302303
 20
25.9005947953
 30
0.0
 10
23.6875021007
 20
26.11465886
 30
0.0
 11
30.7585699126
 21
13.9188709163
 31
0.0
 11
30.651202076
 21
15.4759922227
 31
0.0
 11
30.3322617119
 21
17.0935709918
 31
0.0
 11
29.8113086729
 21
18.7224541455
 31
0.0
 11
29.1042965985
 21
20.3126498335
 31
0.0
 11
28.232593501
 21
21.8161048398
 31
0.0
 11
27.2228329266
 21
23.186883003
 31
0.0
 11
26.1055281083
 21
24.3835565586
 31
0.0
 11
24.9149792442
 21
25.3694381311
 31
0.0
 11
23.6875021007
 21
26.11465886
 31
0.0
  0
SPLINE
  5
43A
100
AcDbEntity
  8
RACCORDO
100
AcDbSpline
 62
253
  6
CONTINUOUS
 70
0
 71
3
 72
11
 73
7
 74
5
 42
0.0000001
 43
0.0000001
 44
0.0000000001
 12
-4.1479311022
 22
2.0739655514
 32
0.0
 13
-4.1613912329
 23
-2.0786533272
 33
0.0
 40
0.0
 40
0.0
 40
0.0
 40
0.0
 40
0.2843953326
 40
0.5448793505
 40
0.7864123342
 40
1.0
 40
1.0
 40
1.0
 40
1.0
 10
-62.5795252041
 20
69.2481725124
 30
0.0
 10
-62.9727426192
 20
69.44478122
 30
0.0
 10
-63.7592753711
 20
69.7614409645
 30
0.0
 10
-64.9648455695
 20
69.9806604622
 30
0.0
 10
-66.081562608
 20
69.9109484192
 30
0.0
 10
-66.7553765669
 20
69.6801665114
 30
0.0
 10
-67.0516505136
 20
69.5321749407
 30
0.0
 11
-62.5795252041
 21
69.2481725124
 31
0.0
 11
-63.8070766911
 21
69.7304500488
 31
0.0
 11
-64.9976173671
 21
69.9350998116
 31
0.0
 11
-66.1149167052
 21
69.8557149178
 31
0.0
 11
-67.0516505136
 21
69.5321749407
 31
0.0
  0
SPLINE
  5
43B
100
AcDbEntity
  8
0
100
AcDbSpline
 62
7
  6
CONTINUOUS
 70
0
 71
3
 72
16
 73
12
 74
10
 42
0.0000001
 43
0.0000001
 44
0.0000000001
 12
-5.2322532796
 22
-2.6068873639
 32
0.0
 13
-0.0
 23
5.7997384459
 33
0.0
 40
0.0
 40
0.0
 40
0.0
 40
0.0
 40
0.0510483935
 40
0.1392654269
 40
0.2392157837
 40
0.3527060512
 40
0.477917
 40
0.6107087318
 40
0.7457033838
 40
0.8771927422
 40
1.0
 40
1.0
 40
1.0
 40
1.0
 10
16.5439202967
 20
8.9398547937
 30
0.0
 10
16.4548875885
 20
8.8954956564
 30
0.0
 10
16.1961038428
 20
8.8056760068
 30
0.0
 10
15.722317513
 20
8.8124696447
 30
0.0
 10
15.1664529867
 20
9.0133997907
 30
0.0
 10
14.6206903189
 20
9.3845517667
 30
0.0
 10
14.1156581868
 20
9.9007636821
 30
0.0
 10
13.6822605716
 20
10.5288525813
 30
0.0
 10
13.3482359812
 20
11.2283906335
 30
0.0
 10
13.1352775053
 20
11.9535089041
 30
0.0
 10
13.0809003829
 20
12.4458214228
 30
0.0
 10
13.0809003829
 20
12.6832380809
 30
0.0
 11
16.5439202967
 21
8.9398547937
 31
0.0
 11
16.2628808982
 21
8.8422478232
 31
0.0
 11
15.7512588321
 21
8.838509945
 31
0.0
 11
15.2022207264
 21
9.0245016977
 31
0.0
 11
14.6531826208
 21
9.3875480507
 31
0.0
 11
14.1415605547
 21
9.902907995
 31
0.0
 11
13.7022207264
 21
10.535460602
 31
0.0
 11
13.3651034194
 21
11.242098457
 31
0.0
 11
13.1531826208
 21
11.9746653578
 31
0.0
 11
13.0809003829
 21
12.6832380809
 31
0.0
  0
SPLINE
  5
43C
100
AcDbEntity
  8
0
100
AcDbSpline
 62
7
  6
CONTINUOUS
 70
0
 71
3
 72
11
 73
7
 74
5
 42
0.0000001
 43
0.0000001
 44
0.0000000001
 12
-1.7019854425
 22
-0.8479873023
 32
0.0
 13
0.0
 23
-1.8865811492
 33
0.0
 40
0.0
 40
0.0
 40
0.0
 40
0.0
 40
0.0974679906
 40
0.3626002256
 40
0.6605590301
 40
1.0
 40
1.0
 40
1.0
 40
1.0
 10
-58.2643705248
 20
50.367746865
 30
0.0
 10
-58.3196668918
 20
50.3401963255
 30
0.0
 10
-58.5170203127
 20
50.2212928628
 30
0.0
 10
-58.7985301179
 20
49.9005031028
 30
0.0
 10
-59.0042121098
 20
49.3622586166
 30
0.0
 10
-59.0439912981
 20
48.9591448997
 30
0.0
 10
-59.0439912981
 20
48.7456839214
 30
0.0
 11
-58.2643705248
 21
50.367746865
 31
0.0
 11
-58.4226709546
 21
50.2721410567
 31
0.0
 11
-58.7597882617
 21
49.9026205088
 31
0.0
 11
-58.9717090603
 21
49.3819744066
 31
0.0
 11
-59.0439912981
 21
48.7456839214
 31
0.0
  0
SPLINE
  5
43D
100
AcDbEntity
  8
RACCORDO
100
AcDbSpline
 62
253
  6
CONTINUOUS
 70
0
 71
3
 72
11
 73
7
 74
5
 42
0.0000001
 43
0.0000001
 44
0.0000000001
 12
0.0
 22
-1.2579152593
 32
0.0
 13
1.135046876
 23
-0.5650889087
 33
0.0
 40
0.0
 40
0.0
 40
0.0
 40
0.0
 40
0.339388487
 40
0.6373012225
 40
0.902392464
 40
1.0
 40
1.0
 40
1.0
 40
1.0
 10
-63.9937387664
 20
-31.9178811078
 30
0.0
 10
-63.9937387664
 20
-32.0601884267
 30
0.0
 10
-63.9672203012
 20
-32.3289314311
 30
0.0
 10
-63.8300950961
 20
-32.6877590342
 30
0.0
 10
-63.642387794
 20
-32.9016741515
 30
0.0
 10
-63.5107382717
 20
-32.980954158
 30
0.0
 10
-63.4738085621
 20
-32.9993398034
 30
0.0
 11
-63.9937387664
 21
-31.9178811078
 31
0.0
 11
-63.9455506079
 21
-32.3420747646
 31
0.0
 11
-63.8042700755
 21
-32.6891721661
 31
0.0
 11
-63.5795252041
 21
-32.935519198
 31
0.0
 11
-63.4738085621
 21
-32.9993398034
 31
0.0
  0
SPLINE
  5
43E
100
AcDbEntity
  8
RACCORDO
100
AcDbSpline
 62
253
  6
CONTINUOUS
 70
0
 71
3
 72
11
 73
7
 74
5
 42
0.0000001
 43
0.0000001
 44
0.0000000001
 12
-0.0
 22
-1.2579152592
 32
0.0
 13
1.1350468771
 23
-0.5650889085
 33
0.0
 40
0.0
 40
0.0
 40
0.0
 40
0.0
 40
0.3393884681
 40
0.6373012024
 40
0.9023924589
 40
1.0
 40
1.0
 40
1.0
 40
1.0
 10
22.2732885383
 20
-75.0513947602
 30
0.0
 10
22.2732885383
 20
-75.1937020711
 30
0.0
 10
22.2998070013
 20
-75.4624450667
 30
0.0
 10
22.4369321982
 20
-75.82127267
 30
0.0
 10
22.6246395017
 20
-76.0351877979
 30
0.0
 10
22.7562890311
 20
-76.1144678093
 30
0.0
 10
22.7932187427
 20
-76.1328534556
 30
0.0
 11
22.2732885383
 21
-75.0513947602
 31
0.0
 11
22.3214766912
 21
-75.4755883936
 31
0.0
 11
22.4627572158
 21
-75.8226857965
 31
0.0
 11
22.6875020954
 21
-76.0690328465
 31
0.0
 11
22.7932187427
 21
-76.1328534556
 31
0.0
  0
SPLINE
  5
43F
100
AcDbEntity
  8
RACCORDO
100
AcDbSpline
 62
253
  6
CONTINUOUS
 70
0
 71
3
 72
13
 73
9
 74
7
 42
0.0000001
 43
0.0000001
 44
0.0000000001
 12
2.6028004938
 22
-1.3014002469
 32
0.0
 13
2.6028004938
 23
1.3014002469
 33
0.0
 40
0.0
 40
0.0
 40
0.0
 40
0.0
 40
0.1524570658
 40
0.32173371
 40
0.5
 40
0.67826629
 40
0.8475429342
 40
1.0
 40
1.0
 40
1.0
 40
1.0
 10
27.9301427878
 20
-70.9516186546
 30
0.0
 10
28.0624145632
 20
-71.0177545423
 30
0.0
 10
28.3570006262
 20
-71.1268787653
 30
0.0
 10
28.8338859423
 20
-71.2228495377
 30
0.0
 10
29.3443563502
 20
-71.2556232034
 30
0.0
 10
29.854826758
 20
-71.2228495377
 30
0.0
 10
30.3317120742
 20
-71.1268787653
 30
0.0
 10
30.6262981372
 20
-71.0177545423
 30
0.0
 10
30.7585699126
 20
-70.9516186546
 30
0.0
 11
27.9301427878
 21
-70.9516186546
 31
0.0
 11
28.3443563502
 21
-71.1105372772
 31
0.0
 11
28.82671826
 21
-71.2104376997
 31
0.0
 11
29.3443563502
 21
-71.2445118734
 31
0.0
 11
29.8619944404
 21
-71.2104376997
 31
0.0
 11
30.3443563502
 21
-71.1105372772
 31
0.0
 11
30.7585699126
 21
-70.9516186546
 31
0.0
  0
SPLINE
  5
440
100
AcDbEntity
  8
RACCORDO
100
AcDbSpline
 62
253
  6
CONTINUOUS
 70
0
 71
3
 72
13
 73
9
 74
7
 42
0.0000001
 43
0.0000001
 44
0.0000000001
 12
2.6028004934
 22
-1.3014002467
 32
0.0
 13
2.6028004934
 23
1.3014002467
 33
0.0
 40
0.0
 40
0.0
 40
0.0
 40
0.0
 40
0.1524570562
 40
0.3217336973
 40
0.4999999965
 40
0.6782662971
 40
0.8475429416
 40
1.0
 40
1.0
 40
1.0
 40
1.0
 10
27.9301427878
 20
13.9188709163
 30
0.0
 10
28.0624145548
 20
13.8527350328
 30
0.0
 10
28.3570006052
 20
13.7436108123
 30
0.0
 10
28.833885917
 20
13.647640036
 30
0.0
 10
29.3443563411
 20
13.6148663663
 30
0.0
 10
29.8548267685
 20
13.6476400336
 30
0.0
 10
30.3317120873
 20
13.7436108102
 30
0.0
 10
30.6262981436
 20
13.8527350306
 30
0.0
 10
30.7585699126
 20
13.9188709151
 30
0.0
 11
27.9301427878
 21
13.9188709163
 31
0.0
 11
28.344356323
 21
13.7599523015
 31
0.0
 11
28.8267182231
 21
13.6600518761
 31
0.0
 11
29.3443563396
 21
13.6259776974
 31
0.0
 11
29.8619944608
 21
13.6600518739
 31
0.0
 11
30.3443563705
 21
13.7599522995
 31
0.0
 11
30.7585699126
 21
13.9188709151
 31
0.0
  0
SPLINE
  5
441
100
AcDbEntity
  8
RACCORDO
100
AcDbSpline
 62
253
  6
CONTINUOUS
 70
0
 71
3
 72
13
 73
9
 74
7
 42
0.0000001
 43
0.0000001
 44
0.0000000001
 12
0.0
 22
2.9415663124
 32
0.0
 13
2.6310168939
 23
1.315508447
 33
0.0
 40
0.0
 40
0.0
 40
0.0
 40
0.0
 40
0.1614219316
 40
0.3342559043
 40
0.511697351
 40
0.6862432064
 40
0.8508246292
 40
1.0
 40
1.0
 40
1.0
 40
1.0
 10
22.2732885383
 20
23.6755012713
 30
0.0
 10
22.2732885383
 20
23.8337790433
 30
0.0
 10
22.3095387606
 20
24.1619867572
 30
0.0
 10
22.4515168132
 20
24.6454019765
 30
0.0
 10
22.6741781179
 20
25.1117491505
 30
0.0
 10
22.9631885441
 20
25.5305167744
 30
0.0
 10
23.2996086458
 20
25.8745160553
 30
0.0
 10
23.5566744605
 20
26.0492450399
 30
0.0
 10
23.6875021007
 20
26.11465886
 30
0.0
 11
22.2732885383
 21
23.6755012713
 31
0.0
 11
22.3214766969
 21
24.1478830866
 31
0.0
 11
22.4627572293
 21
24.6362610205
 31
0.0
 11
22.6875021007
 21
25.1073529239
 31
0.0
 11
22.9803953195
 21
25.5290546619
 31
0.0
 11
23.3214766969
 21
25.8726279581
 31
0.0
 11
23.6875021007
 21
26.11465886
 31
0.0
  0
SPLINE
  5
442
100
AcDbEntity
  8
RACCORDO
100
AcDbSpline
 62
253
  6
CONTINUOUS
 70
0
 71
3
 72
13
 73
9
 74
7
 42
0.0000001
 43
0.0000001
 44
0.0000000001
 12
0.0
 22
2.941566313
 32
0.0
 13
2.6310168944
 23
1.3155084472
 33
0.0
 40
0.0
 40
0.0
 40
0.0
 40
0.0
 40
0.1614219216
 40
0.3342558914
 40
0.5116973474
 40
0.6862432131
 40
0.8508246361
 40
1.0
 40
1.0
 40
1.0
 40
1.0
 10
-63.9937387664
 20
66.8090149237
 30
0.0
 10
-63.9937387664
 20
66.9672926859
 30
0.0
 10
-63.9574885477
 20
67.2955003871
 30
0.0
 10
-63.8155105015
 20
67.7789156046
 30
0.0
 10
-63.5928491929
 20
68.2452627955
 30
0.0
 10
-63.3038387548
 20
68.6640304352
 30
0.0
 10
-62.9674186481
 20
69.0080297168
 30
0.0
 10
-62.7103528373
 20
69.1827586948
 30
0.0
 10
-62.5795252031
 20
69.2481725119
 30
0.0
 11
-63.9937387664
 21
66.8090149237
 31
0.0
 11
-63.9455506136
 21
67.2813967099
 31
0.0
 11
-63.804270089
 21
67.7697746375
 31
0.0
 11
-63.5795252094
 21
68.2408665671
 31
0.0
 11
-63.2866319723
 21
68.6625683298
 31
0.0
 11
-62.9455505918
 21
69.0061416237
 31
0.0
 11
-62.5795252031
 21
69.2481725119
 31
0.0
  0
SPLINE
  5
443
100
AcDbEntity
  8
RACCORDO
100
AcDbSpline
 62
253
  6
CONTINUOUS
 70
0
 71
3
 72
10
 73
6
 74
4
 42
0.0000001
 43
0.0000001
 44
0.0000000001
 12
-0.8588211978
 22
0.4294105989
 32
0.0
 13
0.0
 23
0.9645276564
 33
0.0
 40
0.0
 40
0.0
 40
0.0
 40
0.0
 40
0.3950875622
 40
0.7212632404
 40
1.0
 40
1.0
 40
1.0
 40
1.0
 10
-69.6505930159
 20
62.7092388181
 30
0.0
 10
-69.7636962071
 20
62.7657904137
 30
0.0
 10
-69.9617488265
 20
62.8888288207
 30
0.0
 10
-70.1797774541
 20
63.1322442362
 30
0.0
 10
-70.2363794536
 20
63.3267291615
 30
0.0
 10
-70.2363794536
 20
63.4163455993
 30
0.0
 11
-69.6505930159
 21
62.7092388181
 31
0.0
 11
-69.9684302611
 21
62.9163455993
 31
0.0
 11
-70.1682311061
 21
63.1575265542
 31
0.0
 11
-70.2363794536
 21
63.4163455993
 31
0.0
  0
SPLINE
  5
444
100
AcDbEntity
  8
RACCORDO
100
AcDbSpline
 62
253
  6
CONTINUOUS
 70
0
 71
3
 72
10
 73
6
 74
4
 42
0.0000001
 43
0.0000001
 44
0.0000000001
 12
-0.8588211977
 22
0.4294105988
 32
0.0
 13
0.0000000012
 23
0.9645276562
 33
0.0
 40
0.0
 40
0.0
 40
0.0
 40
0.0
 40
0.3950875408
 40
0.721263219
 40
1.0
 40
1.0
 40
1.0
 40
1.0
 10
-69.6505930159
 20
-22.1612507527
 30
0.0
 10
-69.7636962009
 20
-22.1046991602
 30
0.0
 10
-69.9617488146
 20
-21.9816607579
 30
0.0
 10
-70.1797774474
 20
-21.7382453481
 30
0.0
 10
-70.2363794537
 20
-21.5437604162
 30
0.0
 10
-70.2363794536
 20
-21.4541439716
 30
0.0
 11
-69.6505930159
 21
-22.1612507527
 31
0.0
 11
-69.9684302454
 21
-21.9541439851
 31
0.0
 11
-70.1682310963
 21
-21.7129630351
 31
0.0
 11
-70.2363794536
 21
-21.4541439716
 31
0.0
  0
SPLINE
  5
445
100
AcDbEntity
  8
ASSI
100
AcDbSpline
 62
7
  6
CONTINUOUS
 70
0
 71
3
 72
9
 73
5
 74
3
 42
0.0000001
 43
0.0000001
 44
0.0000000001
 12
0.4431525932
 22
0.2168251873
 32
0.0
 13
0.4807515655
 23
-0.083984905
 33
0.0
 40
0.0
 40
0.0
 40
0.0
 40
0.0
 40
0.6275051589
 40
1.0
 40
1.0
 40
1.0
 40
1.0
 10
45.1097998187
 20
-10.4940414709
 30
0.0
 10
45.2024933315
 20
-10.4486884963
 30
0.0
 10
45.366016475
 20
-10.4056877888
 30
0.0
 10
45.5284981943
 20
-10.4175906211
 30
0.0
 10
45.588190687
 20
-10.4280186024
 30
0.0
 11
45.1097998187
 21
-10.4940414709
 31
0.0
 11
45.4073064898
 21
-10.4163411321
 31
0.0
 11
45.588190687
 21
-10.4280186024
 31
0.0
  0
SPLINE
  5
446
100
AcDbEntity
  8
ASSI
100
AcDbSpline
 62
7
  6
CONTINUOUS
 70
0
 71
3
 72
8
 73
4
 74
2
 42
0.0000001
 43
0.0000001
 44
0.0000000001
 12
0.1968692437
 22
-0.0343920767
 32
0.0
 13
0.1881056999
 23
-0.0713867806
 33
0.0
 40
0.0
 40
0.0
 40
0.0
 40
0.0
 40
1.0
 40
1.0
 40
1.0
 40
1.0
 10
45.588190687
 20
-10.4280186024
 30
0.0
 10
45.6538137682
 20
-10.439482628
 30
0.0
 10
45.7184323908
 20
-10.4581911426
 30
0.0
 10
45.7811342908
 20
-10.4819867362
 30
0.0
 11
45.588190687
 21
-10.4280186024
 31
0.0
 11
45.7811342908
 21
-10.4819867362
 31
0.0
  0
SPLINE
  5
447
100
AcDbEntity
  8
ASSI
100
AcDbSpline
 62
7
  6
CONTINUOUS
 70
0
 71
3
 72
8
 73
4
 74
2
 42
0.0000001
 43
0.0000001
 44
0.0000000001
 12
0.2117632583
 22
-0.080364908
 32
0.0
 13
0.1932835828
 23
-0.1098134163
 33
0.0
 40
0.0
 40
0.0
 40
0.0
 40
0.0
 40
1.0
 40
1.0
 40
1.0
 40
1.0
 10
45.7811342908
 20
-10.4819867362
 30
0.0
 10
45.8517220435
 20
-10.5087750389
 30
0.0
 10
45.9198806337
 20
-10.542010462
 30
0.0
 10
45.9843084947
 20
-10.5786149341
 30
0.0
 11
45.7811342908
 21
-10.4819867362
 31
0.0
 11
45.9843084947
 21
-10.5786149341
 31
0.0
  0
SPLINE
  5
448
100
AcDbEntity
  8
ASSI
100
AcDbSpline
 62
7
  6
CONTINUOUS
 70
0
 71
3
 72
10
 73
6
 74
4
 42
0.0000001
 43
0.0000001
 44
0.0000000001
 12
-1.6608407359
 22
-1.110779163
 32
0.0
 13
0.3381396436
 23
-1.9672443538
 33
0.0
 40
0.0
 40
0.0
 40
0.0
 40
0.0
 40
0.3333653638
 40
0.7383638034
 40
1.0
 40
1.0
 40
1.0
 40
1.0
 10
44.6638485868
 20
-9.8829501372
 30
0.0
 10
44.4792929947
 20
-10.0063819038
 30
0.0
 10
44.1776695633
 20
-10.4321362936
 30
0.0
 10
44.0857258594
 20
-11.1036675895
 30
0.0
 10
44.1272048709
 20
-11.5464493349
 30
0.0
 10
44.1566947277
 20
-11.7180167784
 30
0.0
 11
44.6638485868
 21
-9.8829501372
 31
0.0
 11
44.2545776799
 21
-10.4051167843
 31
0.0
 11
44.110476557
 21
-11.1981370905
 31
0.0
 11
44.1566947277
 21
-11.7180167784
 31
0.0
  0
SPLINE
  5
449
100
AcDbEntity
  8
RACCORDO
100
AcDbSpline
 62
7
  6
CONTINUOUS
 70
0
 71
3
 72
11
 73
7
 74
5
 42
0.0000001
 43
0.0000001
 44
0.0000000001
 12
-0.2116140733
 22
-13.7415759115
 32
0.0
 13
-12.1886191248
 23
-6.4639319449
 33
0.0
 40
0.0
 40
0.0
 40
0.0
 40
0.0
 40
0.27927334
 40
0.5537844759
 40
0.7997866821
 40
1.0
 40
1.0
 40
1.0
 40
1.0
 10
39.7090111714
 20
-46.7558128993
 30
0.0
 10
39.6893117818
 20
-48.0350314999
 30
0.0
 10
39.4368755356
 20
-50.5760285653
 30
0.0
 10
38.2795420788
 20
-54.0909713211
 30
0.0
 10
36.3721170578
 20
-56.8510938953
 30
0.0
 10
34.7093724068
 20
-58.099264872
 30
0.0
 10
33.8959311148
 20
-58.5306532926
 30
0.0
 11
39.7090111714
 21
-46.7558128993
 31
0.0
 11
39.2951046445
 21
-50.5706173765
 31
0.0
 11
38.0646359686
 21
-54.134436298
 31
0.0
 11
36.1044902182
 21
-56.8864315232
 31
0.0
 11
33.8959311148
 21
-58.5306532926
 31
0.0
  0
SPLINE
  5
44A
100
AcDbEntity
  8
RACCORDO
100
AcDbSpline
 62
7
  6
CONTINUOUS
 70
0
 71
3
 72
14
 73
10
 74
8
 42
0.0000001
 43
0.0000001
 44
0.0000000001
 12
28.5560527371
 22
-14.2780263685
 32
0.0
 13
-0.0000000001
 23
-31.9266375447
 33
0.0
 40
0.0
 40
0.0
 40
0.0
 40
0.0
 40
0.1286131172
 40
0.2678549272
 40
0.4147078145
 40
0.5654326233
 40
0.7158878197
 40
0.8619507148
 40
1.0
 40
1.0
 40
1.0
 40
1.0
 10
24.3468477305
 20
33.7354147942
 30
0.0
 10
25.571075383
 20
33.123300968
 30
0.0
 10
27.9790408081
 20
31.5563108006
 30
0.0
 10
31.2078419572
 20
28.521539892
 30
0.0
 10
34.0826297883
 20
24.8469337774
 30
0.0
 10
36.4768748633
 20
20.7066785193
 30
0.0
 10
38.2862544279
 20
16.2878054071
 30
0.0
 10
39.4269363227
 20
11.7903522074
 30
0.0
 10
39.7117410434
 20
8.7630320089
 30
0.0
 10
39.7117410434
 20
7.2938821784
 30
0.0
 11
24.3468477305
 21
33.7354147942
 31
0.0
 11
27.8091327032
 21
31.5278521339
 31
0.0
 11
31.0669536642
 21
28.5030751939
 31
0.0
 11
33.9674813195
 21
24.8194426313
 31
0.0
 11
36.3803870031
 21
20.6559654433
 31
0.0
 11
38.1955602655
 21
16.2086030448
 31
0.0
 11
39.326140503
 21
11.6844314883
 31
0.0
 11
39.7117410434
 21
7.2938821784
 31
0.0
  0
SPLINE
  5
44B
100
AcDbEntity
  8
RACCORDO
100
AcDbSpline
 62
7
  6
CONTINUOUS
 70
0
 71
3
 72
10
 73
6
 74
4
 42
0.0000001
 43
0.0000001
 44
0.0000000001
 12
9.118926683
 22
4.3104578467
 32
0.0
 13
9.0885208109
 23
-4.2987561681
 33
0.0
 40
0.0
 40
0.0
 40
0.0
 40
0.0
 40
0.3146643881
 40
0.6565836719
 40
1.0
 40
1.0
 40
1.0
 40
1.0
 10
-46.550811479
 20
64.8215111631
 30
0.0
 10
-45.5943443174
 20
65.2736270234
 30
0.0
 10
-43.4247637748
 20
65.8483484321
 30
0.0
 10
-40.0350984819
 20
65.5828924488
 30
0.0
 10
-37.8526501813
 20
64.8023620905
 30
0.0
 10
-36.812268033
 20
64.3102744043
 30
0.0
 11
-46.550811479
 21
64.8215111631
 31
0.0
 11
-43.5019573668
 21
65.6524610056
 31
0.0
 11
-40.075172064
 21
65.4342919482
 31
0.0
 11
-36.812268033
 21
64.3102744043
 31
0.0
  0
SPLINE
  5
44C
100
AcDbEntity
  8
RACCORDO
100
AcDbSpline
 62
7
  6
CONTINUOUS
 70
0
 71
3
 72
8
 73
4
 74
2
 42
0.0000001
 43
0.0000001
 44
0.0000000001
 12
0.1508705811
 22
0.0741903606
 32
0.0
 13
0.1667094031
 23
0.0350125716
 33
0.0
 40
0.0
 40
0.0
 40
0.0
 40
0.0
 40
1.0
 40
1.0
 40
1.0
 40
1.0
 10
66.8192782128
 20
38.3255667494
 30
0.0
 10
66.8695684065
 20
38.3502968697
 30
0.0
 10
66.9235325903
 20
38.3686092143
 30
0.0
 10
66.9791023913
 20
38.3802800715
 30
0.0
 11
66.8192782128
 21
38.3255667494
 31
0.0
 11
66.9791023913
 21
38.3802800715
 31
0.0
  0
SPLINE
  5
44D
100
AcDbEntity
  8
RACCORDO
100
AcDbSpline
 62
7
  6
CONTINUOUS
 70
0
 71
3
 72
9
 73
5
 74
3
 42
0.0000001
 43
0.0000001
 44
0.0000000001
 12
0.2520928667
 22
0.0298106003
 32
0.0
 13
0.2456585881
 23
-0.0582566518
 33
0.0
 40
0.0
 40
0.0
 40
0.0
 40
0.0
 40
0.486236786
 40
1.0
 40
1.0
 40
1.0
 40
1.0
 10
67.0419261095
 20
38.3905653425
 30
0.0
 10
67.0827850513
 20
38.3953970127
 30
0.0
 10
67.1677127242
 20
38.3980958137
 30
0.0
 10
67.2511725463
 20
38.3855505018
 30
0.0
 10
67.2932426615
 20
38.3755737936
 30
0.0
 11
67.0419261095
 21
38.3905653425
 31
0.0
 11
67.1650279303
 21
38.3944174175
 31
0.0
 11
67.2932426615
 21
38.3755737936
 31
0.0
  0
SPLINE
  5
44E
100
AcDbEntity
  8
RACCORDO
100
AcDbSpline
 62
7
  6
CONTINUOUS
 70
0
 71
3
 72
12
 73
8
 74
6
 42
0.0000001
 43
0.0000001
 44
0.0000000001
 12
1.8237832498
 22
-0.4325006776
 32
0.0
 13
-0.9125726242
 23
-1.6350685354
 33
0.0
 40
0.0
 40
0.0
 40
0.0
 40
0.0
 40
0.1459707164
 40
0.3862352492
 40
0.6274244622
 40
0.8475853572
 40
1.0
 40
1.0
 40
1.0
 40
1.0
 10
67.2932426615
 20
38.3755737936
 30
0.0
 10
67.3819823107
 20
38.354529649
 30
0.0
 10
67.6072675895
 20
38.2572735177
 30
0.0
 10
67.8873853221
 20
37.9731386691
 30
0.0
 10
68.0703696608
 20
37.5702165301
 30
0.0
 10
68.0984724349
 20
37.1813399276
 30
0.0
 10
68.0246680894
 20
36.9565875728
 30
0.0
 10
67.9783049459
 20
36.8735181106
 30
0.0
 11
67.2932426615
 21
38.3755737936
 31
0.0
 11
67.5447189798
 21
38.2699256815
 31
0.0
 11
67.8647125455
 21
37.9589990514
 31
0.0
 11
68.0487421588
 21
37.5506614587
 31
0.0
 11
68.0698464256
 21
37.1423651932
 31
0.0
 11
67.9783049459
 21
36.8735181106
 31
0.0
  0
SPLINE
  5
44F
100
AcDbEntity
  8
DRAFT
100
AcDbSpline
 62
7
  6
CONTINUOUS
 70
0
 71
3
 72
10
 73
6
 74
4
 42
0.0000001
 43
0.0000001
 44
0.0000000001
 12
1.6609386135
 22
1.3579244047
 32
0.0
 13
0.8317723323
 23
1.9745807068
 33
0.0
 40
0.0
 40
0.0
 40
0.0
 40
0.0
 40
0.3939925497
 40
0.9211154218
 40
1.0
 40
1.0
 40
1.0
 40
1.0
 10
56.0398906979
 20
23.0578700989
 30
0.0
 10
56.2580231776
 20
23.2362074651
 30
0.0
 10
56.7199137546
 20
23.7120991467
 30
0.0
 10
57.0864387653
 20
24.3317356155
 30
0.0
 10
57.2605436894
 20
24.7281080778
 30
0.0
 10
57.2824150259
 20
24.7800293998
 30
0.0
 11
56.0398906979
 21
23.0578700989
 31
0.0
 11
56.6304183458
 21
23.6606739174
 31
0.0
 11
57.2144033375
 21
24.6252693011
 31
0.0
 11
57.2824150259
 21
24.7800293998
 31
0.0
  0
SPLINE
  5
450
100
AcDbEntity
  8
DRAFT
100
AcDbSpline
 62
7
  6
CONTINUOUS
 70
0
 71
3
 72
10
 73
6
 74
4
 42
0.0000001
 43
0.0000001
 44
0.0000000001
 12
0.6661165049
 22
1.4488127259
 32
0.0
 13
0.3215256951
 23
1.560762573
 33
0.0
 40
0.0
 40
0.0
 40
0.0
 40
0.0
 40
0.0593436858
 40
0.9628581497
 40
1.0
 40
1.0
 40
1.0
 40
1.0
 10
57.3792592235
 20
23.5575774684
 30
0.0
 10
57.3924358264
 20
23.5862367641
 30
0.0
 10
57.602552472
 20
24.0528665111
 30
0.0
 10
57.7594360694
 20
24.5630452867
 30
0.0
 10
57.8620135318
 20
25.0520785366
 30
0.0
 10
57.8659942182
 20
25.0714017399
 30
0.0
 11
57.3792592235
 21
23.5575774684
 31
0.0
 11
57.4181116534
 21
23.6438496465
 31
0.0
 11
57.8538428298
 21
25.0134737785
 31
0.0
 11
57.8659942182
 21
25.0714017399
 31
0.0
  0
SPLINE
  5
451
100
AcDbEntity
  8
DRAFT
100
AcDbSpline
 62
7
  6
CONTINUOUS
 70
0
 71
3
 72
10
 73
6
 74
4
 42
0.0000001
 43
0.0000001
 44
0.0000000001
 12
6.6051921189
 22
0.7196751177
 32
0.0
 13
5.9228352112
 23
-2.9614176056
 33
0.0
 40
0.0
 40
0.0
 40
0.0
 40
0.0
 40
0.1684088817
 40
0.564434228
 40
1.0
 40
1.0
 40
1.0
 40
1.0
 10
-45.4374972938
 20
63.0191540871
 30
0.0
 10
-45.0667062878
 20
63.059553981
 30
0.0
 10
-43.8150908324
 20
63.1144571699
 30
0.0
 10
-41.6128028777
 20
62.7706910529
 30
0.0
 10
-39.8927974876
 20
62.0899148154
 30
0.0
 10
-39.0328693906
 20
61.6599507669
 30
0.0
 11
-45.4374972938
 21
63.0191540871
 31
0.0
 11
-44.3205861257
 21
63.0701555121
 31
0.0
 11
-41.7251463065
 21
62.6947230815
 31
0.0
 11
-39.0328693906
 21
61.6599507669
 31
0.0
  0
SPLINE
  5
452
100
AcDbEntity
  8
DRAFT
100
AcDbSpline
 62
7
  6
CONTINUOUS
 70
0
 71
3
 72
9
 73
5
 74
3
 42
0.0000001
 43
0.0000001
 44
0.0000000001
 12
1.2046900571
 22
-1.0990826922
 32
0.0
 13
1.3006135296
 23
-0.9838858479
 33
0.0
 40
0.0
 40
0.0
 40
0.0
 40
0.0
 40
0.0710497112
 40
1.0
 40
1.0
 40
1.0
 40
1.0
 10
47.1295929969
 20
19.7459339712
 30
0.0
 10
47.1581239571
 20
19.7199041352
 30
0.0
 10
47.5608268215
 20
19.3547393679
 30
0.0
 10
47.9796022592
 20
19.0065820848
 30
0.0
 10
48.3823373638
 20
18.7019217373
 30
0.0
 11
47.1295929969
 21
19.7459339712
 31
0.0
 11
47.2154289368
 21
19.6681002875
 31
0.0
 11
48.3823373638
 21
18.7019217373
 31
0.0
  0
SPLINE
  5
453
100
AcDbEntity
  8
DRAFT
100
AcDbSpline
 62
7
  6
CONTINUOUS
 70
0
 71
3
 72
12
 73
8
 74
6
 42
0.0000001
 43
0.0000001
 44
0.0000000001
 12
3.6752242646
 22
-0.9294373534
 32
0.0
 13
2.9369893957
 23
2.4011500742
 33
0.0
 40
0.0
 40
0.0
 40
0.0
 40
0.0
 40
0.1031010459
 40
0.3972748797
 40
0.6734467997
 40
0.9437666645
 40
1.0
 40
1.0
 40
1.0
 40
1.0
 10
51.9566514817
 20
21.9887099898
 30
0.0
 10
52.0829579702
 20
21.9567680021
 30
0.0
 10
52.5739471183
 20
21.85048041
 30
0.0
 10
53.4292344513
 20
21.7914818434
 30
0.0
 10
54.4829907468
 20
21.9987571002
 30
0.0
 10
55.1650248577
 20
22.3581367237
 30
0.0
 10
55.4922103466
 20
22.6103186706
 30
0.0
 10
55.5472625833
 20
22.6553268965
 30
0.0
 11
51.9566514817
 21
21.9887099898
 31
0.0
 11
52.3387146384
 21
21.9064148358
 31
0.0
 11
53.4495881216
 21
21.8406078397
 31
0.0
 11
54.4733140094
 21
22.0490053286
 31
0.0
 11
55.3782704639
 21
22.5251701191
 31
0.0
 11
55.5472625833
 21
22.6553268965
 31
0.0
  0
SPLINE
  5
454
100
AcDbEntity
  8
ASSI
100
AcDbSpline
 62
7
  6
CONTINUOUS
 70
0
 71
3
 72
9
 73
5
 74
3
 42
0.0000001
 43
0.0000001
 44
0.0000000001
 12
-0.2269233256
 22
1.1266796958
 32
0.0
 13
-0.4337061674
 23
1.0611569594
 33
0.0
 40
0.0
 40
0.0
 40
0.0
 40
0.0
 40
0.2731106036
 40
1.0
 40
1.0
 40
1.0
 40
1.0
 10
56.616295811
 20
-4.9985356431
 30
0.0
 10
56.5956374222
 20
-4.8959662525
 30
0.0
 10
56.509362979
 20
-4.5224905577
 30
0.0
 10
56.3878600862
 20
-4.1593000466
 30
0.0
 10
56.2827746148
 20
-3.902185466
 30
0.0
 11
56.616295811
 21
-4.9985356431
 31
0.0
 11
56.5458848227
 21
-4.6927330733
 31
0.0
 11
56.2827746148
 21
-3.902185466
 31
0.0
  0
SPLINE
  5
455
100
AcDbEntity
  8
DRAFT
100
AcDbSpline
 62
7
  6
CONTINUOUS
 70
0
 71
3
 72
11
 73
7
 74
5
 42
0.0000001
 43
0.0000001
 44
0.0000000001
 12
0.0
 22
-10.0341940981
 32
0.0
 13
-6.8993665619
 23
-7.3381330509
 33
0.0
 40
0.0
 40
0.0
 40
0.0
 40
0.0
 40
0.3169576881
 40
0.6061337487
 40
0.8691485019
 40
1.0
 40
1.0
 40
1.0
 40
1.0
 10
36.1609694176
 20
-47.2456273868
 30
0.0
 10
36.1609694176
 20
-48.3057657079
 30
0.0
 10
36.0127015295
 20
-50.3383368262
 30
0.0
 10
35.2800750149
 20
-53.1709064685
 30
0.0
 10
34.2337661383
 20
-55.2252329687
 30
0.0
 10
33.3996912157
 20
-56.2592146599
 30
0.0
 10
33.0987603989
 20
-56.5792832274
 30
0.0
 11
36.1609694176
 21
-47.2456273868
 31
0.0
 11
35.9067400261
 21
-50.4158650362
 31
0.0
 11
35.1536954528
 21
-53.2180943573
 31
0.0
 11
33.9284223692
 21
-55.5555655414
 31
0.0
 11
33.0987603989
 21
-56.5792832274
 31
0.0
  0
SPLINE
  5
456
100
AcDbEntity
  8
DRAFT
100
AcDbSpline
 62
7
  6
CONTINUOUS
 70
0
 71
3
 72
10
 73
6
 74
4
 42
0.0000001
 43
0.0000001
 44
0.0000000001
 12
2.726200886
 22
-8.1899120474
 32
0.0
 13
0.0
 23
-8.6271231077
 33
0.0
 40
0.0
 40
0.0
 40
0.0
 40
0.0
 40
0.180718625
 40
0.6019656943
 40
1.0
 40
1.0
 40
1.0
 40
1.0
 10
34.6982045206
 20
14.9194110866
 30
0.0
 10
34.8624296125
 20
14.4260545386
 30
0.0
 10
35.3687908996
 20
12.7692766397
 30
0.0
 10
35.9746377024
 20
9.9508347761
 30
0.0
 10
36.1609694176
 20
7.5925779664
 30
0.0
 10
36.1609694176
 20
6.4479476478
 30
0.0
 11
34.6982045206
 21
14.9194110866
 31
0.0
 11
35.1536954528
 21
13.4276885829
 31
0.0
 11
35.9067400261
 21
9.8724146887
 31
0.0
 11
36.1609694176
 21
6.4479476478
 31
0.0
  0
SPLINE
  5
457
100
AcDbEntity
  8
DRAFT
100
AcDbSpline
 62
7
  6
CONTINUOUS
 70
0
 71
3
 72
10
 73
6
 74
4
 42
0.0000001
 43
0.0000001
 44
0.0000000001
 12
7.8009265079
 22
-3.9004632539
 32
0.0
 13
5.7222175326
 23
-6.5902987314
 33
0.0
 40
0.0
 40
0.0
 40
0.0
 40
0.0
 40
0.3624974059
 40
0.7540916962
 40
1.0
 40
1.0
 40
1.0
 40
1.0
 10
21.7783137915
 20
31.2543591758
 30
0.0
 10
22.7209189991
 20
30.7830565721
 30
0.0
 10
24.5901376897
 20
29.6137997218
 30
0.0
 10
26.7967618482
 20
27.7070977809
 30
0.0
 10
28.0651313525
 20
26.3525081004
 30
0.0
 10
28.5341782883
 20
25.8123050396
 30
0.0
 11
21.7783137915
 21
31.2543591758
 31
0.0
 11
24.4705907074
 21
29.5968545745
 31
0.0
 11
27.0660305267
 21
27.3768471859
 31
0.0
 11
28.5341782883
 21
25.8123050396
 31
0.0
  0
SPLINE
  5
458
100
AcDbEntity
  8
DRAFT
100
AcDbSpline
 62
7
  6
CONTINUOUS
 70
0
 71
3
 72
9
 73
5
 74
3
 42
0.0000001
 43
0.0000001
 44
0.0000000001
 12
3.2393465203
 22
-3.7977589813
 32
0.0
 13
2.5878431711
 23
-4.2640894858
 33
0.0
 40
0.0
 40
0.0
 40
0.0
 40
0.0
 40
0.2455330305
 40
1.0
 40
1.0
 40
1.0
 40
1.0
 10
28.6990729178
 20
25.6206961066
 30
0.0
 10
28.9641951071
 20
25.309871016
 30
0.0
 10
30.0171971091
 20
24.0209316637
 30
0.0
 10
30.9622934024
 20
22.647515303
 30
0.0
 10
31.6131074673
 20
21.5751437457
 30
0.0
 11
28.6990729178
 21
25.6206961066
 31
0.0
 11
29.4747833983
 21
24.6718238248
 31
0.0
 11
31.6131074673
 21
21.5751437457
 31
0.0
  0
SPLINE
  5
459
100
AcDbEntity
  8
DRAFT
100
AcDbSpline
 62
7
  6
CONTINUOUS
 70
0
 71
3
 72
9
 73
5
 74
3
 42
0.0000001
 43
0.0000001
 44
0.0000000001
 12
1.3528968547
 22
-0.6104879814
 32
0.0
 13
1.4523130044
 23
-0.3142891676
 33
0.0
 40
0.0
 40
0.0
 40
0.0
 40
0.0
 40
0.4261102055
 40
1.0
 40
1.0
 40
1.0
 40
1.0
 10
51.633584335
 20
21.6831433981
 30
0.0
 10
51.8257453873
 20
21.5964316784
 30
0.0
 10
52.2846906306
 20
21.4106091238
 30
0.0
 10
52.7618085901
 20
21.2718654372
 30
0.0
 10
53.0396311273
 20
21.2117429886
 30
0.0
 11
51.633584335
 21
21.6831433981
 31
0.0
 11
52.2201675095
 21
21.4466180103
 31
0.0
 11
53.0396311273
 21
21.2117429886
 31
0.0
  0
SPLINE
  5
45A
100
AcDbEntity
  8
ASSI
100
AcDbSpline
 62
7
  6
CONTINUOUS
 70
0
 71
3
 72
9
 73
5
 74
3
 42
0.0000001
 43
0.0000001
 44
0.0000000001
 12
0.1123816312
 22
0.5148083474
 32
0.0
 13
-0.0731104605
 23
0.5091737911
 33
0.0
 40
0.0
 40
0.0
 40
0.0
 40
0.0
 40
0.3713154433
 40
1.0
 40
1.0
 40
1.0
 40
1.0
 10
13.0815458476
 20
60.3136327564
 30
0.0
 10
13.095455526
 20
60.3773515196
 30
0.0
 10
13.1169685664
 20
60.55388096
 30
0.0
 10
13.1081295687
 20
60.7266468847
 30
0.0
 10
13.0928084296
 20
60.8333501177
 30
0.0
 11
13.0815458476
 21
60.3136327564
 31
0.0
 11
13.1072469822
 21
60.5079288391
 31
0.0
 11
13.0928084296
 21
60.8333501177
 31
0.0
  0
SPLINE
  5
45B
100
AcDbEntity
  8
ASSI
100
AcDbSpline
 62
7
  6
CONTINUOUS
 70
0
 71
3
 72
8
 73
4
 74
2
 42
0.0000001
 43
0.0000001
 44
0.0000000001
 12
0.1196576888
 22
0.5103037946
 32
0.0
 13
-0.0747353631
 23
0.5117152495
 33
0.0
 40
0.0
 40
0.0
 40
0.0
 40
0.0
 40
1.0
 40
1.0
 40
1.0
 40
1.0
 10
13.2210786311
 20
60.385344606
 30
0.0
 10
13.2609645273
 20
60.5554458709
 30
0.0
 10
13.2592981732
 20
60.7297223634
 30
0.0
 10
13.2343863855
 20
60.9002941133
 30
0.0
 11
13.2210786311
 21
60.385344606
 31
0.0
 11
13.2343863855
 21
60.9002941133
 31
0.0
  0
SPLINE
  5
45C
100
AcDbEntity
  8
RACCORDO
100
AcDbSpline
 62
253
  6
CONTINUOUS
 70
0
 71
3
 72
9
 73
5
 74
3
 42
0.0000001
 43
0.0000001
 44
0.0000000001
 12
-0.0020159699
 22
-0.4602152213
 32
0.0
 13
-0.411153388
 23
-0.2128808985
 33
0.0
 40
0.0
 40
0.0
 40
0.0
 40
0.0
 40
0.4279959257
 40
1.0
 40
1.0
 40
1.0
 40
1.0
 10
39.7117272443
 20
-46.3996927958
 30
0.0
 10
39.7114396353
 20
-46.4653495423
 30
0.0
 10
39.6422181023
 20
-46.6194663706
 30
0.0
 10
39.5094746482
 20
-46.7064324565
 30
0.0
 10
39.4310808438
 20
-46.7470220369
 30
0.0
 11
39.7117272443
 21
-46.3996927958
 31
0.0
 11
39.6405505891
 21
-46.5849715841
 31
0.0
 11
39.4310808438
 21
-46.7470220369
 31
0.0
  0
SPLINE
  5
45D
100
AcDbEntity
  8
RACCORDO
100
AcDbSpline
 62
253
  6
CONTINUOUS
 70
0
 71
3
 72
9
 73
5
 74
3
 42
0.0000001
 43
0.0000001
 44
0.0000000001
 12
-0.0020159707
 22
-0.4602152241
 32
0.0
 13
-0.4111533907
 23
-0.2128808999
 33
0.0
 40
0.0
 40
0.0
 40
0.0
 40
0.0
 40
0.4279958992
 40
1.0
 40
1.0
 40
1.0
 40
1.0
 10
39.7117272443
 20
7.2938822389
 30
0.0
 10
39.7114396352
 20
7.228225496
 30
0.0
 10
39.6422181051
 20
7.0741086673
 30
0.0
 10
39.5094746523
 20
6.9871425757
 30
0.0
 10
39.4310808438
 20
6.9465529932
 30
0.0
 11
39.7117272443
 21
7.2938822389
 31
0.0
 11
39.6405505962
 21
7.1086034596
 31
0.0
 11
39.4310808438
 21
6.9465529932
 31
0.0
  0
SPLINE
  5
45E
100
AcDbEntity
  8
RACCORDO
100
AcDbSpline
 62
253
  6
CONTINUOUS
 70
0
 71
3
 72
9
 73
5
 74
3
 42
0.0000001
 43
0.0000001
 44
0.0000000001
 12
-0.4054069331
 22
0.1975029629
 32
0.0
 13
-0.4016788561
 23
-0.1922523369
 33
0.0
 40
0.0
 40
0.0
 40
0.0
 40
0.0
 40
0.3843300712
 40
1.0
 40
1.0
 40
1.0
 40
1.0
 10
24.3465280305
 20
33.7347585591
 30
0.0
 10
24.2945913387
 20
33.7600606684
 30
0.0
 10
24.143523888
 20
33.7966221103
 30
0.0
 10
23.9944087105
 20
33.7525061273
 30
0.0
 10
23.9119748463
 20
33.7130514664
 30
0.0
 11
24.3465280305
 21
33.7347585591
 31
0.0
 11
24.17876018
 21
33.7762471611
 31
0.0
 11
23.9119748463
 21
33.7130514664
 31
0.0
  0
SPLINE
  5
45F
100
AcDbEntity
  8
DRAFT
100
AcDbSpline
 62
7
  6
CONTINUOUS
 70
0
 71
3
 72
18
 73
14
 74
12
 42
0.0000001
 43
0.0000001
 44
0.0000000001
 12
0.0
 22
32.3892934823
 32
0.0
 13
-28.9698647879
 23
14.4849323939
 33
0.0
 40
0.0
 40
0.0
 40
0.0
 40
0.0
 40
0.0863081897
 40
0.1767391531
 40
0.2705254476
 40
0.3663289397
 40
0.4632816011
 40
0.5597960495
 40
0.6550242922
 40
0.7474614277
 40
0.8363849781
 40
0.9207107898
 40
1.0
 40
1.0
 40
1.0
 40
1.0
 10
37.3346629776
 20
5.8611008678
 30
0.0
 10
37.3346629776
 20
6.7929212967
 30
0.0
 10
37.2207752631
 20
8.7023038416
 30
0.0
 10
36.7438334407
 20
11.5883629986
 30
0.0
 10
35.966260042
 20
14.5144958006
 30
0.0
 10
34.9031354054
 20
17.4240249119
 30
0.0
 10
33.5768380401
 20
20.2558894303
 30
0.0
 10
32.0125237094
 20
22.9563756347
 30
0.0
 10
30.2433621114
 20
25.4681894087
 30
0.0
 10
28.3027805292
 20
27.7437479883
 30
0.0
 10
26.2311559039
 20
29.7353687312
 30
0.0
 10
24.0682909385
 20
31.4044666129
 30
0.0
 10
22.5439796912
 20
32.3090013942
 30
0.0
 10
21.7783137915
 20
32.6918343441
 30
0.0
 11
37.3346629776
 21
5.8611008678
 31
0.0
 11
37.1762842126
 21
8.6520720201
 31
0.0
 11
36.7047434494
 21
11.5428610286
 31
0.0
 11
35.9285599083
 21
14.4796942191
 31
0.0
 11
34.8657449276
 21
17.3950122756
 31
0.0
 11
33.534327779
 21
20.239016769
 31
0.0
 11
31.9663526177
 21
22.9433738869
 31
0.0
 11
30.1877814475
 21
25.4633057964
 31
0.0
 11
28.241326621
 21
27.7382104066
 31
0.0
 11
26.160287966
 21
29.7293565453
 31
0.0
 11
23.9924743348
 21
31.3907804922
 31
0.0
 11
21.7783137915
 21
32.6918343441
 31
0.0
  0
SPLINE
  5
460
100
AcDbEntity
  8
RACCORDO
100
AcDbSpline
 62
253
  6
CONTINUOUS
 70
0
 71
3
 72
9
 73
5
 74
3
 42
0.0000001
 43
0.0000001
 44
0.0000000001
 12
-0.4054069303
 22
0.1975029645
 32
0.0
 13
-0.4016788539
 23
-0.1922523359
 33
0.0
 40
0.0
 40
0.0
 40
0.0
 40
0.0
 40
0.3843300477
 40
1.0
 40
1.0
 40
1.0
 40
1.0
 10
-36.4646551509
 20
64.1403501501
 30
0.0
 10
-36.5165918392
 20
64.1656522581
 30
0.0
 10
-36.6676592877
 20
64.2022137025
 30
0.0
 10
-36.8167744651
 20
64.1580977177
 30
0.0
 10
-36.8992083321
 20
64.1186430556
 30
0.0
 11
-36.4646551509
 21
64.1403501501
 31
0.0
 11
-36.6324229894
 21
64.1818387518
 31
0.0
 11
-36.8992083321
 21
64.1186430556
 31
0.0
  0
SPLINE
  5
461
100
AcDbEntity
  8
RACCORDO
100
AcDbSpline
 62
253
  6
CONTINUOUS
 70
0
 71
3
 72
11
 73
7
 74
5
 42
0.0000001
 43
0.0000001
 44
0.0000000001
 12
9.0714193346
 22
4.2924604436
 32
0.0
 13
8.9361118589
 23
-4.4680559318
 33
0.0
 40
0.0
 40
0.0
 40
0.0
 40
0.0
 40
0.1103021051
 40
0.382195569
 40
0.6761256977
 40
1.0
 40
1.0
 40
1.0
 40
1.0
 10
-46.5504201261
 20
64.8206840875
 30
0.0
 10
-46.2168879097
 20
64.9785065619
 30
0.0
 10
-45.0251282175
 20
65.4487292856
 30
0.0
 10
-42.7613999199
 20
65.7768963374
 30
0.0
 10
-39.795878738
 20
65.3580909463
 30
0.0
 10
-37.8639339966
 20
64.6010058881
 30
0.0
 10
-36.8992083321
 20
64.1186430556
 30
0.0
 11
-46.5504201261
 21
64.8206840875
 31
0.0
 11
-45.5216830145
 21
65.2262058455
 31
0.0
 11
-42.8371286671
 21
65.6412851322
 31
0.0
 11
-39.9245043531
 21
65.2666454837
 31
0.0
 11
-36.8992083321
 21
64.1186430556
 31
0.0
  0
SPLINE
  5
462
100
AcDbEntity
  8
RACCORDO
100
AcDbSpline
 62
253
  6
CONTINUOUS
 70
0
 71
3
 72
10
 73
6
 74
4
 42
0.0000001
 43
0.0000001
 44
0.0000000001
 12
0.0026750004
 22
-1.4261887058
 32
0.0
 13
-1.2422564569
 23
-0.649694293
 33
0.0
 40
0.0
 40
0.0
 40
0.0
 40
0.0
 40
0.1569560906
 40
0.5309882133
 40
1.0
 40
1.0
 40
1.0
 40
1.0
 10
70.2639134213
 20
-27.3488899326
 30
0.0
 10
70.2640533739
 20
-27.4235062672
 30
0.0
 10
70.2309164526
 20
-27.6757491993
 30
0.0
 10
69.9509697253
 20
-28.0761331136
 30
0.0
 10
69.6187613471
 20
-28.2970939792
 30
0.0
 10
69.4245503736
 20
-28.3986654062
 30
0.0
 11
70.2639134213
 21
-27.3488899326
 31
0.0
 11
70.2343705259
 21
-27.5691645927
 31
0.0
 11
69.9586225907
 21
-28.0151568925
 31
0.0
 11
69.4245503736
 21
-28.3986654062
 31
0.0
  0
SPLINE
  5
463
100
AcDbEntity
  8
RACCORDO
100
AcDbSpline
 62
253
  6
CONTINUOUS
 70
0
 71
3
 72
8
 73
4
 74
2
 42
0.0000001
 43
0.0000001
 44
0.0000000001
 12
0.0802097475
 22
0.1559303512
 32
0.0
 13
-0.0007293283
 23
0.1732955931
 33
0.0
 40
0.0
 40
0.0
 40
0.0
 40
0.0
 40
1.0
 40
1.0
 40
1.0
 40
1.0
 10
69.39015394
 20
-28.5693800222
 30
0.0
 10
69.4168905225
 20
-28.5174032384
 30
0.0
 10
69.424793483
 20
-28.4564306039
 30
0.0
 10
69.4245503736
 20
-28.3986654062
 30
0.0
 11
69.39015394
 21
-28.5693800222
 31
0.0
 11
69.4245503736
 21
-28.3986654062
 31
0.0
  0
SPLINE
  5
464
100
AcDbEntity
  8
DRAFT
100
AcDbSpline
 62
7
  6
CONTINUOUS
 70
0
 71
3
 72
11
 73
7
 74
5
 42
0.0000001
 43
0.0000001
 44
0.0000000001
 12
-6.5928070564
 22
3.2964035282
 32
0.0
 13
-7.3236072003
 23
-0.9629035209
 33
0.0
 40
0.0
 40
0.0
 40
0.0
 40
0.0
 40
0.3249297288
 40
0.6269482304
 40
0.9095400402
 40
1.0
 40
1.0
 40
1.0
 40
1.0
 10
-39.0328693906
 20
63.0974259351
 30
0.0
 10
-39.7469357268
 20
63.4544591032
 30
0.0
 10
-41.1739216133
 20
64.0521195226
 30
0.0
 10
-43.3573174205
 20
64.576596471
 30
0.0
 10
-45.0249799159
 20
64.659214019
 30
0.0
 10
-45.9400472218
 20
64.5725769749
 30
0.0
 10
-46.1608782928
 20
64.543542237
 30
0.0
 11
-39.0328693906
 21
63.0974259351
 31
0.0
 11
-41.2470299338
 21
64.0105326265
 31
0.0
 11
-43.4148435651
 21
64.5169223109
 31
0.0
 11
-45.49588222
 21
64.6068148271
 31
0.0
 11
-46.1608782928
 21
64.543542237
 31
0.0
  0
SPLINE
  5
465
100
AcDbEntity
  8
RACCORDO
100
AcDbSpline
 62
253
  6
CONTINUOUS
 70
0
 71
3
 72
8
 73
4
 74
2
 42
0.0000001
 43
0.0000001
 44
0.0000000001
 12
0.077673456
 22
0.0019289391
 32
0.0
 13
0.0762403416
 23
-0.0219859593
 33
0.0
 40
0.0
 40
0.0
 40
0.0
 40
0.0
 40
1.0
 40
1.0
 40
1.0
 40
1.0
 10
-3.060008954
 20
75.629723854
 30
0.0
 10
-3.034117802
 20
75.6303668337
 30
0.0
 10
-3.0077694048
 20
75.6262246106
 30
0.0
 10
-2.9823559576
 20
75.6188959575
 30
0.0
 11
-3.060008954
 21
75.629723854
 31
0.0
 11
-2.9823559576
 21
75.6188959575
 31
0.0
  0
SPLINE
  5
466
100
AcDbEntity
  8
RACCORDO
100
AcDbSpline
 62
253
  6
CONTINUOUS
 70
0
 71
3
 72
12
 73
8
 74
6
 42
0.0000001
 43
0.0000001
 44
0.0000000001
 12
0.0000000014
 22
-13.6411027629
 32
0.0
 13
-12.1130729319
 23
-6.405681015
 33
0.0
 40
0.0
 40
0.0
 40
0.0
 40
0.0
 40
0.2614479637
 40
0.4995630349
 40
0.7153847019
 40
0.9147458851
 40
1.0
 40
1.0
 40
1.0
 40
1.0
 10
39.4310808438
 20
-46.7470220415
 30
0.0
 10
39.4310808439
 20
-47.9358348879
 30
0.0
 10
39.2584059415
 20
-50.2138735708
 30
0.0
 10
38.4016116108
 20
-53.37554645
 30
0.0
 10
36.9710983791
 20
-56.0163180176
 30
0.0
 10
35.3464452205
 20
-57.6600364573
 30
0.0
 10
34.2398257528
 20
-58.3479821205
 30
0.0
 10
33.8955959822
 20
-58.530019009
 30
0.0
 11
39.4310808438
 21
-46.7470220415
 31
0.0
 11
39.133759627
 21
-50.3010456696
 31
0.0
 11
38.2510048202
 21
-53.4269433615
 31
0.0
 11
36.8164949378
 21
-55.997854781
 31
0.0
 11
34.8863968028
 21
-57.9136930249
 31
0.0
 11
33.8955959822
 21
-58.530019009
 31
0.0
  0
SPLINE
  5
467
100
AcDbEntity
  8
RACCORDO
100
AcDbSpline
 62
253
  6
CONTINUOUS
 70
0
 71
3
 72
15
 73
11
 74
9
 42
0.0000001
 43
0.0000001
 44
0.0000000001
 12
26.6772038224
 22
-15.4730521071
 32
0.0
 13
0.4427848223
 23
-30.8117623038
 33
0.0
 40
0.0
 40
0.0
 40
0.0
 40
0.0
 40
0.0781293248
 40
0.2035129769
 40
0.3366049522
 40
0.4745590276
 40
0.6142268915
 40
0.7523220742
 40
0.8855601463
 40
1.0
 40
1.0
 40
1.0
 40
1.0
 10
24.9248959418
 20
33.1661733124
 30
0.0
 10
25.6196532494
 20
32.7632069411
 30
0.0
 10
27.3662195084
 20
31.6000178858
 30
0.0
 10
29.9691003365
 20
29.3079523902
 30
0.0
 10
32.632949335
 20
26.2133392159
 30
0.0
 10
34.9677564537
 20
22.688089203
 30
0.0
 10
36.8875155341
 20
18.8634949476
 30
0.0
 10
38.3203194065
 20
14.8818653491
 30
0.0
 10
39.1871834432
 20
11.0054204328
 30
0.0
 10
39.4117413606
 20
8.461710028
 30
0.0
 10
39.428632104
 20
7.2863455046
 30
0.0
 11
24.9248959418
 21
33.1661733124
 31
0.0
 11
26.9352034805
 21
31.837294562
 31
0.0
 11
29.8478719945
 21
29.299810809
 31
0.0
 11
32.5326483697
 21
26.2005140267
 31
0.0
 11
34.8848830351
 21
22.6605188987
 31
0.0
 11
36.815291529
 21
18.8147793306
 31
0.0
 11
38.2501671199
 21
14.8094479653
 31
0.0
 11
39.1333489258
 21
10.8006341715
 31
0.0
 11
39.428632104
 21
7.2863455046
 31
0.0
  0
SPLINE
  5
468
100
AcDbEntity
  8
RACCORDO
100
AcDbSpline
 62
253
  6
CONTINUOUS
 70
0
 71
3
 72
9
 73
5
 74
3
 42
0.0000001
 43
0.0000001
 44
0.0000000001
 12
0.1564092666
 22
0.0765933576
 32
0.0
 13
0.1743949914
 23
0.0013515758
 33
0.0
 40
0.0
 40
0.0
 40
0.0
 40
0.0
 40
0.6047162399
 40
1.0
 40
1.0
 40
1.0
 40
1.0
 10
66.8192902556
 20
38.3255421573
 30
0.0
 10
66.8508179968
 20
38.3409812397
 30
0.0
 10
66.9069653319
 20
38.3590731161
 30
0.0
 10
66.9650273037
 20
38.3640526886
 30
0.0
 10
66.9880058064
 20
38.3642307739
 30
0.0
 11
66.8192902556
 21
38.3255421573
 31
0.0
 11
66.9194245552
 21
38.3580672126
 31
0.0
 11
66.9880058064
 21
38.3642307739
 31
0.0
  0
SPLINE
  5
469
100
AcDbEntity
  8
RACCORDO
100
AcDbSpline
 62
253
  6
CONTINUOUS
 70
0
 71
3
 72
10
 73
6
 74
4
 42
0.0000001
 43
0.0000001
 44
0.0000000001
 12
0.3707091065
 22
0.0028730266
 32
0.0
 13
0.3099534722
 23
-0.2016511672
 33
0.0
 40
0.0
 40
0.0
 40
0.0
 40
0.0
 40
0.2126739246
 40
0.6669764682
 40
1.0
 40
1.0
 40
1.0
 40
1.0
 10
66.9880058064
 20
38.3642307739
 30
0.0
 10
67.0142858599
 20
38.3644344465
 30
0.0
 10
67.0968169484
 20
38.3577293887
 30
0.0
 10
67.2150958
 20
38.3188486702
 30
0.0
 10
67.2999469648
 20
38.2713572557
 30
0.0
 10
67.3343542315
 20
38.2489723944
 30
0.0
 11
66.9880058064
 21
38.3642307739
 31
0.0
 11
67.0665477509
 21
38.3582035383
 31
0.0
 11
67.2266860808
 21
38.3085131621
 31
0.0
 11
67.3343542315
 21
38.2489723944
 31
0.0
  0
SPLINE
  5
46A
100
AcDbEntity
  8
RACCORDO
100
AcDbSpline
 62
253
  6
CONTINUOUS
 70
0
 71
3
 72
16
 73
12
 74
10
 42
0.0000001
 43
0.0000001
 44
0.0000000001
 12
1.3708196702
 22
-0.8918351018
 32
0.0
 13
-0.6183565215
 23
-1.5154953613
 33
0.0
 40
0.0
 40
0.0
 40
0.0
 40
0.0
 40
0.0395428845
 40
0.1645599283
 40
0.2971793277
 40
0.4341018208
 40
0.5712754171
 40
0.7040238356
 40
0.8280202616
 40
0.9404550497
 40
1.0
 40
1.0
 40
1.0
 40
1.0
 10
67.3343542315
 20
38.2489723944
 30
0.0
 10
67.3524229527
 20
38.2372171502
 30
0.0
 10
67.4259148465
 20
38.1856609765
 30
0.0
 10
67.5458286003
 20
38.0760194604
 30
0.0
 10
67.6798412644
 20
37.9072794388
 30
0.0
 10
67.7915130195
 20
37.7153802293
 30
0.0
 10
67.8753052691
 20
37.5096857018
 30
0.0
 10
67.9266705928
 20
37.3007467247
 30
0.0
 10
67.9427192337
 20
37.0995100159
 30
0.0
 10
67.9246860926
 20
36.9382587662
 30
0.0
 10
67.8965746831
 20
36.8484040918
 30
0.0
 10
67.884301347
 20
36.8183240598
 30
0.0
 11
67.3343542315
 21
38.2489723944
 31
0.0
 11
67.3873329427
 21
38.211911076
 31
0.0
 11
67.538887328
 21
38.0752616696
 31
0.0
 11
67.6741330311
 21
37.9062382963
 31
0.0
 11
67.7867510278
 21
37.7131896776
 31
0.0
 11
67.8709492398
 21
37.5057177013
 31
0.0
 11
67.9218455805
 21
37.2950969898
 31
0.0
 11
67.9364327823
 21
37.093226071
 31
0.0
 11
67.9139270439
 21
36.9110858362
 31
0.0
 11
67.884301347
 21
36.8183240598
 31
0.0
  0
SPLINE
  5
46B
100
AcDbEntity
  8
RACCORDO
100
AcDbSpline
 62
253
  6
CONTINUOUS
 70
0
 71
3
 72
10
 73
6
 74
4
 42
0.0000001
 43
0.0000001
 44
0.0000000001
 12
-0.7889542331
 22
0.3979818436
 32
0.0
 13
-0.8619101213
 23
-0.191954292
 33
0.0
 40
0.0
 40
0.0
 40
0.0
 40
0.0
 40
0.0934259036
 40
0.7589517245
 40
1.0
 40
1.0
 40
1.0
 40
1.0
 10
64.8199113584
 20
42.4431786415
 30
0.0
 10
64.7953417711
 20
42.4555725793
 30
0.0
 10
64.5921361974
 20
42.5486506524
 30
0.0
 10
64.2897022548
 20
42.5840299155
 30
0.0
 10
64.0254681668
 20
42.542538115
 30
0.0
 10
63.956214184
 20
42.5271146979
 30
0.0
 11
64.8199113584
 21
42.4431786415
 31
0.0
 11
64.7449141801
 21
42.4774845882
 31
0.0
 11
64.1666852162
 21
42.5594016781
 31
0.0
 11
63.956214184
 21
42.5271146979
 31
0.0
  0
SPLINE
  5
46C
100
AcDbEntity
  8
RACCORDO
100
AcDbSpline
 62
253
  6
CONTINUOUS
 70
0
 71
3
 72
8
 73
4
 74
2
 42
0.0000001
 43
0.0000001
 44
0.0000000001
 12
-0.4510429552
 22
-0.1004508811
 32
0.0
 13
-0.4134721798
 23
-0.1997730325
 33
0.0
 40
0.0
 40
0.0
 40
0.0
 40
0.0
 40
1.0
 40
1.0
 40
1.0
 40
1.0
 10
63.956214184
 20
42.5271146979
 30
0.0
 10
63.8058665323
 20
42.4936310709
 30
0.0
 10
63.6602461436
 20
42.4394514406
 30
0.0
 10
63.5224220836
 20
42.3728604298
 30
0.0
 11
63.956214184
 21
42.5271146979
 31
0.0
 11
63.5224220836
 21
42.3728604298
 31
0.0
  0
SPLINE
  5
46D
100
AcDbEntity
  8
ASSI
100
AcDbSpline
 62
7
  6
CONTINUOUS
 70
0
 71
3
 72
9
 73
5
 74
3
 42
0.0000001
 43
0.0000001
 44
0.0000000001
 12
-0.7579885152
 22
0.4154278944
 32
0.0
 13
-0.8761522408
 23
-0.0654402489
 33
0.0
 40
0.0
 40
0.0
 40
0.0
 40
0.0
 40
0.773649624
 40
1.0
 40
1.0
 40
1.0
 40
1.0
 10
46.1257298509
 20
-9.8576776604
 30
0.0
 10
45.930257341
 20
-9.7505457822
 30
0.0
 10
45.6522570211
 20
-9.6459648479
 30
0.0
 10
45.3578506401
 20
-9.6426924925
 30
0.0
 10
45.2917448437
 20
-9.6476299675
 30
0.0
 11
46.1257298509
 21
-9.8576776604
 31
0.0
 11
45.490288074
 21
-9.6493643839
 31
0.0
 11
45.2917448437
 21
-9.6476299675
 31
0.0
  0
SPLINE
  5
46E
100
AcDbEntity
  8
ASSI
100
AcDbSpline
 62
7
  6
CONTINUOUS
 70
0
 71
3
 72
9
 73
5
 74
3
 42
0.0000001
 43
0.0000001
 44
0.0000000001
 12
-0.3939613395
 22
-0.0294251694
 32
0.0
 13
-0.3490499134
 23
-0.1752919937
 33
0.0
 40
0.0
 40
0.0
 40
0.0
 40
0.0
 40
0.9671594717
 40
1.0
 40
1.0
 40
1.0
 40
1.0
 10
45.2917448437
 20
-9.6476299675
 30
0.0
 10
45.1647370301
 20
-9.6571162446
 30
0.0
 10
45.0354516227
 20
-9.6885963051
 30
0.0
 10
44.9186859908
 20
-9.7461814415
 30
0.0
 10
44.9148649962
 20
-9.7481003354
 30
0.0
 11
45.2917448437
 21
-9.6476299675
 31
0.0
 11
44.9263687834
 21
-9.7424273433
 31
0.0
 11
44.9148649962
 21
-9.7481003354
 31
0.0
  0
SPLINE
  5
46F
100
AcDbEntity
  8
DRAFT
100
AcDbSpline
 62
7
  6
CONTINUOUS
 70
0
 71
3
 72
9
 73
5
 74
3
 42
0.0000001
 43
0.0000001
 44
0.0000000001
 12
0.9349722776
 22
0.7643911677
 32
0.0
 13
0.6712339176
 23
1.0030138825
 33
0.0
 40
0.0
 40
0.0
 40
0.0
 40
0.0
 40
0.6969203139
 40
1.0
 40
1.0
 40
1.0
 40
1.0
 10
55.5472625833
 20
22.6553268965
 30
0.0
 10
55.7644629744
 20
22.8329001407
 30
0.0
 10
56.0473085378
 20
23.1230273104
 30
0.0
 10
56.2844460629
 20
23.4483673012
 30
0.0
 10
56.3522585179
 20
23.5496983455
 30
0.0
 11
55.5472625833
 21
22.6553268965
 31
0.0
 11
56.1365043127
 21
23.2543939712
 31
0.0
 11
56.3522585179
 21
23.5496983455
 31
0.0
  0
SPLINE
  5
470
100
AcDbEntity
  8
DRAFT
100
AcDbSpline
 62
7
  6
CONTINUOUS
 70
0
 71
3
 72
9
 73
5
 74
3
 42
0.0000001
 43
0.0000001
 44
0.0000000001
 12
0.6472062801
 22
0.9671097761
 32
0.0
 13
0.4150097166
 23
1.0862386107
 33
0.0
 40
0.0
 40
0.0
 40
0.0
 40
0.0
 40
0.6550602802
 40
1.0
 40
1.0
 40
1.0
 40
1.0
 10
56.3522585179
 20
23.5496983455
 30
0.0
 10
56.4935782269
 20
23.7608700791
 30
0.0
 10
56.6824022554
 20
24.1013203464
 30
0.0
 10
56.8330864006
 20
24.4586684706
 30
0.0
 10
56.880804179
 20
24.5835640846
 30
0.0
 11
56.3522585179
 21
23.5496983455
 31
0.0
 11
56.7245944935
 21
24.2141519115
 31
0.0
 11
56.880804179
 21
24.5835640846
 31
0.0
  0
SPLINE
  5
471
100
AcDbEntity
  8
DRAFT
100
AcDbSpline
 62
7
  6
CONTINUOUS
 70
0
 71
3
 72
10
 73
6
 74
4
 42
0.0000001
 43
0.0000001
 44
0.0000000001
 12
2.7704869995
 22
3.1560289427
 32
0.0
 13
0.0
 23
4.1875268031
 33
0.0
 40
0.0
 40
0.0
 40
0.0
 40
0.0
 40
0.237740043
 40
0.596755079
 40
1.0
 40
1.0
 40
1.0
 40
1.0
 10
33.0955270564
 20
-54.4288531371
 30
0.0
 10
33.3150789559
 20
-54.1787483182
 30
0.0
 10
33.7857131388
 20
-53.4751630832
 30
0.0
 10
34.2331097154
 20
-52.1375234749
 30
0.0
 10
34.3291815676
 20
-51.0686243754
 30
0.0
 10
34.3291815676
 20
-50.5057580705
 30
0.0
 11
33.0955270564
 21
-54.4288531371
 31
0.0
 11
33.657747367
 21
-53.603125083
 31
0.0
 11
34.158981949
 21
-52.1857575898
 31
0.0
 11
34.3291815676
 21
-50.5057580705
 31
0.0
  0
LINE
  5
472
100
AcDbEntity
  8
DRAFT
100
AcDbLine
 62
7
  6
CONTINUOUS
 10
32.3869612466
 20
20.2210917437
 11
32.1127103592
 21
20.0906353618
  0
LINE
  5
473
100
AcDbEntity
  8
DRAFT
100
AcDbLine
 62
7
  6
CONTINUOUS
 10
32.1127103592
 20
20.0906353618
 11
32.070387242
 21
20.0705029427
  0
SPLINE
  5
474
100
AcDbEntity
  8
DRAFT
100
AcDbSpline
 62
7
  6
CONTINUOUS
 70
0
 71
3
 72
8
 73
4
 74
2
 42
0.0000001
 43
0.0000001
 44
0.0000000001
 12
0.0
 22
1.4532375708
 32
0.0
 13
-0.2052577639
 23
1.4415060982
 33
0.0
 40
0.0
 40
0.0
 40
0.0
 40
0.0
 40
1.0
 40
1.0
 40
1.0
 40
1.0
 10
34.3291815676
 20
14.7925573749
 30
0.0
 10
34.3291815676
 20
15.2769698985
 30
0.0
 10
34.2916048954
 20
15.7618808488
 30
0.0
 10
34.2231856408
 20
16.2423828816
 30
0.0
 11
34.3291815676
 21
14.7925573749
 31
0.0
 11
34.2231856408
 21
16.2423828816
 31
0.0
  0
SPLINE
  5
475
100
AcDbEntity
  8
DRAFT
100
AcDbSpline
 62
7
  6
CONTINUOUS
 70
0
 71
3
 72
12
 73
8
 74
6
 42
0.0000001
 43
0.0000001
 44
0.0000000001
 12
7.4948908332
 22
7.9259003101
 32
0.0
 13
-0.0
 23
10.8886603116
 33
0.0
 40
0.0
 40
0.0
 40
0.0
 40
0.0
 40
0.1244383138
 40
0.3205809155
 40
0.5314275204
 40
0.7577891033
 40
1.0
 40
1.0
 40
1.0
 40
1.0
 10
34.0057793797
 20
-57.9464809578
 30
0.0
 10
34.3166632388
 20
-57.6177190678
 30
0.0
 10
35.0555842927
 20
-56.7119134169
 30
0.0
 10
36.0102297174
 20
-55.0228025364
 30
0.0
 10
36.7777465783
 20
-52.8450862837
 30
0.0
 10
37.2389273985
 20
-50.4146333784
 30
0.0
 10
37.3346629776
 20
-48.7115915595
 30
0.0
 10
37.3346629776
 20
-47.8324741669
 30
0.0
 11
34.0057793797
 21
-57.9464809578
 31
0.0
 11
34.8657449276
 21
-56.8974675247
 31
0.0
 11
35.9285599083
 21
-55.0449644489
 31
0.0
 11
36.7047434494
 21
-52.8843147996
 31
0.0
 11
37.1762842126
 21
-50.4650665542
 31
0.0
 11
37.3346629776
 21
-47.8324741669
 31
0.0
  0
SPLINE
  5
476
100
AcDbEntity
  8
ASSI
100
AcDbSpline
 62
7
  6
CONTINUOUS
 70
0
 71
3
 72
8
 73
4
 74
2
 42
0.0000001
 43
0.0000001
 44
0.0000000001
 12
0.6678776169
 22
-1.1216958373
 32
0.0
 13
0.8947682696
 23
-0.950545218
 33
0.0
 40
0.0
 40
0.0
 40
0.0
 40
0.0
 40
1.0
 40
1.0
 40
1.0
 40
1.0
 10
51.9687062135
 20
-6.0419594864
 30
0.0
 10
52.1913320858
 20
-6.4158580988
 30
0.0
 10
52.4514485309
 20
-6.7679505379
 30
0.0
 10
52.7497046208
 20
-7.0847989439
 30
0.0
 11
51.9687062135
 21
-6.0419594864
 31
0.0
 11
52.7497046208
 21
-7.0847989439
 31
0.0
  0
SPLINE
  5
477
100
AcDbEntity
  8
ASSI
100
AcDbSpline
 62
7
  6
CONTINUOUS
 70
0
 71
3
 72
10
 73
6
 74
4
 42
0.0000001
 43
0.0000001
 44
0.0000000001
 12
0.005002268
 22
1.1172693708
 32
0.0
 13
1.0229315194
 23
0.5004987485
 33
0.0
 40
0.0
 40
0.0
 40
0.0
 40
0.0
 40
0.2993840018
 40
0.8150989376
 40
1.0
 40
1.0
 40
1.0
 40
1.0
 10
44.6397129569
 20
-11.455586351
 30
0.0
 10
44.6402121565
 20
-11.3440888259
 30
0.0
 10
44.6697111285
 20
-11.0399745774
 30
0.0
 10
44.8252447282
 20
-10.6739763583
 30
0.0
 10
45.0467527772
 20
-10.5248890543
 30
0.0
 10
45.1097998187
 20
-10.4940414709
 30
0.0
 11
44.6397129569
 21
-11.455586351
 31
0.0
 11
44.6750052838
 21
-11.1214689167
 31
0.0
 11
44.9376737323
 21
-10.6110569249
 31
0.0
 11
45.1097998187
 21
-10.4940414709
 31
0.0
  0
SPLINE
  5
478
100
AcDbEntity
  8
ASSI
100
AcDbSpline
 62
7
  6
CONTINUOUS
 70
0
 71
3
 72
9
 73
5
 74
3
 42
0.0000001
 43
0.0000001
 44
0.0000000001
 12
-1.0962898682
 22
0.6008394355
 32
0.0
 13
-1.134322546
 23
-0.5525725616
 33
0.0
 40
0.0
 40
0.0
 40
0.0
 40
0.0
 40
0.594107543
 40
1.0
 40
1.0
 40
1.0
 40
1.0
 10
45.9843084947
 20
-9.9283883385
 30
0.0
 10
45.7672038014
 20
-9.8094005916
 30
0.0
 10
45.3580363408
 20
-9.6602430549
 30
0.0
 10
44.9257745445
 20
-9.7460342573
 30
0.0
 10
44.7723035561
 20
-9.8207959356
 30
0.0
 11
45.9843084947
 21
-9.9283883385
 31
0.0
 11
45.2728733882
 21
-9.7150977496
 31
0.0
 11
44.7723035561
 21
-9.8207959356
 31
0.0
  0
SPLINE
  5
479
100
AcDbEntity
  8
ASSI
100
AcDbSpline
 62
7
  6
CONTINUOUS
 70
0
 71
3
 72
9
 73
5
 74
3
 42
0.0000001
 43
0.0000001
 44
0.0000000001
 12
0.6680270593
 22
-1.1225983884
 32
0.0
 13
0.8959232065
 23
-0.9523245289
 33
0.0
 40
0.0
 40
0.0
 40
0.0
 40
0.0
 40
0.7292715837
 40
1.0
 40
1.0
 40
1.0
 40
1.0
 10
51.9260797192
 20
-6.063034705
 30
0.0
 10
52.0884707696
 20
-6.3359277398
 30
0.0
 10
52.3389047865
 20
-6.6936052726
 30
0.0
 10
52.6270939189
 20
-7.0209669646
 30
0.0
 10
52.7079445425
 20
-7.1069074018
 30
0.0
 11
51.9260797192
 21
-6.063034705
 31
0.0
 11
52.4738191628
 21
-6.8414927743
 31
0.0
 11
52.7079445425
 21
-7.1069074018
 31
0.0
  0
SPLINE
  5
47A
100
AcDbEntity
  8
RACCORDO
100
AcDbSpline
 62
253
  6
CONTINUOUS
 70
0
 71
3
 72
11
 73
7
 74
5
 42
0.0000001
 43
0.0000001
 44
0.0000000001
 12
-0.6015741399
 22
1.0252148945
 32
0.0
 13
-1.1852102425
 23
-0.1322152722
 33
0.0
 40
0.0
 40
0.0
 40
0.0
 40
0.0
 40
0.1565711406
 40
0.5589999971
 40
0.9700277404
 40
1.0
 40
1.0
 40
1.0
 40
1.0
 10
65.3774734203
 20
41.4108177485
 30
0.0
 10
65.3460770372
 20
41.4643241037
 30
0.0
 10
65.2197650698
 20
41.6467639098
 30
0.0
 10
64.9032900532
 20
41.8911754625
 30
0.0
 10
64.5595407266
 20
41.9315118329
 30
0.0
 10
64.3849360122
 20
41.9145795372
 30
0.0
 10
64.3730948692
 20
41.9132586071
 30
0.0
 11
65.3774734203
 21
41.4108177485
 31
0.0
 11
65.2709209505
 21
41.563260815
 31
0.0
 11
64.8899080384
 21
41.8483673091
 31
0.0
 11
64.4086934854
 21
41.9167054878
 31
0.0
 11
64.3730948692
 21
41.9132586071
 31
0.0
  0
SPLINE
  5
47B
100
AcDbEntity
  8
RACCORDO
100
AcDbSpline
 62
7
  6
CONTINUOUS
 70
0
 71
3
 72
9
 73
5
 74
3
 42
0.0000001
 43
0.0000001
 44
0.0000000001
 12
23.2440242475
 22
11.4407422861
 32
0.0
 13
23.2426551844
 23
11.4435247642
 33
0.0
 40
0.0
 40
0.0
 40
0.0
 40
0.0
 40
0.5167260773
 40
1.0
 40
1.0
 40
1.0
 40
1.0
 10
35.8805832222
 20
23.096637464
 30
0.0
 10
39.8841810455
 20
25.0672140916
 30
0.0
 10
47.6333709675
 20
28.8783957444
 30
0.0
 10
55.3797141892
 20
32.6953613337
 30
0.0
 10
59.1239039042
 20
34.5388137011
 30
0.0
 11
35.8805832222
 21
23.096637464
 31
0.0
 11
47.8918379811
 21
29.007432327
 31
0.0
 11
59.1239039042
 21
34.5388137011
 31
0.0
  0
SPLINE
  5
47C
100
AcDbEntity
  8
RACCORDO
100
AcDbSpline
 62
253
  6
CONTINUOUS
 70
0
 71
3
 72
11
 73
7
 74
5
 42
0.0000001
 43
0.0000001
 44
0.0000000001
 12
0.8793404162
 22
0.6987827142
 32
0.0
 13
-0.5420264402
 23
0.9846130105
 33
0.0
 40
0.0
 40
0.0
 40
0.0
 40
0.0
 40
0.1475862346
 40
0.5341224321
 40
0.8777495616
 40
1.0
 40
1.0
 40
1.0
 40
1.0
 10
69.3885720073
 20
33.0039986944
 30
0.0
 10
69.431831521
 20
33.0383755976
 30
0.0
 10
69.5819431588
 20
33.1716227646
 30
0.0
 10
69.7801488035
 20
33.4508117822
 30
0.0
 10
69.7725367553
 20
33.7909046985
 30
0.0
 10
69.7020344877
 20
33.9506916853
 30
0.0
 10
69.679946831
 20
33.9908148093
 30
0.0
 11
69.3885720073
 21
33.0039986944
 31
0.0
 11
69.5125354309
 21
33.1148097848
 31
0.0
 11
69.7418040616
 21
33.4810147973
 31
0.0
 11
69.7344671319
 21
33.8650362981
 31
0.0
 11
69.679946831
 21
33.9908148093
 31
0.0
  0
SPLINE
  5
47D
100
AcDbEntity
  8
RACCORDO
100
AcDbSpline
 62
253
  6
CONTINUOUS
 70
0
 71
3
 72
9
 73
5
 74
3
 42
0.0000001
 43
0.0000001
 44
0.0000000001
 12
-0.2119329055
 22
0.3849847178
 32
0.0
 13
-0.3427807029
 23
0.2749691909
 33
0.0
 40
0.0
 40
0.0
 40
0.0
 40
0.0
 40
0.6911930686
 40
1.0
 40
1.0
 40
1.0
 40
1.0
 10
69.679946831
 20
33.9908148093
 30
0.0
 10
69.6311179793
 20
34.0795143988
 30
0.0
 10
69.5351099104
 20
34.1950702941
 30
0.0
 10
69.424590204
 20
34.2919193226
 30
0.0
 10
69.3893058516
 20
34.3202234533
 30
0.0
 11
69.679946831
 21
33.9908148093
 31
0.0
 11
69.491464852
 21
34.230320101
 31
0.0
 11
69.3893058516
 21
34.3202234533
 31
0.0
  0
SPLINE
  5
47E
100
AcDbEntity
  8
DRAFT
100
AcDbSpline
 62
7
  6
CONTINUOUS
 70
0
 71
3
 72
8
 73
4
 74
2
 42
0.0000001
 43
0.0000001
 44
0.0000000001
 12
1.2921474229
 22
-1.0140705643
 32
0.0
 13
1.4026863925
 23
-0.8477075506
 33
0.0
 40
0.0
 40
0.0
 40
0.0
 40
0.0
 40
1.0
 40
1.0
 40
1.0
 40
1.0
 10
48.4683235893
 20
20.4094221158
 30
0.0
 10
48.899039397
 20
20.0713985943
 30
0.0
 10
49.3483719369
 20
19.7574694276
 30
0.0
 10
49.8159340677
 20
19.474900244
 30
0.0
 11
48.4683235893
 21
20.4094221158
 31
0.0
 11
49.8159340677
 21
19.474900244
 31
0.0
  0
SPLINE
  5
47F
100
AcDbEntity
  8
DRAFT
100
AcDbSpline
 62
7
  6
CONTINUOUS
 70
0
 71
3
 72
9
 73
5
 74
3
 42
0.0000001
 43
0.0000001
 44
0.0000000001
 12
1.2623502277
 22
-0.4955383066
 32
0.0
 13
1.3399030417
 23
-0.2223562362
 33
0.0
 40
0.0
 40
0.0
 40
0.0
 40
0.0
 40
0.8155506634
 40
1.0
 40
1.0
 40
1.0
 40
1.0
 10
51.2777848483
 20
21.3345259427
 30
0.0
 10
51.6209550369
 20
21.1998137445
 30
0.0
 10
52.054702131
 20
21.0656757957
 30
0.0
 10
52.4997108278
 20
20.981715357
 30
0.0
 10
52.5820922369
 20
20.9680442036
 30
0.0
 11
51.2777848483
 21
21.3345259427
 31
0.0
 11
52.3359308473
 21
21.0143953685
 31
0.0
 11
52.5820922369
 21
20.9680442036
 31
0.0
  0
SPLINE
  5
480
100
AcDbEntity
  8
DRAFT
100
AcDbSpline
 62
7
  6
CONTINUOUS
 70
0
 71
3
 72
10
 73
6
 74
4
 42
0.0000001
 43
0.0000001
 44
0.0000000001
 12
-0.5895024606
 22
-0.293088764
 32
0.0
 13
-0.589887781
 23
-0.2923124706
 33
0.0
 40
0.0
 40
0.0
 40
0.0
 40
0.0
 40
0.3327174839
 40
0.666050967
 40
1.0
 40
1.0
 40
1.0
 40
1.0
 10
62.1410441891
 20
26.6520739185
 30
0.0
 10
62.0756649306
 20
26.6195686665
 30
0.0
 10
61.9447709197
 20
26.55452704
 30
0.0
 10
61.7482054198
 20
26.4569609724
 30
0.0
 10
61.6170122469
 20
26.3919141909
 30
0.0
 10
61.5513480955
 20
26.3593750353
 30
0.0
 11
62.1410441891
 21
26.6520739185
 31
0.0
 11
61.944884833
 21
26.5546015805
 31
0.0
 11
61.7483193158
 21
26.4570353401
 31
0.0
 11
61.5513480955
 21
26.3593750353
 31
0.0
  0
SPLINE
  5
481
100
AcDbEntity
  8
ASSI
100
AcDbSpline
 62
7
  6
CONTINUOUS
 70
0
 71
3
 72
8
 73
4
 74
2
 42
0.0000001
 43
0.0000001
 44
0.0000000001
 12
-0.379042856
 22
-0.2591049374
 32
0.0
 13
-0.1856564396
 23
-0.4264990832
 33
0.0
 40
0.0
 40
0.0
 40
0.0
 40
0.0
 40
1.0
 40
1.0
 40
1.0
 40
1.0
 10
45.1684991056
 20
-10.4671117306
 30
0.0
 10
45.0421514869
 20
-10.5534800431
 30
0.0
 10
44.9478797954
 20
-10.6858092191
 30
0.0
 10
44.8859943155
 20
-10.8279755802
 30
0.0
 11
45.1684991056
 21
-10.4671117306
 31
0.0
 11
44.8859943155
 21
-10.8279755802
 31
0.0
  0
SPLINE
  5
482
100
AcDbEntity
  8
ASSI
100
AcDbSpline
 62
7
  6
CONTINUOUS
 70
0
 71
3
 72
8
 73
4
 74
2
 42
0.0000001
 43
0.0000001
 44
0.0000000001
 12
-0.2284821004
 22
-0.5248802926
 32
0.0
 13
-0.0014918294
 23
-0.5666093262
 33
0.0
 40
0.0
 40
0.0
 40
0.0
 40
0.0
 40
1.0
 40
1.0
 40
1.0
 40
1.0
 10
44.8859943155
 20
-10.8279755802
 30
0.0
 10
44.8098336154
 20
-11.0029356777
 30
0.0
 10
44.7827235328
 20
-11.1927947083
 30
0.0
 10
44.7822262563
 20
-11.3816644838
 30
0.0
 11
44.8859943155
 21
-10.8279755802
 31
0.0
 11
44.7822262563
 21
-11.3816644838
 31
0.0
  0
SPLINE
  5
483
100
AcDbEntity
  8
RACCORDO
100
AcDbSpline
 62
253
  6
CONTINUOUS
 70
0
 71
3
 72
8
 73
4
 74
2
 42
0.0000001
 43
0.0000001
 44
0.0000000001
 12
0.2147442625
 22
0.1019209288
 32
0.0
 13
0.225747183
 23
0.0786555748
 33
0.0
 40
0.0
 40
0.0
 40
0.0
 40
0.0
 40
1.0
 40
1.0
 40
1.0
 40
1.0
 10
-2.9211874625
 20
75.5946652028
 30
0.0
 10
-2.8496060417
 20
75.6286388458
 30
0.0
 10
-2.7759765048
 20
75.6592870346
 30
0.0
 10
-2.7007274438
 20
75.6855055596
 30
0.0
 11
-2.9211874625
 21
75.5946652028
 31
0.0
 11
-2.7007274438
 21
75.6855055596
 31
0.0
  0
SPLINE
  5
484
100
AcDbEntity
  8
RACCORDO
100
AcDbSpline
 62
253
  6
CONTINUOUS
 70
0
 71
3
 72
9
 73
5
 74
3
 42
0.0000001
 43
0.0000001
 44
0.0000000001
 12
0.9684898547
 22
0.3374444154
 32
0.0
 13
0.9507232895
 23
-0.3842735601
 33
0.0
 40
0.0
 40
0.0
 40
0.0
 40
0.0
 40
0.4297870958
 40
1.0
 40
1.0
 40
1.0
 40
1.0
 10
-2.7007274438
 20
75.6855055596
 30
0.0
 10
-2.5619792965
 20
75.7338486447
 30
0.0
 10
-2.2263382494
 20
75.8112896706
 30
0.0
 10
-1.875434259
 20
75.7697275109
 30
0.0
 10
-1.694729363
 20
75.6966882633
 30
0.0
 11
-2.7007274438
 21
75.6855055596
 31
0.0
 11
-2.2706515905
 21
75.7784330467
 31
0.0
 11
-1.694729363
 21
75.6966882633
 31
0.0
  0
SPLINE
  5
485
100
AcDbEntity
  8
RACCORDO
100
AcDbSpline
 62
253
  6
CONTINUOUS
 70
0
 71
3
 72
8
 73
4
 74
2
 42
0.0000001
 43
0.0000001
 44
0.0000000001
 12
0.2089703564
 22
0.107017394
 32
0.0
 13
0.1991004458
 23
0.1255101981
 33
0.0
 40
0.0
 40
0.0
 40
0.0
 40
0.0
 40
1.0
 40
1.0
 40
1.0
 40
1.0
 10
69.4245503736
 20
32.1931949313
 30
0.0
 10
69.4942071591
 20
32.228867396
 30
0.0
 10
69.5626891035
 20
32.2672660092
 30
0.0
 10
69.6290559188
 20
32.3091027419
 30
0.0
 11
69.4245503736
 21
32.1931949313
 31
0.0
 11
69.6290559188
 21
32.3091027419
 31
0.0
  0
SPLINE
  5
486
100
AcDbEntity
  8
RACCORDO
100
AcDbSpline
 62
253
  6
CONTINUOUS
 70
0
 71
3
 72
10
 73
6
 74
4
 42
0.0000001
 43
0.0000001
 44
0.0000000001
 12
0.9798234265
 22
0.617667288
 32
0.0
 13
-0.0025830691
 23
1.175779227
 33
0.0
 40
0.0
 40
0.0
 40
0.0
 40
0.0
 40
0.3628930569
 40
0.8123134334
 40
1.0
 40
1.0
 40
1.0
 40
1.0
 10
69.6290559188
 20
32.3091027419
 30
0.0
 10
69.7475796249
 20
32.3838184654
 30
0.0
 10
69.9977870691
 20
32.5756105878
 30
0.0
 10
70.2311578866
 20
32.904369896
 30
0.0
 10
70.2639894834
 20
33.1538189972
 30
0.0
 10
70.263827881
 20
33.2273783193
 30
0.0
 11
69.6290559188
 21
32.3091027419
 31
0.0
 11
69.9590332899
 21
32.5702018077
 31
0.0
 11
70.234591613
 21
33.0103184893
 31
0.0
 11
70.263827881
 21
33.2273783193
 31
0.0
  0
SPLINE
  5
487
100
AcDbEntity
  8
RACCORDO
100
AcDbSpline
 62
253
  6
CONTINUOUS
 70
0
 71
3
 72
8
 73
4
 74
2
 42
0.0000001
 43
0.0000001
 44
0.0000000001
 12
-0.1231052381
 22
0.1272398894
 32
0.0
 13
-0.1566985476
 23
0.0775507352
 33
0.0
 40
0.0
 40
0.0
 40
0.0
 40
0.0
 40
1.0
 40
1.0
 40
1.0
 40
1.0
 10
63.6624411113
 20
42.2678363032
 30
0.0
 10
63.6214060319
 20
42.3102495997
 30
0.0
 10
63.5746549328
 20
42.3470101847
 30
0.0
 10
63.5224220836
 20
42.3728604298
 30
0.0
 11
63.6624411113
 21
42.2678363032
 31
0.0
 11
63.5224220836
 21
42.3728604298
 31
0.0
  0
SPLINE
  5
488
100
AcDbEntity
  8
RACCORDO
100
AcDbSpline
 62
253
  6
CONTINUOUS
 70
0
 71
3
 72
8
 73
4
 74
2
 42
0.0000001
 43
0.0000001
 44
0.0000000001
 12
0.0669577335
 22
-0.2005802549
 32
0.0
 13
-0.0008780786
 23
-0.2095793506
 33
0.0
 40
0.0
 40
0.0
 40
0.0
 40
0.0
 40
1.0
 40
1.0
 40
1.0
 40
1.0
 10
69.3892908618
 20
32.3999707523
 30
0.0
 10
69.4116101063
 20
32.3331106673
 30
0.0
 10
69.4248431091
 20
32.2630547366
 30
0.0
 10
69.4245504162
 20
32.1931949531
 30
0.0
 11
69.3892908618
 21
32.3999707523
 31
0.0
 11
69.4245504162
 21
32.1931949531
 31
0.0
  0
SPLINE
  5
489
100
AcDbEntity
  8
IMPORT_IGES
100
AcDbSpline
 62
7
  6
CONTINUOUS
 70
0
 71
3
 72
39
 73
35
 74
33
 42
0.0000001
 43
0.0000001
 44
0.0000000001
 12
-0.6584841529
 22
-0.5689846421
 32
0.0
 13
-0.0744905927
 23
-1.2023403024
 33
0.0
 40
0.0
 40
0.0
 40
0.0
 40
0.0
 40
0.0625
 40
0.125
 40
0.15625
 40
0.171875
 40
0.1875
 40
0.21875
 40
0.25
 40
0.28125
 40
0.3125
 40
0.328125
 40
0.34375
 40
0.375
 40
0.4375
 40
0.46875
 40
0.484375
 40
0.5
 40
0.515625
 40
0.53125
 40
0.5625
 40
0.625
 40
0.65625
 40
0.671875
 40
0.6875
 40
0.71875
 40
0.75
 40
0.78125
 40
0.8125
 40
0.828125
 40
0.84375
 40
0.875
 40
0.9375
 40
1.0
 40
1.0
 40
1.0
 40
1.0
 10
45.1647973116
 20
-10.4697588647
 30
0.0
 10
45.1510788918
 20
-10.4816127114
 30
0.0
 10
45.1236085013
 20
-10.5052552484
 30
0.0
 10
45.0894382672
 20
-10.5351342021
 30
0.0
 10
45.0652108553
 20
-10.5554508442
 30
0.0
 10
45.0518447188
 20
-10.5679888343
 30
0.0
 10
45.0402805156
 20
-10.5840250869
 30
0.0
 10
45.0252015177
 20
-10.6028633448
 30
0.0
 10
45.0073977907
 20
-10.6260157381
 30
0.0
 10
44.9894277718
 20
-10.6489134885
 30
0.0
 10
44.9747645037
 20
-10.6683883536
 30
0.0
 10
44.9623688409
 20
-10.6831513917
 30
0.0
 10
44.9523839734
 20
-10.7008671208
 30
0.0
 10
44.9360183562
 20
-10.7332328121
 30
0.0
 10
44.9169181829
 20
-10.7696949243
 30
0.0
 10
44.9001387336
 20
-10.8016201366
 30
0.0
 10
44.8908632925
 20
-10.8200909726
 30
0.0
 10
44.8829873496
 20
-10.8332545658
 30
0.0
 10
44.8786324474
 20
-10.8490623656
 30
0.0
 10
44.8716001653
 20
-10.8692198865
 30
0.0
 10
44.8598403604
 20
-10.9048960514
 30
0.0
 10
44.8463290978
 20
-10.9456811397
 30
0.0
 10
44.8341477039
 20
-10.9809352268
 30
0.0
 10
44.8278381457
 20
-11.0018163097
 30
0.0
 10
44.8240082496
 20
-11.0254871989
 30
0.0
 10
44.8183637606
 20
-11.0541141496
 30
0.0
 10
44.8119850511
 20
-11.0888977527
 30
0.0
 10
44.8053990223
 20
-11.1234949641
 30
0.0
 10
44.8002728318
 20
-11.1525878941
 30
0.0
 10
44.7954063387
 20
-11.1753268247
 30
0.0
 10
44.7933122747
 20
-11.1999978726
 30
0.0
 10
44.7909353323
 20
-11.2440692639
 30
0.0
 10
44.7868619794
 20
-11.3065562588
 30
0.0
 10
44.7838098405
 20
-11.3566897436
 30
0.0
 10
44.7822579532
 20
-11.3817384999
 30
0.0
 11
45.1647973116
 21
-10.4697588647
 31
0.0
 11
45.1236420521
 21
-10.5053204049
 31
0.0
 11
45.0824867925
 21
-10.540881945
 31
0.0
 11
45.0619091628
 21
-10.5586627151
 31
0.0
 11
45.0520699605
 21
-10.5684261171
 31
0.0
 11
45.0431299835
 21
-10.5799355532
 31
0.0
 11
45.0252500294
 21
-10.6029544254
 31
0.0
 11
45.0073700754
 21
-10.6259732976
 31
0.0
 11
44.9894901214
 21
-10.6489921698
 31
0.0
 11
44.9716101673
 21
-10.6720110419
 31
0.0
 11
44.9626701903
 21
-10.683520478
 31
0.0
 11
44.9549329475
 21
-10.6965031011
 31
0.0
 11
44.9406611959
 21
-10.7239415343
 31
0.0
 11
44.9121176928
 21
-10.7788184006
 31
0.0
 11
44.8978459413
 21
-10.8062568337
 31
0.0
 11
44.8907100655
 21
-10.8199760503
 31
0.0
 11
44.8835741897
 21
-10.8336952669
 31
0.0
 11
44.8784792292
 21
-10.8489474224
 31
0.0
 11
44.8733842686
 21
-10.8641995779
 31
0.0
 11
44.8631943475
 21
-10.8947038888
 31
0.0
 11
44.8428145053
 21
-10.9557125108
 31
0.0
 11
44.8326245842
 21
-10.9862168217
 31
0.0
 11
44.8281481035
 21
-11.0021650355
 31
0.0
 11
44.8249085824
 21
-11.0195053659
 31
0.0
 11
44.8184295401
 21
-11.0541860267
 31
0.0
 11
44.8119504979
 21
-11.0888666874
 31
0.0
 11
44.8054714557
 21
-11.1235473482
 31
0.0
 11
44.7989924135
 21
-11.158228009
 31
0.0
 11
44.7957528923
 21
-11.1755683394
 31
0.0
 11
44.7938971083
 21
-11.1938728276
 31
0.0
 11
44.7915692773
 21
-11.2314459621
 31
0.0
 11
44.7869136152
 21
-11.306592231
 31
0.0
 11
44.7822579532
 21
-11.3817384999
 31
0.0
  0
SPLINE
  5
48A
100
AcDbEntity
  8
IMPORT_IGES
100
AcDbSpline
 62
7
  6
CONTINUOUS
 70
0
 71
3
 72
22
 73
18
 74
16
 42
0.0000001
 43
0.0000001
 44
0.0000000001
 12
0.0875725718
 22
0.4508191693
 32
0.0
 13
-0.0662155092
 23
0.5740276067
 33
0.0
 40
0.0
 40
0.0
 40
0.0
 40
0.0
 40
0.125
 40
0.1875
 40
0.25
 40
0.3125
 40
0.375
 40
0.4375
 40
0.5
 40
0.5625
 40
0.625
 40
0.6875
 40
0.75
 40
0.8125
 40
0.84375
 40
0.875
 40
1.0
 40
1.0
 40
1.0
 40
1.0
 10
13.2211416133
 20
60.3857294662
 30
0.0
 10
13.2247904705
 20
60.4045135982
 30
0.0
 10
13.2304107596
 20
60.4324253506
 30
0.0
 10
13.237316465
 20
60.4706988033
 30
0.0
 10
13.2406938459
 20
60.5023256562
 30
0.0
 10
13.2450289632
 20
60.5328690054
 30
0.0
 10
13.247335033
 20
60.5648246062
 30
0.0
 10
13.2488940915
 20
60.5971910601
 30
0.0
 10
13.2515175103
 20
60.6289900278
 30
0.0
 10
13.2506304995
 20
60.6626480869
 30
0.0
 10
13.2508026775
 20
60.695864005
 30
0.0
 10
13.2502485302
 20
60.7289893954
 30
0.0
 10
13.2478599776
 20
60.7614147647
 30
0.0
 10
13.2464552764
 20
60.7883376279
 30
0.0
 10
13.2448428957
 20
60.8104617959
 30
0.0
 10
13.2403075268
 20
60.8469593998
 30
0.0
 10
13.2370793021
 20
60.8765117385
 30
0.0
 10
13.2343203226
 20
60.9004295554
 30
0.0
 11
13.2211416133
 21
60.3857294662
 31
0.0
 11
13.2320881848
 21
60.4420818623
 31
0.0
 11
13.2370161486
 21
60.4711857638
 31
0.0
 11
13.2408534686
 21
60.5021450723
 31
0.0
 11
13.2446907886
 21
60.5331043807
 31
0.0
 11
13.2472105311
 21
60.5648930817
 31
0.0
 11
13.2490714849
 21
60.5970964791
 31
0.0
 11
13.2509324387
 21
60.6292998764
 31
0.0
 11
13.250807031
 21
60.6625743967
 31
0.0
 11
13.2506816233
 21
60.695848917
 31
0.0
 11
13.249942796
 21
60.7288727252
 31
0.0
 11
13.2479771295
 21
60.7613951091
 31
0.0
 11
13.2460114629
 21
60.793917493
 31
0.0
 11
13.2446664959
 21
60.8107377418
 31
0.0
 11
13.2425972612
 21
60.8286761046
 31
0.0
 11
13.2343203226
 21
60.9004295554
 31
0.0
  0
SPLINE
  5
48B
100
AcDbEntity
  8
IMPORT_IGES
100
AcDbSpline
 62
7
  6
CONTINUOUS
 70
0
 71
3
 72
27
 73
23
 74
21
 42
0.0000001
 43
0.0000001
 44
0.0000000001
 12
-0.830614211
 22
0.4161499549
 32
0.0
 13
-0.7870493616
 23
0.0000690394
 33
0.0
 40
0.0
 40
0.0
 40
0.0
 40
0.0
 40
0.125
 40
0.15625
 40
0.1875
 40
0.25
 40
0.3125
 40
0.34375
 40
0.375
 40
0.4375
 40
0.46875
 40
0.5
 40
0.53125
 40
0.5625
 40
0.625
 40
0.65625
 40
0.6875
 40
0.75
 40
0.8125
 40
0.84375
 40
0.875
 40
1.0
 40
1.0
 40
1.0
 40
1.0
 10
46.1257298509
 20
-9.8576776604
 30
0.0
 10
46.0911209255
 20
-9.8403380789
 30
0.0
 10
46.0478748967
 20
-9.8191689946
 30
0.0
 10
45.995934278
 20
-9.7922499159
 30
0.0
 10
45.9614040186
 20
-9.7775383754
 30
0.0
 10
45.9182862475
 20
-9.7604124606
 30
0.0
 10
45.875116742
 20
-9.7424441164
 30
0.0
 10
45.8406692575
 20
-9.7290804628
 30
0.0
 10
45.8065171114
 20
-9.719115959
 30
0.0
 10
45.7723241057
 20
-9.7080534136
 30
0.0
 10
45.7380321749
 20
-9.6977356309
 30
0.0
 10
45.7126508617
 20
-9.6888610472
 30
0.0
 10
45.6859684713
 20
-9.684159069
 30
0.0
 10
45.6508100653
 20
-9.6763664254
 30
0.0
 10
45.6157451266
 20
-9.6693686071
 30
0.0
 10
45.5800861999
 20
-9.6611288174
 30
0.0
 10
45.5466786024
 20
-9.656797146
 30
0.0
 10
45.5057023647
 20
-9.6528296632
 30
0.0
 10
45.4644208427
 20
-9.6479237827
 30
0.0
 10
45.4315017002
 20
-9.6450935477
 30
0.0
 10
45.3823545294
 20
-9.6460679337
 30
0.0
 10
45.3413382561
 20
-9.6455206152
 30
0.0
 10
45.3085445327
 20
-9.6455177385
 30
0.0
 11
46.1257298509
 21
-9.8576776604
 31
0.0
 11
46.0219030745
 21
-9.805658916
 31
0.0
 11
45.9959463805
 21
-9.7926542299
 31
0.0
 11
45.970039587
 21
-9.7813004946
 31
0.0
 11
45.9182759006
 21
-9.7602439747
 31
0.0
 11
45.8665122142
 21
-9.7391874548
 31
0.0
 11
45.8407061748
 21
-9.7295053565
 31
0.0
 11
45.815051743
 21
-9.7215155815
 31
0.0
 11
45.7637428792
 21
-9.7055360315
 31
0.0
 11
45.7380884474
 21
-9.6975462565
 31
0.0
 11
45.7124340155
 21
-9.6895564815
 31
0.0
 11
45.6860207356
 21
-9.6839686516
 31
0.0
 11
45.6596074557
 21
-9.6783808218
 31
0.0
 11
45.6067808959
 21
-9.6672051621
 31
0.0
 11
45.5803676161
 21
-9.6616173322
 31
0.0
 11
45.555082719
 21
-9.6579765376
 31
0.0
 11
45.5056413079
 21
-9.6526419837
 31
0.0
 11
45.4561998967
 21
-9.6473074297
 31
0.0
 11
45.4315209954
 21
-9.6455285259
 31
0.0
 11
45.4069257029
 21
-9.6455263685
 31
0.0
 11
45.3085445327
 21
-9.6455177385
 31
0.0
  0
SPLINE
  5
48C
100
AcDbEntity
  8
IMPORT_IGES
100
AcDbSpline
 62
7
  6
CONTINUOUS
 70
0
 71
3
 72
19
 73
15
 74
13
 42
0.0000001
 43
0.0000001
 44
0.0000000001
 12
-0.4084663094
 22
-0.0360533652
 32
0.0
 13
-0.3835225465
 23
-0.1744784718
 33
0.0
 40
0.0
 40
0.0
 40
0.0
 40
0.0
 40
0.125
 40
0.25
 40
0.375
 40
0.4375
 40
0.5
 40
0.5625
 40
0.625
 40
0.6875
 40
0.75
 40
0.8125
 40
0.875
 40
1.0
 40
1.0
 40
1.0
 40
1.0
 10
45.3085445468
 20
-9.6455177377
 30
0.0
 10
45.2915251172
 20
-9.6470199613
 30
0.0
 10
45.2573105586
 20
-9.6494837697
 30
0.0
 10
45.2070429176
 20
-9.6564233142
 30
0.0
 10
45.1656509798
 20
-9.6631722757
 30
0.0
 10
45.1330468957
 20
-9.6708740266
 30
0.0
 10
45.1090856654
 20
-9.6753925121
 30
0.0
 10
45.0829023709
 20
-9.6837910177
 30
0.0
 10
45.0571318218
 20
-9.6910934197
 30
0.0
 10
45.0319323553
 20
-9.6989002161
 30
0.0
 10
45.0093851328
 20
-9.7078190396
 30
0.0
 10
44.9863564911
 20
-9.7158523624
 30
0.0
 10
44.9546828794
 20
-9.7298034275
 30
0.0
 10
44.9306052451
 20
-9.7409291348
 30
0.0
 10
44.914625139
 20
-9.7481990711
 30
0.0
 11
45.3085445468
 21
-9.6455177377
 31
0.0
 11
45.2574862581
 21
-9.6500244084
 31
0.0
 11
45.2071424702
 21
-9.6566165158
 31
0.0
 11
45.1575424143
 21
-9.6652895953
 31
0.0
 11
45.1331288678
 21
-9.6706643887
 31
0.0
 11
45.1087153214
 21
-9.6760391821
 31
0.0
 11
45.0829711618
 21
-9.6836083338
 31
0.0
 11
45.0572270022
 21
-9.6911774854
 31
0.0
 11
45.0323743959
 21
-9.6990855539
 31
0.0
 11
45.0093048963
 21
-9.7076714562
 31
0.0
 11
44.9862353966
 21
-9.7162573584
 31
0.0
 11
44.9625654573
 21
-9.7263892622
 31
0.0
 11
44.914625139
 21
-9.7481990711
 31
0.0
  0
ELLIPSE
  5
48D
100
AcDbEntity
  8
RACCORDO
100
AcDbEllipse
 62
7
  6
CONTINUOUS
 10
62.3531043631
 20
40.3228166334
 30
0.0
 11
1.3048917676
 21
2.7015425106
 31
0.0
 40
0.6016116119
 41
0.0329887844
 42
0.6590366007
  0
ELLIPSE
  5
48E
100
AcDbEntity
  8
RACCORDO
100
AcDbEllipse
 62
7
  6
CONTINUOUS
 10
67.2665309726
 20
31.8484092878
 30
0.0
 11
2.999929097
 21
-0.0421585494
 31
0.0
 40
0.4892375088
 41
-0.7610696355
 42
-0.1350218192
  0
ELLIPSE
  5
48F
100
AcDbEntity
  8
RACCORDO
100
AcDbEllipse
 62
7
  6
CONTINUOUS
 10
41.3520329619
 20
50.823352334
 30
0.0
 11
1.3048917676
 21
2.7015425106
 31
0.0
 40
0.6016116119
 41
0.0329887844
 42
0.6590366007
  0
ELLIPSE
  5
490
100
AcDbEntity
  8
RACCORDO
100
AcDbEllipse
 62
7
  6
CONTINUOUS
 10
20.3509615607
 20
61.3238880346
 30
0.0
 11
1.3048917676
 21
2.7015425106
 31
0.0
 40
0.6016116119
 41
0.0329887844
 42
0.6590366007
  0
ELLIPSE
  5
491
100
AcDbEntity
  8
RACCORDO
100
AcDbEllipse
 62
7
  6
CONTINUOUS
 10
-0.6501098406
 20
71.8244237353
 30
0.0
 11
1.3048917676
 21
2.7015425106
 31
0.0
 40
0.6016116119
 41
0.0329887844
 42
0.6590366007
  0
ELLIPSE
  5
492
100
AcDbEntity
  8
RACCORDO
100
AcDbEllipse
 62
7
  6
CONTINUOUS
 10
67.2665309726
 20
-24.4865432284
 30
0.0
 11
2.999929097
 21
-0.0421585494
 31
0.0
 40
0.4892375088
 41
-0.7610696355
 42
-0.1350218192
  0
ELLIPSE
  5
493
100
AcDbEntity
  8
RACCORDO
100
AcDbEllipse
 62
7
  6
CONTINUOUS
 10
67.2665309726
 20
3.6592823946
 30
0.0
 11
2.999929097
 21
-0.0421585494
 31
0.0
 40
0.4892375088
 41
-0.7610696355
 42
-0.1350218192
  0
ELLIPSE
  5
494
100
AcDbEntity
  8
RACCORDO
100
AcDbEllipse
 62
7
  6
CONTINUOUS
 10
-1.8259140317
 20
72.4123258308
 30
0.0
 11
1.3798615415
 21
2.6640387682
 31
0.0
 40
0.6229838795
 41
0.0501043133
 42
0.6761521296
  0
ELLIPSE
  5
495
100
AcDbEntity
  8
RACCORDO
100
AcDbEllipse
 62
7
  6
CONTINUOUS
 10
67.2665309726
 20
-25.9699046514
 30
0.0
 11
2.9999182366
 21
0.043377328
 31
0.0
 40
0.5106100819
 41
-0.775327905
 42
-0.1492800887
  0
ELLIPSE
  5
496
100
AcDbEntity
  8
RACCORDO
100
AcDbEllipse
 62
7
  6
CONTINUOUS
 10
-18.498277056
 20
51.9639724441
 30
0.0
 11
-0.4474018214
 21
0.8946702271
 31
0.0
 40
0.6121897086
 41
-0.684633879
 42
0.0199943986
  0
ELLIPSE
  5
497
100
AcDbEntity
  8
RACCORDO
100
AcDbEllipse
 62
7
  6
CONTINUOUS
 10
61.177300172
 20
40.910718729
 30
0.0
 11
1.3798615415
 21
2.6640387682
 31
0.0
 40
0.6229838795
 41
0.0501043133
 42
0.6761521296
  0
ELLIPSE
  5
498
100
AcDbEntity
  8
RACCORDO
100
AcDbEllipse
 62
7
  6
CONTINUOUS
 10
40.1762287708
 20
51.4112544296
 30
0.0
 11
1.3798615415
 21
2.6640387682
 31
0.0
 40
0.6229838795
 41
0.0501043133
 42
0.6761521296
  0
ELLIPSE
  5
499
100
AcDbEntity
  8
RACCORDO
100
AcDbEllipse
 62
7
  6
CONTINUOUS
 10
19.1751573696
 20
61.9117901302
 30
0.0
 11
1.3798615415
 21
2.6640387682
 31
0.0
 40
0.6229838795
 41
0.0501043133
 42
0.6761521296
  0
ELLIPSE
  5
49A
100
AcDbEntity
  8
RACCORDO
100
AcDbEllipse
 62
7
  6
CONTINUOUS
 10
67.2665309726
 20
2.2192222418
 30
0.0
 11
2.9999182366
 21
0.043377328
 31
0.0
 40
0.5106100819
 41
-0.775327905
 42
-0.1492800887
  0
ELLIPSE
  5
49B
100
AcDbEntity
  8
RACCORDO
100
AcDbEllipse
 62
7
  6
CONTINUOUS
 10
67.2665309726
 20
30.3650478648
 30
0.0
 11
2.9999182366
 21
0.043377328
 31
0.0
 40
0.5106100819
 41
-0.775327905
 42
-0.1492800887
  0
ELLIPSE
  5
49C
100
AcDbEntity
  8
RACCORDO
100
AcDbEllipse
 62
7
  6
CONTINUOUS
 10
62.256474236
 20
42.8817164446
 30
0.0
 11
0.1379861541
 21
0.2664038768
 31
0.0
 40
0.6229838795
 41
-0.8771909047
 42
0.6761521296
  0
ELLIPSE
  5
49D
100
AcDbEntity
  8
RACCORDO
100
AcDbEllipse
 62
7
  6
CONTINUOUS
 10
41.2554028347
 20
53.3822521452
 30
0.0
 11
0.1379861541
 21
0.2664038768
 31
0.0
 40
0.6229838795
 41
-0.8771909047
 42
0.6761521296
  0
ELLIPSE
  5
49E
100
AcDbEntity
  8
RACCORDO
100
AcDbEllipse
 62
7
  6
CONTINUOUS
 10
20.2543314335
 20
63.8827878458
 30
0.0
 11
0.1379861541
 21
0.2664038768
 31
0.0
 40
0.6229838795
 41
-0.8771909047
 42
0.6761521296
  0
ELLIPSE
  5
49F
100
AcDbEntity
  8
RACCORDO
100
AcDbEllipse
 62
7
  6
CONTINUOUS
 10
69.5110496031
 20
2.1802978928
 30
0.0
 11
0.2999918237
 21
0.0043377328
 31
0.0
 40
0.5106100819
 41
5.5078574022
 42
7.0612004365
  0
ELLIPSE
  5
4A0
100
AcDbEntity
  8
RACCORDO
100
AcDbEllipse
 62
7
  6
CONTINUOUS
 10
69.5110496031
 20
30.3261235158
 30
0.0
 11
0.2999918237
 21
0.0043377328
 31
0.0
 40
0.5106100819
 41
5.5078574022
 42
7.0612004365
  0
ELLIPSE
  5
4A1
100
AcDbEntity
  8
RACCORDO
100
AcDbEllipse
 62
7
  6
CONTINUOUS
 10
-20.8663425554
 20
50.5474906255
 30
0.0
 11
0.4999863728
 21
0.0072295547
 31
0.0
 40
0.5106100819
 41
0.7780151293
 42
1.8339216541
  0
ELLIPSE
  5
4A2
100
AcDbEntity
  8
RACCORDO
100
AcDbEllipse
 62
7
  6
CONTINUOUS
 10
-3.1764381431
 20
41.7025384193
 30
0.0
 11
0.4999863728
 21
0.0072295547
 31
0.0
 40
0.5106100819
 41
6.0052939117
 42
7.0612004365
  0
ELLIPSE
  5
4A3
100
AcDbEntity
  8
RACCORDO
100
AcDbEllipse
 62
7
  6
CONTINUOUS
 10
1.2437214569
 20
42.0929731876
 30
0.0
 11
-0.4471615512
 21
0.8944566536
 31
0.0
 40
0.6125552124
 41
-2.255296188
 42
-0.6848044481
  0
ENDSEC
  0
SECTION
  2
OBJECTS
  0
DICTIONARY
  5
C
100
AcDbDictionary
280
0
281
1
  3
ACAD_GROUP
350
D
  3
ACAD_MLINESTYLE
350
17
  3
ACAD_LAYOUT
350
1A
  3
ACAD_PLOTSETTINGS
350
19
  3
ACAD_PLOTSTYLENAME
350
E
  0
DICTIONARY
  5
D
102
{ACAD_REACTORS
330
C
102
}
100
AcDbDictionary
280
0
281
1
  0
ACDBDICTIONARYWDFLT
  5
E
102
{ACAD_REACTORS
330
C
102
}
100
AcDbDictionary
281
1
  3
Normal
350
F
100
AcDbDictionaryWithDefault
340
F
  0
DICTIONARY
  5
17
102
{ACAD_REACTORS
330
C
102
}
100
AcDbDictionary
280
0
281
1
  3
Standard
350
18
  0
DICTIONARY
  5
19
102
{ACAD_REACTORS
330
C
102
}
100
AcDbDictionary
281
1
  0
DICTIONARY
  5
1A
102
{ACAD_REACTORS
330
C
102
}
100
AcDbDictionary
281
1
  3
Model
350
4A4
  3
Layout1
350
4A5
  0
ACDBPLACEHOLDER
  5
F
102
{ACAD_REACTORS
330
E
102
}
  0
MLINESTYLE
  5
18
102
{ACAD_REACTORS
330
17
102
}
100
AcDbMlineStyle
  2
STANDARD
 70
0
  3

 62
256
 51
90.0
 52
90.0
 71
2
 49
0.5
 62
256
  6
BYLAYER
 49
-0.5
 62
256
  6
BYLAYER
  0
LAYOUT
  5
4A4
102
{ACAD_REACTORS
330
1A
102
}
100
AcDbPlotSettings
  1

  2
none_device
  4
ISO_A4_(297.00_x_210.00_MM)
  6

 40
0.0
 41
0.0
 42
0.0
 43
0.0
 44
297.0
 45
210.0
 46
0.0
 47
0.0
 48
0.0
 49
0.0
140
0.0
141
0.0
142
1.0
143
1.0
 70
1024
 72
1
 73
0
 74
0
  7

 75
0
147
1.0
148
0.0
149
0.0
100
AcDbLayout
  1
Model
 70
0
 71
0
 10
0.0
 20
0.0
 11
297.0
 21
210.0
 12
0.0
 22
0.0
 32
0.0
 14
0.0
 24
0.0
 34
0.0
 15
0.0
 25
0.0
 35
0.0
146
0.0
 13
0.0
 23
0.0
 33
0.0
 16
1.0
 26
0.0
 36
0.0
 17
0.0
 27
1.0
 37
0.0
 76
0
330
213
345
0
346
0
  0
LAYOUT
  5
4A5
102
{ACAD_REACTORS
330
1A
102
}
100
AcDbPlotSettings
  1

  2
none_device
  4
ISO_A4_(297.00_x_210.00_MM)
  6

 40
0.0
 41
0.0
 42
0.0
 43
0.0
 44
297.0
 45
210.0
 46
0.0
 47
0.0
 48
0.0
 49
0.0
140
0.0
141
0.0
142
1.0
143
1.0
 70
0
 72
1
 73
0
 74
0
  7

 75
0
147
1.0
148
0.0
149
0.0
100
AcDbLayout
  1
Layout1
 70
0
 71
1
 10
0.0
 20
0.0
 11
297.0
 21
210.0
 12
0.0
 22
0.0
 32
0.0
 14
0.0
 24
0.0
 34
0.0
 15
0.0
 25
0.0
 35
0.0
146
0.0
 13
0.0
 23
0.0
 33
0.0
 16
1.0
 26
0.0
 36
0.0
 17
0.0
 27
1.0
 37
0.0
 76
0
330
214
345
0
346
0
  0
ENDSEC
  0
EOF
