  0
SECTION
  2
HEADER
  9
$ACADVER
  1
AC1015
  9
$DWGCODEPAGE
  3
ANSI_1252
  9
$EXTMAX
 10
297.0
 20
210.0
 30
0.0
  9
$EXTMIN
 10
0.0
 20
0.0
 30
0.0
  9
$LIMMIN
 10
0.0
 20
0.0
  9
$LIMMAX
 10
297.0
 20
210.0
  9
$VIEWCTR
 10
148.5
 20
105.0
  9
$VIEWSIZE
 40
210.0
  9
$CLAYER
  8
0
  9
$LTSCALE
 40
16.335
  9
$CELTYPE
  6
BYLAYER
  9
$DIMSCALE
 40
1.0
  9
$DIMASZ
 40
3.0
  9
$DIMEXO
 40
1.85625
  9
$DIMDLI
 40
11.286
  9
$DIMEXE
 40
5.346
  9
$DIMCEN
 40
2.673
  9
$DIMLFAC
 40
1.0
  9
$DIMBLK
  1
_FILLED
  9
$DIMTXT
 40
3.0
  9
$DIMTOL
 70
1
  9
$DIMLIM
 70
0
  9
$DIMTFAC
 40
1.0
  9
$DIMTP
 40
0.01
  9
$DIMTM
 40
0.01
  9
$PDMODE
 70
3
  9
$PDSIZE
 40
3.0
  9
$HANDSEED
  5
4D5
  9
$TILEMODE
 70
1
  9
$MEASUREMENT
 70
1
  9
$INSUNITS
 70
4
  0
ENDSEC
  0
SECTION
  2
CLASSES
  0
CLASS
  1
ACDBDICTIONARYWDFLT
  2
AcDbDictionaryWithDefault
  3
AutoCAD 2000
 90
0
280
0
281
0
  0
CLASS
  1
ACDBPLACEHOLDER
  2
AcDbPlaceHolder
  3
AutoCAD 2000
 90
0
280
0
281
0
  0
CLASS
  1
LAYOUT
  2
AcDbLayout
  3
AutoCAD 2000
 90
0
280
0
281
0
  0
ENDSEC
  0
SECTION
  2
TABLES
  0
TABLE
  2
VPORT
  5
8
100
AcDbSymbolTable
 70
2
  0
VPORT
  5
1F4
100
AcDbSymbolTableRecord
100
AcDbViewportTableRecord
  2
*ACTIVE
 70
0
 10
0.0
 20
0.0
 11
1.0
 21
1.0
 12
148.5
 22
105.0
 13
0.0
 23
0.0
 14
1.0
 24
1.0
 15
0.0
 25
0.0
 16
0.0
 26
0.0
 36
1.0
 17
0.0
 27
0.0
 37
0.0
 40
210.0
 41
1.4142857143
 42
50.0
 43
0.0
 44
0.0
 50
0.0
 51
0.0
 71
0
 72
100
 73
1
 74
1
 75
0
 76
0
 77
0
 78
0
  0
ENDTAB
  0
TABLE
  2
LTYPE
  5
5
100
AcDbSymbolTable
 70
6
  0
LTYPE
  5
14
100
AcDbSymbolTableRecord
100
AcDbLinetypeTableRecord
  2
BYBLOCK
 70
0
  3

 72
65
 73
0
 40
0.0
  0
LTYPE
  5
15
100
AcDbSymbolTableRecord
100
AcDbLinetypeTableRecord
  2
BYLAYER
 70
0
  3

 72
65
 73
0
 40
0.0
  0
LTYPE
  5
16
100
AcDbSymbolTableRecord
100
AcDbLinetypeTableRecord
  2
CONTINUOUS
 70
64
  3
Solid line
 72
65
 73
0
 40
0.0
  0
LTYPE
  5
1F5
100
AcDbSymbolTableRecord
100
AcDbLinetypeTableRecord
  2
CENTER
 70
64
  3
____ _ ____ _ ____ _ ____ _ ____ _ ____ _ ____
 72
65
 73
4
 40
0.6
 49
0.375
 74
0
 49
-0.075
 74
0
 49
0.075
 74
0
 49
-0.075
 74
0
  0
LTYPE
  5
1F6
100
AcDbSymbolTableRecord
100
AcDbLinetypeTableRecord
  2
HIDDEN
 70
64
  3
- - - - - - - - - - - - - - - - - - - -
 72
65
 73
2
 40
0.2
 49
0.1
 74
0
 49
-0.1
 74
0
  0
LTYPE
  5
1F7
100
AcDbSymbolTableRecord
100
AcDbLinetypeTableRecord
  2
PHANTOM
 70
64
  3
_____ _ _ _____ _ _ _____ _ _ _____
 72
65
 73
6
 40
0.8
 49
0.45
 74
0
 49
-0.05
 74
0
 49
0.1
 74
0
 49
-0.05
 74
0
 49
0.1
 74
0
 49
-0.05
 74
0
  0
LTYPE
  5
1F8
100
AcDbSymbolTableRecord
100
AcDbLinetypeTableRecord
  2
DOT
 70
64
  3
. . . . . . . . . . . . . . . . . . . .
 72
65
 73
2
 40
0.2
 49
0.1
 74
0
 49
-0.1
 74
0
  0
LTYPE
  5
1F9
100
AcDbSymbolTableRecord
100
AcDbLinetypeTableRecord
  2
DASHED
 70
64
  3
- - - - - - - - - - - - - - - - - - - -
 72
65
 73
2
 40
0.2
 49
0.1
 74
0
 49
-0.1
 74
0
  0
ENDTAB
  0
TABLE
  2
LAYER
  5
2
100
AcDbSymbolTable
 70
36
  0
LAYER
  5
10
100
AcDbSymbolTableRecord
100
AcDbLayerTableRecord
  2
0
 70
0
 62
7
  6
CONTINUOUS
370
-3
390
F
  0
LAYER
  5
1FA
100
AcDbSymbolTableRecord
100
AcDbLayerTableRecord
  2
DEFAULT_1
 70
0
 62
7
  6
CENTER
370
-3
390
F
  0
LAYER
  5
1FB
100
AcDbSymbolTableRecord
100
AcDbLayerTableRecord
  2
DEFAULT_2
 70
0
 62
7
  6
HIDDEN
370
-3
390
F
  0
LAYER
  5
1FC
100
AcDbSymbolTableRecord
100
AcDbLayerTableRecord
  2
DEFAULT_3
 70
0
 62
7
  6
PHANTOM
370
-3
390
F
  0
LAYER
  5
1FD
100
AcDbSymbolTableRecord
100
AcDbLayerTableRecord
  2
ASSI
 70
0
 62
7
  6
CONTINUOUS
370
-3
390
F
  0
LAYER
  5
1FE
100
AcDbSymbolTableRecord
100
AcDbLayerTableRecord
  2
COORDINATE
 70
0
 62
7
  6
CONTINUOUS
370
-3
390
F
  0
LAYER
  5
1FF
100
AcDbSymbolTableRecord
100
AcDbLayerTableRecord
  2
COORD_ORIGINE
 70
0
 62
7
  6
CONTINUOUS
370
-3
390
F
  0
LAYER
  5
200
100
AcDbSymbolTableRecord
100
AcDbLayerTableRecord
  2
COPY_PUBLISH
 70
0
 62
7
  6
CONTINUOUS
370
-3
390
F
  0
LAYER
  5
201
100
AcDbSymbolTableRecord
100
AcDbLayerTableRecord
  2
COSMETIC
 70
0
 62
7
  6
CONTINUOUS
370
-3
390
F
  0
LAYER
  5
202
100
AcDbSymbolTableRecord
100
AcDbLayerTableRecord
  2
CURVE
 70
0
 62
7
  6
CONTINUOUS
370
-3
390
F
  0
LAYER
  5
203
100
AcDbSymbolTableRecord
100
AcDbLayerTableRecord
  2
DRAFT
 70
0
 62
7
  6
CONTINUOUS
370
-3
390
F
  0
LAYER
  5
204
100
AcDbSymbolTableRecord
100
AcDbLayerTableRecord
  2
IMPORT_IGES
 70
0
 62
7
  6
CONTINUOUS
370
-3
390
F
  0
LAYER
  5
205
100
AcDbSymbolTableRecord
100
AcDbLayerTableRecord
  2
NOTE
 70
0
 62
7
  6
CONTINUOUS
370
-3
390
F
  0
LAYER
  5
206
100
AcDbSymbolTableRecord
100
AcDbLayerTableRecord
  2
PIANI
 70
0
 62
7
  6
CONTINUOUS
370
-3
390
F
  0
LAYER
  5
207
100
AcDbSymbolTableRecord
100
AcDbLayerTableRecord
  2
PIANI_ORIGINE
 70
0
 62
7
  6
CONTINUOUS
370
-3
390
F
  0
LAYER
  5
208
100
AcDbSymbolTableRecord
100
AcDbLayerTableRecord
  2
PUNTI
 70
0
 62
7
  6
CONTINUOUS
370
-3
390
F
  0
LAYER
  5
209
100
AcDbSymbolTableRecord
100
AcDbLayerTableRecord
  2
RACCORDO
 70
0
 62
7
  6
CONTINUOUS
370
-3
390
F
  0
LAYER
  5
20A
100
AcDbSymbolTableRecord
100
AcDbLayerTableRecord
  2
SMUSSO
 70
0
 62
7
  6
CONTINUOUS
370
-3
390
F
  0
LAYER
  5
20B
100
AcDbSymbolTableRecord
100
AcDbLayerTableRecord
  2
SUPERFICI
 70
0
 62
7
  6
CONTINUOUS
370
-3
390
F
  0
LAYER
  5
20C
100
AcDbSymbolTableRecord
100
AcDbLayerTableRecord
  2
TRASH
 70
0
 62
7
  6
CONTINUOUS
370
-3
390
F
  0
LAYER
  5
20D
100
AcDbSymbolTableRecord
100
AcDbLayerTableRecord
  2
XSEC_DATUMS
 70
0
 62
7
  6
CONTINUOUS
370
-3
390
F
  0
ENDTAB
  0
TABLE
  2
STYLE
  5
3
100
AcDbSymbolTable
 70
1
  0
STYLE
  5
11
100
AcDbSymbolTableRecord
100
AcDbTextStyleTableRecord
  2
STANDARD
 70
0
 40
0.0
 41
0.8
 50
0.0
 71
0
 42
0.2
  3
txt
  4

  0
STYLE
  5
20E
100
AcDbSymbolTableRecord
100
AcDbTextStyleTableRecord
  2
TEXTSTYLE_1
 70
0
 40
0.0
 41
0.8
 50
0.0
 71
0
 42
0.2
  3
gdt
  4

  0
ENDTAB
  0
TABLE
  2
VIEW
  5
6
100
AcDbSymbolTable
 70
0
  0
ENDTAB
  0
TABLE
  2
UCS
  5
7
100
AcDbSymbolTable
 70
0
  0
ENDTAB
  0
TABLE
  2
APPID
  5
9
100
AcDbSymbolTable
 70
1
  0
APPID
  5
20F
100
AcDbSymbolTableRecord
100
AcDbRegAppTableRecord
  2
ACAD
 70
0
  0
ENDTAB
  0
TABLE
  2
BLOCK_RECORD
  5
1
100
AcDbSymbolTable
 70
0
  0
BLOCK_RECORD
  5
210
100
AcDbSymbolTableRecord
100
AcDbBlockTableRecord
  2
*Model_Space
  0
BLOCK_RECORD
  5
211
100
AcDbSymbolTableRecord
100
AcDbBlockTableRecord
  2
*Paper_Space
  0
ENDTAB
  0
TABLE
  2
DIMSTYLE
  5
A
100
AcDbSymbolTable
 70
1
100
AcDbDimStyleTable
 71
0
  0
DIMSTYLE
105
212
100
AcDbSymbolTableRecord
100
AcDbDimStyleTableRecord
  2
STANDARD
 70
0
  3

  4

 40
1.0
 41
3.0
 42
0.0625
 43
0.38
 44
0.18
 45
0.0
 46
0.0
 47
0.01
 48
0.01
140
3.0
141
0.09
142
0.0
143
25.4
144
1.0
145
0.0
146
1.0
147
0.09
 71
1.0
 72
0.0
 73
0
 74
0
 75
0
 76
0
 77
1
 78
8
170
0
171
2
172
0
173
0
174
0
175
0
176
0
177
0
178
0
270
2
271
2
272
2
273
2
274
2
275
0
280
0
281
0
282
0
283
1
284
8
285
0
286
0
287
3
288
0
340
11
  0
ENDTAB
  0
ENDSEC
  0
SECTION
  2
BLOCKS
  0
BLOCK
  5
20
100
AcDbEntity
  8
0
100
AcDbBlockBegin
  2
*Model_Space
 70
0
 10
0.0
 20
0.0
 30
0.0
  3
*Model_Space
  1

  0
ENDBLK
  5
21
100
AcDbEntity
  8
0
100
AcDbBlockEnd
  0
BLOCK
  5
1C
100
AcDbEntity
  8
0
100
AcDbBlockBegin
  2
*Paper_Space
 70
0
 10
0.0
 20
0.0
 30
0.0
  3
*Paper_Space
  1

  0
ENDBLK
  5
1D
100
AcDbEntity
  8
0
100
AcDbBlockEnd
  0
ENDSEC
  0
SECTION
  2
ENTITIES
  0
LINE
  5
213
100
AcDbEntity
  8
ASSI
100
AcDbLine
 62
7
  6
CONTINUOUS
 10
-77.7086403703
 20
77.2489852151
 11
-80.3249354607
 21
75.9408376699
  0
LINE
  5
214
100
AcDbEntity
  8
RACCORDO
100
AcDbLine
 62
253
  6
CONTINUOUS
 10
-73.2365044153
 20
76.964967343
 11
-75.8527995057
 21
75.6568197978
  0
LINE
  5
215
100
AcDbEntity
  8
0
100
AcDbLine
 62
7
  6
CONTINUOUS
 10
-68.8667133714
 20
53.9406932372
 11
-68.7463763548
 21
54.0743437718
  0
LINE
  5
216
100
AcDbEntity
  8
DRAFT
100
AcDbLine
 62
7
  6
CONTINUOUS
 10
-59.5413549744
 20
71.3715268351
 11
-60.8306879735
 21
70.7620591221
  0
LINE
  5
217
100
AcDbEntity
  8
RACCORDO
100
AcDbLine
 62
7
  6
CONTINUOUS
 10
-83.5096537552
 20
69.8249928847
 11
-83.5096537552
 21
-15.0454966862
  0
LINE
  5
218
100
AcDbEntity
  8
RACCORDO
100
AcDbLine
 62
253
  6
CONTINUOUS
 10
-82.9238673176
 20
69.1178861035
 11
-82.9238673176
 21
-15.7526034674
  0
LINE
  5
219
100
AcDbEntity
  8
0
100
AcDbLine
 62
7
  6
CONTINUOUS
 10
-69.3827724579
 20
55.6918813178
 11
-69.488838475
 21
55.3082840282
  0
LINE
  5
21A
100
AcDbEntity
  8
DRAFT
100
AcDbLine
 62
7
  6
CONTINUOUS
 10
-48.884877434
 20
66.519437077
 11
-49.8807618376
 21
65.2870960541
  0
LINE
  5
21B
100
AcDbEntity
  8
DRAFT
100
AcDbLine
 62
7
  6
CONTINUOUS
 10
-47.9492353574
 20
66.0516160387
 11
-48.9805038463
 21
64.8369670585
  0
LINE
  5
21C
100
AcDbEntity
  8
0
100
AcDbLine
 62
7
  6
CONTINUOUS
 10
-69.3827724579
 20
55.6918813178
 11
-69.3011710969
 21
55.7326819983
  0
LINE
  5
21D
100
AcDbEntity
  8
0
100
AcDbLine
 62
7
  6
CONTINUOUS
 10
-70.1640578228
 20
54.9706743544
 11
-69.488838475
 21
55.3082840282
  0
LINE
  5
21E
100
AcDbEntity
  8
0
100
AcDbLine
 62
7
  6
CONTINUOUS
 10
-70.1808716493
 20
54.9188015787
 11
-69.3760954868
 21
55.3211896599
  0
LINE
  5
21F
100
AcDbEntity
  8
0
100
AcDbLine
 62
7
  6
CONTINUOUS
 10
-69.4268112651
 20
54.9460133718
 11
-70.5425323416
 21
54.3881528335
  0
LINE
  5
220
100
AcDbEntity
  8
0
100
AcDbLine
 62
7
  6
CONTINUOUS
 10
-70.1808716493
 20
54.0186140982
 11
-69.3163245137
 21
54.450887666
  0
LINE
  5
221
100
AcDbEntity
  8
0
100
AcDbLine
 62
7
  6
CONTINUOUS
 10
-70.1640578228
 20
53.9556619302
 11
-69.488838475
 21
54.2932716041
  0
LINE
  5
222
100
AcDbEntity
  8
0
100
AcDbLine
 62
7
  6
CONTINUOUS
 10
-69.3827724579
 20
53.8036082973
 11
-68.7463763548
 21
54.1218063489
  0
LINE
  5
223
100
AcDbEntity
  8
0
100
AcDbLine
 62
7
  6
CONTINUOUS
 10
-69.4458716493
 20
53.6511140982
 11
-68.5783675816
 21
54.0848661321
  0
LINE
  5
224
100
AcDbEntity
  8
0
100
AcDbLine
 62
7
  6
CONTINUOUS
 10
-69.0007638765
 20
53.617268601
 11
-68.2543207
 21
53.9904901892
  0
LINE
  5
225
100
AcDbEntity
  8
0
100
AcDbLine
 62
7
  6
CONTINUOUS
 10
-69.488838475
 20
52.4589035668
 11
-69.7716811875
 21
52.3174822105
  0
LINE
  5
226
100
AcDbEntity
  8
RACCORDO
100
AcDbLine
 62
7
  6
CONTINUOUS
 10
-13.5700444293
 20
81.0605490736
 11
-41.9953715359
 21
66.9613772744
  0
LINE
  5
227
100
AcDbEntity
  8
RACCORDO
100
AcDbLine
 62
253
  6
CONTINUOUS
 10
-52.0233009797
 20
69.6474945767
 11
-49.8896399212
 21
70.6687116972
  0
LINE
  5
228
100
AcDbEntity
  8
DRAFT
100
AcDbLine
 62
7
  6
CONTINUOUS
 10
-47.7680504421
 20
69.8477167275
 11
-18.6658630304
 21
83.5722276888
  0
LINE
  5
229
100
AcDbEntity
  8
RACCORDO
100
AcDbLine
 62
253
  6
CONTINUOUS
 10
-15.7502594514
 20
82.1506565846
 11
-15.7876046835
 21
82.1330985154
  0
LINE
  5
22A
100
AcDbEntity
  8
RACCORDO
100
AcDbLine
 62
7
  6
CONTINUOUS
 10
-14.7420876536
 20
81.6465706857
 11
-44.1773755519
 21
68.0523792824
  0
LINE
  5
22B
100
AcDbEntity
  8
RACCORDO
100
AcDbLine
 62
7
  6
CONTINUOUS
 10
-15.832224505
 20
82.2263008565
 11
-15.9081914344
 21
82.1933918908
  0
LINE
  5
22C
100
AcDbEntity
  8
0
100
AcDbLine
 62
7
  6
CONTINUOUS
 10
-69.488838475
 20
-13.2567098911
 11
-69.3827724579
 21
-13.7463731979
  0
LINE
  5
22D
100
AcDbEntity
  8
0
100
AcDbLine
 62
7
  6
CONTINUOUS
 10
-68.7499703073
 20
-13.4115833412
 11
-68.7463763548
 21
-13.4281751463
  0
LINE
  5
22E
100
AcDbEntity
  8
0
100
AcDbLine
 62
7
  6
CONTINUOUS
 10
-69.488838475
 20
56.1884390799
 11
-69.488838475
 21
55.3082840282
  0
LINE
  5
22F
100
AcDbEntity
  8
0
100
AcDbLine
 62
7
  6
CONTINUOUS
 10
-69.488838475
 20
54.2932716041
 11
-69.488838475
 21
52.4589035668
  0
LINE
  5
230
100
AcDbEntity
  8
0
100
AcDbLine
 62
7
  6
CONTINUOUS
 10
-69.488838475
 20
-11.3615424153
 11
-69.488838475
 21
-12.241697467
  0
LINE
  5
231
100
AcDbEntity
  8
0
100
AcDbLine
 62
7
  6
CONTINUOUS
 10
-69.488838475
 20
-13.2567098911
 11
-69.488838475
 21
-15.0910779284
  0
LINE
  5
232
100
AcDbEntity
  8
0
100
AcDbLine
 62
7
  6
CONTINUOUS
 10
-69.3827724579
 20
-13.8673178013
 11
-69.3827724579
 21
-13.7463731979
  0
LINE
  5
233
100
AcDbEntity
  8
0
100
AcDbLine
 62
7
  6
CONTINUOUS
 10
-69.3827724579
 20
-11.8581001774
 11
-69.3827724579
 21
-11.4662336024
  0
LINE
  5
234
100
AcDbEntity
  8
0
100
AcDbLine
 62
7
  6
CONTINUOUS
 10
-69.3827724579
 20
53.6826636939
 11
-69.3827724579
 21
53.8036082973
  0
LINE
  5
235
100
AcDbEntity
  8
0
100
AcDbLine
 62
7
  6
CONTINUOUS
 10
-69.3827724579
 20
55.6918813178
 11
-69.3827724579
 21
56.0837478928
  0
LINE
  5
236
100
AcDbEntity
  8
0
100
AcDbLine
 62
7
  6
CONTINUOUS
 10
-68.7463763548
 20
-13.4756377234
 11
-68.7463763548
 21
-13.4281751463
  0
LINE
  5
237
100
AcDbEntity
  8
0
100
AcDbLine
 62
7
  6
CONTINUOUS
 10
-68.7463763548
 20
54.0743437718
 11
-68.7463763548
 21
54.1218063489
  0
LINE
  5
238
100
AcDbEntity
  8
0
100
AcDbLine
 62
7
  6
CONTINUOUS
 10
-69.3827724579
 20
-11.8581001774
 11
-69.488838475
 21
-12.241697467
  0
LINE
  5
239
100
AcDbEntity
  8
0
100
AcDbLine
 62
7
  6
CONTINUOUS
 10
27.2857198096
 20
-61.9333286103
 11
28.8703610179
 21
-61.6682218446
  0
LINE
  5
23A
100
AcDbEntity
  8
DRAFT
100
AcDbLine
 62
7
  6
CONTINUOUS
 10
-28.8737555264
 20
56.5138761232
 11
-29.86963993
 21
55.2815351003
  0
LINE
  5
23B
100
AcDbEntity
  8
DRAFT
100
AcDbLine
 62
7
  6
CONTINUOUS
 10
-27.9381134498
 20
56.0460550849
 11
-28.9693819388
 21
54.8314061047
  0
LINE
  5
23C
100
AcDbEntity
  8
RACCORDO
100
AcDbLine
 62
7
  6
CONTINUOUS
 10
-21.8323753824
 20
51.2629028265
 11
-18.866417222
 21
52.8631052981
  0
LINE
  5
23D
100
AcDbEntity
  8
RACCORDO
100
AcDbLine
 62
253
  6
CONTINUOUS
 10
-21.5727582452
 20
51.1330942579
 11
-18.4086828606
 21
52.8401855172
  0
LINE
  5
23E
100
AcDbEntity
  8
RACCORDO
100
AcDbLine
 62
7
  6
CONTINUOUS
 10
14.9563971563
 20
66.7973282808
 11
-14.478890742
 21
53.2031368775
  0
LINE
  5
23F
100
AcDbEntity
  8
DRAFT
100
AcDbLine
 62
7
  6
CONTINUOUS
 10
49.2343900862
 20
-49.5172167608
 11
46.2645416052
 21
-49.9553516942
  0
LINE
  5
240
100
AcDbEntity
  8
DRAFT
100
AcDbLine
 62
7
  6
CONTINUOUS
 10
49.2343900862
 20
-50.6631395957
 11
46.2645416052
 21
-51.0207731644
  0
LINE
  5
241
100
AcDbEntity
  8
RACCORDO
100
AcDbLine
 62
7
  6
CONTINUOUS
 10
-76.7472266967
 20
-26.5909814232
 11
35.6827515119
 21
-82.8059705275
  0
LINE
  5
242
100
AcDbEntity
  8
RACCORDO
100
AcDbLine
 62
253
  6
CONTINUOUS
 10
-77.2670130681
 20
-25.5092338224
 11
35.1629651406
 21
-81.7242229267
  0
LINE
  5
243
100
AcDbEntity
  8
0
100
AcDbLine
 62
7
  6
CONTINUOUS
 10
-69.488838475
 20
54.2932716041
 11
-69.3827724579
 21
53.8036082973
  0
LINE
  5
244
100
AcDbEntity
  8
0
100
AcDbLine
 62
7
  6
CONTINUOUS
 10
-68.7499703073
 20
54.138398154
 11
-68.7463763548
 21
54.1218063489
  0
LINE
  5
245
100
AcDbEntity
  8
DRAFT
100
AcDbLine
 62
7
  6
CONTINUOUS
 10
-48.884877434
 20
66.519437077
 11
-48.884877434
 21
66.5526934423
  0
LINE
  5
246
100
AcDbEntity
  8
DRAFT
100
AcDbLine
 62
7
  6
CONTINUOUS
 10
-47.9492353574
 20
66.0516160387
 11
-47.9492353574
 21
66.0848724039
  0
LINE
  5
247
100
AcDbEntity
  8
DRAFT
100
AcDbLine
 62
7
  6
CONTINUOUS
 10
-46.3664467302
 20
63.5299385004
 11
-46.3664467302
 21
65.2934780904
  0
LINE
  5
248
100
AcDbEntity
  8
DRAFT
100
AcDbLine
 62
7
  6
CONTINUOUS
 10
-17.9776236168
 20
49.3355269437
 11
-17.2960411225
 21
49.6763181909
  0
LINE
  5
249
100
AcDbEntity
  8
RACCORDO
100
AcDbLine
 62
7
  6
CONTINUOUS
 10
16.1284403805
 20
66.2113066687
 11
-12.2968867261
 21
52.1121348695
  0
LINE
  5
24A
100
AcDbEntity
  8
RACCORDO
100
AcDbLine
 62
7
  6
CONTINUOUS
 10
15.9297247507
 20
66.3808178151
 11
-13.5785002597
 21
52.7529416363
  0
LINE
  5
24B
100
AcDbEntity
  8
0
100
AcDbLine
 62
7
  6
CONTINUOUS
 10
-68.8667133714
 20
-13.609288258
 11
-68.7463763548
 21
-13.4756377234
  0
LINE
  5
24C
100
AcDbEntity
  8
DRAFT
100
AcDbLine
 62
7
  6
CONTINUOUS
 10
-6.5391275635
 20
43.6162789171
 11
-5.8575450692
 21
43.9570701642
  0
LINE
  5
24D
100
AcDbEntity
  8
0
100
AcDbLine
 62
7
  6
CONTINUOUS
 10
29.6149482565
 20
-62.656300029
 11
29.5414662301
 21
-62.6195590159
  0
LINE
  5
24E
100
AcDbEntity
  8
0
100
AcDbLine
 62
7
  6
CONTINUOUS
 10
-68.6728943285
 20
-13.5123787366
 11
-68.7463763548
 21
-13.4756377234
  0
LINE
  5
24F
100
AcDbEntity
  8
RACCORDO
100
AcDbLine
 62
253
  6
CONTINUOUS
 10
1.3362149871
 20
42.9677365933
 11
-1.9402809887
 21
41.3168556297
  0
LINE
  5
250
100
AcDbEntity
  8
RACCORDO
100
AcDbLine
 62
253
  6
CONTINUOUS
 10
2.0432140725
 20
41.7483435467
 11
-0.3707141467
 21
40.5320722086
  0
LINE
  5
251
100
AcDbEntity
  8
DRAFT
100
AcDbLine
 62
7
  6
CONTINUOUS
 10
49.2343900862
 20
-26.3077359394
 11
46.2645416052
 21
-26.7458708728
  0
LINE
  5
252
100
AcDbEntity
  8
DRAFT
100
AcDbLine
 62
7
  6
CONTINUOUS
 10
49.2343900862
 20
-27.4536587742
 11
46.2645416052
 21
-27.811292343
  0
LINE
  5
253
100
AcDbEntity
  8
DRAFT
100
AcDbLine
 62
7
  6
CONTINUOUS
 10
-28.8737555264
 20
56.5138761232
 11
-28.8737555264
 21
56.5471324885
  0
LINE
  5
254
100
AcDbEntity
  8
DRAFT
100
AcDbLine
 62
7
  6
CONTINUOUS
 10
-27.9381134498
 20
56.0460550849
 11
-27.9381134498
 21
56.0793114502
  0
LINE
  5
255
100
AcDbEntity
  8
DRAFT
100
AcDbLine
 62
7
  6
CONTINUOUS
 10
-26.3553248227
 20
53.5243775466
 11
-26.3553248227
 21
55.2879171366
  0
LINE
  5
256
100
AcDbEntity
  8
RACCORDO
100
AcDbLine
 62
7
  6
CONTINUOUS
 10
45.8269251904
 20
51.3620642638
 11
17.4015980837
 21
37.2628924646
  0
LINE
  5
257
100
AcDbEntity
  8
RACCORDO
100
AcDbLine
 62
7
  6
CONTINUOUS
 10
44.6548819661
 20
51.9480858759
 11
15.2195940678
 21
38.3538944726
  0
LINE
  5
258
100
AcDbEntity
  8
RACCORDO
100
AcDbLine
 62
7
  6
CONTINUOUS
 10
45.6282095606
 20
51.5315754102
 11
16.1199845501
 21
37.9036992314
  0
LINE
  5
259
100
AcDbEntity
  8
DRAFT
100
AcDbLine
 62
7
  6
CONTINUOUS
 10
49.2343900862
 20
-50.6631395957
 11
49.2615437947
 21
-50.6767164499
  0
LINE
  5
25A
100
AcDbEntity
  8
RACCORDO
100
AcDbLine
 62
253
  6
CONTINUOUS
 10
-20.421745302
 20
50.7411565012
 11
-20.421745302
 21
50.5575877863
  0
LINE
  5
25B
100
AcDbEntity
  8
0
100
AcDbLine
 62
7
  6
CONTINUOUS
 10
-69.3827724579
 20
-11.8581001774
 11
-69.3011710969
 21
-11.8172994969
  0
LINE
  5
25C
100
AcDbEntity
  8
0
100
AcDbLine
 62
7
  6
CONTINUOUS
 10
-70.1640578228
 20
-12.5793071408
 11
-69.488838475
 21
-12.241697467
  0
LINE
  5
25D
100
AcDbEntity
  8
0
100
AcDbLine
 62
7
  6
CONTINUOUS
 10
-70.1808716493
 20
-12.6311799165
 11
-69.3760954868
 21
-12.2287918353
  0
LINE
  5
25E
100
AcDbEntity
  8
0
100
AcDbLine
 62
7
  6
CONTINUOUS
 10
-69.4268112651
 20
-12.6039681234
 11
-70.5425323416
 21
-13.1618286617
  0
LINE
  5
25F
100
AcDbEntity
  8
0
100
AcDbLine
 62
7
  6
CONTINUOUS
 10
-70.1808716493
 20
-13.531367397
 11
-69.3163245137
 21
-13.0990938292
  0
LINE
  5
260
100
AcDbEntity
  8
0
100
AcDbLine
 62
7
  6
CONTINUOUS
 10
-70.1640578228
 20
-13.594319565
 11
-69.488838475
 21
-13.2567098911
  0
LINE
  5
261
100
AcDbEntity
  8
0
100
AcDbLine
 62
7
  6
CONTINUOUS
 10
-69.3827724579
 20
-13.7463731979
 11
-68.7463763548
 21
-13.4281751463
  0
LINE
  5
262
100
AcDbEntity
  8
0
100
AcDbLine
 62
7
  6
CONTINUOUS
 10
-69.4458716493
 20
-13.898867397
 11
-68.5783675816
 21
-13.4651153631
  0
LINE
  5
263
100
AcDbEntity
  8
0
100
AcDbLine
 62
7
  6
CONTINUOUS
 10
-69.0007638765
 20
-13.9327128942
 11
-68.2543207
 21
-13.559491306
  0
LINE
  5
264
100
AcDbEntity
  8
0
100
AcDbLine
 62
7
  6
CONTINUOUS
 10
-69.488838475
 20
-15.0910779284
 11
-69.7716811875
 21
-15.2324992847
  0
LINE
  5
265
100
AcDbEntity
  8
DRAFT
100
AcDbLine
 62
7
  6
CONTINUOUS
 10
49.2343900862
 20
-49.5172167608
 11
49.2615437947
 21
-49.5307936151
  0
LINE
  5
266
100
AcDbEntity
  8
DRAFT
100
AcDbLine
 62
7
  6
CONTINUOUS
 10
47.5004666228
 20
-47.0613637453
 11
49.2615437947
 21
-47.9419023312
  0
LINE
  5
267
100
AcDbEntity
  8
RACCORDO
100
AcDbLine
 62
7
  6
CONTINUOUS
 10
-13.5566920832
 20
81.0605490736
 11
-13.5566920832
 21
81.7619292348
  0
LINE
  5
268
100
AcDbEntity
  8
DRAFT
100
AcDbLine
 62
7
  6
CONTINUOUS
 10
5.9076929913
 20
61.2620853981
 11
6.0435281709
 21
61.8150446173
  0
LINE
  5
269
100
AcDbEntity
  8
DRAFT
100
AcDbLine
 62
7
  6
CONTINUOUS
 10
11.1484882887
 20
36.5027542157
 11
10.1526038851
 21
35.2704131928
  0
LINE
  5
26A
100
AcDbEntity
  8
DRAFT
100
AcDbLine
 62
7
  6
CONTINUOUS
 10
12.0841303654
 20
36.0349331773
 11
11.0528618764
 21
34.8202841971
  0
LINE
  5
26B
100
AcDbEntity
  8
RACCORDO
100
AcDbLine
 62
253
  6
CONTINUOUS
 10
37.0844941647
 20
27.1816446542
 11
34.9508331062
 21
26.1604275337
  0
LINE
  5
26C
100
AcDbEntity
  8
DRAFT
100
AcDbLine
 62
7
  6
CONTINUOUS
 10
49.2343900862
 20
-3.098255118
 11
46.2645416052
 21
-3.5363900513
  0
LINE
  5
26D
100
AcDbEntity
  8
DRAFT
100
AcDbLine
 62
7
  6
CONTINUOUS
 10
49.2343900862
 20
-4.2441779528
 11
46.2645416052
 21
-4.6018115216
  0
LINE
  5
26E
100
AcDbEntity
  8
RACCORDO
100
AcDbLine
 62
253
  6
CONTINUOUS
 10
-2.7318408897
 20
41.7171546039
 11
-2.7318408897
 21
41.8962042951
  0
LINE
  5
26F
100
AcDbEntity
  8
RACCORDO
100
AcDbLine
 62
253
  6
CONTINUOUS
 10
39.1934737933
 20
20.7499782386
 11
36.5771787029
 21
19.4418306935
  0
LINE
  5
270
100
AcDbEntity
  8
RACCORDO
100
AcDbLine
 62
7
  6
CONTINUOUS
 10
75.5254100002
 20
36.5128218589
 11
44.8338514852
 21
21.2895825742
  0
LINE
  5
271
100
AcDbEntity
  8
RACCORDO
100
AcDbLine
 62
7
  6
CONTINUOUS
 10
74.3533667759
 20
37.098843471
 11
43.4243785616
 21
22.8148117622
  0
LINE
  5
272
100
AcDbEntity
  8
RACCORDO
100
AcDbLine
 62
7
  6
CONTINUOUS
 10
75.3266943704
 20
36.6823330053
 11
44.0033952177
 21
22.2161954381
  0
LINE
  5
273
100
AcDbEntity
  8
0
100
AcDbLine
 62
7
  6
CONTINUOUS
 10
-71.0021227753
 20
-12.7894073178
 11
-69.417481567
 21
-12.5243005521
  0
LINE
  5
274
100
AcDbEntity
  8
0
100
AcDbLine
 62
7
  6
CONTINUOUS
 10
27.2857198096
 20
5.6166528849
 11
28.8703610179
 21
5.8817596506
  0
LINE
  5
275
100
AcDbEntity
  8
DRAFT
100
AcDbLine
 62
7
  6
CONTINUOUS
 10
49.2343900862
 20
-27.4536587742
 11
49.2615437947
 21
-27.4672356285
  0
LINE
  5
276
100
AcDbEntity
  8
DRAFT
100
AcDbLine
 62
7
  6
CONTINUOUS
 10
49.2343900862
 20
-26.3077359394
 11
49.2615437947
 21
-26.3213127937
  0
LINE
  5
277
100
AcDbEntity
  8
DRAFT
100
AcDbLine
 62
7
  6
CONTINUOUS
 10
47.5004666228
 20
-23.8518829239
 11
49.2615437947
 21
-24.7324215098
  0
LINE
  5
278
100
AcDbEntity
  8
RACCORDO
100
AcDbLine
 62
7
  6
CONTINUOUS
 10
2.0432140725
 20
41.7483435467
 11
2.0432140725
 21
41.088647689
  0
LINE
  5
279
100
AcDbEntity
  8
DRAFT
100
AcDbLine
 62
7
  6
CONTINUOUS
 10
3.6260026997
 20
38.5337137855
 11
3.6260026997
 21
40.2972533754
  0
LINE
  5
27A
100
AcDbEntity
  8
DRAFT
100
AcDbLine
 62
7
  6
CONTINUOUS
 10
31.1596101963
 20
26.4971932619
 11
30.1637257927
 21
25.264852239
  0
LINE
  5
27B
100
AcDbEntity
  8
DRAFT
100
AcDbLine
 62
7
  6
CONTINUOUS
 10
32.095252273
 20
26.0293722236
 11
31.063983784
 21
24.8147232433
  0
LINE
  5
27C
100
AcDbEntity
  8
DRAFT
100
AcDbLine
 62
7
  6
CONTINUOUS
 10
48.2773728835
 20
16.4728073117
 11
79.8380174416
 21
32.7301806759
  0
LINE
  5
27D
100
AcDbEntity
  8
DRAFT
100
AcDbLine
 62
7
  6
CONTINUOUS
 10
80.2557376378
 20
33.0329212458
 11
48.1816123942
 21
16.6378724487
  0
LINE
  5
27E
100
AcDbEntity
  8
0
100
AcDbLine
 62
7
  6
CONTINUOUS
 10
28.9050701271
 20
6.5479600254
 11
28.986671488
 21
6.5887607059
  0
LINE
  5
27F
100
AcDbEntity
  8
0
100
AcDbLine
 62
7
  6
CONTINUOUS
 10
28.1237847621
 20
5.8267530619
 11
28.7990041099
 21
6.1643627358
  0
LINE
  5
280
100
AcDbEntity
  8
0
100
AcDbLine
 62
7
  6
CONTINUOUS
 10
28.1069709356
 20
5.7748802862
 11
28.9117470981
 21
6.1772683675
  0
LINE
  5
281
100
AcDbEntity
  8
0
100
AcDbLine
 62
7
  6
CONTINUOUS
 10
28.8610313198
 20
5.8020920793
 11
27.7453102434
 21
5.2442315411
  0
LINE
  5
282
100
AcDbEntity
  8
0
100
AcDbLine
 62
7
  6
CONTINUOUS
 10
28.1069709356
 20
4.8746928057
 11
28.9715180712
 21
5.3069663735
  0
LINE
  5
283
100
AcDbEntity
  8
0
100
AcDbLine
 62
7
  6
CONTINUOUS
 10
28.1237847621
 20
4.8117406377
 11
28.7990041099
 21
5.1493503116
  0
LINE
  5
284
100
AcDbEntity
  8
0
100
AcDbLine
 62
7
  6
CONTINUOUS
 10
28.9050701271
 20
4.6596870049
 11
29.5414662301
 21
4.9778850564
  0
LINE
  5
285
100
AcDbEntity
  8
0
100
AcDbLine
 62
7
  6
CONTINUOUS
 10
28.8419709356
 20
4.5071928057
 11
29.7094750033
 21
4.9409448396
  0
LINE
  5
286
100
AcDbEntity
  8
RACCORDO
100
AcDbLine
 62
253
  6
CONTINUOUS
 10
76.4968827406
 20
35.9908548033
 11
76.533581798
 21
36.00873596
  0
LINE
  5
287
100
AcDbEntity
  8
DRAFT
100
AcDbLine
 62
7
  6
CONTINUOUS
 10
54.5140701917
 20
19.2054282879
 11
80.1115754619
 21
31.6529073524
  0
LINE
  5
288
100
AcDbEntity
  8
DRAFT
100
AcDbLine
 62
7
  6
CONTINUOUS
 10
46.8198041956
 20
18.7380004414
 11
79.3751410874
 21
34.5517256299
  0
LINE
  5
289
100
AcDbEntity
  8
DRAFT
100
AcDbLine
 62
7
  6
CONTINUOUS
 10
81.7508078952
 20
30.4543064871
 11
49.2350060922
 21
14.7363283043
  0
LINE
  5
28A
100
AcDbEntity
  8
0
100
AcDbLine
 62
7
  6
CONTINUOUS
 10
73.4819653785
 20
-9.3917746662
 11
73.3582218098
 21
-9.3685976294
  0
LINE
  5
28B
100
AcDbEntity
  8
0
100
AcDbLine
 62
7
  6
CONTINUOUS
 10
73.5952901136
 20
-9.3158015213
 11
73.4996431661
 21
-9.2978869512
  0
LINE
  5
28C
100
AcDbEntity
  8
0
100
AcDbLine
 62
7
  6
CONTINUOUS
 10
73.3582218098
 20
-9.6007661413
 11
73.4255485238
 21
-9.6175870168
  0
LINE
  5
28D
100
AcDbEntity
  8
RACCORDO
100
AcDbLine
 62
7
  6
CONTINUOUS
 10
82.4213083918
 20
-32.2198479623
 11
83.4596983227
 21
-32.7390429278
  0
LINE
  5
28E
100
AcDbEntity
  8
DRAFT
100
AcDbLine
 62
7
  6
CONTINUOUS
 10
-5.6549920756
 20
43.1742111731
 11
-5.8575450692
 21
43.9570701642
  0
LINE
  5
28F
100
AcDbEntity
  8
DRAFT
100
AcDbLine
 62
7
  6
CONTINUOUS
 10
11.1484882887
 20
36.5027542157
 11
11.1484882887
 21
36.5360105809
  0
LINE
  5
290
100
AcDbEntity
  8
DRAFT
100
AcDbLine
 62
7
  6
CONTINUOUS
 10
12.0841303654
 20
36.0349331773
 11
12.0841303654
 21
36.0681895426
  0
LINE
  5
291
100
AcDbEntity
  8
DRAFT
100
AcDbLine
 62
7
  6
CONTINUOUS
 10
13.6669189925
 20
33.5132556391
 11
13.6669189925
 21
35.276795229
  0
LINE
  5
292
100
AcDbEntity
  8
RACCORDO
100
AcDbLine
 62
7
  6
CONTINUOUS
 10
16.1417927267
 20
66.9126868299
 11
16.1417927267
 21
66.2234455959
  0
LINE
  5
293
100
AcDbEntity
  8
DRAFT
100
AcDbLine
 62
7
  6
CONTINUOUS
 10
44.7338258419
 20
15.0083322698
 11
44.6181112959
 21
14.924468746
  0
LINE
  5
294
100
AcDbEntity
  8
DRAFT
100
AcDbLine
 62
7
  6
CONTINUOUS
 10
45.1743444983
 20
13.7070162923
 11
45.3954246991
 21
13.867243034
  0
LINE
  5
295
100
AcDbEntity
  8
DRAFT
100
AcDbLine
 62
7
  6
CONTINUOUS
 10
72.5554670281
 20
26.0093240749
 11
80.8119625807
 21
30.2521331149
  0
LINE
  5
296
100
AcDbEntity
  8
DRAFT
100
AcDbLine
 62
7
  6
CONTINUOUS
 10
50.3008650392
 20
12.4872500637
 11
82.6314044456
 21
28.935502103
  0
LINE
  5
297
100
AcDbEntity
  8
RACCORDO
100
AcDbLine
 62
253
  6
CONTINUOUS
 10
82.6677803664
 20
25.4288084389
 11
82.6314044456
 21
25.4103699542
  0
LINE
  5
298
100
AcDbEntity
  8
0
100
AcDbLine
 62
7
  6
CONTINUOUS
 10
29.2870787085
 20
4.4733473085
 11
30.0335218849
 21
4.8465688967
  0
LINE
  5
299
100
AcDbEntity
  8
0
100
AcDbLine
 62
7
  6
CONTINUOUS
 10
28.7990041099
 20
3.3149822743
 11
28.5161613974
 21
3.1735609181
  0
LINE
  5
29A
100
AcDbEntity
  8
RACCORDO
100
AcDbLine
 62
253
  6
CONTINUOUS
 10
46.2645416052
 20
8.5541902949
 11
43.6482465148
 21
7.2460427497
  0
LINE
  5
29B
100
AcDbEntity
  8
RACCORDO
100
AcDbLine
 62
7
  6
CONTINUOUS
 10
82.6677803664
 20
24.1940552001
 11
51.6331056949
 21
8.8006277723
  0
LINE
  5
29C
100
AcDbEntity
  8
DRAFT
100
AcDbLine
 62
253
  6
CONTINUOUS
 10
47.5004666228
 20
8.0178519354
 11
46.2645416052
 21
7.4210924774
  0
LINE
  5
29D
100
AcDbEntity
  8
DRAFT
100
AcDbLine
 62
7
  6
CONTINUOUS
 10
46.6741366731
 20
-62.4872018701
 11
46.2645416052
 21
-61.7807548773
  0
LINE
  5
29E
100
AcDbEntity
  8
0
100
AcDbLine
 62
7
  6
CONTINUOUS
 10
28.7990041099
 20
-62.4006311836
 11
28.9050701271
 21
-62.8902944903
  0
LINE
  5
29F
100
AcDbEntity
  8
0
100
AcDbLine
 62
7
  6
CONTINUOUS
 10
29.5378722776
 20
-62.5555046336
 11
29.5414662301
 21
-62.5720964388
  0
LINE
  5
2A0
100
AcDbEntity
  8
0
100
AcDbLine
 62
7
  6
CONTINUOUS
 10
29.4211292135
 20
4.7967719447
 11
29.5414662301
 21
4.9304224793
  0
LINE
  5
2A1
100
AcDbEntity
  8
DRAFT
100
AcDbLine
 62
7
  6
CONTINUOUS
 10
79.8380174416
 20
32.7301806759
 11
80.2557376378
 21
33.0329212458
  0
LINE
  5
2A2
100
AcDbEntity
  8
RACCORDO
100
AcDbLine
 62
7
  6
CONTINUOUS
 10
82.9006051174
 20
23.619269288
 11
52.1141164426
 21
7.0092523537
  0
LINE
  5
2A3
100
AcDbEntity
  8
RACCORDO
100
AcDbLine
 62
7
  6
CONTINUOUS
 10
82.6677803664
 20
22.7586012721
 11
52.2617304556
 21
6.353839779
  0
LINE
  5
2A4
100
AcDbEntity
  8
RACCORDO
100
AcDbLine
 62
253
  6
CONTINUOUS
 10
52.6036001585
 20
0.4151461828
 11
50.5071822923
 21
-0.6703059426
  0
LINE
  5
2A5
100
AcDbEntity
  8
DRAFT
100
AcDbLine
 62
7
  6
CONTINUOUS
 10
47.5004666228
 20
-0.6424021025
 11
46.2645416052
 21
-1.2651298882
  0
LINE
  5
2A6
100
AcDbEntity
  8
0
100
AcDbLine
 62
7
  6
CONTINUOUS
 10
49.3653603534
 20
16.3581731765
 11
50.7900250048
 21
16.2988135806
  0
LINE
  5
2A7
100
AcDbEntity
  8
0
100
AcDbLine
 62
7
  6
CONTINUOUS
 10
29.6149482565
 20
4.8936814661
 11
29.5414662301
 21
4.9304224793
  0
LINE
  5
2A8
100
AcDbEntity
  8
0
100
AcDbLine
 62
7
  6
CONTINUOUS
 10
-68.6728943285
 20
54.0376027586
 11
-68.7463763548
 21
54.0743437718
  0
LINE
  5
2A9
100
AcDbEntity
  8
DRAFT
100
AcDbLine
 62
7
  6
CONTINUOUS
 10
49.2343900862
 20
-4.2441779528
 11
49.2615437947
 21
-4.2577548071
  0
LINE
  5
2AA
100
AcDbEntity
  8
DRAFT
100
AcDbLine
 62
7
  6
CONTINUOUS
 10
49.2343900862
 20
-3.098255118
 11
49.2615437947
 21
-3.1118319722
  0
LINE
  5
2AB
100
AcDbEntity
  8
DRAFT
100
AcDbLine
 62
7
  6
CONTINUOUS
 10
47.5004666228
 20
-0.6424021025
 11
49.2615437947
 21
-1.5229406884
  0
LINE
  5
2AC
100
AcDbEntity
  8
0
100
AcDbLine
 62
7
  6
CONTINUOUS
 10
71.5525961206
 20
-9.4649837511
 11
72.6916607172
 21
-10.0345160494
  0
LINE
  5
2AD
100
AcDbEntity
  8
0
100
AcDbLine
 62
7
  6
CONTINUOUS
 10
71.5951925993
 20
-9.4438555836
 11
72.7324740607
 21
-10.0124963143
  0
LINE
  5
2AE
100
AcDbEntity
  8
0
100
AcDbLine
 62
7
  6
CONTINUOUS
 10
73.0797985147
 20
-9.4615544937
 11
73.3582218098
 21
-9.6007661413
  0
LINE
  5
2AF
100
AcDbEntity
  8
0
100
AcDbLine
 62
7
  6
CONTINUOUS
 10
73.3582218098
 20
-9.3685976294
 11
73.0797985147
 21
-9.2293859818
  0
LINE
  5
2B0
100
AcDbEntity
  8
0
100
AcDbLine
 62
7
  6
CONTINUOUS
 10
73.4996431661
 20
-9.2978869512
 11
73.221219871
 21
-9.1586753037
  0
LINE
  5
2B1
100
AcDbEntity
  8
0
100
AcDbLine
 62
7
  6
CONTINUOUS
 10
73.7913248313
 20
-9.3529806282
 11
73.6057093013
 21
-9.2601728631
  0
LINE
  5
2B2
100
AcDbEntity
  8
DRAFT
100
AcDbLine
 62
7
  6
CONTINUOUS
 10
6.807983215
 20
61.6949451138
 11
6.8271420811
 21
61.5977941421
  0
LINE
  5
2B3
100
AcDbEntity
  8
DRAFT
100
AcDbLine
 62
7
  6
CONTINUOUS
 10
25.5130682084
 20
42.2417365409
 11
25.5130682084
 21
41.286241445
  0
LINE
  5
2B4
100
AcDbEntity
  8
RACCORDO
100
AcDbLine
 62
7
  6
CONTINUOUS
 10
26.6048624572
 20
42.7459633058
 11
26.6048624572
 21
41.8277794412
  0
LINE
  5
2B5
100
AcDbEntity
  8
RACCORDO
100
AcDbLine
 62
7
  6
CONTINUOUS
 10
28.1647186379
 20
42.6014796062
 11
28.1647186379
 21
43.4663565819
  0
LINE
  5
2B6
100
AcDbEntity
  8
0
100
AcDbLine
 62
7
  6
CONTINUOUS
 10
28.7990041099
 20
7.0445177875
 11
28.7990041099
 21
6.1643627358
  0
LINE
  5
2B7
100
AcDbEntity
  8
0
100
AcDbLine
 62
7
  6
CONTINUOUS
 10
28.7990041099
 20
5.1493503116
 11
28.7990041099
 21
3.3149822743
  0
LINE
  5
2B8
100
AcDbEntity
  8
0
100
AcDbLine
 62
7
  6
CONTINUOUS
 10
28.7990041099
 20
-60.5054637077
 11
28.7990041099
 21
-61.3856187594
  0
LINE
  5
2B9
100
AcDbEntity
  8
0
100
AcDbLine
 62
7
  6
CONTINUOUS
 10
28.7990041099
 20
-62.4006311836
 11
28.7990041099
 21
-64.2349992209
  0
LINE
  5
2BA
100
AcDbEntity
  8
0
100
AcDbLine
 62
7
  6
CONTINUOUS
 10
28.9050701271
 20
-63.0112390937
 11
28.9050701271
 21
-62.8902944903
  0
LINE
  5
2BB
100
AcDbEntity
  8
0
100
AcDbLine
 62
7
  6
CONTINUOUS
 10
28.9050701271
 20
-61.0020214698
 11
28.9050701271
 21
-60.6101548949
  0
LINE
  5
2BC
100
AcDbEntity
  8
0
100
AcDbLine
 62
7
  6
CONTINUOUS
 10
28.9050701271
 20
4.5387424015
 11
28.9050701271
 21
4.6596870049
  0
LINE
  5
2BD
100
AcDbEntity
  8
0
100
AcDbLine
 62
7
  6
CONTINUOUS
 10
28.9050701271
 20
6.5479600254
 11
28.9050701271
 21
6.9398266003
  0
LINE
  5
2BE
100
AcDbEntity
  8
DRAFT
100
AcDbLine
 62
7
  6
CONTINUOUS
 10
29.2565128866
 20
43.1430176024
 11
29.2565128866
 21
43.9705833468
  0
LINE
  5
2BF
100
AcDbEntity
  8
0
100
AcDbLine
 62
7
  6
CONTINUOUS
 10
29.5414662301
 20
-62.6195590159
 11
29.5414662301
 21
-62.5720964388
  0
LINE
  5
2C0
100
AcDbEntity
  8
0
100
AcDbLine
 62
7
  6
CONTINUOUS
 10
29.5414662301
 20
4.9304224793
 11
29.5414662301
 21
4.9778850564
  0
LINE
  5
2C1
100
AcDbEntity
  8
DRAFT
100
AcDbLine
 62
7
  6
CONTINUOUS
 10
31.1596101963
 20
26.4971932619
 11
31.1596101963
 21
26.5304496271
  0
LINE
  5
2C2
100
AcDbEntity
  8
DRAFT
100
AcDbLine
 62
7
  6
CONTINUOUS
 10
32.095252273
 20
26.0293722236
 11
32.095252273
 21
26.0626285888
  0
LINE
  5
2C3
100
AcDbEntity
  8
0
100
AcDbLine
 62
7
  6
CONTINUOUS
 10
28.9050701271
 20
6.5479600254
 11
28.7990041099
 21
6.1643627358
  0
LINE
  5
2C4
100
AcDbEntity
  8
0
100
AcDbLine
 62
7
  6
CONTINUOUS
 10
73.5747731436
 20
-9.3607890267
 11
73.4819653785
 21
-9.3917746662
  0
LINE
  5
2C5
100
AcDbEntity
  8
0
100
AcDbLine
 62
7
  6
CONTINUOUS
 10
73.9327461876
 20
-9.2822699501
 11
73.7471306575
 21
-9.189462185
  0
LINE
  5
2C6
100
AcDbEntity
  8
0
100
AcDbLine
 62
7
  6
CONTINUOUS
 10
73.6824465451
 20
-8.408562239
 11
73.7913248313
 21
-8.4630013821
  0
LINE
  5
2C7
100
AcDbEntity
  8
ASSI
100
AcDbLine
 62
7
  6
CONTINUOUS
 10
77.1004317142
 20
-7.4302639019
 11
77.3174726672
 21
-7.5387843784
  0
LINE
  5
2C8
100
AcDbEntity
  8
ASSI
100
AcDbLine
 62
7
  6
CONTINUOUS
 10
77.7130421806
 20
-7.3253655509
 11
77.1004317142
 21
-7.0190603178
  0
LINE
  5
2C9
100
AcDbEntity
  8
IMPORT_IGES
100
AcDbLine
 62
7
  6
CONTINUOUS
 10
77.8082733153
 20
-7.273986169
 11
77.1994266636
 21
-6.9695628431
  0
LINE
  5
2CA
100
AcDbEntity
  8
ASSI
100
AcDbLine
 62
7
  6
CONTINUOUS
 10
77.8490866588
 20
-7.2519664338
 11
77.2418530704
 21
-6.9483496396
  0
LINE
  5
2CB
100
AcDbEntity
  8
RACCORDO
100
AcDbLine
 62
253
  6
CONTINUOUS
 10
35.1629651406
 20
17.0026731047
 11
-77.2670130681
 21
73.217662209
  0
LINE
  5
2CC
100
AcDbEntity
  8
DRAFT
100
AcDbLine
 62
7
  6
CONTINUOUS
 10
53.6017454907
 20
7.8118623539
 11
51.6346913623
 21
8.7953894181
  0
LINE
  5
2CD
100
AcDbEntity
  8
DRAFT
100
AcDbLine
 62
7
  6
CONTINUOUS
 10
54.8880753571
 20
8.5058668274
 11
52.9711719819
 21
9.4643185151
  0
LINE
  5
2CE
100
AcDbEntity
  8
DRAFT
100
AcDbLine
 62
7
  6
CONTINUOUS
 10
65.6740474695
 20
-12.3751972149
 11
66.190210059
 21
-12.8026672766
  0
LINE
  5
2CF
100
AcDbEntity
  8
0
100
AcDbLine
 62
7
  6
CONTINUOUS
 10
28.7990041099
 20
5.1493503116
 11
28.9050701271
 21
4.6596870049
  0
LINE
  5
2D0
100
AcDbEntity
  8
0
100
AcDbLine
 62
7
  6
CONTINUOUS
 10
29.5378722776
 20
4.9944768615
 11
29.5414662301
 21
4.9778850564
  0
LINE
  5
2D1
100
AcDbEntity
  8
DRAFT
100
AcDbLine
 62
7
  6
CONTINUOUS
 10
33.5012642048
 20
45.2484455489
 11
33.5012642048
 21
45.9309501718
  0
LINE
  5
2D2
100
AcDbEntity
  8
DRAFT
100
AcDbLine
 62
7
  6
CONTINUOUS
 10
33.6780409001
 20
23.5076946853
 11
33.6780409001
 21
25.2712342752
  0
LINE
  5
2D3
100
AcDbEntity
  8
0
100
AcDbLine
 62
7
  6
CONTINUOUS
 10
49.9562872017
 20
15.0849920344
 11
50.7900250048
 21
16.2988135806
  0
LINE
  5
2D4
100
AcDbEntity
  8
RACCORDO
100
AcDbLine
 62
7
  6
CONTINUOUS
 10
82.6677803664
 20
-3.9517704229
 11
52.8842603582
 21
-18.724615914
  0
LINE
  5
2D5
100
AcDbEntity
  8
RACCORDO
100
AcDbLine
 62
7
  6
CONTINUOUS
 10
82.8969352117
 20
-4.3118357493
 11
83.4596983227
 21
-4.5932173048
  0
LINE
  5
2D6
100
AcDbEntity
  8
RACCORDO
100
AcDbLine
 62
253
  6
CONTINUOUS
 10
36.5771787029
 20
19.4418306935
 11
-75.8527995057
 21
75.6568197978
  0
LINE
  5
2D7
100
AcDbEntity
  8
DRAFT
100
AcDbLine
 62
7
  6
CONTINUOUS
 10
58.9871840569
 20
10.7174300115
 11
57.2493707717
 21
11.5863366541
  0
LINE
  5
2D8
100
AcDbEntity
  8
0
100
AcDbLine
 62
7
  6
CONTINUOUS
 10
39.1934737933
 20
20.7499782386
 11
-73.2365044153
 21
76.964967343
  0
LINE
  5
2D9
100
AcDbEntity
  8
RACCORDO
100
AcDbLine
 62
7
  6
CONTINUOUS
 10
-20.421745302
 20
50.7411565012
 11
-17.7940549019
 21
49.4273113012
  0
LINE
  5
2DA
100
AcDbEntity
  8
RACCORDO
100
AcDbLine
 62
7
  6
CONTINUOUS
 10
-5.7095451092
 20
43.3850564049
 11
-2.7318408897
 21
41.8962042951
  0
LINE
  5
2DB
100
AcDbEntity
  8
DRAFT
100
AcDbLine
 62
7
  6
CONTINUOUS
 10
-17.2960411225
 20
49.6763181909
 11
-5.8575450692
 21
43.9570701642
  0
LINE
  5
2DC
100
AcDbEntity
  8
DRAFT
100
AcDbLine
 62
7
  6
CONTINUOUS
 10
-48.884877434
 20
66.519437077
 11
-47.9492353574
 21
66.0516160387
  0
LINE
  5
2DD
100
AcDbEntity
  8
DRAFT
100
AcDbLine
 62
7
  6
CONTINUOUS
 10
-28.8737555264
 20
56.5138761232
 11
-27.9381134498
 21
56.0460550849
  0
LINE
  5
2DE
100
AcDbEntity
  8
DRAFT
100
AcDbLine
 62
7
  6
CONTINUOUS
 10
11.1484882887
 20
36.5027542157
 11
12.0841303654
 21
36.0349331773
  0
LINE
  5
2DF
100
AcDbEntity
  8
DRAFT
100
AcDbLine
 62
7
  6
CONTINUOUS
 10
31.1596101963
 20
26.4971932619
 11
32.095252273
 21
26.0293722236
  0
LINE
  5
2E0
100
AcDbEntity
  8
DRAFT
100
AcDbLine
 62
7
  6
CONTINUOUS
 10
-52.0233009797
 20
68.1219052151
 11
-48.884877434
 21
66.5526934423
  0
LINE
  5
2E1
100
AcDbEntity
  8
DRAFT
100
AcDbLine
 62
7
  6
CONTINUOUS
 10
-47.9492353574
 20
66.0848724039
 11
-28.8737555264
 21
56.5471324885
  0
LINE
  5
2E2
100
AcDbEntity
  8
DRAFT
100
AcDbLine
 62
7
  6
CONTINUOUS
 10
-27.9381134498
 20
56.0793114502
 11
-20.1358860417
 21
52.1781977461
  0
LINE
  5
2E3
100
AcDbEntity
  8
DRAFT
100
AcDbLine
 62
7
  6
CONTINUOUS
 10
2.0432140725
 20
41.088647689
 11
11.1484882887
 21
36.5360105809
  0
LINE
  5
2E4
100
AcDbEntity
  8
DRAFT
100
AcDbLine
 62
7
  6
CONTINUOUS
 10
12.0841303654
 20
36.0681895426
 11
31.1596101963
 21
26.5304496271
  0
LINE
  5
2E5
100
AcDbEntity
  8
DRAFT
100
AcDbLine
 62
7
  6
CONTINUOUS
 10
32.095252273
 20
26.0626285888
 11
34.9508331062
 21
24.6348381722
  0
LINE
  5
2E6
100
AcDbEntity
  8
RACCORDO
100
AcDbLine
 62
7
  6
CONTINUOUS
 10
-52.0233009797
 20
69.6474945767
 11
34.9508331062
 21
26.1604275337
  0
LINE
  5
2E7
100
AcDbEntity
  8
0
100
AcDbLine
 62
7
  6
CONTINUOUS
 10
72.9251187884
 20
-9.3455198797
 11
73.0797985147
 21
-9.4615544937
  0
LINE
  5
2E8
100
AcDbEntity
  8
0
100
AcDbLine
 62
7
  6
CONTINUOUS
 10
73.0797985147
 20
-9.2293859818
 11
72.9560549461
 21
-9.12881945
  0
LINE
  5
2E9
100
AcDbEntity
  8
0
100
AcDbLine
 62
7
  6
CONTINUOUS
 10
73.221219871
 20
-9.1586753037
 11
73.0974763023
 21
-9.0581087719
  0
LINE
  5
2EA
100
AcDbEntity
  8
RACCORDO
100
AcDbLine
 62
253
  6
CONTINUOUS
 10
40.8198193901
 20
-77.6244468212
 11
40.8198193901
 21
7.2460427497
  0
LINE
  5
2EB
100
AcDbEntity
  8
RACCORDO
100
AcDbLine
 62
253
  6
CONTINUOUS
 10
43.6482465148
 20
-77.6244468212
 11
43.6482465148
 21
7.2460427497
  0
LINE
  5
2EC
100
AcDbEntity
  8
RACCORDO
100
AcDbLine
 62
7
  6
CONTINUOUS
 10
45.8402775365
 20
52.063444425
 11
45.8402775365
 21
51.374203191
  0
LINE
  5
2ED
100
AcDbEntity
  8
0
100
AcDbLine
 62
7
  6
CONTINUOUS
 10
46.2645416052
 20
-76.316299276
 11
46.2645416052
 21
8.5541902949
  0
LINE
  5
2EE
100
AcDbEntity
  8
DRAFT
100
AcDbLine
 62
7
  6
CONTINUOUS
 10
47.5004666228
 20
-56.9340533484
 11
47.5004666228
 21
-50.8719412366
  0
LINE
  5
2EF
100
AcDbEntity
  8
DRAFT
100
AcDbLine
 62
7
  6
CONTINUOUS
 10
47.5004666228
 20
-47.0613637453
 11
47.5004666228
 21
-27.6624604152
  0
LINE
  5
2F0
100
AcDbEntity
  8
DRAFT
100
AcDbLine
 62
7
  6
CONTINUOUS
 10
47.5004666228
 20
-23.8518829239
 11
47.5004666228
 21
-4.4529795938
  0
LINE
  5
2F1
100
AcDbEntity
  8
DRAFT
100
AcDbLine
 62
7
  6
CONTINUOUS
 10
47.5004666228
 20
-0.6424021025
 11
47.5004666228
 21
8.0178519354
  0
LINE
  5
2F2
100
AcDbEntity
  8
0
100
AcDbLine
 62
7
  6
CONTINUOUS
 10
28.9050701271
 20
-61.0020214698
 11
28.7990041099
 21
-61.3856187594
  0
LINE
  5
2F3
100
AcDbEntity
  8
RACCORDO
100
AcDbLine
 62
7
  6
CONTINUOUS
 10
82.9006051174
 20
-4.526556335
 11
52.8842603582
 21
-20.7210629584
  0
LINE
  5
2F4
100
AcDbEntity
  8
RACCORDO
100
AcDbLine
 62
7
  6
CONTINUOUS
 10
82.6677803664
 20
-5.3872243508
 11
52.8842603582
 21
-21.4561166797
  0
LINE
  5
2F5
100
AcDbEntity
  8
DRAFT
100
AcDbLine
 62
7
  6
CONTINUOUS
 10
47.5004666228
 20
-23.8518829239
 11
46.2645416052
 21
-24.4746107096
  0
LINE
  5
2F6
100
AcDbEntity
  8
0
100
AcDbLine
 62
7
  6
CONTINUOUS
 10
73.9327461876
 20
-8.392290704
 11
73.7913248313
 21
-8.4630013821
  0
LINE
  5
2F7
100
AcDbEntity
  8
ASSI
100
AcDbLine
 62
7
  6
CONTINUOUS
 10
76.5875798937
 20
-7.1056815186
 11
76.4461585375
 21
-7.1763921967
  0
LINE
  5
2F8
100
AcDbEntity
  8
0
100
AcDbLine
 62
7
  6
CONTINUOUS
 10
73.0046685373
 20
-8.9343153673
 11
72.863247181
 21
-9.0050260454
  0
LINE
  5
2F9
100
AcDbEntity
  8
ASSI
100
AcDbLine
 62
7
  6
CONTINUOUS
 10
77.2418530704
 20
-6.9483496396
 11
77.1004317142
 21
-7.0190603178
  0
LINE
  5
2FA
100
AcDbEntity
  8
0
100
AcDbLine
 62
7
  6
CONTINUOUS
 10
73.0974763023
 20
-9.0581087719
 11
72.9560549461
 21
-9.12881945
  0
LINE
  5
2FB
100
AcDbEntity
  8
0
100
AcDbLine
 62
7
  6
CONTINUOUS
 10
73.221219871
 20
-9.1586753037
 11
73.0797985147
 21
-9.2293859818
  0
LINE
  5
2FC
100
AcDbEntity
  8
0
100
AcDbLine
 62
7
  6
CONTINUOUS
 10
73.4996431661
 20
-9.2978869512
 11
73.3582218098
 21
-9.3685976294
  0
LINE
  5
2FD
100
AcDbEntity
  8
0
100
AcDbLine
 62
7
  6
CONTINUOUS
 10
73.7471306575
 20
-9.189462185
 11
73.6057093013
 21
-9.2601728631
  0
LINE
  5
2FE
100
AcDbEntity
  8
0
100
AcDbLine
 62
7
  6
CONTINUOUS
 10
73.512861613
 20
-9.376326549
 11
73.4819653785
 21
-9.3917746662
  0
LINE
  5
2FF
100
AcDbEntity
  8
0
100
AcDbLine
 62
7
  6
CONTINUOUS
 10
73.9327461876
 20
-9.2822699501
 11
73.7913248313
 21
-9.3529806282
  0
LINE
  5
300
100
AcDbEntity
  8
RACCORDO
100
AcDbLine
 62
253
  6
CONTINUOUS
 10
-49.8896399212
 20
70.6687116972
 11
37.0844941647
 21
27.1816446542
  0
LINE
  5
301
100
AcDbEntity
  8
RACCORDO
100
AcDbLine
 62
7
  6
CONTINUOUS
 10
-49.4547670407
 20
70.6910750268
 11
37.5193670453
 21
27.2040079838
  0
LINE
  5
302
100
AcDbEntity
  8
DRAFT
100
AcDbLine
 62
7
  6
CONTINUOUS
 10
-2.9110283712
 20
56.767589807
 11
-3.076768946
 21
56.9048510792
  0
LINE
  5
303
100
AcDbEntity
  8
0
100
AcDbLine
 62
7
  6
CONTINUOUS
 10
72.8013752197
 20
-9.2062585902
 11
72.9251187884
 21
-9.3455198797
  0
LINE
  5
304
100
AcDbEntity
  8
DRAFT
100
AcDbLine
 62
7
  6
CONTINUOUS
 10
49.2343900862
 20
-3.098255118
 11
49.2343900862
 21
-4.2441779528
  0
LINE
  5
305
100
AcDbEntity
  8
DRAFT
100
AcDbLine
 62
7
  6
CONTINUOUS
 10
49.2343900862
 20
-26.3077359394
 11
49.2343900862
 21
-27.4536587742
  0
LINE
  5
306
100
AcDbEntity
  8
DRAFT
100
AcDbLine
 62
7
  6
CONTINUOUS
 10
49.2343900862
 20
-49.5172167608
 11
49.2343900862
 21
-50.6631395957
  0
LINE
  5
307
100
AcDbEntity
  8
DRAFT
100
AcDbLine
 62
7
  6
CONTINUOUS
 10
49.2615437947
 20
-0.0474866938
 11
49.2615437947
 21
-3.1118319722
  0
LINE
  5
308
100
AcDbEntity
  8
DRAFT
100
AcDbLine
 62
7
  6
CONTINUOUS
 10
49.2615437947
 20
-4.2577548071
 11
49.2615437947
 21
-26.3213127937
  0
LINE
  5
309
100
AcDbEntity
  8
DRAFT
100
AcDbLine
 62
7
  6
CONTINUOUS
 10
49.2615437947
 20
-27.4672356285
 11
49.2615437947
 21
-49.5307936151
  0
LINE
  5
30A
100
AcDbEntity
  8
DRAFT
100
AcDbLine
 62
7
  6
CONTINUOUS
 10
49.2615437947
 20
-50.6767164499
 11
49.2615437947
 21
-53.7410617284
  0
LINE
  5
30B
100
AcDbEntity
  8
DRAFT
100
AcDbLine
 62
7
  6
CONTINUOUS
 10
50.5071822923
 20
-54.3638809772
 11
50.5071822923
 21
-0.6703059426
  0
LINE
  5
30C
100
AcDbEntity
  8
RACCORDO
100
AcDbLine
 62
253
  6
CONTINUOUS
 10
52.6036001585
 20
0.4151461828
 11
52.6036001585
 21
-53.2784288518
  0
LINE
  5
30D
100
AcDbEntity
  8
RACCORDO
100
AcDbLine
 62
7
  6
CONTINUOUS
 10
52.8842603582
 20
0.7624753681
 11
52.8842603582
 21
-52.9310996666
  0
LINE
  5
30E
100
AcDbEntity
  8
0
100
AcDbLine
 62
7
  6
CONTINUOUS
 10
72.9560549461
 20
-9.12881945
 11
72.863247181
 21
-9.0050260454
  0
LINE
  5
30F
100
AcDbEntity
  8
0
100
AcDbLine
 62
7
  6
CONTINUOUS
 10
73.0974763023
 20
-9.0581087719
 11
73.0046685373
 21
-8.9343153673
  0
LINE
  5
310
100
AcDbEntity
  8
DRAFT
100
AcDbLine
 62
7
  6
CONTINUOUS
 10
80.2557376378
 20
-40.0339175806
 11
80.1259041694
 21
-39.8099879718
  0
LINE
  5
311
100
AcDbEntity
  8
DRAFT
100
AcDbLine
 62
7
  6
CONTINUOUS
 10
56.3054578981
 20
-17.5927613112
 11
56.2039484445
 21
-17.0780261502
  0
LINE
  5
312
100
AcDbEntity
  8
0
100
AcDbLine
 62
7
  6
CONTINUOUS
 10
48.3355228321
 20
16.5027612445
 11
48.3687060375
 21
16.3153737009
  0
LINE
  5
313
100
AcDbEntity
  8
DRAFT
100
AcDbLine
 62
7
  6
CONTINUOUS
 10
57.2057481217
 20
-17.1599015956
 11
57.0125646792
 21
-17.9463147018
  0
LINE
  5
314
100
AcDbEntity
  8
DRAFT
100
AcDbLine
 62
7
  6
CONTINUOUS
 10
57.5548808547
 20
-17.2866025045
 11
57.4468814191
 21
-17.7262476963
  0
LINE
  5
315
100
AcDbEntity
  8
0
100
AcDbLine
 62
7
  6
CONTINUOUS
 10
29.4211292135
 20
-62.7532095505
 11
29.5414662301
 21
-62.6195590159
  0
LINE
  5
316
100
AcDbEntity
  8
DRAFT
100
AcDbLine
 62
7
  6
CONTINUOUS
 10
47.5004666228
 20
-47.0613637453
 11
46.2645416052
 21
-47.684091531
  0
LINE
  5
317
100
AcDbEntity
  8
RACCORDO
100
AcDbLine
 62
7
  6
CONTINUOUS
 10
82.8969352117
 20
23.8339898737
 11
83.4596983227
 21
23.5526083181
  0
LINE
  5
318
100
AcDbEntity
  8
DRAFT
100
AcDbLine
 62
7
  6
CONTINUOUS
 10
11.0652531718
 20
64.1342436369
 11
11.5013093319
 21
63.9162155569
  0
LINE
  5
319
100
AcDbEntity
  8
DRAFT
100
AcDbLine
 62
7
  6
CONTINUOUS
 10
40.7637379817
 20
49.285001232
 11
41.1997941417
 21
49.066973152
  0
LINE
  5
31A
100
AcDbEntity
  8
DRAFT
100
AcDbLine
 62
7
  6
CONTINUOUS
 10
70.4622227915
 20
34.4357588271
 11
70.8982789516
 21
34.2177307471
  0
LINE
  5
31B
100
AcDbEntity
  8
DRAFT
100
AcDbLine
 62
7
  6
CONTINUOUS
 10
71.6827840261
 20
34.6068510475
 11
71.2746015775
 21
34.8109422718
  0
LINE
  5
31C
100
AcDbEntity
  8
DRAFT
100
AcDbLine
 62
7
  6
CONTINUOUS
 10
41.9842992163
 20
49.4560934524
 11
41.5761167677
 21
49.6601846767
  0
LINE
  5
31D
100
AcDbEntity
  8
DRAFT
100
AcDbLine
 62
7
  6
CONTINUOUS
 10
12.2858144065
 20
64.3053358573
 11
11.8776319579
 21
64.5094270816
  0
LINE
  5
31E
100
AcDbEntity
  8
ASSI
100
AcDbLine
 62
7
  6
CONTINUOUS
 10
76.4875999446
 20
-7.7466856933
 11
76.6033710509
 21
-7.9240585831
  0
LINE
  5
31F
100
AcDbEntity
  8
ASSI
100
AcDbLine
 62
7
  6
CONTINUOUS
 10
76.8480106349
 20
-7.7920699151
 11
76.4461585375
 21
-7.1763921967
  0
LINE
  5
320
100
AcDbEntity
  8
IMPORT_IGES
100
AcDbLine
 62
7
  6
CONTINUOUS
 10
76.9451169341
 20
-7.7396788389
 11
76.5451534869
 21
-7.126894722
  0
LINE
  5
321
100
AcDbEntity
  8
ASSI
100
AcDbLine
 62
7
  6
CONTINUOUS
 10
76.9867339194
 20
-7.7172255206
 11
76.5875798937
 21
-7.1056815186
  0
LINE
  5
322
100
AcDbEntity
  8
0
100
AcDbLine
 62
7
  6
CONTINUOUS
 10
72.677631651
 20
-8.9896078024
 11
72.8013752197
 21
-9.2062585902
  0
LINE
  5
323
100
AcDbEntity
  8
0
100
AcDbLine
 62
7
  6
CONTINUOUS
 10
72.863247181
 20
-9.0050260454
 11
72.8013752197
 21
-8.8580058223
  0
LINE
  5
324
100
AcDbEntity
  8
0
100
AcDbLine
 62
7
  6
CONTINUOUS
 10
73.0046685373
 20
-8.9343153673
 11
72.9427965759
 21
-8.7872951442
  0
LINE
  5
325
100
AcDbEntity
  8
RACCORDO
100
AcDbLine
 62
7
  6
CONTINUOUS
 10
82.6314044456
 20
-34.9852100478
 11
82.6868722452
 21
-34.9537551265
  0
LINE
  5
326
100
AcDbEntity
  8
RACCORDO
100
AcDbLine
 62
7
  6
CONTINUOUS
 10
82.6677803664
 20
-33.5330499738
 11
52.8842603582
 21
-49.6019423027
  0
LINE
  5
327
100
AcDbEntity
  8
RACCORDO
100
AcDbLine
 62
253
  6
CONTINUOUS
 10
82.6314044456
 20
-34.7870330967
 11
82.6677803664
 21
-34.7678032127
  0
LINE
  5
328
100
AcDbEntity
  8
RACCORDO
100
AcDbLine
 62
253
  6
CONTINUOUS
 10
52.6036001585
 20
-53.2784288518
 11
50.5071822923
 21
-54.3638809772
  0
LINE
  5
329
100
AcDbEntity
  8
0
100
AcDbLine
 62
7
  6
CONTINUOUS
 10
28.9050701271
 20
-61.0020214698
 11
28.986671488
 21
-60.9612207893
  0
LINE
  5
32A
100
AcDbEntity
  8
0
100
AcDbLine
 62
7
  6
CONTINUOUS
 10
28.1237847621
 20
-61.7232284333
 11
28.7990041099
 21
-61.3856187594
  0
LINE
  5
32B
100
AcDbEntity
  8
0
100
AcDbLine
 62
7
  6
CONTINUOUS
 10
28.1069709356
 20
-61.775101209
 11
28.9117470981
 21
-61.3727131277
  0
LINE
  5
32C
100
AcDbEntity
  8
0
100
AcDbLine
 62
7
  6
CONTINUOUS
 10
28.8610313198
 20
-61.7478894159
 11
27.7453102434
 21
-62.3057499541
  0
LINE
  5
32D
100
AcDbEntity
  8
0
100
AcDbLine
 62
7
  6
CONTINUOUS
 10
28.1069709356
 20
-62.6752886894
 11
28.9715180712
 21
-62.2430151217
  0
LINE
  5
32E
100
AcDbEntity
  8
0
100
AcDbLine
 62
7
  6
CONTINUOUS
 10
28.1237847621
 20
-62.7382408574
 11
28.7990041099
 21
-62.4006311836
  0
LINE
  5
32F
100
AcDbEntity
  8
0
100
AcDbLine
 62
7
  6
CONTINUOUS
 10
28.9050701271
 20
-62.8902944903
 11
29.5414662301
 21
-62.5720964388
  0
LINE
  5
330
100
AcDbEntity
  8
0
100
AcDbLine
 62
7
  6
CONTINUOUS
 10
28.8419709356
 20
-63.0427886894
 11
29.7094750033
 21
-62.6090366556
  0
LINE
  5
331
100
AcDbEntity
  8
0
100
AcDbLine
 62
7
  6
CONTINUOUS
 10
29.2870787085
 20
-63.0766341867
 11
30.0335218849
 21
-62.7034125985
  0
LINE
  5
332
100
AcDbEntity
  8
0
100
AcDbLine
 62
7
  6
CONTINUOUS
 10
28.7990041099
 20
-64.2349992209
 11
28.5161613974
 21
-64.3764205771
  0
LINE
  5
333
100
AcDbEntity
  8
RACCORDO
100
AcDbLine
 62
7
  6
CONTINUOUS
 10
82.6677803664
 20
-32.0975960459
 11
52.8842603582
 21
-46.870441537
  0
LINE
  5
334
100
AcDbEntity
  8
DRAFT
100
AcDbLine
 62
253
  6
CONTINUOUS
 10
47.5004666228
 20
-56.9340533484
 11
46.2645416052
 21
-57.5308128064
  0
LINE
  5
335
100
AcDbEntity
  8
0
100
AcDbLine
 62
7
  6
CONTINUOUS
 10
-71.0021227753
 20
54.7605741774
 11
-69.417481567
 21
55.0256809431
  0
LWPOLYLINE
  5
336
100
AcDbEntity
  8
RACCORDO
100
AcDbPolyline
 62
7
  6
CONTINUOUS
 90
6
 70
0
 10
-14.4279350125
 20
82.2087736441
 10
-14.4855403372
 20
82.236444016
 10
-14.6865752992
 20
82.3104876681
 10
-14.9003981183
 20
82.3555490278
 10
-15.1248864792
 20
82.3702023466
 10
-15.3570679865
 20
82.3536264236
  0
LINE
  5
337
100
AcDbEntity
  8
DRAFT
100
AcDbLine
 62
7
  6
CONTINUOUS
 10
73.7131156552
 20
35.6139105033
 11
73.3770715265
 21
35.7819325677
  0
LINE
  5
338
100
AcDbEntity
  8
DRAFT
100
AcDbLine
 62
7
  6
CONTINUOUS
 10
44.0146308454
 20
50.4631529082
 11
43.6785867166
 21
50.6311749726
  0
LINE
  5
339
100
AcDbEntity
  8
DRAFT
100
AcDbLine
 62
7
  6
CONTINUOUS
 10
14.3161460355
 20
65.3123953132
 11
13.9801019068
 21
65.4804173775
  0
LINE
  5
33A
100
AcDbEntity
  8
RACCORDO
100
AcDbLine
 62
7
  6
CONTINUOUS
 10
79.3751410874
 20
34.5517256299
 11
76.4968827406
 21
35.9908548033
  0
LINE
  5
33B
100
AcDbEntity
  8
RACCORDO
100
AcDbLine
 62
7
  6
CONTINUOUS
 10
-15.7876046835
 20
82.1330985154
 11
-18.6658630304
 21
83.5722276888
  0
LINE
  5
33C
100
AcDbEntity
  8
RACCORDO
100
AcDbLine
 62
253
  6
CONTINUOUS
 10
-15.7502594514
 20
82.1506565846
 11
-14.7420876536
 21
81.6465706857
  0
LINE
  5
33D
100
AcDbEntity
  8
RACCORDO
100
AcDbLine
 62
253
  6
CONTINUOUS
 10
-13.5700444293
 20
81.0605490736
 11
14.9563971563
 21
66.7973282808
  0
LINE
  5
33E
100
AcDbEntity
  8
RACCORDO
100
AcDbLine
 62
253
  6
CONTINUOUS
 10
16.1284403805
 20
66.2113066687
 11
44.6548819661
 21
51.9480858759
  0
LINE
  5
33F
100
AcDbEntity
  8
RACCORDO
100
AcDbLine
 62
253
  6
CONTINUOUS
 10
45.8269251904
 20
51.3620642638
 11
74.3533667759
 21
37.098843471
  0
LINE
  5
340
100
AcDbEntity
  8
RACCORDO
100
AcDbLine
 62
253
  6
CONTINUOUS
 10
75.5254100002
 20
36.5128218589
 11
76.533581798
 21
36.00873596
  0
LINE
  5
341
100
AcDbEntity
  8
RACCORDO
100
AcDbLine
 62
253
  6
CONTINUOUS
 10
15.9091894582
 20
66.3397472301
 11
16.1417927267
 21
66.2234455959
  0
LINE
  5
342
100
AcDbEntity
  8
RACCORDO
100
AcDbLine
 62
253
  6
CONTINUOUS
 10
45.6076742681
 20
51.4905048252
 11
45.8402775365
 21
51.374203191
  0
LINE
  5
343
100
AcDbEntity
  8
RACCORDO
100
AcDbLine
 62
253
  6
CONTINUOUS
 10
75.3061590779
 20
36.6412624203
 11
75.5387623463
 21
36.524960786
  0
LINE
  5
344
100
AcDbEntity
  8
RACCORDO
100
AcDbLine
 62
7
  6
CONTINUOUS
 10
76.6701331962
 20
36.6485165951
 11
75.5387623463
 21
37.2142020201
  0
LINE
  5
345
100
AcDbEntity
  8
RACCORDO
100
AcDbLine
 62
7
  6
CONTINUOUS
 10
46.9716483864
 20
51.4977590001
 11
45.8402775365
 21
52.063444425
  0
LINE
  5
346
100
AcDbEntity
  8
RACCORDO
100
AcDbLine
 62
7
  6
CONTINUOUS
 10
17.2731635766
 20
66.347001405
 11
16.1417927267
 21
66.9126868299
  0
LINE
  5
347
100
AcDbEntity
  8
RACCORDO
100
AcDbLine
 62
7
  6
CONTINUOUS
 10
-12.4253212333
 20
81.1962438099
 11
-13.5566920832
 21
81.7619292348
  0
LINE
  5
348
100
AcDbEntity
  8
RACCORDO
100
AcDbLine
 62
7
  6
CONTINUOUS
 10
-14.4362314604
 20
82.2130418988
 11
-13.552154893
 21
81.7710036151
  0
LINE
  5
349
100
AcDbEntity
  8
RACCORDO
100
AcDbLine
 62
7
  6
CONTINUOUS
 10
-12.4207840431
 20
81.2053181902
 11
16.1463299168
 21
66.9217612102
  0
LINE
  5
34A
100
AcDbEntity
  8
RACCORDO
100
AcDbLine
 62
7
  6
CONTINUOUS
 10
17.2777007667
 20
66.3560757853
 11
45.8448147266
 21
52.0725188053
  0
LINE
  5
34B
100
AcDbEntity
  8
RACCORDO
100
AcDbLine
 62
7
  6
CONTINUOUS
 10
46.9761855765
 20
51.5068333804
 11
75.5432995365
 21
37.2232764004
  0
LINE
  5
34C
100
AcDbEntity
  8
RACCORDO
100
AcDbLine
 62
7
  6
CONTINUOUS
 10
76.6746703864
 20
36.6575909754
 11
77.8287912474
 21
36.0805305449
  0
LINE
  5
34D
100
AcDbEntity
  8
RACCORDO
100
AcDbLine
 62
7
  6
CONTINUOUS
 10
82.6972739949
 20
27.6753837847
 11
82.6314044456
 21
27.7115749653
  0
LINE
  5
34E
100
AcDbEntity
  8
0
100
AcDbLine
 62
7
  6
CONTINUOUS
 10
72.6540012333
 20
-8.9186786955
 11
72.677631651
 21
-8.9896078024
  0
LINE
  5
34F
100
AcDbEntity
  8
0
100
AcDbLine
 62
7
  6
CONTINUOUS
 10
73.7913248313
 20
-8.4630013821
 11
73.776367053
 21
-8.3619769748
  0
LINE
  5
350
100
AcDbEntity
  8
0
100
AcDbLine
 62
7
  6
CONTINUOUS
 10
73.9327461876
 20
-8.392290704
 11
73.9225291236
 21
-8.3232849462
  0
LINE
  5
351
100
AcDbEntity
  8
RACCORDO
100
AcDbLine
 62
7
  6
CONTINUOUS
 10
75.5387623463
 20
37.2142020201
 11
75.5387623463
 21
36.524960786
  0
LINE
  5
352
100
AcDbEntity
  8
ASSI
100
AcDbLine
 62
7
  6
CONTINUOUS
 10
77.1004317142
 20
-7.0190603178
 11
77.1004317142
 21
-7.4302639019
  0
LINE
  5
353
100
AcDbEntity
  8
IMPORT_IGES
100
AcDbLine
 62
7
  6
CONTINUOUS
 10
77.1994266636
 20
-6.9695628431
 11
77.1994266636
 21
-7.0190603178
  0
LINE
  5
354
100
AcDbEntity
  8
DRAFT
100
AcDbLine
 62
7
  6
CONTINUOUS
 10
78.6845914489
 20
22.2183641325
 11
78.6845914489
 21
21.3446331913
  0
LINE
  5
355
100
AcDbEntity
  8
DRAFT
100
AcDbLine
 62
7
  6
CONTINUOUS
 10
78.6845914489
 20
-5.9274614904
 11
78.6845914489
 21
-6.8011924317
  0
LINE
  5
356
100
AcDbEntity
  8
DRAFT
100
AcDbLine
 62
7
  6
CONTINUOUS
 10
79.3225796994
 20
-6.456983134
 11
79.3225796994
 21
-5.6110146149
  0
LINE
  5
357
100
AcDbEntity
  8
DRAFT
100
AcDbLine
 62
7
  6
CONTINUOUS
 10
79.3225796994
 20
21.688842489
 11
79.3225796994
 21
22.5348110081
  0
LINE
  5
358
100
AcDbEntity
  8
0
100
AcDbLine
 62
7
  6
CONTINUOUS
 10
73.7744023421
 20
-9.4503521029
 11
73.7913248313
 21
-9.3529806282
  0
LINE
  5
359
100
AcDbEntity
  8
0
100
AcDbLine
 62
7
  6
CONTINUOUS
 10
73.9168956029
 20
-9.3734737196
 11
73.9327461876
 21
-9.2822699501
  0
LINE
  5
35A
100
AcDbEntity
  8
0
100
AcDbLine
 62
7
  6
CONTINUOUS
 10
73.6057093013
 20
-9.2601728631
 11
73.5747731436
 21
-9.3607890267
  0
LINE
  5
35B
100
AcDbEntity
  8
DRAFT
100
AcDbLine
 62
7
  6
CONTINUOUS
 10
79.3751410874
 20
-40.6721254143
 11
80.2557376378
 21
-40.0339175806
  0
LINE
  5
35C
100
AcDbEntity
  8
DRAFT
100
AcDbLine
 62
7
  6
CONTINUOUS
 10
81.7508078952
 20
-38.9503730792
 11
82.6314044456
 21
-38.3121652455
  0
LINE
  5
35D
100
AcDbEntity
  8
RACCORDO
100
AcDbLine
 62
7
  6
CONTINUOUS
 10
82.6868722452
 20
-34.9537551265
 11
82.9023414288
 21
-34.8063031323
  0
LINE
  5
35E
100
AcDbEntity
  8
DRAFT
100
AcDbLine
 62
7
  6
CONTINUOUS
 10
81.7508078952
 20
-38.9503730792
 11
52.8449241706
 21
-54.2423117588
  0
LINE
  5
35F
100
AcDbEntity
  8
DRAFT
100
AcDbLine
 62
7
  6
CONTINUOUS
 10
52.803091556
 20
-54.7238629163
 11
79.3751410874
 21
-40.6721254143
  0
LINE
  5
360
100
AcDbEntity
  8
DRAFT
100
AcDbLine
 62
7
  6
CONTINUOUS
 10
47.0612736247
 20
-65.0661042639
 11
46.2645416052
 21
-65.4867066985
  0
LINE
  5
361
100
AcDbEntity
  8
DRAFT
100
AcDbLine
 62
7
  6
CONTINUOUS
 10
52.8542896349
 20
-53.9980801302
 11
82.6314044456
 21
-38.3121652455
  0
LINE
  5
362
100
AcDbEntity
  8
DRAFT
100
AcDbLine
 62
7
  6
CONTINUOUS
 10
80.2557376378
 20
-40.0339175806
 11
52.8244272526
 21
-54.4782595883
  0
LWPOLYLINE
  5
363
100
AcDbEntity
  8
RACCORDO
100
AcDbPolyline
 62
7
  6
CONTINUOUS
 90
7
 70
0
 10
83.5097436452
 20
26.4626907518
 10
83.4850781433
 20
26.6910746169
 10
83.4123665892
 20
26.9173533109
 10
83.2942467895
 20
27.1316749885
 10
83.1333814881
 20
27.3309192087
 10
82.9335896527
 20
27.5124101661
 10
82.6972739949
 20
27.6753837847
  0
LINE
  5
364
100
AcDbEntity
  8
DRAFT
100
AcDbLine
 62
7
  6
CONTINUOUS
 10
81.3370379521
 20
-5.3701366916
 11
81.3370379521
 21
-4.6118284708
  0
LINE
  5
365
100
AcDbEntity
  8
DRAFT
100
AcDbLine
 62
7
  6
CONTINUOUS
 10
81.3370379521
 20
22.7756889314
 11
81.3370379521
 21
23.5339971522
  0
LINE
  5
366
100
AcDbEntity
  8
RACCORDO
100
AcDbLine
 62
7
  6
CONTINUOUS
 10
82.6314044456
 20
-38.3121652455
 11
82.6314044456
 21
-34.7870330967
  0
LINE
  5
367
100
AcDbEntity
  8
RACCORDO
100
AcDbLine
 62
7
  6
CONTINUOUS
 10
82.6314044456
 20
25.4103699542
 11
82.6314044456
 21
28.935502103
  0
LINE
  5
368
100
AcDbEntity
  8
RACCORDO
100
AcDbLine
 62
253
  6
CONTINUOUS
 10
82.6677803664
 20
25.4288084389
 11
82.6677803664
 21
24.1940552001
  0
LINE
  5
369
100
AcDbEntity
  8
RACCORDO
100
AcDbLine
 62
253
  6
CONTINUOUS
 10
82.6677803664
 20
22.7586012721
 11
82.6677803664
 21
-3.9517704229
  0
LINE
  5
36A
100
AcDbEntity
  8
RACCORDO
100
AcDbLine
 62
253
  6
CONTINUOUS
 10
82.6677803664
 20
-5.3872243508
 11
82.6677803664
 21
-32.0975960459
  0
LINE
  5
36B
100
AcDbEntity
  8
RACCORDO
100
AcDbLine
 62
253
  6
CONTINUOUS
 10
82.6677803664
 20
-33.5330499738
 11
82.6677803664
 21
-34.7678032127
  0
LINE
  5
36C
100
AcDbEntity
  8
RACCORDO
100
AcDbLine
 62
253
  6
CONTINUOUS
 10
82.8969352117
 20
23.8339898737
 11
82.8969352117
 21
23.619269288
  0
LINE
  5
36D
100
AcDbEntity
  8
RACCORDO
100
AcDbLine
 62
253
  6
CONTINUOUS
 10
82.8969352117
 20
-4.3118357493
 11
82.8969352117
 21
-4.526556335
  0
LINE
  5
36E
100
AcDbEntity
  8
RACCORDO
100
AcDbLine
 62
7
  6
CONTINUOUS
 10
83.4596983227
 20
-32.7390429278
 11
83.4596983227
 21
-31.3534022818
  0
LINE
  5
36F
100
AcDbEntity
  8
RACCORDO
100
AcDbLine
 62
7
  6
CONTINUOUS
 10
83.4596983227
 20
-4.5932173048
 11
83.4596983227
 21
-3.2075766588
  0
LINE
  5
370
100
AcDbEntity
  8
RACCORDO
100
AcDbLine
 62
7
  6
CONTINUOUS
 10
83.4596983227
 20
23.5526083181
 11
83.4596983227
 21
24.9382489642
  0
LINE
  5
371
100
AcDbEntity
  8
RACCORDO
100
AcDbLine
 62
7
  6
CONTINUOUS
 10
83.5097454151
 20
26.4625514601
 11
83.5097609654
 21
-33.7127987843
  0
LWPOLYLINE
  5
372
100
AcDbEntity
  8
RACCORDO
100
AcDbPolyline
 62
7
  6
CONTINUOUS
 90
3
 70
0
 10
82.9023414288
 20
-34.8063031323
 10
83.086761727
 20
-34.6453797769
 10
83.239444858
 20
-34.4720389441
  0
LWPOLYLINE
  5
373
100
AcDbEntity
  8
RACCORDO
100
AcDbPolyline
 62
7
  6
CONTINUOUS
 90
3
 70
0
 10
-15.3570679865
 20
82.3536264236
 10
-15.5935954498
 20
82.3056167354
 10
-15.832224505
 20
82.2263008565
  0
LINE
  5
374
100
AcDbEntity
  8
RACCORDO
100
AcDbLine
 62
253
  6
CONTINUOUS
 10
79.4265896587
 20
32.4916365354
 11
79.9628705343
 21
31.5666888455
  0
LINE
  5
375
100
AcDbEntity
  8
RACCORDO
100
AcDbLine
 62
253
  6
CONTINUOUS
 10
80.7400449444
 20
30.2262612676
 11
80.858041363
 21
30.0227475497
  0
LINE
  5
376
100
AcDbEntity
  8
RACCORDO
100
AcDbLine
 62
7
  6
CONTINUOUS
 10
79.5904509363
 20
32.5866426319
 11
80.126731812
 21
31.661694942
  0
LINE
  5
377
100
AcDbEntity
  8
RACCORDO
100
AcDbLine
 62
7
  6
CONTINUOUS
 10
80.9195230707
 20
30.2943322844
 11
81.0290563373
 21
30.1054153446
  0
LINE
  5
378
100
AcDbEntity
  8
DRAFT
100
AcDbLine
 62
7
  6
CONTINUOUS
 10
82.6314044456
 20
28.935502103
 11
81.7508078952
 21
30.4543064871
  0
LINE
  5
379
100
AcDbEntity
  8
DRAFT
100
AcDbLine
 62
7
  6
CONTINUOUS
 10
80.2557376378
 20
33.0329212458
 11
79.3751410874
 21
34.5517256299
  0
LWPOLYLINE
  5
37A
100
AcDbEntity
  8
RACCORDO
100
AcDbPolyline
 62
7
  6
CONTINUOUS
 90
8
 70
0
 10
78.6788856467
 20
34.8998533503
 10
78.6371960659
 20
35.0697071822
 10
78.5406223338
 20
35.3214455732
 10
78.416104036
 20
35.5472156175
 10
78.2661720921
 20
35.743831878
 10
78.0924751944
 20
35.9101036913
 10
77.8969716451
 20
36.0440247136
 10
77.8280065381
 20
36.0808362548
  0
LWPOLYLINE
  5
37B
100
AcDbEntity
  8
RACCORDO
100
AcDbPolyline
 62
7
  6
CONTINUOUS
 90
5
 70
0
 10
83.239444858
 20
-34.4720389441
 10
83.3589025884
 20
-34.2882398927
 10
83.444060644
 20
-34.0962709396
 10
83.4944859283
 20
-33.8984897523
 10
83.5097568846
 20
-33.7112211224
  0
LINE
  5
37C
100
AcDbEntity
  8
RACCORDO
100
AcDbLine
 62
253
  6
CONTINUOUS
 10
46.2645416052
 20
-76.316299276
 11
43.6482465148
 21
-77.6244468212
  0
LINE
  5
37D
100
AcDbEntity
  8
ASSI
100
AcDbLine
 62
7
  6
CONTINUOUS
 10
43.6656097483
 20
-81.7250372801
 11
41.0493146579
 21
-83.0331848253
  0
ARC
  5
37E
100
AcDbEntity
  8
0
100
AcDbCircle
 62
7
  6
CONTINUOUS
 10
-52.7238842771
 20
-13.8598046285
 40
15.5350070955
100
AcDbArc
 50
178.8805154464
 51
181.1164946862
  0
ARC
  5
37F
100
AcDbEntity
  8
0
100
AcDbCircle
 62
7
  6
CONTINUOUS
 10
-68.5474082053
 20
-5.0189090341
 40
8.9253069101
100
AcDbArc
 50
264.2225437041
 51
267.0884479228
  0
ARC
  5
380
100
AcDbEntity
  8
0
100
AcDbCircle
 62
7
  6
CONTINUOUS
 10
-61.5113319324
 20
-11.629214818
 40
8.0518541451
100
AcDbArc
 50
189.3175606024
 51
189.7925119453
  0
ARC
  5
381
100
AcDbEntity
  8
0
100
AcDbCircle
 62
7
  6
CONTINUOUS
 10
-64.5296984557
 20
-6.7891372724
 40
7.92005644
100
AcDbArc
 50
231.6308965808
 51
235.6307820283
  0
ARC
  5
382
100
AcDbEntity
  8
0
100
AcDbCircle
 62
7
  6
CONTINUOUS
 10
-62.9349603466
 20
-11.6297862592
 40
7.49127769
100
AcDbArc
 50
194.7048226947
 51
195.2031810519
  0
ARC
  5
383
100
AcDbEntity
  8
0
100
AcDbCircle
 62
7
  6
CONTINUOUS
 10
-63.3154650468
 20
-14.8278429845
 40
7.2082686168
100
AcDbArc
 50
161.8239130891
 51
162.2573500263
  0
ARC
  5
384
100
AcDbEntity
  8
0
100
AcDbCircle
 62
7
  6
CONTINUOUS
 10
-65.7176303763
 20
-8.8010760269
 40
6.5035411377
100
AcDbArc
 50
222.1073157184
 51
226.6638372672
  0
ARC
  5
385
100
AcDbEntity
  8
0
100
AcDbCircle
 62
7
  6
CONTINUOUS
 10
-63.9519936216
 20
-15.1667027347
 40
5.638271209
100
AcDbArc
 50
167.0052115978
 51
167.5157734866
  0
ARC
  5
386
100
AcDbEntity
  8
0
100
AcDbCircle
 62
7
  6
CONTINUOUS
 10
-65.875335485
 20
-12.4864304494
 40
5.1357266781
100
AcDbArc
 50
176.6149940728
 51
183.3820652921
  0
ARC
  5
387
100
AcDbEntity
  8
0
100
AcDbCircle
 62
7
  6
CONTINUOUS
 10
-67.5188090169
 20
-12.6524501489
 40
3.168646666
100
AcDbArc
 50
231.0490484786
 51
235.8894480283
  0
ARC
  5
388
100
AcDbEntity
  8
0
100
AcDbCircle
 62
7
  6
CONTINUOUS
 10
-67.6950533869
 20
-12.9117745307
 40
2.8551009117
100
AcDbArc
 50
235.8993990138
 51
239.1598116442
  0
ARC
  5
389
100
AcDbEntity
  8
0
100
AcDbCircle
 62
7
  6
CONTINUOUS
 10
-69.449248727
 20
-11.4845747388
 40
1.621030731
100
AcDbArc
 50
151.9326784287
 51
154.8980429124
  0
ARC
  5
38A
100
AcDbEntity
  8
0
100
AcDbCircle
 62
7
  6
CONTINUOUS
 10
-68.1723189279
 20
-14.0585396613
 40
1.6042804235
100
AcDbArc
 50
257.8977119464
 51
263.7603235327
  0
ARC
  5
38B
100
AcDbEntity
  8
0
100
AcDbCircle
 62
7
  6
CONTINUOUS
 10
-69.5290434423
 20
-11.4421600148
 40
1.5306637527
100
AcDbArc
 50
149.2580247679
 51
151.9282782621
  0
ARC
  5
38C
100
AcDbEntity
  8
DRAFT
100
AcDbCircle
 62
7
  6
CONTINUOUS
 10
-4.2222973535
 20
48.7259690371
 40
21.3361613002
100
AcDbArc
 50
44.4633083194
 51
45.5964424263
  0
ARC
  5
38D
100
AcDbEntity
  8
DRAFT
100
AcDbCircle
 62
7
  6
CONTINUOUS
 10
-3.1469157343
 20
49.4062567558
 40
19.4333914295
100
AcDbArc
 50
45.8988371629
 51
47.2169510337
  0
ARC
  5
38E
100
AcDbEntity
  8
DRAFT
100
AcDbCircle
 62
7
  6
CONTINUOUS
 10
-2.2562097747
 20
49.876638207
 40
19.1043123132
100
AcDbArc
 50
46.1677925166
 51
47.4507197714
  0
ARC
  5
38F
100
AcDbEntity
  8
RACCORDO
100
AcDbCircle
 62
7
  6
CONTINUOUS
 10
-57.3651038966
 20
54.8727441531
 40
17.6859554676
100
AcDbArc
 50
63.4315545137
 51
64.6819082517
  0
ARC
  5
390
100
AcDbEntity
  8
0
100
AcDbCircle
 62
7
  6
CONTINUOUS
 10
-52.7238842771
 20
53.6901768667
 40
15.5350070955
100
AcDbArc
 50
178.8805154464
 51
181.1164946862
  0
ARC
  5
391
100
AcDbEntity
  8
DRAFT
100
AcDbCircle
 62
7
  6
CONTINUOUS
 10
-0.8645519977
 20
51.0278161555
 40
15.3465757764
100
AcDbArc
 50
49.6141583108
 51
51.5051615983
  0
ARC
  5
392
100
AcDbEntity
  8
DRAFT
100
AcDbCircle
 62
7
  6
CONTINUOUS
 10
0.3279459525
 20
51.9851014298
 40
13.1576959313
100
AcDbArc
 50
52.1748131605
 51
54.5426442324
  0
ARC
  5
393
100
AcDbEntity
  8
DRAFT
100
AcDbCircle
 62
7
  6
CONTINUOUS
 10
1.2494566149
 20
52.5231851978
 40
12.7568649423
100
AcDbArc
 50
52.6892286931
 51
55.0438165046
  0
ARC
  5
394
100
AcDbEntity
  8
DRAFT
100
AcDbCircle
 62
7
  6
CONTINUOUS
 10
2.3192647067
 20
53.6565437775
 40
9.206763269
100
AcDbArc
 50
60.1134895541
 51
60.8206004472
  0
ARC
  5
395
100
AcDbEntity
  8
DRAFT
100
AcDbCircle
 62
7
  6
CONTINUOUS
 10
-57.9805402097
 20
62.1711604233
 40
8.9989345899
100
AcDbArc
 50
97.4754241539
 51
101.6736886651
  0
ARC
  5
396
100
AcDbEntity
  8
0
100
AcDbCircle
 62
7
  6
CONTINUOUS
 10
-68.5474082044
 20
62.531072461
 40
8.9253069101
100
AcDbArc
 50
264.2225436987
 51
267.0884479173
  0
ARC
  5
397
100
AcDbEntity
  8
DRAFT
100
AcDbCircle
 62
7
  6
CONTINUOUS
 10
-58.085825618
 20
62.6597440688
 40
8.4991547565
100
AcDbArc
 50
101.6450458329
 51
108.3012553607
  0
ARC
  5
398
100
AcDbEntity
  8
RACCORDO
100
AcDbCircle
 62
253
  6
CONTINUOUS
 10
-55.9698285477
 20
63.8239767663
 40
8.3490130555
100
AcDbArc
 50
113.724376214
 51
115.3242181051
  0
ARC
  5
399
100
AcDbEntity
  8
0
100
AcDbCircle
 62
7
  6
CONTINUOUS
 10
-61.5113319324
 20
55.9207666772
 40
8.0518541452
100
AcDbArc
 50
189.3175606024
 51
189.7925119453
  0
ARC
  5
39A
100
AcDbEntity
  8
0
100
AcDbCircle
 62
7
  6
CONTINUOUS
 10
-64.5296984557
 20
60.7608442228
 40
7.92005644
100
AcDbArc
 50
231.6308965808
 51
235.6307820283
  0
ARC
  5
39B
100
AcDbEntity
  8
0
100
AcDbCircle
 62
7
  6
CONTINUOUS
 10
-62.9349603467
 20
55.920195236
 40
7.49127769
100
AcDbArc
 50
194.7048226947
 51
195.2031810519
  0
ARC
  5
39C
100
AcDbEntity
  8
0
100
AcDbCircle
 62
7
  6
CONTINUOUS
 10
-63.3154650467
 20
52.7221385107
 40
7.2082686169
100
AcDbArc
 50
161.8239130891
 51
162.2573500263
  0
ARC
  5
39D
100
AcDbEntity
  8
0
100
AcDbCircle
 62
7
  6
CONTINUOUS
 10
-65.7176303763
 20
58.7489054683
 40
6.5035411377
100
AcDbArc
 50
222.1073157184
 51
226.6638372672
  0
ARC
  5
39E
100
AcDbEntity
  8
DRAFT
100
AcDbCircle
 62
7
  6
CONTINUOUS
 10
3.5508253479
 20
55.3904005962
 40
6.3270457168
100
AcDbArc
 50
68.1296976832
 51
73.9986241772
  0
ARC
  5
39F
100
AcDbEntity
  8
DRAFT
100
AcDbCircle
 62
7
  6
CONTINUOUS
 10
4.2873533978
 20
56.0511180711
 40
5.79753054
100
AcDbArc
 50
72.9290723835
 51
75.1956828125
  0
ARC
  5
3A0
100
AcDbEntity
  8
0
100
AcDbCircle
 62
7
  6
CONTINUOUS
 10
-63.9519936217
 20
52.3832787604
 40
5.638271209
100
AcDbArc
 50
167.0052115978
 51
167.5157734866
  0
ARC
  5
3A1
100
AcDbEntity
  8
0
100
AcDbCircle
 62
7
  6
CONTINUOUS
 10
-65.875335485
 20
55.0635510458
 40
5.1357266781
100
AcDbArc
 50
176.6149940728
 51
183.3820652921
  0
ARC
  5
3A2
100
AcDbEntity
  8
0
100
AcDbCircle
 62
7
  6
CONTINUOUS
 10
-67.5188090169
 20
54.8975313463
 40
3.168646666
100
AcDbArc
 50
231.0490484786
 51
235.8894480283
  0
ARC
  5
3A3
100
AcDbEntity
  8
0
100
AcDbCircle
 62
7
  6
CONTINUOUS
 10
-67.6950533869
 20
54.6382069645
 40
2.8551009117
100
AcDbArc
 50
235.8993990138
 51
239.1598116442
  0
ARC
  5
3A4
100
AcDbEntity
  8
0
100
AcDbCircle
 62
7
  6
CONTINUOUS
 10
-69.449248727
 20
56.0654067564
 40
1.621030731
100
AcDbArc
 50
151.9326784287
 51
154.8980429124
  0
ARC
  5
3A5
100
AcDbEntity
  8
0
100
AcDbCircle
 62
7
  6
CONTINUOUS
 10
-68.1723189279
 20
53.4914418339
 40
1.6042804235
100
AcDbArc
 50
257.8977119464
 51
263.7603235327
  0
ARC
  5
3A6
100
AcDbEntity
  8
0
100
AcDbCircle
 62
7
  6
CONTINUOUS
 10
-69.5290434424
 20
56.1078214804
 40
1.5306637526
100
AcDbArc
 50
149.2580247679
 51
151.9282782622
  0
ARC
  5
3A7
100
AcDbEntity
  8
RACCORDO
100
AcDbCircle
 62
253
  6
CONTINUOUS
 10
-14.9639785511
 20
81.1538158096
 40
1.182949589
100
AcDbArc
 50
67.5335337282
 51
70.8262987903
  0
ARC
  5
3A8
100
AcDbEntity
  8
RACCORDO
100
AcDbCircle
 62
253
  6
CONTINUOUS
 10
-14.9627661676
 20
81.1566519216
 40
1.1798654256
100
AcDbArc
 50
63.5031736417
 51
67.535309534
  0
ARC
  5
3A9
100
AcDbEntity
  8
RACCORDO
100
AcDbCircle
 62
7
  6
CONTINUOUS
 10
29.8026299638
 20
-52.9318553918
 40
23.0816304067
100
AcDbArc
 50
359.1205112937
 51
0.0018759449
  0
ARC
  5
3AA
100
AcDbEntity
  8
0
100
AcDbCircle
 62
7
  6
CONTINUOUS
 10
45.5639583079
 20
-63.0037259209
 40
15.5350070955
100
AcDbArc
 50
178.8805154464
 51
181.1164946862
  0
ARC
  5
3AB
100
AcDbEntity
  8
0
100
AcDbCircle
 62
7
  6
CONTINUOUS
 10
29.7404343792
 20
-54.1628303265
 40
8.9253069101
100
AcDbArc
 50
264.2225437072
 51
267.0884479259
  0
ARC
  5
3AC
100
AcDbEntity
  8
DRAFT
100
AcDbCircle
 62
7
  6
CONTINUOUS
 10
40.7506882822
 20
-58.4125690465
 40
8.8375486877
100
AcDbArc
 50
308.6142189143
 51
316.6610971327
  0
ARC
  5
3AD
100
AcDbEntity
  8
RACCORDO
100
AcDbCircle
 62
253
  6
CONTINUOUS
 10
43.1612572736
 20
-57.6735007077
 40
8.3573312386
100
AcDbArc
 50
297.8146074052
 51
299.5619494075
  0
ARC
  5
3AE
100
AcDbEntity
  8
RACCORDO
100
AcDbCircle
 62
253
  6
CONTINUOUS
 10
43.1678450383
 20
-57.6850816104
 40
8.3440077377
100
AcDbArc
 50
299.5618355332
 51
301.2643363068
  0
ARC
  5
3AF
100
AcDbEntity
  8
0
100
AcDbCircle
 62
7
  6
CONTINUOUS
 10
36.7765106525
 20
-60.7731361105
 40
8.0518541452
100
AcDbArc
 50
189.3175606024
 51
189.7925119453
  0
ARC
  5
3B0
100
AcDbEntity
  8
0
100
AcDbCircle
 62
7
  6
CONTINUOUS
 10
33.7581441292
 20
-55.9330585649
 40
7.92005644
100
AcDbArc
 50
231.6308965808
 51
235.6307820283
  0
ARC
  5
3B1
100
AcDbEntity
  8
0
100
AcDbCircle
 62
7
  6
CONTINUOUS
 10
35.3528822374
 20
-60.7737075519
 40
7.4912776891
100
AcDbArc
 50
194.7048226947
 51
195.2031810519
  0
ARC
  5
3B2
100
AcDbEntity
  8
0
100
AcDbCircle
 62
7
  6
CONTINUOUS
 10
34.9723775377
 20
-63.9717642768
 40
7.2082686163
100
AcDbArc
 50
161.8239130891
 51
162.2573500263
  0
ARC
  5
3B3
100
AcDbEntity
  8
0
100
AcDbCircle
 62
7
  6
CONTINUOUS
 10
32.5702122086
 20
-57.9449973194
 40
6.5035411377
100
AcDbArc
 50
222.1073157185
 51
226.6638372672
  0
ARC
  5
3B4
100
AcDbEntity
  8
0
100
AcDbCircle
 62
7
  6
CONTINUOUS
 10
34.3358489629
 20
-64.3106240271
 40
5.6382712086
100
AcDbArc
 50
167.0052115978
 51
167.5157734866
  0
ARC
  5
3B5
100
AcDbEntity
  8
0
100
AcDbCircle
 62
7
  6
CONTINUOUS
 10
32.4125070999
 20
-61.6303517419
 40
5.135726678
100
AcDbArc
 50
176.6149940728
 51
183.3820652921
  0
ARC
  5
3B6
100
AcDbEntity
  8
0
100
AcDbCircle
 62
7
  6
CONTINUOUS
 10
30.8682439519
 20
-61.6699108094
 40
3.3293630687
100
AcDbArc
 50
230.8519431794
 51
231.4592985782
  0
ARC
  5
3B7
100
AcDbEntity
  8
0
100
AcDbCircle
 62
7
  6
CONTINUOUS
 10
30.7616995089
 20
-61.8065933319
 40
3.1560705198
100
AcDbArc
 50
231.4261232452
 51
235.8956192942
  0
ARC
  5
3B8
100
AcDbEntity
  8
0
100
AcDbCircle
 62
7
  6
CONTINUOUS
 10
30.592789198
 20
-62.0556958232
 40
2.8551009117
100
AcDbArc
 50
235.8993990138
 51
239.1598116442
  0
ARC
  5
3B9
100
AcDbEntity
  8
0
100
AcDbCircle
 62
7
  6
CONTINUOUS
 10
28.8385938579
 20
-60.6284960313
 40
1.621030731
100
AcDbArc
 50
151.9326784287
 51
154.8980429124
  0
ARC
  5
3BA
100
AcDbEntity
  8
0
100
AcDbCircle
 62
7
  6
CONTINUOUS
 10
30.1155236571
 20
-63.2024609538
 40
1.6042804235
100
AcDbArc
 50
257.8977119464
 51
263.7603235327
  0
ARC
  5
3BB
100
AcDbEntity
  8
0
100
AcDbCircle
 62
7
  6
CONTINUOUS
 10
28.7587991426
 20
-60.5860813073
 40
1.5306637526
100
AcDbArc
 50
149.2580247679
 51
151.9282782621
  0
ARC
  5
3BC
100
AcDbEntity
  8
DRAFT
100
AcDbCircle
 62
7
  6
CONTINUOUS
 10
16.4999157179
 20
-2.118573978
 40
33.0226707706
100
AcDbArc
 50
28.5156357533
 51
28.9526157016
  0
ARC
  5
3BD
100
AcDbEntity
  8
DRAFT
100
AcDbCircle
 62
7
  6
CONTINUOUS
 10
16.8625768648
 20
-1.9437355336
 40
32.620543393
100
AcDbArc
 50
18.0232364389
 51
28.5498961416
  0
ARC
  5
3BE
100
AcDbEntity
  8
DRAFT
100
AcDbCircle
 62
7
  6
CONTINUOUS
 10
21.6261276751
 20
1.8787849455
 40
26.5060451892
100
AcDbArc
 50
41.4103669705
 51
47.0420104748
  0
ARC
  5
3BF
100
AcDbEntity
  8
RACCORDO
100
AcDbCircle
 62
253
  6
CONTINUOUS
 10
28.9563786225
 20
0.4146342772
 40
23.6472215416
100
AcDbArc
 50
0.0012403162
 51
0.8245838566
  0
ARC
  5
3C0
100
AcDbEntity
  8
DRAFT
100
AcDbCircle
 62
7
  6
CONTINUOUS
 10
46.8881660085
 20
-14.803893648
 40
21.4514707498
100
AcDbArc
 50
6.595531737
 51
9.6452569252
  0
ARC
  5
3C1
100
AcDbEntity
  8
DRAFT
100
AcDbCircle
 62
7
  6
CONTINUOUS
 10
47.7992641112
 20
-14.6905985985
 40
20.5333910292
100
AcDbArc
 50
6.2562575359
 51
6.5734967502
  0
ARC
  5
3C2
100
AcDbEntity
  8
DRAFT
100
AcDbCircle
 62
7
  6
CONTINUOUS
 10
48.3389947318
 20
-14.3191254813
 40
19.2854159751
100
AcDbArc
 50
4.5081175348
 51
8.3524341826
  0
ARC
  5
3C3
100
AcDbEntity
  8
0
100
AcDbCircle
 62
7
  6
CONTINUOUS
 10
45.5639583079
 20
4.5462555742
 40
15.5350070955
100
AcDbArc
 50
178.8805154464
 51
181.1164946862
  0
ARC
  5
3C4
100
AcDbEntity
  8
0
100
AcDbCircle
 62
7
  6
CONTINUOUS
 10
36.7765106525
 20
6.7768453847
 40
8.0518541452
100
AcDbArc
 50
189.3175606024
 51
189.7925119453
  0
ARC
  5
3C5
100
AcDbEntity
  8
0
100
AcDbCircle
 62
7
  6
CONTINUOUS
 10
35.3528822374
 20
6.7762739433
 40
7.4912776891
100
AcDbArc
 50
194.7048226947
 51
195.2031810519
  0
ARC
  5
3C6
100
AcDbEntity
  8
0
100
AcDbCircle
 62
7
  6
CONTINUOUS
 10
34.9723775376
 20
3.5782172184
 40
7.2082686162
100
AcDbArc
 50
161.823913089
 51
162.2573500263
  0
ARC
  5
3C7
100
AcDbEntity
  8
0
100
AcDbCircle
 62
7
  6
CONTINUOUS
 10
34.335848963
 20
3.2393574681
 40
5.6382712087
100
AcDbArc
 50
167.0052115978
 51
167.5157734866
  0
ARC
  5
3C8
100
AcDbEntity
  8
0
100
AcDbCircle
 62
7
  6
CONTINUOUS
 10
32.4125070999
 20
5.9196297533
 40
5.135726678
100
AcDbArc
 50
176.6149940728
 51
183.3820652921
  0
ARC
  5
3C9
100
AcDbEntity
  8
0
100
AcDbCircle
 62
7
  6
CONTINUOUS
 10
30.8682439519
 20
5.8800706858
 40
3.3293630686
100
AcDbArc
 50
230.8519431794
 51
231.4592985782
  0
ARC
  5
3CA
100
AcDbEntity
  8
0
100
AcDbCircle
 62
7
  6
CONTINUOUS
 10
30.7616995089
 20
5.7433881632
 40
3.1560705198
100
AcDbArc
 50
231.4261232452
 51
235.8956192942
  0
ARC
  5
3CB
100
AcDbEntity
  8
0
100
AcDbCircle
 62
7
  6
CONTINUOUS
 10
30.592789198
 20
5.494285672
 40
2.8551009117
100
AcDbArc
 50
235.8993990138
 51
239.1598116442
  0
ARC
  5
3CC
100
AcDbEntity
  8
0
100
AcDbCircle
 62
7
  6
CONTINUOUS
 10
28.8385938579
 20
6.9214854639
 40
1.621030731
100
AcDbArc
 50
151.9326784287
 51
154.8980429124
  0
ARC
  5
3CD
100
AcDbEntity
  8
0
100
AcDbCircle
 62
7
  6
CONTINUOUS
 10
30.1155236571
 20
4.3475205414
 40
1.6042804235
100
AcDbArc
 50
257.8977119464
 51
263.7603235327
  0
ARC
  5
3CE
100
AcDbEntity
  8
0
100
AcDbCircle
 62
7
  6
CONTINUOUS
 10
28.7587991426
 20
6.9639001879
 40
1.5306637526
100
AcDbArc
 50
149.2580247679
 51
151.9282782622
  0
ARC
  5
3CF
100
AcDbEntity
  8
RACCORDO
100
AcDbCircle
 62
253
  6
CONTINUOUS
 10
81.4264759791
 20
-32.4045786699
 40
2.6693944673
100
AcDbArc
 50
297.711093889
 51
301.9615208753
  0
ARC
  5
3D0
100
AcDbEntity
  8
DRAFT
100
AcDbCircle
 62
7
  6
CONTINUOUS
 10
66.4573318029
 20
-5.5475330699
 40
20.0613292661
100
AcDbArc
 50
227.4200814758
 51
228.4958705646
  0
ARC
  5
3D1
100
AcDbEntity
  8
DRAFT
100
AcDbCircle
 62
7
  6
CONTINUOUS
 10
49.2604947979
 20
-13.8883379806
 40
18.9455989354
100
AcDbArc
 50
4.2461050448
 51
8.0923474009
  0
ARC
  5
3D2
100
AcDbEntity
  8
DRAFT
100
AcDbCircle
 62
7
  6
CONTINUOUS
 10
65.7978090782
 20
-5.8018309701
 40
18.7539368688
100
AcDbArc
 50
226.4587200268
 51
230.2681299927
  0
ARC
  5
3D3
100
AcDbEntity
  8
DRAFT
100
AcDbCircle
 62
7
  6
CONTINUOUS
 10
50.3854814791
 20
-13.5074255961
 40
15.8204339313
100
AcDbArc
 50
2.5532197633
 51
4.9255079881
  0
ARC
  5
3D4
100
AcDbEntity
  8
DRAFT
100
AcDbCircle
 62
7
  6
CONTINUOUS
 10
63.9819451965
 20
-7.5711283331
 40
14.2496644948
100
AcDbArc
 50
233.0073913012
 51
234.6053373947
  0
ARC
  5
3D5
100
AcDbEntity
  8
DRAFT
100
AcDbCircle
 62
7
  6
CONTINUOUS
 10
60.9580991396
 20
-9.2695003226
 40
9.5353942765
100
AcDbArc
 50
237.1901993761
 51
240.7951329832
  0
ARC
  5
3D6
100
AcDbEntity
  8
DRAFT
100
AcDbCircle
 62
7
  6
CONTINUOUS
 10
60.9355367542
 20
-10.48226498
 40
7.9436400316
100
AcDbArc
 50
244.1310075599
 51
249.1555313105
  0
ARC
  5
3D7
100
AcDbEntity
  8
DRAFT
100
AcDbCircle
 62
7
  6
CONTINUOUS
 10
60.1147665737
 20
-10.9258060891
 40
7.6753630387
100
AcDbArc
 50
246.1604630289
 51
248.5544596406
  0
ARC
  5
3D8
100
AcDbEntity
  8
DRAFT
100
AcDbCircle
 62
7
  6
CONTINUOUS
 10
59.9412320785
 20
-11.3676204885
 40
7.2006903258
100
AcDbArc
 50
248.5543418774
 51
251.0507468411
  0
ARC
  5
3D9
100
AcDbEntity
  8
DRAFT
100
AcDbCircle
 62
7
  6
CONTINUOUS
 10
59.620230968
 20
-11.1321534128
 40
6.4933408635
100
AcDbArc
 50
248.1708700156
 51
251.8678690718
  0
ARC
  5
3DA
100
AcDbEntity
  8
DRAFT
100
AcDbCircle
 62
7
  6
CONTINUOUS
 10
59.4418467371
 20
-11.6768865961
 40
5.9201435372
100
AcDbArc
 50
251.8678672692
 51
255.7780410689
  0
ARC
  5
3DB
100
AcDbEntity
  8
ASSI
100
AcDbCircle
 62
7
  6
CONTINUOUS
 10
78.5813436438
 20
-8.2205104384
 40
2.7863223246
100
AcDbArc
 50
180.0119117893
 51
182.7913762756
  0
ARC
  5
3DC
100
AcDbEntity
  8
ASSI
100
AcDbCircle
 62
7
  6
CONTINUOUS
 10
78.7104912389
 20
-8.1498157418
 40
2.7740485605
100
AcDbArc
 50
180.0116344088
 51
182.7004017445
  0
ARC
  5
3DD
100
AcDbEntity
  8
ASSI
100
AcDbCircle
 62
7
  6
CONTINUOUS
 10
78.0198230836
 20
-8.0176186462
 40
2.5602475423
100
AcDbArc
 50
168.3476428599
 51
174.7354791042
  0
ARC
  5
3DE
100
AcDbEntity
  8
ASSI
100
AcDbCircle
 62
7
  6
CONTINUOUS
 10
76.397755636
 20
-9.1854223001
 40
2.5294021473
100
AcDbArc
 50
51.9853416415
 51
56.5849111069
  0
ARC
  5
3DF
100
AcDbEntity
  8
ASSI
100
AcDbCircle
 62
7
  6
CONTINUOUS
 10
76.5438066378
 20
-8.9623470278
 40
2.2627704017
100
AcDbArc
 50
56.5611474784
 51
63.2836909117
  0
ARC
  5
3E0
100
AcDbEntity
  8
ASSI
100
AcDbCircle
 62
7
  6
CONTINUOUS
 10
76.9002249174
 20
-7.9751190107
 40
1.2076938795
100
AcDbArc
 50
80.3186925796
 51
86.4621206979
  0
ARC
  5
3E1
100
AcDbEntity
  8
DRAFT
100
AcDbCircle
 62
7
  6
CONTINUOUS
 10
6.6465044053
 20
81.9927648763
 40
111.9131789128
100
AcDbArc
 50
296.7466247956
 51
296.9958955655
  0
ARC
  5
3E2
100
AcDbEntity
  8
DRAFT
100
AcDbCircle
 62
7
  6
CONTINUOUS
 10
71.7046686512
 20
35.209635481
 40
26.9258551009
100
AcDbArc
 50
205.1756028808
 51
207.5102767633
  0
ARC
  5
3E3
100
AcDbEntity
  8
DRAFT
100
AcDbCircle
 62
7
  6
CONTINUOUS
 10
41.6228153677
 20
20.1678526755
 40
26.9153670058
100
AcDbArc
 50
25.483475111
 51
26.6233586461
  0
ARC
  5
3E4
100
AcDbEntity
  8
DRAFT
100
AcDbCircle
 62
7
  6
CONTINUOUS
 10
70.7339008767
 20
34.724541454
 40
25.228349386
100
AcDbArc
 50
205.1258495125
 51
207.5789829802
  0
ARC
  5
3E5
100
AcDbEntity
  8
DRAFT
100
AcDbCircle
 62
7
  6
CONTINUOUS
 10
42.5880894826
 20
20.6503148538
 40
25.2239522714
100
AcDbArc
 50
25.4155827571
 51
26.6710701124
  0
ARC
  5
3E6
100
AcDbEntity
  8
DRAFT
100
AcDbCircle
 62
7
  6
CONTINUOUS
 10
68.9140733264
 20
33.8147518756
 40
21.9690300733
100
AcDbArc
 50
205.0116287515
 51
207.7400671665
  0
ARC
  5
3E7
100
AcDbEntity
  8
DRAFT
100
AcDbCircle
 62
7
  6
CONTINUOUS
 10
44.4091273099
 20
21.5606852307
 40
21.9632907488
100
AcDbArc
 50
25.2554475866
 51
26.7861112884
  0
ARC
  5
3E8
100
AcDbEntity
  8
DRAFT
100
AcDbCircle
 62
7
  6
CONTINUOUS
 10
15.9369530461
 20
58.8663469095
 40
21.160436686
100
AcDbArc
 50
185.9701090585
 51
188.5064334512
  0
ARC
  5
3E9
100
AcDbEntity
  8
DRAFT
100
AcDbCircle
 62
7
  6
CONTINUOUS
 10
45.2778410404
 20
21.9962085734
 40
20.3790780047
100
AcDbArc
 50
25.1563604577
 51
26.8536709124
  0
ARC
  5
3EA
100
AcDbEntity
  8
DRAFT
100
AcDbCircle
 62
7
  6
CONTINUOUS
 10
68.0367864329
 20
33.3751217508
 40
20.3753124198
100
AcDbArc
 50
204.9410064695
 51
207.8348329621
  0
ARC
  5
3EB
100
AcDbEntity
  8
DRAFT
100
AcDbCircle
 62
7
  6
CONTINUOUS
 10
14.4808912577
 20
58.3922425894
 40
18.9904734216
100
AcDbArc
 50
184.3018061202
 51
187.0932070677
  0
ARC
  5
3EC
100
AcDbEntity
  8
RACCORDO
100
AcDbCircle
 62
253
  6
CONTINUOUS
 10
28.6384493167
 20
10.3339094983
 40
18.8464848513
100
AcDbArc
 50
59.8715363663
 51
62.2436581608
  0
ARC
  5
3ED
100
AcDbEntity
  8
RACCORDO
100
AcDbCircle
 62
253
  6
CONTINUOUS
 10
29.0040562446
 20
11.0226376528
 40
18.0667369564
100
AcDbArc
 50
62.2525045363
 51
63.432298311
  0
ARC
  5
3EE
100
AcDbEntity
  8
DRAFT
100
AcDbCircle
 62
7
  6
CONTINUOUS
 10
47.104532018
 20
22.9094157022
 40
17.112093488
100
AcDbArc
 50
24.9008687597
 51
27.0363800908
  0
ARC
  5
3EF
100
AcDbEntity
  8
DRAFT
100
AcDbCircle
 62
7
  6
CONTINUOUS
 10
66.2114458529
 20
32.4625633364
 40
17.1098259155
100
AcDbArc
 50
204.7585114734
 51
208.0906752121
  0
ARC
  5
3F0
100
AcDbEntity
  8
DRAFT
100
AcDbCircle
 62
7
  6
CONTINUOUS
 10
12.4701834766
 20
57.5957558948
 40
15.5622967166
100
AcDbArc
 50
182.5445437972
 51
183.3250047695
  0
ARC
  5
3F1
100
AcDbEntity
  8
DRAFT
100
AcDbCircle
 62
7
  6
CONTINUOUS
 10
48.009367021
 20
23.361883708
 40
15.4880544022
100
AcDbArc
 50
24.733431628
 51
27.1558511789
  0
ARC
  5
3F2
100
AcDbEntity
  8
DRAFT
100
AcDbCircle
 62
7
  6
CONTINUOUS
 10
65.3052791998
 20
32.0094586198
 40
15.4843110917
100
AcDbArc
 50
204.6390333837
 51
208.2580918815
  0
ARC
  5
3F3
100
AcDbEntity
  8
DRAFT
100
AcDbCircle
 62
7
  6
CONTINUOUS
 10
48.7049437838
 20
23.7096523282
 40
15.2564592711
100
AcDbArc
 50
24.6991072166
 51
27.1012749082
  0
ARC
  5
3F4
100
AcDbEntity
  8
DRAFT
100
AcDbCircle
 62
7
  6
CONTINUOUS
 10
36.4216308578
 20
10.3106392806
 40
9.9313004291
100
AcDbArc
 50
51.3612846219
 51
53.6026323276
  0
ARC
  5
3F5
100
AcDbEntity
  8
0
100
AcDbCircle
 62
7
  6
CONTINUOUS
 10
29.7404343791
 20
13.3871511686
 40
8.9253069101
100
AcDbArc
 50
264.2225437075
 51
267.0884479261
  0
ARC
  5
3F6
100
AcDbEntity
  8
DRAFT
100
AcDbCircle
 62
7
  6
CONTINUOUS
 10
8.4908872488
 20
57.0979545968
 40
8.8701491438
100
AcDbArc
 50
167.9934611024
 51
173.8115963843
  0
ARC
  5
3F7
100
AcDbEntity
  8
0
100
AcDbCircle
 62
7
  6
CONTINUOUS
 10
33.7581441292
 20
11.6169229303
 40
7.92005644
100
AcDbArc
 50
231.6308965808
 51
235.6307820283
  0
ARC
  5
3F8
100
AcDbEntity
  8
DRAFT
100
AcDbCircle
 62
7
  6
CONTINUOUS
 10
60.0927200793
 20
19.943293958
 40
7.1056585158
100
AcDbArc
 50
319.8158551561
 51
325.1543546188
  0
ARC
  5
3F9
100
AcDbEntity
  8
0
100
AcDbCircle
 62
7
  6
CONTINUOUS
 10
32.5702122086
 20
9.6049841758
 40
6.5035411377
100
AcDbArc
 50
222.1073157184
 51
226.6638372672
  0
ARC
  5
3FA
100
AcDbEntity
  8
RACCORDO
100
AcDbCircle
 62
253
  6
CONTINUOUS
 10
81.6502350306
 20
26.316645035
 40
1.5767025866
100
AcDbArc
 50
49.5052707481
 51
51.4710094718
  0
ARC
  5
3FB
100
AcDbEntity
  8
RACCORDO
100
AcDbCircle
 62
253
  6
CONTINUOUS
 10
79.8091399655
 20
30.6189780618
 40
1.2088851772
100
AcDbArc
 50
14.4373723353
 51
22.1968558483
  0
ARC
  5
3FC
100
AcDbEntity
  8
0
100
AcDbCircle
 62
7
  6
CONTINUOUS
 10
48.7986523388
 20
15.0906248634
 40
0.9913732564
100
AcDbArc
 50
354.9024362238
 51
0.062529804
  0
ARC
  5
3FD
100
AcDbEntity
  8
RACCORDO
100
AcDbCircle
 62
7
  6
CONTINUOUS
 10
80.3796980514
 20
31.0779519972
 40
0.6363978204
100
AcDbArc
 50
77.9224979371
 51
87.8728459854
  0
ARC
  5
3FE
100
AcDbEntity
  8
RACCORDO
100
AcDbCircle
 62
7
  6
CONTINUOUS
 10
80.3813755545
 20
31.0877174496
 40
0.6265672911
100
AcDbArc
 50
97.5764441787
 51
106.7506616788
  0
ARC
  5
3FF
100
AcDbEntity
  8
RACCORDO
100
AcDbCircle
 62
7
  6
CONTINUOUS
 10
80.3812825641
 20
31.0909675386
 40
0.6233334061
100
AcDbArc
 50
87.9739855395
 51
97.6073601836
  0
ARC
  5
400
100
AcDbEntity
  8
RACCORDO
100
AcDbCircle
 62
7
  6
CONTINUOUS
 10
80.5263756248
 20
30.8014298481
 40
0.619253386
100
AcDbArc
 50
306.0595641027
 51
308.1870327478
  0
ARC
  5
401
100
AcDbEntity
  8
RACCORDO
100
AcDbCircle
 62
7
  6
CONTINUOUS
 10
80.5369480848
 20
30.7862226111
 40
0.6007366835
100
AcDbArc
 50
297.2449405339
 51
306.0981474492
  0
ARC
  5
402
100
AcDbEntity
  8
RACCORDO
100
AcDbCircle
 62
7
  6
CONTINUOUS
 10
80.3734948985
 20
31.1130266456
 40
0.6000608042
100
AcDbArc
 50
106.7266028958
 51
115.8800256974
  0
ARC
  5
403
100
AcDbEntity
  8
RACCORDO
100
AcDbCircle
 62
253
  6
CONTINUOUS
 10
80.6695033725
 20
30.5284794879
 40
0.310598075
100
AcDbArc
 50
297.2715613697
 51
302.0575547298
  0
SPLINE
  5
404
100
AcDbEntity
  8
0
100
AcDbSpline
 62
7
  6
CONTINUOUS
 70
0
 71
3
 72
9
 73
5
 74
3
 42
0.0000001
 43
0.0000001
 44
0.0000000001
 12
-0.3146349819
 22
0.1676527526
 32
0.0
 13
-0.2882787499
 23
0.2094216566
 33
0.0
 40
0.0
 40
0.0
 40
0.0
 40
0.0
 40
0.2130096085
 40
1.0
 40
1.0
 40
1.0
 40
1.0
 10
-69.1872942622
 20
-15.2806988096
 30
0.0
 10
-69.2096343536
 20
-15.2687949272
 30
0.0
 10
-69.3135951941
 20
-15.2111806507
 30
0.0
 10
-69.4132142729
 20
-15.1460155389
 30
0.0
 10
-69.488838475
 20
-15.0910779284
 30
0.0
 11
-69.1872942622
 21
-15.2806988096
 31
0.0
 11
-69.2537266703
 21
-15.2439075335
 31
0.0
 11
-69.488838475
 21
-15.0910779284
 31
0.0
  0
SPLINE
  5
405
100
AcDbEntity
  8
0
100
AcDbSpline
 62
7
  6
CONTINUOUS
 70
0
 71
3
 72
15
 73
11
 74
9
 42
0.0000001
 43
0.0000001
 44
0.0000000001
 12
-2.939478045
 22
2.135399719
 32
0.0
 13
0.0
 23
3.6332441615
 33
0.0
 40
0.0
 40
0.0
 40
0.0
 40
0.0
 40
0.1166507875
 40
0.2400441641
 40
0.3682594671
 40
0.499036013
 40
0.6299439153
 40
0.7585448031
 40
0.8825520476
 40
1.0
 40
1.0
 40
1.0
 40
1.0
 10
-69.7716811875
 20
-15.2324992847
 30
0.0
 10
-69.8859786638
 20
-15.149467265
 30
0.0
 10
-70.1087508641
 20
-14.9610640509
 30
0.0
 10
-70.4113002841
 20
-14.6320648542
 30
0.0
 10
-70.6845575877
 20
-14.2569877545
 30
0.0
 10
-70.9204415157
 20
-13.8469074261
 30
0.0
 10
-71.1120594061
 20
-13.4138606669
 30
0.0
 10
-71.2537688184
 20
-12.9705373955
 30
0.0
 10
-71.3413939953
 20
-12.5300417205
 30
0.0
 10
-71.3626714452
 20
-12.2373689355
 30
0.0
 10
-71.3626714452
 20
-12.0951299064
 30
0.0
 11
-69.7716811875
 21
-15.2324992847
 31
0.0
 11
-70.0964573377
 21
-14.9602043773
 31
0.0
 11
-70.4008665494
 21
-14.631077808
 31
0.0
 11
-70.6757688938
 21
-14.2550016476
 31
0.0
 11
-70.9129103898
 21
-13.843267635
 31
0.0
 11
-71.1051708312
 21
-13.408238141
 31
0.0
 11
-71.2467775716
 21
-12.9629749866
 31
0.0
 11
-71.3334788488
 21
-12.5208472596
 31
0.0
 11
-71.3626714452
 21
-12.0951299064
 31
0.0
  0
SPLINE
  5
406
100
AcDbEntity
  8
0
100
AcDbSpline
 62
7
  6
CONTINUOUS
 70
0
 71
3
 72
12
 73
8
 74
6
 42
0.0000001
 43
0.0000001
 44
0.0000000001
 12
0.0
 22
1.6082833791
 32
0.0
 13
1.3444239069
 23
0.8919271608
 33
0.0
 40
0.0
 40
0.0
 40
0.0
 40
0.0
 40
0.2472188084
 40
0.4746963992
 40
0.6830252122
 40
0.8755775277
 40
1.0
 40
1.0
 40
1.0
 40
1.0
 10
-71.3626714452
 20
-12.0951299064
 30
0.0
 10
-71.3626714452
 20
-11.9625972729
 30
0.0
 10
-71.3454290493
 20
-11.7075677054
 30
0.0
 10
-71.2610271319
 20
-11.3493321103
 30
0.0
 10
-71.1204931943
 20
-11.040353281
 30
0.0
 10
-70.945782864
 20
-10.8156578508
 30
0.0
 10
-70.8126837341
 20
-10.7078163508
 30
0.0
 10
-70.7569248854
 20
-10.6708244233
 30
0.0
 11
-71.3626714452
 21
-12.0951299064
 31
0.0
 11
-71.3334788488
 21
-11.6986051496
 31
0.0
 11
-71.2467775716
 21
-11.3431786999
 31
0.0
 11
-71.1051708312
 21
-11.0395222858
 31
0.0
 11
-70.9129103898
 21
-10.7967532332
 31
0.0
 11
-70.7569248854
 21
-10.6708244233
 31
0.0
  0
SPLINE
  5
407
100
AcDbEntity
  8
0
100
AcDbSpline
 62
7
  6
CONTINUOUS
 70
0
 71
3
 72
11
 73
7
 74
5
 42
0.0000001
 43
0.0000001
 44
0.0000000001
 12
0.3585770888
 22
-0.0893745271
 32
0.0
 13
0.3641339119
 23
-0.0630224474
 33
0.0
 40
0.0
 40
0.0
 40
0.0
 40
0.0
 40
0.2843614962
 40
0.5413138567
 40
0.7772617616
 40
1.0
 40
1.0
 40
1.0
 40
1.0
 10
-70.5425323416
 20
-12.555610879
 30
0.0
 10
-70.5085438357
 20
-12.5640824371
 30
0.0
 10
-70.4436460828
 20
-12.5794288384
 30
0.0
 10
-70.3500249025
 20
-12.5995087288
 30
0.0
 10
-70.2635150664
 20
-12.6164756756
 30
0.0
 10
-70.2079071647
 20
-12.6265007469
 30
0.0
 10
-70.1808716493
 20
-12.6311799165
 30
0.0
 11
-70.5425323416
 21
-12.555610879
 31
0.0
 11
-70.4402762662
 21
-12.5798300339
 31
0.0
 11
-70.3474366705
 21
-12.5997666722
 31
0.0
 11
-70.2618759586
 21
-12.6165639885
 31
0.0
 11
-70.1808716493
 21
-12.6311799165
 31
0.0
  0
SPLINE
  5
408
100
AcDbEntity
  8
0
100
AcDbSpline
 62
7
  6
CONTINUOUS
 70
0
 71
3
 72
12
 73
8
 74
6
 42
0.0000001
 43
0.0000001
 44
0.0000000001
 12
-0.4846905088
 22
0.3399843163
 32
0.0
 13
-0.4301881365
 23
0.4067583948
 33
0.0
 40
0.0
 40
0.0
 40
0.0
 40
0.0
 40
0.2112889118
 40
0.4160796887
 40
0.6146197839
 40
0.8089140402
 40
1.0
 40
1.0
 40
1.0
 40
1.0
 10
-70.5425323416
 20
-12.555610879
 30
0.0
 10
-70.5766689183
 20
-12.5316659069
 30
0.0
 10
-70.6432688198
 20
-12.4836152027
 30
0.0
 10
-70.7396383065
 20
-12.4099350696
 30
0.0
 10
-70.8312643815
 20
-12.335648906
 30
0.0
 10
-70.9186146178
 20
-12.2604636205
 30
0.0
 10
-70.9747218044
 20
-12.2090981413
 30
0.0
 10
-71.0021227753
 20
-12.1831895352
 30
0.0
 11
-70.5425323416
 21
-12.555610879
 31
0.0
 11
-70.6439580965
 21
-12.4823932292
 31
0.0
 11
-70.7402567006
 21
-12.4087258222
 31
0.0
 11
-70.8315416396
 21
-12.3346738877
 31
0.0
 11
-70.9187023832
 21
-12.2596072026
 31
0.0
 11
-71.0021227753
 21
-12.1831895352
 31
0.0
  0
SPLINE
  5
409
100
AcDbEntity
  8
0
100
AcDbSpline
 62
7
  6
CONTINUOUS
 70
0
 71
3
 72
18
 73
14
 74
12
 42
0.0000001
 43
0.0000001
 44
0.0000000001
 12
0.1278471796
 22
-1.688061552
 32
0.0
 13
0.6956974518
 23
-1.543341103
 33
0.0
 40
0.0
 40
0.0
 40
0.0
 40
0.0
 40
0.0994487293
 40
0.1982410428
 40
0.2951515135
 40
0.389225246
 40
0.480723723
 40
0.5709101839
 40
0.6599274556
 40
0.7471425123
 40
0.8326363975
 40
0.9167966359
 40
1.0
 40
1.0
 40
1.0
 40
1.0
 10
-69.4569510416
 20
-13.9478729556
 30
0.0
 10
-69.4527129618
 20
-14.003831481
 30
0.0
 10
-69.4427560786
 20
-14.1152714288
 30
0.0
 10
-69.4232739764
 20
-14.2807036114
 30
0.0
 10
-69.3994458066
 20
-14.4425027126
 30
0.0
 10
-69.3715618068
 20
-14.5994734489
 30
0.0
 10
-69.3397475725
 20
-14.7518211334
 30
0.0
 10
-69.3039275715
 20
-14.9003445094
 30
0.0
 10
-69.2640469317
 20
-15.0453254085
 30
0.0
 10
-69.2202290172
 20
-15.1863955891
 30
0.0
 10
-69.1725989764
 20
-15.323327623
 30
0.0
 10
-69.1210865472
 20
-15.4564214677
 30
0.0
 10
-69.0838691958
 20
-15.5432489514
 30
0.0
 10
-69.0645744063
 20
-15.5860526753
 30
0.0
 11
-69.4569510416
 21
-13.9478729556
 31
0.0
 11
-69.4419358119
 21
-14.1155583869
 31
0.0
 11
-69.4223407344
 21
-14.2816516106
 31
0.0
 11
-69.3984020905
 21
-14.4439550596
 31
0.0
 11
-69.3705131233
 21
-14.6007511393
 31
0.0
 11
-69.3388150321
 21
-14.7523705179
 31
0.0
 11
-69.3029845264
 21
-14.9007828683
 31
0.0
 11
-69.2629800662
 21
-15.0460730008
 31
0.0
 11
-69.2191478214
 21
-15.1870626477
 31
0.0
 11
-69.1715634423
 21
-15.3237489736
 31
0.0
 11
-69.1201022022
 21
-15.4566050295
 31
0.0
 11
-69.0645744063
 21
-15.5860526753
 31
0.0
  0
SPLINE
  5
40A
100
AcDbEntity
  8
0
100
AcDbSpline
 62
7
  6
CONTINUOUS
 70
0
 71
3
 72
12
 73
8
 74
6
 42
0.0000001
 43
0.0000001
 44
0.0000000001
 12
-0.7538005872
 22
0.1993050875
 32
0.0
 13
-0.7344507813
 23
0.2617630475
 33
0.0
 40
0.0
 40
0.0
 40
0.0
 40
0.0
 40
0.2031922224
 40
0.4037019467
 40
0.6024734814
 40
0.8012652599
 40
1.0
 40
1.0
 40
1.0
 40
1.0
 10
-68.2559211888
 20
-13.5562903284
 30
0.0
 10
-68.306976661
 20
-13.5427912472
 30
0.0
 10
-68.4082048245
 20
-13.5151738387
 30
0.0
 10
-68.5585910678
 20
-13.4715339023
 30
0.0
 10
-68.707148135
 20
-13.4257665601
 30
0.0
 10
-68.8544714991
 20
-13.3776373069
 30
0.0
 10
-68.9521102481
 20
-13.343835582
 30
0.0
 10
-69.0007638765
 20
-13.3264951116
 30
0.0
 11
-68.2559211888
 21
-13.5562903284
 31
0.0
 11
-68.408761378
 21
-13.5145787656
 31
0.0
 11
-68.558901915
 21
-13.4709961645
 31
0.0
 11
-68.7070109747
 21
-13.4253518287
 31
0.0
 11
-68.8543416839
 21
-13.3772035796
 31
0.0
 11
-69.0007638765
 21
-13.3264951116
 31
0.0
  0
SPLINE
  5
40B
100
AcDbEntity
  8
0
100
AcDbSpline
 62
7
  6
CONTINUOUS
 70
0
 71
3
 72
15
 73
11
 74
9
 42
0.0000001
 43
0.0000001
 44
0.0000000001
 12
-0.303421093
 22
-1.3132810784
 32
0.0
 13
-0.0946599787
 23
-1.3445261941
 33
0.0
 40
0.0
 40
0.0
 40
0.0
 40
0.0
 40
0.0296764706
 40
0.1703203621
 40
0.309578565
 40
0.4476079956
 40
0.5861806946
 40
0.7254840071
 40
0.864002204
 40
1.0
 40
1.0
 40
1.0
 40
1.0
 10
-69.2540652018
 20
-11.6017268092
 30
0.0
 10
-69.2570666909
 20
-11.6147179916
 30
0.0
 10
-69.2741347609
 20
-11.6893140502
 30
0.0
 10
-69.3034991672
 20
-11.8252778553
 30
0.0
 10
-69.3393611042
 20
-12.0096053429
 30
0.0
 10
-69.3712137282
 20
-12.1937238543
 30
0.0
 10
-69.3991343604
 20
-12.3785008241
 30
0.0
 10
-69.42300614
 20
-12.5640671292
 30
0.0
 10
-69.4425410022
 20
-12.7489763472
 30
0.0
 10
-69.4526598588
 20
-12.8719096651
 30
0.0
 10
-69.4569510416
 20
-12.9328605314
 30
0.0
 11
-69.2540652018
 21
-11.6017268092
 31
0.0
 11
-69.2629868331
 21
-11.6407193778
 31
0.0
 11
-69.3029914157
 21
-11.8260176785
 31
0.0
 11
-69.3388221625
 21
-12.0102657722
 31
0.0
 11
-69.3705203574
 21
-12.1935890683
 31
0.0
 11
-69.3984079256
 21
-12.3782711892
 31
0.0
 11
-69.4223440395
 21
-12.5644997942
 31
0.0
 11
-69.4419368793
 21
-12.7501712428
 31
0.0
 11
-69.4569510416
 21
-12.9328605314
 31
0.0
  0
SPLINE
  5
40C
100
AcDbEntity
  8
0
100
AcDbSpline
 62
7
  6
CONTINUOUS
 70
0
 71
3
 72
10
 73
6
 74
4
 42
0.0000001
 43
0.0000001
 44
0.0000000001
 12
-0.7271776872
 22
-0.2575885023
 32
0.0
 13
-0.741548505
 23
0.2028465841
 33
0.0
 40
0.0
 40
0.0
 40
0.0
 40
0.0
 40
0.1748089493
 40
0.5720699988
 40
1.0
 40
1.0
 40
1.0
 40
1.0
 10
-68.3057925646
 20
-15.5769422373
 30
0.0
 10
-68.3481649537
 20
-15.5919518291
 30
0.0
 10
-68.4899664845
 20
-15.632236272
 30
0.0
 10
-68.7483759877
 20
-15.6510810529
 30
0.0
 10
-68.9587974554
 20
-15.6149873883
 30
0.0
 10
-69.0645744063
 20
-15.5860526753
 30
0.0
 11
-68.3057925646
 21
-15.5769422373
 31
0.0
 11
-68.4353890444
 21
-15.6138165604
 31
0.0
 11
-68.7397982561
 21
-15.6385339181
 31
0.0
 11
-69.0645744063
 21
-15.5860526753
 31
0.0
  0
SPLINE
  5
40D
100
AcDbEntity
  8
0
100
AcDbSpline
 62
7
  6
CONTINUOUS
 70
0
 71
3
 72
12
 73
8
 74
6
 42
0.0000001
 43
0.0000001
 44
0.0000000001
 12
-0.4846905088
 22
0.3399843163
 32
0.0
 13
-0.4301881365
 23
0.4067583948
 33
0.0
 40
0.0
 40
0.0
 40
0.0
 40
0.0
 40
0.2112889118
 40
0.4160796887
 40
0.6146197839
 40
0.8089140402
 40
1.0
 40
1.0
 40
1.0
 40
1.0
 10
-70.5425323416
 20
-13.1618286617
 30
0.0
 10
-70.5766689183
 20
-13.1378836896
 30
0.0
 10
-70.6432688198
 20
-13.0898329854
 30
0.0
 10
-70.7396383065
 20
-13.0161528522
 30
0.0
 10
-70.8312643815
 20
-12.9418666886
 30
0.0
 10
-70.9186146178
 20
-12.8666814031
 30
0.0
 10
-70.9747218044
 20
-12.8153159239
 30
0.0
 10
-71.0021227753
 20
-12.7894073178
 30
0.0
 11
-70.5425323416
 21
-13.1618286617
 31
0.0
 11
-70.6439580965
 21
-13.0886110118
 31
0.0
 11
-70.7402567006
 21
-13.0149436048
 31
0.0
 11
-70.8315416396
 21
-12.9408916704
 31
0.0
 11
-70.9187023832
 21
-12.8658249852
 31
0.0
 11
-71.0021227753
 21
-12.7894073178
 31
0.0
  0
SPLINE
  5
40E
100
AcDbEntity
  8
0
100
AcDbSpline
 62
7
  6
CONTINUOUS
 70
0
 71
3
 72
18
 73
14
 74
12
 42
0.0000001
 43
0.0000001
 44
0.0000000001
 12
-0.6956974515
 22
1.5433411025
 32
0.0
 13
-0.1278471795
 23
1.6880615514
 33
0.0
 40
0.0
 40
0.0
 40
0.0
 40
0.0
 40
0.0832064168
 40
0.1673706447
 40
0.2528685759
 40
0.3400867613
 40
0.4291060942
 40
0.5192954576
 40
0.610797256
 40
0.7048699557
 40
0.8017738049
 40
0.9005573899
 40
1.0
 40
1.0
 40
1.0
 40
1.0
 10
-69.7716811875
 20
-15.2324992847
 30
0.0
 10
-69.7909766849
 20
-15.1896939903
 30
0.0
 10
-69.8281955439
 20
-15.1028628263
 30
0.0
 10
-69.8797099505
 20
-14.9697630336
 30
0.0
 10
-69.9273415658
 20
-14.8328248734
 30
0.0
 10
-69.9711603468
 20
-14.691749502
 30
0.0
 10
-70.0110413946
 20
-14.5467639775
 30
0.0
 10
-70.0468615777
 20
-14.398235834
 30
0.0
 10
-70.0786753573
 20
-14.2458850603
 30
0.0
 10
-70.1065578367
 20
-14.0889165388
 30
0.0
 10
-70.1303837726
 20
-13.9271264583
 30
0.0
 10
-70.1498639591
 20
-13.7617062548
 30
0.0
 10
-70.1598200037
 20
-13.6502746472
 30
0.0
 10
-70.1640578228
 20
-13.594319565
 30
0.0
 11
-69.7716811875
 21
-15.2324992847
 31
0.0
 11
-69.8272109351
 21
-15.1030468528
 31
0.0
 11
-69.8786743361
 21
-14.9701843913
 31
0.0
 11
-69.9262604746
 21
-14.8334914253
 31
0.0
 11
-69.9700936142
 21
-14.6924965101
 31
0.0
 11
-70.0100981969
 21
-14.547202792
 31
0.0
 11
-70.0459289437
 21
-14.398785445
 31
0.0
 11
-70.0776271386
 21
-14.2471603438
 31
0.0
 11
-70.1055147068
 21
-14.0903657912
 31
0.0
 11
-70.1294508206
 21
-13.9280733
 31
0.0
 11
-70.1490436605
 21
-13.7619946913
 31
0.0
 11
-70.1640578228
 21
-13.594319565
 31
0.0
  0
SPLINE
  5
40F
100
AcDbEntity
  8
0
100
AcDbSpline
 62
7
  6
CONTINUOUS
 70
0
 71
3
 72
16
 73
12
 74
10
 42
0.0000001
 43
0.0000001
 44
0.0000000001
 12
0.1104955017
 22
1.5694499243
 32
0.0
 13
0.3903089145
 23
1.5241792843
 33
0.0
 40
0.0
 40
0.0
 40
0.0
 40
0.0
 40
0.1165147034
 40
0.2351921418
 40
0.3545400841
 40
0.4732553837
 40
0.5914996408
 40
0.7107969336
 40
0.8312823037
 40
0.9520121125
 40
1.0
 40
1.0
 40
1.0
 40
1.0
 10
-70.1640578228
 20
-12.5793071408
 30
0.0
 10
-70.1597663726
 20
-12.5183524767
 30
0.0
 10
-70.1496466481
 20
-12.3954097236
 30
0.0
 10
-70.1301098544
 20
-12.2104865886
 30
0.0
 10
-70.1062358536
 20
-12.0249092076
 30
0.0
 10
-70.078313735
 20
-11.840128739
 30
0.0
 10
-70.046460677
 20
-11.6560129576
 30
0.0
 10
-70.0105989211
 20
-11.4716903926
 30
0.0
 10
-69.9706821086
 20
-11.2868697023
 30
0.0
 10
-69.9356702556
 20
-11.1392846381
 30
0.0
 10
-69.9140548481
 20
-11.0534800997
 30
0.0
 10
-69.9078114814
 20
-11.029099385
 30
0.0
 11
-70.1640578228
 21
-12.5793071408
 31
0.0
 11
-70.1490425931
 21
-12.3966064798
 31
0.0
 11
-70.1294475155
 21
-12.2109181785
 31
0.0
 11
-70.1055088716
 21
-12.0246760856
 31
0.0
 11
-70.0776199045
 21
-11.8399910388
 31
0.0
 11
-70.0459218133
 21
-11.6566735691
 31
0.0
 11
-70.0100913076
 21
-11.4724307129
 31
0.0
 11
-69.9700868474
 21
-11.2871361201
 31
0.0
 11
-69.9262546025
 21
-11.1023142285
 31
0.0
 11
-69.9078114814
 21
-11.029099385
 31
0.0
  0
SPLINE
  5
410
100
AcDbEntity
  8
0
100
AcDbSpline
 62
7
  6
CONTINUOUS
 70
0
 71
3
 72
12
 73
8
 74
6
 42
0.0000001
 43
0.0000001
 44
0.0000000001
 12
-0.7538005872
 22
0.1993050875
 32
0.0
 13
-0.7344507813
 23
0.2617630475
 33
0.0
 40
0.0
 40
0.0
 40
0.0
 40
0.0
 40
0.2031922224
 40
0.4037019467
 40
0.6024734814
 40
0.8012652599
 40
1.0
 40
1.0
 40
1.0
 40
1.0
 10
-68.2559211888
 20
-14.1625081111
 30
0.0
 10
-68.306976661
 20
-14.1490090299
 30
0.0
 10
-68.4082048245
 20
-14.1213916214
 30
0.0
 10
-68.5585910678
 20
-14.077751685
 30
0.0
 10
-68.707148135
 20
-14.0319843428
 30
0.0
 10
-68.8544714991
 20
-13.9838550895
 30
0.0
 10
-68.9521102481
 20
-13.9500533646
 30
0.0
 10
-69.0007638765
 20
-13.9327128942
 30
0.0
 11
-68.2559211888
 21
-14.1625081111
 31
0.0
 11
-68.408761378
 21
-14.1207965483
 31
0.0
 11
-68.558901915
 21
-14.0772139471
 31
0.0
 11
-68.7070109747
 21
-14.0315696114
 31
0.0
 11
-68.8543416839
 21
-13.9834213623
 31
0.0
 11
-69.0007638765
 21
-13.9327128942
 31
0.0
  0
SPLINE
  5
411
100
AcDbEntity
  8
0
100
AcDbSpline
 62
7
  6
CONTINUOUS
 70
0
 71
3
 72
9
 73
5
 74
3
 42
0.0000001
 43
0.0000001
 44
0.0000000001
 12
-0.3146349819
 22
0.1676527526
 32
0.0
 13
-0.2882787499
 23
0.2094216566
 33
0.0
 40
0.0
 40
0.0
 40
0.0
 40
0.0
 40
0.2130096085
 40
1.0
 40
1.0
 40
1.0
 40
1.0
 10
-69.1872942622
 20
52.2692826856
 30
0.0
 10
-69.2096343536
 20
52.281186568
 30
0.0
 10
-69.3135951941
 20
52.3388008445
 30
0.0
 10
-69.4132142729
 20
52.4039659563
 30
0.0
 10
-69.488838475
 20
52.4589035668
 30
0.0
 11
-69.1872942622
 21
52.2692826856
 31
0.0
 11
-69.2537266703
 21
52.3060739617
 31
0.0
 11
-69.488838475
 21
52.4589035668
 31
0.0
  0
SPLINE
  5
412
100
AcDbEntity
  8
0
100
AcDbSpline
 62
7
  6
CONTINUOUS
 70
0
 71
3
 72
15
 73
11
 74
9
 42
0.0000001
 43
0.0000001
 44
0.0000000001
 12
-2.939478045
 22
2.135399719
 32
0.0
 13
0.0
 23
3.6332441615
 33
0.0
 40
0.0
 40
0.0
 40
0.0
 40
0.0
 40
0.1166507875
 40
0.2400441641
 40
0.3682594671
 40
0.499036013
 40
0.6299439153
 40
0.7585448031
 40
0.8825520476
 40
1.0
 40
1.0
 40
1.0
 40
1.0
 10
-69.7716811875
 20
52.3174822105
 30
0.0
 10
-69.8859786638
 20
52.4005142302
 30
0.0
 10
-70.1087508641
 20
52.5889174443
 30
0.0
 10
-70.4113002841
 20
52.9179166409
 30
0.0
 10
-70.6845575877
 20
53.2929937407
 30
0.0
 10
-70.9204415157
 20
53.7030740691
 30
0.0
 10
-71.1120594061
 20
54.1361208283
 30
0.0
 10
-71.2537688184
 20
54.5794440997
 30
0.0
 10
-71.3413939953
 20
55.0199397747
 30
0.0
 10
-71.3626714452
 20
55.3126125597
 30
0.0
 10
-71.3626714452
 20
55.4548515888
 30
0.0
 11
-69.7716811875
 21
52.3174822105
 31
0.0
 11
-70.0964573377
 21
52.5897771179
 31
0.0
 11
-70.4008665494
 21
52.9189036872
 31
0.0
 11
-70.6757688938
 21
53.2949798476
 31
0.0
 11
-70.9129103898
 21
53.7067138602
 31
0.0
 11
-71.1051708312
 21
54.1417433542
 31
0.0
 11
-71.2467775716
 21
54.5870065086
 31
0.0
 11
-71.3334788488
 21
55.0291342356
 31
0.0
 11
-71.3626714452
 21
55.4548515888
 31
0.0
  0
SPLINE
  5
413
100
AcDbEntity
  8
0
100
AcDbSpline
 62
7
  6
CONTINUOUS
 70
0
 71
3
 72
12
 73
8
 74
6
 42
0.0000001
 43
0.0000001
 44
0.0000000001
 12
0.0
 22
1.6082833791
 32
0.0
 13
1.3444239069
 23
0.8919271608
 33
0.0
 40
0.0
 40
0.0
 40
0.0
 40
0.0
 40
0.2472188084
 40
0.4746963992
 40
0.6830252122
 40
0.8755775277
 40
1.0
 40
1.0
 40
1.0
 40
1.0
 10
-71.3626714452
 20
55.4548515888
 30
0.0
 10
-71.3626714452
 20
55.5873842223
 30
0.0
 10
-71.3454290493
 20
55.8424137897
 30
0.0
 10
-71.2610271319
 20
56.2006493849
 30
0.0
 10
-71.1204931943
 20
56.5096282142
 30
0.0
 10
-70.945782864
 20
56.7343236443
 30
0.0
 10
-70.8126837341
 20
56.8421651444
 30
0.0
 10
-70.7569248854
 20
56.8791570719
 30
0.0
 11
-71.3626714452
 21
55.4548515888
 31
0.0
 11
-71.3334788488
 21
55.8513763456
 31
0.0
 11
-71.2467775716
 21
56.2068027953
 31
0.0
 11
-71.1051708312
 21
56.5104592094
 31
0.0
 11
-70.9129103898
 21
56.7532282619
 31
0.0
 11
-70.7569248854
 21
56.8791570719
 31
0.0
  0
SPLINE
  5
414
100
AcDbEntity
  8
0
100
AcDbSpline
 62
7
  6
CONTINUOUS
 70
0
 71
3
 72
11
 73
7
 74
5
 42
0.0000001
 43
0.0000001
 44
0.0000000001
 12
0.3585770888
 22
-0.0893745271
 32
0.0
 13
0.3641339119
 23
-0.0630224474
 33
0.0
 40
0.0
 40
0.0
 40
0.0
 40
0.0
 40
0.2843614962
 40
0.5413138567
 40
0.7772617616
 40
1.0
 40
1.0
 40
1.0
 40
1.0
 10
-70.5425323416
 20
54.9943706162
 30
0.0
 10
-70.5085438357
 20
54.9858990581
 30
0.0
 10
-70.4436460828
 20
54.9705526568
 30
0.0
 10
-70.3500249025
 20
54.9504727664
 30
0.0
 10
-70.2635150664
 20
54.9335058196
 30
0.0
 10
-70.2079071647
 20
54.9234807483
 30
0.0
 10
-70.1808716493
 20
54.9188015787
 30
0.0
 11
-70.5425323416
 21
54.9943706162
 31
0.0
 11
-70.4402762662
 21
54.9701514613
 31
0.0
 11
-70.3474366705
 21
54.950214823
 31
0.0
 11
-70.2618759586
 21
54.9334175067
 31
0.0
 11
-70.1808716493
 21
54.9188015787
 31
0.0
  0
SPLINE
  5
415
100
AcDbEntity
  8
0
100
AcDbSpline
 62
7
  6
CONTINUOUS
 70
0
 71
3
 72
12
 73
8
 74
6
 42
0.0000001
 43
0.0000001
 44
0.0000000001
 12
-0.4846905088
 22
0.3399843163
 32
0.0
 13
-0.4301881365
 23
0.4067583948
 33
0.0
 40
0.0
 40
0.0
 40
0.0
 40
0.0
 40
0.2112889118
 40
0.4160796887
 40
0.6146197839
 40
0.8089140402
 40
1.0
 40
1.0
 40
1.0
 40
1.0
 10
-70.5425323416
 20
54.9943706162
 30
0.0
 10
-70.5766689183
 20
55.0183155882
 30
0.0
 10
-70.6432688198
 20
55.0663662925
 30
0.0
 10
-70.7396383065
 20
55.1400464256
 30
0.0
 10
-70.8312643815
 20
55.2143325892
 30
0.0
 10
-70.9186146178
 20
55.2895178747
 30
0.0
 10
-70.9747218044
 20
55.3408833539
 30
0.0
 10
-71.0021227753
 20
55.36679196
 30
0.0
 11
-70.5425323416
 21
54.9943706162
 31
0.0
 11
-70.6439580965
 21
55.067588266
 31
0.0
 11
-70.7402567006
 21
55.141255673
 31
0.0
 11
-70.8315416396
 21
55.2153076075
 31
0.0
 11
-70.9187023832
 21
55.2903742926
 31
0.0
 11
-71.0021227753
 21
55.36679196
 31
0.0
  0
SPLINE
  5
416
100
AcDbEntity
  8
0
100
AcDbSpline
 62
7
  6
CONTINUOUS
 70
0
 71
3
 72
18
 73
14
 74
12
 42
0.0000001
 43
0.0000001
 44
0.0000000001
 12
0.1278471796
 22
-1.688061552
 32
0.0
 13
0.6956974518
 23
-1.543341103
 33
0.0
 40
0.0
 40
0.0
 40
0.0
 40
0.0
 40
0.0994487293
 40
0.1982410428
 40
0.2951515135
 40
0.389225246
 40
0.480723723
 40
0.5709101839
 40
0.6599274556
 40
0.7471425123
 40
0.8326363975
 40
0.9167966359
 40
1.0
 40
1.0
 40
1.0
 40
1.0
 10
-69.4569510416
 20
53.6021085396
 30
0.0
 10
-69.4527129618
 20
53.5461500142
 30
0.0
 10
-69.4427560786
 20
53.4347100664
 30
0.0
 10
-69.4232739764
 20
53.2692778838
 30
0.0
 10
-69.3994458066
 20
53.1074787826
 30
0.0
 10
-69.3715618068
 20
52.9505080463
 30
0.0
 10
-69.3397475725
 20
52.7981603618
 30
0.0
 10
-69.3039275715
 20
52.6496369857
 30
0.0
 10
-69.2640469317
 20
52.5046560867
 30
0.0
 10
-69.2202290172
 20
52.3635859061
 30
0.0
 10
-69.1725989764
 20
52.2266538722
 30
0.0
 10
-69.1210865472
 20
52.0935600275
 30
0.0
 10
-69.0838691958
 20
52.0067325438
 30
0.0
 10
-69.0645744063
 20
51.9639288199
 30
0.0
 11
-69.4569510416
 21
53.6021085396
 31
0.0
 11
-69.4419358119
 21
53.4344231083
 31
0.0
 11
-69.4223407344
 21
53.2683298846
 31
0.0
 11
-69.3984020905
 21
53.1060264356
 31
0.0
 11
-69.3705131233
 21
52.9492303559
 31
0.0
 11
-69.3388150321
 21
52.7976109773
 31
0.0
 11
-69.3029845264
 21
52.6491986269
 31
0.0
 11
-69.2629800662
 21
52.5039084943
 31
0.0
 11
-69.2191478214
 21
52.3629188475
 31
0.0
 11
-69.1715634423
 21
52.2262325216
 31
0.0
 11
-69.1201022022
 21
52.0933764657
 31
0.0
 11
-69.0645744063
 21
51.9639288199
 31
0.0
  0
SPLINE
  5
417
100
AcDbEntity
  8
0
100
AcDbSpline
 62
7
  6
CONTINUOUS
 70
0
 71
3
 72
12
 73
8
 74
6
 42
0.0000001
 43
0.0000001
 44
0.0000000001
 12
-0.7538005872
 22
0.1993050875
 32
0.0
 13
-0.7344507813
 23
0.2617630475
 33
0.0
 40
0.0
 40
0.0
 40
0.0
 40
0.0
 40
0.2031922224
 40
0.4037019467
 40
0.6024734814
 40
0.8012652599
 40
1.0
 40
1.0
 40
1.0
 40
1.0
 10
-68.2559211888
 20
53.9936911667
 30
0.0
 10
-68.306976661
 20
54.007190248
 30
0.0
 10
-68.4082048245
 20
54.0348076564
 30
0.0
 10
-68.5585910678
 20
54.0784475929
 30
0.0
 10
-68.707148135
 20
54.124214935
 30
0.0
 10
-68.8544714991
 20
54.1723441883
 30
0.0
 10
-68.9521102481
 20
54.2061459132
 30
0.0
 10
-69.0007638765
 20
54.2234863836
 30
0.0
 11
-68.2559211888
 21
53.9936911667
 31
0.0
 11
-68.408761378
 21
54.0354027296
 31
0.0
 11
-68.558901915
 21
54.0789853307
 31
0.0
 11
-68.7070109747
 21
54.1246296665
 31
0.0
 11
-68.8543416839
 21
54.1727779155
 31
0.0
 11
-69.0007638765
 21
54.2234863836
 31
0.0
  0
SPLINE
  5
418
100
AcDbEntity
  8
0
100
AcDbSpline
 62
7
  6
CONTINUOUS
 70
0
 71
3
 72
15
 73
11
 74
9
 42
0.0000001
 43
0.0000001
 44
0.0000000001
 12
-0.303421093
 22
-1.3132810784
 32
0.0
 13
-0.0946599787
 23
-1.3445261941
 33
0.0
 40
0.0
 40
0.0
 40
0.0
 40
0.0
 40
0.0296764706
 40
0.1703203621
 40
0.309578565
 40
0.4476079956
 40
0.5861806946
 40
0.7254840071
 40
0.864002204
 40
1.0
 40
1.0
 40
1.0
 40
1.0
 10
-69.2540652018
 20
55.948254686
 30
0.0
 10
-69.2570666909
 20
55.9352635036
 30
0.0
 10
-69.2741347609
 20
55.860667445
 30
0.0
 10
-69.3034991672
 20
55.7247036399
 30
0.0
 10
-69.3393611042
 20
55.5403761522
 30
0.0
 10
-69.3712137282
 20
55.3562576409
 30
0.0
 10
-69.3991343604
 20
55.1714806711
 30
0.0
 10
-69.42300614
 20
54.985914366
 30
0.0
 10
-69.4425410022
 20
54.801005148
 30
0.0
 10
-69.4526598588
 20
54.6780718301
 30
0.0
 10
-69.4569510416
 20
54.6171209638
 30
0.0
 11
-69.2540652018
 21
55.948254686
 31
0.0
 11
-69.2629868331
 21
55.9092621174
 31
0.0
 11
-69.3029914157
 21
55.7239638167
 31
0.0
 11
-69.3388221625
 21
55.539715723
 31
0.0
 11
-69.3705203574
 21
55.3563924268
 31
0.0
 11
-69.3984079256
 21
55.171710306
 31
0.0
 11
-69.4223440395
 21
54.985481701
 31
0.0
 11
-69.4419368793
 21
54.7998102523
 31
0.0
 11
-69.4569510416
 21
54.6171209638
 31
0.0
  0
SPLINE
  5
419
100
AcDbEntity
  8
0
100
AcDbSpline
 62
7
  6
CONTINUOUS
 70
0
 71
3
 72
10
 73
6
 74
4
 42
0.0000001
 43
0.0000001
 44
0.0000000001
 12
-0.7271776872
 22
-0.2575885023
 32
0.0
 13
-0.741548505
 23
0.2028465841
 33
0.0
 40
0.0
 40
0.0
 40
0.0
 40
0.0
 40
0.1748089493
 40
0.5720699988
 40
1.0
 40
1.0
 40
1.0
 40
1.0
 10
-68.3057925646
 20
51.9730392579
 30
0.0
 10
-68.3481649537
 20
51.9580296661
 30
0.0
 10
-68.4899664845
 20
51.9177452232
 30
0.0
 10
-68.7483759877
 20
51.8989004423
 30
0.0
 10
-68.9587974554
 20
51.9349941069
 30
0.0
 10
-69.0645744063
 20
51.9639288199
 30
0.0
 11
-68.3057925646
 21
51.9730392579
 31
0.0
 11
-68.4353890444
 21
51.9361649347
 31
0.0
 11
-68.7397982561
 21
51.9114475771
 31
0.0
 11
-69.0645744063
 21
51.9639288199
 31
0.0
  0
SPLINE
  5
41A
100
AcDbEntity
  8
0
100
AcDbSpline
 62
7
  6
CONTINUOUS
 70
0
 71
3
 72
12
 73
8
 74
6
 42
0.0000001
 43
0.0000001
 44
0.0000000001
 12
-0.4846905088
 22
0.3399843163
 32
0.0
 13
-0.4301881365
 23
0.4067583948
 33
0.0
 40
0.0
 40
0.0
 40
0.0
 40
0.0
 40
0.2112889118
 40
0.4160796887
 40
0.6146197839
 40
0.8089140402
 40
1.0
 40
1.0
 40
1.0
 40
1.0
 10
-70.5425323416
 20
54.3881528335
 30
0.0
 10
-70.5766689183
 20
54.4120978056
 30
0.0
 10
-70.6432688198
 20
54.4601485098
 30
0.0
 10
-70.7396383065
 20
54.533828643
 30
0.0
 10
-70.8312643815
 20
54.6081148066
 30
0.0
 10
-70.9186146178
 20
54.6833000921
 30
0.0
 10
-70.9747218044
 20
54.7346655713
 30
0.0
 10
-71.0021227753
 20
54.7605741774
 30
0.0
 11
-70.5425323416
 21
54.3881528335
 31
0.0
 11
-70.6439580965
 21
54.4613704834
 31
0.0
 11
-70.7402567006
 21
54.5350378904
 31
0.0
 11
-70.8315416396
 21
54.6090898248
 31
0.0
 11
-70.9187023832
 21
54.68415651
 31
0.0
 11
-71.0021227753
 21
54.7605741774
 31
0.0
  0
SPLINE
  5
41B
100
AcDbEntity
  8
0
100
AcDbSpline
 62
7
  6
CONTINUOUS
 70
0
 71
3
 72
18
 73
14
 74
12
 42
0.0000001
 43
0.0000001
 44
0.0000000001
 12
-0.6956974515
 22
1.5433411025
 32
0.0
 13
-0.1278471795
 23
1.6880615514
 33
0.0
 40
0.0
 40
0.0
 40
0.0
 40
0.0
 40
0.0832064168
 40
0.1673706447
 40
0.2528685759
 40
0.3400867613
 40
0.4291060942
 40
0.5192954576
 40
0.610797256
 40
0.7048699557
 40
0.8017738049
 40
0.9005573899
 40
1.0
 40
1.0
 40
1.0
 40
1.0
 10
-69.7716811875
 20
52.3174822105
 30
0.0
 10
-69.7909766849
 20
52.3602875049
 30
0.0
 10
-69.8281955439
 20
52.4471186689
 30
0.0
 10
-69.8797099505
 20
52.5802184615
 30
0.0
 10
-69.9273415658
 20
52.7171566218
 30
0.0
 10
-69.9711603468
 20
52.8582319932
 30
0.0
 10
-70.0110413946
 20
53.0032175177
 30
0.0
 10
-70.0468615777
 20
53.1517456611
 30
0.0
 10
-70.0786753573
 20
53.3040964349
 30
0.0
 10
-70.1065578367
 20
53.4610649564
 30
0.0
 10
-70.1303837726
 20
53.6228550369
 30
0.0
 10
-70.1498639591
 20
53.7882752404
 30
0.0
 10
-70.1598200037
 20
53.899706848
 30
0.0
 10
-70.1640578228
 20
53.9556619302
 30
0.0
 11
-69.7716811875
 21
52.3174822105
 31
0.0
 11
-69.8272109351
 21
52.4469346424
 31
0.0
 11
-69.8786743361
 21
52.5797971039
 31
0.0
 11
-69.9262604746
 21
52.7164900699
 31
0.0
 11
-69.9700936142
 21
52.8574849851
 31
0.0
 11
-70.0100981969
 21
53.0027787032
 31
0.0
 11
-70.0459289437
 21
53.1511960501
 31
0.0
 11
-70.0776271386
 21
53.3028211513
 31
0.0
 11
-70.1055147068
 21
53.459615704
 31
0.0
 11
-70.1294508206
 21
53.6219081952
 31
0.0
 11
-70.1490436605
 21
53.7879868039
 31
0.0
 11
-70.1640578228
 21
53.9556619302
 31
0.0
  0
SPLINE
  5
41C
100
AcDbEntity
  8
0
100
AcDbSpline
 62
7
  6
CONTINUOUS
 70
0
 71
3
 72
16
 73
12
 74
10
 42
0.0000001
 43
0.0000001
 44
0.0000000001
 12
0.1104955017
 22
1.5694499243
 32
0.0
 13
0.3903089145
 23
1.5241792843
 33
0.0
 40
0.0
 40
0.0
 40
0.0
 40
0.0
 40
0.1165147034
 40
0.2351921418
 40
0.3545400841
 40
0.4732553837
 40
0.5914996408
 40
0.7107969336
 40
0.8312823037
 40
0.9520121125
 40
1.0
 40
1.0
 40
1.0
 40
1.0
 10
-70.1640578228
 20
54.9706743544
 30
0.0
 10
-70.1597663726
 20
55.0316290185
 30
0.0
 10
-70.1496466481
 20
55.1545717716
 30
0.0
 10
-70.1301098544
 20
55.3394949066
 30
0.0
 10
-70.1062358536
 20
55.5250722875
 30
0.0
 10
-70.078313735
 20
55.7098527562
 30
0.0
 10
-70.046460677
 20
55.8939685376
 30
0.0
 10
-70.0105989211
 20
56.0782911026
 30
0.0
 10
-69.9706821086
 20
56.2631117929
 30
0.0
 10
-69.9356702556
 20
56.4106968571
 30
0.0
 10
-69.9140548481
 20
56.4965013955
 30
0.0
 10
-69.9078114814
 20
56.5208821102
 30
0.0
 11
-70.1640578228
 21
54.9706743544
 31
0.0
 11
-70.1490425931
 21
55.1533750153
 31
0.0
 11
-70.1294475155
 21
55.3390633167
 31
0.0
 11
-70.1055088716
 21
55.5253054096
 31
0.0
 11
-70.0776199045
 21
55.7099904563
 31
0.0
 11
-70.0459218133
 21
55.8933079261
 31
0.0
 11
-70.0100913076
 21
56.0775507823
 31
0.0
 11
-69.9700868474
 21
56.2628453751
 31
0.0
 11
-69.9262546025
 21
56.4476672667
 31
0.0
 11
-69.9078114814
 21
56.5208821102
 31
0.0
  0
SPLINE
  5
41D
100
AcDbEntity
  8
0
100
AcDbSpline
 62
7
  6
CONTINUOUS
 70
0
 71
3
 72
12
 73
8
 74
6
 42
0.0000001
 43
0.0000001
 44
0.0000000001
 12
-0.7538005872
 22
0.1993050875
 32
0.0
 13
-0.7344507813
 23
0.2617630475
 33
0.0
 40
0.0
 40
0.0
 40
0.0
 40
0.0
 40
0.2031922224
 40
0.4037019467
 40
0.6024734814
 40
0.8012652599
 40
1.0
 40
1.0
 40
1.0
 40
1.0
 10
-68.2559211888
 20
53.3874733841
 30
0.0
 10
-68.306976661
 20
53.4009724653
 30
0.0
 10
-68.4082048245
 20
53.4285898738
 30
0.0
 10
-68.5585910678
 20
53.4722298102
 30
0.0
 10
-68.707148135
 20
53.5179971524
 30
0.0
 10
-68.8544714991
 20
53.5661264057
 30
0.0
 10
-68.9521102481
 20
53.5999281306
 30
0.0
 10
-69.0007638765
 20
53.617268601
 30
0.0
 11
-68.2559211888
 21
53.3874733841
 31
0.0
 11
-68.408761378
 21
53.4291849469
 31
0.0
 11
-68.558901915
 21
53.4727675481
 31
0.0
 11
-68.7070109747
 21
53.5184118838
 31
0.0
 11
-68.8543416839
 21
53.5665601329
 31
0.0
 11
-69.0007638765
 21
53.617268601
 31
0.0
  0
SPLINE
  5
41E
100
AcDbEntity
  8
0
100
AcDbSpline
 62
7
  6
CONTINUOUS
 70
0
 71
3
 72
9
 73
5
 74
3
 42
0.0000001
 43
0.0000001
 44
0.0000000001
 12
-0.3146349819
 22
0.1676527526
 32
0.0
 13
-0.2882787499
 23
0.2094216566
 33
0.0
 40
0.0
 40
0.0
 40
0.0
 40
0.0
 40
0.2130096085
 40
1.0
 40
1.0
 40
1.0
 40
1.0
 10
29.1005483228
 20
-64.4246201021
 30
0.0
 10
29.0782082313
 20
-64.4127162197
 30
0.0
 10
28.9742473908
 20
-64.3551019431
 30
0.0
 10
28.874628312
 20
-64.2899368314
 30
0.0
 10
28.7990041099
 20
-64.2349992209
 30
0.0
 11
29.1005483228
 21
-64.4246201021
 31
0.0
 11
29.0341159146
 21
-64.3878288259
 31
0.0
 11
28.7990041099
 21
-64.2349992209
 31
0.0
  0
SPLINE
  5
41F
100
AcDbEntity
  8
0
100
AcDbSpline
 62
7
  6
CONTINUOUS
 70
0
 71
3
 72
15
 73
11
 74
9
 42
0.0000001
 43
0.0000001
 44
0.0000000001
 12
-2.939478045
 22
2.135399719
 32
0.0
 13
0.0
 23
3.6332441615
 33
0.0
 40
0.0
 40
0.0
 40
0.0
 40
0.0
 40
0.1166507875
 40
0.2400441641
 40
0.3682594671
 40
0.499036013
 40
0.6299439153
 40
0.7585448031
 40
0.8825520476
 40
1.0
 40
1.0
 40
1.0
 40
1.0
 10
28.5161613974
 20
-64.3764205771
 30
0.0
 10
28.4018639211
 20
-64.2933885575
 30
0.0
 10
28.1790917209
 20
-64.1049853433
 30
0.0
 10
27.8765423008
 20
-63.7759861467
 30
0.0
 10
27.6032849972
 20
-63.400909047
 30
0.0
 10
27.3674010692
 20
-62.9908287186
 30
0.0
 10
27.1757831788
 20
-62.5577819594
 30
0.0
 10
27.0340737665
 20
-62.114458688
 30
0.0
 10
26.9464485896
 20
-61.673963013
 30
0.0
 10
26.9251711397
 20
-61.381290228
 30
0.0
 10
26.9251711397
 20
-61.2390511989
 30
0.0
 11
28.5161613974
 21
-64.3764205771
 31
0.0
 11
28.1913852472
 21
-64.1041256697
 31
0.0
 11
27.8869760355
 21
-63.7749991004
 31
0.0
 11
27.6120736912
 21
-63.39892294
 31
0.0
 11
27.3749321951
 21
-62.9871889274
 31
0.0
 11
27.1826717537
 21
-62.5521594335
 31
0.0
 11
27.0410650134
 21
-62.1068962791
 31
0.0
 11
26.9543637361
 21
-61.6647685521
 31
0.0
 11
26.9251711397
 21
-61.2390511989
 31
0.0
  0
SPLINE
  5
420
100
AcDbEntity
  8
0
100
AcDbSpline
 62
7
  6
CONTINUOUS
 70
0
 71
3
 72
12
 73
8
 74
6
 42
0.0000001
 43
0.0000001
 44
0.0000000001
 12
0.0
 22
1.6082833791
 32
0.0
 13
1.3444239069
 23
0.8919271608
 33
0.0
 40
0.0
 40
0.0
 40
0.0
 40
0.0
 40
0.2472188084
 40
0.4746963992
 40
0.6830252122
 40
0.8755775277
 40
1.0
 40
1.0
 40
1.0
 40
1.0
 10
26.9251711397
 20
-61.2390511989
 30
0.0
 10
26.9251711397
 20
-61.1065185654
 30
0.0
 10
26.9424135356
 20
-60.8514889979
 30
0.0
 10
27.0268154531
 20
-60.4932534028
 30
0.0
 10
27.1673493907
 20
-60.1842745735
 30
0.0
 10
27.3420597209
 20
-59.9595791433
 30
0.0
 10
27.4751588508
 20
-59.8517376433
 30
0.0
 10
27.5309176996
 20
-59.8147457158
 30
0.0
 11
26.9251711397
 21
-61.2390511989
 31
0.0
 11
26.9543637361
 21
-60.842526442
 31
0.0
 11
27.0410650134
 21
-60.4870999924
 31
0.0
 11
27.1826717537
 21
-60.1834435783
 31
0.0
 11
27.3749321951
 21
-59.9406745257
 31
0.0
 11
27.5309176996
 21
-59.8147457158
 31
0.0
  0
SPLINE
  5
421
100
AcDbEntity
  8
0
100
AcDbSpline
 62
7
  6
CONTINUOUS
 70
0
 71
3
 72
11
 73
7
 74
5
 42
0.0000001
 43
0.0000001
 44
0.0000000001
 12
0.3585770888
 22
-0.0893745271
 32
0.0
 13
0.3641339119
 23
-0.0630224474
 33
0.0
 40
0.0
 40
0.0
 40
0.0
 40
0.0
 40
0.2843614962
 40
0.5413138567
 40
0.7772617616
 40
1.0
 40
1.0
 40
1.0
 40
1.0
 10
27.7453102434
 20
-61.6995321715
 30
0.0
 10
27.7792987492
 20
-61.7080037296
 30
0.0
 10
27.8441965022
 20
-61.7233501308
 30
0.0
 10
27.9378176825
 20
-61.7434300213
 30
0.0
 10
28.0243275185
 20
-61.760396968
 30
0.0
 10
28.0799354203
 20
-61.7704220393
 30
0.0
 10
28.1069709356
 20
-61.775101209
 30
0.0
 11
27.7453102434
 21
-61.6995321715
 31
0.0
 11
27.8475663188
 21
-61.7237513264
 31
0.0
 11
27.9404059144
 21
-61.7436879647
 31
0.0
 11
28.0259666263
 21
-61.7604852809
 31
0.0
 11
28.1069709356
 21
-61.775101209
 31
0.0
  0
SPLINE
  5
422
100
AcDbEntity
  8
0
100
AcDbSpline
 62
7
  6
CONTINUOUS
 70
0
 71
3
 72
12
 73
8
 74
6
 42
0.0000001
 43
0.0000001
 44
0.0000000001
 12
-0.4846905088
 22
0.3399843163
 32
0.0
 13
-0.4301881365
 23
0.4067583948
 33
0.0
 40
0.0
 40
0.0
 40
0.0
 40
0.0
 40
0.2112889118
 40
0.4160796887
 40
0.6146197839
 40
0.8089140402
 40
1.0
 40
1.0
 40
1.0
 40
1.0
 10
27.7453102434
 20
-61.6995321715
 30
0.0
 10
27.7111736666
 20
-61.6755871994
 30
0.0
 10
27.6445737651
 20
-61.6275364952
 30
0.0
 10
27.5482042784
 20
-61.553856362
 30
0.0
 10
27.4565782034
 20
-61.4795701984
 30
0.0
 10
27.3692279671
 20
-61.4043849129
 30
0.0
 10
27.3131207806
 20
-61.3530194337
 30
0.0
 10
27.2857198096
 20
-61.3271108276
 30
0.0
 11
27.7453102434
 21
-61.6995321715
 31
0.0
 11
27.6438844884
 21
-61.6263145216
 31
0.0
 11
27.5475858843
 21
-61.5526471146
 31
0.0
 11
27.4563009453
 21
-61.4785951802
 31
0.0
 11
27.3691402018
 21
-61.403528495
 31
0.0
 11
27.2857198096
 21
-61.3271108276
 31
0.0
  0
SPLINE
  5
423
100
AcDbEntity
  8
0
100
AcDbSpline
 62
7
  6
CONTINUOUS
 70
0
 71
3
 72
18
 73
14
 74
12
 42
0.0000001
 43
0.0000001
 44
0.0000000001
 12
0.1278471796
 22
-1.688061552
 32
0.0
 13
0.6956974518
 23
-1.543341103
 33
0.0
 40
0.0
 40
0.0
 40
0.0
 40
0.0
 40
0.0994487293
 40
0.1982410428
 40
0.2951515135
 40
0.389225246
 40
0.480723723
 40
0.5709101839
 40
0.6599274556
 40
0.7471425123
 40
0.8326363975
 40
0.9167966359
 40
1.0
 40
1.0
 40
1.0
 40
1.0
 10
28.8308915433
 20
-63.091794248
 30
0.0
 10
28.8351296232
 20
-63.1477527735
 30
0.0
 10
28.8450865063
 20
-63.2591927213
 30
0.0
 10
28.8645686085
 20
-63.4246249039
 30
0.0
 10
28.8883967784
 20
-63.5864240051
 30
0.0
 10
28.9162807782
 20
-63.7433947414
 30
0.0
 10
28.9480950125
 20
-63.8957424258
 30
0.0
 10
28.9839150134
 20
-64.0442658019
 30
0.0
 10
29.0237956532
 20
-64.189246701
 30
0.0
 10
29.0676135677
 20
-64.3303168815
 30
0.0
 10
29.1152436086
 20
-64.4672489155
 30
0.0
 10
29.1667560377
 20
-64.6003427602
 30
0.0
 10
29.2039733892
 20
-64.6871702438
 30
0.0
 10
29.2232681786
 20
-64.7299739677
 30
0.0
 11
28.8308915433
 21
-63.091794248
 31
0.0
 11
28.845906773
 21
-63.2594796793
 31
0.0
 11
28.8655018506
 21
-63.4255729031
 31
0.0
 11
28.8894404945
 21
-63.5878763521
 31
0.0
 11
28.9173294616
 21
-63.7446724317
 31
0.0
 11
28.9490275528
 21
-63.8962918103
 31
0.0
 11
28.9848580585
 21
-64.0447041608
 31
0.0
 11
29.0248625188
 21
-64.1899942933
 31
0.0
 11
29.0686947636
 21
-64.3309839401
 31
0.0
 11
29.1162791426
 21
-64.467670266
 31
0.0
 11
29.1677403828
 21
-64.600526322
 31
0.0
 11
29.2232681786
 21
-64.7299739677
 31
0.0
  0
SPLINE
  5
424
100
AcDbEntity
  8
0
100
AcDbSpline
 62
7
  6
CONTINUOUS
 70
0
 71
3
 72
12
 73
8
 74
6
 42
0.0000001
 43
0.0000001
 44
0.0000000001
 12
-0.7538005872
 22
0.1993050875
 32
0.0
 13
-0.7344507813
 23
0.2617630475
 33
0.0
 40
0.0
 40
0.0
 40
0.0
 40
0.0
 40
0.2031922224
 40
0.4037019467
 40
0.6024734814
 40
0.8012652599
 40
1.0
 40
1.0
 40
1.0
 40
1.0
 10
30.0319213961
 20
-62.7002116209
 30
0.0
 10
29.9808659239
 20
-62.6867125397
 30
0.0
 10
29.8796377604
 20
-62.6590951312
 30
0.0
 10
29.7292515172
 20
-62.6154551948
 30
0.0
 10
29.5806944499
 20
-62.5696878526
 30
0.0
 10
29.4333710858
 20
-62.5215585993
 30
0.0
 10
29.3357323368
 20
-62.4877568744
 30
0.0
 10
29.2870787085
 20
-62.470416404
 30
0.0
 11
30.0319213961
 21
-62.7002116209
 31
0.0
 11
29.8790812069
 21
-62.6585000581
 31
0.0
 11
29.72894067
 21
-62.6149174569
 31
0.0
 11
29.5808316102
 21
-62.5692731212
 31
0.0
 11
29.433500901
 21
-62.5211248721
 31
0.0
 11
29.2870787085
 21
-62.470416404
 31
0.0
  0
SPLINE
  5
425
100
AcDbEntity
  8
0
100
AcDbSpline
 62
7
  6
CONTINUOUS
 70
0
 71
3
 72
15
 73
11
 74
9
 42
0.0000001
 43
0.0000001
 44
0.0000000001
 12
-0.303421093
 22
-1.3132810784
 32
0.0
 13
-0.0946599787
 23
-1.3445261941
 33
0.0
 40
0.0
 40
0.0
 40
0.0
 40
0.0
 40
0.0296764706
 40
0.1703203621
 40
0.309578565
 40
0.4476079956
 40
0.5861806946
 40
0.7254840071
 40
0.864002204
 40
1.0
 40
1.0
 40
1.0
 40
1.0
 10
29.0337773831
 20
-60.7456481016
 30
0.0
 10
29.0307758941
 20
-60.758639284
 30
0.0
 10
29.0137078241
 20
-60.8332353426
 30
0.0
 10
28.9843434177
 20
-60.9691991478
 30
0.0
 10
28.9484814807
 20
-61.1535266354
 30
0.0
 10
28.9166288567
 20
-61.3376451468
 30
0.0
 10
28.8887082246
 20
-61.5224221165
 30
0.0
 10
28.8648364449
 20
-61.7079884216
 30
0.0
 10
28.8453015827
 20
-61.8928976397
 30
0.0
 10
28.8351827261
 20
-62.0158309575
 30
0.0
 10
28.8308915433
 20
-62.0767818239
 30
0.0
 11
29.0337773831
 21
-60.7456481016
 31
0.0
 11
29.0248557519
 21
-60.7846406702
 31
0.0
 11
28.9848511693
 21
-60.9699389709
 31
0.0
 11
28.9490204225
 21
-61.1541870647
 31
0.0
 11
28.9173222275
 21
-61.3375103608
 31
0.0
 11
28.8894346593
 21
-61.5221924817
 31
0.0
 11
28.8654985455
 21
-61.7084210867
 31
0.0
 11
28.8459057056
 21
-61.8940925353
 31
0.0
 11
28.8308915433
 21
-62.0767818239
 31
0.0
  0
SPLINE
  5
426
100
AcDbEntity
  8
0
100
AcDbSpline
 62
7
  6
CONTINUOUS
 70
0
 71
3
 72
10
 73
6
 74
4
 42
0.0000001
 43
0.0000001
 44
0.0000000001
 12
-0.7271776872
 22
-0.2575885023
 32
0.0
 13
-0.741548505
 23
0.2028465841
 33
0.0
 40
0.0
 40
0.0
 40
0.0
 40
0.0
 40
0.1748089493
 40
0.5720699988
 40
1.0
 40
1.0
 40
1.0
 40
1.0
 10
29.9820500204
 20
-64.7208635298
 30
0.0
 10
29.9396776312
 20
-64.7358731216
 30
0.0
 10
29.7978761004
 20
-64.7761575644
 30
0.0
 10
29.5394665972
 20
-64.7950023453
 30
0.0
 10
29.3290451295
 20
-64.7589086807
 30
0.0
 10
29.2232681786
 20
-64.7299739677
 30
0.0
 11
29.9820500204
 21
-64.7208635298
 31
0.0
 11
29.8524535405
 21
-64.7577378529
 31
0.0
 11
29.5480443288
 21
-64.7824552106
 31
0.0
 11
29.2232681786
 21
-64.7299739677
 31
0.0
  0
SPLINE
  5
427
100
AcDbEntity
  8
0
100
AcDbSpline
 62
7
  6
CONTINUOUS
 70
0
 71
3
 72
12
 73
8
 74
6
 42
0.0000001
 43
0.0000001
 44
0.0000000001
 12
-0.4846905088
 22
0.3399843163
 32
0.0
 13
-0.4301881365
 23
0.4067583948
 33
0.0
 40
0.0
 40
0.0
 40
0.0
 40
0.0
 40
0.2112889118
 40
0.4160796887
 40
0.6146197839
 40
0.8089140402
 40
1.0
 40
1.0
 40
1.0
 40
1.0
 10
27.7453102434
 20
-62.3057499541
 30
0.0
 10
27.7111736666
 20
-62.2818049821
 30
0.0
 10
27.6445737651
 20
-62.2337542778
 30
0.0
 10
27.5482042784
 20
-62.1600741447
 30
0.0
 10
27.4565782034
 20
-62.0857879811
 30
0.0
 10
27.3692279671
 20
-62.0106026956
 30
0.0
 10
27.3131207806
 20
-61.9592372164
 30
0.0
 10
27.2857198096
 20
-61.9333286103
 30
0.0
 11
27.7453102434
 21
-62.3057499541
 31
0.0
 11
27.6438844884
 21
-62.2325323043
 31
0.0
 11
27.5475858843
 21
-62.1588648973
 31
0.0
 11
27.4563009453
 21
-62.0848129628
 31
0.0
 11
27.3691402018
 21
-62.0097462777
 31
0.0
 11
27.2857198096
 21
-61.9333286103
 31
0.0
  0
SPLINE
  5
428
100
AcDbEntity
  8
0
100
AcDbSpline
 62
7
  6
CONTINUOUS
 70
0
 71
3
 72
18
 73
14
 74
12
 42
0.0000001
 43
0.0000001
 44
0.0000000001
 12
-0.6956974515
 22
1.5433411025
 32
0.0
 13
-0.1278471795
 23
1.6880615514
 33
0.0
 40
0.0
 40
0.0
 40
0.0
 40
0.0
 40
0.0832064168
 40
0.1673706447
 40
0.2528685759
 40
0.3400867613
 40
0.4291060942
 40
0.5192954576
 40
0.610797256
 40
0.7048699557
 40
0.8017738049
 40
0.9005573899
 40
1.0
 40
1.0
 40
1.0
 40
1.0
 10
28.5161613974
 20
-64.3764205771
 30
0.0
 10
28.4968659
 20
-64.3336152828
 30
0.0
 10
28.459647041
 20
-64.2467841188
 30
0.0
 10
28.4081326344
 20
-64.1136843261
 30
0.0
 10
28.3605010192
 20
-63.9767461659
 30
0.0
 10
28.3166822381
 20
-63.8356707944
 30
0.0
 10
28.2768011903
 20
-63.6906852699
 30
0.0
 10
28.2409810073
 20
-63.5421571265
 30
0.0
 10
28.2091672276
 20
-63.3898063528
 30
0.0
 10
28.1812847482
 20
-63.2328378312
 30
0.0
 10
28.1574588123
 20
-63.0710477508
 30
0.0
 10
28.1379786258
 20
-62.9056275473
 30
0.0
 10
28.1280225812
 20
-62.7941959397
 30
0.0
 10
28.1237847621
 20
-62.7382408574
 30
0.0
 11
28.5161613974
 21
-64.3764205771
 31
0.0
 11
28.4606316498
 21
-64.2469681453
 31
0.0
 11
28.4091682488
 21
-64.1141056837
 31
0.0
 11
28.3615821103
 21
-63.9774127178
 31
0.0
 11
28.3177489707
 21
-63.8364178025
 31
0.0
 11
28.2777443881
 21
-63.6911240845
 31
0.0
 11
28.2419136413
 21
-63.5427067375
 31
0.0
 11
28.2102154464
 21
-63.3910816363
 31
0.0
 11
28.1823278781
 21
-63.2342870837
 31
0.0
 11
28.1583917643
 21
-63.0719945925
 31
0.0
 11
28.1387989244
 21
-62.9059159838
 31
0.0
 11
28.1237847621
 21
-62.7382408574
 31
0.0
  0
SPLINE
  5
429
100
AcDbEntity
  8
0
100
AcDbSpline
 62
7
  6
CONTINUOUS
 70
0
 71
3
 72
16
 73
12
 74
10
 42
0.0000001
 43
0.0000001
 44
0.0000000001
 12
0.1104955017
 22
1.5694499243
 32
0.0
 13
0.3903089145
 23
1.5241792843
 33
0.0
 40
0.0
 40
0.0
 40
0.0
 40
0.0
 40
0.1165147034
 40
0.2351921418
 40
0.3545400841
 40
0.4732553837
 40
0.5914996408
 40
0.7107969336
 40
0.8312823037
 40
0.9520121125
 40
1.0
 40
1.0
 40
1.0
 40
1.0
 10
28.1237847621
 20
-61.7232284333
 30
0.0
 10
28.1280762123
 20
-61.6622737691
 30
0.0
 10
28.1381959368
 20
-61.5393310161
 30
0.0
 10
28.1577327306
 20
-61.3544078811
 30
0.0
 10
28.1816067313
 20
-61.1688305001
 30
0.0
 10
28.20952885
 20
-60.9840500314
 30
0.0
 10
28.2413819079
 20
-60.79993425
 30
0.0
 10
28.2772436639
 20
-60.6156116851
 30
0.0
 10
28.3171604763
 20
-60.4307909947
 30
0.0
 10
28.3521723293
 20
-60.2832059305
 30
0.0
 10
28.3737877368
 20
-60.1974013921
 30
0.0
 10
28.3800311036
 20
-60.1730206775
 30
0.0
 11
28.1237847621
 21
-61.7232284333
 31
0.0
 11
28.1387999918
 21
-61.5405277723
 31
0.0
 11
28.1583950694
 21
-61.354839471
 31
0.0
 11
28.1823337133
 21
-61.1685973781
 31
0.0
 11
28.2102226804
 21
-60.9839123313
 31
0.0
 11
28.2419207716
 21
-60.8005948615
 31
0.0
 11
28.2777512773
 21
-60.6163520054
 31
0.0
 11
28.3177557376
 21
-60.4310574126
 31
0.0
 11
28.3615879824
 21
-60.246235521
 31
0.0
 11
28.3800311036
 21
-60.1730206775
 31
0.0
  0
SPLINE
  5
42A
100
AcDbEntity
  8
0
100
AcDbSpline
 62
7
  6
CONTINUOUS
 70
0
 71
3
 72
12
 73
8
 74
6
 42
0.0000001
 43
0.0000001
 44
0.0000000001
 12
-0.7538005872
 22
0.1993050875
 32
0.0
 13
-0.7344507813
 23
0.2617630475
 33
0.0
 40
0.0
 40
0.0
 40
0.0
 40
0.0
 40
0.2031922224
 40
0.4037019467
 40
0.6024734814
 40
0.8012652599
 40
1.0
 40
1.0
 40
1.0
 40
1.0
 10
30.0319213961
 20
-63.3064294036
 30
0.0
 10
29.9808659239
 20
-63.2929303223
 30
0.0
 10
29.8796377604
 20
-63.2653129139
 30
0.0
 10
29.7292515172
 20
-63.2216729774
 30
0.0
 10
29.5806944499
 20
-63.1759056353
 30
0.0
 10
29.4333710858
 20
-63.127776382
 30
0.0
 10
29.3357323368
 20
-63.0939746571
 30
0.0
 10
29.2870787085
 20
-63.0766341867
 30
0.0
 11
30.0319213961
 21
-63.3064294036
 31
0.0
 11
29.8790812069
 21
-63.2647178407
 31
0.0
 11
29.72894067
 21
-63.2211352396
 31
0.0
 11
29.5808316102
 21
-63.1754909038
 31
0.0
 11
29.433500901
 21
-63.1273426548
 31
0.0
 11
29.2870787085
 21
-63.0766341867
 31
0.0
  0
SPLINE
  5
42B
100
AcDbEntity
  8
0
100
AcDbSpline
 62
7
  6
CONTINUOUS
 70
0
 71
3
 72
9
 73
5
 74
3
 42
0.0000001
 43
0.0000001
 44
0.0000000001
 12
-0.3146349819
 22
0.1676527526
 32
0.0
 13
-0.2882787499
 23
0.2094216566
 33
0.0
 40
0.0
 40
0.0
 40
0.0
 40
0.0
 40
0.2130096085
 40
1.0
 40
1.0
 40
1.0
 40
1.0
 10
29.1005483228
 20
3.1253613931
 30
0.0
 10
29.0782082313
 20
3.1372652755
 30
0.0
 10
28.9742473908
 20
3.194879552
 30
0.0
 10
28.874628312
 20
3.2600446638
 30
0.0
 10
28.7990041099
 20
3.3149822743
 30
0.0
 11
29.1005483228
 21
3.1253613931
 31
0.0
 11
29.0341159146
 21
3.1621526693
 31
0.0
 11
28.7990041099
 21
3.3149822743
 31
0.0
  0
SPLINE
  5
42C
100
AcDbEntity
  8
0
100
AcDbSpline
 62
7
  6
CONTINUOUS
 70
0
 71
3
 72
13
 73
9
 74
7
 42
0.0000001
 43
0.0000001
 44
0.0000000001
 12
1.5718147624
 22
-0.7638384957
 32
0.0
 13
0.6531988685
 23
-1.6197025402
 33
0.0
 40
0.0
 40
0.0
 40
0.0
 40
0.0
 40
0.0356161295
 40
0.238859218
 40
0.4465897959
 40
0.6528785401
 40
0.8509912571
 40
1.0
 40
1.0
 40
1.0
 40
1.0
 10
48.4507027747
 20
16.1754567593
 30
0.0
 10
48.4693634274
 20
16.1663884357
 30
0.0
 10
48.5935209254
 20
16.1035452594
 30
0.0
 10
48.8127453993
 20
15.9621122375
 30
0.0
 10
49.0823614247
 20
15.72313816
 30
0.0
 10
49.3141701659
 20
15.4514581761
 30
0.0
 10
49.4890153566
 20
15.1800374276
 30
0.0
 10
49.5764885592
 20
14.9974849981
 30
0.0
 10
49.6089326733
 20
14.9170350516
 30
0.0
 11
48.4507027747
 21
16.1754567593
 31
0.0
 11
48.5062359792
 21
16.1473627872
 31
0.0
 11
48.8051056307
 21
15.9564517459
 31
0.0
 11
49.0769353634
 21
15.7166729624
 31
0.0
 11
49.3106632555
 21
15.4429230565
 31
0.0
 11
49.4972990926
 21
15.1519457644
 31
0.0
 11
49.6089326733
 21
14.9170350516
 31
0.0
  0
SPLINE
  5
42D
100
AcDbEntity
  8
0
100
AcDbSpline
 62
7
  6
CONTINUOUS
 70
0
 71
3
 72
11
 73
7
 74
5
 42
0.0000001
 43
0.0000001
 44
0.0000000001
 12
0.7109245161
 22
-0.1968798237
 32
0.0
 13
0.5750654288
 23
-0.4613380865
 33
0.0
 40
0.0
 40
0.0
 40
0.0
 40
0.0
 40
0.2096781924
 40
0.5557771938
 40
0.8958855174
 40
1.0
 40
1.0
 40
1.0
 40
1.0
 10
48.71749097
 20
16.6998240131
 30
0.0
 10
48.7671794259
 20
16.6860635446
 30
0.0
 10
48.8969697379
 20
16.642783816
 30
0.0
 10
49.0962082275
 20
16.5475786165
 30
0.0
 10
49.2590658152
 20
16.4410221359
 30
0.0
 10
49.3454598799
 20
16.3742549777
 30
0.0
 10
49.3654174265
 20
16.358244319
 30
0.0
 11
48.71749097
 21
16.6998240131
 31
0.0
 11
48.8642305048
 21
16.6511608885
 31
0.0
 11
49.0946903095
 21
16.5419570185
 31
0.0
 11
49.3046801509
 21
16.4051744098
 31
0.0
 11
49.3654174265
 21
16.358244319
 31
0.0
  0
SPLINE
  5
42E
100
AcDbEntity
  8
0
100
AcDbSpline
 62
7
  6
CONTINUOUS
 70
0
 71
3
 72
12
 73
8
 74
6
 42
0.0000001
 43
0.0000001
 44
0.0000000001
 12
0.7102149643
 22
-0.5697598852
 32
0.0
 13
0.3629237571
 23
-0.8345245342
 33
0.0
 40
0.0
 40
0.0
 40
0.0
 40
0.0
 40
0.180010187
 40
0.4265761774
 40
0.6489740782
 40
0.8415822725
 40
1.0
 40
1.0
 40
1.0
 40
1.0
 10
49.3654174265
 20
16.358244319
 30
0.0
 10
49.408032736
 20
16.3240567912
 30
0.0
 10
49.505875294
 20
16.2391285929
 30
0.0
 10
49.6426927792
 20
16.0971018338
 30
0.0
 10
49.767022501
 20
15.9391520467
 30
0.0
 10
49.86100636
 20
15.7924854874
 30
0.0
 10
49.9094678371
 20
15.6974124109
 30
0.0
 10
49.928632356
 20
15.6533445842
 30
0.0
 11
49.3654174265
 21
16.358244319
 31
0.0
 11
49.4892007881
 21
16.2508787004
 31
0.0
 11
49.6448204877
 21
16.0892327927
 31
0.0
 11
49.7697568337
 21
15.9300108153
 31
0.0
 11
49.8638789844
 21
15.7821478067
 31
0.0
 11
49.928632356
 21
15.6533445842
 31
0.0
  0
SPLINE
  5
42F
100
AcDbEntity
  8
0
100
AcDbSpline
 62
7
  6
CONTINUOUS
 70
0
 71
3
 72
15
 73
11
 74
9
 42
0.0000001
 43
0.0000001
 44
0.0000000001
 12
-2.939478045
 22
2.135399719
 32
0.0
 13
-0.0
 23
3.6332441615
 33
0.0
 40
0.0
 40
0.0
 40
0.0
 40
0.0
 40
0.1166507875
 40
0.2400441641
 40
0.3682594671
 40
0.499036013
 40
0.6299439153
 40
0.7585448031
 40
0.8825520476
 40
1.0
 40
1.0
 40
1.0
 40
1.0
 10
28.5161613974
 20
3.1735609181
 30
0.0
 10
28.4018639211
 20
3.2565929377
 30
0.0
 10
28.1790917209
 20
3.4449961519
 30
0.0
 10
27.8765423008
 20
3.7739953485
 30
0.0
 10
27.6032849972
 20
4.1490724482
 30
0.0
 10
27.3674010692
 20
4.5591527766
 30
0.0
 10
27.1757831788
 20
4.9921995358
 30
0.0
 10
27.0340737665
 20
5.4355228072
 30
0.0
 10
26.9464485896
 20
5.8760184822
 30
0.0
 10
26.9251711397
 20
6.1686912672
 30
0.0
 10
26.9251711397
 20
6.3109302963
 30
0.0
 11
28.5161613974
 21
3.1735609181
 31
0.0
 11
28.1913852472
 21
3.4458558254
 31
0.0
 11
27.8869760355
 21
3.7749823948
 31
0.0
 11
27.6120736912
 21
4.1510585552
 31
0.0
 11
27.3749321951
 21
4.5627925677
 31
0.0
 11
27.1826717537
 21
4.9978220617
 31
0.0
 11
27.0410650134
 21
5.4430852161
 31
0.0
 11
26.9543637361
 21
5.8852129431
 31
0.0
 11
26.9251711397
 21
6.3109302963
 31
0.0
  0
SPLINE
  5
430
100
AcDbEntity
  8
0
100
AcDbSpline
 62
7
  6
CONTINUOUS
 70
0
 71
3
 72
12
 73
8
 74
6
 42
0.0000001
 43
0.0000001
 44
0.0000000001
 12
0.0
 22
1.6082833791
 32
0.0
 13
1.3444239069
 23
0.8919271608
 33
0.0
 40
0.0
 40
0.0
 40
0.0
 40
0.0
 40
0.2472188084
 40
0.4746963992
 40
0.6830252122
 40
0.8755775277
 40
1.0
 40
1.0
 40
1.0
 40
1.0
 10
26.9251711397
 20
6.3109302963
 30
0.0
 10
26.9251711397
 20
6.4434629298
 30
0.0
 10
26.9424135356
 20
6.6984924973
 30
0.0
 10
27.0268154531
 20
7.0567280924
 30
0.0
 10
27.1673493907
 20
7.3657069217
 30
0.0
 10
27.3420597209
 20
7.5904023519
 30
0.0
 10
27.4751588508
 20
7.6982438519
 30
0.0
 10
27.5309176996
 20
7.7352357794
 30
0.0
 11
26.9251711397
 21
6.3109302963
 31
0.0
 11
26.9543637361
 21
6.7074550531
 31
0.0
 11
27.0410650134
 21
7.0628815028
 31
0.0
 11
27.1826717537
 21
7.3665379169
 31
0.0
 11
27.3749321951
 21
7.6093069695
 31
0.0
 11
27.5309176996
 21
7.7352357794
 31
0.0
  0
SPLINE
  5
431
100
AcDbEntity
  8
0
100
AcDbSpline
 62
7
  6
CONTINUOUS
 70
0
 71
3
 72
11
 73
7
 74
5
 42
0.0000001
 43
0.0000001
 44
0.0000000001
 12
0.3585770888
 22
-0.0893745271
 32
0.0
 13
0.3641339119
 23
-0.0630224474
 33
0.0
 40
0.0
 40
0.0
 40
0.0
 40
0.0
 40
0.2843614962
 40
0.5413138567
 40
0.7772617616
 40
1.0
 40
1.0
 40
1.0
 40
1.0
 10
27.7453102434
 20
5.8504493237
 30
0.0
 10
27.7792987492
 20
5.8419777656
 30
0.0
 10
27.8441965022
 20
5.8266313644
 30
0.0
 10
27.9378176825
 20
5.8065514739
 30
0.0
 10
28.0243275185
 20
5.7895845271
 30
0.0
 10
28.0799354203
 20
5.7795594559
 30
0.0
 10
28.1069709356
 20
5.7748802862
 30
0.0
 11
27.7453102434
 21
5.8504493237
 31
0.0
 11
27.8475663188
 21
5.8262301688
 31
0.0
 11
27.9404059144
 21
5.8062935305
 31
0.0
 11
28.0259666263
 21
5.7894962143
 31
0.0
 11
28.1069709356
 21
5.7748802862
 31
0.0
  0
SPLINE
  5
432
100
AcDbEntity
  8
0
100
AcDbSpline
 62
7
  6
CONTINUOUS
 70
0
 71
3
 72
12
 73
8
 74
6
 42
0.0000001
 43
0.0000001
 44
0.0000000001
 12
-0.4846905088
 22
0.3399843163
 32
0.0
 13
-0.4301881365
 23
0.4067583948
 33
0.0
 40
0.0
 40
0.0
 40
0.0
 40
0.0
 40
0.2112889118
 40
0.4160796887
 40
0.6146197839
 40
0.8089140402
 40
1.0
 40
1.0
 40
1.0
 40
1.0
 10
27.7453102434
 20
5.8504493237
 30
0.0
 10
27.7111736666
 20
5.8743942958
 30
0.0
 10
27.6445737651
 20
5.922445
 30
0.0
 10
27.5482042784
 20
5.9961251332
 30
0.0
 10
27.4565782034
 20
6.0704112968
 30
0.0
 10
27.3692279671
 20
6.1455965823
 30
0.0
 10
27.3131207806
 20
6.1969620615
 30
0.0
 10
27.2857198096
 20
6.2228706675
 30
0.0
 11
27.7453102434
 21
5.8504493237
 31
0.0
 11
27.6438844884
 21
5.9236669735
 31
0.0
 11
27.5475858843
 21
5.9973343806
 31
0.0
 11
27.4563009453
 21
6.071386315
 31
0.0
 11
27.3691402018
 21
6.1464530001
 31
0.0
 11
27.2857198096
 21
6.2228706675
 31
0.0
  0
SPLINE
  5
433
100
AcDbEntity
  8
0
100
AcDbSpline
 62
7
  6
CONTINUOUS
 70
0
 71
3
 72
18
 73
14
 74
12
 42
0.0000001
 43
0.0000001
 44
0.0000000001
 12
0.1278471796
 22
-1.688061552
 32
0.0
 13
0.6956974518
 23
-1.543341103
 33
0.0
 40
0.0
 40
0.0
 40
0.0
 40
0.0
 40
0.0994487293
 40
0.1982410428
 40
0.2951515135
 40
0.389225246
 40
0.480723723
 40
0.5709101839
 40
0.6599274556
 40
0.7471425123
 40
0.8326363975
 40
0.9167966359
 40
1.0
 40
1.0
 40
1.0
 40
1.0
 10
28.8308915433
 20
4.4581872471
 30
0.0
 10
28.8351296232
 20
4.4022287217
 30
0.0
 10
28.8450865063
 20
4.2907887739
 30
0.0
 10
28.8645686085
 20
4.1253565913
 30
0.0
 10
28.8883967784
 20
3.9635574901
 30
0.0
 10
28.9162807782
 20
3.8065867538
 30
0.0
 10
28.9480950125
 20
3.6542390694
 30
0.0
 10
28.9839150134
 20
3.5057156933
 30
0.0
 10
29.0237956532
 20
3.3607347942
 30
0.0
 10
29.0676135677
 20
3.2196646137
 30
0.0
 10
29.1152436086
 20
3.0827325797
 30
0.0
 10
29.1667560377
 20
2.949638735
 30
0.0
 10
29.2039733892
 20
2.8628112513
 30
0.0
 10
29.2232681786
 20
2.8200075275
 30
0.0
 11
28.8308915433
 21
4.4581872471
 31
0.0
 11
28.845906773
 21
4.2905018158
 31
0.0
 11
28.8655018506
 21
4.1244085921
 31
0.0
 11
28.8894404945
 21
3.9621051431
 31
0.0
 11
28.9173294616
 21
3.8053090635
 31
0.0
 11
28.9490275528
 21
3.6536896849
 31
0.0
 11
28.9848580585
 21
3.5052773344
 31
0.0
 11
29.0248625188
 21
3.3599872019
 31
0.0
 11
29.0686947636
 21
3.2189975551
 31
0.0
 11
29.1162791426
 21
3.0823112291
 31
0.0
 11
29.1677403828
 21
2.9494551732
 31
0.0
 11
29.2232681786
 21
2.8200075275
 31
0.0
  0
SPLINE
  5
434
100
AcDbEntity
  8
0
100
AcDbSpline
 62
7
  6
CONTINUOUS
 70
0
 71
3
 72
12
 73
8
 74
6
 42
0.0000001
 43
0.0000001
 44
0.0000000001
 12
-0.7538005872
 22
0.1993050875
 32
0.0
 13
-0.7344507813
 23
0.2617630475
 33
0.0
 40
0.0
 40
0.0
 40
0.0
 40
0.0
 40
0.2031922224
 40
0.4037019467
 40
0.6024734814
 40
0.8012652599
 40
1.0
 40
1.0
 40
1.0
 40
1.0
 10
30.0319213961
 20
4.8497698743
 30
0.0
 10
29.9808659239
 20
4.8632689555
 30
0.0
 10
29.8796377604
 20
4.890886364
 30
0.0
 10
29.7292515172
 20
4.9345263004
 30
0.0
 10
29.5806944499
 20
4.9802936426
 30
0.0
 10
29.4333710858
 20
5.0284228959
 30
0.0
 10
29.3357323368
 20
5.0622246208
 30
0.0
 10
29.2870787085
 20
5.0795650912
 30
0.0
 11
30.0319213961
 21
4.8497698743
 31
0.0
 11
29.8790812069
 21
4.8914814371
 31
0.0
 11
29.72894067
 21
4.9350640382
 31
0.0
 11
29.5808316102
 21
4.980708374
 31
0.0
 11
29.433500901
 21
5.0288566231
 31
0.0
 11
29.2870787085
 21
5.0795650912
 31
0.0
  0
SPLINE
  5
435
100
AcDbEntity
  8
0
100
AcDbSpline
 62
7
  6
CONTINUOUS
 70
0
 71
3
 72
15
 73
11
 74
9
 42
0.0000001
 43
0.0000001
 44
0.0000000001
 12
-0.303421093
 22
-1.3132810784
 32
0.0
 13
-0.0946599787
 23
-1.3445261941
 33
0.0
 40
0.0
 40
0.0
 40
0.0
 40
0.0
 40
0.0296764706
 40
0.1703203621
 40
0.309578565
 40
0.4476079956
 40
0.5861806946
 40
0.7254840071
 40
0.864002204
 40
1.0
 40
1.0
 40
1.0
 40
1.0
 10
29.0337773831
 20
6.8043333936
 30
0.0
 10
29.0307758941
 20
6.7913422111
 30
0.0
 10
29.0137078241
 20
6.7167461526
 30
0.0
 10
28.9843434177
 20
6.5807823474
 30
0.0
 10
28.9484814807
 20
6.3964548598
 30
0.0
 10
28.9166288567
 20
6.2123363484
 30
0.0
 10
28.8887082246
 20
6.0275593787
 30
0.0
 10
28.8648364449
 20
5.8419930736
 30
0.0
 10
28.8453015827
 20
5.6570838555
 30
0.0
 10
28.8351827261
 20
5.5341505376
 30
0.0
 10
28.8308915433
 20
5.4731996713
 30
0.0
 11
29.0337773831
 21
6.8043333936
 31
0.0
 11
29.0248557519
 21
6.7653408249
 31
0.0
 11
28.9848511693
 21
6.5800425243
 31
0.0
 11
28.9490204225
 21
6.3957944305
 31
0.0
 11
28.9173222275
 21
6.2124711344
 31
0.0
 11
28.8894346593
 21
6.0277890135
 31
0.0
 11
28.8654985455
 21
5.8415604085
 31
0.0
 11
28.8459057056
 21
5.6558889599
 31
0.0
 11
28.8308915433
 21
5.4731996713
 31
0.0
  0
SPLINE
  5
436
100
AcDbEntity
  8
0
100
AcDbSpline
 62
7
  6
CONTINUOUS
 70
0
 71
3
 72
10
 73
6
 74
4
 42
0.0000001
 43
0.0000001
 44
0.0000000001
 12
-0.7271776872
 22
-0.2575885023
 32
0.0
 13
-0.741548505
 23
0.2028465841
 33
0.0
 40
0.0
 40
0.0
 40
0.0
 40
0.0
 40
0.1748089493
 40
0.5720699988
 40
1.0
 40
1.0
 40
1.0
 40
1.0
 10
29.9820500204
 20
2.8291179654
 30
0.0
 10
29.9396776312
 20
2.8141083736
 30
0.0
 10
29.7978761004
 20
2.7738239307
 30
0.0
 10
29.5394665972
 20
2.7549791498
 30
0.0
 10
29.3290451295
 20
2.7910728145
 30
0.0
 10
29.2232681786
 20
2.8200075275
 30
0.0
 11
29.9820500204
 21
2.8291179654
 31
0.0
 11
29.8524535405
 21
2.7922436423
 31
0.0
 11
29.5480443288
 21
2.7675262846
 31
0.0
 11
29.2232681786
 21
2.8200075275
 31
0.0
  0
SPLINE
  5
437
100
AcDbEntity
  8
0
100
AcDbSpline
 62
7
  6
CONTINUOUS
 70
0
 71
3
 72
14
 73
10
 74
8
 42
0.0000001
 43
0.0000001
 44
0.0000000001
 12
1.4607917072
 22
-0.4060456531
 32
0.0
 13
0.7357276039
 23
-1.3237112443
 33
0.0
 40
0.0
 40
0.0
 40
0.0
 40
0.0
 40
0.1045659529
 40
0.2746663433
 40
0.4416810406
 40
0.601734619
 40
0.7506919746
 40
0.8845937445
 40
1.0
 40
1.0
 40
1.0
 40
1.0
 10
48.6481657558
 20
16.6640847477
 30
0.0
 10
48.6990821147
 20
16.6499318975
 30
0.0
 10
48.830824924
 20
16.6056783946
 30
0.0
 10
49.0323538315
 20
16.5084499603
 30
0.0
 10
49.2422934585
 20
16.3697225335
 30
0.0
 10
49.4260963024
 20
16.2141396068
 30
0.0
 10
49.5805581164
 20
16.0519205375
 30
0.0
 10
49.7040653776
 20
15.8928905614
 30
0.0
 10
49.7713172824
 20
15.7862207296
 30
0.0
 10
49.799619805
 20
15.7352992103
 30
0.0
 11
48.6481657558
 21
16.6640847477
 31
0.0
 11
48.7984612351
 21
16.613887817
 31
0.0
 11
49.0308430221
 21
16.5027151961
 31
0.0
 11
49.2421498248
 21
16.3637033303
 31
0.0
 11
49.4272820648
 21
16.2072451867
 31
0.0
 11
49.5827785222
 21
16.043813705
 31
0.0
 11
49.7068985677
 21
15.8834514207
 31
0.0
 11
49.799619805
 21
15.7352992103
 31
0.0
  0
SPLINE
  5
438
100
AcDbEntity
  8
0
100
AcDbSpline
 62
7
  6
CONTINUOUS
 70
0
 71
3
 72
12
 73
8
 74
6
 42
0.0000001
 43
0.0000001
 44
0.0000000001
 12
-0.4846905088
 22
0.3399843163
 32
0.0
 13
-0.4301881365
 23
0.4067583948
 33
0.0
 40
0.0
 40
0.0
 40
0.0
 40
0.0
 40
0.2112889118
 40
0.4160796887
 40
0.6146197839
 40
0.8089140402
 40
1.0
 40
1.0
 40
1.0
 40
1.0
 10
27.7453102434
 20
5.2442315411
 30
0.0
 10
27.7111736666
 20
5.2681765131
 30
0.0
 10
27.6445737651
 20
5.3162272174
 30
0.0
 10
27.5482042784
 20
5.3899073505
 30
0.0
 10
27.4565782034
 20
5.4641935141
 30
0.0
 10
27.3692279671
 20
5.5393787996
 30
0.0
 10
27.3131207806
 20
5.5907442788
 30
0.0
 10
27.2857198096
 20
5.6166528849
 30
0.0
 11
27.7453102434
 21
5.2442315411
 31
0.0
 11
27.6438844884
 21
5.3174491909
 31
0.0
 11
27.5475858843
 21
5.3911165979
 31
0.0
 11
27.4563009453
 21
5.4651685324
 31
0.0
 11
27.3691402018
 21
5.5402352175
 31
0.0
 11
27.2857198096
 21
5.6166528849
 31
0.0
  0
SPLINE
  5
439
100
AcDbEntity
  8
0
100
AcDbSpline
 62
7
  6
CONTINUOUS
 70
0
 71
3
 72
18
 73
14
 74
12
 42
0.0000001
 43
0.0000001
 44
0.0000000001
 12
-0.6956974515
 22
1.5433411025
 32
0.0
 13
-0.1278471795
 23
1.6880615514
 33
0.0
 40
0.0
 40
0.0
 40
0.0
 40
0.0
 40
0.0832064168
 40
0.1673706447
 40
0.2528685759
 40
0.3400867613
 40
0.4291060942
 40
0.5192954576
 40
0.610797256
 40
0.7048699557
 40
0.8017738049
 40
0.9005573899
 40
1.0
 40
1.0
 40
1.0
 40
1.0
 10
28.5161613974
 20
3.1735609181
 30
0.0
 10
28.4968659
 20
3.2163662124
 30
0.0
 10
28.459647041
 20
3.3031973764
 30
0.0
 10
28.4081326344
 20
3.4362971691
 30
0.0
 10
28.3605010192
 20
3.5732353293
 30
0.0
 10
28.3166822381
 20
3.7143107008
 30
0.0
 10
28.2768011903
 20
3.8592962253
 30
0.0
 10
28.2409810073
 20
4.0078243687
 30
0.0
 10
28.2091672276
 20
4.1601751424
 30
0.0
 10
28.1812847482
 20
4.317143664
 30
0.0
 10
28.1574588123
 20
4.4789337444
 30
0.0
 10
28.1379786258
 20
4.6443539479
 30
0.0
 10
28.1280225812
 20
4.7557855555
 30
0.0
 10
28.1237847621
 20
4.8117406377
 30
0.0
 11
28.5161613974
 21
3.1735609181
 31
0.0
 11
28.4606316498
 21
3.3030133499
 31
0.0
 11
28.4091682488
 21
3.4358758115
 31
0.0
 11
28.3615821103
 21
3.5725687774
 31
0.0
 11
28.3177489707
 21
3.7135636926
 31
0.0
 11
28.2777443881
 21
3.8588574107
 31
0.0
 11
28.2419136413
 21
4.0072747577
 31
0.0
 11
28.2102154464
 21
4.1588998589
 31
0.0
 11
28.1823278781
 21
4.3156944115
 31
0.0
 11
28.1583917643
 21
4.4779869027
 31
0.0
 11
28.1387989244
 21
4.6440655114
 31
0.0
 11
28.1237847621
 21
4.8117406377
 31
0.0
  0
SPLINE
  5
43A
100
AcDbEntity
  8
0
100
AcDbSpline
 62
7
  6
CONTINUOUS
 70
0
 71
3
 72
16
 73
12
 74
10
 42
0.0000001
 43
0.0000001
 44
0.0000000001
 12
0.1104955017
 22
1.5694499243
 32
0.0
 13
0.3903089145
 23
1.5241792843
 33
0.0
 40
0.0
 40
0.0
 40
0.0
 40
0.0
 40
0.1165147034
 40
0.2351921418
 40
0.3545400841
 40
0.4732553837
 40
0.5914996408
 40
0.7107969336
 40
0.8312823037
 40
0.9520121125
 40
1.0
 40
1.0
 40
1.0
 40
1.0
 10
28.1237847621
 20
5.8267530619
 30
0.0
 10
28.1280762123
 20
5.887707726
 30
0.0
 10
28.1381959368
 20
6.0106504791
 30
0.0
 10
28.1577327306
 20
6.1955736141
 30
0.0
 10
28.1816067313
 20
6.3811509951
 30
0.0
 10
28.20952885
 20
6.5659314637
 30
0.0
 10
28.2413819079
 20
6.7500472452
 30
0.0
 10
28.2772436639
 20
6.9343698101
 30
0.0
 10
28.3171604763
 20
7.1191905005
 30
0.0
 10
28.3521723293
 20
7.2667755647
 30
0.0
 10
28.3737877368
 20
7.3525801031
 30
0.0
 10
28.3800311036
 20
7.3769608177
 30
0.0
 11
28.1237847621
 21
5.8267530619
 31
0.0
 11
28.1387999918
 21
6.0094537229
 31
0.0
 11
28.1583950694
 21
6.1951420242
 31
0.0
 11
28.1823337133
 21
6.3813841171
 31
0.0
 11
28.2102226804
 21
6.5660691639
 31
0.0
 11
28.2419207716
 21
6.7493866336
 31
0.0
 11
28.2777512773
 21
6.9336294898
 31
0.0
 11
28.3177557376
 21
7.1189240826
 31
0.0
 11
28.3615879824
 21
7.3037459742
 31
0.0
 11
28.3800311036
 21
7.3769608177
 31
0.0
  0
SPLINE
  5
43B
100
AcDbEntity
  8
0
100
AcDbSpline
 62
7
  6
CONTINUOUS
 70
0
 71
3
 72
12
 73
8
 74
6
 42
0.0000001
 43
0.0000001
 44
0.0000000001
 12
-0.7538005872
 22
0.1993050875
 32
0.0
 13
-0.7344507813
 23
0.2617630475
 33
0.0
 40
0.0
 40
0.0
 40
0.0
 40
0.0
 40
0.2031922224
 40
0.4037019467
 40
0.6024734814
 40
0.8012652599
 40
1.0
 40
1.0
 40
1.0
 40
1.0
 10
30.0319213961
 20
4.2435520916
 30
0.0
 10
29.9808659239
 20
4.2570511729
 30
0.0
 10
29.8796377604
 20
4.2846685813
 30
0.0
 10
29.7292515172
 20
4.3283085178
 30
0.0
 10
29.5806944499
 20
4.3740758599
 30
0.0
 10
29.4333710858
 20
4.4222051132
 30
0.0
 10
29.3357323368
 20
4.4560068381
 30
0.0
 10
29.2870787085
 20
4.4733473085
 30
0.0
 11
30.0319213961
 21
4.2435520916
 31
0.0
 11
29.8790812069
 21
4.2852636544
 31
0.0
 11
29.72894067
 21
4.3288462556
 31
0.0
 11
29.5808316102
 21
4.3744905913
 31
0.0
 11
29.433500901
 21
4.4226388404
 31
0.0
 11
29.2870787085
 21
4.4733473085
 31
0.0
  0
SPLINE
  5
43C
100
AcDbEntity
  8
0
100
AcDbSpline
 62
7
  6
CONTINUOUS
 70
0
 71
3
 72
10
 73
6
 74
4
 42
0.0000001
 43
0.0000001
 44
0.0000000001
 12
0.5518436653
 22
-0.3357149291
 32
0.0
 13
0.4210028359
 23
-0.4898903518
 33
0.0
 40
0.0
 40
0.0
 40
0.0
 40
0.0
 40
0.3534105167
 40
0.6910610321
 40
1.0
 40
1.0
 40
1.0
 40
1.0
 10
49.3094300878
 20
16.1523935332
 30
0.0
 10
49.3744392061
 20
16.1128451377
 30
0.0
 10
49.4971034602
 20
16.0279411653
 30
0.0
 10
49.6602453816
 20
15.8869077544
 30
0.0
 10
49.7562650778
 20
15.7857479502
 30
0.0
 10
49.799619805
 20
15.7352992103
 30
0.0
 11
49.3094300878
 21
16.1523935332
 31
0.0
 11
49.4973056316
 21
16.0227203691
 31
0.0
 11
49.6623480633
 21
15.8801399452
 31
0.0
 11
49.799619805
 21
15.7352992103
 31
0.0
  0
SPLINE
  5
43D
100
AcDbEntity
  8
0
100
AcDbSpline
 62
7
  6
CONTINUOUS
 70
0
 71
3
 72
9
 73
5
 74
3
 42
0.0000001
 43
0.0000001
 44
0.0000000001
 12
0.1283787156
 22
-0.0829485079
 32
0.0
 13
0.1302838867
 23
-0.0799228282
 33
0.0
 40
0.0
 40
0.0
 40
0.0
 40
0.0
 40
0.5226635613
 40
1.0
 40
1.0
 40
1.0
 40
1.0
 10
49.799619805
 20
15.7352992103
 30
0.0
 10
49.8219860972
 20
15.7208478228
 30
0.0
 10
49.8647970629
 20
15.6932267001
 30
0.0
 10
49.9079026072
 20
15.6660612769
 30
0.0
 10
49.928632356
 20
15.6533445842
 30
0.0
 11
49.799619805
 21
15.7352992103
 31
0.0
 11
49.866818033
 21
15.6920992008
 31
0.0
 11
49.928632356
 21
15.6533445842
 31
0.0
  0
SPLINE
  5
43E
100
AcDbEntity
  8
0
100
AcDbSpline
 62
7
  6
CONTINUOUS
 70
0
 71
3
 72
11
 73
7
 74
5
 42
0.0000001
 43
0.0000001
 44
0.0000000001
 12
0.8642880875
 22
0.2638552612
 32
0.0
 13
0.8353441877
 23
-0.3425635899
 33
0.0
 40
0.0
 40
0.0
 40
0.0
 40
0.0
 40
0.2087664228
 40
0.4678542763
 40
0.7311718084
 40
1.0
 40
1.0
 40
1.0
 40
1.0
 10
48.4254103166
 20
16.2179271932
 30
0.0
 10
48.4855550941
 20
16.2362885662
 30
0.0
 10
48.6242206076
 20
16.2656965176
 30
0.0
 10
48.8455119068
 20
16.2710225877
 30
0.0
 10
49.0818042666
 20
16.2334561407
 30
0.0
 10
49.2345753987
 20
16.18309045
 30
0.0
 10
49.3094300878
 20
16.1523935332
 30
0.0
 11
48.4254103166
 21
16.2179271932
 31
0.0
 11
48.6098898259
 21
16.2573565232
 31
0.0
 11
48.8437158732
 21
16.2639550507
 31
0.0
 11
49.0786532999
 21
16.2275719929
 31
0.0
 11
49.3094300878
 21
16.1523935332
 31
0.0
  0
SPLINE
  5
43F
100
AcDbEntity
  8
0
100
AcDbSpline
 62
7
  6
CONTINUOUS
 70
0
 71
3
 72
14
 73
10
 74
8
 42
0.0000001
 43
0.0000001
 44
0.0000000001
 12
0.0
 22
1.1946006046
 32
0.0
 13
-0.8817073386
 23
0.8060166088
 33
0.0
 40
0.0
 40
0.0
 40
0.0
 40
0.0
 40
0.1332233404
 40
0.2740144691
 40
0.4200159045
 40
0.5684890876
 40
0.7165250722
 40
0.8612446014
 40
1.0
 40
1.0
 40
1.0
 40
1.0
 10
49.7900250048
 20
15.0917067994
 30
0.0
 10
49.7900250048
 20
15.1447563604
 30
0.0
 10
49.7818841839
 20
15.2539658858
 30
0.0
 10
49.7484384694
 20
15.4182181798
 30
0.0
 10
49.6944171042
 20
15.5832980237
 30
0.0
 10
49.6214931112
 20
15.7440822921
 30
0.0
 10
49.5319074893
 20
15.8956377555
 30
0.0
 10
49.4284479013
 20
16.0332600133
 30
0.0
 10
49.3502106388
 20
16.1151138146
 30
0.0
 10
49.3094300878
 20
16.1523935332
 30
0.0
 11
49.7900250048
 21
15.0917067994
 31
0.0
 11
49.77887559
 21
15.250464457
 31
0.0
 11
49.7457789458
 21
15.4153650579
 31
0.0
 11
49.6917787852
 21
15.581208411
 31
0.0
 11
49.6185780196
 21
15.7427645952
 31
0.0
 11
49.5284850578
 21
15.8949388866
 31
0.0
 11
49.424341009
 21
16.0329324221
 31
0.0
 11
49.3094300878
 21
16.1523935332
 31
0.0
  0
SPLINE
  5
440
100
AcDbEntity
  8
0
100
AcDbSpline
 62
7
  6
CONTINUOUS
 70
0
 71
3
 72
12
 73
8
 74
6
 42
0.0000001
 43
0.0000001
 44
0.0000000001
 12
1.3797076655
 22
-0.8028560562
 32
0.0
 13
0.597682487
 23
-1.4798319498
 33
0.0
 40
0.0
 40
0.0
 40
0.0
 40
0.0
 40
0.1677580303
 40
0.3950748309
 40
0.620813852
 40
0.8376059557
 40
1.0
 40
1.0
 40
1.0
 40
1.0
 10
48.5118422835
 20
16.0697468132
 30
0.0
 10
48.5889946302
 20
16.0248516297
 30
0.0
 10
48.763847972
 20
15.9074227306
 30
0.0
 10
49.0116507466
 20
15.6877828209
 30
0.0
 10
49.2434594878
 20
15.4161028371
 30
0.0
 10
49.4181129011
 20
15.144979794
 30
0.0
 10
49.5054718885
 20
14.9627680718
 30
0.0
 10
49.5378252473
 20
14.8826627734
 30
0.0
 11
48.5118422835
 21
16.0697468132
 31
0.0
 11
48.7343949526
 21
15.9210964068
 31
0.0
 11
49.0062246853
 21
15.6813176233
 31
0.0
 11
49.2399525773
 21
15.4075677175
 31
0.0
 11
49.4265884145
 21
15.1165904253
 31
0.0
 11
49.5378252473
 21
14.8826627734
 31
0.0
  0
SPLINE
  5
441
100
AcDbEntity
  8
0
100
AcDbSpline
 62
7
  6
CONTINUOUS
 70
0
 71
3
 72
9
 73
5
 74
3
 42
0.0000001
 43
0.0000001
 44
0.0000000001
 12
0.0
 22
1.2174633518
 32
0.0
 13
-0.3716255098
 23
1.1606434269
 33
0.0
 40
0.0
 40
0.0
 40
0.0
 40
0.0
 40
0.5850278558
 40
1.0
 40
1.0
 40
1.0
 40
1.0
 10
-68.0746249127
 20
53.0330108632
 30
0.0
 10
-68.0746249127
 20
53.2704275213
 30
0.0
 10
-68.119512176
 20
53.6768219884
 30
0.0
 10
-68.2221385209
 20
54.0705122744
 30
0.0
 10
-68.2735432658
 20
54.2310571716
 30
0.0
 11
-68.0746249127
 21
53.0330108632
 31
0.0
 11
-68.1469071505
 21
53.7415835863
 31
0.0
 11
-68.2735432658
 21
54.2310571716
 31
0.0
  0
SPLINE
  5
442
100
AcDbEntity
  8
0
100
AcDbSpline
 62
7
  6
CONTINUOUS
 70
0
 71
3
 72
15
 73
11
 74
9
 42
0.0000001
 43
0.0000001
 44
0.0000000001
 12
-1.3987199825
 22
4.3684168892
 32
0.0
 13
-4.1339146778
 23
-2.0596575435
 33
0.0
 40
0.0
 40
0.0
 40
0.0
 40
0.0
 40
0.0561708986
 40
0.2270322409
 40
0.3951053697
 40
0.5535835795
 40
0.6972270436
 40
0.8237331819
 40
0.9353885735
 40
1.0
 40
1.0
 40
1.0
 40
1.0
 10
-68.2735432658
 20
54.2310571716
 30
0.0
 10
-68.2997323853
 20
54.3128498057
 30
0.0
 10
-68.4148344002
 20
54.6404759919
 30
0.0
 10
-68.6759851014
 20
55.1873963628
 30
0.0
 10
-69.1093827166
 20
55.815485262
 30
0.0
 10
-69.6144148486
 20
56.3316971773
 30
0.0
 10
-70.1601775165
 20
56.7028491534
 30
0.0
 10
-70.7160420428
 20
56.9037792994
 30
0.0
 10
-71.1898283726
 20
56.9105729372
 30
0.0
 10
-71.4486121183
 20
56.8207532877
 30
0.0
 10
-71.5376448264
 20
56.7763941503
 30
0.0
 11
-68.2735432658
 21
54.2310571716
 31
0.0
 11
-68.3588279491
 21
54.4741504871
 31
0.0
 11
-68.6959452562
 21
55.1807883421
 31
0.0
 11
-69.1352850844
 21
55.8133409491
 31
0.0
 11
-69.6469071505
 21
56.3287008934
 31
0.0
 11
-70.1959452562
 21
56.6917472463
 31
0.0
 11
-70.7449833619
 21
56.877738999
 31
0.0
 11
-71.256605428
 21
56.8740011209
 31
0.0
 11
-71.5376448264
 21
56.7763941503
 31
0.0
  0
SPLINE
  5
443
100
AcDbEntity
  8
0
100
AcDbSpline
 62
7
  6
CONTINUOUS
 70
0
 71
3
 72
11
 73
7
 74
5
 42
0.0000001
 43
0.0000001
 44
0.0000000001
 12
0.0
 22
-1.8865811492
 32
0.0
 13
-1.7019854425
 23
-0.8479873023
 33
0.0
 40
0.0
 40
0.0
 40
0.0
 40
0.0
 40
0.3394409699
 40
0.6373997744
 40
0.9025320094
 40
1.0
 40
1.0
 40
1.0
 40
1.0
 10
30.2132176723
 20
3.8890895707
 30
0.0
 10
30.2132176723
 20
3.6756285924
 30
0.0
 10
30.1734384839
 20
3.2725148755
 30
0.0
 10
29.9677564921
 20
2.7342703893
 30
0.0
 10
29.6862466868
 20
2.4134806293
 30
0.0
 10
29.4888932659
 20
2.2945771666
 30
0.0
 10
29.4335968989
 20
2.2670266271
 30
0.0
 11
30.2132176723
 21
3.8890895707
 31
0.0
 11
30.1409354344
 21
3.2527990855
 31
0.0
 11
29.9290146358
 21
2.7321529833
 31
0.0
 11
29.5918973287
 21
2.3626324354
 31
0.0
 11
29.4335968989
 21
2.2670266271
 31
0.0
  0
SPLINE
  5
444
100
AcDbEntity
  8
0
100
AcDbSpline
 62
7
  6
CONTINUOUS
 70
0
 71
3
 72
11
 73
7
 74
5
 42
0.0000001
 43
0.0000001
 44
0.0000000001
 12
0.0
 22
-1.8865811492
 32
0.0
 13
-1.7019854425
 23
-0.8479873023
 33
0.0
 40
0.0
 40
0.0
 40
0.0
 40
0.0
 40
0.3394409699
 40
0.6373997744
 40
0.9025320094
 40
1.0
 40
1.0
 40
1.0
 40
1.0
 10
-68.0746249127
 20
-14.516970632
 30
0.0
 10
-68.0746249127
 20
-14.7304316103
 30
0.0
 10
-68.114404101
 20
-15.1335453272
 30
0.0
 10
-68.3200860929
 20
-15.6717898134
 30
0.0
 10
-68.6015958981
 20
-15.9925795734
 30
0.0
 10
-68.798949319
 20
-16.1114830361
 30
0.0
 10
-68.854245686
 20
-16.1390335756
 30
0.0
 11
-68.0746249127
 21
-14.516970632
 31
0.0
 11
-68.1469071505
 21
-15.1532611172
 31
0.0
 11
-68.3588279491
 21
-15.6739072194
 31
0.0
 11
-68.6959452562
 21
-16.0434277673
 31
0.0
 11
-68.854245686
 21
-16.1390335756
 31
0.0
  0
SPLINE
  5
445
100
AcDbEntity
  8
0
100
AcDbSpline
 62
7
  6
CONTINUOUS
 70
0
 71
3
 72
9
 73
5
 74
3
 42
0.0000001
 43
0.0000001
 44
0.0000000001
 12
0.0
 22
1.2174633518
 32
0.0
 13
-0.3716255098
 23
1.1606434269
 33
0.0
 40
0.0
 40
0.0
 40
0.0
 40
0.0
 40
0.5850278558
 40
1.0
 40
1.0
 40
1.0
 40
1.0
 10
30.2132176723
 20
-63.6608919245
 30
0.0
 10
30.2132176723
 20
-63.4234752664
 30
0.0
 10
30.1683304089
 20
-63.0170807993
 30
0.0
 10
30.065704064
 20
-62.6233905132
 30
0.0
 10
30.0142993191
 20
-62.4628456161
 30
0.0
 11
30.2132176723
 21
-63.6608919245
 31
0.0
 11
30.1409354344
 21
-62.9523192014
 31
0.0
 11
30.0142993191
 21
-62.4628456161
 31
0.0
  0
SPLINE
  5
446
100
AcDbEntity
  8
0
100
AcDbSpline
 62
7
  6
CONTINUOUS
 70
0
 71
3
 72
15
 73
11
 74
9
 42
0.0000001
 43
0.0000001
 44
0.0000000001
 12
-1.3987199825
 22
4.3684168892
 32
0.0
 13
-4.1339146778
 23
-2.0596575435
 33
0.0
 40
0.0
 40
0.0
 40
0.0
 40
0.0
 40
0.0561708986
 40
0.2270322409
 40
0.3951053697
 40
0.5535835795
 40
0.6972270436
 40
0.8237331819
 40
0.9353885735
 40
1.0
 40
1.0
 40
1.0
 40
1.0
 10
30.0142993191
 20
-62.4628456161
 30
0.0
 10
29.9881101997
 20
-62.381052982
 30
0.0
 10
29.8730081848
 20
-62.0534267958
 30
0.0
 10
29.6118574835
 20
-61.5065064249
 30
0.0
 10
29.1784598683
 20
-60.8784175257
 30
0.0
 10
28.6734277363
 20
-60.3622056103
 30
0.0
 10
28.1276650685
 20
-59.9910536343
 30
0.0
 10
27.5718005421
 20
-59.7901234882
 30
0.0
 10
27.0980142123
 20
-59.7833298504
 30
0.0
 10
26.8392304666
 20
-59.8731495
 30
0.0
 10
26.7501977585
 20
-59.9175086373
 30
0.0
 11
30.0142993191
 21
-62.4628456161
 31
0.0
 11
29.9290146358
 21
-62.2197523005
 31
0.0
 11
29.5918973287
 21
-61.5131144456
 31
0.0
 11
29.1525575005
 21
-60.8805618386
 31
0.0
 11
28.6409354344
 21
-60.3652018943
 31
0.0
 11
28.0918973287
 21
-60.0021555413
 31
0.0
 11
27.542859223
 21
-59.8161637886
 31
0.0
 11
27.0312371569
 21
-59.8199016668
 31
0.0
 11
26.7501977585
 21
-59.9175086373
 31
0.0
  0
SPLINE
  5
447
100
AcDbEntity
  8
0
100
AcDbSpline
 62
7
  6
CONTINUOUS
 70
0
 71
3
 72
14
 73
10
 74
8
 42
0.0000001
 43
0.0000001
 44
0.0000000001
 12
0.0
 22
14.7133219561
 32
0.0
 13
-13.1599952275
 23
6.5799976137
 33
0.0
 40
0.0
 40
0.0
 40
0.0
 40
0.0
 40
0.1375292621
 40
0.2840848061
 40
0.4355534719
 40
0.5872669423
 40
0.7345302724
 40
0.8731477684
 40
1.0
 40
1.0
 40
1.0
 40
1.0
 10
46.2645416052
 20
8.5541902949
 30
0.0
 10
46.2645416052
 20
9.228694399
 30
0.0
 10
46.1327927561
 20
10.6236396867
 30
0.0
 10
45.6055141292
 20
12.7008732744
 30
0.0
 10
44.766670133
 20
14.748529359
 30
0.0
 10
43.6570386812
 20
16.6666538771
 30
0.0
 10
42.3297397338
 20
18.3630007075
 30
0.0
 10
40.8492239952
 20
19.7552211272
 30
0.0
 10
39.7499320475
 20
20.4717491115
 30
0.0
 10
39.1934737933
 20
20.7499782386
 30
0.0
 11
46.2645416052
 21
8.5541902949
 31
0.0
 11
46.0872551721
 21
10.5699213282
 31
0.0
 11
45.5642857547
 21
12.6618616238
 31
0.0
 11
44.7218572233
 21
14.7251125599
 31
0.0
 11
43.6022124623
 21
16.6562141193
 31
0.0
 11
42.2614951351
 21
18.3583328061
 31
0.0
 11
40.7669344069
 21
19.7461172821
 31
0.0
 11
39.1934737933
 21
20.7499782386
 31
0.0
  0
SPLINE
  5
448
100
AcDbEntity
  8
0
100
AcDbSpline
 62
7
  6
CONTINUOUS
 70
0
 71
3
 72
11
 73
7
 74
5
 42
0.0000001
 43
0.0000001
 44
0.0000000001
 12
-4.1412572325
 22
2.0706286162
 32
0.0
 13
-4.1588376331
 23
-2.0820439822
 33
0.0
 40
0.0
 40
0.0
 40
0.0
 40
0.0
 40
0.3614173717
 40
0.6850347852
 40
0.9849381792
 40
1.0
 40
1.0
 40
1.0
 40
1.0
 10
-73.2365044153
 20
76.964967343
 30
0.0
 10
-73.7354118502
 20
77.2144210604
 30
0.0
 10
-74.7354452336
 20
77.5929030344
 30
0.0
 10
-76.2731763132
 20
77.7278764272
 30
0.0
 10
-77.2485889858
 20
77.4740377767
 30
0.0
 10
-77.6872987323
 20
77.2596406809
 30
0.0
 10
-77.7081786213
 20
77.2491875565
 30
0.0
 11
-73.2365044153
 21
76.964967343
 31
0.0
 11
-74.8099650289
 21
77.534567
 31
0.0
 11
-76.3045257571
 21
77.6413432522
 31
0.0
 11
-77.6452430843
 21
77.2799418926
 31
0.0
 11
-77.7081786213
 21
77.2491875565
 31
0.0
  0
SPLINE
  5
449
100
AcDbEntity
  8
RACCORDO
100
AcDbSpline
 62
7
  6
CONTINUOUS
 70
0
 71
3
 72
14
 73
10
 74
8
 42
0.0000001
 43
0.0000001
 44
0.0000000001
 12
-0.0
 22
-13.9825644068
 32
0.0
 13
12.5063858054
 23
-6.2531929027
 33
0.0
 40
0.0
 40
0.0
 40
0.0
 40
0.0
 40
0.1405678058
 40
0.2862267885
 40
0.4341121545
 40
0.5818352937
 40
0.7270051809
 40
0.8672061215
 40
1.0
 40
1.0
 40
1.0
 40
1.0
 10
-83.5096537552
 20
-15.0454966862
 30
0.0
 10
-83.5096537552
 20
-15.7006628189
 30
0.0
 10
-83.3851279737
 20
-17.0365613243
 30
0.0
 10
-82.8846859513
 20
-19.0039964468
 30
0.0
 10
-82.0994456691
 20
-20.912086675
 30
0.0
 10
-81.0633648879
 20
-22.6934575604
 30
0.0
 10
-79.8098622029
 20
-24.2850277333
 30
0.0
 10
-78.3783334015
 20
-25.6194054831
 30
0.0
 10
-77.300817189
 20
-26.3141861771
 30
0.0
 10
-76.7472266967
 20
-26.5909814232
 30
0.0
 11
-83.5096537552
 21
-15.0454966862
 31
0.0
 11
-83.3377950397
 21
-17.0034672004
 31
0.0
 11
-82.8419552489
 21
-18.9788742975
 31
0.0
 11
-82.056908113
 21
-20.8918737002
 31
0.0
 11
-81.0168526985
 21
-22.6764673654
 31
0.0
 11
-79.7564098578
 21
-24.267556267
 31
0.0
 11
-78.3152715628
 21
-25.5965279697
 31
0.0
 11
-76.7472266967
 21
-26.5909814232
 31
0.0
  0
SPLINE
  5
44A
100
AcDbEntity
  8
RACCORDO
100
AcDbSpline
 62
7
  6
CONTINUOUS
 70
0
 71
3
 72
12
 73
8
 74
6
 42
0.0000001
 43
0.0000001
 44
0.0000000001
 12
-6.4877358447
 22
-3.2438679223
 32
0.0
 13
0.0
 23
-7.2535091845
 33
0.0
 40
0.0
 40
0.0
 40
0.0
 40
0.0
 40
0.1728513509
 40
0.3544696934
 40
0.5518145039
 40
0.7678644431
 40
1.0
 40
1.0
 40
1.0
 40
1.0
 10
-80.3249354607
 20
75.9408376699
 30
0.0
 10
-80.6987400957
 20
75.7539353524
 30
0.0
 10
-81.4197319505
 20
75.2713143901
 30
0.0
 10
-82.318335131
 20
74.2678033654
 30
0.0
 10
-83.0021889478
 20
72.9872263102
 30
0.0
 10
-83.4228706417
 20
71.4730660972
 30
0.0
 10
-83.5096537552
 20
70.3862586827
 30
0.0
 10
-83.5096537552
 20
69.8249928847
 30
0.0
 11
-80.3249354607
 21
75.9408376699
 31
0.0
 11
-81.3677168354
 21
75.2447281689
 31
0.0
 11
-82.2510204198
 21
74.2673647122
 31
0.0
 11
-82.9338108663
 21
73.0092611641
 31
0.0
 11
-83.3646827786
 21
71.502537841
 31
0.0
 11
-83.5096537552
 21
69.8249928847
 31
0.0
  0
SPLINE
  5
44B
100
AcDbEntity
  8
RACCORDO
100
AcDbSpline
 62
7
  6
CONTINUOUS
 70
0
 71
3
 72
11
 73
7
 74
5
 42
0.0000001
 43
0.0000001
 44
0.0000000001
 12
4.9738161427
 22
-2.4869080713
 32
0.0
 13
4.9738161426
 23
2.4869080713
 33
0.0
 40
0.0
 40
0.0
 40
0.0
 40
0.0
 40
0.2812331708
 40
0.5375775946
 40
0.7739321311
 40
1.0
 40
1.0
 40
1.0
 40
1.0
 10
35.6827515119
 20
-82.8059705275
 30
0.0
 10
36.1490188735
 20
-83.0391042083
 30
0.0
 10
37.0851485574
 20
-83.4039716047
 30
0.0
 10
38.5154079213
 20
-83.6236918181
 30
0.0
 10
39.8555727595
 20
-83.5075939563
 30
0.0
 10
40.6745079861
 20
-83.2205881612
 30
0.0
 10
41.0493146579
 20
-83.0331848253
 30
0.0
 11
35.6827515119
 21
-82.8059705275
 31
0.0
 11
37.1441815811
 21
-83.3627750199
 31
0.0
 11
38.5545495443
 21
-83.5699595742
 31
0.0
 11
39.8634492933
 21
-83.4504662663
 31
0.0
 11
41.0493146579
 21
-83.0331848253
 31
0.0
  0
SPLINE
  5
44C
100
AcDbEntity
  8
0
100
AcDbSpline
 62
7
  6
CONTINUOUS
 70
0
 71
3
 72
11
 73
7
 74
5
 42
0.0000001
 43
0.0000001
 44
0.0000000001
 12
1.7019854425
 22
0.8479873023
 32
0.0
 13
0.0
 23
1.8865811492
 33
0.0
 40
0.0
 40
0.0
 40
0.0
 40
0.0
 40
0.0974679906
 40
0.3626002256
 40
0.6605590301
 40
1.0
 40
1.0
 40
1.0
 40
1.0
 10
29.4335968989
 20
-65.282954868
 30
0.0
 10
29.4888932659
 20
-65.2554043286
 30
0.0
 10
29.6862466868
 20
-65.1365008659
 30
0.0
 10
29.9677564921
 20
-64.8157111059
 30
0.0
 10
30.1734384839
 20
-64.2774666196
 30
0.0
 10
30.2132176723
 20
-63.8743529028
 30
0.0
 10
30.2132176723
 20
-63.6608919245
 30
0.0
 11
29.4335968989
 21
-65.282954868
 31
0.0
 11
29.5918973287
 21
-65.1873490598
 31
0.0
 11
29.9290146358
 21
-64.8178285119
 31
0.0
 11
30.1409354344
 21
-64.2971824096
 31
0.0
 11
30.2132176723
 21
-63.6608919245
 31
0.0
  0
SPLINE
  5
44D
100
AcDbEntity
  8
0
100
AcDbSpline
 62
7
  6
CONTINUOUS
 70
0
 71
3
 72
15
 73
11
 74
9
 42
0.0000001
 43
0.0000001
 44
0.0000000001
 12
4.1339146778
 22
2.0596575435
 32
0.0
 13
1.3987199825
 23
-4.3684168892
 33
0.0
 40
0.0
 40
0.0
 40
0.0
 40
0.0
 40
0.0646114265
 40
0.1762668181
 40
0.3027729564
 40
0.4464164205
 40
0.6048946303
 40
0.7729677591
 40
0.9438291014
 40
1.0
 40
1.0
 40
1.0
 40
1.0
 10
-71.5376448264
 20
-10.7735873448
 30
0.0
 10
-71.4486121183
 20
-10.7292282075
 30
0.0
 10
-71.1898283726
 20
-10.6394085579
 30
0.0
 10
-70.7160420428
 20
-10.6462021958
 30
0.0
 10
-70.1601775165
 20
-10.8471323418
 30
0.0
 10
-69.6144148486
 20
-11.2182843178
 30
0.0
 10
-69.1093827166
 20
-11.7344962332
 30
0.0
 10
-68.6759851014
 20
-12.3625851324
 30
0.0
 10
-68.4148344002
 20
-12.9095055033
 30
0.0
 10
-68.2997323853
 20
-13.2371316895
 30
0.0
 10
-68.2735432658
 20
-13.3189243236
 30
0.0
 11
-71.5376448264
 21
-10.7735873448
 31
0.0
 11
-71.256605428
 21
-10.6759803743
 31
0.0
 11
-70.7449833619
 21
-10.6722424962
 31
0.0
 11
-70.1959452562
 21
-10.8582342489
 31
0.0
 11
-69.6469071505
 21
-11.2212806018
 31
0.0
 11
-69.1352850844
 21
-11.7366405461
 31
0.0
 11
-68.6959452562
 21
-12.3691931531
 31
0.0
 11
-68.3588279491
 21
-13.0758310081
 31
0.0
 11
-68.2735432658
 21
-13.3189243236
 31
0.0
  0
SPLINE
  5
44E
100
AcDbEntity
  8
0
100
AcDbSpline
 62
7
  6
CONTINUOUS
 70
0
 71
3
 72
9
 73
5
 74
3
 42
0.0000001
 43
0.0000001
 44
0.0000000001
 12
0.3716255098
 22
-1.1606434269
 32
0.0
 13
0.0
 23
-1.2174633518
 33
0.0
 40
0.0
 40
0.0
 40
0.0
 40
0.0
 40
0.4149721442
 40
1.0
 40
1.0
 40
1.0
 40
1.0
 10
-68.2735432658
 20
-13.3189243236
 30
0.0
 10
-68.2221385209
 20
-13.4794692208
 30
0.0
 10
-68.119512176
 20
-13.8731595068
 30
0.0
 10
-68.0746249127
 20
-14.2795539739
 30
0.0
 10
-68.0746249127
 20
-14.516970632
 30
0.0
 11
-68.2735432658
 21
-13.3189243236
 31
0.0
 11
-68.1469071505
 21
-13.8083979089
 31
0.0
 11
-68.0746249127
 21
-14.516970632
 31
0.0
  0
SPLINE
  5
44F
100
AcDbEntity
  8
0
100
AcDbSpline
 62
7
  6
CONTINUOUS
 70
0
 71
3
 72
15
 73
11
 74
9
 42
0.0000001
 43
0.0000001
 44
0.0000000001
 12
4.1339146778
 22
2.0596575435
 32
0.0
 13
1.3987199825
 23
-4.3684168892
 33
0.0
 40
0.0
 40
0.0
 40
0.0
 40
0.0
 40
0.0646114265
 40
0.1762668181
 40
0.3027729564
 40
0.4464164205
 40
0.6048946303
 40
0.7729677591
 40
0.9438291014
 40
1.0
 40
1.0
 40
1.0
 40
1.0
 10
26.7501977585
 20
7.6324728579
 30
0.0
 10
26.8392304666
 20
7.6768319952
 30
0.0
 10
27.0980142123
 20
7.7666516448
 30
0.0
 10
27.5718005421
 20
7.7598580069
 30
0.0
 10
28.1276650685
 20
7.5589278609
 30
0.0
 10
28.6734277363
 20
7.1877758849
 30
0.0
 10
29.1784598683
 20
6.6715639695
 30
0.0
 10
29.6118574835
 20
6.0434750703
 30
0.0
 10
29.8730081848
 20
5.4965546994
 30
0.0
 10
29.9881101997
 20
5.1689285132
 30
0.0
 10
30.0142993191
 20
5.0871358791
 30
0.0
 11
26.7501977585
 21
7.6324728579
 31
0.0
 11
27.0312371569
 21
7.7300798284
 31
0.0
 11
27.542859223
 21
7.7338177066
 31
0.0
 11
28.0918973287
 21
7.5478259539
 31
0.0
 11
28.6409354344
 21
7.1847796009
 31
0.0
 11
29.1525575005
 21
6.6694196566
 31
0.0
 11
29.5918973287
 21
6.0368670496
 31
0.0
 11
29.9290146358
 21
5.3302291946
 31
0.0
 11
30.0142993191
 21
5.0871358791
 31
0.0
  0
SPLINE
  5
450
100
AcDbEntity
  8
0
100
AcDbSpline
 62
7
  6
CONTINUOUS
 70
0
 71
3
 72
9
 73
5
 74
3
 42
0.0000001
 43
0.0000001
 44
0.0000000001
 12
0.3716255098
 22
-1.1606434269
 32
0.0
 13
0.0
 23
-1.2174633518
 33
0.0
 40
0.0
 40
0.0
 40
0.0
 40
0.0
 40
0.4149721442
 40
1.0
 40
1.0
 40
1.0
 40
1.0
 10
30.0142993191
 20
5.0871358791
 30
0.0
 10
30.065704064
 20
4.926590982
 30
0.0
 10
30.1683304089
 20
4.5329006959
 30
0.0
 10
30.2132176723
 20
4.1265062288
 30
0.0
 10
30.2132176723
 20
3.8890895707
 30
0.0
 11
30.0142993191
 21
5.0871358791
 31
0.0
 11
30.1409354344
 21
4.5976622938
 31
0.0
 11
30.2132176723
 21
3.8890895707
 31
0.0
  0
SPLINE
  5
451
100
AcDbEntity
  8
0
100
AcDbSpline
 62
7
  6
CONTINUOUS
 70
0
 71
3
 72
11
 73
7
 74
5
 42
0.0000001
 43
0.0000001
 44
0.0000000001
 12
1.7019854425
 22
0.8479873023
 32
0.0
 13
0.0
 23
1.8865811492
 33
0.0
 40
0.0
 40
0.0
 40
0.0
 40
0.0
 40
0.0974679906
 40
0.3626002256
 40
0.6605590301
 40
1.0
 40
1.0
 40
1.0
 40
1.0
 10
-68.854245686
 20
51.4109479196
 30
0.0
 10
-68.798949319
 20
51.4384984591
 30
0.0
 10
-68.6015958981
 20
51.5574019218
 30
0.0
 10
-68.3200860929
 20
51.8781916818
 30
0.0
 10
-68.114404101
 20
52.416436168
 30
0.0
 10
-68.0746249127
 20
52.8195498849
 30
0.0
 10
-68.0746249127
 20
53.0330108632
 30
0.0
 11
-68.854245686
 21
51.4109479196
 31
0.0
 11
-68.6959452562
 21
51.5065537279
 31
0.0
 11
-68.3588279491
 21
51.8760742758
 31
0.0
 11
-68.1469071505
 21
52.396720378
 31
0.0
 11
-68.0746249127
 21
53.0330108632
 31
0.0
  0
SPLINE
  5
452
100
AcDbEntity
  8
0
100
AcDbSpline
 62
7
  6
CONTINUOUS
 70
0
 71
3
 72
11
 73
7
 74
5
 42
0.0000001
 43
0.0000001
 44
0.0000000001
 12
5.6562216791
 22
2.8316811927
 32
0.0
 13
-0.0
 23
6.297115668
 33
0.0
 40
0.0
 40
0.0
 40
0.0
 40
0.0
 40
0.2085141479
 40
0.4440618469
 40
0.7066954089
 40
1.0
 40
1.0
 40
1.0
 40
1.0
 10
43.6651479993
 20
-81.7252396214
 30
0.0
 10
44.0582820805
 20
-81.5284244244
 30
0.0
 10
44.820423855
 20
-80.9578820176
 30
0.0
 10
45.6567771043
 20
-79.7028817884
 30
0.0
 10
46.1639718638
 20
-78.1035166526
 30
0.0
 10
46.2645416052
 20
-76.9319569214
 30
0.0
 10
46.2645416052
 20
-76.316299276
 30
0.0
 11
43.6651479993
 21
-81.7252396214
 31
0.0
 11
44.7218572233
 21
-80.9445371592
 31
0.0
 11
45.5642857547
 21
-79.7237147544
 31
0.0
 11
46.0872551721
 21
-78.1547438762
 31
0.0
 11
46.2645416052
 21
-76.316299276
 31
0.0
  0
SPLINE
  5
453
100
AcDbEntity
  8
0
100
AcDbSpline
 62
7
  6
CONTINUOUS
 70
0
 71
3
 72
16
 73
12
 74
10
 42
0.0000001
 43
0.0000001
 44
0.0000000001
 12
0.0
 22
-5.7997384459
 32
0.0
 13
5.2322532796
 23
2.6068873639
 33
0.0
 40
0.0
 40
0.0
 40
0.0
 40
0.0
 40
0.1228072578
 40
0.2542966162
 40
0.3892912682
 40
0.522083
 40
0.6472939488
 40
0.7607842163
 40
0.8607345731
 40
0.9489516065
 40
1.0
 40
1.0
 40
1.0
 40
1.0
 10
-72.3172655998
 20
55.1543312068
 30
0.0
 10
-72.3172655998
 20
54.9169145487
 30
0.0
 10
-72.2628884774
 20
54.42460203
 30
0.0
 10
-72.0499300014
 20
53.6994837594
 30
0.0
 10
-71.715905411
 20
52.9999457072
 30
0.0
 10
-71.2825077958
 20
52.371856808
 30
0.0
 10
-70.7774756638
 20
51.8556448926
 30
0.0
 10
-70.231712996
 20
51.4844929166
 30
0.0
 10
-69.6758484697
 20
51.2835627705
 30
0.0
 10
-69.2020621399
 20
51.2767691327
 30
0.0
 10
-68.9432783941
 20
51.3665887823
 30
0.0
 10
-68.854245686
 20
51.4109479196
 30
0.0
 11
-72.3172655998
 21
55.1543312068
 31
0.0
 11
-72.2449833619
 21
54.4457584837
 31
0.0
 11
-72.0330625633
 21
53.7131915828
 31
0.0
 11
-71.6959452562
 21
53.0065537279
 31
0.0
 11
-71.256605428
 21
52.3740011209
 31
0.0
 11
-70.7449833619
 21
51.8586411766
 31
0.0
 11
-70.1959452562
 21
51.4955948236
 31
0.0
 11
-69.6469071505
 21
51.3096030709
 31
0.0
 11
-69.1352850844
 21
51.3133409491
 31
0.0
 11
-68.854245686
 21
51.4109479196
 31
0.0
  0
SPLINE
  5
454
100
AcDbEntity
  8
0
100
AcDbSpline
 62
7
  6
CONTINUOUS
 70
0
 71
3
 72
11
 73
7
 74
5
 42
0.0000001
 43
0.0000001
 44
0.0000000001
 12
0.0
 22
1.8865811492
 32
0.0
 13
1.7019854425
 23
0.8479873023
 33
0.0
 40
0.0
 40
0.0
 40
0.0
 40
0.0
 40
0.3394409699
 40
0.6373997744
 40
0.9025320094
 40
1.0
 40
1.0
 40
1.0
 40
1.0
 10
25.9705769851
 20
6.0104099143
 30
0.0
 10
25.9705769851
 20
6.2238708926
 30
0.0
 10
26.0103561735
 20
6.6269846095
 30
0.0
 10
26.2160381653
 20
7.1652290957
 30
0.0
 10
26.4975479706
 20
7.4860188557
 30
0.0
 10
26.6949013915
 20
7.6049223184
 30
0.0
 10
26.7501977585
 20
7.6324728579
 30
0.0
 11
25.9705769851
 21
6.0104099143
 31
0.0
 11
26.042859223
 21
6.6467003995
 31
0.0
 11
26.2547800216
 21
7.1673465017
 31
0.0
 11
26.5918973287
 21
7.5368670496
 31
0.0
 11
26.7501977585
 21
7.6324728579
 31
0.0
  0
SPLINE
  5
455
100
AcDbEntity
  8
0
100
AcDbSpline
 62
7
  6
CONTINUOUS
 70
0
 71
3
 72
11
 73
7
 74
5
 42
0.0000001
 43
0.0000001
 44
0.0000000001
 12
0.0
 22
1.8865811492
 32
0.0
 13
1.7019854425
 23
0.8479873023
 33
0.0
 40
0.0
 40
0.0
 40
0.0
 40
0.0
 40
0.3394409699
 40
0.6373997744
 40
0.9025320094
 40
1.0
 40
1.0
 40
1.0
 40
1.0
 10
-72.3172655998
 20
-12.3956502884
 30
0.0
 10
-72.3172655998
 20
-12.1821893101
 30
0.0
 10
-72.2774864114
 20
-11.7790755932
 30
0.0
 10
-72.0718044196
 20
-11.240831107
 30
0.0
 10
-71.7902946143
 20
-10.920041347
 30
0.0
 10
-71.5929411935
 20
-10.8011378843
 30
0.0
 10
-71.5376448264
 20
-10.7735873448
 30
0.0
 11
-72.3172655998
 21
-12.3956502884
 31
0.0
 11
-72.2449833619
 21
-11.7593598032
 31
0.0
 11
-72.0330625633
 21
-11.238713701
 31
0.0
 11
-71.6959452562
 21
-10.8691931531
 31
0.0
 11
-71.5376448264
 21
-10.7735873448
 31
0.0
  0
SPLINE
  5
456
100
AcDbEntity
  8
0
100
AcDbSpline
 62
7
  6
CONTINUOUS
 70
0
 71
3
 72
16
 73
12
 74
10
 42
0.0000001
 43
0.0000001
 44
0.0000000001
 12
0.0
 22
-5.7997384459
 32
0.0
 13
5.2322532796
 23
2.6068873639
 33
0.0
 40
0.0
 40
0.0
 40
0.0
 40
0.0
 40
0.1228072578
 40
0.2542966162
 40
0.3892912682
 40
0.522083
 40
0.6472939488
 40
0.7607842163
 40
0.8607345731
 40
0.9489516065
 40
1.0
 40
1.0
 40
1.0
 40
1.0
 10
25.9705769851
 20
-61.5395715809
 30
0.0
 10
25.9705769851
 20
-61.776988239
 30
0.0
 10
26.0249541075
 20
-62.2693007577
 30
0.0
 10
26.2379125835
 20
-62.9944190283
 30
0.0
 10
26.5719371739
 20
-63.6939570805
 30
0.0
 10
27.0053347891
 20
-64.3220459797
 30
0.0
 10
27.5103669211
 20
-64.838257895
 30
0.0
 10
28.056129589
 20
-65.2094098711
 30
0.0
 10
28.6119941153
 20
-65.4103400171
 30
0.0
 10
29.0857804451
 20
-65.4171336549
 30
0.0
 10
29.3445641908
 20
-65.3273140054
 30
0.0
 10
29.4335968989
 20
-65.282954868
 30
0.0
 11
25.9705769851
 21
-61.5395715809
 31
0.0
 11
26.042859223
 21
-62.248144304
 31
0.0
 11
26.2547800216
 21
-62.9807112048
 31
0.0
 11
26.5918973287
 21
-63.6873490598
 31
0.0
 11
27.0312371569
 21
-64.3199016668
 31
0.0
 11
27.542859223
 21
-64.8352616111
 31
0.0
 11
28.0918973287
 21
-65.198307964
 31
0.0
 11
28.6409354344
 21
-65.3842997167
 31
0.0
 11
29.1525575005
 21
-65.3805618386
 31
0.0
 11
29.4335968989
 21
-65.282954868
 31
0.0
  0
SPLINE
  5
457
100
AcDbEntity
  8
RACCORDO
100
AcDbSpline
 62
253
  6
CONTINUOUS
 70
0
 71
3
 72
15
 73
11
 74
9
 42
0.0000001
 43
0.0000001
 44
0.0000000001
 12
0.0
 22
-11.773517522
 32
0.0
 13
10.5305542054
 23
-5.2652771027
 33
0.0
 40
0.0
 40
0.0
 40
0.0
 40
0.0
 40
0.1196626159
 40
0.2467272286
 40
0.3784333401
 40
0.5116950876
 40
0.6433125689
 40
0.7702360769
 40
0.8898077373
 40
1.0
 40
1.0
 40
1.0
 40
1.0
 10
-82.9238673176
 20
-15.7526034674
 30
0.0
 10
-82.9238673176
 20
-16.2222201024
 30
0.0
 10
-82.8440315068
 20
-17.1914843079
 30
0.0
 10
-82.5190927509
 20
-18.6446640541
 30
0.0
 10
-81.9969019241
 20
-20.0960220169
 30
0.0
 10
-81.2970811638
 20
-21.4903287898
 30
0.0
 10
-80.4459388942
 20
-22.7754605444
 30
0.0
 10
-79.474988103
 20
-23.9033918197
 30
0.0
 10
-78.4210213972
 20
-24.8316024832
 30
0.0
 10
-77.6538082666
 20
-25.3158362232
 30
0.0
 10
-77.2670130681
 20
-25.5092338224
 30
0.0
 11
-82.9238673176
 21
-15.7526034674
 31
0.0
 11
-82.8153735641
 21
-17.157269677
 31
0.0
 11
-82.4935434622
 21
-18.6182398126
 31
0.0
 11
-81.9706528298
 21
-20.0780626986
 31
0.0
 11
-81.266841692
 21
-21.4803051368
 31
0.0
 11
-80.4092410468
 21
-22.7709575032
 31
0.0
 11
-79.4308180167
 21
-23.9004391942
 31
0.0
 11
-78.3693952216
 21
-24.8252221265
 31
0.0
 11
-77.2670130681
 21
-25.5092338224
 31
0.0
  0
SPLINE
  5
458
100
AcDbEntity
  8
RACCORDO
100
AcDbSpline
 62
253
  6
CONTINUOUS
 70
0
 71
3
 72
15
 73
11
 74
9
 42
0.0000001
 43
0.0000001
 44
0.0000000001
 12
-7.8253228131
 22
3.9126614066
 32
0.0
 13
0.0
 23
-8.748976878
 33
0.0
 40
0.0
 40
0.0
 40
0.0
 40
0.0
 40
0.134797238
 40
0.2571249027
 40
0.3702901604
 40
0.480108083
 40
0.5934363098
 40
0.7160688318
 40
0.8513605785
 40
1.0
 40
1.0
 40
1.0
 40
1.0
 10
-77.2670130681
 20
73.217662209
 30
0.0
 10
-77.6186237019
 20
73.3934675259
 30
0.0
 10
-78.3227274934
 20
73.6694131119
 30
0.0
 10
-79.4035393629
 20
73.8220822825
 30
0.0
 10
-80.4159707112
 20
73.6754435589
 30
0.0
 10
-81.3071675353
 20
73.2250954687
 30
0.0
 10
-82.0271529235
 20
72.496669989
 30
0.0
 10
-82.5485205983
 20
71.5341786872
 30
0.0
 10
-82.8609179607
 20
70.3817818527
 30
0.0
 10
-82.9238673176
 20
69.5513670573
 30
0.0
 10
-82.9238673176
 20
69.1178861035
 30
0.0
 11
-77.2670130681
 21
73.217662209
 31
0.0
 11
-78.3696258362
 21
73.6360914249
 31
0.0
 11
-79.4311163678
 21
73.7726769239
 31
0.0
 11
-80.4095875563
 21
73.6215048979
 31
0.0
 11
-81.2671840188
 21
73.1883140476
 31
0.0
 11
-81.9708832659
 21
72.4898216793
 31
0.0
 11
-82.4936616754
 21
71.552892296
 31
0.0
 11
-82.8154197362
 21
70.4137992017
 31
0.0
 11
-82.9238673176
 21
69.1178861035
 31
0.0
  0
SPLINE
  5
459
100
AcDbEntity
  8
RACCORDO
100
AcDbSpline
 62
253
  6
CONTINUOUS
 70
0
 71
3
 72
15
 73
11
 74
9
 42
0.0000001
 43
0.0000001
 44
0.0000000001
 12
0.0
 22
11.773517522
 32
0.0
 13
-10.5305542054
 23
5.2652771027
 33
0.0
 40
0.0
 40
0.0
 40
0.0
 40
0.0
 40
0.1196626159
 40
0.2467272286
 40
0.3784333401
 40
0.5116950876
 40
0.6433125689
 40
0.7702360769
 40
0.8898077373
 40
1.0
 40
1.0
 40
1.0
 40
1.0
 10
40.8198193901
 20
7.2460427497
 30
0.0
 10
40.8198193901
 20
7.7156593847
 30
0.0
 10
40.7399835792
 20
8.6849235902
 30
0.0
 10
40.4150448233
 20
10.1381033364
 30
0.0
 10
39.8928539966
 20
11.5894612992
 30
0.0
 10
39.1930332362
 20
12.9837680721
 30
0.0
 10
38.3418909667
 20
14.2688998267
 30
0.0
 10
37.3709401755
 20
15.396831102
 30
0.0
 10
36.3169734697
 20
16.3250417655
 30
0.0
 10
35.549760339
 20
16.8092755055
 30
0.0
 10
35.1629651406
 20
17.0026731047
 30
0.0
 11
40.8198193901
 21
7.2460427497
 31
0.0
 11
40.7113256365
 21
8.6507089593
 31
0.0
 11
40.3894955346
 21
10.1116790949
 31
0.0
 11
39.8666049023
 21
11.5715019809
 31
0.0
 11
39.1627937644
 21
12.9737444191
 31
0.0
 11
38.3051931193
 21
14.2643967855
 31
0.0
 11
37.3267700892
 21
15.3938784765
 31
0.0
 11
36.2653472941
 21
16.3186614088
 31
0.0
 11
35.1629651406
 21
17.0026731047
 31
0.0
  0
SPLINE
  5
45A
100
AcDbEntity
  8
0
100
AcDbSpline
 62
7
  6
CONTINUOUS
 70
0
 71
3
 72
11
 73
7
 74
5
 42
0.0000001
 43
0.0000001
 44
0.0000000001
 12
-1.7019854425
 22
-0.8479873023
 32
0.0
 13
0.0
 23
-1.8865811492
 33
0.0
 40
0.0
 40
0.0
 40
0.0
 40
0.0
 40
0.0974679906
 40
0.3626002256
 40
0.6605590301
 40
1.0
 40
1.0
 40
1.0
 40
1.0
 10
26.7501977585
 20
-59.9175086373
 30
0.0
 10
26.6949013915
 20
-59.9450591768
 30
0.0
 10
26.4975479706
 20
-60.0639626395
 30
0.0
 10
26.2160381653
 20
-60.3847523995
 30
0.0
 10
26.0103561735
 20
-60.9229968857
 30
0.0
 10
25.9705769851
 20
-61.3261106026
 30
0.0
 10
25.9705769851
 20
-61.5395715809
 30
0.0
 11
26.7501977585
 21
-59.9175086373
 31
0.0
 11
26.5918973287
 21
-60.0131144456
 31
0.0
 11
26.2547800216
 21
-60.3826349935
 31
0.0
 11
26.042859223
 21
-60.9032810957
 31
0.0
 11
25.9705769851
 21
-61.5395715809
 31
0.0
  0
SPLINE
  5
45B
100
AcDbEntity
  8
RACCORDO
100
AcDbSpline
 62
253
  6
CONTINUOUS
 70
0
 71
3
 72
15
 73
11
 74
9
 42
0.0000001
 43
0.0000001
 44
0.0000000001
 12
7.8253228131
 22
-3.9126614066
 32
0.0
 13
0.0
 23
8.748976878
 33
0.0
 40
0.0
 40
0.0
 40
0.0
 40
0.0
 40
0.134797238
 40
0.2571249027
 40
0.3702901604
 40
0.480108083
 40
0.5934363098
 40
0.7160688318
 40
0.8513605785
 40
1.0
 40
1.0
 40
1.0
 40
1.0
 10
35.1629651406
 20
-81.7242229267
 30
0.0
 10
35.5145757743
 20
-81.9000282436
 30
0.0
 10
36.2186795659
 20
-82.1759738296
 30
0.0
 10
37.2994914354
 20
-82.3286430002
 30
0.0
 10
38.3119227836
 20
-82.1820042766
 30
0.0
 10
39.2031196078
 20
-81.7316561864
 30
0.0
 10
39.923104996
 20
-81.0032307067
 30
0.0
 10
40.4444726708
 20
-80.0407394049
 30
0.0
 10
40.7568700332
 20
-78.8883425704
 30
0.0
 10
40.8198193901
 20
-78.057927775
 30
0.0
 10
40.8198193901
 20
-77.6244468212
 30
0.0
 11
35.1629651406
 21
-81.7242229267
 31
0.0
 11
36.2655779086
 21
-82.1426521426
 31
0.0
 11
37.3270684403
 21
-82.2792376416
 31
0.0
 11
38.3055396288
 21
-82.1280656156
 31
0.0
 11
39.1631360913
 21
-81.6948747653
 31
0.0
 11
39.8668353384
 21
-80.996382397
 31
0.0
 11
40.3896137479
 21
-80.0594530137
 31
0.0
 11
40.7113718087
 21
-78.9203599194
 31
0.0
 11
40.8198193901
 21
-77.6244468212
 31
0.0
  0
SPLINE
  5
45C
100
AcDbEntity
  8
0
100
AcDbSpline
 62
7
  6
CONTINUOUS
 70
0
 71
3
 72
16
 73
12
 74
10
 42
0.0000001
 43
0.0000001
 44
0.0000000001
 12
-5.2322532796
 22
-2.6068873639
 32
0.0
 13
0.0
 23
5.7997384459
 33
0.0
 40
0.0
 40
0.0
 40
0.0
 40
0.0
 40
0.0510483935
 40
0.1392654269
 40
0.2392157837
 40
0.3527060512
 40
0.477917
 40
0.6107087318
 40
0.7457033838
 40
0.8771927422
 40
1.0
 40
1.0
 40
1.0
 40
1.0
 10
-68.854245686
 20
-16.1390335756
 30
0.0
 10
-68.9432783941
 20
-16.1833927129
 30
0.0
 10
-69.2020621399
 20
-16.2732123625
 30
0.0
 10
-69.6758484697
 20
-16.2664187246
 30
0.0
 10
-70.231712996
 20
-16.0654885786
 30
0.0
 10
-70.7774756638
 20
-15.6943366026
 30
0.0
 10
-71.2825077958
 20
-15.1781246872
 30
0.0
 10
-71.715905411
 20
-14.550035788
 30
0.0
 10
-72.0499300014
 20
-13.8504977358
 30
0.0
 10
-72.2628884774
 20
-13.1253794652
 30
0.0
 10
-72.3172655998
 20
-12.6330669465
 30
0.0
 10
-72.3172655998
 20
-12.3956502884
 30
0.0
 11
-68.854245686
 21
-16.1390335756
 31
0.0
 11
-69.1352850844
 21
-16.2366405461
 31
0.0
 11
-69.6469071505
 21
-16.2403784243
 31
0.0
 11
-70.1959452562
 21
-16.0543866716
 31
0.0
 11
-70.7449833619
 21
-15.6913403186
 31
0.0
 11
-71.256605428
 21
-15.1759803743
 31
0.0
 11
-71.6959452562
 21
-14.5434277673
 31
0.0
 11
-72.0330625633
 21
-13.8367899123
 31
0.0
 11
-72.2449833619
 21
-13.1042230115
 31
0.0
 11
-72.3172655998
 21
-12.3956502884
 31
0.0
  0
SPLINE
  5
45D
100
AcDbEntity
  8
RACCORDO
100
AcDbSpline
 62
253
  6
CONTINUOUS
 70
0
 71
3
 72
15
 73
11
 74
9
 42
0.0000001
 43
0.0000001
 44
0.0000000001
 12
0.0000000021
 22
14.7168955051
 32
0.0
 13
-13.1631915088
 23
6.5815957496
 33
0.0
 40
0.0
 40
0.0
 40
0.0
 40
0.0
 40
0.1197246031
 40
0.2467692267
 40
0.3784447122
 40
0.5116701288
 40
0.6432606068
 40
0.7701681397
 40
0.889732898
 40
1.0
 40
1.0
 40
1.0
 40
1.0
 10
43.6482465148
 20
7.2460427497
 30
0.0
 10
43.6482465149
 20
7.8333675743
 30
0.0
 10
43.5483709084
 20
9.0451537169
 30
0.0
 10
43.1421125661
 20
10.8616624506
 30
0.0
 10
42.4894631873
 20
12.6754360049
 30
0.0
 10
41.6149114112
 20
14.4179118127
 30
0.0
 10
40.5512515958
 20
16.0240319837
 30
0.0
 10
39.3378282588
 20
17.4338505148
 30
0.0
 10
38.0202586113
 20
18.5943665938
 30
0.0
 10
37.0610010297
 20
19.1999195302
 30
0.0
 10
36.5771787029
 20
19.4418306935
 30
0.0
 11
43.6482465148
 21
7.2460427497
 31
0.0
 11
43.5124874781
 21
9.0027793636
 31
0.0
 11
43.1101729538
 21
10.8286846933
 31
0.0
 11
42.4566621388
 21
12.6530210484
 31
0.0
 11
41.5771493274
 21
14.4053516776
 31
0.0
 11
40.5054275558
 21
16.0183751857
 31
0.0
 11
39.2826484576
 21
17.4301323061
 31
0.0
 11
37.9560396077
 21
18.5861507893
 31
0.0
 11
36.5771787029
 21
19.4418306935
 31
0.0
  0
SPLINE
  5
45E
100
AcDbEntity
  8
RACCORDO
100
AcDbSpline
 62
253
  6
CONTINUOUS
 70
0
 71
3
 72
11
 73
7
 74
5
 42
0.0000001
 43
0.0000001
 44
0.0000000001
 12
-4.1453915125
 22
2.0726957571
 32
0.0
 13
-4.163958433
 23
-2.0823555524
 33
0.0
 40
0.0
 40
0.0
 40
0.0
 40
0.0
 40
0.3182235904
 40
0.6068129239
 40
0.8737758372
 40
1.0
 40
1.0
 40
1.0
 40
1.0
 10
-75.8527995057
 20
75.6568197978
 30
0.0
 10
-76.2925199626
 20
75.8766800263
 30
0.0
 10
-77.1728085622
 20
76.2216133049
 30
0.0
 10
-78.5238719283
 20
76.4123343395
 30
0.0
 10
-79.5827674198
 20
76.258877963
 30
0.0
 10
-80.149542437
 20
76.0280610001
 30
0.0
 10
-80.3247398261
 20
75.9404464714
 30
0.0
 11
-75.8527995057
 21
75.6568197978
 31
0.0
 11
-77.23174555
 21
76.180022636
 31
0.0
 11
-78.558346792
 21
76.3505906066
 31
0.0
 11
-79.7811165153
 21
76.1615914492
 31
0.0
 11
-80.3247398261
 21
75.9404464714
 31
0.0
  0
SPLINE
  5
45F
100
AcDbEntity
  8
0
100
AcDbSpline
 62
7
  6
CONTINUOUS
 70
0
 71
3
 72
16
 73
12
 74
10
 42
0.0000001
 43
0.0000001
 44
0.0000000001
 12
-5.2322532796
 22
-2.6068873639
 32
0.0
 13
-0.0
 23
5.7997384459
 33
0.0
 40
0.0
 40
0.0
 40
0.0
 40
0.0
 40
0.0510483935
 40
0.1392654269
 40
0.2392157837
 40
0.3527060512
 40
0.477917
 40
0.6107087318
 40
0.7457033838
 40
0.8771927422
 40
1.0
 40
1.0
 40
1.0
 40
1.0
 10
29.4335968989
 20
2.2670266271
 30
0.0
 10
29.3445641908
 20
2.2226674898
 30
0.0
 10
29.0857804451
 20
2.1328478402
 30
0.0
 10
28.6119941153
 20
2.1396414781
 30
0.0
 10
28.056129589
 20
2.3405716241
 30
0.0
 10
27.5103669211
 20
2.7117236001
 30
0.0
 10
27.0053347891
 20
3.2279355155
 30
0.0
 10
26.5719371739
 20
3.8560244147
 30
0.0
 10
26.2379125835
 20
4.5555624669
 30
0.0
 10
26.0249541075
 20
5.2806807375
 30
0.0
 10
25.9705769851
 20
5.7729932562
 30
0.0
 10
25.9705769851
 20
6.0104099143
 30
0.0
 11
29.4335968989
 21
2.2670266271
 31
0.0
 11
29.1525575005
 21
2.1694196566
 31
0.0
 11
28.6409354344
 21
2.1656817785
 31
0.0
 11
28.0918973287
 21
2.3516735312
 31
0.0
 11
27.542859223
 21
2.7147198841
 31
0.0
 11
27.0312371569
 21
3.2300798284
 31
0.0
 11
26.5918973287
 21
3.8626324354
 31
0.0
 11
26.2547800216
 21
4.5692702904
 31
0.0
 11
26.042859223
 21
5.3018371912
 31
0.0
 11
25.9705769851
 21
6.0104099143
 31
0.0
  0
SPLINE
  5
460
100
AcDbEntity
  8
0
100
AcDbSpline
 62
7
  6
CONTINUOUS
 70
0
 71
3
 72
11
 73
7
 74
5
 42
0.0000001
 43
0.0000001
 44
0.0000000001
 12
-1.7019854425
 22
-0.8479873023
 32
0.0
 13
0.0
 23
-1.8865811492
 33
0.0
 40
0.0
 40
0.0
 40
0.0
 40
0.0
 40
0.0974679906
 40
0.3626002256
 40
0.6605590301
 40
1.0
 40
1.0
 40
1.0
 40
1.0
 10
-71.5376448264
 20
56.7763941503
 30
0.0
 10
-71.5929411935
 20
56.7488436109
 30
0.0
 10
-71.7902946143
 20
56.6299401482
 30
0.0
 10
-72.0718044196
 20
56.3091503882
 30
0.0
 10
-72.2774864114
 20
55.7709059019
 30
0.0
 10
-72.3172655998
 20
55.3677921851
 30
0.0
 10
-72.3172655998
 20
55.1543312068
 30
0.0
 11
-71.5376448264
 21
56.7763941503
 31
0.0
 11
-71.6959452562
 21
56.6807883421
 31
0.0
 11
-72.0330625633
 21
56.3112677942
 31
0.0
 11
-72.2449833619
 21
55.7906216919
 31
0.0
 11
-72.3172655998
 21
55.1543312068
 31
0.0
  0
SPLINE
  5
461
100
AcDbEntity
  8
RACCORDO
100
AcDbSpline
 62
253
  6
CONTINUOUS
 70
0
 71
3
 72
12
 73
8
 74
6
 42
0.0000001
 43
0.0000001
 44
0.0000000001
 12
5.6615075028
 22
2.8312704731
 32
0.0
 13
-0.0000000015
 23
6.3015359267
 33
0.0
 40
0.0
 40
0.0
 40
0.0
 40
0.0
 40
0.0976988928
 40
0.2943330656
 40
0.5071177877
 40
0.7418794761
 40
1.0
 40
1.0
 40
1.0
 40
1.0
 10
41.0491214487
 20
-83.0327924138
 30
0.0
 10
41.233495787
 20
-82.9405884169
 30
0.0
 10
41.7664190698
 20
-82.6177138147
 30
0.0
 10
42.5270260039
 20
-81.8483296462
 30
0.0
 10
43.1787893056
 20
-80.6455401454
 30
0.0
 10
43.5694718555
 20
-79.2049142142
 30
0.0
 10
43.6482465149
 20
-78.1666320727
 30
0.0
 10
43.6482465148
 20
-77.6244468212
 30
0.0
 11
41.0491214487
 21
-83.0327924138
 31
0.0
 11
41.5772080783
 21
-82.7126159824
 31
0.0
 11
42.4567076765
 21
-81.839780038
 31
0.0
 11
43.1102050619
 21
-80.6689363014
 31
0.0
 11
43.5125044058
 21
-79.2453285882
 31
0.0
 11
43.6482465148
 21
-77.6244468212
 31
0.0
  0
SPLINE
  5
462
100
AcDbEntity
  8
RACCORDO
100
AcDbSpline
 62
253
  6
CONTINUOUS
 70
0
 71
3
 72
11
 73
7
 74
5
 42
0.0000001
 43
0.0000001
 44
0.0000000001
 12
0.0
 22
-1.2579152594
 32
0.0
 13
1.135046876
 23
-0.5650889087
 33
0.0
 40
0.0
 40
0.0
 40
0.0
 40
0.0
 40
0.339388487
 40
0.6373012225
 40
0.902392464
 40
1.0
 40
1.0
 40
1.0
 40
1.0
 10
-77.2670130681
 20
-25.5092338224
 30
0.0
 10
-77.2670130681
 20
-25.6515411413
 30
0.0
 10
-77.2404946029
 20
-25.9202841457
 30
0.0
 10
-77.1033693978
 20
-26.2791117488
 30
0.0
 10
-76.9156620956
 20
-26.4930268661
 30
0.0
 10
-76.7840125734
 20
-26.5723068726
 30
0.0
 10
-76.7470828638
 20
-26.590692518
 30
0.0
 11
-77.2670130681
 21
-25.5092338224
 31
0.0
 11
-77.2188249095
 21
-25.9334274792
 31
0.0
 11
-77.0775443771
 21
-26.2805248807
 31
0.0
 11
-76.8527995057
 21
-26.5268719126
 31
0.0
 11
-76.7470828638
 21
-26.590692518
 31
0.0
  0
SPLINE
  5
463
100
AcDbEntity
  8
RACCORDO
100
AcDbSpline
 62
253
  6
CONTINUOUS
 70
0
 71
3
 72
11
 73
7
 74
5
 42
0.0000001
 43
0.0000001
 44
0.0000000001
 12
0.0
 22
-1.2579152591
 32
0.0
 13
1.1350468779
 23
-0.5650889082
 33
0.0
 40
0.0
 40
0.0
 40
0.0
 40
0.0
 40
0.3393884541
 40
0.6373011875
 40
0.9023924551
 40
1.0
 40
1.0
 40
1.0
 40
1.0
 10
35.1629651406
 20
-81.7242229267
 30
0.0
 10
35.1629651406
 20
-81.8665302318
 30
0.0
 10
35.1894836019
 20
-82.135273221
 30
0.0
 10
35.3266087928
 20
-82.4941008243
 30
0.0
 10
35.5143160973
 20
-82.7080159601
 30
0.0
 10
35.645965632
 20
-82.7872959751
 30
0.0
 10
35.682895345
 20
-82.8056816221
 30
0.0
 11
35.1629651406
 21
-81.7242229267
 31
0.0
 11
35.2111532892
 21
-82.1484165429
 31
0.0
 11
35.3524338081
 21
-82.495513947
 31
0.0
 11
35.5771786938
 21
-82.7418610103
 31
0.0
 11
35.682895345
 21
-82.8056816221
 31
0.0
  0
SPLINE
  5
464
100
AcDbEntity
  8
RACCORDO
100
AcDbSpline
 62
253
  6
CONTINUOUS
 70
0
 71
3
 72
13
 73
9
 74
7
 42
0.0000001
 43
0.0000001
 44
0.0000000001
 12
2.6028004938
 22
-1.3014002469
 32
0.0
 13
2.6028004938
 23
1.3014002469
 33
0.0
 40
0.0
 40
0.0
 40
0.0
 40
0.0
 40
0.1524570658
 40
0.32173371
 40
0.5
 40
0.67826629
 40
0.8475429342
 40
1.0
 40
1.0
 40
1.0
 40
1.0
 10
40.8198193901
 20
-77.6244468212
 30
0.0
 10
40.9520911655
 20
-77.6905827089
 30
0.0
 10
41.2466772284
 20
-77.7997069319
 30
0.0
 10
41.7235625446
 20
-77.8956777042
 30
0.0
 10
42.2340329524
 20
-77.92845137
 30
0.0
 10
42.7445033603
 20
-77.8956777042
 30
0.0
 10
43.2213886765
 20
-77.7997069319
 30
0.0
 10
43.5159747394
 20
-77.6905827089
 30
0.0
 10
43.6482465148
 20
-77.6244468212
 30
0.0
 11
40.8198193901
 21
-77.6244468212
 31
0.0
 11
41.2340329524
 21
-77.7833654438
 31
0.0
 11
41.7163948622
 21
-77.8832658663
 31
0.0
 11
42.2340329524
 21
-77.91734004
 31
0.0
 11
42.7516710427
 21
-77.8832658663
 31
0.0
 11
43.2340329525
 21
-77.7833654438
 31
0.0
 11
43.6482465148
 21
-77.6244468212
 31
0.0
  0
SPLINE
  5
465
100
AcDbEntity
  8
RACCORDO
100
AcDbSpline
 62
253
  6
CONTINUOUS
 70
0
 71
3
 72
13
 73
9
 74
7
 42
0.0000001
 43
0.0000001
 44
0.0000000001
 12
2.6028004929
 22
-1.3014002464
 32
0.0
 13
2.6028004929
 23
1.3014002464
 33
0.0
 40
0.0
 40
0.0
 40
0.0
 40
0.0
 40
0.152457049
 40
0.3217336879
 40
0.4999999939
 40
0.6782663025
 40
0.8475429471
 40
1.0
 40
1.0
 40
1.0
 40
1.0
 10
40.8198193901
 20
7.2460427497
 30
0.0
 10
40.9520911509
 20
7.1799068693
 30
0.0
 10
41.2466771919
 20
7.0707826506
 30
0.0
 10
41.7235625006
 20
6.9748118715
 30
0.0
 10
42.2340329366
 20
6.9420381989
 30
0.0
 10
42.7445033786
 20
6.9748118673
 30
0.0
 10
43.2213886989
 20
7.0707826475
 30
0.0
 10
43.5159747507
 20
7.1799068646
 30
0.0
 10
43.6482465148
 20
7.2460427467
 30
0.0
 11
40.8198193901
 21
7.2460427497
 31
0.0
 11
41.2340329052
 21
7.0871241407
 31
0.0
 11
41.7163947981
 21
6.9872237132
 31
0.0
 11
42.2340329341
 21
6.9531495309
 31
0.0
 11
42.751671078
 21
6.9872237093
 31
0.0
 11
43.2340329878
 21
7.0871241373
 31
0.0
 11
43.6482465148
 21
7.2460427467
 31
0.0
  0
SPLINE
  5
466
100
AcDbEntity
  8
RACCORDO
100
AcDbSpline
 62
253
  6
CONTINUOUS
 70
0
 71
3
 72
13
 73
9
 74
7
 42
0.0000001
 43
0.0000001
 44
0.0000000001
 12
-0.0
 22
2.9415663124
 32
0.0
 13
2.6310168939
 23
1.315508447
 33
0.0
 40
0.0
 40
0.0
 40
0.0
 40
0.0
 40
0.1614219316
 40
0.3342559043
 40
0.511697351
 40
0.6862432064
 40
0.8508246293
 40
1.0
 40
1.0
 40
1.0
 40
1.0
 10
35.1629651406
 20
17.0026731047
 30
0.0
 10
35.1629651406
 20
17.1609508767
 30
0.0
 10
35.1992153629
 20
17.4891585906
 30
0.0
 10
35.3411934154
 20
17.9725738099
 30
0.0
 10
35.5638547201
 20
18.4389209839
 30
0.0
 10
35.8528651464
 20
18.8576886078
 30
0.0
 10
36.1892852481
 20
19.2016878888
 30
0.0
 10
36.4463510627
 20
19.3764168734
 30
0.0
 10
36.5771787029
 20
19.4418306935
 30
0.0
 11
35.1629651406
 21
17.0026731047
 31
0.0
 11
35.2111532992
 21
17.4750549201
 31
0.0
 11
35.3524338315
 21
17.9634328539
 31
0.0
 11
35.5771787029
 21
18.4345247573
 31
0.0
 11
35.8700719218
 21
18.8562264953
 31
0.0
 11
36.2111532992
 21
19.1997997915
 31
0.0
 11
36.5771787029
 21
19.4418306935
 31
0.0
  0
SPLINE
  5
467
100
AcDbEntity
  8
RACCORDO
100
AcDbSpline
 62
253
  6
CONTINUOUS
 70
0
 71
3
 72
13
 73
9
 74
7
 42
0.0000001
 43
0.0000001
 44
0.0000000001
 12
-0.0
 22
2.9415663138
 32
0.0
 13
2.6310168952
 23
1.3155084476
 33
0.0
 40
0.0
 40
0.0
 40
0.0
 40
0.0
 40
0.1614219141
 40
0.3342558818
 40
0.5116973446
 40
0.686243218
 40
0.8508246411
 40
1.0
 40
1.0
 40
1.0
 40
1.0
 10
-77.2670130681
 20
73.217662209
 30
0.0
 10
-77.2670130681
 20
73.375939964
 30
0.0
 10
-77.230762852
 20
73.7041476559
 30
0.0
 10
-77.0887848105
 20
74.1875628721
 30
0.0
 10
-76.8661234991
 20
74.6539100754
 30
0.0
 10
-76.5771130521
 20
75.0726777267
 30
0.0
 10
-76.2406929419
 20
75.4166770094
 30
0.0
 10
-75.9836271332
 20
75.5914059816
 30
0.0
 10
-75.8527995033
 20
75.6568197966
 30
0.0
 11
-77.2670130681
 21
73.217662209
 31
0.0
 11
-77.2188249195
 21
73.6900439738
 31
0.0
 11
-77.0775444006
 21
74.1784218968
 31
0.0
 11
-76.8527995149
 21
74.6495138458
 31
0.0
 11
-76.5599062645
 21
75.0712156267
 31
0.0
 11
-76.2188248816
 21
75.4147889189
 31
0.0
 11
-75.8527995033
 21
75.6568197966
 31
0.0
  0
SPLINE
  5
468
100
AcDbEntity
  8
RACCORDO
100
AcDbSpline
 62
253
  6
CONTINUOUS
 70
0
 71
3
 72
10
 73
6
 74
4
 42
0.0000001
 43
0.0000001
 44
0.0000000001
 12
-0.8588211978
 22
0.4294105989
 32
0.0
 13
0.0
 23
0.9645276564
 33
0.0
 40
0.0
 40
0.0
 40
0.0
 40
0.0
 40
0.3950875622
 40
0.7212632404
 40
1.0
 40
1.0
 40
1.0
 40
1.0
 10
-82.9238673176
 20
69.1178861035
 30
0.0
 10
-83.0369705087
 20
69.1744376991
 30
0.0
 10
-83.2350231281
 20
69.297476106
 30
0.0
 10
-83.4530517558
 20
69.5408915215
 30
0.0
 10
-83.5096537552
 20
69.7353764469
 30
0.0
 10
-83.5096537552
 20
69.8249928847
 30
0.0
 11
-82.9238673176
 21
69.1178861035
 31
0.0
 11
-83.2417045628
 21
69.3249928847
 31
0.0
 11
-83.4415054078
 21
69.5661738396
 31
0.0
 11
-83.5096537552
 21
69.8249928847
 31
0.0
  0
SPLINE
  5
469
100
AcDbEntity
  8
RACCORDO
100
AcDbSpline
 62
253
  6
CONTINUOUS
 70
0
 71
3
 72
10
 73
6
 74
4
 42
0.0000001
 43
0.0000001
 44
0.0000000001
 12
-0.8588211976
 22
0.4294105988
 32
0.0
 13
0.000000002
 23
0.9645276561
 33
0.0
 40
0.0
 40
0.0
 40
0.0
 40
0.0
 40
0.3950875251
 40
0.7212632032
 40
1.0
 40
1.0
 40
1.0
 40
1.0
 10
-82.9238673176
 20
-15.7526034674
 30
0.0
 10
-83.0369704981
 20
-15.6960518771
 30
0.0
 10
-83.2350231075
 20
-15.5730134781
 30
0.0
 10
-83.4530517441
 20
-15.3295980726
 30
0.0
 10
-83.5096537554
 20
-15.1351131359
 30
0.0
 10
-83.5096537552
 20
-15.0454966862
 30
0.0
 11
-82.9238673176
 21
-15.7526034674
 31
0.0
 11
-83.2417045355
 21
-15.5454967098
 31
0.0
 11
-83.4415053906
 21
-15.3043157634
 31
0.0
 11
-83.5096537552
 21
-15.0454966862
 31
0.0
  0
SPLINE
  5
46A
100
AcDbEntity
  8
DRAFT
100
AcDbSpline
 62
7
  6
CONTINUOUS
 70
0
 71
3
 72
9
 73
5
 74
3
 42
0.0000001
 43
0.0000001
 44
0.0000000001
 12
2.4871846429
 22
-0.6737042519
 32
0.0
 13
2.5770337301
 23
0.0861940441
 33
0.0
 40
0.0
 40
0.0
 40
0.0
 40
0.0
 40
0.1308817668
 40
1.0
 40
1.0
 40
1.0
 40
1.0
 10
59.7499491286
 20
12.8184292722
 30
0.0
 10
59.8584581688
 20
12.7890374046
 30
0.0
 10
60.6914103809
 20
12.5781438546
 30
0.0
 10
61.5529397724
 20
12.4764722701
 30
0.0
 10
62.2995221065
 20
12.5014432085
 30
0.0
 11
59.7499491286
 21
12.8184292722
 31
0.0
 11
60.0769842114
 21
12.73570414
 31
0.0
 11
62.2995221065
 21
12.5014432085
 31
0.0
  0
SPLINE
  5
46B
100
AcDbEntity
  8
ASSI
100
AcDbSpline
 62
7
  6
CONTINUOUS
 70
0
 71
3
 72
9
 73
5
 74
3
 42
0.0000001
 43
0.0000001
 44
0.0000000001
 12
-0.0689111001
 22
-0.739211345
 32
0.0
 13
0.0998168557
 23
-0.734650533
 33
0.0
 40
0.0
 40
0.0
 40
0.0
 40
0.0
 40
0.8684070417
 40
1.0
 40
1.0
 40
1.0
 40
1.0
 10
75.470375419
 20
-7.7827057188
 30
0.0
 10
75.4504277908
 20
-7.9966844979
 30
0.0
 10
75.4567343076
 20
-8.2451671207
 30
0.0
 10
75.4869359409
 20
-8.4905087238
 30
0.0
 10
75.4913143393
 20
-8.5227336695
 30
0.0
 11
75.470375419
 21
-7.7827057188
 31
0.0
 11
75.4794010811
 21
-8.425883877
 31
0.0
 11
75.4913143393
 21
-8.5227336695
 31
0.0
  0
SPLINE
  5
46C
100
AcDbEntity
  8
ASSI
100
AcDbSpline
 62
7
  6
CONTINUOUS
 70
0
 71
3
 72
8
 73
4
 74
2
 42
0.0000001
 43
0.0000001
 44
0.0000000001
 12
0.233152846
 22
-0.039531
 32
0.0
 13
0.2248212124
 23
-0.0776245462
 33
0.0
 40
0.0
 40
0.0
 40
0.0
 40
0.0
 40
1.0
 40
1.0
 40
1.0
 40
1.0
 10
77.1033201254
 20
-6.7846246415
 30
0.0
 10
77.1810377408
 20
-6.7978016415
 30
0.0
 10
77.2576663497
 20
-6.8181733854
 30
0.0
 10
77.3326067539
 20
-6.8440482341
 30
0.0
 11
77.1033201254
 21
-6.7846246415
 31
0.0
 11
77.3326067539
 21
-6.8440482341
 31
0.0
  0
SPLINE
  5
46D
100
AcDbEntity
  8
ASSI
100
AcDbSpline
 62
7
  6
CONTINUOUS
 70
0
 71
3
 72
8
 73
4
 74
2
 42
0.0000001
 43
0.0000001
 44
0.0000000001
 12
0.2346811195
 22
-0.0810288994
 32
0.0
 13
0.2215993108
 23
-0.1112348744
 33
0.0
 40
0.0
 40
0.0
 40
0.0
 40
0.0
 40
1.0
 40
1.0
 40
1.0
 40
1.0
 10
77.3326067539
 20
-6.8440482341
 30
0.0
 10
77.4108337937
 20
-6.8710578672
 30
0.0
 10
77.4872213036
 20
-6.9040638854
 30
0.0
 10
77.5610877405
 20
-6.9411421769
 30
0.0
 11
77.3326067539
 21
-6.8440482341
 31
0.0
 11
77.5610877405
 21
-6.9411421769
 31
0.0
  0
SPLINE
  5
46E
100
AcDbEntity
  8
RACCORDO
100
AcDbSpline
 62
7
  6
CONTINUOUS
 70
0
 71
3
 72
11
 73
7
 74
5
 42
0.0000001
 43
0.0000001
 44
0.0000000001
 12
-9.0975420561
 22
4.3032359825
 32
0.0
 13
-9.1260520966
 23
-4.3188846502
 33
0.0
 40
0.0
 40
0.0
 40
0.0
 40
0.0
 40
0.2971888146
 40
0.6011875378
 40
0.8814659335
 40
1.0
 40
1.0
 40
1.0
 40
1.0
 10
-49.8018232591
 20
70.8599204767
 30
0.0
 10
-50.7030525056
 20
71.2862116769
 30
0.0
 10
-52.605671109
 20
71.9944055523
 30
0.0
 10
-55.5662272409
 20
72.3894178295
 30
0.0
 10
-57.9306409526
 20
72.0339057581
 30
0.0
 10
-59.1820563992
 20
71.5407571738
 30
0.0
 10
-59.542639088
 20
71.370112187
 30
0.0
 11
-49.8018232591
 21
70.8599204767
 31
0.0
 11
-52.6126063198
 21
71.8791588395
 31
0.0
 11
-55.6467738987
 21
72.2491573939
 31
0.0
 11
-58.4301960455
 21
71.8081591662
 31
0.0
 11
-59.542639088
 21
71.370112187
 31
0.0
  0
SPLINE
  5
46F
100
AcDbEntity
  8
RACCORDO
100
AcDbSpline
 62
7
  6
CONTINUOUS
 70
0
 71
3
 72
12
 73
8
 74
6
 42
0.0000001
 43
0.0000001
 44
0.0000000001
 12
12.2197448031
 22
6.4420736251
 32
0.0
 13
0.2117260124
 23
13.7625943935
 33
0.0
 40
0.0
 40
0.0
 40
0.0
 40
0.0
 40
0.0836823125
 40
0.2887785505
 40
0.5114997882
 40
0.7570756966
 40
1.0
 40
1.0
 40
1.0
 40
1.0
 10
47.0588539665
 20
-65.0665675759
 30
0.0
 10
47.3997128011
 20
-64.8868717031
 30
0.0
 10
48.5358804185
 20
-64.1909926773
 30
0.0
 10
50.2388733438
 20
-62.5270411074
 30
0.0
 10
51.7733968537
 20
-59.806535999
 30
0.0
 10
52.6654353883
 20
-56.6438299365
 30
0.0
 10
52.8643966928
 20
-54.4005667827
 30
0.0
 10
52.8815411575
 20
-53.2861438972
 30
0.0
 11
47.0588539665
 21
-65.0665675759
 31
0.0
 11
48.0435201654
 21
-64.4631169181
 31
0.0
 11
50.0768920779
 21
-62.5070050201
 31
0.0
 11
51.6127887386
 21
-59.8557705281
 31
0.0
 11
52.5642020561
 21
-56.6141033585
 31
0.0
 11
52.8815411575
 21
-53.2861438972
 31
0.0
  0
SPLINE
  5
470
100
AcDbEntity
  8
RACCORDO
100
AcDbSpline
 62
7
  6
CONTINUOUS
 70
0
 71
3
 72
14
 73
10
 74
8
 42
0.0000001
 43
0.0000001
 44
0.0000000001
 12
0.0
 22
31.9266435836
 32
0.0
 13
-28.5560581387
 23
14.2780290692
 33
0.0
 40
0.0
 40
0.0
 40
0.0
 40
0.0
 40
0.1382327044
 40
0.2845087394
 40
0.435068728
 40
0.5857872831
 40
0.7325232767
 40
0.8715420054
 40
1.0
 40
1.0
 40
1.0
 40
1.0
 10
52.8842603582
 20
0.7624753681
 30
0.0
 10
52.8842603582
 20
2.2335774627
 30
0.0
 10
52.5986846113
 20
5.2651290409
 30
0.0
 10
51.4553373868
 20
9.7674666168
 30
0.0
 10
49.6428774686
 20
14.1886915541
 30
0.0
 10
47.2468576056
 20
18.3276978179
 30
0.0
 10
44.3727602987
 20
21.9981361153
 30
0.0
 10
41.1468548139
 20
25.0282000721
 30
0.0
 10
38.7421183657
 20
26.5926323236
 30
0.0
 10
37.5193670453
 20
27.2040079838
 30
0.0
 11
52.8842603582
 21
0.7624753681
 31
0.0
 11
52.4976717226
 21
5.1588172089
 31
0.0
 11
51.3641138955
 21
9.6892594775
 31
0.0
 11
49.5458283235
 21
14.1389657321
 31
0.0
 11
47.1311113637
 21
18.3011629134
 31
0.0
 11
44.2312814201
 21
21.9805953059
 31
0.0
 11
40.9777286636
 21
24.9995026375
 31
0.0
 11
37.5193670453
 21
27.2040079838
 31
0.0
  0
SPLINE
  5
471
100
AcDbEntity
  8
DRAFT
100
AcDbSpline
 62
7
  6
CONTINUOUS
 70
0
 71
3
 72
10
 73
6
 74
4
 42
0.0000001
 43
0.0000001
 44
0.0000000001
 12
4.4809064165
 22
-0.1777201192
 32
0.0
 13
3.4666496968
 23
2.8341137896
 33
0.0
 40
0.0
 40
0.0
 40
0.0
 40
0.0
 40
0.4245036994
 40
0.9224983949
 40
1.0
 40
1.0
 40
1.0
 40
1.0
 10
60.5115541665
 20
13.193683366
 30
0.0
 10
61.1456079501
 20
13.16853575
 30
0.0
 10
62.530895907
 20
13.290774174
 30
0.0
 10
63.9136991618
 20
13.9337443533
 30
0.0
 10
64.5944500709
 20
14.4581500294
 30
0.0
 10
64.6840070428
 20
14.5313661519
 30
0.0
 11
60.5115541665
 21
13.193683366
 31
0.0
 11
62.3973169844
 21
13.3807511227
 31
0.0
 11
64.4090112886
 21
14.3197072614
 31
0.0
 11
64.6840070428
 21
14.5313661519
 31
0.0
  0
SPLINE
  5
472
100
AcDbEntity
  8
DRAFT
100
AcDbSpline
 62
7
  6
CONTINUOUS
 70
0
 71
3
 72
9
 73
5
 74
3
 42
0.0000001
 43
0.0000001
 44
0.0000000001
 12
0.761014333
 22
-0.1924549624
 32
0.0
 13
0.7817072873
 23
-0.0756511036
 33
0.0
 40
0.0
 40
0.0
 40
0.0
 40
0.0
 40
0.4979137042
 40
1.0
 40
1.0
 40
1.0
 40
1.0
 10
57.9873923065
 20
-17.4155852126
 30
0.0
 10
58.113698795
 20
-17.4475272003
 30
0.0
 10
58.3696102816
 20
-17.5029260127
 30
0.0
 10
58.629204419
 20
-17.5389051443
 30
0.0
 10
58.7600325911
 20
-17.5515662718
 30
0.0
 11
57.9873923065
 21
-17.4155852126
 31
0.0
 11
58.3694554631
 21
-17.4978803666
 31
0.0
 11
58.7600325911
 21
-17.5515662718
 31
0.0
  0
SPLINE
  5
473
100
AcDbEntity
  8
DRAFT
100
AcDbSpline
 62
7
  6
CONTINUOUS
 70
0
 71
3
 72
9
 73
5
 74
3
 42
0.0000001
 43
0.0000001
 44
0.0000000001
 12
1.4585213249
 22
-1.2097486998
 32
0.0
 13
1.6194350991
 23
-0.9802017731
 33
0.0
 40
0.0
 40
0.0
 40
0.0
 40
0.0
 40
0.0292157306
 40
1.0
 40
1.0
 40
1.0
 40
1.0
 10
54.362535003
 20
-17.9919060116
 30
0.0
 10
54.376738925
 20
-18.0036872422
 30
0.0
 10
54.8637053045
 20
-18.4060092313
 30
0.0
 10
55.377839423
 20
-18.7763622915
 30
0.0
 10
55.9018801295
 20
-19.0935504455
 30
0.0
 11
54.362535003
 21
-17.9919060116
 31
0.0
 11
54.4052162713
 21
-18.0271682166
 31
0.0
 11
55.9018801295
 21
-19.0935504455
 31
0.0
  0
SPLINE
  5
474
100
AcDbEntity
  8
RACCORDO
100
AcDbSpline
 62
7
  6
CONTINUOUS
 70
0
 71
3
 72
9
 73
5
 74
3
 42
0.0000001
 43
0.0000001
 44
0.0000000001
 12
0.4688662864
 22
-0.099730026
 32
0.0
 13
0.3198962065
 23
-0.3561797431
 33
0.0
 40
0.0
 40
0.0
 40
0.0
 40
0.0
 40
0.4821039914
 40
1.0
 40
1.0
 40
1.0
 40
1.0
 10
80.5128544995
 20
31.7002634515
 30
0.0
 10
80.5882019355
 20
31.6842367036
 30
0.0
 10
80.7388641879
 20
31.6237558391
 30
0.0
 10
80.861786426
 20
31.5199712558
 30
0.0
 10
80.9170107489
 20
31.4584832334
 30
0.0
 11
80.5128544995
 21
31.7002634515
 31
0.0
 11
80.7270242297
 21
31.6158557365
 31
0.0
 11
80.9170107489
 21
31.4584832334
 31
0.0
  0
SPLINE
  5
475
100
AcDbEntity
  8
RACCORDO
100
AcDbSpline
 62
7
  6
CONTINUOUS
 70
0
 71
3
 72
10
 73
6
 74
4
 42
0.0000001
 43
0.0000001
 44
0.0000000001
 12
0.4015338352
 22
-0.4470769436
 32
0.0
 13
0.0501893191
 23
-0.5983963984
 33
0.0
 40
0.0
 40
0.0
 40
0.0
 40
0.0
 40
0.2049393559
 40
0.8111470754
 40
1.0
 40
1.0
 40
1.0
 40
1.0
 10
80.9170107489
 20
31.4584832334
 30
0.0
 10
80.9444407774
 20
31.4279420131
 30
0.0
 10
81.0447702088
 20
31.2995038555
 30
0.0
 10
81.1259022616
 20
31.1134649178
 30
0.0
 10
81.1498107863
 20
30.9556665661
 30
0.0
 10
81.1529702528
 20
30.9179969294
 30
0.0
 11
80.9170107489
 21
31.4584832334
 31
0.0
 11
80.992934484
 21
31.3616071042
 31
0.0
 11
81.1361621515
 21
31.03007332
 31
0.0
 11
81.1529702528
 21
30.9179969294
 31
0.0
  0
SPLINE
  5
476
100
AcDbEntity
  8
RACCORDO
100
AcDbSpline
 62
7
  6
CONTINUOUS
 70
0
 71
3
 72
10
 73
6
 74
4
 42
0.0000001
 43
0.0000001
 44
0.0000000001
 12
0.0566876068
 22
-0.6758740765
 32
0.0
 13
-0.5339376889
 23
-0.4199497545
 33
0.0
 40
0.0
 40
0.0
 40
0.0
 40
0.0
 40
0.3230816536
 40
0.7554829194
 40
1.0
 40
1.0
 40
1.0
 40
1.0
 10
81.1529702528
 20
30.9179969294
 30
0.0
 10
81.1590751614
 20
30.8452094247
 30
0.0
 10
81.1513531779
 20
30.6733698591
 30
0.0
 10
81.0610845374
 20
30.4601921669
 30
0.0
 10
80.9527359314
 20
30.3489269445
 30
0.0
 10
80.9092169697
 20
30.3146986485
 30
0.0
 11
81.1529702528
 21
30.9179969294
 31
0.0
 11
81.1414107661
 21
30.7002081769
 31
0.0
 11
81.0248470639
 21
30.4336205048
 31
0.0
 11
80.9092169697
 21
30.3146986485
 31
0.0
  0
SPLINE
  5
477
100
AcDbEntity
  8
DRAFT
100
AcDbSpline
 62
7
  6
CONTINUOUS
 70
0
 71
3
 72
10
 73
6
 74
4
 42
0.0000001
 43
0.0000001
 44
0.0000000001
 12
1.0540759387
 22
1.7541237383
 32
0.0
 13
0.39342516
 23
2.0064867922
 33
0.0
 40
0.0
 40
0.0
 40
0.0
 40
0.0
 40
0.274483106
 40
0.8777750456
 40
1.0
 40
1.0
 40
1.0
 40
1.0
 10
62.9838061706
 20
-15.2759518
 30
0.0
 10
63.0802481832
 20
-15.115459356
 30
0.0
 10
63.3582552825
 20
-14.5837506851
 30
0.0
 10
63.5704493692
 20
-13.9325740066
 30
0.0
 10
63.6737921141
 20
-13.448898742
 30
0.0
 10
63.6898209049
 20
-13.3671511565
 30
0.0
 11
62.9838061706
 21
-15.2759518
 31
0.0
 11
63.2451441623
 21
-14.7790259013
 31
0.0
 11
63.6375363433
 21
-13.6115455751
 31
0.0
 11
63.6898209049
 21
-13.3671511565
 31
0.0
  0
SPLINE
  5
478
100
AcDbEntity
  8
DRAFT
100
AcDbSpline
 62
7
  6
CONTINUOUS
 70
0
 71
3
 72
9
 73
5
 74
3
 42
0.0000001
 43
0.0000001
 44
0.0000000001
 12
0.4517770189
 22
1.6266145957
 32
0.0
 13
0.1258959739
 23
1.6819080353
 33
0.0
 40
0.0
 40
0.0
 40
0.0
 40
0.0
 40
0.2783582133
 40
1.0
 40
1.0
 40
1.0
 40
1.0
 10
63.7728210765
 20
-14.8472146253
 30
0.0
 10
63.8147396911
 20
-14.6962874478
 30
0.0
 10
63.9481384496
 20
-14.1492066368
 30
0.0
 10
64.0244756605
 20
-13.5905472037
 30
0.0
 10
64.0547595923
 20
-13.1859688304
 30
0.0
 11
63.7728210765
 21
-14.8472146253
 31
0.0
 11
63.8845836545
 21
-14.3908214239
 31
0.0
 11
64.0547595923
 21
-13.1859688304
 31
0.0
  0
SPLINE
  5
479
100
AcDbEntity
  8
DRAFT
100
AcDbSpline
 62
7
  6
CONTINUOUS
 70
0
 71
3
 72
8
 73
4
 74
2
 42
0.0000001
 43
0.0000001
 44
0.0000000001
 12
1.114433916
 22
0.9110693086
 32
0.0
 13
0.886049792
 23
1.1372735181
 33
0.0
 40
0.0
 40
0.0
 40
0.0
 40
0.0
 40
1.0
 40
1.0
 40
1.0
 40
1.0
 10
65.2997847565
 20
15.0345300261
 30
0.0
 10
65.6712627285
 20
15.3382197957
 30
0.0
 10
66.0058338451
 20
15.687098909
 30
0.0
 10
66.3011837757
 20
16.0661900817
 30
0.0
 11
65.2997847565
 21
15.0345300261
 31
0.0
 11
66.3011837757
 21
16.0661900817
 31
0.0
  0
SPLINE
  5
47A
100
AcDbEntity
  8
DRAFT
100
AcDbSpline
 62
7
  6
CONTINUOUS
 70
0
 71
3
 72
10
 73
6
 74
4
 42
0.0000001
 43
0.0000001
 44
0.0000000001
 12
1.5651690661
 22
1.8378535244
 32
0.0
 13
0.968416841
 23
2.2093256249
 33
0.0
 40
0.0
 40
0.0
 40
0.0
 40
0.0
 40
0.1946658105
 40
0.801921292
 40
1.0
 40
1.0
 40
1.0
 40
1.0
 10
66.0758750428
 20
14.5418083138
 30
0.0
 10
66.1774366777
 20
14.6610640624
 30
0.0
 10
66.5798307353
 20
15.1659692539
 30
0.0
 10
66.9983496191
 20
15.8565630406
 30
0.0
 10
67.2730380401
 20
16.4431906968
 30
0.0
 10
67.336978959
 20
16.5890641519
 30
0.0
 11
66.0758750428
 21
14.5418083138
 31
0.0
 11
66.3688635516
 21
14.9090761429
 31
0.0
 11
67.1341417418
 21
16.156461929
 31
0.0
 11
67.336978959
 21
16.5890641519
 31
0.0
  0
SPLINE
  5
47B
100
AcDbEntity
  8
DRAFT
100
AcDbSpline
 62
7
  6
CONTINUOUS
 70
0
 71
3
 72
8
 73
4
 74
2
 42
0.0000001
 43
0.0000001
 44
0.0000000001
 12
-0.4072392489
 22
-0.9348768999
 32
0.0
 13
-0.2488053787
 23
-0.9890869026
 33
0.0
 40
0.0
 40
0.0
 40
0.0
 40
0.0
 40
1.0
 40
1.0
 40
1.0
 40
1.0
 10
0.3010156283
 20
59.16565469
 30
0.0
 10
0.165269212
 20
58.8540290567
 30
0.0
 10
0.058218044
 20
58.5302604477
 30
0.0
 10
-0.0247170822
 20
58.2005648135
 30
0.0
 11
0.3010156283
 21
59.16565469
 31
0.0
 11
-0.0247170822
 21
58.2005648135
 31
0.0
  0
SPLINE
  5
47C
100
AcDbEntity
  8
DRAFT
100
AcDbSpline
 62
7
  6
CONTINUOUS
 70
0
 71
3
 72
10
 73
6
 74
4
 42
0.0000001
 43
0.0000001
 44
0.0000000001
 12
6.4549894253
 22
0.6068916733
 32
0.0
 13
5.7793915788
 23
-2.8896957894
 33
0.0
 40
0.0
 40
0.0
 40
0.0
 40
0.0
 40
0.1522869517
 40
0.5559961674
 40
1.0
 40
1.0
 40
1.0
 40
1.0
 10
-58.2688541643
 20
69.487200936
 30
0.0
 10
-57.9411839433
 20
69.5180081637
 30
0.0
 10
-56.7384131545
 20
69.5624751671
 30
0.0
 10
-54.5895179107
 20
69.2267927077
 30
0.0
 10
-52.8786583168
 20
68.5495838837
 30
0.0
 10
-52.0233009797
 20
68.1219052151
 30
0.0
 11
-58.2688541643
 21
69.487200936
 31
0.0
 11
-57.2829074909
 21
69.5250294261
 31
0.0
 11
-54.7012331001
 21
69.1512674044
 31
0.0
 11
-52.0233009797
 21
68.1219052151
 31
0.0
  0
SPLINE
  5
47D
100
AcDbEntity
  8
DRAFT
100
AcDbSpline
 62
7
  6
CONTINUOUS
 70
0
 71
3
 72
11
 73
7
 74
5
 42
0.0000001
 43
0.0000001
 44
0.0000000001
 12
0.0
 22
-9.9008729502
 32
0.0
 13
-6.7388294845
 23
-7.3074591585
 33
0.0
 40
0.0
 40
0.0
 40
0.0
 40
0.0
 40
0.3195177444
 40
0.6110392878
 40
0.8761947702
 40
1.0
 40
1.0
 40
1.0
 40
1.0
 10
49.2615437947
 20
-53.7410617284
 30
0.0
 10
49.2615437947
 20
-54.7955632593
 30
0.0
 10
49.1141077345
 20
-56.8173554971
 30
0.0
 10
48.3856178003
 20
-59.6350004918
 30
0.0
 10
47.3574766868
 20
-61.654612996
 30
0.0
 10
46.5496322289
 20
-62.6653796151
 30
0.0
 10
46.2715314513
 20
-62.9669468352
 30
0.0
 11
49.2615437947
 21
-53.7410617284
 31
0.0
 11
49.0087532926
 21
-56.8944501078
 31
0.0
 11
48.2599645488
 21
-59.6819482056
 31
0.0
 11
47.041596515
 21
-62.0073784479
 31
0.0
 11
46.2715314513
 21
-62.9669468352
 31
0.0
  0
SPLINE
  5
47E
100
AcDbEntity
  8
DRAFT
100
AcDbSpline
 62
7
  6
CONTINUOUS
 70
0
 71
3
 72
10
 73
6
 74
4
 42
0.0000001
 43
0.0000001
 44
0.0000000001
 12
2.5732991628
 22
-7.9370123905
 32
0.0
 13
0.0
 23
-8.3394235597
 33
0.0
 40
0.0
 40
0.0
 40
0.0
 40
0.0
 40
0.1569872997
 40
0.5904337471
 40
1.0
 40
1.0
 40
1.0
 40
1.0
 10
47.8824665822
 20
8.1491477599
 30
0.0
 10
48.0171250112
 20
7.7338110455
 30
0.0
 10
48.4908050058
 20
6.1611580335
 30
0.0
 10
49.0762711933
 20
3.4366721829
 30
0.0
 10
49.2615437947
 20
1.0910287924
 30
0.0
 10
49.2615437947
 20
-0.0474866938
 30
0.0
 11
47.8824665822
 21
8.1491477599
 31
0.0
 11
48.2599645488
 21
6.8949790293
 31
0.0
 11
49.0087532926
 21
3.3586921877
 31
0.0
 11
49.2615437947
 21
-0.0474866938
 31
0.0
  0
SPLINE
  5
47F
100
AcDbEntity
  8
DRAFT
100
AcDbSpline
 62
7
  6
CONTINUOUS
 70
0
 71
3
 72
9
 73
5
 74
3
 42
0.0000001
 43
0.0000001
 44
0.0000000001
 12
5.2060131609
 22
-2.6030065804
 32
0.0
 13
4.2653053933
 23
-3.9667585985
 33
0.0
 40
0.0
 40
0.0
 40
0.0
 40
0.0
 40
0.5402791248
 40
1.0
 40
1.0
 40
1.0
 40
1.0
 10
34.9508331062
 20
24.6348381722
 30
0.0
 10
35.8883998509
 20
24.1660547998
 30
0.0
 10
37.5426542226
 20
23.1313392712
 30
0.0
 10
39.0353718182
 20
21.8851957388
 30
0.0
 10
39.6889884611
 20
21.2773284939
 30
0.0
 11
34.9508331062
 21
24.6348381722
 31
0.0
 11
37.6287652266
 21
22.986268241
 31
0.0
 11
39.6889884611
 21
21.2773284939
 31
0.0
  0
SPLINE
  5
480
100
AcDbEntity
  8
DRAFT
100
AcDbSpline
 62
7
  6
CONTINUOUS
 70
0
 71
3
 72
9
 73
5
 74
3
 42
0.0000001
 43
0.0000001
 44
0.0000000001
 12
3.6211832386
 22
-4.0956562295
 32
0.0
 13
2.8351769683
 23
-4.670004343
 33
0.0
 40
0.0
 40
0.0
 40
0.0
 40
0.0
 40
0.3148689939
 40
1.0
 40
1.0
 40
1.0
 40
1.0
 10
41.5054336431
 20
19.4111443361
 30
0.0
 10
41.8854997508
 20
18.981279284
 30
0.0
 10
43.0509706545
 20
17.579007417
 30
0.0
 10
44.0863366257
 20
16.0748538611
 30
0.0
 10
44.7338258419
 20
15.0083322698
 30
0.0
 11
41.5054336431
 21
19.4111443361
 31
0.0
 11
42.6065421264
 21
18.0881146165
 31
0.0
 11
44.7338258419
 21
15.0083322698
 31
0.0
  0
SPLINE
  5
481
100
AcDbEntity
  8
ASSI
100
AcDbSpline
 62
7
  6
CONTINUOUS
 70
0
 71
3
 72
8
 73
4
 74
2
 42
0.0000001
 43
0.0000001
 44
0.0000000001
 12
-0.1820882426
 22
-0.131192457
 32
0.0
 13
-0.1445519735
 23
-0.1746374461
 33
0.0
 40
0.0
 40
0.0
 40
0.0
 40
0.0
 40
1.0
 40
1.0
 40
1.0
 40
1.0
 10
76.4461585375
 20
-7.1763921967
 30
0.0
 10
76.3854624566
 20
-7.2201230157
 30
0.0
 10
76.3311200738
 20
-7.272323156
 30
0.0
 10
76.2829360826
 20
-7.330535638
 30
0.0
 11
76.4461585375
 21
-7.1763921967
 31
0.0
 11
76.2829360826
 21
-7.330535638
 31
0.0
  0
SPLINE
  5
482
100
AcDbEntity
  8
ASSI
100
AcDbSpline
 62
7
  6
CONTINUOUS
 70
0
 71
3
 72
8
 73
4
 74
2
 42
0.0000001
 43
0.0000001
 44
0.0000000001
 12
-0.1432076477
 22
-0.173013327
 32
0.0
 13
-0.1075110981
 23
-0.2012523263
 33
0.0
 40
0.0
 40
0.0
 40
0.0
 40
0.0
 40
1.0
 40
1.0
 40
1.0
 40
1.0
 10
76.2829360826
 20
-7.330535638
 30
0.0
 10
76.2352002001
 20
-7.388206747
 30
0.0
 10
76.1935086963
 20
-7.4517788888
 30
0.0
 10
76.1576716636
 20
-7.5188629976
 30
0.0
 11
76.2829360826
 21
-7.330535638
 31
0.0
 11
76.1576716636
 21
-7.5188629976
 31
0.0
  0
SPLINE
  5
483
100
AcDbEntity
  8
ASSI
100
AcDbSpline
 62
7
  6
CONTINUOUS
 70
0
 71
3
 72
8
 73
4
 74
2
 42
0.0000001
 43
0.0000001
 44
0.0000000001
 12
-0.1119735468
 22
-0.2096056794
 32
0.0
 13
-0.074513846
 23
-0.2243658161
 33
0.0
 40
0.0
 40
0.0
 40
0.0
 40
0.0
 40
1.0
 40
1.0
 40
1.0
 40
1.0
 10
76.1576716636
 20
-7.5188629976
 30
0.0
 10
76.120347148
 20
-7.5887315574
 30
0.0
 10
76.0893731911
 20
-7.6624096761
 30
0.0
 10
76.0645352425
 20
-7.7371982815
 30
0.0
 11
76.1576716636
 21
-7.5188629976
 31
0.0
 11
76.0645352425
 21
-7.7371982815
 31
0.0
  0
SPLINE
  5
484
100
AcDbEntity
  8
ASSI
100
AcDbSpline
 62
7
  6
CONTINUOUS
 70
0
 71
3
 72
8
 73
4
 74
2
 42
0.0000001
 43
0.0000001
 44
0.0000000001
 12
-0.0839852542
 22
-0.2528848144
 32
0.0
 13
-0.0409338661
 23
-0.2595078751
 33
0.0
 40
0.0
 40
0.0
 40
0.0
 40
0.0
 40
1.0
 40
1.0
 40
1.0
 40
1.0
 10
76.0645352425
 20
-7.7371982815
 30
0.0
 10
76.0365401577
 20
-7.8214932196
 30
0.0
 10
76.0163401078
 20
-7.9071988927
 30
0.0
 10
76.0026954858
 20
-7.9937015178
 30
0.0
 11
76.0645352425
 21
-7.7371982815
 31
0.0
 11
76.0026954858
 21
-7.9937015178
 31
0.0
  0
SPLINE
  5
485
100
AcDbEntity
  8
ASSI
100
AcDbSpline
 62
7
  6
CONTINUOUS
 70
0
 71
3
 72
8
 73
4
 74
2
 42
0.0000001
 43
0.0000001
 44
0.0000000001
 12
-0.0413252946
 22
-0.2619894093
 32
0.0
 13
-0.0050634257
 23
-0.264968328
 33
0.0
 40
0.0
 40
0.0
 40
0.0
 40
0.0
 40
1.0
 40
1.0
 40
1.0
 40
1.0
 10
76.0026954858
 20
-7.9937015178
 30
0.0
 10
75.9889203876
 20
-8.0810313209
 30
0.0
 10
75.9818266887
 20
-8.1691733904
 30
0.0
 10
75.9801388802
 20
-8.2574961664
 30
0.0
 11
76.0026954858
 21
-7.9937015178
 31
0.0
 11
75.9801388802
 21
-8.2574961664
 31
0.0
  0
SPLINE
  5
486
100
AcDbEntity
  8
DRAFT
100
AcDbSpline
 62
7
  6
CONTINUOUS
 70
0
 71
3
 72
9
 73
5
 74
3
 42
0.0000001
 43
0.0000001
 44
0.0000000001
 12
1.0721491514
 22
-0.976158335
 32
0.0
 13
1.1582827843
 23
-0.8724331266
 33
0.0
 40
0.0
 40
0.0
 40
0.0
 40
0.0
 40
0.3096191288
 40
1.0
 40
1.0
 40
1.0
 40
1.0
 10
54.2927455869
 20
-18.0263614425
 30
0.0
 10
54.4033982157
 20
-18.1271072069
 30
0.0
 10
54.7651668017
 20
-18.4476691361
 30
0.0
 10
55.1411990935
 20
-18.7517522118
 30
0.0
 10
55.407751186
 20
-18.9525225925
 30
0.0
 11
54.2927455869
 21
-18.0263614425
 31
0.0
 11
54.6287865405
 21
-18.3240316885
 31
0.0
 11
55.407751186
 21
-18.9525225925
 31
0.0
  0
SPLINE
  5
487
100
AcDbEntity
  8
DRAFT
100
AcDbSpline
 62
7
  6
CONTINUOUS
 70
0
 71
3
 72
12
 73
8
 74
6
 42
0.0000001
 43
0.0000001
 44
0.0000000001
 12
7.4948908332
 22
7.9259003101
 32
0.0
 13
-0.0
 23
10.8886603116
 33
0.0
 40
0.0
 40
0.0
 40
0.0
 40
0.0
 40
0.1244383138
 40
0.3205809155
 40
0.5314275204
 40
0.7577891033
 40
1.0
 40
1.0
 40
1.0
 40
1.0
 10
47.1782986945
 20
-64.4778877681
 30
0.0
 10
47.4891825536
 20
-64.1491258782
 30
0.0
 10
48.2281036074
 20
-63.2433202272
 30
0.0
 10
49.1827490321
 20
-61.5542093467
 30
0.0
 10
49.950265893
 20
-59.3764930941
 30
0.0
 10
50.4114467132
 20
-56.9460401888
 30
0.0
 10
50.5071822923
 20
-55.2429983699
 30
0.0
 10
50.5071822923
 20
-54.3638809772
 30
0.0
 11
47.1782986945
 21
-64.4778877681
 31
0.0
 11
48.0382642423
 21
-63.4288743351
 31
0.0
 11
49.101079223
 21
-61.5763712592
 31
0.0
 11
49.8772627642
 21
-59.4157216099
 31
0.0
 11
50.3488035273
 21
-56.9964733645
 31
0.0
 11
50.5071822923
 21
-54.3638809772
 31
0.0
  0
SPLINE
  5
488
100
AcDbEntity
  8
RACCORDO
100
AcDbSpline
 62
253
  6
CONTINUOUS
 70
0
 71
3
 72
11
 73
7
 74
5
 42
0.0000001
 43
0.0000001
 44
0.0000000001
 12
8.9736622236
 22
3.9436711319
 32
0.0
 13
8.7287101496
 23
-4.3643550761
 33
0.0
 40
0.0
 40
0.0
 40
0.0
 40
0.0
 40
0.0893546632
 40
0.3677252437
 40
0.668663951
 40
1.0
 40
1.0
 40
1.0
 40
1.0
 10
-59.3289479559
 20
71.4674272831
 30
0.0
 10
-59.0616684339
 20
71.5848890851
 30
0.0
 10
-57.9365711146
 20
72.0104338291
 30
0.0
 10
-55.7497204286
 20
72.3269580233
 30
0.0
 10
-52.7849118969
 20
71.907676455
 30
0.0
 10
-50.8536853657
 20
71.1507344196
 30
0.0
 10
-49.8896399212
 20
70.6687116972
 30
0.0
 11
-59.3289479559
 21
71.4674272831
 31
0.0
 11
-58.5103084749
 21
71.7768493674
 31
0.0
 11
-55.825502716
 21
72.1913683113
 31
0.0
 11
-52.9127122354
 21
71.8161433941
 31
0.0
 11
-49.8896399212
 21
70.6687116972
 31
0.0
  0
SPLINE
  5
489
100
AcDbEntity
  8
DRAFT
100
AcDbSpline
 62
7
  6
CONTINUOUS
 70
0
 71
3
 72
9
 73
5
 74
3
 42
0.0000001
 43
0.0000001
 44
0.0000000001
 12
-0.2187143669
 22
-0.9101222046
 32
0.0
 13
-0.1171687452
 23
-0.9281522587
 33
0.0
 40
0.0
 40
0.0
 40
0.0
 40
0.0
 40
0.2171726206
 40
1.0
 40
1.0
 40
1.0
 40
1.0
 10
-0.7261843766
 20
58.6912368701
 30
0.0
 10
-0.7420173007
 20
58.6253523287
 30
0.0
 10
-0.8109772747
 20
58.321033921
 30
0.0
 10
-0.8623985191
 20
58.0131566487
 30
0.0
 10
-0.8929728197
 20
57.7709623153
 30
0.0
 11
-0.7261843766
 21
58.6912368701
 31
0.0
 11
-0.7711425415
 21
58.4930052264
 31
0.0
 11
-0.8929728197
 21
57.7709623153
 31
0.0
  0
SPLINE
  5
48A
100
AcDbEntity
  8
RACCORDO
100
AcDbSpline
 62
253
  6
CONTINUOUS
 70
0
 71
3
 72
9
 73
5
 74
3
 42
0.0000001
 43
0.0000001
 44
0.0000000001
 12
-0.0336837441
 22
0.0153821855
 32
0.0
 13
-0.0593874056
 23
-0.0142605972
 33
0.0
 40
0.0
 40
0.0
 40
0.0
 40
0.0
 40
0.5798816632
 40
1.0
 40
1.0
 40
1.0
 40
1.0
 10
80.9161948441
 20
30.2870865313
 30
0.0
 10
80.9096839822
 20
30.2900598137
 30
0.0
 10
80.8849109386
 20
30.2907784756
 30
0.0
 10
80.8638888515
 20
30.2873827959
 30
0.0
 10
80.8555722721
 20
30.2853857498
 30
0.0
 11
80.9161948441
 21
30.2870865313
 31
0.0
 11
80.8822144217
 21
30.2895097916
 31
0.0
 11
80.8555722721
 21
30.2853857498
 31
0.0
  0
SPLINE
  5
48B
100
AcDbEntity
  8
RACCORDO
100
AcDbSpline
 62
253
  6
CONTINUOUS
 70
0
 71
3
 72
12
 73
8
 74
6
 42
0.0000001
 43
0.0000001
 44
0.0000000001
 12
0.0000000023
 22
-13.1486360012
 32
0.0
 13
-11.287365854
 23
-6.853294279
 33
0.0
 40
0.0
 40
0.0
 40
0.0
 40
0.0
 40
0.2714068047
 40
0.5184402474
 40
0.7423307217
 40
0.9491481835
 40
1.0
 40
1.0
 40
1.0
 40
1.0
 10
52.6036001585
 20
-53.2784288518
 30
0.0
 10
52.6036001587
 20
-54.4679719461
 30
0.0
 10
52.4307652824
 20
-56.7467565379
 30
0.0
 10
51.5733512962
 20
-59.9089655901
 30
0.0
 10
50.1424023513
 20
-62.549386346
 30
0.0
 10
48.6351370931
 20
-64.0736737836
 30
0.0
 10
47.6896055555
 20
-64.7012220675
 30
0.0
 10
47.4982778699
 20
-64.8173895551
 30
0.0
 11
52.6036001585
 21
-53.2784288518
 31
0.0
 11
52.3058964535
 21
-56.8346188725
 31
0.0
 11
51.4226940501
 21
-59.9603908166
 31
0.0
 11
49.9878060342
 21
-62.5308722541
 31
0.0
 11
48.0573974178
 21
-64.4462005042
 31
0.0
 11
47.4982778699
 21
-64.8173895551
 31
0.0
  0
SPLINE
  5
48C
100
AcDbEntity
  8
RACCORDO
100
AcDbSpline
 62
253
  6
CONTINUOUS
 70
0
 71
3
 72
15
 73
11
 74
9
 42
0.0000001
 43
0.0000001
 44
0.0000000001
 12
26.6756094862
 22
-15.4739176066
 32
0.0
 13
0.4427842564
 23
-30.8107707315
 33
0.0
 40
0.0
 40
0.0
 40
0.0
 40
0.0
 40
0.0781776493
 40
0.2035798358
 40
0.3366808355
 40
0.4746404927
 40
0.6143139787
 40
0.7524136992
 40
0.8856531166
 40
1.0
 40
1.0
 40
1.0
 40
1.0
 10
38.0982627572
 20
26.6342751666
 30
0.0
 10
38.7934082386
 20
26.2310369984
 30
0.0
 10
40.5404051778
 20
25.0673544453
 30
0.0
 10
43.1435560724
 20
22.7745877014
 30
0.0
 10
45.8072536083
 20
19.6795670286
 30
0.0
 10
48.1417958981
 20
16.1540559638
 30
0.0
 10
50.0612443236
 20
12.3292772934
 30
0.0
 10
51.4936928833
 20
8.3475381558
 30
0.0
 10
52.359962984
 20
4.4720038826
 30
0.0
 10
52.5842742869
 20
1.9293181939
 30
0.0
 10
52.6011512868
 20
0.7549463246
 30
0.0
 11
38.0982627572
 21
26.6342751666
 31
0.0
 11
40.109647724
 21
25.3044568459
 31
0.0
 11
43.0223966797
 21
22.766384633
 31
0.0
 11
45.7069760751
 21
19.6667232572
 31
0.0
 11
48.0589210488
 21
16.1264927192
 31
0.0
 11
49.9890175768
 21
12.2805570615
 31
0.0
 11
51.4235382603
 21
8.2750949
 31
0.0
 11
52.3063100724
 21
4.2662830627
 31
0.0
 11
52.6011512868
 21
0.7549463246
 31
0.0
  0
SPLINE
  5
48D
100
AcDbEntity
  8
DRAFT
100
AcDbSpline
 62
7
  6
CONTINUOUS
 70
0
 71
3
 72
10
 73
6
 74
4
 42
0.0000001
 43
0.0000001
 44
0.0000000001
 12
2.7739812817
 22
3.2633876202
 32
0.0
 13
0.0
 23
4.267726947
 33
0.0
 40
0.0
 40
0.0
 40
0.0
 40
0.0
 40
0.2240117594
 40
0.5894015727
 40
1.0
 40
1.0
 40
1.0
 40
1.0
 10
46.2656664269
 20
-60.94348432
 30
0.0
 10
46.472801236
 20
-60.6998052525
 30
0.0
 10
46.9425905165
 20
-59.9899885184
 30
0.0
 10
47.4004456719
 20
-58.6271938081
 30
0.0
 10
47.5004666228
 20
-57.5181606726
 30
0.0
 10
47.5004666228
 20
-56.9340533484
 30
0.0
 11
46.2656664269
 21
-60.94348432
 31
0.0
 11
46.8010237123
 21
-60.1467561332
 31
0.0
 11
47.3231486703
 21
-58.6773808104
 31
0.0
 11
47.5004666228
 21
-56.9340533484
 31
0.0
  0
LINE
  5
48E
100
AcDbEntity
  8
DRAFT
100
AcDbLine
 62
7
  6
CONTINUOUS
 10
45.5031012441
 20
13.6631781312
 11
45.2548770415
 21
13.5451004258
  0
SPLINE
  5
48F
100
AcDbEntity
  8
DRAFT
100
AcDbSpline
 62
7
  6
CONTINUOUS
 70
0
 71
3
 72
8
 73
4
 74
2
 42
0.0000001
 43
0.0000001
 44
0.0000000001
 12
0.0
 22
1.5576481466
 32
0.0
 13
-0.2272270136
 23
1.5440404513
 33
0.0
 40
0.0
 40
0.0
 40
0.0
 40
0.0
 40
1.0
 40
1.0
 40
1.0
 40
1.0
 10
47.5004666228
 20
8.0178519354
 30
0.0
 10
47.5004666228
 20
8.5370679842
 30
0.0
 10
47.4587223549
 20
9.0568380058
 30
0.0
 10
47.382980017
 20
9.5715181562
 30
0.0
 11
47.5004666228
 21
8.0178519354
 31
0.0
 11
47.382980017
 21
9.5715181562
 31
0.0
  0
SPLINE
  5
490
100
AcDbEntity
  8
DRAFT
100
AcDbSpline
 62
7
  6
CONTINUOUS
 70
0
 71
3
 72
18
 73
14
 74
12
 42
0.0000001
 43
0.0000001
 44
0.0000000001
 12
0.0
 22
32.3892934823
 32
0.0
 13
-28.9698647879
 23
14.4849323939
 33
0.0
 40
0.0
 40
0.0
 40
0.0
 40
0.0
 40
0.0863081897
 40
0.1767391531
 40
0.2705254476
 40
0.3663289397
 40
0.4632816011
 40
0.5597960495
 40
0.6550242922
 40
0.7474614277
 40
0.8363849781
 40
0.9207107898
 40
1.0
 40
1.0
 40
1.0
 40
1.0
 10
50.5071822923
 20
-0.6703059426
 30
0.0
 10
50.5071822923
 20
0.2615144864
 30
0.0
 10
50.3932945778
 20
2.1708970313
 30
0.0
 10
49.9163527554
 20
5.0569561883
 30
0.0
 10
49.1387793568
 20
7.9830889902
 30
0.0
 10
48.0756547201
 20
10.8926181016
 30
0.0
 10
46.7493573548
 20
13.72448262
 30
0.0
 10
45.1850430241
 20
16.4249688244
 30
0.0
 10
43.4158814261
 20
18.9367825984
 30
0.0
 10
41.4752998439
 20
21.2123411779
 30
0.0
 10
39.4036752186
 20
23.2039619209
 30
0.0
 10
37.2408102532
 20
24.8730598025
 30
0.0
 10
35.7164990059
 20
25.7775945839
 30
0.0
 10
34.9508331062
 20
26.1604275337
 30
0.0
 11
50.5071822923
 21
-0.6703059426
 31
0.0
 11
50.3488035273
 21
2.1206652098
 31
0.0
 11
49.8772627642
 21
5.0114542183
 31
0.0
 11
49.101079223
 21
7.9482874087
 31
0.0
 11
48.0382642423
 21
10.8636054653
 31
0.0
 11
46.7068470937
 21
13.7076099587
 31
0.0
 11
45.1388719325
 21
16.4119670766
 31
0.0
 11
43.3603007622
 21
18.9318989861
 31
0.0
 11
41.4138459357
 21
21.2068035962
 31
0.0
 11
39.3328072807
 21
23.197949735
 31
0.0
 11
37.1649936495
 21
24.8593736819
 31
0.0
 11
34.9508331062
 21
26.1604275337
 31
0.0
  0
SPLINE
  5
491
100
AcDbEntity
  8
DRAFT
100
AcDbSpline
 62
7
  6
CONTINUOUS
 70
0
 71
3
 72
11
 73
7
 74
5
 42
0.0000001
 43
0.0000001
 44
0.0000000001
 12
-6.5928070564
 22
3.2964035282
 32
0.0
 13
-7.3236072003
 23
-0.9629035209
 33
0.0
 40
0.0
 40
0.0
 40
0.0
 40
0.0
 40
0.3249297288
 40
0.6269482304
 40
0.9095400402
 40
1.0
 40
1.0
 40
1.0
 40
1.0
 10
-52.0233009797
 20
69.6474945767
 30
0.0
 10
-52.737367316
 20
70.0045277448
 30
0.0
 10
-54.1643532024
 20
70.6021881642
 30
0.0
 10
-56.3477490096
 20
71.1266651126
 30
0.0
 10
-58.0154115051
 20
71.2092826607
 30
0.0
 10
-58.9304788109
 20
71.1226456165
 30
0.0
 10
-59.1513098819
 20
71.0936108786
 30
0.0
 11
-52.0233009797
 21
69.6474945767
 31
0.0
 11
-54.237461523
 21
70.5606012682
 31
0.0
 11
-56.4052751542
 21
71.0669909525
 31
0.0
 11
-58.4863138092
 21
71.1568834687
 31
0.0
 11
-59.1513098819
 21
71.0936108786
 31
0.0
  0
SPLINE
  5
492
100
AcDbEntity
  8
ASSI
100
AcDbSpline
 62
7
  6
CONTINUOUS
 70
0
 71
3
 72
9
 73
5
 74
3
 42
0.0000001
 43
0.0000001
 44
0.0000000001
 12
-0.6698699053
 22
0.6248904111
 32
0.0
 13
-0.8299495815
 23
0.3926811957
 33
0.0
 40
0.0
 40
0.0
 40
0.0
 40
0.0
 40
0.5441790712
 40
1.0
 40
1.0
 40
1.0
 40
1.0
 10
78.2626035282
 20
-7.0271697306
 30
0.0
 10
78.1410938006
 20
-6.9138189694
 30
0.0
 10
77.9036165597
 20
-6.7208268462
 30
0.0
 10
77.6389619121
 20
-6.5639340092
 30
0.0
 10
77.5128591158
 20
-6.5042699067
 30
0.0
 11
78.2626035282
 21
-7.0271697306
 31
0.0
 11
77.874585443
 21
-6.7144645334
 31
0.0
 11
77.5128591158
 21
-6.5042699067
 31
0.0
  0
SPLINE
  5
493
100
AcDbEntity
  8
ASSI
100
AcDbSpline
 62
7
  6
CONTINUOUS
 70
0
 71
3
 72
9
 73
5
 74
3
 42
0.0000001
 43
0.0000001
 44
0.0000000001
 12
-0.6656953342
 22
0.6194882136
 32
0.0
 13
-0.825515085
 23
0.3901716694
 33
0.0
 40
0.0
 40
0.0
 40
0.0
 40
0.0
 40
0.1049827303
 40
1.0
 40
1.0
 40
1.0
 40
1.0
 10
78.4005856243
 20
-6.9533240701
 30
0.0
 10
78.3772901197
 20
-6.9316455487
 30
0.0
 10
78.152707124
 20
-6.727953656
 30
0.0
 10
77.9024134037
 20
-6.552070378
 30
0.0
 10
77.6561299846
 20
-6.4356669172
 30
0.0
 11
78.4005856243
 21
-6.9533240701
 31
0.0
 11
78.3298520801
 21
-6.8891837757
 31
0.0
 11
77.6561299846
 21
-6.4356669172
 31
0.0
  0
SPLINE
  5
494
100
AcDbEntity
  8
ASSI
100
AcDbSpline
 62
7
  6
CONTINUOUS
 70
0
 71
3
 72
9
 73
5
 74
3
 42
0.0000001
 43
0.0000001
 44
0.0000000001
 12
-0.3008423275
 22
-0.4631676302
 32
0.0
 13
-0.1169123745
 23
-0.5380799341
 33
0.0
 40
0.0
 40
0.0
 40
0.0
 40
0.0
 40
0.6088280777
 40
1.0
 40
1.0
 40
1.0
 40
1.0
 10
76.1893019844
 20
-7.1607380107
 30
0.0
 10
76.1282482324
 20
-7.2547344967
 30
0.0
 10
76.0490930912
 20
-7.424011342
 30
0.0
 10
75.9998433462
 20
-7.6013653871
 30
0.0
 10
75.9845990667
 20
-7.6715259745
 30
0.0
 11
76.1893019844
 21
-7.1607380107
 31
0.0
 11
76.0429495694
 21
-7.4638494781
 31
0.0
 11
75.9845990667
 21
-7.6715259745
 31
0.0
  0
SPLINE
  5
495
100
AcDbEntity
  8
ASSI
100
AcDbSpline
 62
7
  6
CONTINUOUS
 70
0
 71
3
 72
8
 73
4
 74
2
 42
0.0000001
 43
0.0000001
 44
0.0000000001
 12
-0.1025770173
 22
-0.4721025892
 32
0.0
 13
0.0
 23
-0.480511351
 33
0.0
 40
0.0
 40
0.0
 40
0.0
 40
0.0
 40
1.0
 40
1.0
 40
1.0
 40
1.0
 10
75.9845990667
 20
-7.6715259745
 30
0.0
 10
75.9504067276
 20
-7.8288935042
 30
0.0
 10
75.9364427356
 20
-7.9902085862
 30
0.0
 10
75.9364427356
 20
-8.1503790366
 30
0.0
 11
75.9845990667
 21
-7.6715259745
 31
0.0
 11
75.9364427356
 21
-8.1503790366
 31
0.0
  0
SPLINE
  5
496
100
AcDbEntity
  8
DRAFT
100
AcDbSpline
 62
7
  6
CONTINUOUS
 70
0
 71
3
 72
10
 73
6
 74
4
 42
0.0000001
 43
0.0000001
 44
0.0000000001
 12
2.7873425873
 22
-0.6670249095
 32
0.0
 13
2.8466032349
 23
0.3438939274
 33
0.0
 40
0.0
 40
0.0
 40
0.0
 40
0.0
 40
0.4555370037
 40
0.9522478912
 40
1.0
 40
1.0
 40
1.0
 40
1.0
 10
59.0882444142
 20
12.4956055703
 30
0.0
 10
59.511490311
 20
12.3943207274
 30
0.0
 10
60.4104823908
 20
12.2421387447
 30
0.0
 10
61.3703262376
 20
12.2405547643
 30
0.0
 10
61.8875440765
 20
12.2978348464
 30
0.0
 10
61.9328545123
 20
12.3033087331
 30
0.0
 11
59.0882444142
 21
12.4956055703
 31
0.0
 11
60.375047872
 21
12.2832002576
 31
0.0
 11
61.7967775338
 21
12.2882345925
 31
0.0
 11
61.9328545123
 21
12.3033087331
 31
0.0
  0
SPLINE
  5
497
100
AcDbEntity
  8
DRAFT
100
AcDbSpline
 62
7
  6
CONTINUOUS
 70
0
 71
3
 72
9
 73
5
 74
3
 42
0.0000001
 43
0.0000001
 44
0.0000000001
 12
1.3975002803
 22
-1.2563957593
 32
0.0
 13
1.5440518468
 23
-1.0703570096
 33
0.0
 40
0.0
 40
0.0
 40
0.0
 40
0.0
 40
0.105908061
 40
1.0
 40
1.0
 40
1.0
 40
1.0
 10
53.6995978568
 20
-18.3222339057
 30
0.0
 10
53.7489333718
 20
-18.366588052
 30
0.0
 10
54.2173672328
 20
-18.7826181179
 30
0.0
 10
54.7104643697
 20
-19.1719713526
 30
0.0
 10
55.1706391396
 20
-19.490970544
 30
0.0
 11
53.6995978568
 21
-18.3222339057
 31
0.0
 11
53.8484318517
 21
-18.4544107061
 31
0.0
 11
55.1706391396
 21
-19.490970544
 31
0.0
  0
SPLINE
  5
498
100
AcDbEntity
  8
RACCORDO
100
AcDbSpline
 62
253
  6
CONTINUOUS
 70
0
 71
3
 72
9
 73
5
 74
3
 42
0.0000001
 43
0.0000001
 44
0.0000000001
 12
0.1446849946
 22
0.0703166592
 32
0.0
 13
0.1607980042
 23
-0.0079061218
 33
0.0
 40
0.0
 40
0.0
 40
0.0
 40
0.0
 40
0.4067780962
 40
1.0
 40
1.0
 40
1.0
 40
1.0
 10
80.1116317931
 20
31.6527914442
 30
0.0
 10
80.131250022
 20
31.6623258698
 30
0.0
 10
80.1820030733
 20
31.6805537307
 30
0.0
 10
80.2358358474
 20
31.6846181219
 30
0.0
 10
80.2676321468
 20
31.6830547603
 30
0.0
 11
80.1116317931
 21
31.6527914442
 31
0.0
 11
80.173050078
 21
31.674811652
 31
0.0
 11
80.2676321468
 21
31.6830547603
 31
0.0
  0
SPLINE
  5
499
100
AcDbEntity
  8
RACCORDO
100
AcDbSpline
 62
253
  6
CONTINUOUS
 70
0
 71
3
 72
9
 73
5
 74
3
 42
0.0000001
 43
0.0000001
 44
0.0000000001
 12
0.2348265221
 22
-0.0115459585
 32
0.0
 13
0.2035908204
 23
-0.1155051965
 33
0.0
 40
0.0
 40
0.0
 40
0.0
 40
0.0
 40
0.2232730032
 40
1.0
 40
1.0
 40
1.0
 40
1.0
 10
80.2676321468
 20
31.6830547603
 30
0.0
 10
80.2851089544
 20
31.68219546
 30
0.0
 10
80.3631970805
 20
31.6729689212
 30
0.0
 10
80.4363744771
 20
31.6430196755
 30
0.0
 10
80.4890859726
 20
31.6131143407
 30
0.0
 11
80.2676321468
 21
31.6830547603
 31
0.0
 11
80.3197340913
 21
31.6770423417
 31
0.0
 11
80.4890859726
 21
31.6131143407
 31
0.0
  0
SPLINE
  5
49A
100
AcDbEntity
  8
RACCORDO
100
AcDbSpline
 62
253
  6
CONTINUOUS
 70
0
 71
3
 72
8
 73
4
 74
2
 42
0.0000001
 43
0.0000001
 44
0.0000000001
 12
0.1226552208
 22
-0.0695872012
 32
0.0
 13
0.1081046128
 23
-0.0901858854
 33
0.0
 40
0.0
 40
0.0
 40
0.0
 40
0.0
 40
1.0
 40
1.0
 40
1.0
 40
1.0
 10
80.4890859726
 20
31.6131143407
 30
0.0
 10
80.5299710462
 20
31.589918607
 30
0.0
 10
80.5683730344
 20
31.5627263744
 30
0.0
 10
80.6044079053
 20
31.5326644126
 30
0.0
 11
80.4890859726
 21
31.6131143407
 31
0.0
 11
80.6044079053
 21
31.5326644126
 31
0.0
  0
SPLINE
  5
49B
100
AcDbEntity
  8
RACCORDO
100
AcDbSpline
 62
253
  6
CONTINUOUS
 70
0
 71
3
 72
10
 73
6
 74
4
 42
0.0000001
 43
0.0000001
 44
0.0000000001
 12
0.4346896603
 22
-0.3626382896
 32
0.0
 13
0.2130169467
 23
-0.5239070132
 33
0.0
 40
0.0
 40
0.0
 40
0.0
 40
0.0
 40
0.1332518704
 40
0.5582916886
 40
1.0
 40
1.0
 40
1.0
 40
1.0
 10
80.6044079053
 20
31.5326644126
 30
0.0
 10
80.6237156421
 20
31.5165570025
 30
0.0
 10
80.7017629414
 20
31.4456192219
 30
0.0
 10
80.8207530958
 20
31.2981024086
 30
0.0
 10
80.89707247
 20
31.1528207941
 30
0.0
 10
80.9284362552
 20
31.0756827668
 30
0.0
 11
80.6044079053
 21
31.5326644126
 31
0.0
 11
80.6603102332
 21
31.4820439024
 31
0.0
 11
80.8123212918
 21
31.2963717766
 31
0.0
 11
80.9284362552
 21
31.0756827668
 31
0.0
  0
SPLINE
  5
49C
100
AcDbEntity
  8
RACCORDO
100
AcDbSpline
 62
253
  6
CONTINUOUS
 70
0
 71
3
 72
11
 73
7
 74
5
 42
0.0000001
 43
0.0000001
 44
0.0000000001
 12
0.1539095878
 22
-0.6010216518
 32
0.0
 13
-0.4076142227
 23
-0.4716539036
 33
0.0
 40
0.0
 40
0.0
 40
0.0
 40
0.0
 40
0.1279445258
 40
0.4868589742
 40
0.798810329
 40
1.0
 40
1.0
 40
1.0
 40
1.0
 10
80.9798494459
 20
30.9203792632
 30
0.0
 10
80.986413409
 20
30.8947467865
 30
0.0
 10
81.008005432
 20
30.7963357346
 30
0.0
 10
81.0208069716
 20
30.6303776255
 30
0.0
 10
80.9860112219
 20
30.4507860766
 30
0.0
 10
80.9315260146
 20
30.3568823349
 30
0.0
 10
80.9041900908
 20
30.3252517036
 30
0.0
 11
80.9798494459
 21
30.9203792632
 31
0.0
 11
80.9968096553
 21
30.842833722
 31
0.0
 11
81.0108205707
 21
30.6209694567
 31
0.0
 11
80.9690223931
 21
30.432326662
 31
0.0
 11
80.9041900908
 21
30.3252517036
 31
0.0
  0
SPLINE
  5
49D
100
AcDbEntity
  8
RACCORDO
100
AcDbSpline
 62
253
  6
CONTINUOUS
 70
0
 71
3
 72
9
 73
5
 74
3
 42
0.0000001
 43
0.0000001
 44
0.0000000001
 12
-0.0602013708
 22
-0.069659521
 32
0.0
 13
-0.0786596134
 23
-0.049260527
 33
0.0
 40
0.0
 40
0.0
 40
0.0
 40
0.0
 40
0.4427921564
 40
1.0
 40
1.0
 40
1.0
 40
1.0
 10
80.9041900908
 20
30.3252517036
 30
0.0
 10
80.8953045259
 20
30.3149701405
 30
0.0
 10
80.8738119845
 20
30.2929879292
 30
0.0
 10
80.8489697032
 20
30.274392301
 30
0.0
 10
80.8343597853
 20
30.2652428504
 30
0.0
 11
80.9041900908
 21
30.3252517036
 31
0.0
 11
80.875614302
 21
30.296167029
 31
0.0
 11
80.8343597853
 21
30.2652428504
 31
0.0
  0
SPLINE
  5
49E
100
AcDbEntity
  8
ASSI
100
AcDbSpline
 62
7
  6
CONTINUOUS
 70
0
 71
3
 72
8
 73
4
 74
2
 42
0.0000001
 43
0.0000001
 44
0.0000000001
 12
0.0911771032
 22
0.3313263333
 32
0.0
 13
0.1911812474
 23
0.2795143057
 33
0.0
 40
0.0
 40
0.0
 40
0.0
 40
0.0
 40
1.0
 40
1.0
 40
1.0
 40
1.0
 10
76.3484125406
 20
-8.0551747331
 30
0.0
 10
76.3788049083
 20
-7.944732622
 30
0.0
 10
76.4238728621
 20
-7.8398571285
 30
0.0
 10
76.4875999446
 20
-7.7466856933
 30
0.0
 11
76.3484125406
 21
-8.0551747331
 31
0.0
 11
76.4875999446
 21
-7.7466856933
 31
0.0
  0
SPLINE
  5
49F
100
AcDbEntity
  8
ASSI
100
AcDbSpline
 62
7
  6
CONTINUOUS
 70
0
 71
3
 72
9
 73
5
 74
3
 42
0.0000001
 43
0.0000001
 44
0.0000000001
 12
0.0
 22
1.0256855957
 32
0.0
 13
0.5688806128
 23
0.875288821
 33
0.0
 40
0.0
 40
0.0
 40
0.0
 40
0.0
 40
0.7529697564
 40
1.0
 40
1.0
 40
1.0
 40
1.0
 10
75.7950213794
 20
-8.2210897147
 30
0.0
 10
75.7950213794
 20
-7.9636529703
 30
0.0
 10
75.8412474682
 20
-7.6166899068
 30
0.0
 10
76.0018020959
 20
-7.3039832741
 30
0.0
 10
76.048645668
 20
-7.2319090038
 30
0.0
 11
75.7950213794
 21
-8.2210897147
 31
0.0
 11
75.9294551764
 21
-7.4605697278
 31
0.0
 11
76.048645668
 21
-7.2319090038
 31
0.0
  0
SPLINE
  5
4A0
100
AcDbEntity
  8
RACCORDO
100
AcDbSpline
 62
253
  6
CONTINUOUS
 70
0
 71
3
 72
9
 73
5
 74
3
 42
0.0000001
 43
0.0000001
 44
0.0000000001
 12
-0.0020159693
 22
-0.4602152188
 32
0.0
 13
-0.4111533859
 23
-0.2128808974
 33
0.0
 40
0.0
 40
0.0
 40
0.0
 40
0.0
 40
0.4279959533
 40
1.0
 40
1.0
 40
1.0
 40
1.0
 10
52.884246559
 20
-52.9310996061
 30
0.0
 10
52.8839589501
 20
-52.9967563566
 30
0.0
 10
52.8147374137
 20
-53.1508731844
 30
0.0
 10
52.6819939587
 20
-53.2378392655
 30
0.0
 10
52.6036001586
 20
-53.2784288437
 30
0.0
 11
52.884246559
 21
-52.9310996061
 31
0.0
 11
52.8130698961
 21
-53.1163784041
 31
0.0
 11
52.6036001586
 21
-53.2784288437
 31
0.0
  0
SPLINE
  5
4A1
100
AcDbEntity
  8
RACCORDO
100
AcDbSpline
 62
253
  6
CONTINUOUS
 70
0
 71
3
 72
10
 73
6
 74
4
 42
0.0000001
 43
0.0000001
 44
0.0000000001
 12
-0.002763394
 22
-1.395920138
 32
0.0
 13
-1.2384383678
 23
-0.630044239
 33
0.0
 40
0.0
 40
0.0
 40
0.0
 40
0.0
 40
0.2729523987
 40
0.601570368
 40
1.0
 40
1.0
 40
1.0
 40
1.0
 10
83.5097439657
 20
26.4577627455
 30
0.0
 10
83.5094925407
 20
26.3307561622
 30
0.0
 10
83.4315846638
 20
26.0502686454
 30
0.0
 10
83.1198676677
 20
25.694094331
 30
0.0
 10
82.8322572142
 20
25.512484537
 30
0.0
 10
82.6677803664
 20
25.4288084389
 30
0.0
 11
83.5097439657
 21
26.4577627455
 31
0.0
 11
83.416227575
 21
26.0898569122
 31
0.0
 11
83.1291718033
 21
25.7347608005
 31
0.0
 11
82.6677803664
 21
25.4288084389
 31
0.0
  0
SPLINE
  5
4A2
100
AcDbEntity
  8
RACCORDO
100
AcDbSpline
 62
253
  6
CONTINUOUS
 70
0
 71
3
 72
10
 73
6
 74
4
 42
0.0000001
 43
0.0000001
 44
0.0000000001
 12
-0.7764861862
 22
0.2699964166
 32
0.0
 13
-0.793282085
 23
-0.2053284009
 33
0.0
 40
0.0
 40
0.0
 40
0.0
 40
0.0
 40
0.155449088
 40
0.776751375
 40
1.0
 40
1.0
 40
1.0
 40
1.0
 10
-14.5754586997
 20
82.2711438972
 30
0.0
 10
-14.6156933895
 20
82.2851341294
 30
0.0
 10
-14.8203899148
 20
82.3441278608
 30
0.0
 10
-15.0988149738
 20
82.346718295
 30
0.0
 10
-15.3251044016
 20
82.3001194836
 30
0.0
 10
-15.3841374465
 20
82.2848397225
 30
0.0
 11
-14.5754586997
 21
82.2711438972
 31
0.0
 11
-14.6980874897
 21
82.3064644668
 31
0.0
 11
-15.2048509584
 21
82.3213463539
 31
0.0
 11
-15.3841374465
 21
82.2848397225
 31
0.0
  0
SPLINE
  5
4A3
100
AcDbEntity
  8
RACCORDO
100
AcDbSpline
 62
253
  6
CONTINUOUS
 70
0
 71
3
 72
8
 73
4
 74
2
 42
0.0000001
 43
0.0000001
 44
0.0000000001
 12
-0.3784849645
 22
-0.0979647896
 32
0.0
 13
-0.3521427747
 23
-0.1660366941
 33
0.0
 40
0.0
 40
0.0
 40
0.0
 40
0.0
 40
1.0
 40
1.0
 40
1.0
 40
1.0
 10
-15.3841374465
 20
82.2848397225
 30
0.0
 10
-15.5102991013
 20
82.2521847927
 30
0.0
 10
-15.6328785265
 20
82.2060021493
 30
0.0
 10
-15.7502594514
 20
82.1506565846
 30
0.0
 11
-15.3841374465
 21
82.2848397225
 31
0.0
 11
-15.7502594514
 21
82.1506565846
 31
0.0
  0
SPLINE
  5
4A4
100
AcDbEntity
  8
DRAFT
100
AcDbSpline
 62
7
  6
CONTINUOUS
 70
0
 71
3
 72
10
 73
6
 74
4
 42
0.0000001
 43
0.0000001
 44
0.0000000001
 12
0.955882415
 22
1.761524403
 32
0.0
 13
0.3483365005
 23
1.9714758637
 33
0.0
 40
0.0
 40
0.0
 40
0.0
 40
0.0
 40
0.1590391397
 40
0.7730805088
 40
1.0
 40
1.0
 40
1.0
 40
1.0
 10
62.612075947
 20
-15.4747663978
 30
0.0
 10
62.662750186
 20
-15.3813826226
 30
0.0
 10
62.8947260688
 20
-14.9196599988
 30
0.0
 10
63.1073897775
 20
-14.2836856754
 30
0.0
 10
63.2213330566
 20
-13.7338716164
 30
0.0
 10
63.2476811704
 20
-13.5847495165
 30
0.0
 11
62.612075947
 21
-15.4747663978
 31
0.0
 11
62.7553353183
 21
-15.1901432909
 31
0.0
 11
63.1551163314
 21
-14.0294971961
 31
0.0
 11
63.2476811704
 21
-13.5847495165
 31
0.0
  0
SPLINE
  5
4A5
100
AcDbEntity
  8
DRAFT
100
AcDbSpline
 62
7
  6
CONTINUOUS
 70
0
 71
3
 72
8
 73
4
 74
2
 42
0.0000001
 43
0.0000001
 44
0.0000000001
 12
0.9117489539
 22
0.7453883458
 32
0.0
 13
0.7614841741
 23
0.9006586773
 33
0.0
 40
0.0
 40
0.0
 40
0.0
 40
0.0
 40
1.0
 40
1.0
 40
1.0
 40
1.0
 10
64.6840070428
 20
14.5313661519
 30
0.0
 10
64.9879233608
 20
14.7798289339
 30
0.0
 10
65.2674347393
 20
15.0581745197
 30
0.0
 10
65.5212627973
 20
15.3583940788
 30
0.0
 11
64.6840070428
 21
14.5313661519
 31
0.0
 11
65.5212627973
 21
15.3583940788
 31
0.0
  0
SPLINE
  5
4A6
100
AcDbEntity
  8
RACCORDO
100
AcDbSpline
 62
253
  6
CONTINUOUS
 70
0
 71
3
 72
9
 73
5
 74
3
 42
0.0000001
 43
0.0000001
 44
0.0000000001
 12
-0.0020159707
 22
-0.4602152241
 32
0.0
 13
-0.4111533908
 23
-0.2128808999
 33
0.0
 40
0.0
 40
0.0
 40
0.0
 40
0.0
 40
0.427995899
 40
1.0
 40
1.0
 40
1.0
 40
1.0
 10
52.884246559
 20
0.7624754285
 30
0.0
 10
52.88395895
 20
0.6968186856
 30
0.0
 10
52.8147374198
 20
0.542701857
 30
0.0
 10
52.6819939671
 20
0.4557357654
 30
0.0
 10
52.6036001585
 20
0.4151461828
 30
0.0
 11
52.884246559
 21
0.7624754285
 31
0.0
 11
52.813069911
 21
0.5771966493
 31
0.0
 11
52.6036001585
 21
0.4151461828
 31
0.0
  0
SPLINE
  5
4A7
100
AcDbEntity
  8
RACCORDO
100
AcDbSpline
 62
253
  6
CONTINUOUS
 70
0
 71
3
 72
8
 73
4
 74
2
 42
0.0000001
 43
0.0000001
 44
0.0000000001
 12
0.2958049039
 22
-0.2526619882
 32
0.0
 13
0.1871597136
 23
-0.3426902824
 33
0.0
 40
0.0
 40
0.0
 40
0.0
 40
0.0
 40
1.0
 40
1.0
 40
1.0
 40
1.0
 10
82.6741111517
 20
27.5156732812
 30
0.0
 10
82.7727127863
 20
27.4314526185
 30
0.0
 10
82.8612996734
 20
27.3342616072
 30
0.0
 10
82.9236862446
 20
27.2200315131
 30
0.0
 11
82.6741111517
 21
27.5156732812
 31
0.0
 11
82.9236862446
 21
27.2200315131
 31
0.0
  0
SPLINE
  5
4A8
100
AcDbEntity
  8
RACCORDO
100
AcDbSpline
 62
253
  6
CONTINUOUS
 70
0
 71
3
 72
11
 73
7
 74
5
 42
0.0000001
 43
0.0000001
 44
0.0000000001
 12
0.5404180149
 22
-0.9895078303
 32
0.0
 13
-0.8814978217
 23
-0.6933036108
 33
0.0
 40
0.0
 40
0.0
 40
0.0
 40
0.0
 40
0.2948715253
 40
0.5871802227
 40
0.9273190231
 40
1.0
 40
1.0
 40
1.0
 40
1.0
 10
82.9236862446
 20
27.2200315131
 30
0.0
 10
82.976804206
 20
27.1227722854
 30
0.0
 10
83.0447563597
 20
26.9045019602
 30
0.0
 10
82.9498076557
 20
26.5556119469
 30
0.0
 10
82.7727064195
 20
26.3540277642
 30
0.0
 10
82.6537917453
 20
26.2554026406
 30
0.0
 10
82.6324357044
 20
26.2386059793
 30
0.0
 11
82.9236862446
 21
27.2200315131
 31
0.0
 11
83.0127543735
 21
26.9028816206
 31
0.0
 11
82.9346058607
 21
26.5858140028
 31
0.0
 11
82.6951918476
 21
26.2907316101
 31
0.0
 11
82.6324357044
 21
26.2386059793
 31
0.0
  0
SPLINE
  5
4A9
100
AcDbEntity
  8
RACCORDO
100
AcDbSpline
 62
7
  6
CONTINUOUS
 70
0
 71
3
 72
8
 73
4
 74
2
 42
0.0000001
 43
0.0000001
 44
0.0000000001
 12
5.4510911283
 22
2.6541965246
 32
0.0
 13
5.4524374021
 23
2.6514294431
 33
0.0
 40
0.0
 40
0.0
 40
0.0
 40
0.0
 40
1.0
 40
1.0
 40
1.0
 40
1.0
 10
49.0687839148
 20
16.5557264261
 30
0.0
 10
50.8858142909
 20
17.4404586009
 30
0.0
 10
52.7030538418
 20
18.3247611516
 30
0.0
 10
54.5205329758
 20
19.208570966
 30
0.0
 11
49.0687839148
 21
16.5557264261
 31
0.0
 11
54.5205329758
 21
19.208570966
 31
0.0
  0
SPLINE
  5
4AA
100
AcDbEntity
  8
RACCORDO
100
AcDbSpline
 62
253
  6
CONTINUOUS
 70
0
 71
3
 72
11
 73
7
 74
5
 42
0.0000001
 43
0.0000001
 44
0.0000000001
 12
1.1871280015
 22
0.1395039562
 32
0.0
 13
0.6014523513
 23
-1.0300020817
 33
0.0
 40
0.0
 40
0.0
 40
0.0
 40
0.0
 40
0.3076293681
 40
0.6385053673
 40
0.9850761046
 40
1.0
 40
1.0
 40
1.0
 40
1.0
 10
77.3816950055
 20
35.550263448
 30
0.0
 10
77.5034268178
 20
35.5645686193
 30
0.0
 10
77.7608764232
 20
35.5575796606
 30
0.0
 10
78.1270220166
 20
35.3902140357
 30
0.0
 10
78.3093185354
 20
35.1760847227
 30
0.0
 10
78.3826837946
 20
35.0524467434
 30
0.0
 10
78.3856757986
 20
35.0473228623
 30
0.0
 11
77.3816950055
 21
35.550263448
 31
0.0
 11
77.7468323997
 21
35.5342745998
 31
0.0
 11
78.1036704822
 21
35.3703579032
 31
0.0
 11
78.3765890132
 21
35.0626350733
 31
0.0
 11
78.3856757986
 21
35.0473228623
 31
0.0
  0
SPLINE
  5
4AB
100
AcDbEntity
  8
RACCORDO
100
AcDbSpline
 62
253
  6
CONTINUOUS
 70
0
 71
3
 72
8
 73
4
 74
2
 42
0.0000001
 43
0.0000001
 44
0.0000000001
 12
0.5088810732
 22
0.2471837423
 32
0.0
 13
0.5624172856
 23
0.0879969829
 33
0.0
 40
0.0
 40
0.0
 40
0.0
 40
0.0
 40
1.0
 40
1.0
 40
1.0
 40
1.0
 10
76.533581798
 20
36.00873596
 30
0.0
 10
76.7032088224
 20
36.0911305407
 30
0.0
 10
76.8841936307
 20
36.1541179047
 30
0.0
 10
77.0716660592
 20
36.1834502323
 30
0.0
 11
76.533581798
 21
36.00873596
 31
0.0
 11
77.0716660592
 21
36.1834502323
 31
0.0
  0
SPLINE
  5
4AC
100
AcDbEntity
  8
RACCORDO
100
AcDbSpline
 62
253
  6
CONTINUOUS
 70
0
 71
3
 72
9
 73
5
 74
3
 42
0.0000001
 43
0.0000001
 44
0.0000000001
 12
0.7658768934
 22
0.1198306979
 32
0.0
 13
0.6953880477
 23
-0.3458346271
 33
0.0
 40
0.0
 40
0.0
 40
0.0
 40
0.0
 40
0.6486589609
 40
1.0
 40
1.0
 40
1.0
 40
1.0
 10
77.0716660592
 20
36.1834502323
 30
0.0
 10
77.2372636958
 20
36.2093599843
 30
0.0
 10
77.5003597276
 20
36.2088210712
 30
0.0
 10
77.7460537238
 20
36.1211120278
 30
0.0
 10
77.8274931769
 20
36.0806100621
 30
0.0
 11
77.0716660592
 21
36.1834502323
 31
0.0
 11
77.5712608396
 21
36.171983274
 31
0.0
 11
77.8274931769
 21
36.0806100621
 31
0.0
  0
SPLINE
  5
4AD
100
AcDbEntity
  8
RACCORDO
100
AcDbSpline
 62
253
  6
CONTINUOUS
 70
0
 71
3
 72
8
 73
4
 74
2
 42
0.0000001
 43
0.0000001
 44
0.0000000001
 12
0.3073781675
 22
0.1923372439
 32
0.0
 13
0.269584327
 23
0.2444736022
 33
0.0
 40
0.0
 40
0.0
 40
0.0
 40
0.0
 40
1.0
 40
1.0
 40
1.0
 40
1.0
 10
82.8395188895
 20
-34.6693030582
 30
0.0
 10
82.9419782787
 20
-34.6051906436
 30
0.0
 10
83.0397081371
 20
-34.5333353602
 30
0.0
 10
83.1295695794
 20
-34.4518441594
 30
0.0
 11
82.8395188895
 21
-34.6693030582
 31
0.0
 11
83.1295695794
 21
-34.4518441594
 31
0.0
  0
SPLINE
  5
4AE
100
AcDbEntity
  8
RACCORDO
100
AcDbSpline
 62
253
  6
CONTINUOUS
 70
0
 71
3
 72
9
 73
5
 74
3
 42
0.0000001
 43
0.0000001
 44
0.0000000001
 12
0.5427642787
 22
0.4922079108
 32
0.0
 13
0.1186957088
 23
0.7250487963
 33
0.0
 40
0.0
 40
0.0
 40
0.0
 40
0.0
 40
0.6366175595
 40
1.0
 40
1.0
 40
1.0
 40
1.0
 10
83.1295695794
 20
-34.4518441594
 30
0.0
 10
83.2447473362
 20
-34.3473947598
 30
0.0
 10
83.4053639414
 20
-34.1584595144
 30
0.0
 10
83.4852082295
 20
-33.9220120824
 30
0.0
 10
83.4995855416
 20
-33.8341887487
 30
0.0
 11
83.1295695794
 21
-34.4518441594
 31
0.0
 11
83.4165144791
 21
-34.0875799401
 31
0.0
 11
83.4995855416
 21
-33.8341887487
 31
0.0
  0
SPLINE
  5
4AF
100
AcDbEntity
  8
RACCORDO
100
AcDbSpline
 62
253
  6
CONTINUOUS
 70
0
 71
3
 72
8
 73
4
 74
2
 42
0.0000001
 43
0.0000001
 44
0.0000000001
 12
0.019747974
 22
0.1206298438
 32
0.0
 13
0.0001951141
 23
0.121764066
 33
0.0
 40
0.0
 40
0.0
 40
0.0
 40
0.0
 40
1.0
 40
1.0
 40
1.0
 40
1.0
 10
83.4995855416
 20
-33.8341887487
 30
0.0
 10
83.5061681996
 20
-33.7939788007
 30
0.0
 10
83.5096826103
 20
-33.7533700398
 30
0.0
 10
83.5097476484
 20
-33.7127820178
 30
0.0
 11
83.4995855416
 21
-33.8341887487
 31
0.0
 11
83.5097476484
 21
-33.7127820178
 31
0.0
  0
SPLINE
  5
4B0
100
AcDbEntity
  8
RACCORDO
100
AcDbSpline
 62
253
  6
CONTINUOUS
 70
0
 71
3
 72
8
 73
4
 74
2
 42
0.0000001
 43
0.0000001
 44
0.0000000001
 12
-0.1263218497
 22
0.0642489108
 32
0.0
 13
-0.1431784691
 23
-0.0039034797
 33
0.0
 40
0.0
 40
0.0
 40
0.0
 40
0.0
 40
1.0
 40
1.0
 40
1.0
 40
1.0
 10
-15.7502594514
 20
82.1506565846
 30
0.0
 10
-15.7923667346
 20
82.1720728883
 30
0.0
 10
-15.8417025373
 20
82.187226471
 30
0.0
 10
-15.8894286937
 20
82.1859253111
 30
0.0
 11
-15.7502594514
 21
82.1506565846
 31
0.0
 11
-15.8894286937
 21
82.1859253111
 31
0.0
  0
SPLINE
  5
4B1
100
AcDbEntity
  8
RACCORDO
100
AcDbSpline
 62
253
  6
CONTINUOUS
 70
0
 71
3
 72
8
 73
4
 74
2
 42
0.0000001
 43
0.0000001
 44
0.0000000001
 12
0.1582062118
 22
-0.0777641404
 32
0.0
 13
0.1242176209
 23
-0.1282058781
 33
0.0
 40
0.0
 40
0.0
 40
0.0
 40
0.0
 40
1.0
 40
1.0
 40
1.0
 40
1.0
 10
76.533581798
 20
36.00873596
 30
0.0
 10
76.5863172019
 20
35.9828145798
 30
0.0
 10
76.6335256955
 20
35.9458071841
 30
0.0
 10
76.6749315691
 20
35.9030718914
 30
0.0
 11
76.533581798
 21
36.00873596
 31
0.0
 11
76.6749315691
 21
35.9030718914
 31
0.0
  0
SPLINE
  5
4B2
100
AcDbEntity
  8
RACCORDO
100
AcDbSpline
 62
253
  6
CONTINUOUS
 70
0
 71
3
 72
8
 73
4
 74
2
 42
0.0000001
 43
0.0000001
 44
0.0000000001
 12
0.0014747042
 22
0.21146802
 32
0.0
 13
-0.0675092255
 23
0.2024011706
 33
0.0
 40
0.0
 40
0.0
 40
0.0
 40
0.0
 40
1.0
 40
1.0
 40
1.0
 40
1.0
 10
82.6677803664
 20
25.4288084389
 30
0.0
 10
82.6682719345
 20
25.499297779
 30
0.0
 10
82.6550061461
 20
25.5700290416
 30
0.0
 10
82.6325030709
 20
25.6374960985
 30
0.0
 11
82.6677803664
 21
25.4288084389
 31
0.0
 11
82.6325030709
 21
25.6374960985
 31
0.0
  0
SPLINE
  5
4B3
100
AcDbEntity
  8
RACCORDO
100
AcDbSpline
 62
253
  6
CONTINUOUS
 70
0
 71
3
 72
8
 73
4
 74
2
 42
0.0000001
 43
0.0000001
 44
0.0000000001
 12
0.0012231642
 22
-0.1741398947
 32
0.0
 13
-0.0811202296
 23
-0.1564361219
 33
0.0
 40
0.0
 40
0.0
 40
0.0
 40
0.0
 40
1.0
 40
1.0
 40
1.0
 40
1.0
 10
82.6677803664
 20
-34.7678032127
 30
0.0
 10
82.6681880879
 20
-34.8258498442
 30
0.0
 10
82.6603872966
 20
-34.8872038528
 30
0.0
 10
82.6333472201
 20
-34.9393492267
 30
0.0
 11
82.6677803664
 21
-34.7678032127
 31
0.0
 11
82.6333472201
 21
-34.9393492267
 31
0.0
  0
SPLINE
  5
4B4
100
AcDbEntity
  8
ASSI
100
AcDbSpline
 62
7
  6
CONTINUOUS
 70
0
 71
3
 72
8
 73
4
 74
2
 42
0.0000001
 43
0.0000001
 44
0.0000000001
 12
-0.0635455529
 22
-0.1467743372
 32
0.0
 13
-0.0429670072
 23
-0.1554279564
 33
0.0
 40
0.0
 40
0.0
 40
0.0
 40
0.0
 40
1.0
 40
1.0
 40
1.0
 40
1.0
 10
76.5429136913
 20
-7.8332419846
 30
0.0
 10
76.5217318404
 20
-7.8821667636
 30
0.0
 10
76.5041910077
 20
-7.9329341426
 30
0.0
 10
76.4898686719
 20
-7.9847434614
 30
0.0
 11
76.5429136913
 21
-7.8332419846
 31
0.0
 11
76.4898686719
 21
-7.9847434614
 31
0.0
  0
SPLINE
  5
4B5
100
AcDbEntity
  8
RACCORDO
100
AcDbSpline
 62
253
  6
CONTINUOUS
 70
0
 71
3
 72
9
 73
5
 74
3
 42
0.0000001
 43
0.0000001
 44
0.0000000001
 12
-0.4054069353
 22
0.1975029611
 32
0.0
 13
-0.4016788575
 23
-0.1922523376
 33
0.0
 40
0.0
 40
0.0
 40
0.0
 40
0.0
 40
0.3843300974
 40
1.0
 40
1.0
 40
1.0
 40
1.0
 10
37.5190473446
 20
27.2033517489
 30
0.0
 10
37.4671106489
 20
27.2286538596
 30
0.0
 10
37.3160431962
 20
27.2652152989
 30
0.0
 10
37.1669280192
 20
27.2210993169
 30
0.0
 10
37.0844941582
 20
27.1816446575
 30
0.0
 11
37.5190473446
 21
27.2033517489
 31
0.0
 11
37.3512794812
 21
27.2448403511
 31
0.0
 11
37.0844941582
 21
27.1816446575
 31
0.0
  0
SPLINE
  5
4B6
100
AcDbEntity
  8
RACCORDO
100
AcDbSpline
 62
253
  6
CONTINUOUS
 70
0
 71
3
 72
9
 73
5
 74
3
 42
0.0000001
 43
0.0000001
 44
0.0000000001
 12
-0.4054069303
 22
0.1975029645
 32
0.0
 13
-0.4016788539
 23
-0.1922523359
 33
0.0
 40
0.0
 40
0.0
 40
0.0
 40
0.0
 40
0.3843300476
 40
1.0
 40
1.0
 40
1.0
 40
1.0
 10
-49.4550867401
 20
70.6904187918
 30
0.0
 10
-49.5070234284
 20
70.7157208997
 30
0.0
 10
-49.6580908768
 20
70.7522823441
 30
0.0
 10
-49.8072060543
 20
70.7081663594
 30
0.0
 10
-49.8896399212
 20
70.6687116972
 30
0.0
 11
-49.4550867401
 21
70.6904187918
 31
0.0
 11
-49.6228545785
 21
70.7319073934
 31
0.0
 11
-49.8896399212
 21
70.6687116972
 31
0.0
  0
SPLINE
  5
4B7
100
AcDbEntity
  8
IMPORT_IGES
100
AcDbSpline
 62
7
  6
CONTINUOUS
 70
0
 71
3
 72
11
 73
7
 74
5
 42
0.0000001
 43
0.0000001
 44
0.0000000001
 12
-0.0908648641
 22
-0.1891874316
 32
0.0
 13
-0.067530379
 23
-0.2314465581
 33
0.0
 40
0.0
 40
0.0
 40
0.0
 40
0.0
 40
0.5
 40
0.75
 40
0.875
 40
1.0
 40
1.0
 40
1.0
 40
1.0
 10
76.5244018294
 20
-7.8030854614
 30
0.0
 10
76.5092576854
 20
-7.8346167
 30
0.0
 10
76.4871616108
 20
-7.8827957276
 30
0.0
 10
76.4663083811
 20
-7.9433422037
 30
0.0
 10
76.4549277435
 20
-7.9791866452
 30
0.0
 10
76.449321141
 20
-7.9989288559
 30
0.0
 10
76.4465073752
 20
-8.0085724625
 30
0.0
 11
76.5244018294
 21
-7.8030854614
 31
0.0
 11
76.4816726427
 21
-7.9005078265
 31
0.0
 11
76.4635078462
 21
-7.9524071854
 31
0.0
 11
76.4549486725
 21
-7.9796416427
 31
0.0
 11
76.4465073752
 21
-8.0085724625
 31
0.0
  0
SPLINE
  5
4B8
100
AcDbEntity
  8
IMPORT_IGES
100
AcDbSpline
 62
7
  6
CONTINUOUS
 70
0
 71
3
 72
24
 73
20
 74
18
 42
0.0000001
 43
0.0000001
 44
0.0000000001
 12
-0.2742547161
 22
-0.4534817028
 32
0.0
 13
-0.1482155837
 23
-0.6619319765
 33
0.0
 40
0.0
 40
0.0
 40
0.0
 40
0.0
 40
0.125
 40
0.15625
 40
0.1875
 40
0.25
 40
0.3125
 40
0.375
 40
0.4375
 40
0.5
 40
0.5625
 40
0.625
 40
0.6875
 40
0.75
 40
0.8125
 40
0.84375
 40
0.875
 40
0.9375
 40
1.0
 40
1.0
 40
1.0
 40
1.0
 10
76.1483013015
 20
-7.180583959
 30
0.0
 10
76.1368740217
 20
-7.1994790299
 30
0.0
 10
76.1226514607
 20
-7.2234978092
 30
0.0
 10
76.1053997711
 20
-7.2511205226
 30
0.0
 10
76.094292493
 20
-7.2720952845
 30
0.0
 10
76.0806610902
 20
-7.2993415872
 30
0.0
 10
76.0637453987
 20
-7.3311140738
 30
0.0
 10
76.0486574278
 20
-7.3649343063
 30
0.0
 10
76.0343081123
 20
-7.3994968046
 30
0.0
 10
76.0189222195
 20
-7.4330475802
 30
0.0
 10
76.0069439803
 20
-7.4699029807
 30
0.0
 10
75.9938830219
 20
-7.5059256398
 30
0.0
 10
75.9817452865
 20
-7.5419746395
 30
0.0
 10
75.9721438357
 20
-7.5774731663
 30
0.0
 10
75.9634964203
 20
-7.6067384778
 30
0.0
 10
75.9568612411
 20
-7.6311862695
 30
0.0
 10
75.9507985909
 20
-7.6595371064
 30
0.0
 10
75.9430225297
 20
-7.6936275612
 30
0.0
 10
75.9368619469
 20
-7.721310772
 30
0.0
 10
75.9337741223
 20
-7.7351010215
 30
0.0
 11
76.1483013015
 21
-7.180583959
 31
0.0
 11
76.114019462
 21
-7.2372691718
 31
0.0
 11
76.1054490021
 21
-7.251440475
 31
0.0
 11
76.0970861588
 21
-7.2669201173
 31
0.0
 11
76.0805680888
 21
-7.2991877411
 31
0.0
 11
76.0640500188
 21
-7.3314553648
 31
0.0
 11
76.048780537
 21
-7.3650580173
 31
0.0
 11
76.0341353494
 21
-7.3993281841
 31
0.0
 11
76.0194901617
 21
-7.433598351
 31
0.0
 11
76.0067635271
 21
-7.4697641904
 31
0.0
 11
75.9940368924
 21
-7.5059300299
 31
0.0
 11
75.9821680006
 21
-7.541882894
 31
0.0
 11
75.9720145944
 21
-7.5774098075
 31
0.0
 11
75.9618611883
 21
-7.6129367209
 31
0.0
 11
75.9569328072
 21
-7.6316741502
 31
0.0
 11
75.9523010702
 21
-7.6523595244
 31
0.0
 11
75.9430375963
 21
-7.693730273
 31
0.0
 11
75.9337741223
 21
-7.7351010215
 31
0.0
  0
SPLINE
  5
4B9
100
AcDbEntity
  8
IMPORT_IGES
100
AcDbSpline
 62
7
  6
CONTINUOUS
 70
0
 71
3
 72
19
 73
15
 74
13
 42
0.0000001
 43
0.0000001
 44
0.0000000001
 12
-0.0781908573
 22
-0.4499000735
 32
0.0
 13
0.0014045988
 23
-0.5292923819
 33
0.0
 40
0.0
 40
0.0
 40
0.0
 40
0.0
 40
0.125
 40
0.25
 40
0.375
 40
0.4375
 40
0.5
 40
0.5625
 40
0.625
 40
0.6875
 40
0.75
 40
0.8125
 40
0.875
 40
1.0
 40
1.0
 40
1.0
 40
1.0
 10
75.933774121
 20
-7.7351010279
 30
0.0
 10
75.9305161686
 20
-7.7538468643
 30
0.0
 10
75.9236702105
 20
-7.7910899781
 30
0.0
 10
75.9153815934
 20
-7.8484460027
 30
0.0
 10
75.9091086751
 20
-7.8964795617
 30
0.0
 10
75.9054356414
 20
-7.9362593
 30
0.0
 10
75.9021336702
 20
-7.9644754357
 30
0.0
 10
75.9003478321
 20
-7.9984897981
 30
0.0
 10
75.8980809931
 20
-8.0311059114
 30
0.0
 10
75.8962220247
 20
-8.0635167945
 30
0.0
 10
75.8956037523
 20
-8.0938383334
 30
0.0
 10
75.8943971802
 20
-8.1241054509
 30
0.0
 10
75.894271755
 20
-8.1675376474
 30
0.0
 10
75.8944504706
 20
-8.2008717345
 30
0.0
 10
75.8945089955
 20
-8.2229255838
 30
0.0
 11
75.933774121
 21
-7.7351010279
 31
0.0
 11
75.9240002639
 21
-7.7913385371
 31
0.0
 11
75.9155084459
 21
-7.8484933771
 31
0.0
 11
75.9083025251
 21
-7.9065372372
 31
0.0
 11
75.9053444421
 21
-7.935989522
 31
0.0
 11
75.902386359
 21
-7.9654418068
 31
0.0
 11
75.9002676653
 21
-7.9982567566
 31
0.0
 11
75.8981489715
 21
-8.0310717064
 31
0.0
 11
75.8964288074
 21
-8.0631685705
 31
0.0
 11
75.8955057024
 21
-8.0938292632
 31
0.0
 11
75.8945825974
 21
-8.1244899559
 31
0.0
 11
75.8943334207
 21
-8.156764036
 31
0.0
 11
75.8945089955
 21
-8.2229255838
 31
0.0
  0
SPLINE
  5
4BA
100
AcDbEntity
  8
IMPORT_IGES
100
AcDbSpline
 62
7
  6
CONTINUOUS
 70
0
 71
3
 72
22
 73
18
 74
16
 42
0.0000001
 43
0.0000001
 44
0.0000000001
 12
-0.712930875
 22
0.6358115451
 32
0.0
 13
-0.7640936473
 23
0.3903017345
 33
0.0
 40
0.0
 40
0.0
 40
0.0
 40
0.0
 40
0.125
 40
0.1875
 40
0.25
 40
0.3125
 40
0.375
 40
0.4375
 40
0.5
 40
0.5625
 40
0.625
 40
0.6875
 40
0.75
 40
0.8125
 40
0.84375
 40
0.875
 40
1.0
 40
1.0
 40
1.0
 40
1.0
 10
78.3599093263
 20
-6.9761699596
 30
0.0
 10
78.3302038731
 20
-6.9496778119
 30
0.0
 10
78.2857167533
 20
-6.9096772461
 30
0.0
 10
78.2261163541
 20
-6.8573925353
 30
0.0
 10
78.1805926505
 20
-6.8213230033
 30
0.0
 10
78.1354366781
 20
-6.7836876649
 30
0.0
 10
78.089633185
 20
-6.7491715509
 30
0.0
 10
78.0436222791
 20
-6.7157981946
 30
0.0
 10
77.9978736629
 20
-6.6807615075
 30
0.0
 10
77.9512833007
 20
-6.6512353859
 30
0.0
 10
77.9051231779
 20
-6.6201258989
 30
0.0
 10
77.8580838435
 20
-6.5898393082
 30
0.0
 10
77.8080660776
 20
-6.5613004881
 30
0.0
 10
77.7669369893
 20
-6.5367664733
 30
0.0
 10
77.7341972146
 20
-6.5180693716
 30
0.0
 10
77.6867537791
 20
-6.4945182349
 30
0.0
 10
77.6467836697
 20
-6.4737218408
 30
0.0
 10
77.6149464344
 20
-6.4574592686
 30
0.0
 11
78.3599093263
 21
-6.9761699596
 31
0.0
 11
78.2707929669
 21
-6.8966935165
 31
0.0
 11
78.2259791201
 21
-6.8579165355
 31
0.0
 11
78.1806539391
 21
-6.8210620356
 31
0.0
 11
78.135328758
 21
-6.7842075357
 31
0.0
 11
78.0895986162
 21
-6.7493620106
 31
0.0
 11
78.0436659941
 21
-6.7155209728
 31
0.0
 11
77.9977333719
 21
-6.6816799351
 31
0.0
 11
77.9513550073
 21
-6.6509714917
 31
0.0
 11
77.9049766427
 21
-6.6202630483
 31
0.0
 11
77.8575874383
 21
-6.5901306033
 31
0.0
 11
77.8081765543
 21
-6.5611501551
 31
0.0
 11
77.7587656703
 21
-6.532169707
 31
0.0
 11
77.7343360668
 21
-6.5184439146
 31
0.0
 11
77.7104581403
 21
-6.5062469854
 31
0.0
 11
77.6149464344
 21
-6.4574592686
 31
0.0
  0
SPLINE
  5
4BB
100
AcDbEntity
  8
IMPORT_IGES
100
AcDbSpline
 62
7
  6
CONTINUOUS
 70
0
 71
3
 72
19
 73
15
 74
13
 42
0.0000001
 43
0.0000001
 44
0.0000000001
 12
0.0009381589
 22
-0.0457558449
 32
0.0
 13
0.0055158227
 23
-0.1228754208
 33
0.0
 40
0.0
 40
0.0
 40
0.0
 40
0.0
 40
0.125
 40
0.1875
 40
0.25
 40
0.5
 40
0.625
 40
0.6875
 40
0.75
 40
0.8125
 40
0.84375
 40
0.875
 40
0.9375
 40
1.0
 40
1.0
 40
1.0
 40
1.0
 10
75.8945089955
 20
-8.2229255843
 30
0.0
 10
75.8945480855
 20
-8.2248320779
 30
0.0
 10
75.894598165
 20
-8.2273992385
 30
0.0
 10
75.8946991593
 20
-8.231992438
 30
0.0
 10
75.8950108789
 20
-8.2445146505
 30
0.0
 10
75.8953382055
 20
-8.2569890196
 30
0.0
 10
75.8958601885
 20
-8.2710431394
 30
0.0
 10
75.8961077168
 20
-8.2779464158
 30
0.0
 10
75.8962081925
 20
-8.2803061381
 30
0.0
 10
75.896293973
 20
-8.2825526686
 30
0.0
 10
75.8964002608
 20
-8.285086532
 30
0.0
 10
75.896660465
 20
-8.2908422295
 30
0.0
 10
75.8969325583
 20
-8.2969240469
 30
0.0
 10
75.8971664347
 20
-8.3021286412
 30
0.0
 10
75.8972813476
 20
-8.3046885458
 30
0.0
 11
75.8945089955
 21
-8.2229255843
 31
0.0
 11
75.8946262654
 21
-8.2286450649
 31
0.0
 11
75.8947125117
 21
-8.2324618058
 31
0.0
 11
75.8948539807
 21
-8.2381925477
 31
0.0
 11
75.8955058822
 21
-8.2611549348
 31
0.0
 11
75.8959178416
 21
-8.2726749877
 31
0.0
 11
75.8960935217
 21
-8.2774767933
 31
0.0
 11
75.8962086026
 21
-8.2803621572
 31
0.0
 11
75.8963236836
 21
-8.283247521
 31
0.0
 11
75.8964195004
 21
-8.2854892613
 31
0.0
 11
75.8965918698
 21
-8.2893291182
 31
0.0
 11
75.8969366087
 21
-8.297008832
 31
0.0
 11
75.8972813476
 21
-8.3046885458
 31
0.0
  0
ELLIPSE
  5
4BC
100
AcDbEntity
  8
RACCORDO
100
AcDbEllipse
 62
7
  6
CONTINUOUS
 10
80.5097609654
 20
25.2368342152
 30
0.0
 11
2.999929097
 21
-0.0421585494
 31
0.0
 40
0.4892375088
 41
-0.7610696355
 42
-0.1760682946
  0
ELLIPSE
  5
4BD
100
AcDbEntity
  8
RACCORDO
100
AcDbEllipse
 62
7
  6
CONTINUOUS
 10
75.4890340793
 20
33.8963071627
 30
0.0
 11
1.3048917676
 21
2.7015425106
 31
0.0
 40
0.6016116119
 41
0.0740352599
 42
0.6590366007
  0
ELLIPSE
  5
4BE
100
AcDbEntity
  8
RACCORDO
100
AcDbEllipse
 62
7
  6
CONTINUOUS
 10
45.7905492695
 20
48.7455495676
 30
0.0
 11
1.3048917676
 21
2.7015425106
 31
0.0
 40
0.6016116119
 41
0.0740352599
 42
0.6590366007
  0
ELLIPSE
  5
4BF
100
AcDbEntity
  8
RACCORDO
100
AcDbEllipse
 62
7
  6
CONTINUOUS
 10
16.0920644597
 20
63.5947919726
 30
0.0
 11
1.3048917676
 21
2.7015425106
 31
0.0
 40
0.6016116119
 41
0.0740352599
 42
0.6590366007
  0
ELLIPSE
  5
4C0
100
AcDbEntity
  8
RACCORDO
100
AcDbEllipse
 62
7
  6
CONTINUOUS
 10
-13.6064203502
 20
78.4440343775
 30
0.0
 11
1.3048917676
 21
2.7015425106
 31
0.0
 40
0.6016116119
 41
0.0740352599
 42
0.6590366007
  0
ELLIPSE
  5
4C1
100
AcDbEntity
  8
RACCORDO
100
AcDbEllipse
 62
7
  6
CONTINUOUS
 10
80.5097609654
 20
-31.0548170307
 30
0.0
 11
2.999929097
 21
-0.0421585494
 31
0.0
 40
0.4892375088
 41
-0.7610696355
 42
-0.1760682946
  0
ELLIPSE
  5
4C2
100
AcDbEntity
  8
RACCORDO
100
AcDbEllipse
 62
7
  6
CONTINUOUS
 10
80.5097609654
 20
-2.9089914077
 30
0.0
 11
2.999929097
 21
-0.0421585494
 31
0.0
 40
0.4892375088
 41
-0.7610696355
 42
-0.1760682946
  0
ELLIPSE
  5
4C3
100
AcDbEntity
  8
RACCORDO
100
AcDbEllipse
 62
7
  6
CONTINUOUS
 10
-14.7797560223
 20
79.0307022135
 30
0.0
 11
1.3798615415
 21
2.6640387682
 31
0.0
 40
0.6229838795
 41
0.0911507887
 42
0.6761521296
  0
ELLIPSE
  5
4C4
100
AcDbEntity
  8
RACCORDO
100
AcDbEllipse
 62
7
  6
CONTINUOUS
 10
80.5097609654
 20
-32.4918538776
 30
0.0
 11
2.9999182366
 21
0.043377328
 31
0.0
 40
0.5106100819
 41
-0.775327905
 42
-0.1903265641
  0
ELLIPSE
  5
4C5
100
AcDbEntity
  8
RACCORDO
100
AcDbEllipse
 62
7
  6
CONTINUOUS
 10
-18.4084674527
 20
51.9739204894
 30
0.0
 11
-0.4474018214
 21
0.8946702271
 31
0.0
 40
0.6121897086
 41
-0.6846338729
 42
0.0199943986
  0
ELLIPSE
  5
4C6
100
AcDbEntity
  8
RACCORDO
100
AcDbEllipse
 62
7
  6
CONTINUOUS
 10
75.3229275335
 20
36.4207461581
 30
0.0
 11
0.1379861541
 21
0.2664038768
 31
0.0
 40
0.6229838795
 41
-0.8771909047
 42
0.6761521296
  0
ELLIPSE
  5
4C7
100
AcDbEntity
  8
RACCORDO
100
AcDbEllipse
 62
7
  6
CONTINUOUS
 10
45.6244427237
 20
51.269988563
 30
0.0
 11
0.1379861541
 21
0.2664038768
 31
0.0
 40
0.6229838795
 41
-0.8771909047
 42
0.6761521296
  0
ELLIPSE
  5
4C8
100
AcDbEntity
  8
RACCORDO
100
AcDbEllipse
 62
7
  6
CONTINUOUS
 10
15.9259579139
 20
66.1192309679
 30
0.0
 11
0.1379861541
 21
0.2664038768
 31
0.0
 40
0.6229838795
 41
-0.8771909047
 42
0.6761521296
  0
ELLIPSE
  5
4C9
100
AcDbEntity
  8
RACCORDO
100
AcDbEllipse
 62
7
  6
CONTINUOUS
 10
74.3156984072
 20
34.4829749988
 30
0.0
 11
1.3798615415
 21
2.6640387682
 31
0.0
 40
0.6229838795
 41
0.0911507887
 42
0.6761521296
  0
ELLIPSE
  5
4CA
100
AcDbEntity
  8
RACCORDO
100
AcDbEllipse
 62
7
  6
CONTINUOUS
 10
44.6172135974
 20
49.3322174037
 30
0.0
 11
1.3798615415
 21
2.6640387682
 31
0.0
 40
0.6229838795
 41
0.0911507887
 42
0.6761521296
  0
ELLIPSE
  5
4CB
100
AcDbEntity
  8
RACCORDO
100
AcDbEllipse
 62
7
  6
CONTINUOUS
 10
14.9187287875
 20
64.1814598086
 30
0.0
 11
1.3798615415
 21
2.6640387682
 31
0.0
 40
0.6229838795
 41
0.0911507887
 42
0.6761521296
  0
ELLIPSE
  5
4CC
100
AcDbEntity
  8
RACCORDO
100
AcDbEllipse
 62
7
  6
CONTINUOUS
 10
80.5097609654
 20
-4.3460282546
 30
0.0
 11
2.9999182366
 21
0.043377328
 31
0.0
 40
0.5106100819
 41
-0.775327905
 42
-0.1903265641
  0
ELLIPSE
  5
4CD
100
AcDbEntity
  8
RACCORDO
100
AcDbEllipse
 62
7
  6
CONTINUOUS
 10
80.5097609654
 20
23.7997973684
 30
0.0
 11
2.9999182366
 21
0.043377328
 31
0.0
 40
0.5106100819
 41
-0.775327905
 42
-0.1903265641
  0
ELLIPSE
  5
4CE
100
AcDbEntity
  8
RACCORDO
100
AcDbEllipse
 62
7
  6
CONTINUOUS
 10
82.6848031773
 20
-4.4224367254
 30
0.0
 11
0.2999918237
 21
0.0043377328
 31
0.0
 40
0.5106100819
 41
5.5078574022
 42
7.0612004365
  0
ELLIPSE
  5
4CF
100
AcDbEntity
  8
RACCORDO
100
AcDbEllipse
 62
7
  6
CONTINUOUS
 10
82.6848031773
 20
23.7233888976
 30
0.0
 11
0.2999918237
 21
0.0043377328
 31
0.0
 40
0.5106100819
 41
5.5078574022
 42
7.0612004365
  0
ELLIPSE
  5
4D0
100
AcDbEntity
  8
RACCORDO
100
AcDbEllipse
 62
7
  6
CONTINUOUS
 10
-20.7752986926
 20
50.5568215411
 30
0.0
 11
0.4999863728
 21
0.0072295547
 31
0.0
 40
0.5106100819
 41
0.7780151293
 42
1.8339216541
  0
ELLIPSE
  5
4D1
100
AcDbEntity
  8
RACCORDO
100
AcDbEllipse
 62
7
  6
CONTINUOUS
 10
-3.0853942803
 20
41.711869335
 30
0.0
 11
0.4999863728
 21
0.0072295547
 31
0.0
 40
0.5106100819
 41
6.0052939117
 42
7.0612004365
  0
ELLIPSE
  5
4D2
100
AcDbEntity
  8
RACCORDO
100
AcDbEllipse
 62
7
  6
CONTINUOUS
 10
1.3359995792
 20
42.1016869735
 30
0.0
 11
-0.4471615512
 21
0.8944566536
 31
0.0
 40
0.6125552124
 41
-2.255296188
 42
-0.6848044542
  0
ENDSEC
  0
SECTION
  2
OBJECTS
  0
DICTIONARY
  5
C
100
AcDbDictionary
280
0
281
1
  3
ACAD_GROUP
350
D
  3
ACAD_MLINESTYLE
350
17
  3
ACAD_LAYOUT
350
1A
  3
ACAD_PLOTSETTINGS
350
19
  3
ACAD_PLOTSTYLENAME
350
E
  0
DICTIONARY
  5
D
102
{ACAD_REACTORS
330
C
102
}
100
AcDbDictionary
280
0
281
1
  0
ACDBDICTIONARYWDFLT
  5
E
102
{ACAD_REACTORS
330
C
102
}
100
AcDbDictionary
281
1
  3
Normal
350
F
100
AcDbDictionaryWithDefault
340
F
  0
DICTIONARY
  5
17
102
{ACAD_REACTORS
330
C
102
}
100
AcDbDictionary
280
0
281
1
  3
Standard
350
18
  0
DICTIONARY
  5
19
102
{ACAD_REACTORS
330
C
102
}
100
AcDbDictionary
281
1
  0
DICTIONARY
  5
1A
102
{ACAD_REACTORS
330
C
102
}
100
AcDbDictionary
281
1
  3
Model
350
4D3
  3
Layout1
350
4D4
  0
ACDBPLACEHOLDER
  5
F
102
{ACAD_REACTORS
330
E
102
}
  0
MLINESTYLE
  5
18
102
{ACAD_REACTORS
330
17
102
}
100
AcDbMlineStyle
  2
STANDARD
 70
0
  3

 62
256
 51
90.0
 52
90.0
 71
2
 49
0.5
 62
256
  6
BYLAYER
 49
-0.5
 62
256
  6
BYLAYER
  0
LAYOUT
  5
4D3
102
{ACAD_REACTORS
330
1A
102
}
100
AcDbPlotSettings
  1

  2
none_device
  4
ISO_A4_(297.00_x_210.00_MM)
  6

 40
0.0
 41
0.0
 42
0.0
 43
0.0
 44
297.0
 45
210.0
 46
0.0
 47
0.0
 48
0.0
 49
0.0
140
0.0
141
0.0
142
1.0
143
1.0
 70
1024
 72
1
 73
0
 74
0
  7

 75
0
147
1.0
148
0.0
149
0.0
100
AcDbLayout
  1
Model
 70
0
 71
0
 10
0.0
 20
0.0
 11
297.0
 21
210.0
 12
0.0
 22
0.0
 32
0.0
 14
0.0
 24
0.0
 34
0.0
 15
0.0
 25
0.0
 35
0.0
146
0.0
 13
0.0
 23
0.0
 33
0.0
 16
1.0
 26
0.0
 36
0.0
 17
0.0
 27
1.0
 37
0.0
 76
0
330
210
345
0
346
0
  0
LAYOUT
  5
4D4
102
{ACAD_REACTORS
330
1A
102
}
100
AcDbPlotSettings
  1

  2
none_device
  4
ISO_A4_(297.00_x_210.00_MM)
  6

 40
0.0
 41
0.0
 42
0.0
 43
0.0
 44
297.0
 45
210.0
 46
0.0
 47
0.0
 48
0.0
 49
0.0
140
0.0
141
0.0
142
1.0
143
1.0
 70
0
 72
1
 73
0
 74
0
  7

 75
0
147
1.0
148
0.0
149
0.0
100
AcDbLayout
  1
Layout1
 70
0
 71
1
 10
0.0
 20
0.0
 11
297.0
 21
210.0
 12
0.0
 22
0.0
 32
0.0
 14
0.0
 24
0.0
 34
0.0
 15
0.0
 25
0.0
 35
0.0
146
0.0
 13
0.0
 23
0.0
 33
0.0
 16
1.0
 26
0.0
 36
0.0
 17
0.0
 27
1.0
 37
0.0
 76
0
330
211
345
0
346
0
  0
ENDSEC
  0
EOF
