  0
SECTION
  2
HEADER
  9
$ACADVER
  1
AC1015
  9
$DWGCODEPAGE
  3
ANSI_1252
  9
$EXTMAX
 10
297.0
 20
210.0
 30
0.0
  9
$EXTMIN
 10
0.0
 20
0.0
 30
0.0
  9
$LIMMIN
 10
0.0
 20
0.0
  9
$LIMMAX
 10
297.0
 20
210.0
  9
$VIEWCTR
 10
148.5
 20
105.0
  9
$VIEWSIZE
 40
210.0
  9
$CLAYER
  8
0
  9
$LTSCALE
 40
16.335
  9
$CELTYPE
  6
BYLAYER
  9
$DIMSCALE
 40
1.0
  9
$DIMASZ
 40
3.0
  9
$DIMEXO
 40
1.85625
  9
$DIMDLI
 40
11.286
  9
$DIMEXE
 40
5.346
  9
$DIMCEN
 40
2.673
  9
$DIMLFAC
 40
1.0
  9
$DIMBLK
  1
_FILLED
  9
$DIMTXT
 40
3.0
  9
$DIMTOL
 70
1
  9
$DIMLIM
 70
0
  9
$DIMTFAC
 40
1.0
  9
$DIMTP
 40
0.01
  9
$DIMTM
 40
0.01
  9
$PDMODE
 70
3
  9
$PDSIZE
 40
3.0
  9
$HANDSEED
  5
4AC
  9
$TILEMODE
 70
1
  9
$MEASUREMENT
 70
1
  9
$INSUNITS
 70
4
  0
ENDSEC
  0
SECTION
  2
CLASSES
  0
CLASS
  1
ACDBDICTIONARYWDFLT
  2
AcDbDictionaryWithDefault
  3
AutoCAD 2000
 90
0
280
0
281
0
  0
CLASS
  1
ACDBPLACEHOLDER
  2
AcDbPlaceHolder
  3
AutoCAD 2000
 90
0
280
0
281
0
  0
CLASS
  1
LAYOUT
  2
AcDbLayout
  3
AutoCAD 2000
 90
0
280
0
281
0
  0
ENDSEC
  0
SECTION
  2
TABLES
  0
TABLE
  2
VPORT
  5
8
100
AcDbSymbolTable
 70
2
  0
VPORT
  5
1F4
100
AcDbSymbolTableRecord
100
AcDbViewportTableRecord
  2
*ACTIVE
 70
0
 10
0.0
 20
0.0
 11
1.0
 21
1.0
 12
148.5
 22
105.0
 13
0.0
 23
0.0
 14
1.0
 24
1.0
 15
0.0
 25
0.0
 16
0.0
 26
0.0
 36
1.0
 17
0.0
 27
0.0
 37
0.0
 40
210.0
 41
1.4142857143
 42
50.0
 43
0.0
 44
0.0
 50
0.0
 51
0.0
 71
0
 72
100
 73
1
 74
1
 75
0
 76
0
 77
0
 78
0
  0
ENDTAB
  0
TABLE
  2
LTYPE
  5
5
100
AcDbSymbolTable
 70
6
  0
LTYPE
  5
14
100
AcDbSymbolTableRecord
100
AcDbLinetypeTableRecord
  2
BYBLOCK
 70
0
  3

 72
65
 73
0
 40
0.0
  0
LTYPE
  5
15
100
AcDbSymbolTableRecord
100
AcDbLinetypeTableRecord
  2
BYLAYER
 70
0
  3

 72
65
 73
0
 40
0.0
  0
LTYPE
  5
16
100
AcDbSymbolTableRecord
100
AcDbLinetypeTableRecord
  2
CONTINUOUS
 70
64
  3
Solid line
 72
65
 73
0
 40
0.0
  0
LTYPE
  5
1F5
100
AcDbSymbolTableRecord
100
AcDbLinetypeTableRecord
  2
CENTER
 70
64
  3
____ _ ____ _ ____ _ ____ _ ____ _ ____ _ ____
 72
65
 73
4
 40
0.6
 49
0.375
 74
0
 49
-0.075
 74
0
 49
0.075
 74
0
 49
-0.075
 74
0
  0
LTYPE
  5
1F6
100
AcDbSymbolTableRecord
100
AcDbLinetypeTableRecord
  2
HIDDEN
 70
64
  3
- - - - - - - - - - - - - - - - - - - -
 72
65
 73
2
 40
0.2
 49
0.1
 74
0
 49
-0.1
 74
0
  0
LTYPE
  5
1F7
100
AcDbSymbolTableRecord
100
AcDbLinetypeTableRecord
  2
PHANTOM
 70
64
  3
_____ _ _ _____ _ _ _____ _ _ _____
 72
65
 73
6
 40
0.8
 49
0.45
 74
0
 49
-0.05
 74
0
 49
0.1
 74
0
 49
-0.05
 74
0
 49
0.1
 74
0
 49
-0.05
 74
0
  0
LTYPE
  5
1F8
100
AcDbSymbolTableRecord
100
AcDbLinetypeTableRecord
  2
DOT
 70
64
  3
. . . . . . . . . . . . . . . . . . . .
 72
65
 73
2
 40
0.2
 49
0.1
 74
0
 49
-0.1
 74
0
  0
LTYPE
  5
1F9
100
AcDbSymbolTableRecord
100
AcDbLinetypeTableRecord
  2
DASHED
 70
64
  3
- - - - - - - - - - - - - - - - - - - -
 72
65
 73
2
 40
0.2
 49
0.1
 74
0
 49
-0.1
 74
0
  0
ENDTAB
  0
TABLE
  2
LAYER
  5
2
100
AcDbSymbolTable
 70
36
  0
LAYER
  5
10
100
AcDbSymbolTableRecord
100
AcDbLayerTableRecord
  2
0
 70
0
 62
7
  6
CONTINUOUS
370
-3
390
F
  0
LAYER
  5
1FA
100
AcDbSymbolTableRecord
100
AcDbLayerTableRecord
  2
DEFAULT_1
 70
0
 62
7
  6
CENTER
370
-3
390
F
  0
LAYER
  5
1FB
100
AcDbSymbolTableRecord
100
AcDbLayerTableRecord
  2
DEFAULT_2
 70
0
 62
7
  6
HIDDEN
370
-3
390
F
  0
LAYER
  5
1FC
100
AcDbSymbolTableRecord
100
AcDbLayerTableRecord
  2
DEFAULT_3
 70
0
 62
7
  6
PHANTOM
370
-3
390
F
  0
LAYER
  5
1FD
100
AcDbSymbolTableRecord
100
AcDbLayerTableRecord
  2
ASSI
 70
0
 62
7
  6
CONTINUOUS
370
-3
390
F
  0
LAYER
  5
1FE
100
AcDbSymbolTableRecord
100
AcDbLayerTableRecord
  2
COORDINATE
 70
0
 62
7
  6
CONTINUOUS
370
-3
390
F
  0
LAYER
  5
1FF
100
AcDbSymbolTableRecord
100
AcDbLayerTableRecord
  2
COORD_ORIGINE
 70
0
 62
7
  6
CONTINUOUS
370
-3
390
F
  0
LAYER
  5
200
100
AcDbSymbolTableRecord
100
AcDbLayerTableRecord
  2
COPY_PUBLISH
 70
0
 62
7
  6
CONTINUOUS
370
-3
390
F
  0
LAYER
  5
201
100
AcDbSymbolTableRecord
100
AcDbLayerTableRecord
  2
COSMETIC
 70
0
 62
7
  6
CONTINUOUS
370
-3
390
F
  0
LAYER
  5
202
100
AcDbSymbolTableRecord
100
AcDbLayerTableRecord
  2
CURVA_ASSE
 70
0
 62
7
  6
CONTINUOUS
370
-3
390
F
  0
LAYER
  5
203
100
AcDbSymbolTableRecord
100
AcDbLayerTableRecord
  2
CURVE
 70
0
 62
7
  6
CONTINUOUS
370
-3
390
F
  0
LAYER
  5
204
100
AcDbSymbolTableRecord
100
AcDbLayerTableRecord
  2
CURVE_GUIDA
 70
0
 62
7
  6
CONTINUOUS
370
-3
390
F
  0
LAYER
  5
205
100
AcDbSymbolTableRecord
100
AcDbLayerTableRecord
  2
CURVE_INC_PUNZONI
 70
0
 62
7
  6
CONTINUOUS
370
-3
390
F
  0
LAYER
  5
206
100
AcDbSymbolTableRecord
100
AcDbLayerTableRecord
  2
DRAFT
 70
0
 62
7
  6
CONTINUOUS
370
-3
390
F
  0
LAYER
  5
207
100
AcDbSymbolTableRecord
100
AcDbLayerTableRecord
  2
IMPORT_IGES
 70
0
 62
7
  6
CONTINUOUS
370
-3
390
F
  0
LAYER
  5
208
100
AcDbSymbolTableRecord
100
AcDbLayerTableRecord
  2
NOTE
 70
0
 62
7
  6
CONTINUOUS
370
-3
390
F
  0
LAYER
  5
209
100
AcDbSymbolTableRecord
100
AcDbLayerTableRecord
  2
PIANI
 70
0
 62
7
  6
CONTINUOUS
370
-3
390
F
  0
LAYER
  5
20A
100
AcDbSymbolTableRecord
100
AcDbLayerTableRecord
  2
PIANI_ORIGINE
 70
0
 62
7
  6
CONTINUOUS
370
-3
390
F
  0
LAYER
  5
20B
100
AcDbSymbolTableRecord
100
AcDbLayerTableRecord
  2
PUNTI
 70
0
 62
7
  6
CONTINUOUS
370
-3
390
F
  0
LAYER
  5
20C
100
AcDbSymbolTableRecord
100
AcDbLayerTableRecord
  2
RACCORDO
 70
0
 62
7
  6
CONTINUOUS
370
-3
390
F
  0
LAYER
  5
20D
100
AcDbSymbolTableRecord
100
AcDbLayerTableRecord
  2
SMUSSO
 70
0
 62
7
  6
CONTINUOUS
370
-3
390
F
  0
LAYER
  5
20E
100
AcDbSymbolTableRecord
100
AcDbLayerTableRecord
  2
SUPERFICI
 70
0
 62
7
  6
CONTINUOUS
370
-3
390
F
  0
LAYER
  5
20F
100
AcDbSymbolTableRecord
100
AcDbLayerTableRecord
  2
TRASH
 70
0
 62
7
  6
CONTINUOUS
370
-3
390
F
  0
LAYER
  5
210
100
AcDbSymbolTableRecord
100
AcDbLayerTableRecord
  2
XSEC_DATUMS
 70
0
 62
7
  6
CONTINUOUS
370
-3
390
F
  0
ENDTAB
  0
TABLE
  2
STYLE
  5
3
100
AcDbSymbolTable
 70
1
  0
STYLE
  5
11
100
AcDbSymbolTableRecord
100
AcDbTextStyleTableRecord
  2
STANDARD
 70
0
 40
0.0
 41
0.8
 50
0.0
 71
0
 42
0.2
  3
txt
  4

  0
STYLE
  5
211
100
AcDbSymbolTableRecord
100
AcDbTextStyleTableRecord
  2
TEXTSTYLE_1
 70
0
 40
0.0
 41
0.8
 50
0.0
 71
0
 42
0.2
  3
gdt
  4

  0
ENDTAB
  0
TABLE
  2
VIEW
  5
6
100
AcDbSymbolTable
 70
0
  0
ENDTAB
  0
TABLE
  2
UCS
  5
7
100
AcDbSymbolTable
 70
0
  0
ENDTAB
  0
TABLE
  2
APPID
  5
9
100
AcDbSymbolTable
 70
1
  0
APPID
  5
212
100
AcDbSymbolTableRecord
100
AcDbRegAppTableRecord
  2
ACAD
 70
0
  0
ENDTAB
  0
TABLE
  2
BLOCK_RECORD
  5
1
100
AcDbSymbolTable
 70
0
  0
BLOCK_RECORD
  5
213
100
AcDbSymbolTableRecord
100
AcDbBlockTableRecord
  2
*Model_Space
  0
BLOCK_RECORD
  5
214
100
AcDbSymbolTableRecord
100
AcDbBlockTableRecord
  2
*Paper_Space
  0
ENDTAB
  0
TABLE
  2
DIMSTYLE
  5
A
100
AcDbSymbolTable
 70
1
100
AcDbDimStyleTable
 71
0
  0
DIMSTYLE
105
215
100
AcDbSymbolTableRecord
100
AcDbDimStyleTableRecord
  2
STANDARD
 70
0
  3

  4

 40
1.0
 41
3.0
 42
0.0625
 43
0.38
 44
0.18
 45
0.0
 46
0.0
 47
0.01
 48
0.01
140
3.0
141
0.09
142
0.0
143
25.4
144
1.0
145
0.0
146
1.0
147
0.09
 71
1.0
 72
0.0
 73
0
 74
0
 75
0
 76
0
 77
1
 78
8
170
0
171
2
172
0
173
0
174
0
175
0
176
0
177
0
178
0
270
2
271
2
272
2
273
2
274
2
275
0
280
0
281
0
282
0
283
1
284
8
285
0
286
0
287
3
288
0
340
11
  0
ENDTAB
  0
ENDSEC
  0
SECTION
  2
BLOCKS
  0
BLOCK
  5
20
100
AcDbEntity
  8
0
100
AcDbBlockBegin
  2
*Model_Space
 70
0
 10
0.0
 20
0.0
 30
0.0
  3
*Model_Space
  1

  0
ENDBLK
  5
21
100
AcDbEntity
  8
0
100
AcDbBlockEnd
  0
BLOCK
  5
1C
100
AcDbEntity
  8
0
100
AcDbBlockBegin
  2
*Paper_Space
 70
0
 10
0.0
 20
0.0
 30
0.0
  3
*Paper_Space
  1

  0
ENDBLK
  5
1D
100
AcDbEntity
  8
0
100
AcDbBlockEnd
  0
ENDSEC
  0
SECTION
  2
ENTITIES
  0
LINE
  5
216
100
AcDbEntity
  8
ASSI
100
AcDbLine
 62
7
  6
CONTINUOUS
 10
-77.6855966907
 20
92.4611455497
 11
-80.3018917811
 21
91.1529980045
  0
LINE
  5
217
100
AcDbEntity
  8
RACCORDO
100
AcDbLine
 62
253
  6
CONTINUOUS
 10
-73.2134607357
 20
92.1771276776
 11
-75.8297558261
 21
90.8689801324
  0
LINE
  5
218
100
AcDbEntity
  8
DRAFT
100
AcDbLine
 62
7
  6
CONTINUOUS
 10
-59.5183112947
 20
86.5836871697
 11
-60.8076442939
 21
85.9742194567
  0
LINE
  5
219
100
AcDbEntity
  8
0
100
AcDbLine
 62
7
  6
CONTINUOUS
 10
-68.8436696917
 20
69.1528535717
 11
-68.7233326751
 21
69.2865041064
  0
LINE
  5
21A
100
AcDbEntity
  8
0
100
AcDbLine
 62
7
  6
CONTINUOUS
 10
-69.3597287782
 20
70.9040416524
 11
-69.2781274172
 21
70.9448423329
  0
LINE
  5
21B
100
AcDbEntity
  8
0
100
AcDbLine
 62
7
  6
CONTINUOUS
 10
-70.1410141432
 20
70.1828346889
 11
-69.4657947954
 21
70.5204443628
  0
LINE
  5
21C
100
AcDbEntity
  8
0
100
AcDbLine
 62
7
  6
CONTINUOUS
 10
-70.1578279696
 20
70.1309619133
 11
-69.3530518071
 21
70.5333499945
  0
LINE
  5
21D
100
AcDbEntity
  8
0
100
AcDbLine
 62
7
  6
CONTINUOUS
 10
-69.4037675855
 20
70.1581737063
 11
-70.5194886619
 21
69.6003131681
  0
LINE
  5
21E
100
AcDbEntity
  8
RACCORDO
100
AcDbLine
 62
253
  6
CONTINUOUS
 10
-52.0002573001
 20
84.8596549113
 11
-49.8665962416
 21
85.8808720318
  0
LINE
  5
21F
100
AcDbEntity
  8
DRAFT
100
AcDbLine
 62
7
  6
CONTINUOUS
 10
-47.6022145712
 20
84.9884809665
 11
-18.5891613581
 21
98.6709564867
  0
LINE
  5
220
100
AcDbEntity
  8
RACCORDO
100
AcDbLine
 62
7
  6
CONTINUOUS
 10
-14.7081721946
 20
96.7666925903
 11
-43.7916155854
 21
83.0831814736
  0
LINE
  5
221
100
AcDbEntity
  8
RACCORDO
100
AcDbLine
 62
253
  6
CONTINUOUS
 10
-15.6565050936
 20
97.2408590398
 11
-15.6938503258
 21
97.2233009705
  0
LINE
  5
222
100
AcDbEntity
  8
RACCORDO
100
AcDbLine
 62
7
  6
CONTINUOUS
 10
-15.7384701472
 20
97.3165033116
 11
-15.8144370766
 21
97.2835943459
  0
LINE
  5
223
100
AcDbEntity
  8
0
100
AcDbLine
 62
7
  6
CONTINUOUS
 10
-69.3597287782
 20
70.9040416524
 11
-69.4657947954
 21
70.5204443628
  0
LINE
  5
224
100
AcDbEntity
  8
0
100
AcDbLine
 62
7
  6
CONTINUOUS
 10
-70.1578279696
 20
69.2307744328
 11
-69.2932808341
 21
69.6630480006
  0
LINE
  5
225
100
AcDbEntity
  8
0
100
AcDbLine
 62
7
  6
CONTINUOUS
 10
-70.1410141432
 20
69.1678222648
 11
-69.4657947954
 21
69.5054319387
  0
LINE
  5
226
100
AcDbEntity
  8
0
100
AcDbLine
 62
7
  6
CONTINUOUS
 10
-69.3597287782
 20
69.0157686319
 11
-68.7233326751
 21
69.3339666834
  0
LINE
  5
227
100
AcDbEntity
  8
0
100
AcDbLine
 62
7
  6
CONTINUOUS
 10
-69.4228279696
 20
68.8632744328
 11
-68.5553239019
 21
69.2970264666
  0
LINE
  5
228
100
AcDbEntity
  8
0
100
AcDbLine
 62
7
  6
CONTINUOUS
 10
-68.9777201968
 20
68.8294289356
 11
-68.2312770204
 21
69.2026505238
  0
LINE
  5
229
100
AcDbEntity
  8
0
100
AcDbLine
 62
7
  6
CONTINUOUS
 10
-69.4657947954
 20
67.6710639013
 11
-69.7486375079
 21
67.5296425451
  0
LINE
  5
22A
100
AcDbEntity
  8
RACCORDO
100
AcDbLine
 62
7
  6
CONTINUOUS
 10
-13.5476178794
 20
96.1864154327
 11
-41.8859952878
 21
82.1303713248
  0
LINE
  5
22B
100
AcDbEntity
  8
RACCORDO
100
AcDbLine
 62
7
  6
CONTINUOUS
 10
-83.4866100756
 20
85.0371532193
 11
-83.4866100756
 21
-30.1442254841
  0
LINE
  5
22C
100
AcDbEntity
  8
RACCORDO
100
AcDbLine
 62
253
  6
CONTINUOUS
 10
-82.9008236379
 20
84.3300464381
 11
-82.9008236379
 21
-30.8513322653
  0
LINE
  5
22D
100
AcDbEntity
  8
DRAFT
100
AcDbLine
 62
7
  6
CONTINUOUS
 10
-39.5304927616
 20
76.8927218345
 11
-40.4266869896
 21
75.7837408045
  0
LINE
  5
22E
100
AcDbEntity
  8
DRAFT
100
AcDbLine
 62
7
  6
CONTINUOUS
 10
-38.5899136471
 20
76.4224322772
 11
-39.5179499372
 21
75.3293722783
  0
LINE
  5
22F
100
AcDbEntity
  8
0
100
AcDbLine
 62
7
  6
CONTINUOUS
 10
27.3087634892
 20
-77.0320574082
 11
28.8934046976
 21
-76.7669506425
  0
LINE
  5
230
100
AcDbEntity
  8
0
100
AcDbLine
 62
7
  6
CONTINUOUS
 10
-69.4657947954
 20
71.4006628232
 11
-69.4657947954
 21
70.5204443628
  0
LINE
  5
231
100
AcDbEntity
  8
0
100
AcDbLine
 62
7
  6
CONTINUOUS
 10
-69.4657947954
 20
69.5054319387
 11
-69.4657947954
 21
67.6710639013
  0
LINE
  5
232
100
AcDbEntity
  8
0
100
AcDbLine
 62
7
  6
CONTINUOUS
 10
-69.4657947954
 20
-26.4602078045
 11
-69.4657947954
 21
-27.3404262648
  0
LINE
  5
233
100
AcDbEntity
  8
0
100
AcDbLine
 62
7
  6
CONTINUOUS
 10
-69.4657947954
 20
-28.355438689
 11
-69.4657947954
 21
-30.1898067263
  0
LINE
  5
234
100
AcDbEntity
  8
0
100
AcDbLine
 62
7
  6
CONTINUOUS
 10
-69.3597287782
 20
-28.9660465991
 11
-69.3597287782
 21
-28.8451019957
  0
LINE
  5
235
100
AcDbEntity
  8
0
100
AcDbLine
 62
7
  6
CONTINUOUS
 10
-69.3597287782
 20
-26.9568289752
 11
-69.3597287782
 21
-26.5650743016
  0
LINE
  5
236
100
AcDbEntity
  8
0
100
AcDbLine
 62
7
  6
CONTINUOUS
 10
-69.3597287782
 20
68.8948240285
 11
-69.3597287782
 21
69.0157686319
  0
LINE
  5
237
100
AcDbEntity
  8
0
100
AcDbLine
 62
7
  6
CONTINUOUS
 10
-69.3597287782
 20
70.9040416524
 11
-69.3597287782
 21
71.2957963261
  0
LINE
  5
238
100
AcDbEntity
  8
0
100
AcDbLine
 62
7
  6
CONTINUOUS
 10
-68.7233326751
 20
-28.5743665213
 11
-68.7233326751
 21
-28.5269039442
  0
LINE
  5
239
100
AcDbEntity
  8
0
100
AcDbLine
 62
7
  6
CONTINUOUS
 10
-68.7233326751
 20
69.2865041064
 11
-68.7233326751
 21
69.3339666834
  0
LINE
  5
23A
100
AcDbEntity
  8
RACCORDO
100
AcDbLine
 62
7
  6
CONTINUOUS
 10
-21.8118002217
 20
66.4762974206
 11
-18.8458420615
 21
68.0764998921
  0
LINE
  5
23B
100
AcDbEntity
  8
RACCORDO
100
AcDbLine
 62
253
  6
CONTINUOUS
 10
-21.5521830845
 20
66.346488852
 11
-18.3881076999
 21
68.0535801112
  0
LINE
  5
23C
100
AcDbEntity
  8
RACCORDO
100
AcDbLine
 62
7
  6
CONTINUOUS
 10
14.9800579657
 20
81.9225775102
 11
-14.3651908844
 21
68.3699691231
  0
LINE
  5
23D
100
AcDbEntity
  8
DRAFT
100
AcDbLine
 62
7
  6
CONTINUOUS
 10
49.1160124096
 20
-63.5895836305
 11
46.2875852849
 21
-64.0068549956
  0
LINE
  5
23E
100
AcDbEntity
  8
DRAFT
100
AcDbLine
 62
7
  6
CONTINUOUS
 10
49.1160124096
 20
-64.7415530772
 11
46.2875852849
 21
-65.082156476
  0
LINE
  5
23F
100
AcDbEntity
  8
RACCORDO
100
AcDbLine
 62
7
  6
CONTINUOUS
 10
-76.7241830171
 20
-41.6897102211
 11
35.7057951916
 21
-97.9046993254
  0
LINE
  5
240
100
AcDbEntity
  8
RACCORDO
100
AcDbLine
 62
253
  6
CONTINUOUS
 10
-77.2439693884
 20
-40.6079626203
 11
35.1860088202
 21
-96.8229517246
  0
LINE
  5
241
100
AcDbEntity
  8
0
100
AcDbLine
 62
7
  6
CONTINUOUS
 10
-69.4657947954
 20
-28.355438689
 11
-69.3597287782
 21
-28.8451019957
  0
LINE
  5
242
100
AcDbEntity
  8
0
100
AcDbLine
 62
7
  6
CONTINUOUS
 10
-68.7269266277
 20
-28.5103121391
 11
-68.7233326751
 21
-28.5269039442
  0
LINE
  5
243
100
AcDbEntity
  8
0
100
AcDbLine
 62
7
  6
CONTINUOUS
 10
-69.3597287782
 20
-26.9568289752
 11
-69.4657947954
 21
-27.3404262648
  0
LINE
  5
244
100
AcDbEntity
  8
DRAFT
100
AcDbLine
 62
7
  6
CONTINUOUS
 10
-18.3875926391
 20
64.7641936293
 11
-17.2729974429
 21
65.3214912274
  0
LINE
  5
245
100
AcDbEntity
  8
RACCORDO
100
AcDbLine
 62
7
  6
CONTINUOUS
 10
16.1508669304
 20
81.3371730278
 11
-12.187510478
 21
67.2811289199
  0
LINE
  5
246
100
AcDbEntity
  8
RACCORDO
100
AcDbLine
 62
7
  6
CONTINUOUS
 10
15.9174130913
 20
81.4894537663
 11
-13.4648004021
 21
67.9197738819
  0
LINE
  5
247
100
AcDbEntity
  8
RACCORDO
100
AcDbLine
 62
253
  6
CONTINUOUS
 10
1.3617271857
 20
58.1786626684
 11
-1.9147687901
 21
56.5277817048
  0
LINE
  5
248
100
AcDbEntity
  8
DRAFT
100
AcDbLine
 62
7
  6
CONTINUOUS
 10
-6.9490965858
 20
59.0449456026
 11
-5.8345013896
 21
59.6022432007
  0
LINE
  5
249
100
AcDbEntity
  8
0
100
AcDbLine
 62
7
  6
CONTINUOUS
 10
29.6379919361
 20
-77.7550288269
 11
29.5645099098
 21
-77.7182878138
  0
LINE
  5
24A
100
AcDbEntity
  8
0
100
AcDbLine
 62
7
  6
CONTINUOUS
 10
-68.6498506488
 20
-28.6111075344
 11
-68.7233326751
 21
-28.5743665213
  0
LINE
  5
24B
100
AcDbEntity
  8
0
100
AcDbLine
 62
7
  6
CONTINUOUS
 10
-69.4657947954
 20
69.5054319387
 11
-69.3597287782
 21
69.0157686319
  0
LINE
  5
24C
100
AcDbEntity
  8
0
100
AcDbLine
 62
7
  6
CONTINUOUS
 10
-68.7269266277
 20
69.3505584886
 11
-68.7233326751
 21
69.3339666834
  0
LINE
  5
24D
100
AcDbEntity
  8
RACCORDO
100
AcDbLine
 62
253
  6
CONTINUOUS
 10
2.0687262711
 20
56.9592696218
 11
-0.3452019481
 21
55.7429982837
  0
LINE
  5
24E
100
AcDbEntity
  8
RACCORDO
100
AcDbLine
 62
7
  6
CONTINUOUS
 10
44.6785427755
 20
67.0733351052
 11
15.3332939254
 21
53.5207267182
  0
LINE
  5
24F
100
AcDbEntity
  8
DRAFT
100
AcDbLine
 62
7
  6
CONTINUOUS
 10
49.1160124096
 20
-38.6480520015
 11
46.2875852849
 21
-39.0653233666
  0
LINE
  5
250
100
AcDbEntity
  8
DRAFT
100
AcDbLine
 62
7
  6
CONTINUOUS
 10
49.1160124096
 20
-39.8000214482
 11
46.2875852849
 21
-40.140624847
  0
LINE
  5
251
100
AcDbEntity
  8
DRAFT
100
AcDbLine
 62
7
  6
CONTINUOUS
 10
-39.5304927616
 20
76.8927218345
 11
-39.5304927616
 21
76.9229548938
  0
LINE
  5
252
100
AcDbEntity
  8
DRAFT
100
AcDbLine
 62
7
  6
CONTINUOUS
 10
-38.5899136471
 20
76.4224322772
 11
-38.5899136471
 21
76.4526653365
  0
LINE
  5
253
100
AcDbEntity
  8
DRAFT
100
AcDbLine
 62
7
  6
CONTINUOUS
 10
-37.1510148952
 20
74.1459047573
 11
-37.1510148952
 21
75.7332159606
  0
LINE
  5
254
100
AcDbEntity
  8
RACCORDO
100
AcDbLine
 62
7
  6
CONTINUOUS
 10
45.8493517403
 20
66.4879306228
 11
17.5109743318
 21
52.4318865149
  0
LINE
  5
255
100
AcDbEntity
  8
RACCORDO
100
AcDbLine
 62
7
  6
CONTINUOUS
 10
45.6158979012
 20
66.6402113614
 11
16.2336844077
 21
53.070531477
  0
LINE
  5
256
100
AcDbEntity
  8
DRAFT
100
AcDbLine
 62
7
  6
CONTINUOUS
 10
49.1160124096
 20
-64.7415530772
 11
49.1406975992
 21
-64.753895672
  0
LINE
  5
257
100
AcDbEntity
  8
DRAFT
100
AcDbLine
 62
7
  6
CONTINUOUS
 10
49.1160124096
 20
-63.5895836305
 11
49.1406975992
 21
-63.6019262253
  0
LINE
  5
258
100
AcDbEntity
  8
DRAFT
100
AcDbLine
 62
7
  6
CONTINUOUS
 10
47.5210417835
 20
-61.3476516958
 11
49.1406975992
 21
-62.1574796036
  0
LINE
  5
259
100
AcDbEntity
  8
0
100
AcDbLine
 62
7
  6
CONTINUOUS
 10
-68.8436696917
 20
-28.7080170559
 11
-68.7233326751
 21
-28.5743665213
  0
LINE
  5
25A
100
AcDbEntity
  8
RACCORDO
100
AcDbLine
 62
253
  6
CONTINUOUS
 10
-20.3987016223
 20
65.9533168358
 11
-20.3987016223
 21
65.7697481209
  0
LINE
  5
25B
100
AcDbEntity
  8
RACCORDO
100
AcDbLine
 62
253
  6
CONTINUOUS
 10
37.1075378444
 20
42.3938049888
 11
34.9738767859
 21
41.3725878683
  0
LINE
  5
25C
100
AcDbEntity
  8
RACCORDO
100
AcDbLine
 62
7
  6
CONTINUOUS
 10
74.3770275853
 20
52.2240927003
 11
43.512321563
 21
37.969748638
  0
LINE
  5
25D
100
AcDbEntity
  8
DRAFT
100
AcDbLine
 62
7
  6
CONTINUOUS
 10
53.2468211237
 20
-4.4326213839
 11
52.9073040378
 21
-4.5164962537
  0
LINE
  5
25E
100
AcDbEntity
  8
DRAFT
100
AcDbLine
 62
7
  6
CONTINUOUS
 10
49.1160124096
 20
-13.7065203725
 11
46.2875852849
 21
-14.1237917376
  0
LINE
  5
25F
100
AcDbEntity
  8
DRAFT
100
AcDbLine
 62
7
  6
CONTINUOUS
 10
49.1160124096
 20
-14.8584898192
 11
46.2875852849
 21
-15.199093218
  0
LINE
  5
260
100
AcDbEntity
  8
RACCORDO
100
AcDbLine
 62
7
  6
CONTINUOUS
 10
-13.5690037426
 20
96.1864154327
 11
-13.5690037426
 21
96.8989533179
  0
LINE
  5
261
100
AcDbEntity
  8
DRAFT
100
AcDbLine
 62
7
  6
CONTINUOUS
 10
21.5635331329
 20
46.3457088872
 11
20.6673389049
 21
45.2367278573
  0
LINE
  5
262
100
AcDbEntity
  8
DRAFT
100
AcDbLine
 62
7
  6
CONTINUOUS
 10
22.5041122474
 20
45.87541933
 11
21.5760759573
 21
44.7823593311
  0
LINE
  5
263
100
AcDbEntity
  8
RACCORDO
100
AcDbLine
 62
253
  6
CONTINUOUS
 10
39.216517473
 20
35.9621385732
 11
36.6002223826
 21
34.653991028
  0
LINE
  5
264
100
AcDbEntity
  8
RACCORDO
100
AcDbLine
 62
253
  6
CONTINUOUS
 10
76.4492157421
 20
51.1517679366
 11
76.4859147995
 21
51.1696490932
  0
LINE
  5
265
100
AcDbEntity
  8
RACCORDO
100
AcDbLine
 62
7
  6
CONTINUOUS
 10
75.5375819006
 20
51.6438155427
 11
44.7344459091
 21
36.6460784458
  0
LINE
  5
266
100
AcDbEntity
  8
DRAFT
100
AcDbLine
 62
7
  6
CONTINUOUS
 10
46.8662644924
 20
33.9278261533
 11
79.3445267744
 21
49.7041124204
  0
LINE
  5
267
100
AcDbEntity
  8
RACCORDO
100
AcDbLine
 62
7
  6
CONTINUOUS
 10
75.314382711
 20
51.7909689564
 11
44.0834727039
 21
37.3674997584
  0
LINE
  5
268
100
AcDbEntity
  8
0
100
AcDbLine
 62
7
  6
CONTINUOUS
 10
-70.9790790957
 20
-27.8881361157
 11
-69.3944378873
 21
-27.62302935
  0
LINE
  5
269
100
AcDbEntity
  8
DRAFT
100
AcDbLine
 62
7
  6
CONTINUOUS
 10
49.1160124096
 20
-39.8000214482
 11
49.1406975992
 21
-39.812364043
  0
LINE
  5
26A
100
AcDbEntity
  8
DRAFT
100
AcDbLine
 62
7
  6
CONTINUOUS
 10
49.1160124096
 20
-38.6480520015
 11
49.1406975992
 21
-38.6603945963
  0
LINE
  5
26B
100
AcDbEntity
  8
DRAFT
100
AcDbLine
 62
7
  6
CONTINUOUS
 10
47.5210417835
 20
-36.4061200668
 11
49.1406975992
 21
-37.2159479746
  0
LINE
  5
26C
100
AcDbEntity
  8
RACCORDO
100
AcDbLine
 62
253
  6
CONTINUOUS
 10
-2.7087972101
 20
56.9293149385
 11
-2.7087972101
 21
57.1083646297
  0
LINE
  5
26D
100
AcDbEntity
  8
DRAFT
100
AcDbLine
 62
7
  6
CONTINUOUS
 10
48.3079216383
 20
31.6810386925
 11
79.8238767859
 21
47.9153918541
  0
LINE
  5
26E
100
AcDbEntity
  8
DRAFT
100
AcDbLine
 62
7
  6
CONTINUOUS
 10
72.3433703002
 20
41.0928105193
 11
80.797821925
 21
45.4373442931
  0
LINE
  5
26F
100
AcDbEntity
  8
DRAFT
100
AcDbLine
 62
7
  6
CONTINUOUS
 10
80.2165969821
 20
48.2000138022
 11
48.211275631
 21
31.8401348864
  0
LINE
  5
270
100
AcDbEntity
  8
DRAFT
100
AcDbLine
 62
7
  6
CONTINUOUS
 10
50.3256150545
 20
27.7058907436
 11
82.5837374471
 21
44.1173004254
  0
LINE
  5
271
100
AcDbEntity
  8
RACCORDO
100
AcDbLine
 62
253
  6
CONTINUOUS
 10
82.620113368
 20
40.5897215722
 11
82.5837374471
 21
40.5712830874
  0
LINE
  5
272
100
AcDbEntity
  8
0
100
AcDbLine
 62
7
  6
CONTINUOUS
 10
-69.3597287782
 20
-26.9568289752
 11
-69.2781274172
 21
-26.9160282947
  0
LINE
  5
273
100
AcDbEntity
  8
0
100
AcDbLine
 62
7
  6
CONTINUOUS
 10
-70.1410141432
 20
-27.6780359387
 11
-69.4657947954
 21
-27.3404262648
  0
LINE
  5
274
100
AcDbEntity
  8
0
100
AcDbLine
 62
7
  6
CONTINUOUS
 10
-70.1578279696
 20
-27.7299087144
 11
-69.3530518071
 21
-27.3275206331
  0
LINE
  5
275
100
AcDbEntity
  8
0
100
AcDbLine
 62
7
  6
CONTINUOUS
 10
28.9281138067
 20
21.7601203599
 11
29.0097151677
 21
21.8009210404
  0
LINE
  5
276
100
AcDbEntity
  8
0
100
AcDbLine
 62
7
  6
CONTINUOUS
 10
-69.4037675855
 20
-27.7026969213
 11
-70.5194886619
 21
-28.2605574595
  0
LINE
  5
277
100
AcDbEntity
  8
0
100
AcDbLine
 62
7
  6
CONTINUOUS
 10
28.1468284418
 20
21.0389133965
 11
28.8220477895
 21
21.3765230703
  0
LINE
  5
278
100
AcDbEntity
  8
0
100
AcDbLine
 62
7
  6
CONTINUOUS
 10
28.1300146153
 20
20.9870406208
 11
28.9347907778
 21
21.389428702
  0
LINE
  5
279
100
AcDbEntity
  8
0
100
AcDbLine
 62
7
  6
CONTINUOUS
 10
28.8840749995
 20
21.0142524139
 11
27.768353923
 21
20.4563918756
  0
LINE
  5
27A
100
AcDbEntity
  8
0
100
AcDbLine
 62
7
  6
CONTINUOUS
 10
-70.1578279696
 20
-28.6300961949
 11
-69.2932808341
 21
-28.1978226271
  0
LINE
  5
27B
100
AcDbEntity
  8
0
100
AcDbLine
 62
7
  6
CONTINUOUS
 10
-70.1410141432
 20
-28.6930483629
 11
-69.4657947954
 21
-28.355438689
  0
LINE
  5
27C
100
AcDbEntity
  8
0
100
AcDbLine
 62
7
  6
CONTINUOUS
 10
28.1300146153
 20
20.0868531403
 11
28.9945617509
 21
20.5191267081
  0
LINE
  5
27D
100
AcDbEntity
  8
0
100
AcDbLine
 62
7
  6
CONTINUOUS
 10
28.1468284418
 20
20.0239009723
 11
28.8220477895
 21
20.3615106462
  0
LINE
  5
27E
100
AcDbEntity
  8
0
100
AcDbLine
 62
7
  6
CONTINUOUS
 10
-69.3597287782
 20
-28.8451019957
 11
-68.7233326751
 21
-28.5269039442
  0
LINE
  5
27F
100
AcDbEntity
  8
0
100
AcDbLine
 62
7
  6
CONTINUOUS
 10
-69.4228279696
 20
-28.9975961949
 11
-68.5553239019
 21
-28.563844161
  0
LINE
  5
280
100
AcDbEntity
  8
0
100
AcDbLine
 62
7
  6
CONTINUOUS
 10
-68.9777201968
 20
-29.0314416921
 11
-68.2312770204
 21
-28.6582201039
  0
LINE
  5
281
100
AcDbEntity
  8
0
100
AcDbLine
 62
7
  6
CONTINUOUS
 10
28.9281138067
 20
19.8718473394
 11
29.5645099098
 21
20.190045391
  0
LINE
  5
282
100
AcDbEntity
  8
0
100
AcDbLine
 62
7
  6
CONTINUOUS
 10
28.8650146153
 20
19.7193531403
 11
29.732518683
 21
20.1531051742
  0
LINE
  5
283
100
AcDbEntity
  8
0
100
AcDbLine
 62
7
  6
CONTINUOUS
 10
29.3101223881
 20
19.6855076431
 11
30.0565655645
 21
20.0587292313
  0
LINE
  5
284
100
AcDbEntity
  8
0
100
AcDbLine
 62
7
  6
CONTINUOUS
 10
-69.4657947954
 20
-30.1898067263
 11
-69.7486375079
 21
-30.3312280825
  0
LINE
  5
285
100
AcDbEntity
  8
0
100
AcDbLine
 62
7
  6
CONTINUOUS
 10
28.8220477895
 20
18.5271426089
 11
28.5392050771
 21
18.3857212526
  0
LINE
  5
286
100
AcDbEntity
  8
RACCORDO
100
AcDbLine
 62
253
  6
CONTINUOUS
 10
46.2875852849
 20
23.7663506294
 11
43.6712901945
 21
22.4582030843
  0
LINE
  5
287
100
AcDbEntity
  8
DRAFT
100
AcDbLine
 62
7
  6
CONTINUOUS
 10
52.3756325563
 20
33.3576426213
 11
80.0974348062
 21
46.8381185306
  0
LINE
  5
288
100
AcDbEntity
  8
DRAFT
100
AcDbLine
 62
7
  6
CONTINUOUS
 10
81.7116672394
 20
45.6213990435
 11
49.2676005977
 21
29.9380972839
  0
LINE
  5
289
100
AcDbEntity
  8
DRAFT
100
AcDbLine
 62
253
  6
CONTINUOUS
 10
47.5210417835
 20
23.0898251732
 11
46.2875852849
 21
22.4942576257
  0
LINE
  5
28A
100
AcDbEntity
  8
RACCORDO
100
AcDbLine
 62
7
  6
CONTINUOUS
 10
83.4004719276
 20
-47.7886907572
 11
82.338903184
 21
-47.2579063854
  0
LINE
  5
28B
100
AcDbEntity
  8
RACCORDO
100
AcDbLine
 62
7
  6
CONTINUOUS
 10
2.0687262711
 20
56.9592696218
 11
2.0687262711
 21
56.1233453774
  0
LINE
  5
28C
100
AcDbEntity
  8
DRAFT
100
AcDbLine
 62
7
  6
CONTINUOUS
 10
3.5076250231
 20
53.8165847982
 11
3.5076250231
 21
55.4038960015
  0
LINE
  5
28D
100
AcDbEntity
  8
0
100
AcDbLine
 62
7
  6
CONTINUOUS
 10
4.674351212
 20
76.2283528205
 11
4.674351212
 21
76.2970352082
  0
LINE
  5
28E
100
AcDbEntity
  8
0
100
AcDbLine
 62
7
  6
CONTINUOUS
 10
29.4441728932
 20
20.0089322793
 11
29.5645099098
 21
20.1425828139
  0
LINE
  5
28F
100
AcDbEntity
  8
DRAFT
100
AcDbLine
 62
7
  6
CONTINUOUS
 10
45.1987352839
 20
28.9158773348
 11
45.3183555923
 21
29.0025715398
  0
LINE
  5
290
100
AcDbEntity
  8
DRAFT
100
AcDbLine
 62
7
  6
CONTINUOUS
 10
79.8238767859
 20
47.9153918541
 11
80.2165969821
 21
48.2000138022
  0
LINE
  5
291
100
AcDbEntity
  8
RACCORDO
100
AcDbLine
 62
7
  6
CONTINUOUS
 10
82.8181999097
 20
38.805497457
 11
52.133491058
 21
22.2503930724
  0
LINE
  5
292
100
AcDbEntity
  8
RACCORDO
100
AcDbLine
 62
7
  6
CONTINUOUS
 10
82.620113368
 20
37.9635715021
 11
52.2784248944
 21
21.5935344809
  0
LINE
  5
293
100
AcDbEntity
  8
RACCORDO
100
AcDbLine
 62
7
  6
CONTINUOUS
 10
82.620113368
 20
39.3849544476
 11
51.749510024
 21
23.7236109216
  0
LINE
  5
294
100
AcDbEntity
  8
DRAFT
100
AcDbLine
 62
7
  6
CONTINUOUS
 10
47.5210417835
 20
13.4769431912
 11
46.2875852849
 21
12.8554591827
  0
LINE
  5
295
100
AcDbEntity
  8
DRAFT
100
AcDbLine
 62
7
  6
CONTINUOUS
 10
49.1160124096
 20
11.2350112565
 11
46.2875852849
 21
10.8177398914
  0
LINE
  5
296
100
AcDbEntity
  8
DRAFT
100
AcDbLine
 62
7
  6
CONTINUOUS
 10
49.1160124096
 20
10.0830418098
 11
46.2875852849
 21
9.742438411
  0
LINE
  5
297
100
AcDbEntity
  8
DRAFT
100
AcDbLine
 62
7
  6
CONTINUOUS
 10
49.1160124096
 20
-14.8584898192
 11
49.1406975992
 21
-14.870832414
  0
LINE
  5
298
100
AcDbEntity
  8
DRAFT
100
AcDbLine
 62
7
  6
CONTINUOUS
 10
49.1160124096
 20
-13.7065203725
 11
49.1406975992
 21
-13.7188629673
  0
LINE
  5
299
100
AcDbEntity
  8
DRAFT
100
AcDbLine
 62
7
  6
CONTINUOUS
 10
46.4899261337
 20
-77.5430964534
 11
46.2875852849
 21
-77.1941101122
  0
LINE
  5
29A
100
AcDbEntity
  8
DRAFT
100
AcDbLine
 62
7
  6
CONTINUOUS
 10
-5.5032654855
 20
58.3220300525
 11
-5.8345013896
 21
59.6022432007
  0
LINE
  5
29B
100
AcDbEntity
  8
RACCORDO
100
AcDbLine
 62
7
  6
CONTINUOUS
 10
16.1294810672
 20
82.049710913
 11
16.1294810672
 21
81.332081547
  0
LINE
  5
29C
100
AcDbEntity
  8
RACCORDO
100
AcDbLine
 62
253
  6
CONTINUOUS
 10
52.6266438382
 20
15.6273065174
 11
50.530225972
 21
14.541854392
  0
LINE
  5
29D
100
AcDbEntity
  8
0
100
AcDbLine
 62
7
  6
CONTINUOUS
 10
27.3087634892
 20
20.8288132195
 11
28.8934046976
 21
21.0939199852
  0
LINE
  5
29E
100
AcDbEntity
  8
DRAFT
100
AcDbLine
 62
7
  6
CONTINUOUS
 10
47.5210417835
 20
-11.4645884378
 11
49.1406975992
 21
-12.2744163456
  0
LINE
  5
29F
100
AcDbEntity
  8
0
100
AcDbLine
 62
7
  6
CONTINUOUS
 10
28.8220477895
 20
-77.4993599814
 11
28.9281138067
 21
-77.9890232882
  0
LINE
  5
2A0
100
AcDbEntity
  8
0
100
AcDbLine
 62
7
  6
CONTINUOUS
 10
29.5609159572
 20
-77.6542334315
 11
29.5645099098
 21
-77.6708252367
  0
LINE
  5
2A1
100
AcDbEntity
  8
DRAFT
100
AcDbLine
 62
7
  6
CONTINUOUS
 10
21.5635331329
 20
46.3457088872
 11
21.5635331329
 21
46.3759419466
  0
LINE
  5
2A2
100
AcDbEntity
  8
DRAFT
100
AcDbLine
 62
7
  6
CONTINUOUS
 10
22.5041122474
 20
45.87541933
 11
22.5041122474
 21
45.9056523893
  0
LINE
  5
2A3
100
AcDbEntity
  8
DRAFT
100
AcDbLine
 62
7
  6
CONTINUOUS
 10
23.9430109994
 20
43.59889181
 11
23.9430109994
 21
45.1862030133
  0
LINE
  5
2A4
100
AcDbEntity
  8
DRAFT
100
AcDbLine
 62
7
  6
CONTINUOUS
 10
25.4979458766
 20
57.3490744304
 11
25.4979458766
 21
56.3934832819
  0
LINE
  5
2A5
100
AcDbEntity
  8
RACCORDO
100
AcDbLine
 62
7
  6
CONTINUOUS
 10
26.6285232665
 20
57.8712125351
 11
26.6285232665
 21
56.954258002
  0
LINE
  5
2A6
100
AcDbEntity
  8
0
100
AcDbLine
 62
7
  6
CONTINUOUS
 10
28.9281138067
 20
21.7601203599
 11
28.8220477895
 21
21.3765230703
  0
LINE
  5
2A7
100
AcDbEntity
  8
0
100
AcDbLine
 62
7
  6
CONTINUOUS
 10
49.963898057
 20
30.2746840407
 11
50.8130686844
 21
31.5109739151
  0
LINE
  5
2A8
100
AcDbEntity
  8
RACCORDO
100
AcDbLine
 62
7
  6
CONTINUOUS
 10
82.8145300039
 20
-18.6570738493
 11
83.4004719276
 21
-18.9500448112
  0
LINE
  5
2A9
100
AcDbEntity
  8
RACCORDO
100
AcDbLine
 62
7
  6
CONTINUOUS
 10
28.1871451878
 20
57.7273459653
 11
28.1871451878
 21
58.5910357893
  0
LINE
  5
2AA
100
AcDbEntity
  8
0
100
AcDbLine
 62
7
  6
CONTINUOUS
 10
28.8220477895
 20
22.2567415307
 11
28.8220477895
 21
21.3765230703
  0
LINE
  5
2AB
100
AcDbEntity
  8
0
100
AcDbLine
 62
7
  6
CONTINUOUS
 10
28.8220477895
 20
20.3615106462
 11
28.8220477895
 21
18.5271426089
  0
LINE
  5
2AC
100
AcDbEntity
  8
0
100
AcDbLine
 62
7
  6
CONTINUOUS
 10
28.8220477895
 20
-75.6041290969
 11
28.8220477895
 21
-76.4843475573
  0
LINE
  5
2AD
100
AcDbEntity
  8
0
100
AcDbLine
 62
7
  6
CONTINUOUS
 10
28.8220477895
 20
-77.4993599814
 11
28.8220477895
 21
-79.3337280188
  0
LINE
  5
2AE
100
AcDbEntity
  8
0
100
AcDbLine
 62
7
  6
CONTINUOUS
 10
28.9281138067
 20
-78.1099678916
 11
28.9281138067
 21
-77.9890232882
  0
LINE
  5
2AF
100
AcDbEntity
  8
0
100
AcDbLine
 62
7
  6
CONTINUOUS
 10
28.9281138067
 20
-76.1007502677
 11
28.9281138067
 21
-75.708995594
  0
LINE
  5
2B0
100
AcDbEntity
  8
0
100
AcDbLine
 62
7
  6
CONTINUOUS
 10
28.9281138067
 20
19.750902736
 11
28.9281138067
 21
19.8718473394
  0
LINE
  5
2B1
100
AcDbEntity
  8
0
100
AcDbLine
 62
7
  6
CONTINUOUS
 10
28.9281138067
 20
21.7601203599
 11
28.9281138067
 21
22.1518750336
  0
LINE
  5
2B2
100
AcDbEntity
  8
DRAFT
100
AcDbLine
 62
7
  6
CONTINUOUS
 10
29.3177225778
 20
58.2881206854
 11
29.3177225778
 21
59.1131738941
  0
LINE
  5
2B3
100
AcDbEntity
  8
0
100
AcDbLine
 62
7
  6
CONTINUOUS
 10
29.5645099098
 20
-77.7182878138
 11
29.5645099098
 21
-77.6708252367
  0
LINE
  5
2B4
100
AcDbEntity
  8
0
100
AcDbLine
 62
7
  6
CONTINUOUS
 10
29.5645099098
 20
20.1425828139
 11
29.5645099098
 21
20.190045391
  0
LINE
  5
2B5
100
AcDbEntity
  8
RACCORDO
100
AcDbLine
 62
253
  6
CONTINUOUS
 10
33.2768353371
 20
60.251869801
 11
33.2768353371
 21
60.9416233668
  0
LINE
  5
2B6
100
AcDbEntity
  8
RACCORDO
100
AcDbLine
 62
253
  6
CONTINUOUS
 10
33.6993148293
 20
60.4614227437
 11
33.6993148293
 21
61.1367383968
  0
LINE
  5
2B7
100
AcDbEntity
  8
RACCORDO
100
AcDbLine
 62
7
  6
CONTINUOUS
 10
82.8181999097
 20
9.966851511
 11
52.9073040378
 21
-6.1707630184
  0
LINE
  5
2B8
100
AcDbEntity
  8
RACCORDO
100
AcDbLine
 62
7
  6
CONTINUOUS
 10
82.620113368
 20
9.1249255561
 11
52.9073040378
 21
-6.9058167397
  0
LINE
  5
2B9
100
AcDbEntity
  8
DRAFT
100
AcDbLine
 62
7
  6
CONTINUOUS
 10
66.7492271847
 20
1.3056032886
 11
64.8476447897
 21
0.3474802816
  0
LINE
  5
2BA
100
AcDbEntity
  8
DRAFT
100
AcDbLine
 62
7
  6
CONTINUOUS
 10
47.5210417835
 20
-11.4645884378
 11
46.2875852849
 21
-12.0860724463
  0
LINE
  5
2BB
100
AcDbEntity
  8
RACCORDO
100
AcDbLine
 62
7
  6
CONTINUOUS
 10
82.620113368
 20
10.558867831
 11
52.9073040378
 21
-4.1789046425
  0
LINE
  5
2BC
100
AcDbEntity
  8
0
100
AcDbLine
 62
7
  6
CONTINUOUS
 10
49.388404033
 20
31.5703335111
 11
50.8130686844
 21
31.5109739151
  0
LINE
  5
2BD
100
AcDbEntity
  8
DRAFT
100
AcDbLine
 62
7
  6
CONTINUOUS
 10
62.0557166854
 20
0.3587754737
 11
63.5888814909
 21
-0.407806929
  0
LINE
  5
2BE
100
AcDbEntity
  8
DRAFT
100
AcDbLine
 62
7
  6
CONTINUOUS
 10
63.4459361746
 20
1.0483345892
 11
64.2849463674
 21
0.6288294928
  0
LINE
  5
2BF
100
AcDbEntity
  8
RACCORDO
100
AcDbLine
 62
7
  6
CONTINUOUS
 10
64.8476447897
 20
0.3474802816
 11
64.9209048687
 21
0.3108502421
  0
LINE
  5
2C0
100
AcDbEntity
  8
DRAFT
100
AcDbLine
 62
7
  6
CONTINUOUS
 10
49.1160124096
 20
10.0830418098
 11
49.1406975992
 21
10.070699215
  0
LINE
  5
2C1
100
AcDbEntity
  8
RACCORDO
100
AcDbLine
 62
7
  6
CONTINUOUS
 10
66.7572416419
 20
1.30159606
 11
65.3625025153
 21
1.9989656233
  0
LINE
  5
2C2
100
AcDbEntity
  8
0
100
AcDbLine
 62
7
  6
CONTINUOUS
 10
29.6379919361
 20
20.1058418007
 11
29.5645099098
 21
20.1425828139
  0
LINE
  5
2C3
100
AcDbEntity
  8
0
100
AcDbLine
 62
7
  6
CONTINUOUS
 10
-68.6498506488
 20
69.2497630932
 11
-68.7233326751
 21
69.2865041064
  0
LINE
  5
2C4
100
AcDbEntity
  8
DRAFT
100
AcDbLine
 62
7
  6
CONTINUOUS
 10
49.1160124096
 20
11.2350112565
 11
49.1406975992
 21
11.2226686617
  0
LINE
  5
2C5
100
AcDbEntity
  8
DRAFT
100
AcDbLine
 62
7
  6
CONTINUOUS
 10
68.0892650197
 20
2.0202532312
 11
66.7527220045
 21
2.6885247388
  0
LINE
  5
2C6
100
AcDbEntity
  8
DRAFT
100
AcDbLine
 62
7
  6
CONTINUOUS
 10
47.5210417835
 20
13.4769431912
 11
49.1406975992
 21
12.6671152834
  0
LINE
  5
2C7
100
AcDbEntity
  8
0
100
AcDbLine
 62
7
  6
CONTINUOUS
 10
28.8220477895
 20
20.3615106462
 11
28.9281138067
 21
19.8718473394
  0
LINE
  5
2C8
100
AcDbEntity
  8
0
100
AcDbLine
 62
7
  6
CONTINUOUS
 10
29.5609159572
 20
20.2066371961
 11
29.5645099098
 21
20.190045391
  0
LINE
  5
2C9
100
AcDbEntity
  8
RACCORDO
100
AcDbLine
 62
253
  6
CONTINUOUS
 10
40.8428630697
 20
-92.7231756191
 11
40.8428630697
 21
22.4582030843
  0
LINE
  5
2CA
100
AcDbEntity
  8
RACCORDO
100
AcDbLine
 62
253
  6
CONTINUOUS
 10
43.6712901945
 20
-92.7231756191
 11
43.6712901945
 21
22.4582030843
  0
LINE
  5
2CB
100
AcDbEntity
  8
DRAFT
100
AcDbLine
 62
7
  6
CONTINUOUS
 10
66.1858395553
 20
29.8841513808
 11
65.4679553288
 21
30.0075058587
  0
LINE
  5
2CC
100
AcDbEntity
  8
RACCORDO
100
AcDbLine
 62
253
  6
CONTINUOUS
 10
71.9049627127
 20
4.0789096751
 11
70.7351275585
 21
4.6638272522
  0
LINE
  5
2CD
100
AcDbEntity
  8
RACCORDO
100
AcDbLine
 62
253
  6
CONTINUOUS
 10
72.3572407598
 20
4.3229240576
 11
71.2071656369
 21
4.897961619
  0
LINE
  5
2CE
100
AcDbEntity
  8
DRAFT
100
AcDbLine
 62
7
  6
CONTINUOUS
 10
80.2165969821
 20
-55.0253942649
 11
80.0867635137
 21
-54.8014646562
  0
LINE
  5
2CF
100
AcDbEntity
  8
RACCORDO
100
AcDbLine
 62
7
  6
CONTINUOUS
 10
45.8279658771
 20
67.200468508
 11
45.8279658771
 21
66.4828391421
  0
LINE
  5
2D0
100
AcDbEntity
  8
0
100
AcDbLine
 62
7
  6
CONTINUOUS
 10
46.2875852849
 20
-91.4150280739
 11
46.2875852849
 21
23.7663506294
  0
LINE
  5
2D1
100
AcDbEntity
  8
DRAFT
100
AcDbLine
 62
7
  6
CONTINUOUS
 10
47.5210417835
 20
-72.1729692431
 11
47.5210417835
 21
-64.9336218109
  0
LINE
  5
2D2
100
AcDbEntity
  8
DRAFT
100
AcDbLine
 62
7
  6
CONTINUOUS
 10
47.5210417835
 20
-61.3476516958
 11
47.5210417835
 21
-39.9920901819
  0
LINE
  5
2D3
100
AcDbEntity
  8
DRAFT
100
AcDbLine
 62
7
  6
CONTINUOUS
 10
47.5210417835
 20
-36.4061200668
 11
47.5210417835
 21
-15.0505585529
  0
LINE
  5
2D4
100
AcDbEntity
  8
DRAFT
100
AcDbLine
 62
7
  6
CONTINUOUS
 10
47.5210417835
 20
-11.4645884378
 11
47.5210417835
 21
9.8909730761
  0
LINE
  5
2D5
100
AcDbEntity
  8
DRAFT
100
AcDbLine
 62
7
  6
CONTINUOUS
 10
47.5210417835
 20
13.4769431912
 11
47.5210417835
 21
23.0898251732
  0
LINE
  5
2D6
100
AcDbEntity
  8
DRAFT
100
AcDbLine
 62
7
  6
CONTINUOUS
 10
49.1160124096
 20
11.2350112565
 11
49.1160124096
 21
10.0830418098
  0
LINE
  5
2D7
100
AcDbEntity
  8
DRAFT
100
AcDbLine
 62
7
  6
CONTINUOUS
 10
49.1160124096
 20
-13.7065203725
 11
49.1160124096
 21
-14.8584898192
  0
LINE
  5
2D8
100
AcDbEntity
  8
DRAFT
100
AcDbLine
 62
7
  6
CONTINUOUS
 10
49.1160124096
 20
-38.6480520015
 11
49.1160124096
 21
-39.8000214482
  0
LINE
  5
2D9
100
AcDbEntity
  8
DRAFT
100
AcDbLine
 62
7
  6
CONTINUOUS
 10
49.1160124096
 20
-63.5895836305
 11
49.1160124096
 21
-64.7415530772
  0
LINE
  5
2DA
100
AcDbEntity
  8
DRAFT
100
AcDbLine
 62
7
  6
CONTINUOUS
 10
49.1406975992
 20
15.2366185784
 11
49.1406975992
 21
11.2226686617
  0
LINE
  5
2DB
100
AcDbEntity
  8
DRAFT
100
AcDbLine
 62
7
  6
CONTINUOUS
 10
49.1406975992
 20
10.070699215
 11
49.1406975992
 21
-13.7188629673
  0
LINE
  5
2DC
100
AcDbEntity
  8
DRAFT
100
AcDbLine
 62
7
  6
CONTINUOUS
 10
49.1406975992
 20
-14.870832414
 11
49.1406975992
 21
-38.6603945963
  0
LINE
  5
2DD
100
AcDbEntity
  8
DRAFT
100
AcDbLine
 62
7
  6
CONTINUOUS
 10
49.1406975992
 20
-39.812364043
 11
49.1406975992
 21
-63.6019262253
  0
LINE
  5
2DE
100
AcDbEntity
  8
DRAFT
100
AcDbLine
 62
7
  6
CONTINUOUS
 10
49.1406975992
 20
-64.753895672
 11
49.1406975992
 21
-68.7678455887
  0
LINE
  5
2DF
100
AcDbEntity
  8
DRAFT
100
AcDbLine
 62
7
  6
CONTINUOUS
 10
50.530225972
 20
-69.4626097751
 11
50.530225972
 21
14.541854392
  0
LINE
  5
2E0
100
AcDbEntity
  8
RACCORDO
100
AcDbLine
 62
253
  6
CONTINUOUS
 10
52.6266438382
 20
15.6273065174
 11
52.6266438382
 21
-68.3771576497
  0
LINE
  5
2E1
100
AcDbEntity
  8
0
100
AcDbLine
 62
7
  6
CONTINUOUS
 10
28.9281138067
 20
-76.1007502677
 11
28.8220477895
 21
-76.4843475573
  0
LINE
  5
2E2
100
AcDbEntity
  8
RACCORDO
100
AcDbLine
 62
253
  6
CONTINUOUS
 10
35.1860088202
 20
32.2148334393
 11
-77.2439693884
 21
88.4298225436
  0
LINE
  5
2E3
100
AcDbEntity
  8
RACCORDO
100
AcDbLine
 62
7
  6
CONTINUOUS
 10
82.8145300039
 20
10.1815720967
 11
83.4004719276
 21
9.8886011349
  0
LINE
  5
2E4
100
AcDbEntity
  8
RACCORDO
100
AcDbLine
 62
253
  6
CONTINUOUS
 10
36.6002223826
 20
34.653991028
 11
-75.8297558261
 21
90.8689801324
  0
LINE
  5
2E5
100
AcDbEntity
  8
0
100
AcDbLine
 62
7
  6
CONTINUOUS
 10
39.216517473
 20
35.9621385732
 11
-73.2134607357
 21
92.1771276776
  0
LINE
  5
2E6
100
AcDbEntity
  8
RACCORDO
100
AcDbLine
 62
7
  6
CONTINUOUS
 10
-20.3987016223
 20
65.9533168358
 11
-18.2040239242
 21
64.8559779867
  0
LINE
  5
2E7
100
AcDbEntity
  8
RACCORDO
100
AcDbLine
 62
7
  6
CONTINUOUS
 10
-5.5578185192
 20
58.5328752842
 11
-2.7087972101
 21
57.1083646297
  0
LINE
  5
2E8
100
AcDbEntity
  8
DRAFT
100
AcDbLine
 62
7
  6
CONTINUOUS
 10
-17.2729974429
 20
65.3214912274
 11
-5.8345013896
 21
59.6022432007
  0
LINE
  5
2E9
100
AcDbEntity
  8
DRAFT
100
AcDbLine
 62
7
  6
CONTINUOUS
 10
-39.5304927616
 20
76.8927218345
 11
-38.5899136471
 21
76.4224322772
  0
LINE
  5
2EA
100
AcDbEntity
  8
DRAFT
100
AcDbLine
 62
7
  6
CONTINUOUS
 10
21.5635331329
 20
46.3457088872
 11
22.5041122474
 21
45.87541933
  0
LINE
  5
2EB
100
AcDbEntity
  8
DRAFT
100
AcDbLine
 62
7
  6
CONTINUOUS
 10
-52.0002573001
 20
83.157837163
 11
-39.5304927616
 21
76.9229548938
  0
LINE
  5
2EC
100
AcDbEntity
  8
DRAFT
100
AcDbLine
 62
7
  6
CONTINUOUS
 10
-38.5899136471
 20
76.4526653365
 11
-20.2848390171
 21
67.3001280215
  0
LINE
  5
2ED
100
AcDbEntity
  8
DRAFT
100
AcDbLine
 62
7
  6
CONTINUOUS
 10
2.0687262711
 20
56.1233453774
 11
21.5635331329
 21
46.3759419466
  0
LINE
  5
2EE
100
AcDbEntity
  8
DRAFT
100
AcDbLine
 62
7
  6
CONTINUOUS
 10
22.5041122474
 20
45.9056523893
 11
34.9738767859
 21
39.6707701201
  0
LINE
  5
2EF
100
AcDbEntity
  8
RACCORDO
100
AcDbLine
 62
7
  6
CONTINUOUS
 10
-52.0002573001
 20
84.8596549113
 11
34.9738767859
 21
41.3725878683
  0
LINE
  5
2F0
100
AcDbEntity
  8
RACCORDO
100
AcDbLine
 62
7
  6
CONTINUOUS
 10
52.9073040378
 20
15.9746357026
 11
52.9073040378
 21
-68.0298284644
  0
LINE
  5
2F1
100
AcDbEntity
  8
RACCORDO
100
AcDbLine
 62
7
  6
CONTINUOUS
 10
82.8181999097
 20
-18.871794435
 11
52.9073040378
 21
-35.0094089644
  0
LINE
  5
2F2
100
AcDbEntity
  8
RACCORDO
100
AcDbLine
 62
7
  6
CONTINUOUS
 10
82.620113368
 20
-19.71372039
 11
52.9073040378
 21
-35.7444626857
  0
LINE
  5
2F3
100
AcDbEntity
  8
DRAFT
100
AcDbLine
 62
7
  6
CONTINUOUS
 10
47.5210417835
 20
-36.4061200668
 11
46.2875852849
 21
-37.0276040753
  0
LINE
  5
2F4
100
AcDbEntity
  8
RACCORDO
100
AcDbLine
 62
7
  6
CONTINUOUS
 10
82.620113368
 20
-18.279778115
 11
52.9073040378
 21
-33.0175505885
  0
LINE
  5
2F5
100
AcDbEntity
  8
DRAFT
100
AcDbLine
 62
7
  6
CONTINUOUS
 10
17.7343794733
 20
53.6768687199
 11
17.597503297
 21
53.7003882355
  0
LINE
  5
2F6
100
AcDbEntity
  8
RACCORDO
100
AcDbLine
 62
253
  6
CONTINUOUS
 10
-49.8665962416
 20
85.8808720318
 11
37.1075378444
 21
42.3938049888
  0
LINE
  5
2F7
100
AcDbEntity
  8
RACCORDO
100
AcDbLine
 62
7
  6
CONTINUOUS
 10
-49.431723361
 20
85.9032353614
 11
37.5424107249
 21
42.4161683184
  0
LINE
  5
2F8
100
AcDbEntity
  8
DRAFT
100
AcDbLine
 62
7
  6
CONTINUOUS
 10
48.5325507109
 20
38.4752081676
 11
47.8146664844
 21
39.0697379162
  0
LINE
  5
2F9
100
AcDbEntity
  8
DRAFT
100
AcDbLine
 62
7
  6
CONTINUOUS
 10
57.707359801
 20
-2.2759430379
 11
57.9010166145
 21
-3.2579399611
  0
LINE
  5
2FA
100
AcDbEntity
  8
DRAFT
100
AcDbLine
 62
7
  6
CONTINUOUS
 10
58.5355351035
 20
-2.7913911016
 11
58.571462664
 21
-2.9735729379
  0
LINE
  5
2FB
100
AcDbEntity
  8
DRAFT
100
AcDbLine
 62
7
  6
CONTINUOUS
 10
56.4954361325
 20
24.6037625105
 11
56.4543431305
 21
24.8121373197
  0
LINE
  5
2FC
100
AcDbEntity
  8
0
100
AcDbLine
 62
7
  6
CONTINUOUS
 10
48.3598314764
 20
31.7077782484
 11
48.3878733225
 21
31.5494242677
  0
LINE
  5
2FD
100
AcDbEntity
  8
DRAFT
100
AcDbLine
 62
7
  6
CONTINUOUS
 10
64.2849463674
 20
0.6288294928
 11
64.2849463674
 21
1.4644898301
  0
LINE
  5
2FE
100
AcDbEntity
  8
DRAFT
100
AcDbLine
 62
7
  6
CONTINUOUS
 10
64.8476447897
 20
1.7435923958
 11
64.8476447897
 21
0.3474802816
  0
LINE
  5
2FF
100
AcDbEntity
  8
DRAFT
100
AcDbLine
 62
7
  6
CONTINUOUS
 10
57.7536726073
 20
-30.6137160501
 11
57.707359801
 21
-30.8022466891
  0
LINE
  5
300
100
AcDbEntity
  8
DRAFT
100
AcDbLine
 62
7
  6
CONTINUOUS
 10
58.349072372
 20
-30.3183933775
 11
58.3038317286
 21
-30.5025594449
  0
LINE
  5
301
100
AcDbEntity
  8
DRAFT
100
AcDbLine
 62
7
  6
CONTINUOUS
 10
65.9632210741
 20
30.9345425984
 11
66.1858395553
 21
30.7501767846
  0
LINE
  5
302
100
AcDbEntity
  8
RACCORDO
100
AcDbLine
 62
7
  6
CONTINUOUS
 10
75.5264506869
 20
52.3512261031
 11
75.5264506869
 21
51.6335967372
  0
LINE
  5
303
100
AcDbEntity
  8
DRAFT
100
AcDbLine
 62
7
  6
CONTINUOUS
 10
78.5809727654
 20
-20.2832216308
 11
78.5810557874
 21
-21.1578308962
  0
LINE
  5
304
100
AcDbEntity
  8
DRAFT
100
AcDbLine
 62
7
  6
CONTINUOUS
 10
78.5832388178
 20
37.3369582229
 11
78.5831613176
 21
36.5205969776
  0
LINE
  5
305
100
AcDbEntity
  8
DRAFT
100
AcDbLine
 62
7
  6
CONTINUOUS
 10
78.580506458
 20
8.5551930233
 11
78.5804234176
 21
7.6804738718
  0
LINE
  5
306
100
AcDbEntity
  8
0
100
AcDbLine
 62
7
  6
CONTINUOUS
 10
29.4441728932
 20
-77.8519383484
 11
29.5645099098
 21
-77.7182878138
  0
LINE
  5
307
100
AcDbEntity
  8
DRAFT
100
AcDbLine
 62
7
  6
CONTINUOUS
 10
47.5210417835
 20
-61.3476516958
 11
46.2875852849
 21
-61.9691357043
  0
LINE
  5
308
100
AcDbEntity
  8
DRAFT
100
AcDbLine
 62
7
  6
CONTINUOUS
 10
40.723707105
 20
64.3808355301
 11
41.1607641468
 21
64.1623566117
  0
LINE
  5
309
100
AcDbEntity
  8
DRAFT
100
AcDbLine
 62
7
  6
CONTINUOUS
 10
70.4256966239
 20
49.5332117159
 11
70.8090881198
 21
49.3415594799
  0
LINE
  5
30A
100
AcDbEntity
  8
0
100
AcDbLine
 62
7
  6
CONTINUOUS
 10
4.6029434128
 20
76.2640567201
 11
4.674351212
 21
76.2283528205
  0
LINE
  5
30B
100
AcDbEntity
  8
RACCORDO
100
AcDbLine
 62
7
  6
CONTINUOUS
 10
82.8145300039
 20
39.0202180427
 11
83.4004719276
 21
38.7272470809
  0
LINE
  5
30C
100
AcDbEntity
  8
DRAFT
100
AcDbLine
 62
7
  6
CONTINUOUS
 10
11.0260930118
 20
79.2304800608
 11
11.4630205902
 21
79.0119666837
  0
LINE
  5
30D
100
AcDbEntity
  8
DRAFT
100
AcDbLine
 62
7
  6
CONTINUOUS
 10
71.6459342922
 20
49.7490114643
 11
71.2843887912
 21
49.9297842149
  0
LINE
  5
30E
100
AcDbEntity
  8
DRAFT
100
AcDbLine
 62
7
  6
CONTINUOUS
 10
41.9933281905
 20
64.5753145152
 11
41.5859039813
 21
64.7790266198
  0
LINE
  5
30F
100
AcDbEntity
  8
DRAFT
100
AcDbLine
 62
7
  6
CONTINUOUS
 10
12.2948433807
 20
79.4245569201
 11
11.8874191715
 21
79.6282690247
  0
LINE
  5
310
100
AcDbEntity
  8
RACCORDO
100
AcDbLine
 62
253
  6
CONTINUOUS
 10
73.4573832307
 20
50.6309877329
 11
73.1430279518
 21
50.7881653724
  0
LINE
  5
311
100
AcDbEntity
  8
RACCORDO
100
AcDbLine
 62
253
  6
CONTINUOUS
 10
43.7881951643
 20
65.4655817661
 11
43.4445431419
 21
65.6374077773
  0
LINE
  5
312
100
AcDbEntity
  8
RACCORDO
100
AcDbLine
 62
253
  6
CONTINUOUS
 10
14.0897103545
 20
80.314824171
 11
13.7460583321
 21
80.4866501822
  0
LINE
  5
313
100
AcDbEntity
  8
RACCORDO
100
AcDbLine
 62
253
  6
CONTINUOUS
 10
73.9337822555
 20
50.8629416265
 11
73.6318376912
 21
51.0139139087
  0
LINE
  5
314
100
AcDbEntity
  8
RACCORDO
100
AcDbLine
 62
253
  6
CONTINUOUS
 10
44.2602332427
 20
65.6997161329
 11
43.9333528814
 21
65.8631563136
  0
LINE
  5
315
100
AcDbEntity
  8
RACCORDO
100
AcDbLine
 62
253
  6
CONTINUOUS
 10
14.5617484329
 20
80.5489585378
 11
14.2348680715
 21
80.7123987185
  0
LWPOLYLINE
  5
316
100
AcDbEntity
  8
RACCORDO
100
AcDbPolyline
 62
7
  6
CONTINUOUS
 90
8
 70
0
 10
83.4620872738
 20
41.6166497928
 10
83.4462003718
 20
41.8060811272
 10
83.3993731132
 20
41.9889869598
 10
83.3227970703
 20
42.1655572834
 10
83.2181028065
 20
42.333229194
 10
83.0863610669
 20
42.4911570326
 10
82.9289102086
 20
42.6384474171
 10
82.7476909548
 20
42.7738468943
  0
LINE
  5
317
100
AcDbEntity
  8
DRAFT
100
AcDbLine
 62
7
  6
CONTINUOUS
 10
79.2575294762
 20
-20.7928578217
 11
79.2575294762
 21
-19.9476445146
  0
LINE
  5
318
100
AcDbEntity
  8
DRAFT
100
AcDbLine
 62
7
  6
CONTINUOUS
 10
79.2575294762
 20
8.0457881243
 11
79.2575294762
 21
8.8910014314
  0
LINE
  5
319
100
AcDbEntity
  8
DRAFT
100
AcDbLine
 62
7
  6
CONTINUOUS
 10
79.2575294762
 20
36.8844340704
 11
79.2575294762
 21
37.6790408677
  0
LINE
  5
31A
100
AcDbEntity
  8
RACCORDO
100
AcDbLine
 62
253
  6
CONTINUOUS
 10
81.0418984062
 20
-19.8301498475
 11
81.0418984062
 21
-19.0625843708
  0
LINE
  5
31B
100
AcDbEntity
  8
RACCORDO
100
AcDbLine
 62
253
  6
CONTINUOUS
 10
81.0418984062
 20
9.0084960985
 11
81.0418984062
 21
9.7760615753
  0
LINE
  5
31C
100
AcDbEntity
  8
RACCORDO
100
AcDbLine
 62
253
  6
CONTINUOUS
 10
81.0418984062
 20
37.8471420446
 11
81.0418984062
 21
38.5842909038
  0
LINE
  5
31D
100
AcDbEntity
  8
RACCORDO
100
AcDbLine
 62
253
  6
CONTINUOUS
 10
81.4643778985
 20
-19.602212469
 11
81.4643778985
 21
-18.853031428
  0
LINE
  5
31E
100
AcDbEntity
  8
RACCORDO
100
AcDbLine
 62
253
  6
CONTINUOUS
 10
81.4643778985
 20
9.236433477
 11
81.4643778985
 21
9.985614518
  0
LINE
  5
31F
100
AcDbEntity
  8
RACCORDO
100
AcDbLine
 62
253
  6
CONTINUOUS
 10
81.4643778985
 20
38.075079423
 11
81.4643778985
 21
38.7986241446
  0
LINE
  5
320
100
AcDbEntity
  8
RACCORDO
100
AcDbLine
 62
7
  6
CONTINUOUS
 10
82.5837374471
 20
-53.3098213531
 11
82.5837374471
 21
-49.7638040151
  0
LINE
  5
321
100
AcDbEntity
  8
RACCORDO
100
AcDbLine
 62
7
  6
CONTINUOUS
 10
82.5837374471
 20
40.5712830874
 11
82.5837374471
 21
44.1173004254
  0
LINE
  5
322
100
AcDbEntity
  8
RACCORDO
100
AcDbLine
 62
253
  6
CONTINUOUS
 10
82.620113368
 20
40.5897215722
 11
82.620113368
 21
39.3849544476
  0
LINE
  5
323
100
AcDbEntity
  8
RACCORDO
100
AcDbLine
 62
253
  6
CONTINUOUS
 10
82.620113368
 20
37.9635715021
 11
82.620113368
 21
10.558867831
  0
LINE
  5
324
100
AcDbEntity
  8
RACCORDO
100
AcDbLine
 62
253
  6
CONTINUOUS
 10
82.620113368
 20
9.1249255561
 11
82.620113368
 21
-18.279778115
  0
LINE
  5
325
100
AcDbEntity
  8
RACCORDO
100
AcDbLine
 62
253
  6
CONTINUOUS
 10
82.620113368
 20
-19.71372039
 11
82.620113368
 21
-47.118424061
  0
LINE
  5
326
100
AcDbEntity
  8
RACCORDO
100
AcDbLine
 62
253
  6
CONTINUOUS
 10
82.620113368
 20
-48.5398070065
 11
82.620113368
 21
-49.7445741311
  0
LINE
  5
327
100
AcDbEntity
  8
RACCORDO
100
AcDbLine
 62
253
  6
CONTINUOUS
 10
82.8145300039
 20
39.0202180427
 11
82.8145300039
 21
38.805497457
  0
LINE
  5
328
100
AcDbEntity
  8
RACCORDO
100
AcDbLine
 62
253
  6
CONTINUOUS
 10
82.8145300039
 20
10.1815720967
 11
82.8145300039
 21
9.966851511
  0
LINE
  5
329
100
AcDbEntity
  8
RACCORDO
100
AcDbLine
 62
253
  6
CONTINUOUS
 10
82.8145300039
 20
-18.6570738493
 11
82.8145300039
 21
-18.871794435
  0
LINE
  5
32A
100
AcDbEntity
  8
RACCORDO
100
AcDbLine
 62
7
  6
CONTINUOUS
 10
83.4004719276
 20
-47.7886907572
 11
83.4004719276
 21
-46.4030501111
  0
LINE
  5
32B
100
AcDbEntity
  8
RACCORDO
100
AcDbLine
 62
7
  6
CONTINUOUS
 10
83.4004719276
 20
-18.9500448112
 11
83.4004719276
 21
-17.5644041651
  0
LINE
  5
32C
100
AcDbEntity
  8
RACCORDO
100
AcDbLine
 62
7
  6
CONTINUOUS
 10
83.4004719276
 20
9.8886011349
 11
83.4004719276
 21
11.2742417809
  0
LINE
  5
32D
100
AcDbEntity
  8
RACCORDO
100
AcDbLine
 62
7
  6
CONTINUOUS
 10
83.4004719276
 20
38.7272470809
 11
83.4004719276
 21
40.1128877269
  0
LINE
  5
32E
100
AcDbEntity
  8
RACCORDO
100
AcDbLine
 62
7
  6
CONTINUOUS
 10
83.462093967
 20
41.6186915643
 11
83.462093967
 21
-48.6895697028
  0
LINE
  5
32F
100
AcDbEntity
  8
RACCORDO
100
AcDbLine
 62
7
  6
CONTINUOUS
 10
82.5837374471
 20
-49.9619809662
 11
82.6392052467
 21
-49.9305260449
  0
LINE
  5
330
100
AcDbEntity
  8
DRAFT
100
AcDbLine
 62
7
  6
CONTINUOUS
 10
81.7116672394
 20
-53.9418497636
 11
52.8745068823
 21
-69.1974320553
  0
LINE
  5
331
100
AcDbEntity
  8
DRAFT
100
AcDbLine
 62
7
  6
CONTINUOUS
 10
52.8390472262
 20
-69.6739568737
 11
79.3445267744
 21
-55.6574226754
  0
LINE
  5
332
100
AcDbEntity
  8
RACCORDO
100
AcDbLine
 62
253
  6
CONTINUOUS
 10
82.5837374471
 20
-49.7638040151
 11
82.620113368
 21
-49.7445741311
  0
LINE
  5
333
100
AcDbEntity
  8
RACCORDO
100
AcDbLine
 62
7
  6
CONTINUOUS
 10
82.620113368
 20
-48.5398070065
 11
52.9073040378
 21
-64.2343528981
  0
LINE
  5
334
100
AcDbEntity
  8
DRAFT
100
AcDbLine
 62
7
  6
CONTINUOUS
 10
52.8812770211
 20
-68.9564099856
 11
82.5837374471
 21
-53.3098213531
  0
LINE
  5
335
100
AcDbEntity
  8
DRAFT
100
AcDbLine
 62
7
  6
CONTINUOUS
 10
80.2165969821
 20
-55.0253942649
 11
52.860215446
 21
-69.430281434
  0
LINE
  5
336
100
AcDbEntity
  8
RACCORDO
100
AcDbLine
 62
253
  6
CONTINUOUS
 10
52.6266438382
 20
-68.3771576497
 11
50.530225972
 21
-69.4626097751
  0
LINE
  5
337
100
AcDbEntity
  8
0
100
AcDbLine
 62
7
  6
CONTINUOUS
 10
28.9281138067
 20
-76.1007502677
 11
29.0097151677
 21
-76.0599495872
  0
LINE
  5
338
100
AcDbEntity
  8
0
100
AcDbLine
 62
7
  6
CONTINUOUS
 10
28.1468284418
 20
-76.8219572312
 11
28.8220477895
 21
-76.4843475573
  0
LINE
  5
339
100
AcDbEntity
  8
0
100
AcDbLine
 62
7
  6
CONTINUOUS
 10
28.1300146153
 20
-76.8738300068
 11
28.9347907778
 21
-76.4714419256
  0
LINE
  5
33A
100
AcDbEntity
  8
0
100
AcDbLine
 62
7
  6
CONTINUOUS
 10
28.8840749995
 20
-76.8466182138
 11
27.768353923
 21
-77.404478752
  0
LINE
  5
33B
100
AcDbEntity
  8
0
100
AcDbLine
 62
7
  6
CONTINUOUS
 10
28.1300146153
 20
-77.7740174873
 11
28.9945617509
 21
-77.3417439195
  0
LINE
  5
33C
100
AcDbEntity
  8
0
100
AcDbLine
 62
7
  6
CONTINUOUS
 10
28.1468284418
 20
-77.8369696553
 11
28.8220477895
 21
-77.4993599814
  0
LINE
  5
33D
100
AcDbEntity
  8
0
100
AcDbLine
 62
7
  6
CONTINUOUS
 10
28.9281138067
 20
-77.9890232882
 11
29.5645099098
 21
-77.6708252367
  0
LINE
  5
33E
100
AcDbEntity
  8
0
100
AcDbLine
 62
7
  6
CONTINUOUS
 10
28.8650146153
 20
-78.1415174873
 11
29.732518683
 21
-77.7077654535
  0
LINE
  5
33F
100
AcDbEntity
  8
0
100
AcDbLine
 62
7
  6
CONTINUOUS
 10
29.3101223881
 20
-78.1753629846
 11
30.0565655645
 21
-77.8021413963
  0
LINE
  5
340
100
AcDbEntity
  8
0
100
AcDbLine
 62
7
  6
CONTINUOUS
 10
28.8220477895
 20
-79.3337280188
 11
28.5392050771
 21
-79.475149375
  0
LINE
  5
341
100
AcDbEntity
  8
RACCORDO
100
AcDbLine
 62
7
  6
CONTINUOUS
 10
82.620113368
 20
-47.118424061
 11
52.9073040378
 21
-61.8561965345
  0
LINE
  5
342
100
AcDbEntity
  8
DRAFT
100
AcDbLine
 62
253
  6
CONTINUOUS
 10
47.5210417835
 20
-72.1729692431
 11
46.2875852849
 21
-72.7685367906
  0
LINE
  5
343
100
AcDbEntity
  8
0
100
AcDbLine
 62
7
  6
CONTINUOUS
 10
-70.9790790957
 20
69.9727345119
 11
-69.3944378873
 21
70.2378412776
  0
LWPOLYLINE
  5
344
100
AcDbEntity
  8
RACCORDO
100
AcDbPolyline
 62
7
  6
CONTINUOUS
 90
6
 70
0
 10
-14.3341806548
 20
97.2989760992
 10
-14.3917859794
 20
97.3266464711
 10
-14.5928209414
 20
97.4006901232
 10
-14.8066437605
 20
97.4457514829
 10
-15.0311321215
 20
97.4604048018
 10
-15.2633136287
 20
97.4438288787
  0
LINE
  5
345
100
AcDbEntity
  8
RACCORDO
100
AcDbLine
 62
7
  6
CONTINUOUS
 10
79.3445267744
 20
49.7041124204
 11
76.4492157421
 21
51.1517679366
  0
LINE
  5
346
100
AcDbEntity
  8
RACCORDO
100
AcDbLine
 62
7
  6
CONTINUOUS
 10
-15.6938503258
 20
97.2233009705
 11
-18.5891613581
 21
98.6709564867
  0
LINE
  5
347
100
AcDbEntity
  8
RACCORDO
100
AcDbLine
 62
253
  6
CONTINUOUS
 10
15.8968777988
 20
81.4483831812
 11
16.1294810672
 21
81.332081547
  0
LINE
  5
348
100
AcDbEntity
  8
RACCORDO
100
AcDbLine
 62
253
  6
CONTINUOUS
 10
45.5953626086
 20
66.5991407763
 11
45.8279658771
 21
66.4828391421
  0
LINE
  5
349
100
AcDbEntity
  8
RACCORDO
100
AcDbLine
 62
253
  6
CONTINUOUS
 10
75.2938474185
 20
51.7498983714
 11
75.5264506869
 21
51.6335967372
  0
LINE
  5
34A
100
AcDbEntity
  8
RACCORDO
100
AcDbLine
 62
253
  6
CONTINUOUS
 10
-15.6565050936
 20
97.2408590398
 11
-14.7081721946
 21
96.7666925903
  0
LINE
  5
34B
100
AcDbEntity
  8
RACCORDO
100
AcDbLine
 62
253
  6
CONTINUOUS
 10
-13.5476178794
 20
96.1864154327
 11
14.9800579657
 21
81.9225775102
  0
LINE
  5
34C
100
AcDbEntity
  8
RACCORDO
100
AcDbLine
 62
253
  6
CONTINUOUS
 10
16.1508669304
 20
81.3371730278
 11
44.6785427755
 21
67.0733351052
  0
LINE
  5
34D
100
AcDbEntity
  8
RACCORDO
100
AcDbLine
 62
253
  6
CONTINUOUS
 10
45.8493517403
 20
66.4879306228
 11
74.3770275853
 21
52.2240927003
  0
LINE
  5
34E
100
AcDbEntity
  8
RACCORDO
100
AcDbLine
 62
253
  6
CONTINUOUS
 10
75.5375819006
 20
51.6438155427
 11
76.4859147995
 21
51.1696490932
  0
LINE
  5
34F
100
AcDbEntity
  8
RACCORDO
100
AcDbLine
 62
7
  6
CONTINUOUS
 10
76.6578215368
 20
51.7855406782
 11
75.5264506869
 21
52.3512261031
  0
LINE
  5
350
100
AcDbEntity
  8
RACCORDO
100
AcDbLine
 62
7
  6
CONTINUOUS
 10
46.959336727
 20
66.6347830831
 11
45.8279658771
 21
67.200468508
  0
LINE
  5
351
100
AcDbEntity
  8
RACCORDO
100
AcDbLine
 62
7
  6
CONTINUOUS
 10
17.2608519171
 20
81.484025488
 11
16.1294810672
 21
82.049710913
  0
LINE
  5
352
100
AcDbEntity
  8
RACCORDO
100
AcDbLine
 62
7
  6
CONTINUOUS
 10
-12.4376328927
 20
96.3332678929
 11
-13.5690037426
 21
96.8989533179
  0
LINE
  5
353
100
AcDbEntity
  8
RACCORDO
100
AcDbLine
 62
7
  6
CONTINUOUS
 10
-14.3424771026
 20
97.303244354
 11
-13.5619820002
 21
96.9129968027
  0
LINE
  5
354
100
AcDbEntity
  8
RACCORDO
100
AcDbLine
 62
7
  6
CONTINUOUS
 10
-12.4306111503
 20
96.3473113778
 11
16.1365028097
 21
82.0637543978
  0
LINE
  5
355
100
AcDbEntity
  8
RACCORDO
100
AcDbLine
 62
7
  6
CONTINUOUS
 10
17.2678736596
 20
81.4980689729
 11
45.8349876195
 21
67.2145119929
  0
LINE
  5
356
100
AcDbEntity
  8
RACCORDO
100
AcDbLine
 62
7
  6
CONTINUOUS
 10
46.9663584694
 20
66.6488265679
 11
75.5334724293
 21
52.365269588
  0
LINE
  5
357
100
AcDbEntity
  8
RACCORDO
100
AcDbLine
 62
7
  6
CONTINUOUS
 10
76.6648432792
 20
51.799584163
 11
77.7811242489
 21
51.2414436782
  0
LINE
  5
358
100
AcDbEntity
  8
RACCORDO
100
AcDbLine
 62
7
  6
CONTINUOUS
 10
82.7476909548
 20
42.7738468943
 11
82.5837374471
 21
42.8728908134
  0
LWPOLYLINE
  5
359
100
AcDbEntity
  8
RACCORDO
100
AcDbPolyline
 62
7
  6
CONTINUOUS
 90
3
 70
0
 10
82.8546744304
 20
-49.7830740507
 10
83.0390947285
 20
-49.6221506953
 10
83.1917778595
 20
-49.4488098626
  0
LINE
  5
35A
100
AcDbEntity
  8
DRAFT
100
AcDbLine
 62
7
  6
CONTINUOUS
 10
79.3445267744
 20
-55.6574226754
 11
80.2165969821
 21
-55.0253942649
  0
LINE
  5
35B
100
AcDbEntity
  8
DRAFT
100
AcDbLine
 62
7
  6
CONTINUOUS
 10
81.7116672394
 20
-53.9418497636
 11
82.5837374471
 21
-53.3098213531
  0
LINE
  5
35C
100
AcDbEntity
  8
RACCORDO
100
AcDbLine
 62
7
  6
CONTINUOUS
 10
82.6392052467
 20
-49.9305260449
 11
82.8546744304
 21
-49.7830740507
  0
LINE
  5
35D
100
AcDbEntity
  8
DRAFT
100
AcDbLine
 62
7
  6
CONTINUOUS
 10
47.0843173043
 20
-80.1648330617
 11
46.2875852849
 21
-80.5854354964
  0
LINE
  5
35E
100
AcDbEntity
  8
RACCORDO
100
AcDbLine
 62
253
  6
CONTINUOUS
 10
79.4012430068
 20
47.6703505231
 11
79.9375238825
 21
46.7454028331
  0
LINE
  5
35F
100
AcDbEntity
  8
RACCORDO
100
AcDbLine
 62
253
  6
CONTINUOUS
 10
80.7124806469
 20
45.4088001281
 11
80.8349379919
 21
45.1975924504
  0
LINE
  5
360
100
AcDbEntity
  8
RACCORDO
100
AcDbLine
 62
7
  6
CONTINUOUS
 10
79.5651042845
 20
47.7653566195
 11
80.1013851602
 21
46.8404089296
  0
LINE
  5
361
100
AcDbEntity
  8
RACCORDO
100
AcDbLine
 62
7
  6
CONTINUOUS
 10
80.8919587733
 20
45.4768711449
 11
81.0059529662
 21
45.2802602453
  0
LINE
  5
362
100
AcDbEntity
  8
DRAFT
100
AcDbLine
 62
7
  6
CONTINUOUS
 10
82.5837374471
 20
44.1173004254
 11
81.7116672394
 21
45.6213990435
  0
LINE
  5
363
100
AcDbEntity
  8
DRAFT
100
AcDbLine
 62
7
  6
CONTINUOUS
 10
80.2165969821
 20
48.2000138022
 11
79.3445267744
 21
49.7041124204
  0
LINE
  5
364
100
AcDbEntity
  8
RACCORDO
100
AcDbLine
 62
7
  6
CONTINUOUS
 10
80.8919853614
 20
45.4768243734
 11
80.8919507379
 21
45.4768849237
  0
LWPOLYLINE
  5
365
100
AcDbEntity
  8
RACCORDO
100
AcDbPolyline
 62
7
  6
CONTINUOUS
 90
8
 70
0
 10
78.6312186482
 20
50.0607664835
 10
78.5895290674
 20
50.2306203154
 10
78.4929553353
 20
50.4823587064
 10
78.3684370375
 20
50.7081287508
 10
78.2185050936
 20
50.9047450113
 10
78.0448081959
 20
51.0710168245
 10
77.8493046467
 20
51.2049378468
 10
77.7803395396
 20
51.2417493881
  0
LWPOLYLINE
  5
366
100
AcDbEntity
  8
RACCORDO
100
AcDbPolyline
 62
7
  6
CONTINUOUS
 90
5
 70
0
 10
83.1917778595
 20
-49.4488098626
 10
83.3112355899
 20
-49.2650108112
 10
83.3963936455
 20
-49.0730418581
 10
83.4468189299
 20
-48.8752606707
 10
83.4620898862
 20
-48.6879920409
  0
LINE
  5
367
100
AcDbEntity
  8
RACCORDO
100
AcDbLine
 62
253
  6
CONTINUOUS
 10
46.2875852849
 20
-91.4150280739
 11
43.6712901945
 21
-92.7231756191
  0
LWPOLYLINE
  5
368
100
AcDbEntity
  8
RACCORDO
100
AcDbPolyline
 62
7
  6
CONTINUOUS
 90
3
 70
0
 10
-15.2633136287
 20
97.4438288787
 10
-15.499841092
 20
97.3958191905
 10
-15.7384701472
 20
97.3165033116
  0
LINE
  5
369
100
AcDbEntity
  8
ASSI
100
AcDbLine
 62
7
  6
CONTINUOUS
 10
43.688653428
 20
-96.8237660779
 11
41.0723583376
 21
-98.1319136231
  0
ARC
  5
36A
100
AcDbEntity
  8
0
100
AcDbCircle
 62
7
  6
CONTINUOUS
 10
-52.7008405974
 20
-28.9585334264
 40
15.5350070955
100
AcDbArc
 50
178.8805154464
 51
181.1164946862
  0
ARC
  5
36B
100
AcDbEntity
  8
0
100
AcDbCircle
 62
7
  6
CONTINUOUS
 10
-68.5243645256
 20
-20.117637832
 40
8.9253069101
100
AcDbArc
 50
264.2225437041
 51
267.0884479228
  0
ARC
  5
36C
100
AcDbEntity
  8
0
100
AcDbCircle
 62
7
  6
CONTINUOUS
 10
-61.4882882528
 20
-26.7279436159
 40
8.0518541451
100
AcDbArc
 50
189.3175606024
 51
189.7925119453
  0
ARC
  5
36D
100
AcDbEntity
  8
0
100
AcDbCircle
 62
7
  6
CONTINUOUS
 10
-64.506654776
 20
-21.8878660703
 40
7.92005644
100
AcDbArc
 50
231.6308965808
 51
235.6307820283
  0
ARC
  5
36E
100
AcDbEntity
  8
0
100
AcDbCircle
 62
7
  6
CONTINUOUS
 10
-62.911916667
 20
-26.728515057
 40
7.49127769
100
AcDbArc
 50
194.7048226947
 51
195.2031810519
  0
ARC
  5
36F
100
AcDbEntity
  8
0
100
AcDbCircle
 62
7
  6
CONTINUOUS
 10
-63.2924213671
 20
-29.9265717824
 40
7.2082686168
100
AcDbArc
 50
161.8239130891
 51
162.2573500263
  0
ARC
  5
370
100
AcDbEntity
  8
0
100
AcDbCircle
 62
7
  6
CONTINUOUS
 10
-65.6945866966
 20
-23.8998048248
 40
6.5035411377
100
AcDbArc
 50
222.1073157184
 51
226.6638372672
  0
ARC
  5
371
100
AcDbEntity
  8
0
100
AcDbCircle
 62
7
  6
CONTINUOUS
 10
-63.928949942
 20
-30.2654315326
 40
5.638271209
100
AcDbArc
 50
167.0052115978
 51
167.5157734866
  0
ARC
  5
372
100
AcDbEntity
  8
0
100
AcDbCircle
 62
7
  6
CONTINUOUS
 10
-65.8522918054
 20
-27.5851592473
 40
5.1357266781
100
AcDbArc
 50
176.6149940728
 51
183.3820652921
  0
ARC
  5
373
100
AcDbEntity
  8
0
100
AcDbCircle
 62
7
  6
CONTINUOUS
 10
-67.7301548544
 20
-28.0985058136
 40
2.7497003918
100
AcDbArc
 50
237.8689528547
 51
239.2551282683
  0
ARC
  5
374
100
AcDbEntity
  8
0
100
AcDbCircle
 62
7
  6
CONTINUOUS
 10
-69.455984149
 20
-26.5662191538
 40
1.5868566671
100
AcDbArc
 50
149.4137144816
 51
155.1159096638
  0
ARC
  5
375
100
AcDbEntity
  8
0
100
AcDbCircle
 62
7
  6
CONTINUOUS
 10
-68.1586765273
 20
-29.1818173687
 40
1.5786594219
100
AcDbArc
 50
258.2016405071
 51
263.90673946
  0
ARC
  5
376
100
AcDbEntity
  8
DRAFT
100
AcDbCircle
 62
7
  6
CONTINUOUS
 10
-18.136303256
 20
120.8935995224
 40
169.5992077004
100
AcDbArc
 50
296.5637639405
 51
296.7892747686
  0
ARC
  5
377
100
AcDbEntity
  8
RACCORDO
100
AcDbCircle
 62
7
  6
CONTINUOUS
 10
-57.342060217
 20
70.0849044877
 40
17.6859554676
100
AcDbArc
 50
63.4315545137
 51
64.6819082517
  0
ARC
  5
378
100
AcDbEntity
  8
0
100
AcDbCircle
 62
7
  6
CONTINUOUS
 10
-52.7008405974
 20
68.9023372013
 40
15.5350070955
100
AcDbArc
 50
178.8805154464
 51
181.1164946862
  0
ARC
  5
379
100
AcDbEntity
  8
DRAFT
100
AcDbCircle
 62
7
  6
CONTINUOUS
 10
2.4804512666
 20
54.440159716
 40
15.2730134184
100
AcDbArc
 50
352.6640208286
 51
357.1353670045
  0
ARC
  5
37A
100
AcDbEntity
  8
DRAFT
100
AcDbCircle
 62
7
  6
CONTINUOUS
 10
3.3790925423
 20
54.721118636
 40
13.663110759
100
AcDbArc
 50
351.6616015988
 51
354.4925624781
  0
ARC
  5
37B
100
AcDbEntity
  8
DRAFT
100
AcDbCircle
 62
7
  6
CONTINUOUS
 10
4.229836312
 20
55.1741566645
 40
13.4526469658
100
AcDbArc
 50
352.3489280119
 51
353.6963690026
  0
ARC
  5
37C
100
AcDbEntity
  8
DRAFT
100
AcDbCircle
 62
7
  6
CONTINUOUS
 10
5.1974638352
 20
55.0367408164
 40
12.4753406252
100
AcDbArc
 50
348.1910857058
 51
352.3827426512
  0
ARC
  5
37D
100
AcDbEntity
  8
DRAFT
100
AcDbCircle
 62
7
  6
CONTINUOUS
 10
1.3729182893
 20
65.9832864693
 40
9.8425317875
100
AcDbArc
 50
73.3139267845
 51
78.9709070306
  0
ARC
  5
37E
100
AcDbEntity
  8
DRAFT
100
AcDbCircle
 62
7
  6
CONTINUOUS
 10
-57.9574892361
 20
77.383275056
 40
8.9989808755
100
AcDbArc
 50
97.4748669651
 51
101.6731187282
  0
ARC
  5
37F
100
AcDbEntity
  8
0
100
AcDbCircle
 62
7
  6
CONTINUOUS
 10
-68.52436453
 20
77.743232796
 40
8.9253069101
100
AcDbArc
 50
264.2225437327
 51
267.0884479513
  0
ARC
  5
380
100
AcDbEntity
  8
DRAFT
100
AcDbCircle
 62
7
  6
CONTINUOUS
 10
-58.0627752944
 20
77.8718841065
 40
8.4991760736
100
AcDbArc
 50
101.6444728143
 51
108.3012505085
  0
ARC
  5
381
100
AcDbEntity
  8
RACCORDO
100
AcDbCircle
 62
253
  6
CONTINUOUS
 10
-55.9467852319
 20
79.0361377657
 40
8.3490123109
100
AcDbArc
 50
113.7243779903
 51
115.3242293153
  0
ARC
  5
382
100
AcDbEntity
  8
0
100
AcDbCircle
 62
7
  6
CONTINUOUS
 10
-61.4882882529
 20
71.1329270118
 40
8.051854145
100
AcDbArc
 50
189.3175606024
 51
189.7925119453
  0
ARC
  5
383
100
AcDbEntity
  8
0
100
AcDbCircle
 62
7
  6
CONTINUOUS
 10
-64.506654776
 20
75.9730045574
 40
7.92005644
100
AcDbArc
 50
231.6308965808
 51
235.6307820283
  0
ARC
  5
384
100
AcDbEntity
  8
0
100
AcDbCircle
 62
7
  6
CONTINUOUS
 10
-62.9119166669
 20
71.1323555706
 40
7.4912776901
100
AcDbArc
 50
194.7048226947
 51
195.2031810519
  0
ARC
  5
385
100
AcDbEntity
  8
0
100
AcDbCircle
 62
7
  6
CONTINUOUS
 10
-63.2924213669
 20
67.9342988452
 40
7.208268617
100
AcDbArc
 50
161.8239130891
 51
162.2573500263
  0
ARC
  5
386
100
AcDbEntity
  8
0
100
AcDbCircle
 62
7
  6
CONTINUOUS
 10
-65.6945866966
 20
73.9610658029
 40
6.5035411377
100
AcDbArc
 50
222.1073157184
 51
226.6638372672
  0
ARC
  5
387
100
AcDbEntity
  8
0
100
AcDbCircle
 62
7
  6
CONTINUOUS
 10
-63.9289499417
 20
67.595439095
 40
5.6382712093
100
AcDbArc
 50
167.0052115978
 51
167.5157734866
  0
ARC
  5
388
100
AcDbEntity
  8
0
100
AcDbCircle
 62
7
  6
CONTINUOUS
 10
-65.8522918054
 20
70.2757113804
 40
5.135726678
100
AcDbArc
 50
176.6149940728
 51
183.3820652921
  0
ARC
  5
389
100
AcDbEntity
  8
0
100
AcDbCircle
 62
7
  6
CONTINUOUS
 10
-67.7301548543
 20
69.7623648142
 40
2.7497003921
100
AcDbArc
 50
237.8689528548
 51
239.2551282682
  0
ARC
  5
38A
100
AcDbEntity
  8
0
100
AcDbCircle
 62
7
  6
CONTINUOUS
 10
-69.455984149
 20
71.2946514738
 40
1.5868566671
100
AcDbArc
 50
149.4137144816
 51
155.1159096638
  0
ARC
  5
38B
100
AcDbEntity
  8
0
100
AcDbCircle
 62
7
  6
CONTINUOUS
 10
-68.1586765273
 20
68.679053259
 40
1.5786594219
100
AcDbArc
 50
258.2016405071
 51
263.90673946
  0
ARC
  5
38C
100
AcDbEntity
  8
RACCORDO
100
AcDbCircle
 62
253
  6
CONTINUOUS
 10
-14.8702241933
 20
96.2440182648
 40
1.182949589
100
AcDbArc
 50
67.5335337282
 51
70.8262987903
  0
ARC
  5
38D
100
AcDbEntity
  8
RACCORDO
100
AcDbCircle
 62
253
  6
CONTINUOUS
 10
-14.8690118098
 20
96.2468543767
 40
1.1798654257
100
AcDbArc
 50
63.5031736418
 51
67.5353095339
  0
ARC
  5
38E
100
AcDbEntity
  8
DRAFT
100
AcDbCircle
 62
7
  6
CONTINUOUS
 10
16.7071555123
 20
13.1856640233
 40
32.692129533
100
AcDbArc
 50
28.5670845379
 51
28.9347932138
  0
ARC
  5
38F
100
AcDbEntity
  8
DRAFT
100
AcDbCircle
 62
7
  6
CONTINUOUS
 10
17.0772779238
 20
13.3642363223
 40
32.2816818968
100
AcDbArc
 50
17.8826421897
 51
28.602857662
  0
ARC
  5
390
100
AcDbEntity
  8
DRAFT
100
AcDbCircle
 62
7
  6
CONTINUOUS
 10
18.4387876449
 20
13.8392623704
 40
30.8401034416
100
AcDbArc
 50
17.6350506941
 51
17.819476131
  0
ARC
  5
391
100
AcDbEntity
  8
DRAFT
100
AcDbCircle
 62
7
  6
CONTINUOUS
 10
20.3187726337
 20
15.8053778446
 40
28.222923727
100
AcDbArc
 50
39.7824932963
 51
41.9219952782
  0
ARC
  5
392
100
AcDbEntity
  8
DRAFT
100
AcDbCircle
 62
7
  6
CONTINUOUS
 10
21.8595688869
 20
17.2213595416
 40
26.1304543363
100
AcDbArc
 50
41.8690763213
 51
47.1863889237
  0
ARC
  5
393
100
AcDbEntity
  8
RACCORDO
100
AcDbCircle
 62
253
  6
CONTINUOUS
 10
28.9794353056
 20
15.6267946057
 40
23.6472085381
100
AcDbArc
 50
0.0012403315
 51
0.8245855745
  0
ARC
  5
394
100
AcDbEntity
  8
RACCORDO
100
AcDbCircle
 62
7
  6
CONTINUOUS
 10
29.8256736367
 20
-68.0305841897
 40
23.0816304135
100
AcDbArc
 50
359.120511314
 51
0.0018759448
  0
ARC
  5
395
100
AcDbEntity
  8
DRAFT
100
AcDbCircle
 62
7
  6
CONTINUOUS
 10
49.4465084648
 20
-16.4981117475
 40
16.4492664507
100
AcDbArc
 50
55.2642888812
 51
55.6501876206
  0
ARC
  5
396
100
AcDbEntity
  8
DRAFT
100
AcDbCircle
 62
7
  6
CONTINUOUS
 10
49.7187973915
 20
-16.0962368543
 40
15.9638380164
100
AcDbArc
 50
55.6431832078
 51
57.4549331807
  0
ARC
  5
397
100
AcDbEntity
  8
0
100
AcDbCircle
 62
7
  6
CONTINUOUS
 10
45.5870019875
 20
-78.1024547188
 40
15.5350070955
100
AcDbArc
 50
178.8805154464
 51
181.1164946862
  0
ARC
  5
398
100
AcDbEntity
  8
0
100
AcDbCircle
 62
7
  6
CONTINUOUS
 10
45.5870019875
 20
19.7584159088
 40
15.5350070955
100
AcDbArc
 50
178.8805154464
 51
181.1164946862
  0
ARC
  5
399
100
AcDbEntity
  8
DRAFT
100
AcDbCircle
 62
7
  6
CONTINUOUS
 10
50.2011342831
 20
-15.3368489943
 40
15.0642187295
100
AcDbArc
 50
57.4476016772
 51
60.1136124607
  0
ARC
  5
39A
100
AcDbEntity
  8
DRAFT
100
AcDbCircle
 62
7
  6
CONTINUOUS
 10
50.5106311282
 20
-15.5541224426
 40
14.3462155726
100
AcDbArc
 50
58.118054226
 51
58.9928326459
  0
ARC
  5
39B
100
AcDbEntity
  8
DRAFT
100
AcDbCircle
 62
7
  6
CONTINUOUS
 10
51.482018268
 20
-14.9888069733
 40
13.950844805
100
AcDbArc
 50
58.874285011
 51
59.4577810671
  0
ARC
  5
39C
100
AcDbEntity
  8
DRAFT
100
AcDbCircle
 62
7
  6
CONTINUOUS
 10
63.5638455244
 20
-19.0507513919
 40
12.4835736782
100
AcDbArc
 50
245.2171401983
 51
247.7522680527
  0
ARC
  5
39D
100
AcDbEntity
  8
0
100
AcDbCircle
 62
7
  6
CONTINUOUS
 10
29.7634780617
 20
-69.2615591246
 40
8.9253069102
100
AcDbArc
 50
264.222543689
 51
267.0884479076
  0
ARC
  5
39E
100
AcDbEntity
  8
DRAFT
100
AcDbCircle
 62
7
  6
CONTINUOUS
 10
40.7737237128
 20
-73.511287975
 40
8.8375615219
100
AcDbArc
 50
308.6142215701
 51
316.6614225643
  0
ARC
  5
39F
100
AcDbEntity
  8
RACCORDO
100
AcDbCircle
 62
253
  6
CONTINUOUS
 10
43.1843014581
 20
-72.7722304564
 40
8.357330175
100
AcDbArc
 50
297.8146163882
 51
299.5619456509
  0
ARC
  5
3A0
100
AcDbEntity
  8
RACCORDO
100
AcDbCircle
 62
253
  6
CONTINUOUS
 10
43.1908892046
 20
-72.7838113298
 40
8.3440067086
100
AcDbArc
 50
299.5618317794
 51
301.264319931
  0
ARC
  5
3A1
100
AcDbEntity
  8
0
100
AcDbCircle
 62
7
  6
CONTINUOUS
 10
36.7995543322
 20
-75.8718649083
 40
8.0518541452
100
AcDbArc
 50
189.3175606024
 51
189.7925119453
  0
ARC
  5
3A2
100
AcDbEntity
  8
0
100
AcDbCircle
 62
7
  6
CONTINUOUS
 10
33.7811878089
 20
-71.0317873627
 40
7.92005644
100
AcDbArc
 50
231.6308965808
 51
235.6307820283
  0
ARC
  5
3A3
100
AcDbEntity
  8
0
100
AcDbCircle
 62
7
  6
CONTINUOUS
 10
35.3759259171
 20
-75.8724363497
 40
7.4912776891
100
AcDbArc
 50
194.7048226947
 51
195.2031810519
  0
ARC
  5
3A4
100
AcDbEntity
  8
0
100
AcDbCircle
 62
7
  6
CONTINUOUS
 10
34.9954212173
 20
-79.0704930747
 40
7.2082686163
100
AcDbArc
 50
161.8239130891
 51
162.2573500263
  0
ARC
  5
3A5
100
AcDbEntity
  8
0
100
AcDbCircle
 62
7
  6
CONTINUOUS
 10
34.9954212173
 20
18.790377553
 40
7.2082686163
100
AcDbArc
 50
161.8239130891
 51
162.2573500263
  0
ARC
  5
3A6
100
AcDbEntity
  8
0
100
AcDbCircle
 62
7
  6
CONTINUOUS
 10
32.5932558883
 20
-73.0437261172
 40
6.5035411377
100
AcDbArc
 50
222.1073157185
 51
226.6638372672
  0
ARC
  5
3A7
100
AcDbEntity
  8
DRAFT
100
AcDbCircle
 62
7
  6
CONTINUOUS
 10
61.4597780511
 20
-22.8072728912
 40
5.7982167866
100
AcDbArc
 50
273.6856290945
 51
278.6856416305
  0
ARC
  5
3A8
100
AcDbEntity
  8
0
100
AcDbCircle
 62
7
  6
CONTINUOUS
 10
34.3588926425
 20
-79.409352825
 40
5.6382712086
100
AcDbArc
 50
167.0052115978
 51
167.5157734866
  0
ARC
  5
3A9
100
AcDbEntity
  8
0
100
AcDbCircle
 62
7
  6
CONTINUOUS
 10
34.3588926425
 20
18.4515178027
 40
5.6382712086
100
AcDbArc
 50
167.0052115978
 51
167.5157734866
  0
ARC
  5
3AA
100
AcDbEntity
  8
DRAFT
100
AcDbCircle
 62
7
  6
CONTINUOUS
 10
53.6523495624
 20
-9.9607780966
 40
5.4675609953
100
AcDbArc
 50
90.5101983702
 51
97.123215354
  0
ARC
  5
3AB
100
AcDbEntity
  8
DRAFT
100
AcDbCircle
 62
7
  6
CONTINUOUS
 10
60.7097546309
 20
-23.5828001559
 40
5.2238146981
100
AcDbArc
 50
279.4487313448
 51
283.9682153853
  0
ARC
  5
3AC
100
AcDbEntity
  8
DRAFT
100
AcDbCircle
 62
7
  6
CONTINUOUS
 10
53.6214240711
 20
-9.6739914121
 40
5.1791552195
100
AcDbArc
 50
97.1771547949
 51
97.9316960225
  0
ARC
  5
3AD
100
AcDbEntity
  8
0
100
AcDbCircle
 62
7
  6
CONTINUOUS
 10
32.4355507796
 20
-76.7290805397
 40
5.135726678
100
AcDbArc
 50
176.6149940728
 51
183.3820652921
  0
ARC
  5
3AE
100
AcDbEntity
  8
0
100
AcDbCircle
 62
7
  6
CONTINUOUS
 10
30.5576877305
 20
-77.2424271061
 40
2.7497003919
100
AcDbArc
 50
237.8689528548
 51
239.2551282683
  0
ARC
  5
3AF
100
AcDbEntity
  8
0
100
AcDbCircle
 62
7
  6
CONTINUOUS
 10
30.5576877305
 20
20.6184435215
 40
2.7497003919
100
AcDbArc
 50
237.8689528547
 51
239.2551282683
  0
ARC
  5
3B0
100
AcDbEntity
  8
RACCORDO
100
AcDbCircle
 62
253
  6
CONTINUOUS
 10
81.3788089806
 20
-47.3813495883
 40
2.6693944672
100
AcDbArc
 50
297.711093889
 51
301.9615208753
  0
ARC
  5
3B1
100
AcDbEntity
  8
0
100
AcDbCircle
 62
7
  6
CONTINUOUS
 10
28.8318584359
 20
-75.7101404463
 40
1.5868566671
100
AcDbArc
 50
149.4137144816
 51
155.1159096638
  0
ARC
  5
3B2
100
AcDbEntity
  8
0
100
AcDbCircle
 62
7
  6
CONTINUOUS
 10
30.1291660576
 20
-78.3257386611
 40
1.5786594219
100
AcDbArc
 50
258.2016405071
 51
263.90673946
  0
ARC
  5
3B3
100
AcDbEntity
  8
0
100
AcDbCircle
 62
7
  6
CONTINUOUS
 10
30.1291660576
 20
19.5351319665
 40
1.5786594219
100
AcDbArc
 50
258.2016405071
 51
263.90673946
  0
ARC
  5
3B4
100
AcDbEntity
  8
DRAFT
100
AcDbCircle
 62
7
  6
CONTINUOUS
 10
41.3001221887
 20
27.6512503312
 40
29.7990414159
100
AcDbArc
 50
38.7260085004
 51
39.6740697152
  0
ARC
  5
3B5
100
AcDbEntity
  8
DRAFT
100
AcDbCircle
 62
7
  6
CONTINUOUS
 10
42.7603858712
 20
26.9320298849
 40
28.7860733201
100
AcDbArc
 50
11.0241024969
 51
12.9720752463
  0
ARC
  5
3B6
100
AcDbEntity
  8
DRAFT
100
AcDbCircle
 62
7
  6
CONTINUOUS
 10
42.3549582733
 20
28.2438432739
 40
27.9707381637
100
AcDbArc
 50
39.4267712419
 51
40.4664757896
  0
ARC
  5
3B7
100
AcDbEntity
  8
DRAFT
100
AcDbCircle
 62
7
  6
CONTINUOUS
 10
43.9462848394
 20
27.4223035285
 40
26.8803299173
100
AcDbArc
 50
10.049130947
 51
12.1818507603
  0
ARC
  5
3B8
100
AcDbEntity
  8
DRAFT
100
AcDbCircle
 62
7
  6
CONTINUOUS
 10
45.4850460541
 20
30.0409746855
 40
22.4993824974
100
AcDbArc
 50
42.1359726537
 51
43.5599598235
  0
ARC
  5
3B9
100
AcDbEntity
  8
DRAFT
100
AcDbCircle
 62
7
  6
CONTINUOUS
 10
67.2247122972
 20
41.0978441161
 40
21.9105173601
100
AcDbArc
 50
188.0343722042
 51
190.493094746
  0
ARC
  5
3BA
100
AcDbEntity
  8
DRAFT
100
AcDbCircle
 62
7
  6
CONTINUOUS
 10
47.4596685202
 20
28.8248619297
 40
21.2189964845
100
AcDbArc
 50
6.1821935384
 51
9.0873208793
  0
ARC
  5
3BB
100
AcDbEntity
  8
DRAFT
100
AcDbCircle
 62
7
  6
CONTINUOUS
 10
46.6814732773
 20
30.8077511199
 40
20.4494795121
100
AcDbArc
 50
43.3226483097
 51
44.9421397175
  0
ARC
  5
3BC
100
AcDbEntity
  8
DRAFT
100
AcDbCircle
 62
7
  6
CONTINUOUS
 10
67.052207491
 20
38.335380649
 40
20.4438601937
100
AcDbArc
 50
224.2817785087
 51
228.5893678468
  0
ARC
  5
3BD
100
AcDbEntity
  8
DRAFT
100
AcDbCircle
 62
7
  6
CONTINUOUS
 10
66.1592174579
 20
40.6543628628
 40
20.1315624312
100
AcDbArc
 50
186.6359113397
 51
189.2885366113
  0
ARC
  5
3BE
100
AcDbEntity
  8
DRAFT
100
AcDbCircle
 62
7
  6
CONTINUOUS
 10
48.8398705902
 20
29.2913605141
 40
19.1251655145
100
AcDbArc
 50
4.4053282358
 51
7.7221970815
  0
ARC
  5
3BF
100
AcDbEntity
  8
RACCORDO
100
AcDbCircle
 62
253
  6
CONTINUOUS
 10
28.6615189291
 20
25.5461181445
 40
18.8464300193
100
AcDbArc
 50
59.8717527654
 51
62.2436581704
  0
ARC
  5
3C0
100
AcDbEntity
  8
DRAFT
100
AcDbCircle
 62
7
  6
CONTINUOUS
 10
66.1723668289
 20
37.8337739867
 40
18.8051991801
100
AcDbArc
 50
225.6931049321
 51
230.3645347988
  0
ARC
  5
3C1
100
AcDbEntity
  8
RACCORDO
100
AcDbCircle
 62
253
  6
CONTINUOUS
 10
29.0271042488
 20
26.2348066552
 40
18.0667272697
100
AcDbArc
 50
62.2525024604
 51
63.432298283
  0
ARC
  5
3C2
100
AcDbEntity
  8
DRAFT
100
AcDbCircle
 62
7
  6
CONTINUOUS
 10
49.4390330205
 20
32.6114180016
 40
15.5699364822
100
AcDbArc
 50
47.3875586296
 51
49.7237333621
  0
ARC
  5
3C3
100
AcDbEntity
  8
DRAFT
100
AcDbCircle
 62
7
  6
CONTINUOUS
 10
62.8837457198
 20
39.542092224
 40
15.0764806104
100
AcDbArc
 50
181.7954016323
 51
185.2090910276
  0
ARC
  5
3C4
100
AcDbEntity
  8
DRAFT
100
AcDbCircle
 62
7
  6
CONTINUOUS
 10
51.5208358888
 20
30.2957998757
 40
14.6720411297
100
AcDbArc
 50
1.7746707599
 51
2.9089401367
  0
ARC
  5
3C5
100
AcDbEntity
  8
DRAFT
100
AcDbCircle
 62
7
  6
CONTINUOUS
 10
64.5957567915
 20
36.6115365726
 40
14.4704718788
100
AcDbArc
 50
230.027227079
 51
233.1404509756
  0
ARC
  5
3C6
100
AcDbEntity
  8
DRAFT
100
AcDbCircle
 62
7
  6
CONTINUOUS
 10
63.9945283168
 20
35.8111934493
 40
13.469460486
100
AcDbArc
 50
233.1445248221
 51
236.1223943365
  0
ARC
  5
3C7
100
AcDbEntity
  8
DRAFT
100
AcDbCircle
 62
7
  6
CONTINUOUS
 10
50.6418228902
 20
33.5235707057
 40
13.4096669291
100
AcDbArc
 50
49.6885391684
 51
52.5275247895
  0
ARC
  5
3C8
100
AcDbEntity
  8
DRAFT
100
AcDbCircle
 62
7
  6
CONTINUOUS
 10
53.0524142982
 20
30.3034531194
 40
13.1401169299
100
AcDbArc
 50
357.9370012266
 51
358.1713786051
  0
ARC
  5
3C9
100
AcDbEntity
  8
DRAFT
100
AcDbCircle
 62
7
  6
CONTINUOUS
 10
51.4027023736
 20
33.9419201391
 40
13.1134586977
100
AcDbArc
 50
50.0531231448
 51
52.9096328586
  0
ARC
  5
3CA
100
AcDbEntity
  8
DRAFT
100
AcDbCircle
 62
7
  6
CONTINUOUS
 10
54.1624006497
 20
30.6141176222
 40
11.3218171877
100
AcDbArc
 50
353.9198799236
 51
356.9286781439
  0
ARC
  5
3CB
100
AcDbEntity
  8
DRAFT
100
AcDbCircle
 62
7
  6
CONTINUOUS
 10
55.2861648007
 20
30.9212979427
 40
10.6909193202
100
AcDbArc
 50
353.3271125961
 51
354.6718057127
  0
ARC
  5
3CC
100
AcDbEntity
  8
0
100
AcDbCircle
 62
7
  6
CONTINUOUS
 10
29.7634780593
 20
28.5993115032
 40
8.9253069101
100
AcDbArc
 50
264.2225437041
 51
267.0884479228
  0
ARC
  5
3CD
100
AcDbEntity
  8
0
100
AcDbCircle
 62
7
  6
CONTINUOUS
 10
36.7995543322
 20
21.9890057193
 40
8.0518541452
100
AcDbArc
 50
189.3175606024
 51
189.7925119453
  0
ARC
  5
3CE
100
AcDbEntity
  8
0
100
AcDbCircle
 62
7
  6
CONTINUOUS
 10
33.7811878089
 20
26.8290832649
 40
7.92005644
100
AcDbArc
 50
231.6308965808
 51
235.6307820283
  0
ARC
  5
3CF
100
AcDbEntity
  8
0
100
AcDbCircle
 62
7
  6
CONTINUOUS
 10
35.3759259171
 20
21.9884342779
 40
7.4912776891
100
AcDbArc
 50
194.7048226947
 51
195.2031810519
  0
ARC
  5
3D0
100
AcDbEntity
  8
0
100
AcDbCircle
 62
7
  6
CONTINUOUS
 10
32.5932558883
 20
24.8171445104
 40
6.5035411377
100
AcDbArc
 50
222.1073157185
 51
226.6638372672
  0
ARC
  5
3D1
100
AcDbEntity
  8
0
100
AcDbCircle
 62
7
  6
CONTINUOUS
 10
32.4355507796
 20
21.1317900879
 40
5.135726678
100
AcDbArc
 50
176.6149940728
 51
183.3820652921
  0
ARC
  5
3D2
100
AcDbEntity
  8
0
100
AcDbCircle
 62
7
  6
CONTINUOUS
 10
28.8318584359
 20
22.1507301813
 40
1.5868566671
100
AcDbArc
 50
149.4137144816
 51
155.1159096638
  0
ARC
  5
3D3
100
AcDbEntity
  8
RACCORDO
100
AcDbCircle
 62
253
  6
CONTINUOUS
 10
81.6025680322
 20
41.4775581683
 40
1.5767025866
100
AcDbArc
 50
49.505270748
 51
51.4710094718
  0
ARC
  5
3D4
100
AcDbEntity
  8
ASSI
100
AcDbCircle
 62
7
  6
CONTINUOUS
 10
68.8699666506
 20
47.6698330809
 40
0.9188020328
100
AcDbArc
 50
115.9159471246
 51
123.7170300649
  0
ARC
  5
3D5
100
AcDbEntity
  8
RACCORDO
100
AcDbCircle
 62
7
  6
CONTINUOUS
 10
80.365532584
 20
46.2631353907
 40
0.6364264711
100
AcDbArc
 50
77.8970566019
 51
87.8780513358
  0
ARC
  5
3D6
100
AcDbEntity
  8
RACCORDO
100
AcDbCircle
 62
7
  6
CONTINUOUS
 10
80.3672252085
 20
46.2729984356
 40
0.6264983577
100
AcDbArc
 50
97.5952597335
 51
106.7680057556
  0
ARC
  5
3D7
100
AcDbEntity
  8
RACCORDO
100
AcDbCircle
 62
7
  6
CONTINUOUS
 10
80.3671280534
 20
46.2762740288
 40
0.6232387524
100
AcDbArc
 50
87.9799029473
 51
97.6262084585
  0
ARC
  5
3D8
100
AcDbEntity
  8
RACCORDO
100
AcDbCircle
 62
7
  6
CONTINUOUS
 10
80.5228016467
 20
45.9714501287
 40
0.6007538573
100
AcDbArc
 50
297.2447174303
 51
306.0835191596
  0
ARC
  5
3D9
100
AcDbEntity
  8
RACCORDO
100
AcDbCircle
 62
7
  6
CONTINUOUS
 10
80.3593621113
 20
46.298228499
 40
0.6000726284
100
AcDbArc
 50
106.7441390309
 51
115.8803130243
  0
SPLINE
  5
3DA
100
AcDbEntity
  8
0
100
AcDbSpline
 62
7
  6
CONTINUOUS
 70
0
 71
3
 72
9
 73
5
 74
3
 42
0.0000001
 43
0.0000001
 44
0.0000000001
 12
-0.3146349819
 22
0.1676527526
 32
0.0
 13
-0.2882787499
 23
0.2094216566
 33
0.0
 40
0.0
 40
0.0
 40
0.0
 40
0.0
 40
0.2130096085
 40
1.0
 40
1.0
 40
1.0
 40
1.0
 10
-69.1642505825
 20
-30.3794276075
 30
0.0
 10
-69.186590674
 20
-30.3675237251
 30
0.0
 10
-69.2905515144
 20
-30.3099094486
 30
0.0
 10
-69.3901705933
 20
-30.2447443368
 30
0.0
 10
-69.4657947954
 20
-30.1898067263
 30
0.0
 11
-69.1642505825
 21
-30.3794276075
 31
0.0
 11
-69.2306829907
 21
-30.3426363313
 31
0.0
 11
-69.4657947954
 21
-30.1898067263
 31
0.0
  0
SPLINE
  5
3DB
100
AcDbEntity
  8
0
100
AcDbSpline
 62
7
  6
CONTINUOUS
 70
0
 71
3
 72
15
 73
11
 74
9
 42
0.0000001
 43
0.0000001
 44
0.0000000001
 12
-2.939478045
 22
2.135399719
 32
0.0
 13
0.0
 23
3.6332441615
 33
0.0
 40
0.0
 40
0.0
 40
0.0
 40
0.0
 40
0.1166507875
 40
0.2400441641
 40
0.3682594671
 40
0.499036013
 40
0.6299439153
 40
0.7585448031
 40
0.8825520476
 40
1.0
 40
1.0
 40
1.0
 40
1.0
 10
-69.7486375079
 20
-30.3312280825
 30
0.0
 10
-69.8629349841
 20
-30.2481960629
 30
0.0
 10
-70.0857071844
 20
-30.0597928487
 30
0.0
 10
-70.3882566045
 20
-29.7307936521
 30
0.0
 10
-70.6615139081
 20
-29.3557165524
 30
0.0
 10
-70.8973978361
 20
-28.945636224
 30
0.0
 10
-71.0890157265
 20
-28.5125894648
 30
0.0
 10
-71.2307251387
 20
-28.0692661934
 30
0.0
 10
-71.3183503157
 20
-27.6287705184
 30
0.0
 10
-71.3396277655
 20
-27.3360977334
 30
0.0
 10
-71.3396277655
 20
-27.1938587043
 30
0.0
 11
-69.7486375079
 21
-30.3312280825
 31
0.0
 11
-70.0734136581
 21
-30.0589331752
 31
0.0
 11
-70.3778228698
 21
-29.7298066058
 31
0.0
 11
-70.6527252141
 21
-29.3537304454
 31
0.0
 11
-70.8898667102
 21
-28.9419964329
 31
0.0
 11
-71.0821271515
 21
-28.5069669389
 31
0.0
 11
-71.2237338919
 21
-28.0617037845
 31
0.0
 11
-71.3104351692
 21
-27.6195760575
 31
0.0
 11
-71.3396277655
 21
-27.1938587043
 31
0.0
  0
SPLINE
  5
3DC
100
AcDbEntity
  8
0
100
AcDbSpline
 62
7
  6
CONTINUOUS
 70
0
 71
3
 72
12
 73
8
 74
6
 42
0.0000001
 43
0.0000001
 44
0.0000000001
 12
0.0
 22
1.6046926561
 32
0.0
 13
1.3383831578
 23
0.8945373358
 33
0.0
 40
0.0
 40
0.0
 40
0.0
 40
0.0
 40
0.2477719948
 40
0.4757585984
 40
0.684553576
 40
0.8775367541
 40
1.0
 40
1.0
 40
1.0
 40
1.0
 10
-71.3396277655
 20
-27.1938587043
 30
0.0
 10
-71.3396277655
 20
-27.0613260708
 30
0.0
 10
-71.3223853697
 20
-26.8062965033
 30
0.0
 10
-71.2379834522
 20
-26.4480609082
 30
0.0
 10
-71.0974495146
 20
-26.1390820789
 30
0.0
 10
-70.9234817375
 20
-25.9153416483
 30
0.0
 10
-70.7915136751
 20
-25.8080657096
 30
0.0
 10
-70.7368794265
 20
-25.7715497277
 30
0.0
 11
-71.3396277655
 21
-27.1938587043
 31
0.0
 11
-71.3104351692
 21
-26.7973339475
 31
0.0
 11
-71.2237338919
 21
-26.4419074978
 31
0.0
 11
-71.0821271515
 21
-26.1382510837
 31
0.0
 11
-70.8898667102
 21
-25.8954820311
 31
0.0
 11
-70.7368794265
 21
-25.7715497277
 31
0.0
  0
SPLINE
  5
3DD
100
AcDbEntity
  8
0
100
AcDbSpline
 62
7
  6
CONTINUOUS
 70
0
 71
3
 72
11
 73
7
 74
5
 42
0.0000001
 43
0.0000001
 44
0.0000000001
 12
0.3585770888
 22
-0.0893745271
 32
0.0
 13
0.3641339119
 23
-0.0630224474
 33
0.0
 40
0.0
 40
0.0
 40
0.0
 40
0.0
 40
0.2843614962
 40
0.5413138567
 40
0.7772617616
 40
1.0
 40
1.0
 40
1.0
 40
1.0
 10
-70.5194886619
 20
-27.6543396769
 30
0.0
 10
-70.4855001561
 20
-27.662811235
 30
0.0
 10
-70.4206024031
 20
-27.6781576362
 30
0.0
 10
-70.3269812228
 20
-27.6982375267
 30
0.0
 10
-70.2404713867
 20
-27.7152044735
 30
0.0
 10
-70.184863485
 20
-27.7252295447
 30
0.0
 10
-70.1578279696
 20
-27.7299087144
 30
0.0
 11
-70.5194886619
 21
-27.6543396769
 31
0.0
 11
-70.4172325865
 21
-27.6785588318
 31
0.0
 11
-70.3243929909
 21
-27.6984954701
 31
0.0
 11
-70.2388322789
 21
-27.7152927863
 31
0.0
 11
-70.1578279696
 21
-27.7299087144
 31
0.0
  0
SPLINE
  5
3DE
100
AcDbEntity
  8
0
100
AcDbSpline
 62
7
  6
CONTINUOUS
 70
0
 71
3
 72
12
 73
8
 74
6
 42
0.0000001
 43
0.0000001
 44
0.0000000001
 12
-0.4846905088
 22
0.3399843163
 32
0.0
 13
-0.4301881365
 23
0.4067583948
 33
0.0
 40
0.0
 40
0.0
 40
0.0
 40
0.0
 40
0.2112889118
 40
0.4160796887
 40
0.6146197839
 40
0.8089140402
 40
1.0
 40
1.0
 40
1.0
 40
1.0
 10
-70.5194886619
 20
-27.6543396769
 30
0.0
 10
-70.5536252386
 20
-27.6303947048
 30
0.0
 10
-70.6202251402
 20
-27.5823440006
 30
0.0
 10
-70.7165946269
 20
-27.5086638674
 30
0.0
 10
-70.8082207018
 20
-27.4343777038
 30
0.0
 10
-70.8955709382
 20
-27.3591924183
 30
0.0
 10
-70.9516781247
 20
-27.3078269391
 30
0.0
 10
-70.9790790957
 20
-27.2819183331
 30
0.0
 11
-70.5194886619
 21
-27.6543396769
 31
0.0
 11
-70.6209144169
 21
-27.5811220271
 31
0.0
 11
-70.717213021
 21
-27.50745462
 31
0.0
 11
-70.80849796
 21
-27.4334026856
 31
0.0
 11
-70.8956587035
 21
-27.3583360005
 31
0.0
 11
-70.9790790957
 21
-27.2819183331
 31
0.0
  0
SPLINE
  5
3DF
100
AcDbEntity
  8
0
100
AcDbSpline
 62
7
  6
CONTINUOUS
 70
0
 71
3
 72
18
 73
14
 74
12
 42
0.0000001
 43
0.0000001
 44
0.0000000001
 12
0.1278471796
 22
-1.688061552
 32
0.0
 13
0.6956974518
 23
-1.543341103
 33
0.0
 40
0.0
 40
0.0
 40
0.0
 40
0.0
 40
0.0994487293
 40
0.1982410428
 40
0.2951515135
 40
0.389225246
 40
0.480723723
 40
0.5709101839
 40
0.6599274556
 40
0.7471425123
 40
0.8326363975
 40
0.9167966359
 40
1.0
 40
1.0
 40
1.0
 40
1.0
 10
-69.433907362
 20
-29.0466017534
 30
0.0
 10
-69.4296692821
 20
-29.1025602789
 30
0.0
 10
-69.4197123989
 20
-29.2140002267
 30
0.0
 10
-69.4002302968
 20
-29.3794324093
 30
0.0
 10
-69.3764021269
 20
-29.5412315105
 30
0.0
 10
-69.3485181271
 20
-29.6982022468
 30
0.0
 10
-69.3167038928
 20
-29.8505499312
 30
0.0
 10
-69.2808838918
 20
-29.9990733073
 30
0.0
 10
-69.2410032521
 20
-30.1440542064
 30
0.0
 10
-69.1971853375
 20
-30.2851243869
 30
0.0
 10
-69.1495552967
 20
-30.4220564209
 30
0.0
 10
-69.0980428676
 20
-30.5551502656
 30
0.0
 10
-69.0608255161
 20
-30.6419777492
 30
0.0
 10
-69.0415307267
 20
-30.6847814731
 30
0.0
 11
-69.433907362
 21
-29.0466017534
 31
0.0
 11
-69.4188921323
 21
-29.2142871848
 31
0.0
 11
-69.3992970547
 21
-29.3803804085
 31
0.0
 11
-69.3753584108
 21
-29.5426838575
 31
0.0
 11
-69.3474694437
 21
-29.6994799371
 31
0.0
 11
-69.3157713525
 21
-29.8510993157
 31
0.0
 11
-69.2799408468
 21
-29.9995116662
 31
0.0
 11
-69.2399363865
 21
-30.1448017987
 31
0.0
 11
-69.1961041417
 21
-30.2857914455
 31
0.0
 11
-69.1485197627
 21
-30.4224777715
 31
0.0
 11
-69.0970585225
 21
-30.5553338274
 31
0.0
 11
-69.0415307267
 21
-30.6847814731
 31
0.0
  0
SPLINE
  5
3E0
100
AcDbEntity
  8
0
100
AcDbSpline
 62
7
  6
CONTINUOUS
 70
0
 71
3
 72
12
 73
8
 74
6
 42
0.0000001
 43
0.0000001
 44
0.0000000001
 12
-0.7538005872
 22
0.1993050875
 32
0.0
 13
-0.7344507813
 23
0.2617630475
 33
0.0
 40
0.0
 40
0.0
 40
0.0
 40
0.0
 40
0.2031922224
 40
0.4037019467
 40
0.6024734814
 40
0.8012652599
 40
1.0
 40
1.0
 40
1.0
 40
1.0
 10
-68.2328775092
 20
-28.6550191263
 30
0.0
 10
-68.2839329813
 20
-28.6415200451
 30
0.0
 10
-68.3851611449
 20
-28.6139026366
 30
0.0
 10
-68.5355473881
 20
-28.5702627002
 30
0.0
 10
-68.6841044554
 20
-28.524495358
 30
0.0
 10
-68.8314278195
 20
-28.4763661047
 30
0.0
 10
-68.9290665684
 20
-28.4425643798
 30
0.0
 10
-68.9777201968
 20
-28.4252239094
 30
0.0
 11
-68.2328775092
 21
-28.6550191263
 31
0.0
 11
-68.3857176984
 21
-28.6133075635
 31
0.0
 11
-68.5358582353
 21
-28.5697249624
 31
0.0
 11
-68.6839672951
 21
-28.5240806266
 31
0.0
 11
-68.8312980043
 21
-28.4759323775
 31
0.0
 11
-68.9777201968
 21
-28.4252239094
 31
0.0
  0
SPLINE
  5
3E1
100
AcDbEntity
  8
0
100
AcDbSpline
 62
7
  6
CONTINUOUS
 70
0
 71
3
 72
15
 73
11
 74
9
 42
0.0000001
 43
0.0000001
 44
0.0000000001
 12
-0.303220478
 22
-1.3127623572
 32
0.0
 13
-0.0946213128
 23
-1.343976994
 33
0.0
 40
0.0
 40
0.0
 40
0.0
 40
0.0
 40
0.0292799595
 40
0.1699813234
 40
0.3092964326
 40
0.4473822672
 40
0.5860115923
 40
0.7253718294
 40
0.8639466301
 40
1.0
 40
1.0
 40
1.0
 40
1.0
 10
-69.2311454452
 20
-26.7009920481
 30
0.0
 10
-69.234104873
 20
-26.7138045909
 30
0.0
 10
-69.2511298259
 20
-26.7882222445
 30
0.0
 10
-69.2804554875
 20
-26.9240066532
 30
0.0
 10
-69.3163174246
 20
-27.1083341408
 30
0.0
 10
-69.3481700486
 20
-27.2924526522
 30
0.0
 10
-69.3760906807
 20
-27.4772296219
 30
0.0
 10
-69.3999624604
 20
-27.662795927
 30
0.0
 10
-69.4194973226
 20
-27.8477051451
 30
0.0
 10
-69.4296161791
 20
-27.970638463
 30
0.0
 10
-69.433907362
 20
-28.0315893293
 30
0.0
 11
-69.2311454452
 21
-26.7009920481
 31
0.0
 11
-69.2399431534
 21
-26.7394481757
 31
0.0
 11
-69.279947736
 21
-26.9247464763
 31
0.0
 11
-69.3157784828
 21
-27.1089945701
 31
0.0
 11
-69.3474766777
 21
-27.2923178662
 31
0.0
 11
-69.375364246
 21
-27.4769999871
 31
0.0
 11
-69.3993003598
 21
-27.6632285921
 31
0.0
 11
-69.4188931997
 21
-27.8489000407
 31
0.0
 11
-69.433907362
 21
-28.0315893293
 31
0.0
  0
SPLINE
  5
3E2
100
AcDbEntity
  8
0
100
AcDbSpline
 62
7
  6
CONTINUOUS
 70
0
 71
3
 72
10
 73
6
 74
4
 42
0.0000001
 43
0.0000001
 44
0.0000000001
 12
-0.7285342263
 22
-0.2595778186
 32
0.0
 13
-0.743418329
 23
0.2033580644
 33
0.0
 40
0.0
 40
0.0
 40
0.0
 40
0.0
 40
0.1768844456
 40
0.5731463157
 40
1.0
 40
1.0
 40
1.0
 40
1.0
 10
-68.2809158965
 20
-30.6750198375
 30
0.0
 10
-68.3238713541
 20
-30.6903249304
 30
0.0
 10
-68.466271222
 20
-30.7309175525
 30
0.0
 10
-68.7253323081
 20
-30.7498098508
 30
0.0
 10
-68.9357537758
 20
-30.7137161861
 30
0.0
 10
-69.0415307267
 20
-30.6847814731
 30
0.0
 11
-68.2809158965
 21
-30.6750198375
 31
0.0
 11
-68.4123453648
 21
-30.7125453583
 31
0.0
 11
-68.7167545765
 21
-30.737262716
 31
0.0
 11
-69.0415307267
 21
-30.6847814731
 31
0.0
  0
SPLINE
  5
3E3
100
AcDbEntity
  8
0
100
AcDbSpline
 62
7
  6
CONTINUOUS
 70
0
 71
3
 72
12
 73
8
 74
6
 42
0.0000001
 43
0.0000001
 44
0.0000000001
 12
-0.4846905088
 22
0.3399843163
 32
0.0
 13
-0.4301881365
 23
0.4067583948
 33
0.0
 40
0.0
 40
0.0
 40
0.0
 40
0.0
 40
0.2112889118
 40
0.4160796887
 40
0.6146197839
 40
0.8089140402
 40
1.0
 40
1.0
 40
1.0
 40
1.0
 10
-70.5194886619
 20
-28.2605574595
 30
0.0
 10
-70.5536252386
 20
-28.2366124875
 30
0.0
 10
-70.6202251402
 20
-28.1885617832
 30
0.0
 10
-70.7165946269
 20
-28.1148816501
 30
0.0
 10
-70.8082207018
 20
-28.0405954865
 30
0.0
 10
-70.8955709382
 20
-27.965410201
 30
0.0
 10
-70.9516781247
 20
-27.9140447218
 30
0.0
 10
-70.9790790957
 20
-27.8881361157
 30
0.0
 11
-70.5194886619
 21
-28.2605574595
 31
0.0
 11
-70.6209144169
 21
-28.1873398097
 31
0.0
 11
-70.717213021
 21
-28.1136724027
 31
0.0
 11
-70.80849796
 21
-28.0396204682
 31
0.0
 11
-70.8956587035
 21
-27.9645537831
 31
0.0
 11
-70.9790790957
 21
-27.8881361157
 31
0.0
  0
SPLINE
  5
3E4
100
AcDbEntity
  8
0
100
AcDbSpline
 62
7
  6
CONTINUOUS
 70
0
 71
3
 72
18
 73
14
 74
12
 42
0.0000001
 43
0.0000001
 44
0.0000000001
 12
-0.6956974515
 22
1.5433411025
 32
0.0
 13
-0.1278471795
 23
1.6880615514
 33
0.0
 40
0.0
 40
0.0
 40
0.0
 40
0.0
 40
0.0832064168
 40
0.1673706447
 40
0.2528685759
 40
0.3400867613
 40
0.4291060942
 40
0.5192954576
 40
0.610797256
 40
0.7048699557
 40
0.8017738049
 40
0.9005573899
 40
1.0
 40
1.0
 40
1.0
 40
1.0
 10
-69.7486375079
 20
-30.3312280825
 30
0.0
 10
-69.7679330052
 20
-30.2884227882
 30
0.0
 10
-69.8051518643
 20
-30.2015916242
 30
0.0
 10
-69.8566662708
 20
-30.0684918315
 30
0.0
 10
-69.9042978861
 20
-29.9315536713
 30
0.0
 10
-69.9481166672
 20
-29.7904782998
 30
0.0
 10
-69.987997715
 20
-29.6454927753
 30
0.0
 10
-70.023817898
 20
-29.4969646319
 30
0.0
 10
-70.0556316777
 20
-29.3446138582
 30
0.0
 10
-70.083514157
 20
-29.1876453366
 30
0.0
 10
-70.1073400929
 20
-29.0258552562
 30
0.0
 10
-70.1268202795
 20
-28.8604350527
 30
0.0
 10
-70.1367763241
 20
-28.7490034451
 30
0.0
 10
-70.1410141432
 20
-28.6930483629
 30
0.0
 11
-69.7486375079
 21
-30.3312280825
 31
0.0
 11
-69.8041672555
 21
-30.2017756507
 31
0.0
 11
-69.8556306565
 21
-30.0689131891
 31
0.0
 11
-69.903216795
 21
-29.9322202232
 31
0.0
 11
-69.9470499346
 21
-29.791225308
 31
0.0
 11
-69.9870545172
 21
-29.6459315899
 31
0.0
 11
-70.022885264
 21
-29.4975142429
 31
0.0
 11
-70.0545834589
 21
-29.3458891417
 31
0.0
 11
-70.0824710272
 21
-29.1890945891
 31
0.0
 11
-70.106407141
 21
-29.0268020979
 31
0.0
 11
-70.1259999809
 21
-28.8607234892
 31
0.0
 11
-70.1410141432
 21
-28.6930483629
 31
0.0
  0
SPLINE
  5
3E5
100
AcDbEntity
  8
0
100
AcDbSpline
 62
7
  6
CONTINUOUS
 70
0
 71
3
 72
16
 73
12
 74
10
 42
0.0000001
 43
0.0000001
 44
0.0000000001
 12
0.110616467
 22
1.5711680843
 32
0.0
 13
0.3910084721
 23
1.5257781274
 33
0.0
 40
0.0
 40
0.0
 40
0.0
 40
0.0
 40
0.1163872881
 40
0.234934946
 40
0.3541523748
 40
0.4727378525
 40
0.5908528029
 40
0.7100196374
 40
0.8303732501
 40
0.9509710342
 40
1.0
 40
1.0
 40
1.0
 40
1.0
 10
-70.1410141432
 20
-27.6780359387
 30
0.0
 10
-70.1367226929
 20
-27.6170812746
 30
0.0
 10
-70.1266029685
 20
-27.4941385215
 30
0.0
 10
-70.1070661747
 20
-27.3092153865
 30
0.0
 10
-70.0831921739
 20
-27.1236380055
 30
0.0
 10
-70.0552700553
 20
-26.9388575369
 30
0.0
 10
-70.0234169973
 20
-26.7547417554
 30
0.0
 10
-69.9875552414
 20
-26.5704191905
 30
0.0
 10
-69.947638429
 20
-26.3855985001
 30
0.0
 10
-69.9124940417
 20
-26.2374547655
 30
0.0
 10
-69.890730608
 20
-26.1510953958
 30
0.0
 10
-69.884340361
 20
-26.1261596212
 30
0.0
 11
-70.1410141432
 21
-27.6780359387
 31
0.0
 11
-70.1259989135
 21
-27.4953352777
 31
0.0
 11
-70.1064038359
 21
-27.3096469764
 31
0.0
 11
-70.082465192
 21
-27.1234048835
 31
0.0
 11
-70.0545762248
 21
-26.9387198367
 31
0.0
 11
-70.0228781337
 21
-26.755402367
 31
0.0
 11
-69.9870476279
 21
-26.5711595108
 31
0.0
 11
-69.9470431677
 21
-26.385864918
 31
0.0
 11
-69.9032109229
 21
-26.2010430264
 31
0.0
 11
-69.884340361
 21
-26.1261596212
 31
0.0
  0
SPLINE
  5
3E6
100
AcDbEntity
  8
0
100
AcDbSpline
 62
7
  6
CONTINUOUS
 70
0
 71
3
 72
12
 73
8
 74
6
 42
0.0000001
 43
0.0000001
 44
0.0000000001
 12
-0.7538005872
 22
0.1993050875
 32
0.0
 13
-0.7344507813
 23
0.2617630475
 33
0.0
 40
0.0
 40
0.0
 40
0.0
 40
0.0
 40
0.2031922224
 40
0.4037019467
 40
0.6024734814
 40
0.8012652599
 40
1.0
 40
1.0
 40
1.0
 40
1.0
 10
-68.2328775092
 20
-29.261236909
 30
0.0
 10
-68.2839329813
 20
-29.2477378277
 30
0.0
 10
-68.3851611449
 20
-29.2201204193
 30
0.0
 10
-68.5355473881
 20
-29.1764804828
 30
0.0
 10
-68.6841044554
 20
-29.1307131407
 30
0.0
 10
-68.8314278195
 20
-29.0825838874
 30
0.0
 10
-68.9290665684
 20
-29.0487821625
 30
0.0
 10
-68.9777201968
 20
-29.0314416921
 30
0.0
 11
-68.2328775092
 21
-29.261236909
 31
0.0
 11
-68.3857176984
 21
-29.2195253462
 31
0.0
 11
-68.5358582353
 21
-29.175942745
 31
0.0
 11
-68.6839672951
 21
-29.1302984093
 31
0.0
 11
-68.8312980043
 21
-29.0821501602
 31
0.0
 11
-68.9777201968
 21
-29.0314416921
 31
0.0
  0
SPLINE
  5
3E7
100
AcDbEntity
  8
0
100
AcDbSpline
 62
7
  6
CONTINUOUS
 70
0
 71
3
 72
9
 73
5
 74
3
 42
0.0000001
 43
0.0000001
 44
0.0000000001
 12
-0.3146349819
 22
0.1676527526
 32
0.0
 13
-0.2882787499
 23
0.2094216566
 33
0.0
 40
0.0
 40
0.0
 40
0.0
 40
0.0
 40
0.2130096085
 40
1.0
 40
1.0
 40
1.0
 40
1.0
 10
-69.1642505825
 20
67.4814430202
 30
0.0
 10
-69.186590674
 20
67.4933469026
 30
0.0
 10
-69.2905515144
 20
67.5509611791
 30
0.0
 10
-69.3901705933
 20
67.6161262908
 30
0.0
 10
-69.4657947954
 20
67.6710639013
 30
0.0
 11
-69.1642505825
 21
67.4814430202
 31
0.0
 11
-69.2306829907
 21
67.5182342963
 31
0.0
 11
-69.4657947954
 21
67.6710639013
 31
0.0
  0
SPLINE
  5
3E8
100
AcDbEntity
  8
0
100
AcDbSpline
 62
7
  6
CONTINUOUS
 70
0
 71
3
 72
15
 73
11
 74
9
 42
0.0000001
 43
0.0000001
 44
0.0000000001
 12
-2.939478045
 22
2.135399719
 32
0.0
 13
0.0
 23
3.6332441615
 33
0.0
 40
0.0
 40
0.0
 40
0.0
 40
0.0
 40
0.1166507875
 40
0.2400441641
 40
0.3682594671
 40
0.499036013
 40
0.6299439153
 40
0.7585448031
 40
0.8825520476
 40
1.0
 40
1.0
 40
1.0
 40
1.0
 10
-69.7486375079
 20
67.5296425451
 30
0.0
 10
-69.8629349841
 20
67.6126745647
 30
0.0
 10
-70.0857071844
 20
67.8010777789
 30
0.0
 10
-70.3882566045
 20
68.1300769755
 30
0.0
 10
-70.6615139081
 20
68.5051540753
 30
0.0
 10
-70.8973978361
 20
68.9152344036
 30
0.0
 10
-71.0890157265
 20
69.3482811629
 30
0.0
 10
-71.2307251387
 20
69.7916044342
 30
0.0
 10
-71.3183503157
 20
70.2321001093
 30
0.0
 10
-71.3396277655
 20
70.5247728943
 30
0.0
 10
-71.3396277655
 20
70.6670119233
 30
0.0
 11
-69.7486375079
 21
67.5296425451
 31
0.0
 11
-70.0734136581
 21
67.8019374525
 31
0.0
 11
-70.3778228698
 21
68.1310640218
 31
0.0
 11
-70.6527252141
 21
68.5071401822
 31
0.0
 11
-70.8898667102
 21
68.9188741948
 31
0.0
 11
-71.0821271515
 21
69.3539036887
 31
0.0
 11
-71.2237338919
 21
69.7991668432
 31
0.0
 11
-71.3104351692
 21
70.2412945701
 31
0.0
 11
-71.3396277655
 21
70.6670119233
 31
0.0
  0
SPLINE
  5
3E9
100
AcDbEntity
  8
0
100
AcDbSpline
 62
7
  6
CONTINUOUS
 70
0
 71
3
 72
12
 73
8
 74
6
 42
0.0000001
 43
0.0000001
 44
0.0000000001
 12
0.0
 22
1.6046926561
 32
0.0
 13
1.3383831578
 23
0.8945373358
 33
0.0
 40
0.0
 40
0.0
 40
0.0
 40
0.0
 40
0.2477719948
 40
0.4757585984
 40
0.684553576
 40
0.8775367541
 40
1.0
 40
1.0
 40
1.0
 40
1.0
 10
-71.3396277655
 20
70.6670119233
 30
0.0
 10
-71.3396277655
 20
70.7995445568
 30
0.0
 10
-71.3223853697
 20
71.0545741243
 30
0.0
 10
-71.2379834522
 20
71.4128097195
 30
0.0
 10
-71.0974495146
 20
71.7217885487
 30
0.0
 10
-70.9234817375
 20
71.9455289793
 30
0.0
 10
-70.7915136751
 20
72.0528049181
 30
0.0
 10
-70.7368794265
 20
72.0893209
 30
0.0
 11
-71.3396277655
 21
70.6670119233
 31
0.0
 11
-71.3104351692
 21
71.0635366802
 31
0.0
 11
-71.2237338919
 21
71.4189631299
 31
0.0
 11
-71.0821271515
 21
71.722619544
 31
0.0
 11
-70.8898667102
 21
71.9653885965
 31
0.0
 11
-70.7368794265
 21
72.0893209
 31
0.0
  0
SPLINE
  5
3EA
100
AcDbEntity
  8
0
100
AcDbSpline
 62
7
  6
CONTINUOUS
 70
0
 71
3
 72
11
 73
7
 74
5
 42
0.0000001
 43
0.0000001
 44
0.0000000001
 12
0.3585770888
 22
-0.0893745271
 32
0.0
 13
0.3641339119
 23
-0.0630224474
 33
0.0
 40
0.0
 40
0.0
 40
0.0
 40
0.0
 40
0.2843614962
 40
0.5413138567
 40
0.7772617616
 40
1.0
 40
1.0
 40
1.0
 40
1.0
 10
-70.5194886619
 20
70.2065309508
 30
0.0
 10
-70.4855001561
 20
70.1980593927
 30
0.0
 10
-70.4206024031
 20
70.1827129914
 30
0.0
 10
-70.3269812228
 20
70.1626331009
 30
0.0
 10
-70.2404713867
 20
70.1456661542
 30
0.0
 10
-70.184863485
 20
70.1356410829
 30
0.0
 10
-70.1578279696
 20
70.1309619133
 30
0.0
 11
-70.5194886619
 21
70.2065309508
 31
0.0
 11
-70.4172325865
 21
70.1823117959
 31
0.0
 11
-70.3243929909
 21
70.1623751575
 31
0.0
 11
-70.2388322789
 21
70.1455778413
 31
0.0
 11
-70.1578279696
 21
70.1309619133
 31
0.0
  0
SPLINE
  5
3EB
100
AcDbEntity
  8
0
100
AcDbSpline
 62
7
  6
CONTINUOUS
 70
0
 71
3
 72
12
 73
8
 74
6
 42
0.0000001
 43
0.0000001
 44
0.0000000001
 12
-0.4846905088
 22
0.3399843163
 32
0.0
 13
-0.4301881365
 23
0.4067583948
 33
0.0
 40
0.0
 40
0.0
 40
0.0
 40
0.0
 40
0.2112889118
 40
0.4160796887
 40
0.6146197839
 40
0.8089140402
 40
1.0
 40
1.0
 40
1.0
 40
1.0
 10
-70.5194886619
 20
70.2065309508
 30
0.0
 10
-70.5536252386
 20
70.2304759228
 30
0.0
 10
-70.6202251402
 20
70.278526627
 30
0.0
 10
-70.7165946269
 20
70.3522067602
 30
0.0
 10
-70.8082207018
 20
70.4264929238
 30
0.0
 10
-70.8955709382
 20
70.5016782093
 30
0.0
 10
-70.9516781247
 20
70.5530436885
 30
0.0
 10
-70.9790790957
 20
70.5789522946
 30
0.0
 11
-70.5194886619
 21
70.2065309508
 31
0.0
 11
-70.6209144169
 21
70.2797486006
 31
0.0
 11
-70.717213021
 21
70.3534160076
 31
0.0
 11
-70.80849796
 21
70.4274679421
 31
0.0
 11
-70.8956587035
 21
70.5025346272
 31
0.0
 11
-70.9790790957
 21
70.5789522946
 31
0.0
  0
SPLINE
  5
3EC
100
AcDbEntity
  8
0
100
AcDbSpline
 62
7
  6
CONTINUOUS
 70
0
 71
3
 72
18
 73
14
 74
12
 42
0.0000001
 43
0.0000001
 44
0.0000000001
 12
0.1278471796
 22
-1.688061552
 32
0.0
 13
0.6956974518
 23
-1.543341103
 33
0.0
 40
0.0
 40
0.0
 40
0.0
 40
0.0
 40
0.0994487293
 40
0.1982410428
 40
0.2951515135
 40
0.389225246
 40
0.480723723
 40
0.5709101839
 40
0.6599274556
 40
0.7471425123
 40
0.8326363975
 40
0.9167966359
 40
1.0
 40
1.0
 40
1.0
 40
1.0
 10
-69.433907362
 20
68.8142688742
 30
0.0
 10
-69.4296692821
 20
68.7583103488
 30
0.0
 10
-69.4197123989
 20
68.646870401
 30
0.0
 10
-69.4002302968
 20
68.4814382184
 30
0.0
 10
-69.3764021269
 20
68.3196391171
 30
0.0
 10
-69.3485181271
 20
68.1626683809
 30
0.0
 10
-69.3167038928
 20
68.0103206964
 30
0.0
 10
-69.2808838918
 20
67.8617973203
 30
0.0
 10
-69.2410032521
 20
67.7168164212
 30
0.0
 10
-69.1971853375
 20
67.5757462407
 30
0.0
 10
-69.1495552967
 20
67.4388142068
 30
0.0
 10
-69.0980428676
 20
67.305720362
 30
0.0
 10
-69.0608255161
 20
67.2188928784
 30
0.0
 10
-69.0415307267
 20
67.1760891545
 30
0.0
 11
-69.433907362
 21
68.8142688742
 31
0.0
 11
-69.4188921323
 21
68.6465834429
 31
0.0
 11
-69.3992970547
 21
68.4804902191
 31
0.0
 11
-69.3753584108
 21
68.3181867701
 31
0.0
 11
-69.3474694437
 21
68.1613906905
 31
0.0
 11
-69.3157713525
 21
68.0097713119
 31
0.0
 11
-69.2799408468
 21
67.8613589615
 31
0.0
 11
-69.2399363865
 21
67.7160688289
 31
0.0
 11
-69.1961041417
 21
67.5750791821
 31
0.0
 11
-69.1485197627
 21
67.4383928562
 31
0.0
 11
-69.0970585225
 21
67.3055368003
 31
0.0
 11
-69.0415307267
 21
67.1760891545
 31
0.0
  0
SPLINE
  5
3ED
100
AcDbEntity
  8
0
100
AcDbSpline
 62
7
  6
CONTINUOUS
 70
0
 71
3
 72
12
 73
8
 74
6
 42
0.0000001
 43
0.0000001
 44
0.0000000001
 12
-0.7538005872
 22
0.1993050875
 32
0.0
 13
-0.7344507813
 23
0.2617630475
 33
0.0
 40
0.0
 40
0.0
 40
0.0
 40
0.0
 40
0.2031922224
 40
0.4037019467
 40
0.6024734814
 40
0.8012652599
 40
1.0
 40
1.0
 40
1.0
 40
1.0
 10
-68.2328775092
 20
69.2058515013
 30
0.0
 10
-68.2839329813
 20
69.2193505825
 30
0.0
 10
-68.3851611449
 20
69.246967991
 30
0.0
 10
-68.5355473881
 20
69.2906079275
 30
0.0
 10
-68.6841044554
 20
69.3363752696
 30
0.0
 10
-68.8314278195
 20
69.3845045229
 30
0.0
 10
-68.9290665684
 20
69.4183062478
 30
0.0
 10
-68.9777201968
 20
69.4356467182
 30
0.0
 11
-68.2328775092
 21
69.2058515013
 31
0.0
 11
-68.3857176984
 21
69.2475630641
 31
0.0
 11
-68.5358582353
 21
69.2911456653
 31
0.0
 11
-68.6839672951
 21
69.336790001
 31
0.0
 11
-68.8312980043
 21
69.3849382501
 31
0.0
 11
-68.9777201968
 21
69.4356467182
 31
0.0
  0
SPLINE
  5
3EE
100
AcDbEntity
  8
0
100
AcDbSpline
 62
7
  6
CONTINUOUS
 70
0
 71
3
 72
15
 73
11
 74
9
 42
0.0000001
 43
0.0000001
 44
0.0000000001
 12
-0.303220478
 22
-1.3127623572
 32
0.0
 13
-0.0946213128
 23
-1.343976994
 33
0.0
 40
0.0
 40
0.0
 40
0.0
 40
0.0
 40
0.0292799595
 40
0.1699813234
 40
0.3092964326
 40
0.4473822672
 40
0.5860115923
 40
0.7253718294
 40
0.8639466301
 40
1.0
 40
1.0
 40
1.0
 40
1.0
 10
-69.2311454452
 20
71.1598785796
 30
0.0
 10
-69.234104873
 20
71.1470660367
 30
0.0
 10
-69.2511298259
 20
71.0726483832
 30
0.0
 10
-69.2804554875
 20
70.9368639744
 30
0.0
 10
-69.3163174246
 20
70.7525364868
 30
0.0
 10
-69.3481700486
 20
70.5684179755
 30
0.0
 10
-69.3760906807
 20
70.3836410057
 30
0.0
 10
-69.3999624604
 20
70.1980747006
 30
0.0
 10
-69.4194973226
 20
70.0131654826
 30
0.0
 10
-69.4296161791
 20
69.8902321647
 30
0.0
 10
-69.433907362
 20
69.8292812983
 30
0.0
 11
-69.2311454452
 21
71.1598785796
 31
0.0
 11
-69.2399431534
 21
71.121422452
 31
0.0
 11
-69.279947736
 21
70.9361241513
 31
0.0
 11
-69.3157784828
 21
70.7518760575
 31
0.0
 11
-69.3474766777
 21
70.5685527614
 31
0.0
 11
-69.375364246
 21
70.3838706406
 31
0.0
 11
-69.3993003598
 21
70.1976420355
 31
0.0
 11
-69.4188931997
 21
70.0119705869
 31
0.0
 11
-69.433907362
 21
69.8292812983
 31
0.0
  0
SPLINE
  5
3EF
100
AcDbEntity
  8
0
100
AcDbSpline
 62
7
  6
CONTINUOUS
 70
0
 71
3
 72
10
 73
6
 74
4
 42
0.0000001
 43
0.0000001
 44
0.0000000001
 12
-0.7285342263
 22
-0.2595778186
 32
0.0
 13
-0.743418329
 23
0.2033580644
 33
0.0
 40
0.0
 40
0.0
 40
0.0
 40
0.0
 40
0.1768844456
 40
0.5731463157
 40
1.0
 40
1.0
 40
1.0
 40
1.0
 10
-68.2809158965
 20
67.1858507901
 30
0.0
 10
-68.3238713541
 20
67.1705456973
 30
0.0
 10
-68.466271222
 20
67.1299530751
 30
0.0
 10
-68.7253323081
 20
67.1110607769
 30
0.0
 10
-68.9357537758
 20
67.1471544415
 30
0.0
 10
-69.0415307267
 20
67.1760891545
 30
0.0
 11
-68.2809158965
 21
67.1858507901
 31
0.0
 11
-68.4123453648
 21
67.1483252693
 31
0.0
 11
-68.7167545765
 21
67.1236079117
 31
0.0
 11
-69.0415307267
 21
67.1760891545
 31
0.0
  0
SPLINE
  5
3F0
100
AcDbEntity
  8
0
100
AcDbSpline
 62
7
  6
CONTINUOUS
 70
0
 71
3
 72
12
 73
8
 74
6
 42
0.0000001
 43
0.0000001
 44
0.0000000001
 12
-0.4846905088
 22
0.3399843163
 32
0.0
 13
-0.4301881365
 23
0.4067583948
 33
0.0
 40
0.0
 40
0.0
 40
0.0
 40
0.0
 40
0.2112889118
 40
0.4160796887
 40
0.6146197839
 40
0.8089140402
 40
1.0
 40
1.0
 40
1.0
 40
1.0
 10
-70.5194886619
 20
69.6003131681
 30
0.0
 10
-70.5536252386
 20
69.6242581402
 30
0.0
 10
-70.6202251402
 20
69.6723088444
 30
0.0
 10
-70.7165946269
 20
69.7459889776
 30
0.0
 10
-70.8082207018
 20
69.8202751411
 30
0.0
 10
-70.8955709382
 20
69.8954604266
 30
0.0
 10
-70.9516781247
 20
69.9468259058
 30
0.0
 10
-70.9790790957
 20
69.9727345119
 30
0.0
 11
-70.5194886619
 21
69.6003131681
 31
0.0
 11
-70.6209144169
 21
69.6735308179
 31
0.0
 11
-70.717213021
 21
69.747198225
 31
0.0
 11
-70.80849796
 21
69.8212501594
 31
0.0
 11
-70.8956587035
 21
69.8963168445
 31
0.0
 11
-70.9790790957
 21
69.9727345119
 31
0.0
  0
SPLINE
  5
3F1
100
AcDbEntity
  8
0
100
AcDbSpline
 62
7
  6
CONTINUOUS
 70
0
 71
3
 72
18
 73
14
 74
12
 42
0.0000001
 43
0.0000001
 44
0.0000000001
 12
-0.6956974515
 22
1.5433411025
 32
0.0
 13
-0.1278471795
 23
1.6880615514
 33
0.0
 40
0.0
 40
0.0
 40
0.0
 40
0.0
 40
0.0832064168
 40
0.1673706447
 40
0.2528685759
 40
0.3400867613
 40
0.4291060942
 40
0.5192954576
 40
0.610797256
 40
0.7048699557
 40
0.8017738049
 40
0.9005573899
 40
1.0
 40
1.0
 40
1.0
 40
1.0
 10
-69.7486375079
 20
67.5296425451
 30
0.0
 10
-69.7679330052
 20
67.5724478394
 30
0.0
 10
-69.8051518643
 20
67.6592790034
 30
0.0
 10
-69.8566662708
 20
67.7923787961
 30
0.0
 10
-69.9042978861
 20
67.9293169564
 30
0.0
 10
-69.9481166672
 20
68.0703923278
 30
0.0
 10
-69.987997715
 20
68.2153778523
 30
0.0
 10
-70.023817898
 20
68.3639059957
 30
0.0
 10
-70.0556316777
 20
68.5162567695
 30
0.0
 10
-70.083514157
 20
68.673225291
 30
0.0
 10
-70.1073400929
 20
68.8350153715
 30
0.0
 10
-70.1268202795
 20
69.000435575
 30
0.0
 10
-70.1367763241
 20
69.1118671825
 30
0.0
 10
-70.1410141432
 20
69.1678222648
 30
0.0
 11
-69.7486375079
 21
67.5296425451
 31
0.0
 11
-69.8041672555
 21
67.659094977
 31
0.0
 11
-69.8556306565
 21
67.7919574385
 31
0.0
 11
-69.903216795
 21
67.9286504045
 31
0.0
 11
-69.9470499346
 21
68.0696453197
 31
0.0
 11
-69.9870545172
 21
68.2149390378
 31
0.0
 11
-70.022885264
 21
68.3633563847
 31
0.0
 11
-70.0545834589
 21
68.5149814859
 31
0.0
 11
-70.0824710272
 21
68.6717760386
 31
0.0
 11
-70.106407141
 21
68.8340685297
 31
0.0
 11
-70.1259999809
 21
69.0001471385
 31
0.0
 11
-70.1410141432
 21
69.1678222648
 31
0.0
  0
SPLINE
  5
3F2
100
AcDbEntity
  8
0
100
AcDbSpline
 62
7
  6
CONTINUOUS
 70
0
 71
3
 72
16
 73
12
 74
10
 42
0.0000001
 43
0.0000001
 44
0.0000000001
 12
0.110616467
 22
1.5711680843
 32
0.0
 13
0.3910084721
 23
1.5257781274
 33
0.0
 40
0.0
 40
0.0
 40
0.0
 40
0.0
 40
0.1163872881
 40
0.234934946
 40
0.3541523748
 40
0.4727378525
 40
0.5908528029
 40
0.7100196374
 40
0.8303732501
 40
0.9509710342
 40
1.0
 40
1.0
 40
1.0
 40
1.0
 10
-70.1410141432
 20
70.1828346889
 30
0.0
 10
-70.1367226929
 20
70.2437893531
 30
0.0
 10
-70.1266029685
 20
70.3667321062
 30
0.0
 10
-70.1070661747
 20
70.5516552411
 30
0.0
 10
-70.0831921739
 20
70.7372326221
 30
0.0
 10
-70.0552700553
 20
70.9220130908
 30
0.0
 10
-70.0234169973
 20
71.1061288722
 30
0.0
 10
-69.9875552414
 20
71.2904514372
 30
0.0
 10
-69.947638429
 20
71.4752721275
 30
0.0
 10
-69.9124940417
 20
71.6234158621
 30
0.0
 10
-69.890730608
 20
71.7097752319
 30
0.0
 10
-69.884340361
 20
71.7347110064
 30
0.0
 11
-70.1410141432
 21
70.1828346889
 31
0.0
 11
-70.1259989135
 21
70.3655353499
 31
0.0
 11
-70.1064038359
 21
70.5512236512
 31
0.0
 11
-70.082465192
 21
70.7374657441
 31
0.0
 11
-70.0545762248
 21
70.9221507909
 31
0.0
 11
-70.0228781337
 21
71.1054682607
 31
0.0
 11
-69.9870476279
 21
71.2897111169
 31
0.0
 11
-69.9470431677
 21
71.4750057097
 31
0.0
 11
-69.9032109229
 21
71.6598276013
 31
0.0
 11
-69.884340361
 21
71.7347110064
 31
0.0
  0
SPLINE
  5
3F3
100
AcDbEntity
  8
0
100
AcDbSpline
 62
7
  6
CONTINUOUS
 70
0
 71
3
 72
12
 73
8
 74
6
 42
0.0000001
 43
0.0000001
 44
0.0000000001
 12
-0.7538005872
 22
0.1993050875
 32
0.0
 13
-0.7344507813
 23
0.2617630475
 33
0.0
 40
0.0
 40
0.0
 40
0.0
 40
0.0
 40
0.2031922224
 40
0.4037019467
 40
0.6024734814
 40
0.8012652599
 40
1.0
 40
1.0
 40
1.0
 40
1.0
 10
-68.2328775092
 20
68.5996337187
 30
0.0
 10
-68.2839329813
 20
68.6131327999
 30
0.0
 10
-68.3851611449
 20
68.6407502084
 30
0.0
 10
-68.5355473881
 20
68.6843901448
 30
0.0
 10
-68.6841044554
 20
68.730157487
 30
0.0
 10
-68.8314278195
 20
68.7782867403
 30
0.0
 10
-68.9290665684
 20
68.8120884652
 30
0.0
 10
-68.9777201968
 20
68.8294289356
 30
0.0
 11
-68.2328775092
 21
68.5996337187
 31
0.0
 11
-68.3857176984
 21
68.6413452815
 31
0.0
 11
-68.5358582353
 21
68.6849278826
 31
0.0
 11
-68.6839672951
 21
68.7305722184
 31
0.0
 11
-68.8312980043
 21
68.7787204675
 31
0.0
 11
-68.9777201968
 21
68.8294289356
 31
0.0
  0
SPLINE
  5
3F4
100
AcDbEntity
  8
0
100
AcDbSpline
 62
7
  6
CONTINUOUS
 70
0
 71
3
 72
9
 73
5
 74
3
 42
0.0000001
 43
0.0000001
 44
0.0000000001
 12
-0.3146349819
 22
0.1676527526
 32
0.0
 13
-0.2882787499
 23
0.2094216566
 33
0.0
 40
0.0
 40
0.0
 40
0.0
 40
0.0
 40
0.2130096085
 40
1.0
 40
1.0
 40
1.0
 40
1.0
 10
29.1235920024
 20
-79.5233488999
 30
0.0
 10
29.101251911
 20
-79.5114450175
 30
0.0
 10
28.9972910705
 20
-79.453830741
 30
0.0
 10
28.8976719916
 20
-79.3886656293
 30
0.0
 10
28.8220477895
 20
-79.3337280188
 30
0.0
 11
29.1235920024
 21
-79.5233488999
 31
0.0
 11
29.0571595943
 21
-79.4865576238
 31
0.0
 11
28.8220477895
 21
-79.3337280188
 31
0.0
  0
SPLINE
  5
3F5
100
AcDbEntity
  8
0
100
AcDbSpline
 62
7
  6
CONTINUOUS
 70
0
 71
3
 72
15
 73
11
 74
9
 42
0.0000001
 43
0.0000001
 44
0.0000000001
 12
-2.939478045
 22
2.135399719
 32
0.0
 13
0.0
 23
3.6332441615
 33
0.0
 40
0.0
 40
0.0
 40
0.0
 40
0.0
 40
0.1166507875
 40
0.2400441641
 40
0.3682594671
 40
0.499036013
 40
0.6299439153
 40
0.7585448031
 40
0.8825520476
 40
1.0
 40
1.0
 40
1.0
 40
1.0
 10
28.5392050771
 20
-79.475149375
 30
0.0
 10
28.4249076008
 20
-79.3921173554
 30
0.0
 10
28.2021354005
 20
-79.2037141412
 30
0.0
 10
27.8995859804
 20
-78.8747149446
 30
0.0
 10
27.6263286769
 20
-78.4996378449
 30
0.0
 10
27.3904447488
 20
-78.0895575165
 30
0.0
 10
27.1988268585
 20
-77.6565107572
 30
0.0
 10
27.0571174462
 20
-77.2131874859
 30
0.0
 10
26.9694922692
 20
-76.7726918109
 30
0.0
 10
26.9482148194
 20
-76.4800190258
 30
0.0
 10
26.9482148194
 20
-76.3377799968
 30
0.0
 11
28.5392050771
 21
-79.475149375
 31
0.0
 11
28.2144289269
 21
-79.2028544676
 31
0.0
 11
27.9100197152
 21
-78.8737278983
 31
0.0
 11
27.6351173708
 21
-78.4976517379
 31
0.0
 11
27.3979758748
 21
-78.0859177253
 31
0.0
 11
27.2057154334
 21
-77.6508882314
 31
0.0
 11
27.064108693
 21
-77.2056250769
 31
0.0
 11
26.9774074157
 21
-76.76349735
 31
0.0
 11
26.9482148194
 21
-76.3377799968
 31
0.0
  0
SPLINE
  5
3F6
100
AcDbEntity
  8
0
100
AcDbSpline
 62
7
  6
CONTINUOUS
 70
0
 71
3
 72
12
 73
8
 74
6
 42
0.0000001
 43
0.0000001
 44
0.0000000001
 12
0.0
 22
1.6046926561
 32
0.0
 13
1.3383831578
 23
0.8945373358
 33
0.0
 40
0.0
 40
0.0
 40
0.0
 40
0.0
 40
0.2477719948
 40
0.4757585984
 40
0.684553576
 40
0.8775367541
 40
1.0
 40
1.0
 40
1.0
 40
1.0
 10
26.9482148194
 20
-76.3377799968
 30
0.0
 10
26.9482148194
 20
-76.2052473633
 30
0.0
 10
26.9654572153
 20
-75.9502177958
 30
0.0
 10
27.0498591327
 20
-75.5919822006
 30
0.0
 10
27.1903930703
 20
-75.2830033714
 30
0.0
 10
27.3643608474
 20
-75.0592629408
 30
0.0
 10
27.4963289098
 20
-74.951987002
 30
0.0
 10
27.5509631584
 20
-74.9154710201
 30
0.0
 11
26.9482148194
 21
-76.3377799968
 31
0.0
 11
26.9774074157
 21
-75.9412552399
 31
0.0
 11
27.064108693
 21
-75.5858287902
 31
0.0
 11
27.2057154334
 21
-75.2821723761
 31
0.0
 11
27.3979758748
 21
-75.0394033236
 31
0.0
 11
27.5509631584
 21
-74.9154710201
 31
0.0
  0
SPLINE
  5
3F7
100
AcDbEntity
  8
0
100
AcDbSpline
 62
7
  6
CONTINUOUS
 70
0
 71
3
 72
11
 73
7
 74
5
 42
0.0000001
 43
0.0000001
 44
0.0000000001
 12
0.3585770888
 22
-0.0893745271
 32
0.0
 13
0.3641339119
 23
-0.0630224474
 33
0.0
 40
0.0
 40
0.0
 40
0.0
 40
0.0
 40
0.2843614962
 40
0.5413138567
 40
0.7772617616
 40
1.0
 40
1.0
 40
1.0
 40
1.0
 10
27.768353923
 20
-76.7982609694
 30
0.0
 10
27.8023424288
 20
-76.8067325274
 30
0.0
 10
27.8672401818
 20
-76.8220789287
 30
0.0
 10
27.9608613621
 20
-76.8421588192
 30
0.0
 10
28.0473711982
 20
-76.8591257659
 30
0.0
 10
28.1029790999
 20
-76.8691508372
 30
0.0
 10
28.1300146153
 20
-76.8738300068
 30
0.0
 11
27.768353923
 21
-76.7982609694
 31
0.0
 11
27.8706099984
 21
-76.8224801242
 31
0.0
 11
27.963449594
 21
-76.8424167626
 31
0.0
 11
28.049010306
 21
-76.8592140788
 31
0.0
 11
28.1300146153
 21
-76.8738300068
 31
0.0
  0
SPLINE
  5
3F8
100
AcDbEntity
  8
0
100
AcDbSpline
 62
7
  6
CONTINUOUS
 70
0
 71
3
 72
12
 73
8
 74
6
 42
0.0000001
 43
0.0000001
 44
0.0000000001
 12
-0.4846905088
 22
0.3399843163
 32
0.0
 13
-0.4301881365
 23
0.4067583948
 33
0.0
 40
0.0
 40
0.0
 40
0.0
 40
0.0
 40
0.2112889118
 40
0.4160796887
 40
0.6146197839
 40
0.8089140402
 40
1.0
 40
1.0
 40
1.0
 40
1.0
 10
27.768353923
 20
-76.7982609694
 30
0.0
 10
27.7342173463
 20
-76.7743159973
 30
0.0
 10
27.6676174447
 20
-76.7262652931
 30
0.0
 10
27.571247958
 20
-76.6525851599
 30
0.0
 10
27.4796218831
 20
-76.5782989963
 30
0.0
 10
27.3922716468
 20
-76.5031137108
 30
0.0
 10
27.3361644602
 20
-76.4517482316
 30
0.0
 10
27.3087634892
 20
-76.4258396255
 30
0.0
 11
27.768353923
 21
-76.7982609694
 31
0.0
 11
27.666928168
 21
-76.7250433195
 31
0.0
 11
27.5706295639
 21
-76.6513759125
 31
0.0
 11
27.479344625
 21
-76.5773239781
 31
0.0
 11
27.3921838814
 21
-76.5022572929
 31
0.0
 11
27.3087634892
 21
-76.4258396255
 31
0.0
  0
SPLINE
  5
3F9
100
AcDbEntity
  8
0
100
AcDbSpline
 62
7
  6
CONTINUOUS
 70
0
 71
3
 72
18
 73
14
 74
12
 42
0.0000001
 43
0.0000001
 44
0.0000000001
 12
0.1278471796
 22
-1.688061552
 32
0.0
 13
0.6956974518
 23
-1.543341103
 33
0.0
 40
0.0
 40
0.0
 40
0.0
 40
0.0
 40
0.0994487293
 40
0.1982410428
 40
0.2951515135
 40
0.389225246
 40
0.480723723
 40
0.5709101839
 40
0.6599274556
 40
0.7471425123
 40
0.8326363975
 40
0.9167966359
 40
1.0
 40
1.0
 40
1.0
 40
1.0
 10
28.853935223
 20
-78.1905230459
 30
0.0
 10
28.8581733028
 20
-78.2464815713
 30
0.0
 10
28.868130186
 20
-78.3579215191
 30
0.0
 10
28.8876122881
 20
-78.5233537018
 30
0.0
 10
28.911440458
 20
-78.685152803
 30
0.0
 10
28.9393244578
 20
-78.8421235392
 30
0.0
 10
28.9711386921
 20
-78.9944712237
 30
0.0
 10
29.0069586931
 20
-79.1429945998
 30
0.0
 10
29.0468393329
 20
-79.2879754989
 30
0.0
 10
29.0906572474
 20
-79.4290456794
 30
0.0
 10
29.1382872882
 20
-79.5659777133
 30
0.0
 10
29.1897997174
 20
-79.6990715581
 30
0.0
 10
29.2270170688
 20
-79.7858990417
 30
0.0
 10
29.2463118583
 20
-79.8287027656
 30
0.0
 11
28.853935223
 21
-78.1905230459
 31
0.0
 11
28.8689504526
 21
-78.3582084772
 31
0.0
 11
28.8885455302
 21
-78.524301701
 31
0.0
 11
28.9124841741
 21
-78.68660515
 31
0.0
 11
28.9403731413
 21
-78.8434012296
 31
0.0
 11
28.9720712324
 21
-78.9950206082
 31
0.0
 11
29.0079017382
 21
-79.1434329587
 31
0.0
 11
29.0479061984
 21
-79.2887230912
 31
0.0
 11
29.0917384432
 21
-79.429712738
 31
0.0
 11
29.1393228222
 21
-79.5663990639
 31
0.0
 11
29.1907840624
 21
-79.6992551198
 31
0.0
 11
29.2463118583
 21
-79.8287027656
 31
0.0
  0
SPLINE
  5
3FA
100
AcDbEntity
  8
0
100
AcDbSpline
 62
7
  6
CONTINUOUS
 70
0
 71
3
 72
12
 73
8
 74
6
 42
0.0000001
 43
0.0000001
 44
0.0000000001
 12
-0.7538005872
 22
0.1993050875
 32
0.0
 13
-0.7344507813
 23
0.2617630475
 33
0.0
 40
0.0
 40
0.0
 40
0.0
 40
0.0
 40
0.2031922224
 40
0.4037019467
 40
0.6024734814
 40
0.8012652599
 40
1.0
 40
1.0
 40
1.0
 40
1.0
 10
30.0549650758
 20
-77.7989404188
 30
0.0
 10
30.0039096036
 20
-77.7854413376
 30
0.0
 10
29.9026814401
 20
-77.7578239291
 30
0.0
 10
29.7522951968
 20
-77.7141839926
 30
0.0
 10
29.6037381296
 20
-77.6684166505
 30
0.0
 10
29.4564147655
 20
-77.6202873972
 30
0.0
 10
29.3587760165
 20
-77.5864856723
 30
0.0
 10
29.3101223881
 20
-77.5691452019
 30
0.0
 11
30.0549650758
 21
-77.7989404188
 31
0.0
 11
29.9021248866
 21
-77.757228856
 31
0.0
 11
29.7519843496
 21
-77.7136462548
 31
0.0
 11
29.6038752899
 21
-77.6680019191
 31
0.0
 11
29.4565445807
 21
-77.61985367
 31
0.0
 11
29.3101223881
 21
-77.5691452019
 31
0.0
  0
SPLINE
  5
3FB
100
AcDbEntity
  8
0
100
AcDbSpline
 62
7
  6
CONTINUOUS
 70
0
 71
3
 72
15
 73
11
 74
9
 42
0.0000001
 43
0.0000001
 44
0.0000000001
 12
-0.303220478
 22
-1.3127623572
 32
0.0
 13
-0.0946213128
 23
-1.343976994
 33
0.0
 40
0.0
 40
0.0
 40
0.0
 40
0.0
 40
0.0292799595
 40
0.1699813234
 40
0.3092964326
 40
0.4473822672
 40
0.5860115923
 40
0.7253718294
 40
0.8639466301
 40
1.0
 40
1.0
 40
1.0
 40
1.0
 10
29.0566971397
 20
-75.8449133405
 30
0.0
 10
29.0537377119
 20
-75.8577258834
 30
0.0
 10
29.0367127591
 20
-75.9321435369
 30
0.0
 10
29.0073870974
 20
-76.0679279457
 30
0.0
 10
28.9715251604
 20
-76.2522554333
 30
0.0
 10
28.9396725363
 20
-76.4363739446
 30
0.0
 10
28.9117519042
 20
-76.6211509144
 30
0.0
 10
28.8878801246
 20
-76.8067172195
 30
0.0
 10
28.8683452624
 20
-76.9916264375
 30
0.0
 10
28.8582264058
 20
-77.1145597554
 30
0.0
 10
28.853935223
 20
-77.1755106218
 30
0.0
 11
29.0566971397
 21
-75.8449133405
 31
0.0
 11
29.0478994315
 21
-75.8833694681
 31
0.0
 11
29.0078948489
 21
-76.0686677688
 31
0.0
 11
28.9720641021
 21
-76.2529158626
 31
0.0
 11
28.9403659072
 21
-76.4362391587
 31
0.0
 11
28.912478339
 21
-76.6209212795
 31
0.0
 11
28.8885422251
 21
-76.8071498846
 31
0.0
 11
28.8689493852
 21
-76.9928213332
 31
0.0
 11
28.853935223
 21
-77.1755106218
 31
0.0
  0
SPLINE
  5
3FC
100
AcDbEntity
  8
0
100
AcDbSpline
 62
7
  6
CONTINUOUS
 70
0
 71
3
 72
10
 73
6
 74
4
 42
0.0000001
 43
0.0000001
 44
0.0000000001
 12
-0.7285342263
 22
-0.2595778186
 32
0.0
 13
-0.743418329
 23
0.2033580644
 33
0.0
 40
0.0
 40
0.0
 40
0.0
 40
0.0
 40
0.1768844456
 40
0.5731463157
 40
1.0
 40
1.0
 40
1.0
 40
1.0
 10
30.0069266884
 20
-79.81894113
 30
0.0
 10
29.9639712308
 20
-79.8342462228
 30
0.0
 10
29.8215713629
 20
-79.874838845
 30
0.0
 10
29.5625102769
 20
-79.8937311432
 30
0.0
 10
29.3520888091
 20
-79.8576374786
 30
0.0
 10
29.2463118583
 20
-79.8287027656
 30
0.0
 11
30.0069266884
 21
-79.81894113
 31
0.0
 11
29.8754972202
 21
-79.8564666508
 31
0.0
 11
29.5710880085
 21
-79.8811840084
 31
0.0
 11
29.2463118583
 21
-79.8287027656
 31
0.0
  0
SPLINE
  5
3FD
100
AcDbEntity
  8
0
100
AcDbSpline
 62
7
  6
CONTINUOUS
 70
0
 71
3
 72
12
 73
8
 74
6
 42
0.0000001
 43
0.0000001
 44
0.0000000001
 12
-0.4846905088
 22
0.3399843163
 32
0.0
 13
-0.4301881365
 23
0.4067583948
 33
0.0
 40
0.0
 40
0.0
 40
0.0
 40
0.0
 40
0.2112889118
 40
0.4160796887
 40
0.6146197839
 40
0.8089140402
 40
1.0
 40
1.0
 40
1.0
 40
1.0
 10
27.768353923
 20
-77.404478752
 30
0.0
 10
27.7342173463
 20
-77.3805337799
 30
0.0
 10
27.6676174447
 20
-77.3324830757
 30
0.0
 10
27.571247958
 20
-77.2588029426
 30
0.0
 10
27.4796218831
 20
-77.184516779
 30
0.0
 10
27.3922716468
 20
-77.1093314935
 30
0.0
 10
27.3361644602
 20
-77.0579660143
 30
0.0
 10
27.3087634892
 20
-77.0320574082
 30
0.0
 11
27.768353923
 21
-77.404478752
 31
0.0
 11
27.666928168
 21
-77.3312611022
 31
0.0
 11
27.5706295639
 21
-77.2575936951
 31
0.0
 11
27.479344625
 21
-77.1835417607
 31
0.0
 11
27.3921838814
 21
-77.1084750756
 31
0.0
 11
27.3087634892
 21
-77.0320574082
 31
0.0
  0
SPLINE
  5
3FE
100
AcDbEntity
  8
0
100
AcDbSpline
 62
7
  6
CONTINUOUS
 70
0
 71
3
 72
18
 73
14
 74
12
 42
0.0000001
 43
0.0000001
 44
0.0000000001
 12
-0.6956974515
 22
1.5433411025
 32
0.0
 13
-0.1278471795
 23
1.6880615514
 33
0.0
 40
0.0
 40
0.0
 40
0.0
 40
0.0
 40
0.0832064168
 40
0.1673706447
 40
0.2528685759
 40
0.3400867613
 40
0.4291060942
 40
0.5192954576
 40
0.610797256
 40
0.7048699557
 40
0.8017738049
 40
0.9005573899
 40
1.0
 40
1.0
 40
1.0
 40
1.0
 10
28.5392050771
 20
-79.475149375
 30
0.0
 10
28.5199095797
 20
-79.4323440807
 30
0.0
 10
28.4826907207
 20
-79.3455129167
 30
0.0
 10
28.4311763141
 20
-79.212413124
 30
0.0
 10
28.3835446988
 20
-79.0754749637
 30
0.0
 10
28.3397259178
 20
-78.9343995923
 30
0.0
 10
28.2998448699
 20
-78.7894140678
 30
0.0
 10
28.2640246869
 20
-78.6408859244
 30
0.0
 10
28.2322109073
 20
-78.4885351506
 30
0.0
 10
28.2043284279
 20
-78.3315666291
 30
0.0
 10
28.180502492
 20
-78.1697765486
 30
0.0
 10
28.1610223055
 20
-78.0043563451
 30
0.0
 10
28.1510662609
 20
-77.8929247376
 30
0.0
 10
28.1468284418
 20
-77.8369696553
 30
0.0
 11
28.5392050771
 21
-79.475149375
 31
0.0
 11
28.4836753295
 21
-79.3456969431
 31
0.0
 11
28.4322119285
 21
-79.2128344816
 31
0.0
 11
28.38462579
 21
-79.0761415156
 31
0.0
 11
28.3407926503
 21
-78.9351466004
 31
0.0
 11
28.3007880677
 21
-78.7898528823
 31
0.0
 11
28.2649573209
 21
-78.6414355354
 31
0.0
 11
28.233259126
 21
-78.4898104342
 31
0.0
 11
28.2053715578
 21
-78.3330158816
 31
0.0
 11
28.1814354439
 21
-78.1707233904
 31
0.0
 11
28.161842604
 21
-78.0046447816
 31
0.0
 11
28.1468284418
 21
-77.8369696553
 31
0.0
  0
SPLINE
  5
3FF
100
AcDbEntity
  8
0
100
AcDbSpline
 62
7
  6
CONTINUOUS
 70
0
 71
3
 72
16
 73
12
 74
10
 42
0.0000001
 43
0.0000001
 44
0.0000000001
 12
0.110616467
 22
1.5711680843
 32
0.0
 13
0.3910084721
 23
1.5257781274
 33
0.0
 40
0.0
 40
0.0
 40
0.0
 40
0.0
 40
0.1163872881
 40
0.234934946
 40
0.3541523748
 40
0.4727378525
 40
0.5908528029
 40
0.7100196374
 40
0.8303732501
 40
0.9509710342
 40
1.0
 40
1.0
 40
1.0
 40
1.0
 10
28.1468284418
 20
-76.8219572312
 30
0.0
 10
28.151119892
 20
-76.761002567
 30
0.0
 10
28.1612396164
 20
-76.638059814
 30
0.0
 10
28.1807764102
 20
-76.453136679
 30
0.0
 10
28.204650411
 20
-76.267559298
 30
0.0
 10
28.2325725296
 20
-76.0827788293
 30
0.0
 10
28.2644255876
 20
-75.8986630479
 30
0.0
 10
28.3002873435
 20
-75.714340483
 30
0.0
 10
28.340204156
 20
-75.5295197926
 30
0.0
 10
28.3753485433
 20
-75.381376058
 30
0.0
 10
28.3971119769
 20
-75.2950166882
 30
0.0
 10
28.403502224
 20
-75.2700809137
 30
0.0
 11
28.1468284418
 21
-76.8219572312
 31
0.0
 11
28.1618436715
 21
-76.6392565702
 31
0.0
 11
28.181438749
 21
-76.4535682689
 31
0.0
 11
28.2053773929
 21
-76.267326176
 31
0.0
 11
28.2332663601
 21
-76.0826411292
 31
0.0
 11
28.2649644513
 21
-75.8993236594
 31
0.0
 11
28.300794957
 21
-75.7150808032
 31
0.0
 11
28.3407994172
 21
-75.5297862105
 31
0.0
 11
28.384631662
 21
-75.3449643188
 31
0.0
 11
28.403502224
 21
-75.2700809137
 31
0.0
  0
SPLINE
  5
400
100
AcDbEntity
  8
0
100
AcDbSpline
 62
7
  6
CONTINUOUS
 70
0
 71
3
 72
12
 73
8
 74
6
 42
0.0000001
 43
0.0000001
 44
0.0000000001
 12
-0.7538005872
 22
0.1993050875
 32
0.0
 13
-0.7344507813
 23
0.2617630475
 33
0.0
 40
0.0
 40
0.0
 40
0.0
 40
0.0
 40
0.2031922224
 40
0.4037019467
 40
0.6024734814
 40
0.8012652599
 40
1.0
 40
1.0
 40
1.0
 40
1.0
 10
30.0549650758
 20
-78.4051582014
 30
0.0
 10
30.0039096036
 20
-78.3916591202
 30
0.0
 10
29.9026814401
 20
-78.3640417117
 30
0.0
 10
29.7522951968
 20
-78.3204017753
 30
0.0
 10
29.6037381296
 20
-78.2746344331
 30
0.0
 10
29.4564147655
 20
-78.2265051798
 30
0.0
 10
29.3587760165
 20
-78.192703455
 30
0.0
 10
29.3101223881
 20
-78.1753629846
 30
0.0
 11
30.0549650758
 21
-78.4051582014
 31
0.0
 11
29.9021248866
 21
-78.3634466386
 31
0.0
 11
29.7519843496
 21
-78.3198640375
 31
0.0
 11
29.6038752899
 21
-78.2742197017
 31
0.0
 11
29.4565445807
 21
-78.2260714526
 31
0.0
 11
29.3101223881
 21
-78.1753629846
 31
0.0
  0
SPLINE
  5
401
100
AcDbEntity
  8
0
100
AcDbSpline
 62
7
  6
CONTINUOUS
 70
0
 71
3
 72
9
 73
5
 74
3
 42
0.0000001
 43
0.0000001
 44
0.0000000001
 12
-0.3146349819
 22
0.1676527526
 32
0.0
 13
-0.2882787499
 23
0.2094216566
 33
0.0
 40
0.0
 40
0.0
 40
0.0
 40
0.0
 40
0.2130096085
 40
1.0
 40
1.0
 40
1.0
 40
1.0
 10
29.1235920024
 20
18.3375217277
 30
0.0
 10
29.101251911
 20
18.3494256101
 30
0.0
 10
28.9972910705
 20
18.4070398866
 30
0.0
 10
28.8976719916
 20
18.4722049984
 30
0.0
 10
28.8220477895
 20
18.5271426089
 30
0.0
 11
29.1235920024
 21
18.3375217277
 31
0.0
 11
29.0571595943
 21
18.3743130038
 31
0.0
 11
28.8220477895
 21
18.5271426089
 31
0.0
  0
SPLINE
  5
402
100
AcDbEntity
  8
0
100
AcDbSpline
 62
7
  6
CONTINUOUS
 70
0
 71
3
 72
13
 73
9
 74
7
 42
0.0000001
 43
0.0000001
 44
0.0000000001
 12
1.5677279776
 22
-0.7744776327
 32
0.0
 13
0.6428221942
 23
-1.6250340554
 33
0.0
 40
0.0
 40
0.0
 40
0.0
 40
0.0
 40
0.0284366723
 40
0.2315586344
 40
0.4391654115
 40
0.6453312142
 40
0.8433258624
 40
1.0
 40
1.0
 40
1.0
 40
1.0
 10
48.4849866194
 20
31.3821095811
 30
0.0
 10
48.4998469417
 20
31.3747683922
 30
0.0
 10
48.6200805726
 20
31.3134372618
 30
0.0
 10
48.8357890789
 20
31.1742725721
 30
0.0
 10
49.1054051044
 20
30.9352984945
 30
0.0
 10
49.3372138456
 20
30.6636185107
 30
0.0
 10
49.5145103697
 20
30.3883924373
 30
0.0
 10
49.6034315333
 20
30.2014783981
 30
0.0
 10
49.6370027376
 20
30.1166114617
 30
0.0
 11
48.4849866194
 21
31.3821095811
 31
0.0
 11
48.5292796589
 21
31.3595231218
 31
0.0
 11
48.8281493104
 21
31.1686120804
 31
0.0
 11
49.0999790431
 21
30.928833297
 31
0.0
 11
49.3337069351
 21
30.6550833911
 31
0.0
 11
49.5203427723
 21
30.364106099
 31
0.0
 11
49.6370027376
 21
30.1166114617
 31
0.0
  0
SPLINE
  5
403
100
AcDbEntity
  8
0
100
AcDbSpline
 62
7
  6
CONTINUOUS
 70
0
 71
3
 72
11
 73
7
 74
5
 42
0.0000001
 43
0.0000001
 44
0.0000000001
 12
0.6999330968
 22
-0.1988824459
 32
0.0
 13
0.5672510754
 23
-0.4550691323
 33
0.0
 40
0.0
 40
0.0
 40
0.0
 40
0.0
 40
0.1987908549
 40
0.5496576567
 40
0.8944512542
 40
1.0
 40
1.0
 40
1.0
 40
1.0
 10
48.7501859967
 20
31.9092767548
 30
0.0
 10
48.7965660963
 20
31.8960980843
 30
0.0
 10
48.9230354319
 20
31.8535000949
 30
0.0
 10
49.1192519072
 20
31.7597389511
 30
0.0
 10
49.2821094948
 20
31.6531824705
 30
0.0
 10
49.3685035596
 20
31.5864153123
 30
0.0
 10
49.3884611061
 20
31.5704046536
 30
0.0
 11
48.7501859967
 21
31.9092767548
 31
0.0
 11
48.8872741844
 21
31.8633212231
 31
0.0
 11
49.1177339891
 21
31.7541173531
 31
0.0
 11
49.3277238305
 21
31.6173347444
 31
0.0
 11
49.3884611061
 21
31.5704046536
 31
0.0
  0
SPLINE
  5
404
100
AcDbEntity
  8
0
100
AcDbSpline
 62
7
  6
CONTINUOUS
 70
0
 71
3
 72
12
 73
8
 74
6
 42
0.0000001
 43
0.0000001
 44
0.0000000001
 12
0.7102149643
 22
-0.5697598852
 32
0.0
 13
0.3629237571
 23
-0.8345245342
 33
0.0
 40
0.0
 40
0.0
 40
0.0
 40
0.0
 40
0.180010187
 40
0.4265761774
 40
0.6489740782
 40
0.8415822725
 40
1.0
 40
1.0
 40
1.0
 40
1.0
 10
49.3884611061
 20
31.5704046536
 30
0.0
 10
49.4310764156
 20
31.5362171258
 30
0.0
 10
49.5289189737
 20
31.4512889275
 30
0.0
 10
49.6657364588
 20
31.3092621684
 30
0.0
 10
49.7900661807
 20
31.1513123813
 30
0.0
 10
49.8840500396
 20
31.004645822
 30
0.0
 10
49.9325115167
 20
30.9095727455
 30
0.0
 10
49.9516760357
 20
30.8655049187
 30
0.0
 11
49.3884611061
 21
31.5704046536
 31
0.0
 11
49.5122444678
 21
31.463039035
 31
0.0
 11
49.6678641673
 21
31.3013931272
 31
0.0
 11
49.7928005133
 21
31.1421711499
 31
0.0
 11
49.8869226641
 21
30.9943081413
 31
0.0
 11
49.9516760357
 21
30.8655049187
 31
0.0
  0
SPLINE
  5
405
100
AcDbEntity
  8
0
100
AcDbSpline
 62
7
  6
CONTINUOUS
 70
0
 71
3
 72
15
 73
11
 74
9
 42
0.0000001
 43
0.0000001
 44
0.0000000001
 12
-2.939478045
 22
2.135399719
 32
0.0
 13
0.0
 23
3.6332441615
 33
0.0
 40
0.0
 40
0.0
 40
0.0
 40
0.0
 40
0.1166507875
 40
0.2400441641
 40
0.3682594671
 40
0.499036013
 40
0.6299439153
 40
0.7585448031
 40
0.8825520476
 40
1.0
 40
1.0
 40
1.0
 40
1.0
 10
28.5392050771
 20
18.3857212526
 30
0.0
 10
28.4249076008
 20
18.4687532723
 30
0.0
 10
28.2021354005
 20
18.6571564864
 30
0.0
 10
27.8995859804
 20
18.9861556831
 30
0.0
 10
27.6263286769
 20
19.3612327828
 30
0.0
 10
27.3904447488
 20
19.7713131112
 30
0.0
 10
27.1988268585
 20
20.2043598704
 30
0.0
 10
27.0571174462
 20
20.6476831418
 30
0.0
 10
26.9694922692
 20
21.0881788168
 30
0.0
 10
26.9482148194
 20
21.3808516018
 30
0.0
 10
26.9482148194
 20
21.5230906309
 30
0.0
 11
28.5392050771
 21
18.3857212526
 31
0.0
 11
28.2144289269
 21
18.65801616
 31
0.0
 11
27.9100197152
 21
18.9871427293
 31
0.0
 11
27.6351173708
 21
19.3632188897
 31
0.0
 11
27.3979758748
 21
19.7749529023
 31
0.0
 11
27.2057154334
 21
20.2099823963
 31
0.0
 11
27.064108693
 21
20.6552455507
 31
0.0
 11
26.9774074157
 21
21.0973732777
 31
0.0
 11
26.9482148194
 21
21.5230906309
 31
0.0
  0
SPLINE
  5
406
100
AcDbEntity
  8
0
100
AcDbSpline
 62
7
  6
CONTINUOUS
 70
0
 71
3
 72
12
 73
8
 74
6
 42
0.0000001
 43
0.0000001
 44
0.0000000001
 12
0.0
 22
1.6046926561
 32
0.0
 13
1.3383831578
 23
0.8945373358
 33
0.0
 40
0.0
 40
0.0
 40
0.0
 40
0.0
 40
0.2477719948
 40
0.4757585984
 40
0.684553576
 40
0.8775367541
 40
1.0
 40
1.0
 40
1.0
 40
1.0
 10
26.9482148194
 20
21.5230906309
 30
0.0
 10
26.9482148194
 20
21.6556232644
 30
0.0
 10
26.9654572153
 20
21.9106528319
 30
0.0
 10
27.0498591327
 20
22.268888427
 30
0.0
 10
27.1903930703
 20
22.5778672563
 30
0.0
 10
27.3643608474
 20
22.8016076869
 30
0.0
 10
27.4963289098
 20
22.9088836256
 30
0.0
 10
27.5509631584
 20
22.9453996075
 30
0.0
 11
26.9482148194
 21
21.5230906309
 31
0.0
 11
26.9774074157
 21
21.9196153877
 31
0.0
 11
27.064108693
 21
22.2750418374
 31
0.0
 11
27.2057154334
 21
22.5786982515
 31
0.0
 11
27.3979758748
 21
22.8214673041
 31
0.0
 11
27.5509631584
 21
22.9453996075
 31
0.0
  0
SPLINE
  5
407
100
AcDbEntity
  8
0
100
AcDbSpline
 62
7
  6
CONTINUOUS
 70
0
 71
3
 72
11
 73
7
 74
5
 42
0.0000001
 43
0.0000001
 44
0.0000000001
 12
0.3585770888
 22
-0.0893745271
 32
0.0
 13
0.3641339119
 23
-0.0630224474
 33
0.0
 40
0.0
 40
0.0
 40
0.0
 40
0.0
 40
0.2843614962
 40
0.5413138567
 40
0.7772617616
 40
1.0
 40
1.0
 40
1.0
 40
1.0
 10
27.768353923
 20
21.0626096583
 30
0.0
 10
27.8023424288
 20
21.0541381002
 30
0.0
 10
27.8672401818
 20
21.0387916989
 30
0.0
 10
27.9608613621
 20
21.0187118085
 30
0.0
 10
28.0473711982
 20
21.0017448617
 30
0.0
 10
28.1029790999
 20
20.9917197904
 30
0.0
 10
28.1300146153
 20
20.9870406208
 30
0.0
 11
27.768353923
 21
21.0626096583
 31
0.0
 11
27.8706099984
 21
21.0383905034
 31
0.0
 11
27.963449594
 21
21.0184538651
 31
0.0
 11
28.049010306
 21
21.0016565488
 31
0.0
 11
28.1300146153
 21
20.9870406208
 31
0.0
  0
SPLINE
  5
408
100
AcDbEntity
  8
0
100
AcDbSpline
 62
7
  6
CONTINUOUS
 70
0
 71
3
 72
12
 73
8
 74
6
 42
0.0000001
 43
0.0000001
 44
0.0000000001
 12
-0.4846905088
 22
0.3399843163
 32
0.0
 13
-0.4301881365
 23
0.4067583948
 33
0.0
 40
0.0
 40
0.0
 40
0.0
 40
0.0
 40
0.2112889118
 40
0.4160796887
 40
0.6146197839
 40
0.8089140402
 40
1.0
 40
1.0
 40
1.0
 40
1.0
 10
27.768353923
 20
21.0626096583
 30
0.0
 10
27.7342173463
 20
21.0865546304
 30
0.0
 10
27.6676174447
 20
21.1346053346
 30
0.0
 10
27.571247958
 20
21.2082854677
 30
0.0
 10
27.4796218831
 20
21.2825716313
 30
0.0
 10
27.3922716468
 20
21.3577569168
 30
0.0
 10
27.3361644602
 20
21.409122396
 30
0.0
 10
27.3087634892
 20
21.4350310021
 30
0.0
 11
27.768353923
 21
21.0626096583
 31
0.0
 11
27.666928168
 21
21.1358273081
 31
0.0
 11
27.5706295639
 21
21.2094947151
 31
0.0
 11
27.479344625
 21
21.2835466496
 31
0.0
 11
27.3921838814
 21
21.3586133347
 31
0.0
 11
27.3087634892
 21
21.4350310021
 31
0.0
  0
SPLINE
  5
409
100
AcDbEntity
  8
0
100
AcDbSpline
 62
7
  6
CONTINUOUS
 70
0
 71
3
 72
18
 73
14
 74
12
 42
0.0000001
 43
0.0000001
 44
0.0000000001
 12
0.1278471796
 22
-1.688061552
 32
0.0
 13
0.6956974518
 23
-1.543341103
 33
0.0
 40
0.0
 40
0.0
 40
0.0
 40
0.0
 40
0.0994487293
 40
0.1982410428
 40
0.2951515135
 40
0.389225246
 40
0.480723723
 40
0.5709101839
 40
0.6599274556
 40
0.7471425123
 40
0.8326363975
 40
0.9167966359
 40
1.0
 40
1.0
 40
1.0
 40
1.0
 10
28.853935223
 20
19.6703475817
 30
0.0
 10
28.8581733028
 20
19.6143890563
 30
0.0
 10
28.868130186
 20
19.5029491085
 30
0.0
 10
28.8876122881
 20
19.3375169259
 30
0.0
 10
28.911440458
 20
19.1757178247
 30
0.0
 10
28.9393244578
 20
19.0187470884
 30
0.0
 10
28.9711386921
 20
18.8663994039
 30
0.0
 10
29.0069586931
 20
18.7178760279
 30
0.0
 10
29.0468393329
 20
18.5728951288
 30
0.0
 10
29.0906572474
 20
18.4318249482
 30
0.0
 10
29.1382872882
 20
18.2948929143
 30
0.0
 10
29.1897997174
 20
18.1617990696
 30
0.0
 10
29.2270170688
 20
18.0749715859
 30
0.0
 10
29.2463118583
 20
18.032167862
 30
0.0
 11
28.853935223
 21
19.6703475817
 31
0.0
 11
28.8689504526
 21
19.5026621504
 31
0.0
 11
28.8885455302
 21
19.3365689267
 31
0.0
 11
28.9124841741
 21
19.1742654777
 31
0.0
 11
28.9403731413
 21
19.017469398
 31
0.0
 11
28.9720712324
 21
18.8658500194
 31
0.0
 11
29.0079017382
 21
18.717437669
 31
0.0
 11
29.0479061984
 21
18.5721475365
 31
0.0
 11
29.0917384432
 21
18.4311578896
 31
0.0
 11
29.1393228222
 21
18.2944715637
 31
0.0
 11
29.1907840624
 21
18.1616155078
 31
0.0
 11
29.2463118583
 21
18.032167862
 31
0.0
  0
SPLINE
  5
40A
100
AcDbEntity
  8
0
100
AcDbSpline
 62
7
  6
CONTINUOUS
 70
0
 71
3
 72
12
 73
8
 74
6
 42
0.0000001
 43
0.0000001
 44
0.0000000001
 12
-0.7538005872
 22
0.1993050875
 32
0.0
 13
-0.7344507813
 23
0.2617630475
 33
0.0
 40
0.0
 40
0.0
 40
0.0
 40
0.0
 40
0.2031922224
 40
0.4037019467
 40
0.6024734814
 40
0.8012652599
 40
1.0
 40
1.0
 40
1.0
 40
1.0
 10
30.0549650758
 20
20.0619302089
 30
0.0
 10
30.0039096036
 20
20.0754292901
 30
0.0
 10
29.9026814401
 20
20.1030466986
 30
0.0
 10
29.7522951968
 20
20.146686635
 30
0.0
 10
29.6037381296
 20
20.1924539772
 30
0.0
 10
29.4564147655
 20
20.2405832304
 30
0.0
 10
29.3587760165
 20
20.2743849553
 30
0.0
 10
29.3101223881
 20
20.2917254257
 30
0.0
 11
30.0549650758
 21
20.0619302089
 31
0.0
 11
29.9021248866
 21
20.1036417717
 31
0.0
 11
29.7519843496
 21
20.1472243728
 31
0.0
 11
29.6038752899
 21
20.1928687086
 31
0.0
 11
29.4565445807
 21
20.2410169577
 31
0.0
 11
29.3101223881
 21
20.2917254257
 31
0.0
  0
SPLINE
  5
40B
100
AcDbEntity
  8
0
100
AcDbSpline
 62
7
  6
CONTINUOUS
 70
0
 71
3
 72
15
 73
11
 74
9
 42
0.0000001
 43
0.0000001
 44
0.0000000001
 12
-0.303220478
 22
-1.3127623572
 32
0.0
 13
-0.0946213128
 23
-1.343976994
 33
0.0
 40
0.0
 40
0.0
 40
0.0
 40
0.0
 40
0.0292799595
 40
0.1699813234
 40
0.3092964326
 40
0.4473822672
 40
0.5860115923
 40
0.7253718294
 40
0.8639466301
 40
1.0
 40
1.0
 40
1.0
 40
1.0
 10
29.0566971397
 20
22.0159572871
 30
0.0
 10
29.0537377119
 20
22.0031447443
 30
0.0
 10
29.0367127591
 20
21.9287270907
 30
0.0
 10
29.0073870974
 20
21.792942682
 30
0.0
 10
28.9715251604
 20
21.6086151944
 30
0.0
 10
28.9396725363
 20
21.424496683
 30
0.0
 10
28.9117519042
 20
21.2397197132
 30
0.0
 10
28.8878801246
 20
21.0541534081
 30
0.0
 10
28.8683452624
 20
20.8692441901
 30
0.0
 10
28.8582264058
 20
20.7463108722
 30
0.0
 10
28.853935223
 20
20.6853600059
 30
0.0
 11
29.0566971397
 21
22.0159572871
 31
0.0
 11
29.0478994315
 21
21.9775011595
 31
0.0
 11
29.0078948489
 21
21.7922028588
 31
0.0
 11
28.9720641021
 21
21.6079547651
 31
0.0
 11
28.9403659072
 21
21.424631469
 31
0.0
 11
28.912478339
 21
21.2399493481
 31
0.0
 11
28.8885422251
 21
21.0537207431
 31
0.0
 11
28.8689493852
 21
20.8680492945
 31
0.0
 11
28.853935223
 21
20.6853600059
 31
0.0
  0
SPLINE
  5
40C
100
AcDbEntity
  8
0
100
AcDbSpline
 62
7
  6
CONTINUOUS
 70
0
 71
3
 72
10
 73
6
 74
4
 42
0.0000001
 43
0.0000001
 44
0.0000000001
 12
-0.7285342263
 22
-0.2595778186
 32
0.0
 13
-0.743418329
 23
0.2033580644
 33
0.0
 40
0.0
 40
0.0
 40
0.0
 40
0.0
 40
0.1768844456
 40
0.5731463157
 40
1.0
 40
1.0
 40
1.0
 40
1.0
 10
30.0069266884
 20
18.0419294977
 30
0.0
 10
29.9639712308
 20
18.0266244048
 30
0.0
 10
29.8215713629
 20
17.9860317827
 30
0.0
 10
29.5625102769
 20
17.9671394844
 30
0.0
 10
29.3520888091
 20
18.003233149
 30
0.0
 10
29.2463118583
 20
18.032167862
 30
0.0
 11
30.0069266884
 21
18.0419294977
 31
0.0
 11
29.8754972202
 21
18.0044039769
 31
0.0
 11
29.5710880085
 21
17.9796866192
 31
0.0
 11
29.2463118583
 21
18.032167862
 31
0.0
  0
SPLINE
  5
40D
100
AcDbEntity
  8
0
100
AcDbSpline
 62
7
  6
CONTINUOUS
 70
0
 71
3
 72
14
 73
10
 74
8
 42
0.0000001
 43
0.0000001
 44
0.0000000001
 12
1.4484036971
 22
-0.4130139988
 32
0.0
 13
0.7308767419
 23
-1.3149836384
 33
0.0
 40
0.0
 40
0.0
 40
0.0
 40
0.0
 40
0.0986229166
 40
0.269852271
 40
0.4379754524
 40
0.5990913136
 40
0.749037306
 40
0.8838277879
 40
1.0
 40
1.0
 40
1.0
 40
1.0
 10
48.6808317253
 20
31.8735358553
 30
0.0
 10
48.728446991
 20
31.8599583069
 30
0.0
 10
48.8568769683
 20
31.8163873315
 30
0.0
 10
49.0553975112
 20
31.7206102948
 30
0.0
 10
49.2653371382
 20
31.581882868
 30
0.0
 10
49.449139982
 20
31.4262999414
 30
0.0
 10
49.603601796
 20
31.2640808721
 30
0.0
 10
49.7271090573
 20
31.105050896
 30
0.0
 10
49.794360962
 20
30.9983810642
 30
0.0
 10
49.8226634846
 20
30.9474595449
 30
0.0
 11
48.6808317253
 21
31.8735358553
 31
0.0
 11
48.8215049148
 21
31.8260481516
 31
0.0
 11
49.0538867018
 21
31.7148755307
 31
0.0
 11
49.2651935044
 21
31.5758636649
 31
0.0
 11
49.4503257444
 21
31.4194055213
 31
0.0
 11
49.6058222018
 21
31.2559740395
 31
0.0
 11
49.7299422473
 21
31.0956117552
 31
0.0
 11
49.8226634846
 21
30.9474595449
 31
0.0
  0
SPLINE
  5
40E
100
AcDbEntity
  8
0
100
AcDbSpline
 62
7
  6
CONTINUOUS
 70
0
 71
3
 72
12
 73
8
 74
6
 42
0.0000001
 43
0.0000001
 44
0.0000000001
 12
-0.4846905088
 22
0.3399843163
 32
0.0
 13
-0.4301881365
 23
0.4067583948
 33
0.0
 40
0.0
 40
0.0
 40
0.0
 40
0.0
 40
0.2112889118
 40
0.4160796887
 40
0.6146197839
 40
0.8089140402
 40
1.0
 40
1.0
 40
1.0
 40
1.0
 10
27.768353923
 20
20.4563918756
 30
0.0
 10
27.7342173463
 20
20.4803368477
 30
0.0
 10
27.6676174447
 20
20.5283875519
 30
0.0
 10
27.571247958
 20
20.6020676851
 30
0.0
 10
27.4796218831
 20
20.6763538487
 30
0.0
 10
27.3922716468
 20
20.7515391342
 30
0.0
 10
27.3361644602
 20
20.8029046134
 30
0.0
 10
27.3087634892
 20
20.8288132195
 30
0.0
 11
27.768353923
 21
20.4563918756
 31
0.0
 11
27.666928168
 21
20.5296095255
 31
0.0
 11
27.5706295639
 21
20.6032769325
 31
0.0
 11
27.479344625
 21
20.6773288669
 31
0.0
 11
27.3921838814
 21
20.7523955521
 31
0.0
 11
27.3087634892
 21
20.8288132195
 31
0.0
  0
SPLINE
  5
40F
100
AcDbEntity
  8
0
100
AcDbSpline
 62
7
  6
CONTINUOUS
 70
0
 71
3
 72
18
 73
14
 74
12
 42
0.0000001
 43
0.0000001
 44
0.0000000001
 12
-0.6956974515
 22
1.5433411025
 32
0.0
 13
-0.1278471795
 23
1.6880615514
 33
0.0
 40
0.0
 40
0.0
 40
0.0
 40
0.0
 40
0.0832064168
 40
0.1673706447
 40
0.2528685759
 40
0.3400867613
 40
0.4291060942
 40
0.5192954576
 40
0.610797256
 40
0.7048699557
 40
0.8017738049
 40
0.9005573899
 40
1.0
 40
1.0
 40
1.0
 40
1.0
 10
28.5392050771
 20
18.3857212526
 30
0.0
 10
28.5199095797
 20
18.428526547
 30
0.0
 10
28.4826907207
 20
18.515357711
 30
0.0
 10
28.4311763141
 20
18.6484575037
 30
0.0
 10
28.3835446988
 20
18.7853956639
 30
0.0
 10
28.3397259178
 20
18.9264710353
 30
0.0
 10
28.2998448699
 20
19.0714565598
 30
0.0
 10
28.2640246869
 20
19.2199847033
 30
0.0
 10
28.2322109073
 20
19.372335477
 30
0.0
 10
28.2043284279
 20
19.5293039985
 30
0.0
 10
28.180502492
 20
19.691094079
 30
0.0
 10
28.1610223055
 20
19.8565142825
 30
0.0
 10
28.1510662609
 20
19.9679458901
 30
0.0
 10
28.1468284418
 20
20.0239009723
 30
0.0
 11
28.5392050771
 21
18.3857212526
 31
0.0
 11
28.4836753295
 21
18.5151736845
 31
0.0
 11
28.4322119285
 21
18.648036146
 31
0.0
 11
28.38462579
 21
18.784729112
 31
0.0
 11
28.3407926503
 21
18.9257240272
 31
0.0
 11
28.3007880677
 21
19.0710177453
 31
0.0
 11
28.2649573209
 21
19.2194350923
 31
0.0
 11
28.233259126
 21
19.3710601935
 31
0.0
 11
28.2053715578
 21
19.5278547461
 31
0.0
 11
28.1814354439
 21
19.6901472373
 31
0.0
 11
28.161842604
 21
19.856225846
 31
0.0
 11
28.1468284418
 21
20.0239009723
 31
0.0
  0
SPLINE
  5
410
100
AcDbEntity
  8
0
100
AcDbSpline
 62
7
  6
CONTINUOUS
 70
0
 71
3
 72
16
 73
12
 74
10
 42
0.0000001
 43
0.0000001
 44
0.0000000001
 12
0.110616467
 22
1.5711680843
 32
0.0
 13
0.3910084721
 23
1.5257781274
 33
0.0
 40
0.0
 40
0.0
 40
0.0
 40
0.0
 40
0.1163872881
 40
0.234934946
 40
0.3541523748
 40
0.4727378525
 40
0.5908528029
 40
0.7100196374
 40
0.8303732501
 40
0.9509710342
 40
1.0
 40
1.0
 40
1.0
 40
1.0
 10
28.1468284418
 20
21.0389133965
 30
0.0
 10
28.151119892
 20
21.0998680606
 30
0.0
 10
28.1612396164
 20
21.2228108137
 30
0.0
 10
28.1807764102
 20
21.4077339487
 30
0.0
 10
28.204650411
 20
21.5933113297
 30
0.0
 10
28.2325725296
 20
21.7780917983
 30
0.0
 10
28.2644255876
 20
21.9622075797
 30
0.0
 10
28.3002873435
 20
22.1465301447
 30
0.0
 10
28.340204156
 20
22.331350835
 30
0.0
 10
28.3753485433
 20
22.4794945696
 30
0.0
 10
28.3971119769
 20
22.5658539394
 30
0.0
 10
28.403502224
 20
22.590789714
 30
0.0
 11
28.1468284418
 21
21.0389133965
 31
0.0
 11
28.1618436715
 21
21.2216140575
 31
0.0
 11
28.181438749
 21
21.4073023588
 31
0.0
 11
28.2053773929
 21
21.5935444517
 31
0.0
 11
28.2332663601
 21
21.7782294985
 31
0.0
 11
28.2649644513
 21
21.9615469682
 31
0.0
 11
28.300794957
 21
22.1457898244
 31
0.0
 11
28.3407994172
 21
22.3310844172
 31
0.0
 11
28.384631662
 21
22.5159063088
 31
0.0
 11
28.403502224
 21
22.590789714
 31
0.0
  0
SPLINE
  5
411
100
AcDbEntity
  8
0
100
AcDbSpline
 62
7
  6
CONTINUOUS
 70
0
 71
3
 72
12
 73
8
 74
6
 42
0.0000001
 43
0.0000001
 44
0.0000000001
 12
-0.7538005872
 22
0.1993050875
 32
0.0
 13
-0.7344507813
 23
0.2617630475
 33
0.0
 40
0.0
 40
0.0
 40
0.0
 40
0.0
 40
0.2031922224
 40
0.4037019467
 40
0.6024734814
 40
0.8012652599
 40
1.0
 40
1.0
 40
1.0
 40
1.0
 10
30.0549650758
 20
19.4557124262
 30
0.0
 10
30.0039096036
 20
19.4692115074
 30
0.0
 10
29.9026814401
 20
19.4968289159
 30
0.0
 10
29.7522951968
 20
19.5404688523
 30
0.0
 10
29.6037381296
 20
19.5862361945
 30
0.0
 10
29.4564147655
 20
19.6343654478
 30
0.0
 10
29.3587760165
 20
19.6681671727
 30
0.0
 10
29.3101223881
 20
19.6855076431
 30
0.0
 11
30.0549650758
 21
19.4557124262
 31
0.0
 11
29.9021248866
 21
19.497423989
 31
0.0
 11
29.7519843496
 21
19.5410065902
 31
0.0
 11
29.6038752899
 21
19.5866509259
 31
0.0
 11
29.4565445807
 21
19.634799175
 31
0.0
 11
29.3101223881
 21
19.6855076431
 31
0.0
  0
SPLINE
  5
412
100
AcDbEntity
  8
0
100
AcDbSpline
 62
7
  6
CONTINUOUS
 70
0
 71
3
 72
8
 73
4
 74
2
 42
0.0000001
 43
0.0000001
 44
0.0000000001
 12
0.0
 22
-0.1048482284
 32
0.0
 13
-0.0112456968
 23
-0.1043946643
 33
0.0
 40
0.0
 40
0.0
 40
0.0
 40
0.0
 40
1.0
 40
1.0
 40
1.0
 40
1.0
 10
49.8130686844
 20
30.3038671339
 30
0.0
 10
49.8130686844
 20
30.2689177245
 30
0.0
 10
49.8113534862
 20
30.23390683
 30
0.0
 10
49.8076049206
 20
30.1991086085
 30
0.0
 11
49.8130686844
 21
30.3038671339
 31
0.0
 11
49.8076049206
 21
30.1991086085
 31
0.0
  0
SPLINE
  5
413
100
AcDbEntity
  8
0
100
AcDbSpline
 62
7
  6
CONTINUOUS
 70
0
 71
3
 72
10
 73
6
 74
4
 42
0.0000001
 43
0.0000001
 44
0.0000000001
 12
0.5518436653
 22
-0.3357149291
 32
0.0
 13
0.4210028359
 23
-0.4898903518
 33
0.0
 40
0.0
 40
0.0
 40
0.0
 40
0.0
 40
0.3534105167
 40
0.6910610321
 40
1.0
 40
1.0
 40
1.0
 40
1.0
 10
49.3324737674
 20
31.3645538678
 30
0.0
 10
49.3974828857
 20
31.3250054723
 30
0.0
 10
49.5201471398
 20
31.2401014998
 30
0.0
 10
49.6832890612
 20
31.099068089
 30
0.0
 10
49.7793087574
 20
30.9979082848
 30
0.0
 10
49.8226634846
 20
30.9474595449
 30
0.0
 11
49.3324737674
 21
31.3645538678
 31
0.0
 11
49.5203493113
 21
31.2348807037
 31
0.0
 11
49.685391743
 21
31.0923002798
 31
0.0
 11
49.8226634846
 21
30.9474595449
 31
0.0
  0
SPLINE
  5
414
100
AcDbEntity
  8
0
100
AcDbSpline
 62
7
  6
CONTINUOUS
 70
0
 71
3
 72
9
 73
5
 74
3
 42
0.0000001
 43
0.0000001
 44
0.0000000001
 12
0.1283787156
 22
-0.0829485079
 32
0.0
 13
0.1302838867
 23
-0.0799228282
 33
0.0
 40
0.0
 40
0.0
 40
0.0
 40
0.0
 40
0.5226635613
 40
1.0
 40
1.0
 40
1.0
 40
1.0
 10
49.8226634846
 20
30.9474595449
 30
0.0
 10
49.8450297769
 20
30.9330081573
 30
0.0
 10
49.8878407426
 20
30.9053870346
 30
0.0
 10
49.9309462868
 20
30.8782216115
 30
0.0
 10
49.9516760357
 20
30.8655049187
 30
0.0
 11
49.8226634846
 21
30.9474595449
 31
0.0
 11
49.8898617126
 21
30.9042595354
 31
0.0
 11
49.9516760357
 21
30.8655049187
 31
0.0
  0
SPLINE
  5
415
100
AcDbEntity
  8
0
100
AcDbSpline
 62
7
  6
CONTINUOUS
 70
0
 71
3
 72
11
 73
7
 74
5
 42
0.0000001
 43
0.0000001
 44
0.0000000001
 12
0.8584517474
 22
0.2548171573
 32
0.0
 13
0.8276262564
 23
-0.3393985685
 33
0.0
 40
0.0
 40
0.0
 40
0.0
 40
0.0
 40
0.2013878672
 40
0.462891814
 40
0.7286648827
 40
1.0
 40
1.0
 40
1.0
 40
1.0
 10
48.4564494166
 20
31.4324945676
 30
0.0
 10
48.5140766721
 20
31.4496002622
 30
0.0
 10
48.6500605653
 20
31.4779241534
 30
0.0
 10
48.8685555864
 20
31.4831829223
 30
0.0
 10
49.1048479463
 20
31.4456164753
 30
0.0
 10
49.2576190783
 20
31.3952507846
 30
0.0
 10
49.3324737674
 20
31.3645538678
 30
0.0
 11
48.4564494166
 21
31.4324945676
 31
0.0
 11
48.6329335056
 21
31.4695168578
 31
0.0
 11
48.8667595528
 21
31.4761153853
 31
0.0
 11
49.1016969795
 21
31.4397323275
 31
0.0
 11
49.3324737674
 21
31.3645538678
 31
0.0
  0
SPLINE
  5
416
100
AcDbEntity
  8
0
100
AcDbSpline
 62
7
  6
CONTINUOUS
 70
0
 71
3
 72
14
 73
10
 74
8
 42
0.0000001
 43
0.0000001
 44
0.0000000001
 12
0.0
 22
1.1946006046
 32
0.0
 13
-0.8817073386
 23
0.8060166088
 33
0.0
 40
0.0
 40
0.0
 40
0.0
 40
0.0
 40
0.1332233404
 40
0.2740144691
 40
0.4200159045
 40
0.5684890876
 40
0.7165250722
 40
0.8612446014
 40
1.0
 40
1.0
 40
1.0
 40
1.0
 10
49.8130686844
 20
30.3038671339
 30
0.0
 10
49.8130686844
 20
30.356916695
 30
0.0
 10
49.8049278636
 20
30.4661262203
 30
0.0
 10
49.771482149
 20
30.6303785144
 30
0.0
 10
49.7174607839
 20
30.7954583583
 30
0.0
 10
49.6445367909
 20
30.9562426267
 30
0.0
 10
49.554951169
 20
31.1077980901
 30
0.0
 10
49.451491581
 20
31.2454203479
 30
0.0
 10
49.3732543185
 20
31.3272741492
 30
0.0
 10
49.3324737674
 20
31.3645538678
 30
0.0
 11
49.8130686844
 21
30.3038671339
 31
0.0
 11
49.8019192697
 21
30.4626247916
 31
0.0
 11
49.7688226255
 21
30.6275253925
 31
0.0
 11
49.7148224648
 21
30.7933687456
 31
0.0
 11
49.6416216992
 21
30.9549249298
 31
0.0
 11
49.5515287375
 21
31.1070992212
 31
0.0
 11
49.4473846887
 21
31.2450927567
 31
0.0
 11
49.3324737674
 21
31.3645538678
 31
0.0
  0
SPLINE
  5
417
100
AcDbEntity
  8
0
100
AcDbSpline
 62
7
  6
CONTINUOUS
 70
0
 71
3
 72
12
 73
8
 74
6
 42
0.0000001
 43
0.0000001
 44
0.0000000001
 12
1.3801350427
 22
-0.8111158202
 32
0.0
 13
0.5895339686
 23
-1.4880515576
 33
0.0
 40
0.0
 40
0.0
 40
0.0
 40
0.0
 40
0.1616581456
 40
0.3883286027
 40
0.6134257665
 40
0.8296014523
 40
1.0
 40
1.0
 40
1.0
 40
1.0
 10
48.5426561709
 20
31.277363102
 30
0.0
 10
48.6170261948
 20
31.2336552755
 30
0.0
 10
48.789142472
 20
31.1175880513
 30
0.0
 10
49.0346944263
 20
30.8999431555
 30
0.0
 10
49.2665031674
 20
30.6282631717
 30
0.0
 10
49.4436079178
 20
30.353334798
 30
0.0
 10
49.5324166036
 20
30.1667624216
 30
0.0
 10
49.5659018476
 20
30.0822418134
 30
0.0
 11
48.5426561709
 21
31.277363102
 31
0.0
 11
48.7574386323
 21
31.1332567414
 31
0.0
 11
49.0292683649
 21
30.8934779579
 31
0.0
 11
49.262996257
 21
30.6197280521
 31
0.0
 11
49.4496320941
 21
30.3287507599
 31
0.0
 11
49.5659018476
 21
30.0822418134
 31
0.0
  0
SPLINE
  5
418
100
AcDbEntity
  8
0
100
AcDbSpline
 62
7
  6
CONTINUOUS
 70
0
 71
3
 72
9
 73
5
 74
3
 42
0.0000001
 43
0.0000001
 44
0.0000000001
 12
0.0
 22
1.0531625077
 32
0.0
 13
-0.2848675
 23
1.0154254249
 33
0.0
 40
0.0
 40
0.0
 40
0.0
 40
0.0
 40
0.7403191824
 40
1.0
 40
1.0
 40
1.0
 40
1.0
 10
-68.051581233
 20
68.2451711978
 30
0.0
 10
-68.051581233
 20
68.5050633333
 30
0.0
 10
-68.0939957296
 20
68.8566542515
 30
0.0
 10
-68.1786087467
 20
69.1981291826
 30
0.0
 10
-68.2032669551
 20
69.2860246842
 30
0.0
 11
-68.051581233
 21
68.2451711978
 31
0.0
 11
-68.1375096121
 21
69.0200980412
 31
0.0
 11
-68.2032669551
 21
69.2860246842
 31
0.0
  0
SPLINE
  5
419
100
AcDbEntity
  8
0
100
AcDbSpline
 62
7
  6
CONTINUOUS
 70
0
 71
3
 72
10
 73
6
 74
4
 42
0.0000001
 43
0.0000001
 44
0.0000000001
 12
-0.4138066144
 22
1.4750357879
 32
0.0
 13
-0.8567334925
 23
1.2702192752
 33
0.0
 40
0.0
 40
0.0
 40
0.0
 40
0.0
 40
0.3680589131
 40
0.9260601688
 40
1.0
 40
1.0
 40
1.0
 40
1.0
 10
-68.2032669551
 20
69.2860246842
 30
0.0
 10
-68.2540353594
 20
69.4669913738
 30
0.0
 10
-68.4104180029
 20
69.9140069543
 30
0.0
 10
-68.6475833876
 20
70.3683634715
 30
0.0
 10
-68.8248360167
 20
70.6381005189
 30
0.0
 10
-68.8459515933
 20
70.6694071185
 30
0.0
 11
-68.2032669551
 21
69.2860246842
 31
0.0
 11
-68.3883333433
 21
69.8181732996
 31
0.0
 11
-68.7837321795
 21
70.5747416619
 31
0.0
 11
-68.8459515933
 21
70.6694071185
 31
0.0
  0
SPLINE
  5
41A
100
AcDbEntity
  8
0
100
AcDbSpline
 62
7
  6
CONTINUOUS
 70
0
 71
3
 72
12
 73
8
 74
6
 42
0.0000001
 43
0.0000001
 44
0.0000000001
 12
-1.8000442677
 22
2.6688006772
 32
0.0
 13
-2.8958309603
 23
-1.4398632171
 33
0.0
 40
0.0
 40
0.0
 40
0.0
 40
0.0
 40
0.2223753023
 40
0.4600502836
 40
0.6700671084
 40
0.8520701437
 40
1.0
 40
1.0
 40
1.0
 40
1.0
 10
-68.8459515933
 20
70.6694071185
 30
0.0
 10
-68.979380056
 20
70.8672322376
 30
0.0
 10
-69.2864978039
 20
71.2555279488
 30
0.0
 10
-69.8297496061
 20
71.733162137
 30
0.0
 10
-70.4342554619
 20
72.0504589691
 30
0.0
 10
-71.0181046889
 20
72.1489809688
 30
0.0
 10
-71.3721732558
 20
72.059793682
 30
0.0
 10
-71.5149665417
 20
71.9887940957
 30
0.0
 11
-68.8459515933
 21
70.6694071185
 31
0.0
 11
-69.2916732585
 21
71.2285104587
 31
0.0
 11
-69.871006215
 21
71.7265152304
 31
0.0
 11
-70.4747969382
 21
72.028410592
 31
0.0
 11
-71.0541298947
 21
72.1097387768
 31
0.0
 11
-71.5149665417
 21
71.9887940957
 31
0.0
  0
SPLINE
  5
41B
100
AcDbEntity
  8
0
100
AcDbSpline
 62
7
  6
CONTINUOUS
 70
0
 71
3
 72
11
 73
7
 74
5
 42
0.0000001
 43
0.0000001
 44
0.0000000001
 12
0.0
 22
-1.8848198536
 32
0.0
 13
-1.6980704337
 23
-0.8443134945
 33
0.0
 40
0.0
 40
0.0
 40
0.0
 40
0.0
 40
0.3683832505
 40
0.6877739873
 40
0.9718976198
 40
1.0
 40
1.0
 40
1.0
 40
1.0
 10
30.2362613519
 20
19.1012499053
 30
0.0
 10
30.2362613519
 20
18.8698045505
 30
0.0
 10
30.1899107594
 20
18.4347339393
 30
0.0
 10
29.9457279907
 20
17.8618460493
 30
0.0
 10
29.647439709
 20
17.5790041168
 30
0.0
 10
29.4729125805
 20
17.4868564239
 30
0.0
 10
29.4570059735
 20
17.4789473509
 30
0.0
 11
30.2362613519
 21
19.1012499053
 31
0.0
 11
30.1503329728
 21
18.412251441
 31
0.0
 11
29.8995092416
 21
17.8649999137
 31
0.0
 11
29.5041104055
 21
17.5038303877
 31
0.0
 11
29.4570059735
 21
17.4789473509
 31
0.0
  0
SPLINE
  5
41C
100
AcDbEntity
  8
0
100
AcDbSpline
 62
7
  6
CONTINUOUS
 70
0
 71
3
 72
11
 73
7
 74
5
 42
0.0000001
 43
0.0000001
 44
0.0000000001
 12
0.0
 22
-1.8848198536
 32
0.0
 13
-1.6980704337
 23
-0.8443134945
 33
0.0
 40
0.0
 40
0.0
 40
0.0
 40
0.0
 40
0.3683832505
 40
0.6877739873
 40
0.9718976198
 40
1.0
 40
1.0
 40
1.0
 40
1.0
 10
-68.051581233
 20
-29.6156994299
 30
0.0
 10
-68.051581233
 20
-29.8471447846
 30
0.0
 10
-68.0979318255
 20
-30.2822153958
 30
0.0
 10
-68.3421145942
 20
-30.8551032858
 30
0.0
 10
-68.640402876
 20
-31.1379452184
 30
0.0
 10
-68.8149300044
 20
-31.2300929113
 30
0.0
 10
-68.8308366114
 20
-31.2380019843
 30
0.0
 11
-68.051581233
 21
-29.6156994299
 31
0.0
 11
-68.1375096121
 21
-30.3046978942
 31
0.0
 11
-68.3883333433
 21
-30.8519494214
 31
0.0
 11
-68.7837321795
 21
-31.2131189475
 31
0.0
 11
-68.8308366114
 21
-31.2380019843
 31
0.0
  0
SPLINE
  5
41D
100
AcDbEntity
  8
0
100
AcDbSpline
 62
7
  6
CONTINUOUS
 70
0
 71
3
 72
9
 73
5
 74
3
 42
0.0000001
 43
0.0000001
 44
0.0000000001
 12
0.0
 22
1.0531625077
 32
0.0
 13
-0.2848675
 23
1.0154254249
 33
0.0
 40
0.0
 40
0.0
 40
0.0
 40
0.0
 40
0.7403191824
 40
1.0
 40
1.0
 40
1.0
 40
1.0
 10
30.2362613519
 20
-78.7596207223
 30
0.0
 10
30.2362613519
 20
-78.4997285868
 30
0.0
 10
30.1938468554
 20
-78.1481376686
 30
0.0
 10
30.1092338383
 20
-77.8066627375
 30
0.0
 10
30.0845756298
 20
-77.7187672359
 30
0.0
 11
30.2362613519
 21
-78.7596207223
 31
0.0
 11
30.1503329728
 21
-77.9846938789
 31
0.0
 11
30.0845756298
 21
-77.7187672359
 31
0.0
  0
SPLINE
  5
41E
100
AcDbEntity
  8
0
100
AcDbSpline
 62
7
  6
CONTINUOUS
 70
0
 71
3
 72
10
 73
6
 74
4
 42
0.0000001
 43
0.0000001
 44
0.0000000001
 12
-0.4138066144
 22
1.4750357879
 32
0.0
 13
-0.8567334925
 23
1.2702192752
 33
0.0
 40
0.0
 40
0.0
 40
0.0
 40
0.0
 40
0.3680589131
 40
0.9260601688
 40
1.0
 40
1.0
 40
1.0
 40
1.0
 10
30.0845756298
 20
-77.7187672359
 30
0.0
 10
30.0338072256
 20
-77.5378005463
 30
0.0
 10
29.8774245821
 20
-77.0907849658
 30
0.0
 10
29.6402591973
 20
-76.6364284486
 30
0.0
 10
29.4630065683
 20
-76.3666914012
 30
0.0
 10
29.4418909916
 20
-76.3353848016
 30
0.0
 11
30.0845756298
 21
-77.7187672359
 31
0.0
 11
29.8995092416
 21
-77.1866186205
 31
0.0
 11
29.5041104055
 21
-76.4300502582
 31
0.0
 11
29.4418909916
 21
-76.3353848016
 31
0.0
  0
SPLINE
  5
41F
100
AcDbEntity
  8
0
100
AcDbSpline
 62
7
  6
CONTINUOUS
 70
0
 71
3
 72
12
 73
8
 74
6
 42
0.0000001
 43
0.0000001
 44
0.0000000001
 12
-1.8000442677
 22
2.6688006772
 32
0.0
 13
-2.8958309603
 23
-1.4398632171
 33
0.0
 40
0.0
 40
0.0
 40
0.0
 40
0.0
 40
0.2223753023
 40
0.4600502836
 40
0.6700671084
 40
0.8520701437
 40
1.0
 40
1.0
 40
1.0
 40
1.0
 10
29.4418909916
 20
-76.3353848016
 30
0.0
 10
29.3084625289
 20
-76.1375596825
 30
0.0
 10
29.001344781
 20
-75.7492639714
 30
0.0
 10
28.4580929788
 20
-75.2716297831
 30
0.0
 10
27.8535871231
 20
-74.954332951
 30
0.0
 10
27.2697378961
 20
-74.8558109513
 30
0.0
 10
26.9156693292
 20
-74.9449982381
 30
0.0
 10
26.7728760432
 20
-75.0159978244
 30
0.0
 11
29.4418909916
 21
-76.3353848016
 31
0.0
 11
28.9961693265
 21
-75.7762814614
 31
0.0
 11
28.41683637
 21
-75.2782766897
 31
0.0
 11
27.8130456467
 21
-74.9763813281
 31
0.0
 11
27.2337126903
 21
-74.8950531433
 31
0.0
 11
26.7728760432
 21
-75.0159978244
 31
0.0
  0
SPLINE
  5
420
100
AcDbEntity
  8
0
100
AcDbSpline
 62
7
  6
CONTINUOUS
 70
0
 71
3
 72
14
 73
10
 74
8
 42
0.0000001
 43
0.0000001
 44
0.0000000001
 12
0.0
 22
14.7133219561
 32
0.0
 13
-13.1599952275
 23
6.5799976137
 33
0.0
 40
0.0
 40
0.0
 40
0.0
 40
0.0
 40
0.1375292621
 40
0.2840848061
 40
0.4355534719
 40
0.5872669423
 40
0.7345302724
 40
0.8731477684
 40
1.0
 40
1.0
 40
1.0
 40
1.0
 10
46.2875852849
 20
23.7663506294
 30
0.0
 10
46.2875852849
 20
24.4408547336
 30
0.0
 10
46.1558364357
 20
25.8358000212
 30
0.0
 10
45.6285578089
 20
27.9130336089
 30
0.0
 10
44.7897138126
 20
29.9606896936
 30
0.0
 10
43.6800823609
 20
31.8788142117
 30
0.0
 10
42.3527834135
 20
33.5751610421
 30
0.0
 10
40.8722676749
 20
34.9673814618
 30
0.0
 10
39.7729757272
 20
35.6839094461
 30
0.0
 10
39.216517473
 20
35.9621385732
 30
0.0
 11
46.2875852849
 21
23.7663506294
 31
0.0
 11
46.1102988517
 21
25.7820816628
 31
0.0
 11
45.5873294343
 21
27.8740219584
 31
0.0
 11
44.744900903
 21
29.9372728945
 31
0.0
 11
43.6252561419
 21
31.8683744539
 31
0.0
 11
42.2845388148
 21
33.5704931407
 31
0.0
 11
40.7899780866
 21
34.9582776167
 31
0.0
 11
39.216517473
 21
35.9621385732
 31
0.0
  0
SPLINE
  5
421
100
AcDbEntity
  8
0
100
AcDbSpline
 62
7
  6
CONTINUOUS
 70
0
 71
3
 72
11
 73
7
 74
5
 42
0.0000001
 43
0.0000001
 44
0.0000000001
 12
-4.1412572325
 22
2.0706286162
 32
0.0
 13
-4.1588376331
 23
-2.0820439822
 33
0.0
 40
0.0
 40
0.0
 40
0.0
 40
0.0
 40
0.3614173717
 40
0.6850347852
 40
0.9849381792
 40
1.0
 40
1.0
 40
1.0
 40
1.0
 10
-73.2134607357
 20
92.1771276776
 30
0.0
 10
-73.7123681706
 20
92.426581395
 30
0.0
 10
-74.7124015539
 20
92.805063369
 30
0.0
 10
-76.2501326336
 20
92.9400367618
 30
0.0
 10
-77.2255453061
 20
92.6861981113
 30
0.0
 10
-77.6642550526
 20
92.4718010155
 30
0.0
 10
-77.6851349416
 20
92.4613478911
 30
0.0
 11
-73.2134607357
 21
92.1771276776
 31
0.0
 11
-74.7869213492
 21
92.7467273346
 31
0.0
 11
-76.2814820774
 21
92.8535035868
 31
0.0
 11
-77.6221994046
 21
92.4921022271
 31
0.0
 11
-77.6851349416
 21
92.4613478911
 31
0.0
  0
SPLINE
  5
422
100
AcDbEntity
  8
RACCORDO
100
AcDbSpline
 62
7
  6
CONTINUOUS
 70
0
 71
3
 72
14
 73
10
 74
8
 42
0.0000001
 43
0.0000001
 44
0.0000000001
 12
-0.0
 22
-13.9825644068
 32
0.0
 13
12.5063858054
 23
-6.2531929027
 33
0.0
 40
0.0
 40
0.0
 40
0.0
 40
0.0
 40
0.1405678058
 40
0.2862267885
 40
0.4341121545
 40
0.5818352937
 40
0.7270051809
 40
0.8672061216
 40
1.0
 40
1.0
 40
1.0
 40
1.0
 10
-83.4866100756
 20
-30.1442254841
 30
0.0
 10
-83.4866100756
 20
-30.7993916166
 30
0.0
 10
-83.3620842941
 20
-32.135290122
 30
0.0
 10
-82.8616422718
 20
-34.1027252446
 30
0.0
 10
-82.0764019895
 20
-36.0108154729
 30
0.0
 10
-81.0403212081
 20
-37.7921863585
 30
0.0
 10
-79.7868185229
 20
-39.3837565315
 30
0.0
 10
-78.3552897215
 20
-40.7181342812
 30
0.0
 10
-77.2777735092
 20
-41.412914975
 30
0.0
 10
-76.7241830171
 20
-41.6897102211
 30
0.0
 11
-83.4866100756
 21
-30.1442254841
 31
0.0
 11
-83.3147513601
 21
-32.1021959979
 31
0.0
 11
-82.8189115693
 21
-34.0776030952
 31
0.0
 11
-82.0338644334
 21
-35.9906024981
 31
0.0
 11
-80.9938090187
 21
-37.7751961634
 31
0.0
 11
-79.7333661779
 21
-39.3662850652
 31
0.0
 11
-78.2922278826
 21
-40.695256768
 31
0.0
 11
-76.7241830171
 21
-41.6897102211
 31
0.0
  0
SPLINE
  5
423
100
AcDbEntity
  8
RACCORDO
100
AcDbSpline
 62
7
  6
CONTINUOUS
 70
0
 71
3
 72
12
 73
8
 74
6
 42
0.0000001
 43
0.0000001
 44
0.0000000001
 12
-6.4877358447
 22
-3.2438679223
 32
0.0
 13
0.0
 23
-7.2535091845
 33
0.0
 40
0.0
 40
0.0
 40
0.0
 40
0.0
 40
0.1728513509
 40
0.3544696935
 40
0.551814504
 40
0.7678644432
 40
1.0
 40
1.0
 40
1.0
 40
1.0
 10
-80.3018917811
 20
91.1529980045
 30
0.0
 10
-80.6756964161
 20
90.966095687
 30
0.0
 10
-81.396688271
 20
90.4834747246
 30
0.0
 10
-82.2952914515
 20
89.4799636997
 30
0.0
 10
-82.9791452683
 20
88.1993866443
 30
0.0
 10
-83.3998269621
 20
86.6852264315
 30
0.0
 10
-83.4866100756
 20
85.5984190171
 30
0.0
 10
-83.4866100756
 20
85.0371532193
 30
0.0
 11
-80.3018917811
 21
91.1529980045
 31
0.0
 11
-81.3446731559
 21
90.4568885034
 31
0.0
 11
-82.2279767403
 21
89.4795250466
 31
0.0
 11
-82.9107671868
 21
88.2214214983
 31
0.0
 11
-83.341639099
 21
86.714698175
 31
0.0
 11
-83.4866100756
 21
85.0371532193
 31
0.0
  0
SPLINE
  5
424
100
AcDbEntity
  8
RACCORDO
100
AcDbSpline
 62
7
  6
CONTINUOUS
 70
0
 71
3
 72
11
 73
7
 74
5
 42
0.0000001
 43
0.0000001
 44
0.0000000001
 12
4.9738161427
 22
-2.4869080713
 32
0.0
 13
4.9738161426
 23
2.4869080713
 33
0.0
 40
0.0
 40
0.0
 40
0.0
 40
0.0
 40
0.2812331707
 40
0.5375775945
 40
0.7739321311
 40
1.0
 40
1.0
 40
1.0
 40
1.0
 10
35.7057951916
 20
-97.9046993254
 30
0.0
 10
36.172062553
 20
-98.1378330061
 30
0.0
 10
37.1081922369
 20
-98.5027004025
 30
0.0
 10
38.5384516007
 20
-98.722420616
 30
0.0
 10
39.878616439
 20
-98.6063227542
 30
0.0
 10
40.6975516657
 20
-98.3193169591
 30
0.0
 10
41.0723583376
 20
-98.1319136231
 30
0.0
 11
35.7057951916
 21
-97.9046993254
 31
0.0
 11
37.1672252604
 21
-98.4615038176
 31
0.0
 11
38.5775932237
 21
-98.6686883721
 31
0.0
 11
39.8864929728
 21
-98.5491950642
 31
0.0
 11
41.0723583376
 21
-98.1319136231
 31
0.0
  0
SPLINE
  5
425
100
AcDbEntity
  8
0
100
AcDbSpline
 62
7
  6
CONTINUOUS
 70
0
 71
3
 72
11
 73
7
 74
5
 42
0.0000001
 43
0.0000001
 44
0.0000000001
 12
1.6980704337
 22
0.8443134945
 32
0.0
 13
0.0
 23
1.8848198536
 33
0.0
 40
0.0
 40
0.0
 40
0.0
 40
0.0
 40
0.0281023802
 40
0.3122260127
 40
0.6316167495
 40
1.0
 40
1.0
 40
1.0
 40
1.0
 10
29.4570059735
 20
-80.3819232767
 30
0.0
 10
29.4729125805
 20
-80.3740142038
 30
0.0
 10
29.647439709
 20
-80.2818665108
 30
0.0
 10
29.9457279907
 20
-79.9990245783
 30
0.0
 10
30.1899107594
 20
-79.4261366883
 30
0.0
 10
30.2362613519
 20
-78.9910660771
 30
0.0
 10
30.2362613519
 20
-78.7596207223
 30
0.0
 11
29.4570059735
 21
-80.3819232767
 31
0.0
 11
29.5041104055
 21
-80.35704024
 31
0.0
 11
29.8995092416
 21
-79.9958707139
 31
0.0
 11
30.1503329728
 21
-79.4486191867
 31
0.0
 11
30.2362613519
 21
-78.7596207223
 31
0.0
  0
SPLINE
  5
426
100
AcDbEntity
  8
0
100
AcDbSpline
 62
7
  6
CONTINUOUS
 70
0
 71
3
 72
12
 73
8
 74
6
 42
0.0000001
 43
0.0000001
 44
0.0000000001
 12
2.8958309603
 22
1.4398632171
 32
0.0
 13
1.8000442677
 23
-2.6688006772
 33
0.0
 40
0.0
 40
0.0
 40
0.0
 40
0.0
 40
0.1479298563
 40
0.3299328916
 40
0.5399497164
 40
0.7776246977
 40
1.0
 40
1.0
 40
1.0
 40
1.0
 10
-71.5149665417
 20
-25.8720765319
 30
0.0
 10
-71.3721732558
 20
-25.8010769456
 30
0.0
 10
-71.0181046889
 20
-25.7118896588
 30
0.0
 10
-70.4342554619
 20
-25.8104116585
 30
0.0
 10
-69.8297496061
 20
-26.1277084907
 30
0.0
 10
-69.2864978039
 20
-26.6053426789
 30
0.0
 10
-68.979380056
 20
-26.99363839
 30
0.0
 10
-68.8459515933
 20
-27.1914635091
 30
0.0
 11
-71.5149665417
 21
-25.8720765319
 31
0.0
 11
-71.0541298947
 21
-25.7511318508
 31
0.0
 11
-70.4747969382
 21
-25.8324600356
 31
0.0
 11
-69.871006215
 21
-26.1343553973
 31
0.0
 11
-69.2916732585
 21
-26.6323601689
 31
0.0
 11
-68.8459515933
 21
-27.1914635091
 31
0.0
  0
SPLINE
  5
427
100
AcDbEntity
  8
0
100
AcDbSpline
 62
7
  6
CONTINUOUS
 70
0
 71
3
 72
10
 73
6
 74
4
 42
0.0000001
 43
0.0000001
 44
0.0000000001
 12
0.8567334925
 22
-1.2702192752
 32
0.0
 13
0.4138066144
 23
-1.4750357879
 33
0.0
 40
0.0
 40
0.0
 40
0.0
 40
0.0
 40
0.0739398312
 40
0.6319410869
 40
1.0
 40
1.0
 40
1.0
 40
1.0
 10
-68.8459515933
 20
-27.1914635091
 30
0.0
 10
-68.8248360167
 20
-27.2227701087
 30
0.0
 10
-68.6475833876
 20
-27.4925071561
 30
0.0
 10
-68.4104180029
 20
-27.9468636733
 30
0.0
 10
-68.2540353594
 20
-28.3938792539
 30
0.0
 10
-68.2032669551
 20
-28.5748459435
 30
0.0
 11
-68.8459515933
 21
-27.1914635091
 31
0.0
 11
-68.7837321795
 21
-27.2861289658
 31
0.0
 11
-68.3883333433
 21
-28.042697328
 31
0.0
 11
-68.2032669551
 21
-28.5748459435
 31
0.0
  0
SPLINE
  5
428
100
AcDbEntity
  8
0
100
AcDbSpline
 62
7
  6
CONTINUOUS
 70
0
 71
3
 72
9
 73
5
 74
3
 42
0.0000001
 43
0.0000001
 44
0.0000000001
 12
0.2848675
 22
-1.0154254249
 32
0.0
 13
0.0
 23
-1.0531625077
 33
0.0
 40
0.0
 40
0.0
 40
0.0
 40
0.0
 40
0.2596808176
 40
1.0
 40
1.0
 40
1.0
 40
1.0
 10
-68.2032669551
 20
-28.5748459435
 30
0.0
 10
-68.1786087467
 20
-28.662741445
 30
0.0
 10
-68.0939957296
 20
-29.0042163762
 30
0.0
 10
-68.051581233
 20
-29.3558072943
 30
0.0
 10
-68.051581233
 20
-29.6156994299
 30
0.0
 11
-68.2032669551
 21
-28.5748459435
 31
0.0
 11
-68.1375096121
 21
-28.8407725864
 31
0.0
 11
-68.051581233
 21
-29.6156994299
 31
0.0
  0
SPLINE
  5
429
100
AcDbEntity
  8
0
100
AcDbSpline
 62
7
  6
CONTINUOUS
 70
0
 71
3
 72
12
 73
8
 74
6
 42
0.0000001
 43
0.0000001
 44
0.0000000001
 12
2.8958309603
 22
1.4398632171
 32
0.0
 13
1.8000442677
 23
-2.6688006772
 33
0.0
 40
0.0
 40
0.0
 40
0.0
 40
0.0
 40
0.1479298563
 40
0.3299328916
 40
0.5399497164
 40
0.7776246977
 40
1.0
 40
1.0
 40
1.0
 40
1.0
 10
26.7728760432
 20
22.8448728033
 30
0.0
 10
26.9156693292
 20
22.9158723895
 30
0.0
 10
27.2697378961
 20
23.0050596764
 30
0.0
 10
27.8535871231
 20
22.9065376766
 30
0.0
 10
28.4580929788
 20
22.5892408445
 30
0.0
 10
29.001344781
 20
22.1116066563
 30
0.0
 10
29.3084625289
 20
21.7233109452
 30
0.0
 10
29.4418909916
 20
21.525485826
 30
0.0
 11
26.7728760432
 21
22.8448728033
 31
0.0
 11
27.2337126903
 21
22.9658174844
 31
0.0
 11
27.8130456467
 21
22.8844892995
 31
0.0
 11
28.41683637
 21
22.5825939379
 31
0.0
 11
28.9961693265
 21
22.0845891663
 31
0.0
 11
29.4418909916
 21
21.525485826
 31
0.0
  0
SPLINE
  5
42A
100
AcDbEntity
  8
0
100
AcDbSpline
 62
7
  6
CONTINUOUS
 70
0
 71
3
 72
10
 73
6
 74
4
 42
0.0000001
 43
0.0000001
 44
0.0000000001
 12
0.8567334925
 22
-1.2702192752
 32
0.0
 13
0.4138066144
 23
-1.4750357879
 33
0.0
 40
0.0
 40
0.0
 40
0.0
 40
0.0
 40
0.0739398312
 40
0.6319410869
 40
1.0
 40
1.0
 40
1.0
 40
1.0
 10
29.4418909916
 20
21.525485826
 30
0.0
 10
29.4630065683
 20
21.4941792264
 30
0.0
 10
29.6402591973
 20
21.224442179
 30
0.0
 10
29.8774245821
 20
20.7700856619
 30
0.0
 10
30.0338072256
 20
20.3230700813
 30
0.0
 10
30.0845756298
 20
20.1421033917
 30
0.0
 11
29.4418909916
 21
21.525485826
 31
0.0
 11
29.5041104055
 21
21.4308203694
 31
0.0
 11
29.8995092416
 21
20.6742520072
 31
0.0
 11
30.0845756298
 21
20.1421033917
 31
0.0
  0
SPLINE
  5
42B
100
AcDbEntity
  8
0
100
AcDbSpline
 62
7
  6
CONTINUOUS
 70
0
 71
3
 72
9
 73
5
 74
3
 42
0.0000001
 43
0.0000001
 44
0.0000000001
 12
0.2848675
 22
-1.0154254249
 32
0.0
 13
0.0
 23
-1.0531625077
 33
0.0
 40
0.0
 40
0.0
 40
0.0
 40
0.0
 40
0.2596808176
 40
1.0
 40
1.0
 40
1.0
 40
1.0
 10
30.0845756298
 20
20.1421033917
 30
0.0
 10
30.1092338383
 20
20.0542078902
 30
0.0
 10
30.1938468554
 20
19.712732959
 30
0.0
 10
30.2362613519
 20
19.3611420409
 30
0.0
 10
30.2362613519
 20
19.1012499053
 30
0.0
 11
30.0845756298
 21
20.1421033917
 31
0.0
 11
30.1503329728
 21
19.8761767488
 31
0.0
 11
30.2362613519
 21
19.1012499053
 31
0.0
  0
SPLINE
  5
42C
100
AcDbEntity
  8
0
100
AcDbSpline
 62
7
  6
CONTINUOUS
 70
0
 71
3
 72
11
 73
7
 74
5
 42
0.0000001
 43
0.0000001
 44
0.0000000001
 12
1.6980704337
 22
0.8443134945
 32
0.0
 13
0.0
 23
1.8848198536
 33
0.0
 40
0.0
 40
0.0
 40
0.0
 40
0.0
 40
0.0281023802
 40
0.3122260127
 40
0.6316167495
 40
1.0
 40
1.0
 40
1.0
 40
1.0
 10
-68.8308366114
 20
66.6228686434
 30
0.0
 10
-68.8149300044
 20
66.6307777163
 30
0.0
 10
-68.640402876
 20
66.7229254093
 30
0.0
 10
-68.3421145942
 20
67.0057673418
 30
0.0
 10
-68.0979318255
 20
67.5786552318
 30
0.0
 10
-68.051581233
 20
68.013725843
 30
0.0
 10
-68.051581233
 20
68.2451711978
 30
0.0
 11
-68.8308366114
 21
66.6228686434
 31
0.0
 11
-68.7837321795
 21
66.6477516801
 31
0.0
 11
-68.3883333433
 21
67.0089212062
 31
0.0
 11
-68.1375096121
 21
67.5561727334
 31
0.0
 11
-68.051581233
 21
68.2451711978
 31
0.0
  0
SPLINE
  5
42D
100
AcDbEntity
  8
0
100
AcDbSpline
 62
7
  6
CONTINUOUS
 70
0
 71
3
 72
11
 73
7
 74
5
 42
0.0000001
 43
0.0000001
 44
0.0000000001
 12
5.6562216791
 22
2.8316811927
 32
0.0
 13
0.0
 23
6.297115668
 33
0.0
 40
0.0
 40
0.0
 40
0.0
 40
0.0
 40
0.2085141479
 40
0.4440618469
 40
0.7066954089
 40
1.0
 40
1.0
 40
1.0
 40
1.0
 10
43.6881916789
 20
-96.8239684193
 30
0.0
 10
44.0813257602
 20
-96.6271532223
 30
0.0
 10
44.8434675347
 20
-96.0566108154
 30
0.0
 10
45.679820784
 20
-94.8016105863
 30
0.0
 10
46.1870155435
 20
-93.2022454505
 30
0.0
 10
46.2875852849
 20
-92.0306857193
 30
0.0
 10
46.2875852849
 20
-91.4150280739
 30
0.0
 11
43.6881916789
 21
-96.8239684193
 31
0.0
 11
44.744900903
 21
-96.043265957
 31
0.0
 11
45.5873294343
 21
-94.8224435523
 31
0.0
 11
46.1102988517
 21
-93.2534726741
 31
0.0
 11
46.2875852849
 21
-91.4150280739
 31
0.0
  0
SPLINE
  5
42E
100
AcDbEntity
  8
0
100
AcDbSpline
 62
7
  6
CONTINUOUS
 70
0
 71
3
 72
15
 73
11
 74
9
 42
0.0000001
 43
0.0000001
 44
0.0000000001
 12
0.0
 22
-5.7973232561
 32
0.0
 13
5.2229199501
 23
2.5969369155
 33
0.0
 40
0.0
 40
0.0
 40
0.0
 40
0.0
 40
0.1344890344
 40
0.2787905285
 40
0.4260412981
 40
0.5688485183
 40
0.7006266379
 40
0.8170697825
 40
0.9179807728
 40
1.0
 40
1.0
 40
1.0
 40
1.0
 10
-72.2942219201
 20
70.3664915413
 30
0.0
 10
-72.2942219201
 20
70.1065994058
 30
0.0
 10
-72.2291303933
 20
69.5670294111
 30
0.0
 10
-71.9777822987
 20
68.7788793611
 30
0.0
 10
-71.5874106996
 20
68.031013561
 30
0.0
 10
-71.0878368023
 20
67.3812200222
 30
0.0
 10
-70.5160535471
 20
66.8785006021
 30
0.0
 10
-69.9115476913
 20
66.56120377
 30
0.0
 10
-69.3276984643
 20
66.4626817703
 30
0.0
 10
-68.9736298974
 20
66.5518690571
 30
0.0
 10
-68.8308366114
 20
66.6228686434
 30
0.0
 11
-72.2942219201
 21
70.3664915413
 31
0.0
 11
-72.208293541
 21
69.5915646979
 31
0.0
 11
-71.9574698099
 21
68.7934894395
 31
0.0
 11
-71.5620709737
 21
68.0369210772
 31
0.0
 11
-71.0541298947
 21
67.3831522804
 31
0.0
 11
-70.4747969382
 21
66.8851475087
 31
0.0
 11
-69.871006215
 21
66.5832521471
 31
0.0
 11
-69.2916732585
 21
66.5019239623
 31
0.0
 11
-68.8308366114
 21
66.6228686434
 31
0.0
  0
SPLINE
  5
42F
100
AcDbEntity
  8
0
100
AcDbSpline
 62
7
  6
CONTINUOUS
 70
0
 71
3
 72
11
 73
7
 74
5
 42
0.0000001
 43
0.0000001
 44
0.0000000001
 12
0.0
 22
1.8848198536
 32
0.0
 13
1.6980704337
 23
0.8443134945
 33
0.0
 40
0.0
 40
0.0
 40
0.0
 40
0.0
 40
0.3683832505
 40
0.6877739873
 40
0.9718976198
 40
1.0
 40
1.0
 40
1.0
 40
1.0
 10
25.9936206648
 20
21.2225702489
 30
0.0
 10
25.9936206648
 20
21.4540156036
 30
0.0
 10
26.0399712573
 20
21.8890862148
 30
0.0
 10
26.284154026
 20
22.4619741048
 30
0.0
 10
26.5824423077
 20
22.7448160374
 30
0.0
 10
26.7569694362
 20
22.8369637303
 30
0.0
 10
26.7728760432
 20
22.8448728033
 30
0.0
 11
25.9936206648
 21
21.2225702489
 31
0.0
 11
26.0795490439
 21
21.9115687132
 31
0.0
 11
26.3303727751
 21
22.4588202405
 31
0.0
 11
26.7257716112
 21
22.8199897665
 31
0.0
 11
26.7728760432
 21
22.8448728033
 31
0.0
  0
SPLINE
  5
430
100
AcDbEntity
  8
0
100
AcDbSpline
 62
7
  6
CONTINUOUS
 70
0
 71
3
 72
11
 73
7
 74
5
 42
0.0000001
 43
0.0000001
 44
0.0000000001
 12
0.0
 22
1.8848198536
 32
0.0
 13
1.6980704337
 23
0.8443134945
 33
0.0
 40
0.0
 40
0.0
 40
0.0
 40
0.0
 40
0.3683832505
 40
0.6877739873
 40
0.9718976198
 40
1.0
 40
1.0
 40
1.0
 40
1.0
 10
-72.2942219201
 20
-27.4943790863
 30
0.0
 10
-72.2942219201
 20
-27.2629337315
 30
0.0
 10
-72.2478713276
 20
-26.8278631203
 30
0.0
 10
-72.0036885589
 20
-26.2549752303
 30
0.0
 10
-71.7054002772
 20
-25.9721332978
 30
0.0
 10
-71.5308731487
 20
-25.8799856049
 30
0.0
 10
-71.5149665417
 20
-25.8720765319
 30
0.0
 11
-72.2942219201
 21
-27.4943790863
 31
0.0
 11
-72.208293541
 21
-26.805380622
 31
0.0
 11
-71.9574698099
 21
-26.2581290947
 31
0.0
 11
-71.5620709737
 21
-25.8969595687
 31
0.0
 11
-71.5149665417
 21
-25.8720765319
 31
0.0
  0
SPLINE
  5
431
100
AcDbEntity
  8
0
100
AcDbSpline
 62
7
  6
CONTINUOUS
 70
0
 71
3
 72
15
 73
11
 74
9
 42
0.0000001
 43
0.0000001
 44
0.0000000001
 12
0.0
 22
-5.7973232561
 32
0.0
 13
5.2229199501
 23
2.5969369155
 33
0.0
 40
0.0
 40
0.0
 40
0.0
 40
0.0
 40
0.1344890344
 40
0.2787905285
 40
0.4260412981
 40
0.5688485183
 40
0.7006266379
 40
0.8170697825
 40
0.9179807728
 40
1.0
 40
1.0
 40
1.0
 40
1.0
 10
25.9936206648
 20
-76.6383003788
 30
0.0
 10
25.9936206648
 20
-76.8981925143
 30
0.0
 10
26.0587121916
 20
-77.437762509
 30
0.0
 10
26.3100602862
 20
-78.225912559
 30
0.0
 10
26.7004318853
 20
-78.9737783591
 30
0.0
 10
27.2000057826
 20
-79.6235718979
 30
0.0
 10
27.7717890379
 20
-80.126291318
 30
0.0
 10
28.3762948937
 20
-80.4435881501
 30
0.0
 10
28.9601441207
 20
-80.5421101498
 30
0.0
 10
29.3142126875
 20
-80.452922863
 30
0.0
 10
29.4570059735
 20
-80.3819232767
 30
0.0
 11
25.9936206648
 21
-76.6383003788
 31
0.0
 11
26.0795490439
 21
-77.4132272222
 31
0.0
 11
26.3303727751
 21
-78.2113024806
 31
0.0
 11
26.7257716112
 21
-78.9678708429
 31
0.0
 11
27.2337126903
 21
-79.6216396397
 31
0.0
 11
27.8130456467
 21
-80.1196444114
 31
0.0
 11
28.41683637
 21
-80.421539773
 31
0.0
 11
28.9961693265
 21
-80.5028679578
 31
0.0
 11
29.4570059735
 21
-80.3819232767
 31
0.0
  0
SPLINE
  5
432
100
AcDbEntity
  8
RACCORDO
100
AcDbSpline
 62
253
  6
CONTINUOUS
 70
0
 71
3
 72
15
 73
11
 74
9
 42
0.0000001
 43
0.0000001
 44
0.0000000001
 12
0.0
 22
-11.7735173969
 32
0.0
 13
10.5305540935
 23
-5.2652770467
 33
0.0
 40
0.0
 40
0.0
 40
0.0
 40
0.0
 40
0.1196553849
 40
0.2467210615
 40
0.3784304531
 40
0.5116964813
 40
0.6433164911
 40
0.7702408643
 40
0.8898118738
 40
1.0
 40
1.0
 40
1.0
 40
1.0
 10
-82.9008236379
 20
-30.8513322653
 30
0.0
 10
-82.9008236379
 20
-31.3209205172
 30
0.0
 10
-82.8209951921
 20
-32.290160455
 30
0.0
 10
-82.4960674149
 20
-33.7433312539
 30
0.0
 10
-81.9738720846
 20
-35.1947237928
 30
0.0
 10
-81.2740339471
 20
-36.58906653
 30
0.0
 10
-80.4228720883
 20
-37.8742217738
 30
0.0
 10
-79.451907793
 20
-39.0021556609
 30
0.0
 10
-78.3979488746
 20
-39.9303518777
 30
0.0
 10
-77.6307500628
 20
-40.4145722831
 30
0.0
 10
-77.2439693884
 20
-40.6079626203
 30
0.0
 11
-82.9008236379
 21
-30.8513322653
 31
0.0
 11
-82.7923427894
 21
-32.2559140686
 31
0.0
 11
-82.4705196363
 21
-33.7168985448
 31
0.0
 11
-81.947622597
 21
-35.1767601394
 31
0.0
 11
-81.2437897601
 21
-36.5790480591
 31
0.0
 11
-80.3861692764
 21
-37.8697229656
 31
0.0
 11
-79.4077337852
 21
-38.9992073179
 31
0.0
 11
-78.3463122733
 21
-39.9239800348
 31
0.0
 11
-77.2439693884
 21
-40.6079626203
 31
0.0
  0
SPLINE
  5
433
100
AcDbEntity
  8
RACCORDO
100
AcDbSpline
 62
253
  6
CONTINUOUS
 70
0
 71
3
 72
15
 73
11
 74
9
 42
0.0000001
 43
0.0000001
 44
0.0000000001
 12
-7.8253220258
 22
3.9126610129
 32
0.0
 13
-0.0
 23
-8.7489759977
 33
0.0
 40
0.0
 40
0.0
 40
0.0
 40
0.0
 40
0.1347898002
 40
0.2571193565
 40
0.3702877842
 40
0.4801092437
 40
0.5934398594
 40
0.7160739001
 40
0.8513656747
 40
1.0
 40
1.0
 40
1.0
 40
1.0
 10
-77.2439693884
 20
88.4298225436
 30
0.0
 10
-77.5955605858
 20
88.6056181423
 30
0.0
 10
-78.2996466553
 20
88.881561671
 30
0.0
 10
-79.3804495722
 20
89.0342429817
 30
0.0
 10
-80.3929084977
 20
88.887613406
 30
0.0
 10
-81.284131106
 20
88.4372537878
 30
0.0
 10
-82.0041276483
 20
87.7088075694
 30
0.0
 10
-82.525489906
 20
86.7463003523
 30
0.0
 10
-82.8378781067
 20
85.5939123187
 30
0.0
 10
-82.9008236379
 20
84.7635124863
 30
0.0
 10
-82.9008236379
 20
84.3300464381
 30
0.0
 11
-77.2439693884
 21
88.4298225436
 31
0.0
 11
-78.3465185076
 21
88.8482357403
 31
0.0
 11
-79.408023585
 21
88.9848370227
 31
0.0
 11
-80.3865237633
 21
88.8336716447
 31
0.0
 11
-81.2441485028
 21
88.4004683572
 31
0.0
 11
-81.9478580546
 21
87.7019568441
 31
0.0
 11
-82.47063355
 21
86.765010742
 31
0.0
 11
-82.7923837937
 21
85.6259153107
 31
0.0
 11
-82.9008236379
 21
84.3300464381
 31
0.0
  0
SPLINE
  5
434
100
AcDbEntity
  8
RACCORDO
100
AcDbSpline
 62
253
  6
CONTINUOUS
 70
0
 71
3
 72
15
 73
11
 74
9
 42
0.0000001
 43
0.0000001
 44
0.0000000001
 12
0.0
 22
11.7735173969
 32
0.0
 13
-10.5305540935
 23
5.2652770467
 33
0.0
 40
0.0
 40
0.0
 40
0.0
 40
0.0
 40
0.1196553849
 40
0.2467210615
 40
0.3784304531
 40
0.5116964813
 40
0.6433164911
 40
0.7702408643
 40
0.8898118738
 40
1.0
 40
1.0
 40
1.0
 40
1.0
 10
40.8428630697
 20
22.4582030843
 30
0.0
 10
40.8428630697
 20
22.9277913362
 30
0.0
 10
40.7630346239
 20
23.897031274
 30
0.0
 10
40.4381068467
 20
25.3502020729
 30
0.0
 10
39.9159115164
 20
26.8015946118
 30
0.0
 10
39.2160733789
 20
28.195937349
 30
0.0
 10
38.3649115201
 20
29.4810925928
 30
0.0
 10
37.3939472248
 20
30.6090264799
 30
0.0
 10
36.3399883064
 20
31.5372226967
 30
0.0
 10
35.5727894946
 20
32.0214431021
 30
0.0
 10
35.1860088202
 20
32.2148334393
 30
0.0
 11
40.8428630697
 21
22.4582030843
 31
0.0
 11
40.7343822212
 21
23.8627848876
 31
0.0
 11
40.412559068
 21
25.3237693638
 31
0.0
 11
39.8896620288
 21
26.7836309584
 31
0.0
 11
39.1858291919
 21
28.1859188781
 31
0.0
 11
38.3282087082
 21
29.4765937846
 31
0.0
 11
37.349773217
 21
30.6060781369
 31
0.0
 11
36.2883517051
 21
31.5308508538
 31
0.0
 11
35.1860088202
 21
32.2148334393
 31
0.0
  0
SPLINE
  5
435
100
AcDbEntity
  8
RACCORDO
100
AcDbSpline
 62
253
  6
CONTINUOUS
 70
0
 71
3
 72
15
 73
11
 74
9
 42
0.0000001
 43
0.0000001
 44
0.0000000001
 12
7.8253220258
 22
-3.9126610129
 32
0.0
 13
-0.0
 23
8.7489759977
 33
0.0
 40
0.0
 40
0.0
 40
0.0
 40
0.0
 40
0.1347898002
 40
0.2571193565
 40
0.3702877842
 40
0.4801092437
 40
0.5934398594
 40
0.7160739001
 40
0.8513656747
 40
1.0
 40
1.0
 40
1.0
 40
1.0
 10
35.1860088202
 20
-96.8229517246
 30
0.0
 10
35.5376000176
 20
-96.9987473233
 30
0.0
 10
36.2416860871
 20
-97.274690852
 30
0.0
 10
37.3224890039
 20
-97.4273721627
 30
0.0
 10
38.3349479295
 20
-97.280742587
 30
0.0
 10
39.2261705378
 20
-96.8303829688
 30
0.0
 10
39.94616708
 20
-96.1019367504
 30
0.0
 10
40.4675293378
 20
-95.1394295333
 30
0.0
 10
40.7799175385
 20
-93.9870414997
 30
0.0
 10
40.8428630697
 20
-93.1566416673
 30
0.0
 10
40.8428630697
 20
-92.7231756191
 30
0.0
 11
35.1860088202
 21
-96.8229517246
 31
0.0
 11
36.2885579393
 21
-97.2413649213
 31
0.0
 11
37.3500630168
 21
-97.3779662037
 31
0.0
 11
38.3285631951
 21
-97.2268008257
 31
0.0
 11
39.1861879346
 21
-96.7935975382
 31
0.0
 11
39.8898974864
 21
-96.0950860251
 31
0.0
 11
40.4126729818
 21
-95.1581399229
 31
0.0
 11
40.7344232255
 21
-94.0190444917
 31
0.0
 11
40.8428630697
 21
-92.7231756191
 31
0.0
  0
SPLINE
  5
436
100
AcDbEntity
  8
0
100
AcDbSpline
 62
7
  6
CONTINUOUS
 70
0
 71
3
 72
11
 73
7
 74
5
 42
0.0000001
 43
0.0000001
 44
0.0000000001
 12
-1.6980704337
 22
-0.8443134945
 32
0.0
 13
0.0
 23
-1.8848198536
 33
0.0
 40
0.0
 40
0.0
 40
0.0
 40
0.0
 40
0.0281023802
 40
0.3122260127
 40
0.6316167495
 40
1.0
 40
1.0
 40
1.0
 40
1.0
 10
26.7728760432
 20
-75.0159978244
 30
0.0
 10
26.7569694362
 20
-75.0239068973
 30
0.0
 10
26.5824423077
 20
-75.1160545903
 30
0.0
 10
26.284154026
 20
-75.3988965228
 30
0.0
 10
26.0399712573
 20
-75.9717844128
 30
0.0
 10
25.9936206648
 20
-76.406855024
 30
0.0
 10
25.9936206648
 20
-76.6383003788
 30
0.0
 11
26.7728760432
 21
-75.0159978244
 31
0.0
 11
26.7257716112
 21
-75.0408808611
 31
0.0
 11
26.3303727751
 21
-75.4020503872
 31
0.0
 11
26.0795490439
 21
-75.9493019144
 31
0.0
 11
25.9936206648
 21
-76.6383003788
 31
0.0
  0
SPLINE
  5
437
100
AcDbEntity
  8
RACCORDO
100
AcDbSpline
 62
253
  6
CONTINUOUS
 70
0
 71
3
 72
15
 73
11
 74
9
 42
0.0000001
 43
0.0000001
 44
0.0000000001
 12
0.0000000025
 22
14.7168955282
 32
0.0
 13
-13.1631915298
 23
6.5815957593
 33
0.0
 40
0.0
 40
0.0
 40
0.0
 40
0.0
 40
0.1197218983
 40
0.2467668071
 40
0.3784429957
 40
0.5116690664
 40
0.6432601972
 40
0.7701684605
 40
0.889733646
 40
1.0
 40
1.0
 40
1.0
 40
1.0
 10
43.6712901945
 20
22.4582030843
 30
0.0
 10
43.6712901946
 20
23.045514641
 30
0.0
 10
43.5714177915
 20
24.2572888477
 30
0.0
 10
43.1651660306
 20
26.0737905167
 30
0.0
 10
42.5125173516
 20
27.887572962
 30
0.0
 10
41.6379632876
 20
29.6300587368
 30
0.0
 10
40.574299029
 20
31.2361880362
 30
0.0
 10
39.3608699474
 20
32.6460134512
 30
0.0
 10
38.0432979932
 20
33.806530093
 30
0.0
 10
37.0840414284
 20
34.4120815053
 30
0.0
 10
36.6002223826
 20
34.653991028
 30
0.0
 11
43.6712901945
 21
22.4582030843
 31
0.0
 11
43.5355370835
 21
24.2149002337
 31
0.0
 11
43.1332265499
 21
26.0408107433
 31
0.0
 11
42.4797157917
 21
27.8651581145
 31
0.0
 11
41.6002008667
 21
29.6174984565
 31
0.0
 11
40.5284748865
 21
31.2305307071
 31
0.0
 11
39.3056888023
 21
32.6422959996
 31
0.0
 11
37.9790744249
 21
33.7983177131
 31
0.0
 11
36.6002223826
 21
34.653991028
 31
0.0
  0
SPLINE
  5
438
100
AcDbEntity
  8
0
100
AcDbSpline
 62
7
  6
CONTINUOUS
 70
0
 71
3
 72
8
 73
4
 74
2
 42
0.0000001
 43
0.0000001
 44
0.0000000001
 12
-0.3072094914
 22
0.1929178793
 32
0.0
 13
-0.2822117927
 23
0.2280941197
 33
0.0
 40
0.0
 40
0.0
 40
0.0
 40
0.0
 40
1.0
 40
1.0
 40
1.0
 40
1.0
 10
-69.1926037285
 20
-30.4270451704
 30
0.0
 10
-69.2950068923
 20
-30.3627392106
 30
0.0
 10
-69.3931905763
 20
-30.2918079493
 30
0.0
 10
-69.4872611739
 20
-30.2157765761
 30
0.0
 11
-69.1926037285
 21
-30.4270451704
 31
0.0
 11
-69.4872611739
 21
-30.2157765761
 31
0.0
  0
SPLINE
  5
439
100
AcDbEntity
  8
0
100
AcDbSpline
 62
7
  6
CONTINUOUS
 70
0
 71
3
 72
15
 73
11
 74
9
 42
0.0000001
 43
0.0000001
 44
0.0000000001
 12
-5.2229199501
 22
-2.5969369155
 32
0.0
 13
0.0
 23
5.7973232561
 33
0.0
 40
0.0
 40
0.0
 40
0.0
 40
0.0
 40
0.0820192272
 40
0.1829302175
 40
0.2993733621
 40
0.4311514817
 40
0.5739587019
 40
0.7212094715
 40
0.8655109656
 40
1.0
 40
1.0
 40
1.0
 40
1.0
 10
-68.8308366114
 20
-31.2380019843
 30
0.0
 10
-68.9736298974
 20
-31.3090015705
 30
0.0
 10
-69.3276984643
 20
-31.3981888574
 30
0.0
 10
-69.9115476913
 20
-31.2996668576
 30
0.0
 10
-70.5160535471
 20
-30.9823700255
 30
0.0
 10
-71.0878368023
 20
-30.4796506054
 30
0.0
 10
-71.5874106996
 20
-29.8298570667
 30
0.0
 10
-71.9777822987
 20
-29.0819912666
 30
0.0
 10
-72.2291303933
 20
-28.2938412166
 30
0.0
 10
-72.2942219201
 20
-27.7542712219
 30
0.0
 10
-72.2942219201
 20
-27.4943790863
 30
0.0
 11
-68.8308366114
 21
-31.2380019843
 31
0.0
 11
-69.2916732585
 21
-31.3589466654
 31
0.0
 11
-69.871006215
 21
-31.2776184805
 31
0.0
 11
-70.4747969382
 21
-30.9757231189
 31
0.0
 11
-71.0541298947
 21
-30.4777183473
 31
0.0
 11
-71.5620709737
 21
-29.8239495504
 31
0.0
 11
-71.9574698099
 21
-29.0673811882
 31
0.0
 11
-72.208293541
 21
-28.2693059298
 31
0.0
 11
-72.2942219201
 21
-27.4943790863
 31
0.0
  0
SPLINE
  5
43A
100
AcDbEntity
  8
RACCORDO
100
AcDbSpline
 62
253
  6
CONTINUOUS
 70
0
 71
3
 72
11
 73
7
 74
5
 42
0.0000001
 43
0.0000001
 44
0.0000000001
 12
-4.1453915221
 22
2.0726957621
 32
0.0
 13
-4.1639587576
 23
-2.0823554277
 33
0.0
 40
0.0
 40
0.0
 40
0.0
 40
0.0
 40
0.3182169923
 40
0.6068077939
 40
0.8737724786
 40
1.0
 40
1.0
 40
1.0
 40
1.0
 10
-75.8297558261
 20
90.8689801324
 30
0.0
 10
-76.2694671667
 20
91.0888358028
 30
0.0
 10
-77.1497472583
 20
91.4337676009
 30
0.0
 10
-78.5008044246
 20
91.624495102
 30
0.0
 10
-79.5597110541
 20
91.4710425004
 30
0.0
 10
-80.126494077
 20
91.2402236506
 30
0.0
 10
-80.3016961414
 20
91.1526067959
 30
0.0
 11
-75.8297558261
 21
90.8689801324
 31
0.0
 11
-77.2086720669
 21
91.3921753264
 31
0.0
 11
-78.5352791674
 21
91.5627511138
 31
0.0
 11
-79.7580579086
 21
91.373756535
 31
0.0
 11
-80.3016961414
 21
91.1526067959
 31
0.0
  0
SPLINE
  5
43B
100
AcDbEntity
  8
0
100
AcDbSpline
 62
7
  6
CONTINUOUS
 70
0
 71
3
 72
15
 73
11
 74
9
 42
0.0000001
 43
0.0000001
 44
0.0000000001
 12
-5.2229199501
 22
-2.5969369155
 32
0.0
 13
0.0
 23
5.7973232561
 33
0.0
 40
0.0
 40
0.0
 40
0.0
 40
0.0
 40
0.0820192272
 40
0.1829302175
 40
0.2993733621
 40
0.4311514817
 40
0.5739587019
 40
0.7212094715
 40
0.8655109656
 40
1.0
 40
1.0
 40
1.0
 40
1.0
 10
29.4570059735
 20
17.4789473509
 30
0.0
 10
29.3142126875
 20
17.4079477646
 30
0.0
 10
28.9601441207
 20
17.3187604778
 30
0.0
 10
28.3762948937
 20
17.4172824775
 30
0.0
 10
27.7717890379
 20
17.7345793097
 30
0.0
 10
27.2000057826
 20
18.2372987298
 30
0.0
 10
26.7004318853
 20
18.8870922685
 30
0.0
 10
26.3100602862
 20
19.6349580686
 30
0.0
 10
26.0587121916
 20
20.4231081186
 30
0.0
 10
25.9936206648
 20
20.9626781133
 30
0.0
 10
25.9936206648
 20
21.2225702489
 30
0.0
 11
29.4570059735
 21
17.4789473509
 31
0.0
 11
28.9961693265
 21
17.3580026698
 31
0.0
 11
28.41683637
 21
17.4393308546
 31
0.0
 11
27.8130456467
 21
17.7412262163
 31
0.0
 11
27.2337126903
 21
18.2392309879
 31
0.0
 11
26.7257716112
 21
18.8929997848
 31
0.0
 11
26.3303727751
 21
19.649568147
 31
0.0
 11
26.0795490439
 21
20.4476434054
 31
0.0
 11
25.9936206648
 21
21.2225702489
 31
0.0
  0
SPLINE
  5
43C
100
AcDbEntity
  8
0
100
AcDbSpline
 62
7
  6
CONTINUOUS
 70
0
 71
3
 72
8
 73
4
 74
2
 42
0.0000001
 43
0.0000001
 44
0.0000000001
 12
-0.3072094914
 22
0.1929178793
 32
0.0
 13
-0.2822117927
 23
0.2280941197
 33
0.0
 40
0.0
 40
0.0
 40
0.0
 40
0.0
 40
1.0
 40
1.0
 40
1.0
 40
1.0
 10
-69.1926037285
 20
67.4338254573
 30
0.0
 10
-69.2950068923
 20
67.498131417
 30
0.0
 10
-69.3931905763
 20
67.5690626783
 30
0.0
 10
-69.4872611739
 20
67.6450940516
 30
0.0
 11
-69.1926037285
 21
67.4338254573
 31
0.0
 11
-69.4872611739
 21
67.6450940516
 31
0.0
  0
SPLINE
  5
43D
100
AcDbEntity
  8
0
100
AcDbSpline
 62
7
  6
CONTINUOUS
 70
0
 71
3
 72
11
 73
7
 74
5
 42
0.0000001
 43
0.0000001
 44
0.0000000001
 12
-1.6980704337
 22
-0.8443134945
 32
0.0
 13
0.0
 23
-1.8848198536
 33
0.0
 40
0.0
 40
0.0
 40
0.0
 40
0.0
 40
0.0281023802
 40
0.3122260127
 40
0.6316167495
 40
1.0
 40
1.0
 40
1.0
 40
1.0
 10
-71.5149665417
 20
71.9887940957
 30
0.0
 10
-71.5308731487
 20
71.9808850228
 30
0.0
 10
-71.7054002772
 20
71.8887373298
 30
0.0
 10
-72.0036885589
 20
71.6058953973
 30
0.0
 10
-72.2478713276
 20
71.0330075073
 30
0.0
 10
-72.2942219201
 20
70.5979368961
 30
0.0
 10
-72.2942219201
 20
70.3664915413
 30
0.0
 11
-71.5149665417
 21
71.9887940957
 31
0.0
 11
-71.5620709737
 21
71.963911059
 31
0.0
 11
-71.9574698099
 21
71.6027415329
 31
0.0
 11
-72.208293541
 21
71.0554900057
 31
0.0
 11
-72.2942219201
 21
70.3664915413
 31
0.0
  0
SPLINE
  5
43E
100
AcDbEntity
  8
RACCORDO
100
AcDbSpline
 62
253
  6
CONTINUOUS
 70
0
 71
3
 72
12
 73
8
 74
6
 42
0.0000001
 43
0.0000001
 44
0.0000000001
 12
5.6615077278
 22
2.8312703225
 32
0.0
 13
-0.0000000018
 23
6.3015357571
 33
0.0
 40
0.0
 40
0.0
 40
0.0
 40
0.0
 40
0.0976973477
 40
0.2943324095
 40
0.5071183538
 40
0.7418810697
 40
1.0
 40
1.0
 40
1.0
 40
1.0
 10
41.0721651845
 20
-98.131521171
 30
0.0
 10
41.2565366143
 20
-98.0393186372
 30
0.0
 10
41.7894590789
 20
-97.7164454987
 30
0.0
 10
42.5500682232
 20
-96.9470615877
 30
0.0
 10
43.2018346769
 20
-95.7442660553
 30
0.0
 10
43.5925161074
 20
-94.3036383568
 30
0.0
 10
43.6712901946
 20
-93.2653575087
 30
0.0
 10
43.6712901945
 20
-92.7231756191
 30
0.0
 11
41.0721651845
 21
-98.131521171
 31
0.0
 11
41.6002438984
 21
-97.8113504765
 31
0.0
 11
42.4797489167
 21
-96.9385120879
 31
0.0
 11
43.1332501226
 21
-95.7676617054
 31
0.0
 11
43.5355498475
 21
-94.3440474128
 31
0.0
 11
43.6712901945
 21
-92.7231756191
 31
0.0
  0
SPLINE
  5
43F
100
AcDbEntity
  8
0
100
AcDbSpline
 62
7
  6
CONTINUOUS
 70
0
 71
3
 72
8
 73
4
 74
2
 42
0.0000001
 43
0.0000001
 44
0.0000000001
 12
0.2822117927
 22
-0.2280941197
 32
0.0
 13
0.3072094914
 23
-0.1929178793
 33
0.0
 40
0.0
 40
0.0
 40
0.0
 40
0.0
 40
1.0
 40
1.0
 40
1.0
 40
1.0
 10
28.8005814111
 20
-79.3596978685
 30
0.0
 10
28.8946520086
 20
-79.4357292418
 30
0.0
 10
28.9928356927
 20
-79.5066605031
 30
0.0
 10
29.0952388565
 20
-79.5709664628
 30
0.0
 11
28.8005814111
 21
-79.3596978685
 31
0.0
 11
29.0952388565
 21
-79.5709664628
 31
0.0
  0
SPLINE
  5
440
100
AcDbEntity
  8
RACCORDO
100
AcDbSpline
 62
253
  6
CONTINUOUS
 70
0
 71
3
 72
10
 73
6
 74
4
 42
0.0000001
 43
0.0000001
 44
0.0000000001
 12
-0.0
 22
-1.255067571
 32
0.0
 13
1.128171458
 23
-0.5717552154
 33
0.0
 40
0.0
 40
0.0
 40
0.0
 40
0.0
 40
0.4026772544
 40
0.7468440397
 40
1.0
 40
1.0
 40
1.0
 40
1.0
 10
-77.2439693884
 20
-40.6079626203
 30
0.0
 10
-77.2439693884
 20
-40.7764250081
 30
0.0
 10
-77.2076110865
 20
-41.0914530102
 30
0.0
 10
-77.0207059931
 20
-41.4785092755
 30
0.0
 10
-76.819249385
 20
-41.6411966058
 30
0.0
 10
-76.7240482754
 20
-41.6894443526
 30
0.0
 11
-77.2439693884
 21
-40.6079626203
 31
0.0
 11
-77.17475285
 21
-41.1085874857
 31
0.0
 11
-76.9738786317
 21
-41.4909911628
 31
0.0
 11
-76.7240482754
 21
-41.6894443526
 31
0.0
  0
SPLINE
  5
441
100
AcDbEntity
  8
RACCORDO
100
AcDbSpline
 62
253
  6
CONTINUOUS
 70
0
 71
3
 72
10
 73
6
 74
4
 42
0.0000001
 43
0.0000001
 44
0.0000000001
 12
-0.0
 22
-1.2550675702
 32
0.0
 13
1.1281714575
 23
-0.5717552197
 33
0.0
 40
0.0
 40
0.0
 40
0.0
 40
0.0
 40
0.4026772112
 40
0.746844007
 40
1.0
 40
1.0
 40
1.0
 40
1.0
 10
35.1860088202
 20
-96.8229517246
 30
0.0
 10
35.1860088202
 20
-96.9914140943
 30
0.0
 10
35.2223671171
 20
-97.3064420809
 30
0.0
 10
35.4092721916
 20
-97.6934983544
 30
0.0
 10
35.6107288115
 20
-97.8561857032
 30
0.0
 10
35.7059299334
 20
-97.9044334567
 30
0.0
 11
35.1860088202
 21
-96.8229517246
 31
0.0
 11
35.2552253425
 21
-97.3235765372
 31
0.0
 11
35.4560995496
 21
-97.7059802347
 31
0.0
 11
35.7059299334
 21
-97.9044334567
 31
0.0
  0
SPLINE
  5
442
100
AcDbEntity
  8
0
100
AcDbSpline
 62
7
  6
CONTINUOUS
 70
0
 71
3
 72
8
 73
4
 74
2
 42
0.0000001
 43
0.0000001
 44
0.0000000001
 12
0.2822117927
 22
-0.2280941197
 32
0.0
 13
0.3072094914
 23
-0.1929178793
 33
0.0
 40
0.0
 40
0.0
 40
0.0
 40
0.0
 40
1.0
 40
1.0
 40
1.0
 40
1.0
 10
28.8005814111
 20
18.5011727591
 30
0.0
 10
28.8946520086
 20
18.4251413859
 30
0.0
 10
28.9928356927
 20
18.3542101246
 30
0.0
 10
29.0952388565
 20
18.2899041648
 30
0.0
 11
28.8005814111
 21
18.5011727591
 31
0.0
 11
29.0952388565
 21
18.2899041648
 31
0.0
  0
SPLINE
  5
443
100
AcDbEntity
  8
RACCORDO
100
AcDbSpline
 62
253
  6
CONTINUOUS
 70
0
 71
3
 72
12
 73
8
 74
6
 42
0.0000001
 43
0.0000001
 44
0.0000000001
 12
2.6016808914
 22
-1.3008404457
 32
0.0
 13
2.6016808914
 23
1.3008404457
 33
0.0
 40
0.0
 40
0.0
 40
0.0
 40
0.0
 40
0.1851645043
 40
0.3924393536
 40
0.6075606464
 40
0.8148354957
 40
1.0
 40
1.0
 40
1.0
 40
1.0
 10
40.8428630697
 20
-92.7231756191
 30
0.0
 10
41.0034427206
 20
-92.8034654445
 30
0.0
 10
41.3663191091
 20
-92.9289635009
 30
0.0
 10
41.9505127391
 20
-93.0202115273
 30
0.0
 10
42.5636405251
 20
-93.0202115273
 30
0.0
 10
43.1478341551
 20
-92.9289635009
 30
0.0
 10
43.5107105436
 20
-92.8034654445
 30
0.0
 10
43.6712901945
 20
-92.7231756191
 30
0.0
 11
40.8428630697
 21
-92.7231756191
 31
0.0
 11
41.3490956326
 21
-92.9070753621
 31
0.0
 11
41.944207702
 21
-93.0037571785
 31
0.0
 11
42.5699455622
 21
-93.0037571785
 31
0.0
 11
43.1650576316
 21
-92.9070753621
 31
0.0
 11
43.6712901945
 21
-92.7231756191
 31
0.0
  0
SPLINE
  5
444
100
AcDbEntity
  8
RACCORDO
100
AcDbSpline
 62
253
  6
CONTINUOUS
 70
0
 71
3
 72
12
 73
8
 74
6
 42
0.0000001
 43
0.0000001
 44
0.0000000001
 12
2.6016808904
 22
-1.3008404452
 32
0.0
 13
2.6016808904
 23
1.3008404452
 33
0.0
 40
0.0
 40
0.0
 40
0.0
 40
0.0
 40
0.1851644811
 40
0.3924393315
 40
0.6075606549
 40
0.8148355128
 40
1.0
 40
1.0
 40
1.0
 40
1.0
 10
40.8428630697
 20
22.4582030843
 30
0.0
 10
41.0034427004
 20
22.3779132689
 30
0.0
 10
41.3663190657
 20
22.2524152144
 30
0.0
 10
41.9505127023
 20
22.1611671765
 30
0.0
 10
42.5636405283
 20
22.1611671728
 30
0.0
 10
43.1478341781
 20
22.2524152101
 30
0.0
 10
43.5107105585
 20
22.3779132627
 30
0.0
 10
43.6712901945
 20
22.4582030807
 30
0.0
 11
40.8428630697
 21
22.4582030843
 31
0.0
 11
41.3490955667
 21
22.274303358
 31
0.0
 11
41.944207637
 21
22.17762153
 31
0.0
 11
42.5699455863
 21
22.1776215268
 31
0.0
 11
43.1650576791
 21
22.2743033533
 31
0.0
 11
43.6712901945
 21
22.4582030807
 31
0.0
  0
SPLINE
  5
445
100
AcDbEntity
  8
RACCORDO
100
AcDbSpline
 62
253
  6
CONTINUOUS
 70
0
 71
3
 72
12
 73
8
 74
6
 42
0.0000001
 43
0.0000001
 44
0.0000000001
 12
0.0
 22
2.9397526251
 32
0.0
 13
2.6293946827
 23
1.3146973413
 33
0.0
 40
0.0
 40
0.0
 40
0.0
 40
0.0
 40
0.1952646443
 40
0.4051116665
 40
0.6172925625
 40
0.8190521716
 40
1.0
 40
1.0
 40
1.0
 40
1.0
 10
35.1860088202
 20
32.2148334393
 30
0.0
 10
35.1860088202
 20
32.4061766895
 30
0.0
 10
35.2388382785
 20
32.8038090556
 30
0.0
 10
35.4392881341
 20
33.3780850277
 30
0.0
 10
35.7468803376
 20
33.9108103894
 30
0.0
 10
36.1329297334
 20
34.3524616434
 30
0.0
 10
36.4416279633
 20
34.5746938184
 30
0.0
 10
36.6002223826
 20
34.653991028
 30
0.0
 11
35.1860088202
 21
32.2148334393
 31
0.0
 11
35.2552253587
 21
32.7846748431
 31
0.0
 11
35.456099577
 21
33.3679527385
 31
0.0
 11
35.7689685071
 21
33.9075718212
 31
0.0
 11
36.1632063582
 21
34.3507104154
 31
0.0
 11
36.6002223826
 21
34.653991028
 31
0.0
  0
SPLINE
  5
446
100
AcDbEntity
  8
RACCORDO
100
AcDbSpline
 62
253
  6
CONTINUOUS
 70
0
 71
3
 72
12
 73
8
 74
6
 42
0.0000001
 43
0.0000001
 44
0.0000000001
 12
0.0
 22
2.9397526268
 32
0.0
 13
2.6293946842
 23
1.3146973421
 33
0.0
 40
0.0
 40
0.0
 40
0.0
 40
0.0
 40
0.1952646203
 40
0.405111644
 40
0.6172925702
 40
0.8190521874
 40
1.0
 40
1.0
 40
1.0
 40
1.0
 10
-77.2439693884
 20
88.4298225436
 30
0.0
 10
-77.2439693884
 20
88.6211657704
 30
0.0
 10
-77.1911399393
 20
89.0187981145
 30
0.0
 10
-76.9906900932
 20
89.5930740988
 30
0.0
 10
-76.6830978726
 20
90.1257994974
 30
0.0
 10
-76.2970484573
 20
90.5674507658
 30
0.0
 10
-75.9883502287
 20
90.7896829281
 30
0.0
 10
-75.8297558231
 20
90.8689801309
 30
0.0
 11
-77.2439693884
 21
88.4298225436
 31
0.0
 11
-77.1747528662
 21
88.9996638785
 31
0.0
 11
-76.973878659
 21
89.5829417831
 31
0.0
 11
-76.6610096877
 21
90.1225609449
 31
0.0
 11
-76.2667718147
 21
90.5656995518
 31
0.0
 11
-75.8297558231
 21
90.8689801309
 31
0.0
  0
SPLINE
  5
447
100
AcDbEntity
  8
RACCORDO
100
AcDbSpline
 62
253
  6
CONTINUOUS
 70
0
 71
3
 72
10
 73
6
 74
4
 42
0.0000001
 43
0.0000001
 44
0.0000000001
 12
-0.8566638191
 22
0.4283319095
 32
0.0
 13
-0.0
 23
0.9749974837
 33
0.0
 40
0.0
 40
0.0
 40
0.0
 40
0.0
 40
0.4661615988
 40
0.8366696059
 40
1.0
 40
1.0
 40
1.0
 40
1.0
 10
-82.9008236379
 20
84.3300464381
 30
0.0
 10
-83.0339382298
 20
84.396603734
 30
0.0
 10
-83.261877443
 20
84.5418517897
 30
0.0
 10
-83.4599520588
 20
84.8105739456
 30
0.0
 10
-83.4847244371
 20
84.9840709782
 30
0.0
 10
-83.4847244371
 20
85.0371532193
 30
0.0
 11
-82.9008236379
 21
84.3300464381
 31
0.0
 11
-83.2686231239
 21
84.5831627195
 31
0.0
 11
-83.4619867567
 21
84.8807187542
 31
0.0
 11
-83.4847244371
 21
85.0371532193
 31
0.0
  0
SPLINE
  5
448
100
AcDbEntity
  8
RACCORDO
100
AcDbSpline
 62
253
  6
CONTINUOUS
 70
0
 71
3
 72
10
 73
6
 74
4
 42
0.0000001
 43
0.0000001
 44
0.0000000001
 12
-0.8566638185
 22
0.4283319093
 32
0.0
 13
-0.0000000025
 23
0.9749974877
 33
0.0
 40
0.0
 40
0.0
 40
0.0
 40
0.0
 40
0.4661615507
 40
0.8366695717
 40
1.0
 40
1.0
 40
1.0
 40
1.0
 10
-82.9008236379
 20
-30.8513322653
 30
0.0
 10
-83.033938216
 20
-30.7847749762
 30
0.0
 10
-83.2618774188
 20
-30.639526929
 30
0.0
 10
-83.4599520503
 20
-30.3708047857
 30
0.0
 10
-83.4847244358
 20
-30.1973077365
 30
0.0
 10
-83.484724436
 20
-30.1442254841
 30
0.0
 11
-82.9008236379
 21
-30.8513322653
 31
0.0
 11
-83.2686230903
 21
-30.5982160168
 31
0.0
 11
-83.4619867465
 21
-30.3006599816
 31
0.0
 11
-83.484724436
 21
-30.1442254841
 31
0.0
  0
SPLINE
  5
449
100
AcDbEntity
  8
DRAFT
100
AcDbSpline
 62
7
  6
CONTINUOUS
 70
0
 71
3
 72
8
 73
4
 74
2
 42
0.0000001
 43
0.0000001
 44
0.0000000001
 12
1.3557305215
 22
-0.5541562007
 32
0.0
 13
1.4174505122
 23
-0.3688587766
 33
0.0
 40
0.0
 40
0.0
 40
0.0
 40
0.0
 40
1.0
 40
1.0
 40
1.0
 40
1.0
 10
58.8374149823
 20
-30.6049915707
 30
0.0
 10
59.2893251562
 20
-30.7897103043
 30
0.0
 10
59.7523392254
 20
-30.9468968882
 30
0.0
 10
60.2248227295
 20
-31.0698498138
 30
0.0
 11
58.8374149823
 21
-30.6049915707
 31
0.0
 11
60.2248227295
 21
-31.0698498138
 31
0.0
  0
SPLINE
  5
44A
100
AcDbEntity
  8
DRAFT
100
AcDbSpline
 62
7
  6
CONTINUOUS
 70
0
 71
3
 72
8
 73
4
 74
2
 42
0.0000001
 43
0.0000001
 44
0.0000000001
 12
0.4088079179
 22
1.1942227361
 32
0.0
 13
0.5564526685
 23
1.1346646152
 33
0.0
 40
0.0
 40
0.0
 40
0.0
 40
0.0
 40
1.0
 40
1.0
 40
1.0
 40
1.0
 10
-4.1001520994
 20
71.3007980646
 30
0.0
 10
-3.9638827935
 20
71.69887231
 30
0.0
 10
-3.8044296326
 20
72.0888436268
 30
0.0
 10
-3.6189454098
 20
72.4670651652
 30
0.0
 11
-4.1001520994
 21
71.3007980646
 31
0.0
 11
-3.6189454098
 21
72.4670651652
 31
0.0
  0
SPLINE
  5
44B
100
AcDbEntity
  8
ASSI
100
AcDbSpline
 62
7
  6
CONTINUOUS
 70
0
 71
3
 72
8
 73
4
 74
2
 42
0.0000001
 43
0.0000001
 44
0.0000000001
 12
-0.5063956754
 22
-0.3386801348
 32
0.0
 13
-0.2652656244
 23
-0.5588526571
 33
0.0
 40
0.0
 40
0.0
 40
0.0
 40
0.0
 40
1.0
 40
1.0
 40
1.0
 40
1.0
 10
68.3599472818
 20
48.4340826599
 30
0.0
 10
68.1911487233
 20
48.3211892816
 30
0.0
 10
68.062817463
 20
48.1507483409
 30
0.0
 10
67.9743955882
 20
47.9644641218
 30
0.0
 11
68.3599472818
 21
48.4340826599
 31
0.0
 11
67.9743955882
 21
47.9644641218
 31
0.0
  0
SPLINE
  5
44C
100
AcDbEntity
  8
RACCORDO
100
AcDbSpline
 62
7
  6
CONTINUOUS
 70
0
 71
3
 72
12
 73
8
 74
6
 42
0.0000001
 43
0.0000001
 44
0.0000000001
 12
12.2197448103
 22
6.4420736289
 32
0.0
 13
0.2117260076
 23
13.7625944015
 33
0.0
 40
0.0
 40
0.0
 40
0.0
 40
0.0
 40
0.0836823125
 40
0.2887785503
 40
0.5114997879
 40
0.7570756961
 40
1.0
 40
1.0
 40
1.0
 40
1.0
 10
47.0818976462
 20
-80.1652963738
 30
0.0
 10
47.4227564807
 20
-79.985600501
 30
0.0
 10
48.5589240982
 20
-79.2897214751
 30
0.0
 10
50.2619170235
 20
-77.6257699053
 30
0.0
 10
51.7964405333
 20
-74.9052647968
 30
0.0
 10
52.6884790687
 20
-71.7425587317
 30
0.0
 10
52.887440373
 20
-69.4992955752
 30
0.0
 10
52.9045848373
 20
-68.384872687
 30
0.0
 11
47.0818976462
 21
-80.1652963738
 31
0.0
 11
48.066563845
 21
-79.561845716
 31
0.0
 11
50.0999357576
 21
-77.6057338179
 31
0.0
 11
51.6358324182
 21
-74.954499326
 31
0.0
 11
52.5872457358
 21
-71.7128321564
 31
0.0
 11
52.9045848373
 21
-68.384872687
 31
0.0
  0
SPLINE
  5
44D
100
AcDbEntity
  8
RACCORDO
100
AcDbSpline
 62
7
  6
CONTINUOUS
 70
0
 71
3
 72
15
 73
11
 74
9
 42
0.0000001
 43
0.0000001
 44
0.0000000001
 12
0.0
 22
31.9344107752
 32
0.0
 13
-28.563005326
 23
14.2815026629
 33
0.0
 40
0.0
 40
0.0
 40
0.0
 40
0.0
 40
0.1204411415
 40
0.2473916607
 40
0.3783603972
 40
0.5106626666
 40
0.6414730087
 40
0.768102566
 40
0.8882121924
 40
1.0
 40
1.0
 40
1.0
 40
1.0
 10
52.9073040378
 20
15.9746357026
 30
0.0
 10
52.9073040378
 20
17.2567079987
 30
0.0
 10
52.6904562531
 20
19.8928909655
 30
0.0
 10
51.8085129555
 20
23.8335877691
 30
0.0
 10
50.397489772
 20
27.751626539
 30
0.0
 10
48.5102546759
 20
31.5091248799
 30
0.0
 10
46.2128997514
 20
34.9759911551
 30
0.0
 10
43.5824504713
 20
38.0301630593
 30
0.0
 10
40.7078559272
 20
40.5596661144
 30
0.0
 10
38.60674264
 20
41.8840023609
 30
0.0
 10
37.5424107249
 20
42.4161683184
 30
0.0
 11
52.9073040378
 21
15.9746357026
 31
0.0
 11
52.6108802552
 21
19.8094130483
 31
0.0
 11
51.7375847125
 21
23.7683271471
 31
0.0
 11
50.3258880851
 21
27.7052880662
 31
0.0
 11
48.4295583425
 21
31.4808034502
 31
0.0
 11
46.1169621744
 21
34.9596196249
 31
0.0
 11
43.4687470322
 21
38.015695692
 31
0.0
 11
40.5762647157
 21
40.5347440578
 31
0.0
 11
37.5424107249
 21
42.4161683184
 31
0.0
  0
SPLINE
  5
44E
100
AcDbEntity
  8
RACCORDO
100
AcDbSpline
 62
7
  6
CONTINUOUS
 70
0
 71
3
 72
11
 73
7
 74
5
 42
0.0000001
 43
0.0000001
 44
0.0000000001
 12
-9.0975420561
 22
4.3032359825
 32
0.0
 13
-9.1260520966
 23
-4.3188846502
 33
0.0
 40
0.0
 40
0.0
 40
0.0
 40
0.0
 40
0.2971888146
 40
0.6011875378
 40
0.8814659335
 40
1.0
 40
1.0
 40
1.0
 40
1.0
 10
-49.7787795794
 20
86.0720808113
 30
0.0
 10
-50.6800088259
 20
86.4983720115
 30
0.0
 10
-52.5826274293
 20
87.2065658869
 30
0.0
 10
-55.5431835613
 20
87.6015781641
 30
0.0
 10
-57.907597273
 20
87.2460660927
 30
0.0
 10
-59.1590127195
 20
86.7529175084
 30
0.0
 10
-59.5195954083
 20
86.5822725216
 30
0.0
 11
-49.7787795794
 21
86.0720808113
 31
0.0
 11
-52.5895626401
 21
87.091319174
 31
0.0
 11
-55.6237302191
 21
87.4613177284
 31
0.0
 11
-58.4071523658
 21
87.0203195008
 31
0.0
 11
-59.5195954083
 21
86.5822725216
 31
0.0
  0
SPLINE
  5
44F
100
AcDbEntity
  8
DRAFT
100
AcDbSpline
 62
7
  6
CONTINUOUS
 70
0
 71
3
 72
8
 73
4
 74
2
 42
0.0000001
 43
0.0000001
 44
0.0000000001
 12
1.0680747206
 22
-0.794249608
 32
0.0
 13
1.1494800748
 23
-0.665501703
 33
0.0
 40
0.0
 40
0.0
 40
0.0
 40
0.0
 40
1.0
 40
1.0
 40
1.0
 40
1.0
 10
55.3454499603
 20
25.5444156428
 30
0.0
 10
55.7014748672
 20
25.2796657734
 30
0.0
 10
56.0711831056
 20
25.0339712207
 30
0.0
 10
56.4543431305
 20
24.8121373197
 30
0.0
 11
55.3454499603
 21
25.5444156428
 31
0.0
 11
56.4543431305
 21
24.8121373197
 31
0.0
  0
SPLINE
  5
450
100
AcDbEntity
  8
DRAFT
100
AcDbSpline
 62
7
  6
CONTINUOUS
 70
0
 71
3
 72
9
 73
5
 74
3
 42
0.0000001
 43
0.0000001
 44
0.0000000001
 12
2.3469753454
 22
-0.7711965274
 32
0.0
 13
2.4772110366
 23
-0.0664876535
 33
0.0
 40
0.0
 40
0.0
 40
0.0
 40
0.0
 40
0.7839544861
 40
1.0
 40
1.0
 40
1.0
 40
1.0
 10
58.5217802165
 20
-30.2398276696
 30
0.0
 10
59.1350875001
 20
-30.4413553287
 30
0.0
 10
59.9438278496
 20
-30.6243946172
 30
0.0
 10
60.7687999695
 20
-30.676689829
 30
0.0
 10
60.9471967467
 20
-30.6814779487
 30
0.0
 11
58.5217802165
 21
-30.2398276696
 31
0.0
 11
60.4130945469
 21
-30.6479909706
 31
0.0
 11
60.9471967467
 21
-30.6814779487
 31
0.0
  0
SPLINE
  5
451
100
AcDbEntity
  8
DRAFT
100
AcDbSpline
 62
7
  6
CONTINUOUS
 70
0
 71
3
 72
9
 73
5
 74
3
 42
0.0000001
 43
0.0000001
 44
0.0000000001
 12
-2.2787466146
 22
0.9840844104
 32
0.0
 13
-2.4830857066
 23
0.2611876761
 33
0.0
 40
0.0
 40
0.0
 40
0.0
 40
0.0
 40
0.954148994
 40
1.0
 40
1.0
 40
1.0
 40
1.0
 10
56.4699229339
 20
-4.2470896177
 30
0.0
 10
55.7451683373
 20
-3.934101901
 30
0.0
 10
54.9407274726
 20
-3.6921776093
 30
0.0
 10
54.1138987958
 20
-3.5982102238
 30
0.0
 10
54.0759481366
 20
-3.5942183179
 30
0.0
 11
56.4699229339
 21
-4.2470896177
 31
0.0
 11
54.1896735829
 21
-3.6071382742
 31
0.0
 11
54.0759481366
 21
-3.5942183179
 31
0.0
  0
SPLINE
  5
452
100
AcDbEntity
  8
RACCORDO
100
AcDbSpline
 62
7
  6
CONTINUOUS
 70
0
 71
3
 72
9
 73
5
 74
3
 42
0.0000001
 43
0.0000001
 44
0.0000000001
 12
0.4705501532
 22
-0.1003014127
 32
0.0
 13
0.3202408542
 23
-0.358220081
 33
0.0
 40
0.0
 40
0.0
 40
0.0
 40
0.0
 40
0.4822647171
 40
1.0
 40
1.0
 40
1.0
 40
1.0
 10
80.4989713542
 20
46.8854156714
 30
0.0
 10
80.5746145997
 20
46.8692917273
 30
0.0
 10
80.7257928135
 20
46.8084186964
 30
0.0
 10
80.8489643333
 20
46.7040035912
 30
0.0
 10
80.9042309964
 20
46.6421825329
 30
0.0
 11
80.4989713542
 21
46.8854156714
 31
0.0
 11
80.7139166606
 21
46.800450914
 31
0.0
 11
80.9042309964
 21
46.6421825329
 31
0.0
  0
SPLINE
  5
453
100
AcDbEntity
  8
RACCORDO
100
AcDbSpline
 62
7
  6
CONTINUOUS
 70
0
 71
3
 72
10
 73
6
 74
4
 42
0.0000001
 43
0.0000001
 44
0.0000000001
 12
0.4000315135
 22
-0.4474735789
 32
0.0
 13
0.0491907554
 23
-0.5977618026
 33
0.0
 40
0.0
 40
0.0
 40
0.0
 40
0.0
 40
0.205531238
 40
0.8110738721
 40
1.0
 40
1.0
 40
1.0
 40
1.0
 10
80.9042309964
 20
46.6421825329
 30
0.0
 10
80.9316373204
 20
46.6115259334
 30
0.0
 10
81.03153702
 20
46.4830158426
 30
0.0
 10
81.112224156
 20
46.2970789033
 30
0.0
 10
81.1358385906
 20
46.1395499135
 30
0.0
 10
81.1389363969
 20
46.1019056393
 30
0.0
 11
80.9042309964
 21
46.6421825329
 31
0.0
 11
80.9800551351
 21
46.5449635043
 31
0.0
 11
81.1223178391
 21
46.2139166447
 31
0.0
 11
81.1389363969
 21
46.1019056393
 31
0.0
  0
SPLINE
  5
454
100
AcDbEntity
  8
RACCORDO
100
AcDbSpline
 62
7
  6
CONTINUOUS
 70
0
 71
3
 72
10
 73
6
 74
4
 42
0.0000001
 43
0.0000001
 44
0.0000000001
 12
0.0574169121
 22
-0.697725348
 32
0.0
 13
-0.5661497805
 23
-0.4119896082
 33
0.0
 40
0.0
 40
0.0
 40
0.0
 40
0.0
 40
0.3128543911
 40
0.730790752
 40
1.0
 40
1.0
 40
1.0
 40
1.0
 10
81.1389363969
 20
46.1019056393
 30
0.0
 10
81.1449241079
 20
46.029143493
 30
0.0
 10
81.1369383435
 20
45.8575775478
 30
0.0
 10
81.0434798518
 20
45.637694371
 30
0.0
 10
80.927428245
 20
45.5229157649
 30
0.0
 10
80.8766239928
 20
45.485945294
 30
0.0
 11
81.1389363969
 21
46.1019056393
 31
0.0
 11
81.1270329208
 21
45.8842409079
 31
0.0
 11
81.0104056813
 21
45.618425205
 31
0.0
 11
80.8766239928
 21
45.485945294
 31
0.0
  0
SPLINE
  5
455
100
AcDbEntity
  8
DRAFT
100
AcDbSpline
 62
7
  6
CONTINUOUS
 70
0
 71
3
 72
10
 73
6
 74
4
 42
0.0000001
 43
0.0000001
 44
0.0000000001
 12
6.134349257
 22
0.3836572859
 32
0.0
 13
5.4789588145
 23
-2.7394794073
 33
0.0
 40
0.0
 40
0.0
 40
0.0
 40
0.0
 40
0.1153351379
 40
0.5366551511
 40
1.0
 40
1.0
 40
1.0
 40
1.0
 10
-57.9119902314
 20
84.5306016258
 30
0.0
 10
-57.6761548922
 20
84.5453513478
 30
0.0
 10
-56.5761213144
 20
84.5697170907
 30
0.0
 10
-54.5390410321
 20
84.2510189449
 30
0.0
 10
-52.8464730815
 20
83.5809450537
 30
0.0
 10
-52.0002573001
 20
83.157837163
 30
0.0
 11
-57.9119902314
 21
84.5306016258
 31
0.0
 11
-57.2036430726
 21
84.5467994078
 31
0.0
 11
-54.6494997771
 21
84.176378876
 31
0.0
 11
-52.0002573001
 21
83.157837163
 31
0.0
  0
SPLINE
  5
456
100
AcDbEntity
  8
DRAFT
100
AcDbSpline
 62
7
  6
CONTINUOUS
 70
0
 71
3
 72
11
 73
7
 74
5
 42
0.0000001
 43
0.0000001
 44
0.0000000001
 12
0.0
 22
-9.6341172121
 32
0.0
 13
-6.420232469
 23
-7.2389830239
 33
0.0
 40
0.0
 40
0.0
 40
0.0
 40
0.0
 40
0.3248542299
 40
0.6212649429
 40
0.8908827714
 40
1.0
 40
1.0
 40
1.0
 40
1.0
 10
49.1406975992
 20
-68.7678455887
 30
0.0
 10
49.1406975992
 20
-69.8110734979
 30
0.0
 10
48.9949251289
 20
-71.8113078477
 30
0.0
 10
48.274707919
 20
-74.5991031625
 30
0.0
 10
47.2828900877
 20
-76.5492401737
 30
0.0
 10
46.5269034633
 20
-77.5131236526
 30
0.0
 10
46.2933841387
 20
-77.7764229076
 30
0.0
 11
49.1406975992
 21
-68.7678455887
 31
0.0
 11
48.8907847131
 21
-71.8875352824
 31
0.0
 11
48.1505071768
 21
-74.6455704162
 31
0.0
 11
46.9459486051
 21
-76.9469177425
 31
0.0
 11
46.2933841387
 21
-77.7764229076
 31
0.0
  0
SPLINE
  5
457
100
AcDbEntity
  8
DRAFT
100
AcDbSpline
 62
7
  6
CONTINUOUS
 70
0
 71
3
 72
10
 73
6
 74
4
 42
0.0000001
 43
0.0000001
 44
0.0000000001
 12
2.4487140256
 22
-7.7029859991
 32
0.0
 13
0.0
 23
-8.0787263625
 33
0.0
 40
0.0
 40
0.0
 40
0.0
 40
0.0
 40
0.1391418457
 40
0.5817586403
 40
1.0
 40
1.0
 40
1.0
 40
1.0
 10
47.8295762973
 20
23.1823626414
 30
0.0
 10
47.9431491604
 20
22.8250934115
 30
0.0
 10
48.3907266162
 20
21.3227042861
 30
0.0
 10
48.9575430901
 20
18.6833210014
 30
0.0
 10
49.1406975992
 20
16.3629044113
 30
0.0
 10
49.1406975992
 20
15.2366185784
 30
0.0
 11
47.8295762973
 21
23.1823626414
 31
0.0
 11
48.1505071768
 21
22.1045338283
 31
0.0
 11
48.8907847131
 21
18.6062211583
 31
0.0
 11
49.1406975992
 21
15.2366185784
 31
0.0
  0
SPLINE
  5
458
100
AcDbEntity
  8
DRAFT
100
AcDbSpline
 62
7
  6
CONTINUOUS
 70
0
 71
3
 72
9
 73
5
 74
3
 42
0.0000001
 43
0.0000001
 44
0.0000000001
 12
5.0974046417
 22
-2.5487023209
 32
0.0
 13
4.1862237902
 23
-3.8733450372
 33
0.0
 40
0.0
 40
0.0
 40
0.0
 40
0.0
 40
0.5458600407
 40
1.0
 40
1.0
 40
1.0
 40
1.0
 10
34.9738767859
 20
39.6707701201
 30
0.0
 10
35.9013666209
 20
39.2070252025
 30
0.0
 10
37.5211646961
 20
38.1940091248
 30
0.0
 10
38.9845224894
 20
36.9761830068
 30
0.0
 10
39.61823299
 20
36.3898360876
 30
0.0
 11
34.9738767859
 21
39.6707701201
 31
0.0
 11
37.6231192629
 21
38.040069356
 31
0.0
 11
39.61823299
 21
36.3898360876
 31
0.0
  0
SPLINE
  5
459
100
AcDbEntity
  8
DRAFT
100
AcDbSpline
 62
7
  6
CONTINUOUS
 70
0
 71
3
 72
9
 73
5
 74
3
 42
0.0000001
 43
0.0000001
 44
0.0000000001
 12
2.6061440773
 22
0.6484177183
 32
0.0
 13
1.9424641537
 23
1.8547238215
 33
0.0
 40
0.0
 40
0.0
 40
0.0
 40
0.0
 40
0.7338195241
 40
1.0
 40
1.0
 40
1.0
 40
1.0
 10
61.9706977791
 20
-28.6521455158
 30
0.0
 10
62.6081775814
 20
-28.493538322
 30
0.0
 10
63.4391513193
 20
-28.1105002426
 30
0.0
 10
64.1262154024
 20
-27.5346877124
 30
0.0
 10
64.29856408
 20
-27.370123956
 30
0.0
 11
61.9706977791
 21
-28.6521455158
 31
0.0
 11
63.7502530198
 21
-27.8275693548
 31
0.0
 11
64.29856408
 21
-27.370123956
 31
0.0
  0
SPLINE
  5
45A
100
AcDbEntity
  8
DRAFT
100
AcDbSpline
 62
7
  6
CONTINUOUS
 70
0
 71
3
 72
9
 73
5
 74
3
 42
0.0000001
 43
0.0000001
 44
0.0000000001
 12
1.1992188223
 22
1.7202409938
 32
0.0
 13
0.7282472369
 23
1.9637242279
 33
0.0
 40
0.0
 40
0.0
 40
0.0
 40
0.0
 40
0.075402279
 40
1.0
 40
1.0
 40
1.0
 40
1.0
 10
66.9269659515
 20
-27.4526319341
 30
0.0
 10
66.9571072289
 20
-27.409395237
 30
0.0
 10
67.3504770938
 20
-26.8317774093
 30
0.0
 10
67.6588324184
 20
-26.2018948022
 30
0.0
 10
67.8832776636
 20
-25.596676487
 30
0.0
 11
66.9269659515
 21
-27.4526319341
 31
0.0
 11
67.015945847
 21
-27.3219906842
 31
0.0
 11
67.8832776636
 21
-25.596676487
 31
0.0
  0
SPLINE
  5
45B
100
AcDbEntity
  8
DRAFT
100
AcDbSpline
 62
7
  6
CONTINUOUS
 70
0
 71
3
 72
9
 73
5
 74
3
 42
0.0000001
 43
0.0000001
 44
0.0000000001
 12
0.6166868976
 22
1.5485617224
 32
0.0
 13
0.3791242421
 23
1.6227041525
 33
0.0
 40
0.0
 40
0.0
 40
0.0
 40
0.0
 40
0.4503141859
 40
1.0
 40
1.0
 40
1.0
 40
1.0
 10
67.8076399819
 20
-26.9733370844
 30
0.0
 10
67.9002076013
 20
-26.7408906473
 30
0.0
 10
68.0865114407
 20
-26.2169892904
 30
0.0
 10
68.2329432814
 20
-25.6808463078
 30
0.0
 10
68.3024096873
 20
-25.38352049
 30
0.0
 11
67.8076399819
 21
-26.9733370844
 31
0.0
 11
68.0599127666
 21
-26.2665678293
 31
0.0
 11
68.3024096873
 21
-25.38352049
 31
0.0
  0
SPLINE
  5
45C
100
AcDbEntity
  8
DRAFT
100
AcDbSpline
 62
7
  6
CONTINUOUS
 70
0
 71
3
 72
9
 73
5
 74
3
 42
0.0000001
 43
0.0000001
 44
0.0000000001
 12
-1.2210190014
 22
-1.2801105211
 32
0.0
 13
-0.8711063927
 23
-1.5348107789
 33
0.0
 40
0.0
 40
0.0
 40
0.0
 40
0.0
 40
0.6744947017
 40
1.0
 40
1.0
 40
1.0
 40
1.0
 10
-2.5047117789
 20
72.9934833662
 30
0.0
 10
-2.7792353946
 20
72.7056741114
 30
0.0
 10
-3.1478937621
 20
72.2415914716
 30
0.0
 10
-3.4567838585
 20
71.7403459763
 30
0.0
 10
-3.5513004405
 20
71.5738162962
 30
0.0
 11
-2.5047117789
 21
72.9934833662
 31
0.0
 11
-3.2493604632
 21
72.0627245632
 31
0.0
 11
-3.5513004405
 21
71.5738162962
 31
0.0
  0
SPLINE
  5
45D
100
AcDbEntity
  8
DRAFT
100
AcDbSpline
 62
7
  6
CONTINUOUS
 70
0
 71
3
 72
9
 73
5
 74
3
 42
0.0000001
 43
0.0000001
 44
0.0000000001
 12
-2.7214600848
 22
0.6757919221
 32
0.0
 13
-2.72396588
 23
-0.6767923596
 33
0.0
 40
0.0
 40
0.0
 40
0.0
 40
0.0
 40
0.324207879
 40
1.0
 40
1.0
 40
1.0
 40
1.0
 10
56.0258395107
 20
-4.4812216611
 30
0.0
 10
55.7317332434
 20
-4.4081893059
 30
0.0
 10
54.8102937062
 20
-4.2396099599
 30
0.0
 10
53.8604672886
 20
-4.2801608321
 30
0.0
 10
53.2468557288
 20
-4.4326178135
 30
0.0
 11
56.0258395107
 21
-4.4812216611
 31
0.0
 11
55.1312735612
 21
-4.3208616353
 31
0.0
 11
53.2468557288
 21
-4.4326178135
 31
0.0
  0
SPLINE
  5
45E
100
AcDbEntity
  8
DRAFT
100
AcDbSpline
 62
7
  6
CONTINUOUS
 70
0
 71
3
 72
8
 73
4
 74
2
 42
0.0000001
 43
0.0000001
 44
0.0000000001
 12
-1.5637230784
 22
0.1430443874
 32
0.0
 13
-1.5539799271
 23
-0.2098692815
 33
0.0
 40
0.0
 40
0.0
 40
0.0
 40
0.0
 40
1.0
 40
1.0
 40
1.0
 40
1.0
 10
3.4468253208
 20
75.0408257978
 30
0.0
 10
2.9255842947
 20
75.0885072603
 30
0.0
 10
2.3983962642
 20
75.0827466646
 30
0.0
 10
1.8804029552
 20
75.0127902374
 30
0.0
 11
3.4468253208
 21
75.0408257978
 31
0.0
 11
1.8804029552
 21
75.0127902374
 31
0.0
  0
SPLINE
  5
45F
100
AcDbEntity
  8
RACCORDO
100
AcDbSpline
 62
253
  6
CONTINUOUS
 70
0
 71
3
 72
9
 73
5
 74
3
 42
0.0000001
 43
0.0000001
 44
0.0000000001
 12
-0.0020159693
 22
-0.4602152188
 32
0.0
 13
-0.4111533859
 23
-0.2128808974
 33
0.0
 40
0.0
 40
0.0
 40
0.0
 40
0.0
 40
0.4279959533
 40
1.0
 40
1.0
 40
1.0
 40
1.0
 10
52.9072902387
 20
-68.029828404
 30
0.0
 10
52.9070026298
 20
-68.0954851545
 30
0.0
 10
52.8377810933
 20
-68.2496019823
 30
0.0
 10
52.7050376384
 20
-68.3365680633
 30
0.0
 10
52.6266438382
 20
-68.3771576416
 30
0.0
 11
52.9072902387
 21
-68.029828404
 31
0.0
 11
52.8361135757
 21
-68.215107202
 31
0.0
 11
52.6266438382
 21
-68.3771576416
 31
0.0
  0
SPLINE
  5
460
100
AcDbEntity
  8
RACCORDO
100
AcDbSpline
 62
253
  6
CONTINUOUS
 70
0
 71
3
 72
9
 73
5
 74
3
 42
0.0000001
 43
0.0000001
 44
0.0000000001
 12
-0.0020159707
 22
-0.4602152241
 32
0.0
 13
-0.4111533908
 23
-0.2128808999
 33
0.0
 40
0.0
 40
0.0
 40
0.0
 40
0.0
 40
0.427995899
 40
1.0
 40
1.0
 40
1.0
 40
1.0
 10
52.9072902387
 20
15.9746357631
 30
0.0
 10
52.9070026296
 20
15.9089790202
 30
0.0
 10
52.8377810995
 20
15.7548621916
 30
0.0
 10
52.7050376467
 20
15.6678961
 30
0.0
 10
52.6266438382
 20
15.6273065174
 30
0.0
 11
52.9072902387
 21
15.9746357631
 31
0.0
 11
52.8361135907
 21
15.7893569839
 31
0.0
 11
52.6266438382
 21
15.6273065174
 31
0.0
  0
SPLINE
  5
461
100
AcDbEntity
  8
RACCORDO
100
AcDbSpline
 62
253
  6
CONTINUOUS
 70
0
 71
3
 72
9
 73
5
 74
3
 42
0.0000001
 43
0.0000001
 44
0.0000000001
 12
-0.4054069353
 22
0.1975029611
 32
0.0
 13
-0.4016788575
 23
-0.1922523376
 33
0.0
 40
0.0
 40
0.0
 40
0.0
 40
0.0
 40
0.3843300974
 40
1.0
 40
1.0
 40
1.0
 40
1.0
 10
37.5420910242
 20
42.4155120834
 30
0.0
 10
37.4901543286
 20
42.4408141942
 30
0.0
 10
37.3390868759
 20
42.4773756335
 30
0.0
 10
37.1899716989
 20
42.4332596514
 30
0.0
 10
37.1075378378
 20
42.3938049921
 30
0.0
 11
37.5420910242
 21
42.4155120834
 31
0.0
 11
37.3743231609
 21
42.4570006857
 31
0.0
 11
37.1075378378
 21
42.3938049921
 31
0.0
  0
SPLINE
  5
462
100
AcDbEntity
  8
RACCORDO
100
AcDbSpline
 62
253
  6
CONTINUOUS
 70
0
 71
3
 72
9
 73
5
 74
3
 42
0.0000001
 43
0.0000001
 44
0.0000000001
 12
-0.4054069303
 22
0.1975029645
 32
0.0
 13
-0.4016788539
 23
-0.1922523359
 33
0.0
 40
0.0
 40
0.0
 40
0.0
 40
0.0
 40
0.3843300476
 40
1.0
 40
1.0
 40
1.0
 40
1.0
 10
-49.4320430604
 20
85.9025791263
 30
0.0
 10
-49.4839797487
 20
85.9278812342
 30
0.0
 10
-49.6350471972
 20
85.9644426787
 30
0.0
 10
-49.7841623746
 20
85.9203266939
 30
0.0
 10
-49.8665962416
 20
85.8808720318
 30
0.0
 11
-49.4320430604
 21
85.9025791263
 31
0.0
 11
-49.5998108989
 21
85.944067728
 31
0.0
 11
-49.8665962416
 21
85.8808720318
 31
0.0
  0
SPLINE
  5
463
100
AcDbEntity
  8
DRAFT
100
AcDbSpline
 62
7
  6
CONTINUOUS
 70
0
 71
3
 72
8
 73
4
 74
2
 42
0.0000001
 43
0.0000001
 44
0.0000000001
 12
1.0865427069
 22
1.7180752131
 32
0.0
 13
0.6598002011
 23
1.9233566283
 33
0.0
 40
0.0
 40
0.0
 40
0.0
 40
0.0
 40
1.0
 40
1.0
 40
1.0
 40
1.0
 10
66.4496799175
 20
-27.7113409196
 30
0.0
 10
66.8118608198
 20
-27.1386491819
 30
0.0
 10
67.0961985103
 20
-26.5192303407
 30
0.0
 10
67.3161319107
 20
-25.8781114646
 30
0.0
 11
66.4496799175
 21
-27.7113409196
 31
0.0
 11
67.3161319107
 21
-25.8781114646
 31
0.0
  0
SPLINE
  5
464
100
AcDbEntity
  8
DRAFT
100
AcDbSpline
 62
7
  6
CONTINUOUS
 70
0
 71
3
 72
9
 73
5
 74
3
 42
0.0000001
 43
0.0000001
 44
0.0000000001
 12
1.1938775014
 22
-0.9828550367
 32
0.0
 13
1.2985043052
 23
-0.8408620715
 33
0.0
 40
0.0
 40
0.0
 40
0.0
 40
0.0
 40
0.612999072
 40
1.0
 40
1.0
 40
1.0
 40
1.0
 10
54.6547910311
 20
25.1969635499
 30
0.0
 10
54.8987396312
 20
24.9961338081
 30
0.0
 10
55.3072600052
 20
24.6813338135
 30
0.0
 10
55.7334002374
 20
24.3905563767
 30
0.0
 10
55.9009076945
 20
24.2820849094
 30
0.0
 11
54.6547910311
 21
25.1969635499
 31
0.0
 11
55.4062058279
 21
24.6192165042
 31
0.0
 11
55.9009076945
 21
24.2820849094
 31
0.0
  0
SPLINE
  5
465
100
AcDbEntity
  8
DRAFT
100
AcDbSpline
 62
7
  6
CONTINUOUS
 70
0
 71
3
 72
11
 73
7
 74
5
 42
0.0000001
 43
0.0000001
 44
0.0000000001
 12
-6.5927280257
 22
3.2963640128
 32
0.0
 13
-7.3235285649
 23
-0.9628207876
 33
0.0
 40
0.0
 40
0.0
 40
0.0
 40
0.0
 40
0.3249316021
 40
0.626948097
 40
0.9095392636
 40
1.0
 40
1.0
 40
1.0
 40
1.0
 10
-52.0002573001
 20
84.8596549113
 30
0.0
 10
-52.7143191932
 20
85.2166858578
 30
0.0
 10
-54.1412873733
 20
85.8143395484
 30
0.0
 10
-56.3246533014
 20
86.3388152854
 30
0.0
 10
-57.9922901337
 20
86.4214427294
 30
0.0
 10
-58.9073475651
 20
86.3348152811
 30
0.0
 10
-59.1281781608
 20
86.3057827886
 30
0.0
 11
-52.0002573001
 21
84.8596549113
 31
0.0
 11
-54.2144036225
 21
85.7727569968
 31
0.0
 11
-56.3821754232
 21
86.2791434145
 31
0.0
 11
-58.4631837782
 21
86.3690489315
 31
0.0
 11
-59.1281781608
 21
86.3057827886
 31
0.0
  0
SPLINE
  5
466
100
AcDbEntity
  8
DRAFT
100
AcDbSpline
 62
7
  6
CONTINUOUS
 70
0
 71
3
 72
9
 73
5
 74
3
 42
0.0000001
 43
0.0000001
 44
0.0000000001
 12
-0.6546940084
 22
-1.1953784319
 32
0.0
 13
-0.4763743768
 23
-1.2764949762
 33
0.0
 40
0.0
 40
0.0
 40
0.0
 40
0.0
 40
0.2397795074
 40
1.0
 40
1.0
 40
1.0
 40
1.0
 10
-4.2349363447
 20
72.1852687686
 30
0.0
 10
-4.2872637469
 20
72.0897263514
 30
0.0
 10
-4.4980102313
 20
71.6871782268
 30
0.0
 10
-4.678087922
 20
71.2696452375
 30
0.0
 10
-4.7988044431
 20
70.946172691
 30
0.0
 11
-4.2349363447
 21
72.1852687686
 31
0.0
 11
-4.3865658452
 21
71.8958192263
 31
0.0
 11
-4.7988044431
 21
70.946172691
 31
0.0
  0
SPLINE
  5
467
100
AcDbEntity
  8
DRAFT
100
AcDbSpline
 62
7
  6
CONTINUOUS
 70
0
 71
3
 72
9
 73
5
 74
3
 42
0.0000001
 43
0.0000001
 44
0.0000000001
 12
1.8135039604
 22
-0.7718931884
 32
0.0
 13
1.9264640381
 23
-0.428167141
 33
0.0
 40
0.0
 40
0.0
 40
0.0
 40
0.0
 40
0.8178552685
 40
1.0
 40
1.0
 40
1.0
 40
1.0
 10
57.707359801
 20
-30.8022466891
 30
0.0
 10
58.2017543905
 20
-31.0126789927
 30
0.0
 10
58.8244633845
 20
-31.2304943871
 30
0.0
 10
59.4639492999
 20
-31.3853684337
 30
0.0
 10
59.5809143915
 20
-31.4113645633
 30
0.0
 11
57.707359801
 21
-30.8022466891
 31
0.0
 11
59.2315479221
 21
-31.326861264
 31
0.0
 11
59.5809143915
 21
-31.4113645633
 31
0.0
  0
SPLINE
  5
468
100
AcDbEntity
  8
ASSI
100
AcDbSpline
 62
7
  6
CONTINUOUS
 70
0
 71
3
 72
9
 73
5
 74
3
 42
0.0000001
 43
0.0000001
 44
0.0000000001
 12
-0.7446172819
 22
0.16905303
 32
0.0
 13
-0.686146443
 23
-0.3342485776
 33
0.0
 40
0.0
 40
0.0
 40
0.0
 40
0.0
 40
0.3289873175
 40
1.0
 40
1.0
 40
1.0
 40
1.0
 10
69.2180259149
 20
48.5702818059
 30
0.0
 10
69.1363693675
 20
48.5888205736
 30
0.0
 10
68.8833463937
 20
48.6228932399
 30
0.0
 10
68.6218732395
 20
48.5709985397
 30
0.0
 10
68.4684022511
 20
48.4962368615
 30
0.0
 11
69.2180259149
 21
48.5702818059
 31
0.0
 11
68.9689720832
 21
48.6019350474
 31
0.0
 11
68.4684022511
 21
48.4962368615
 31
0.0
  0
SPLINE
  5
469
100
AcDbEntity
  8
DRAFT
100
AcDbSpline
 62
7
  6
CONTINUOUS
 70
0
 71
3
 72
9
 73
5
 74
3
 42
0.0000001
 43
0.0000001
 44
0.0000000001
 12
-1.8462974777
 22
0.5345863735
 32
0.0
 13
-1.9263841914
 23
-0.0189222941
 33
0.0
 40
0.0
 40
0.0
 40
0.0
 40
0.0
 40
0.6642029414
 40
1.0
 40
1.0
 40
1.0
 40
1.0
 10
55.5015036901
 20
-4.7674458163
 30
0.0
 10
55.0927316183
 20
-4.6490878691
 30
0.0
 10
54.4621073432
 20
-4.5212079778
 30
0.0
 10
53.8192882508
 20
-4.4913158517
 30
0.0
 10
53.6036635358
 20
-4.4934338686
 30
0.0
 11
55.5015036901
 21
-4.7674458163
 31
0.0
 11
54.2496266882
 21
-4.5224402953
 31
0.0
 11
53.6036635358
 21
-4.4934338686
 31
0.0
  0
SPLINE
  5
46A
100
AcDbEntity
  8
DRAFT
100
AcDbSpline
 62
7
  6
CONTINUOUS
 70
0
 71
3
 72
9
 73
5
 74
3
 42
0.0000001
 43
0.0000001
 44
0.0000000001
 12
-1.4187258268
 22
0.1888631379
 32
0.0
 13
-1.4294513199
 23
-0.0879580621
 33
0.0
 40
0.0
 40
0.0
 40
0.0
 40
0.0
 40
0.1908434936
 40
1.0
 40
1.0
 40
1.0
 40
1.0
 10
2.9471311021
 20
74.7968623008
 30
0.0
 10
2.856879571
 20
74.8088767344
 30
0.0
 10
2.382777624
 20
74.863810017
 30
0.0
 10
1.9032453311
 20
74.8750028116
 30
0.0
 10
1.5176953858
 20
74.8512788655
 30
0.0
 11
2.9471311021
 21
74.7968623008
 31
0.0
 11
2.6757232473
 21
74.8282509708
 31
0.0
 11
1.5176953858
 21
74.8512788655
 31
0.0
  0
SPLINE
  5
46B
100
AcDbEntity
  8
DRAFT
100
AcDbSpline
 62
7
  6
CONTINUOUS
 70
0
 71
3
 72
10
 73
6
 74
4
 42
0.0000001
 43
0.0000001
 44
0.0000000001
 12
0.6702128214
 22
0.2849164611
 32
0.0
 13
0.6706812507
 23
0.2838120431
 33
0.0
 40
0.0
 40
0.0
 40
0.0
 40
0.0
 40
0.333976679
 40
0.6673101429
 40
1.0
 40
1.0
 40
1.0
 40
1.0
 10
57.9010166145
 20
-3.2579399611
 30
0.0
 10
57.975628432
 20
-3.2262214766
 30
0.0
 10
58.1247255523
 20
-3.1628860043
 30
0.0
 10
58.348207447
 20
-3.0680966189
 30
0.0
 10
58.4970863809
 20
-3.0050467339
 30
0.0
 10
58.571462664
 20
-2.9735729379
 30
0.0
 11
57.9010166145
 21
-3.2579399611
 31
0.0
 11
58.1248779362
 21
-3.1628453835
 31
0.0
 11
58.3483599933
 21
-3.0680561655
 31
0.0
 11
58.571462664
 21
-2.9735729379
 31
0.0
  0
SPLINE
  5
46C
100
AcDbEntity
  8
RACCORDO
100
AcDbSpline
 62
253
  6
CONTINUOUS
 70
0
 71
3
 72
8
 73
4
 74
2
 42
0.0000001
 43
0.0000001
 44
0.0000000001
 12
-0.0200642611
 22
0.0093012672
 32
0.0
 13
-0.0399492489
 23
-0.0029815464
 33
0.0
 40
0.0
 40
0.0
 40
0.0
 40
0.0
 40
1.0
 40
1.0
 40
1.0
 40
1.0
 10
80.8885136102
 20
45.4694705117
 30
0.0
 10
80.8818255232
 20
45.4725709341
 30
0.0
 10
80.86689873
 20
45.4730252247
 30
0.0
 10
80.8535823138
 20
45.4720313759
 30
0.0
 11
80.8885136102
 21
45.4694705117
 31
0.0
 11
80.8535823138
 21
45.4720313759
 31
0.0
  0
SPLINE
  5
46D
100
AcDbEntity
  8
RACCORDO
100
AcDbSpline
 62
253
  6
CONTINUOUS
 70
0
 71
3
 72
12
 73
8
 74
6
 42
0.0000001
 43
0.0000001
 44
0.0000000001
 12
0.0000000023
 22
-13.1486383021
 32
0.0
 13
-11.2873696072
 23
-6.8532921412
 33
0.0
 40
0.0
 40
0.0
 40
0.0
 40
0.0
 40
0.2713969594
 40
0.5184395668
 40
0.7423313903
 40
0.949148359
 40
1.0
 40
1.0
 40
1.0
 40
1.0
 10
52.6266438382
 20
-68.3771576497
 30
0.0
 10
52.6266438384
 20
-69.5666578016
 30
0.0
 10
52.4538153288
 20
-71.8454386991
 30
0.0
 10
51.5964155742
 20
-75.0076572216
 30
0.0
 10
50.165444982
 20
-77.6481177938
 30
0.0
 10
48.6581760437
 20
-79.17240622
 30
0.0
 10
47.7126465526
 20
-79.799952582
 30
0.0
 10
47.5213194636
 20
-79.9161196325
 30
0.0
 11
52.6266438382
 21
-68.3771576497
 31
0.0
 11
52.3289626311
 21
-71.9332202759
 31
0.0
 11
51.4457406274
 21
-75.0591124938
 31
0.0
 11
50.0108432794
 21
-77.6296096278
 31
0.0
 11
48.0804373274
 21
-79.5449320338
 31
0.0
 11
47.5213194636
 21
-79.9161196325
 31
0.0
  0
SPLINE
  5
46E
100
AcDbEntity
  8
RACCORDO
100
AcDbSpline
 62
253
  6
CONTINUOUS
 70
0
 71
3
 72
15
 73
11
 74
9
 42
0.0000001
 43
0.0000001
 44
0.0000000001
 12
26.6757272441
 22
-15.4738525286
 32
0.0
 13
0.4427862091
 23
-30.8108428834
 33
0.0
 40
0.0
 40
0.0
 40
0.0
 40
0.0
 40
0.0781752694
 40
0.2035814039
 40
0.3366829281
 40
0.4746419878
 40
0.6143148865
 40
0.7524152329
 40
0.8856588226
 40
1.0
 40
1.0
 40
1.0
 40
1.0
 10
38.1212432828
 20
41.8464721168
 30
0.0
 10
38.8163706705
 20
41.4432479202
 30
0.0
 10
40.5633906964
 20
40.2795629566
 30
0.0
 10
43.1665708696
 20
37.9867824182
 30
0.0
 10
45.8303002748
 20
34.8917239439
 30
0.0
 10
48.1648431436
 20
31.366209488
 30
0.0
 10
50.0842931155
 20
27.5414267827
 30
0.0
 10
51.5167581504
 20
23.5596369259
 30
0.0
 10
52.3830170578
 20
19.6840989312
 30
0.0
 10
52.6073187254
 20
17.1414231924
 30
0.0
 10
52.6241949576
 20
15.9671071749
 30
0.0
 11
38.1212432828
 21
41.8464721168
 31
0.0
 11
40.1325782022
 21
40.5167013354
 31
0.0
 11
43.0454333622
 21
37.978552015
 31
0.0
 11
45.7300293838
 21
34.8788708966
 31
0.0
 11
48.081968498
 21
31.3386465516
 31
0.0
 11
50.0120610726
 21
27.492717825
 31
0.0
 11
51.4465899635
 21
23.4872274845
 31
0.0
 11
52.3293785853
 21
19.4782778358
 31
0.0
 11
52.6241949576
 21
15.9671071749
 31
0.0
  0
SPLINE
  5
46F
100
AcDbEntity
  8
RACCORDO
100
AcDbSpline
 62
253
  6
CONTINUOUS
 70
0
 71
3
 72
9
 73
5
 74
3
 42
0.0000001
 43
0.0000001
 44
0.0000000001
 12
0.1478060586
 22
0.0721964655
 32
0.0
 13
0.1642529643
 23
-0.0094653483
 33
0.0
 40
0.0
 40
0.0
 40
0.0
 40
0.0
 40
0.1995866673
 40
1.0
 40
1.0
 40
1.0
 40
1.0
 10
80.0974562494
 20
46.8380746305
 30
0.0
 10
80.1072896223
 20
46.8428777811
 30
0.0
 10
80.1578625877
 20
46.8642000601
 30
0.0
 10
80.2135912589
 20
46.8706447406
 30
0.0
 10
80.2574146798
 20
46.8681193436
 30
0.0
 11
80.0974562494
 21
46.8380746305
 31
0.0
 11
80.1276823782
 21
46.8507964196
 31
0.0
 11
80.2574146798
 21
46.8681193436
 31
0.0
  0
SPLINE
  5
470
100
AcDbEntity
  8
RACCORDO
100
AcDbSpline
 62
253
  6
CONTINUOUS
 70
0
 71
3
 72
9
 73
5
 74
3
 42
0.0000001
 43
0.0000001
 44
0.0000000001
 12
0.2194430614
 22
-0.0126457688
 32
0.0
 13
0.1923351652
 23
-0.1048089482
 33
0.0
 40
0.0
 40
0.0
 40
0.0
 40
0.0
 40
0.7257268901
 40
1.0
 40
1.0
 40
1.0
 40
1.0
 10
80.2574146798
 20
46.8681193436
 30
0.0
 10
80.3104999233
 20
46.8650602187
 30
0.0
 10
80.3820653635
 20
46.8453089984
 30
0.0
 10
80.4477769003
 20
46.8132796889
 30
0.0
 10
80.4653610216
 20
46.8036975968
 30
0.0
 11
80.2574146798
 21
46.8681193436
 31
0.0
 11
80.411290721
 21
46.8299256172
 31
0.0
 11
80.4653610216
 21
46.8036975968
 31
0.0
  0
SPLINE
  5
471
100
AcDbEntity
  8
RACCORDO
100
AcDbSpline
 62
253
  6
CONTINUOUS
 70
0
 71
3
 72
8
 73
4
 74
2
 42
0.0000001
 43
0.0000001
 44
0.0000000001
 12
0.1148039882
 22
-0.0625599861
 32
0.0
 13
0.1023837025
 23
-0.081311523
 33
0.0
 40
0.0
 40
0.0
 40
0.0
 40
0.0
 40
1.0
 40
1.0
 40
1.0
 40
1.0
 10
80.4653610216
 20
46.8036975968
 30
0.0
 10
80.5036290177
 20
46.7828442682
 30
0.0
 10
80.5398188339
 20
46.7582147016
 30
0.0
 10
80.5739467348
 20
46.7311108607
 30
0.0
 11
80.4653610216
 21
46.8036975968
 31
0.0
 11
80.5739467348
 21
46.7311108607
 31
0.0
  0
SPLINE
  5
472
100
AcDbEntity
  8
RACCORDO
100
AcDbSpline
 62
253
  6
CONTINUOUS
 70
0
 71
3
 72
10
 73
6
 74
4
 42
0.0000001
 43
0.0000001
 44
0.0000000001
 12
0.4134782691
 22
-0.328377925
 32
0.0
 13
0.2212182975
 23
-0.4787197492
 33
0.0
 40
0.0
 40
0.0
 40
0.0
 40
0.0
 40
0.4113204841
 40
0.8513247007
 40
1.0
 40
1.0
 40
1.0
 40
1.0
 10
80.5739467348
 20
46.7311108607
 30
0.0
 10
80.6306374287
 20
46.686088005
 30
0.0
 10
80.7361963908
 20
46.5787717785
 30
0.0
 10
80.8334941265
 20
46.431464527
 30
0.0
 10
80.8798027566
 20
46.3388615055
 30
0.0
 10
80.8907659888
 20
46.3151369049
 30
0.0
 11
80.5739467348
 21
46.7311108607
 31
0.0
 11
80.7273344584
 21
46.5781646924
 31
0.0
 11
80.8557119618
 21
46.3852611844
 31
0.0
 11
80.8907659888
 21
46.3151369049
 31
0.0
  0
SPLINE
  5
473
100
AcDbEntity
  8
RACCORDO
100
AcDbSpline
 62
253
  6
CONTINUOUS
 70
0
 71
3
 72
9
 73
5
 74
3
 42
0.0000001
 43
0.0000001
 44
0.0000000001
 12
0.0971342311
 22
-0.2101999485
 32
0.0
 13
0.0558539071
 23
-0.224799237
 33
0.0
 40
0.0
 40
0.0
 40
0.0
 40
0.0
 40
0.6714408187
 40
1.0
 40
1.0
 40
1.0
 40
1.0
 10
80.8907659888
 20
46.3151369049
 30
0.0
 10
80.9125059514
 20
46.2680912964
 30
0.0
 10
80.9405950774
 20
46.1960508375
 30
0.0
 10
80.9617306229
 20
46.1217352798
 30
0.0
 10
80.9678477276
 20
46.0971153287
 30
0.0
 11
80.8907659888
 21
46.3151369049
 31
0.0
 11
80.9470914209
 21
46.1703237979
 31
0.0
 11
80.9678477276
 21
46.0971153287
 31
0.0
  0
SPLINE
  5
474
100
AcDbEntity
  8
RACCORDO
100
AcDbSpline
 62
253
  6
CONTINUOUS
 70
0
 71
3
 72
11
 73
7
 74
5
 42
0.0000001
 43
0.0000001
 44
0.0000000001
 12
0.151071847
 22
-0.6080297281
 32
0.0
 13
-0.4315660703
 23
-0.4585586066
 33
0.0
 40
0.0
 40
0.0
 40
0.0
 40
0.0
 40
0.2343716853
 40
0.5562844969
 40
0.8357243376
 40
1.0
 40
1.0
 40
1.0
 40
1.0
 10
80.9678477276
 20
46.0971153287
 30
0.0
 10
80.9796500487
 20
46.0496136781
 30
0.0
 10
81.0003544756
 20
45.9350751706
 30
0.0
 10
81.0007467107
 20
45.7592039815
 30
0.0
 10
80.9570850973
 20
45.6028249458
 30
0.0
 10
80.9038447587
 20
45.5247900215
 30
0.0
 10
80.8802128247
 20
45.4996800153
 30
0.0
 11
80.9678477276
 21
46.0971153287
 31
0.0
 11
80.9934674269
 21
45.9526512699
 31
0.0
 11
80.9908585828
 21
45.7513329933
 31
0.0
 11
80.9394376184
 21
45.5842975558
 31
0.0
 11
80.8802128247
 21
45.4996800153
 31
0.0
  0
SPLINE
  5
475
100
AcDbEntity
  8
RACCORDO
100
AcDbSpline
 62
253
  6
CONTINUOUS
 70
0
 71
3
 72
9
 73
5
 74
3
 42
0.0000001
 43
0.0000001
 44
0.0000000001
 12
-0.070971935
 22
-0.0754109135
 32
0.0
 13
-0.09273852
 23
-0.0474319856
 33
0.0
 40
0.0
 40
0.0
 40
0.0
 40
0.0
 40
0.4754418671
 40
1.0
 40
1.0
 40
1.0
 40
1.0
 10
80.8802128247
 20
45.4996800153
 30
0.0
 10
80.8689651483
 20
45.4877288468
 30
0.0
 10
80.8434396713
 20
45.4643932248
 30
0.0
 10
80.8139411368
 20
45.4458263256
 30
0.0
 10
80.7977255552
 20
45.4375327143
 30
0.0
 11
80.8802128247
 21
45.4996800153
 31
0.0
 11
80.8437952977
 21
45.4666173292
 31
0.0
 11
80.7977255552
 21
45.4375327143
 31
0.0
  0
SPLINE
  5
476
100
AcDbEntity
  8
RACCORDO
100
AcDbSpline
 62
253
  6
CONTINUOUS
 70
0
 71
3
 72
10
 73
6
 74
4
 42
0.0000001
 43
0.0000001
 44
0.0000000001
 12
-0.0072292461
 22
-1.3937346697
 32
0.0
 13
-1.2364746224
 23
-0.6290452014
 33
0.0
 40
0.0
 40
0.0
 40
0.0
 40
0.0
 40
0.2717977155
 40
0.6009375896
 40
1.0
 40
1.0
 40
1.0
 40
1.0
 10
83.4620690344
 20
41.6164623968
 30
0.0
 10
83.4614140702
 20
41.490191097
 30
0.0
 10
83.3834233873
 20
41.2106170064
 30
0.0
 10
83.0722006693
 20
40.8550074643
 30
0.0
 10
82.7845902157
 20
40.6733976703
 30
0.0
 10
82.620113368
 20
40.5897215722
 30
0.0
 11
83.4620690344
 21
41.6164623968
 31
0.0
 11
83.3685605766
 21
41.2507700455
 31
0.0
 11
83.0815048048
 21
40.8956739337
 31
0.0
 11
82.620113368
 21
40.5897215722
 31
0.0
  0
SPLINE
  5
477
100
AcDbEntity
  8
ASSI
100
AcDbSpline
 62
7
  6
CONTINUOUS
 70
0
 71
3
 72
9
 73
5
 74
3
 42
0.0000001
 43
0.0000001
 44
0.0000000001
 12
-0.3656559222
 22
0.0832711025
 32
0.0
 13
-0.3771994636
 23
-0.0281732165
 33
0.0
 40
0.0
 40
0.0
 40
0.0
 40
0.0
 40
0.4742373511
 40
1.0
 40
1.0
 40
1.0
 40
1.0
 10
69.3622056999
 20
48.6395821356
 30
0.0
 10
69.3044031346
 20
48.652745558
 30
0.0
 10
69.1806966329
 20
48.6729314961
 30
0.0
 10
69.0539493351
 20
48.6743403045
 30
0.0
 10
68.9878435388
 20
48.6694028296
 30
0.0
 11
69.3622056999
 21
48.6395821356
 31
0.0
 11
69.186386769
 21
48.6676684131
 31
0.0
 11
68.9878435388
 21
48.6694028296
 31
0.0
  0
SPLINE
  5
478
100
AcDbEntity
  8
ASSI
100
AcDbSpline
 62
7
  6
CONTINUOUS
 70
0
 71
3
 72
9
 73
5
 74
3
 42
0.0000001
 43
0.0000001
 44
0.0000000001
 12
-0.3939613395
 22
-0.0294251694
 32
0.0
 13
-0.3490499134
 23
-0.1752919937
 33
0.0
 40
0.0
 40
0.0
 40
0.0
 40
0.0
 40
0.9671594717
 40
1.0
 40
1.0
 40
1.0
 40
1.0
 10
68.9878435388
 20
48.6694028296
 30
0.0
 10
68.8608357251
 20
48.6599165525
 30
0.0
 10
68.7315503177
 20
48.6284364919
 30
0.0
 10
68.6147846858
 20
48.5708513555
 30
0.0
 10
68.6109636912
 20
48.5689324616
 30
0.0
 11
68.9878435388
 21
48.6694028296
 31
0.0
 11
68.6224674784
 21
48.5746054538
 31
0.0
 11
68.6109636912
 21
48.5689324616
 31
0.0
  0
SPLINE
  5
479
100
AcDbEntity
  8
DRAFT
100
AcDbSpline
 62
7
  6
CONTINUOUS
 70
0
 71
3
 72
10
 73
6
 74
4
 42
0.0000001
 43
0.0000001
 44
0.0000000001
 12
2.76766352
 22
3.3322416654
 32
0.0
 13
0.0
 23
4.3140215691
 33
0.0
 40
0.0
 40
0.0
 40
0.0
 40
0.0
 40
0.2140558975
 40
0.5840761337
 40
1.0
 40
1.0
 40
1.0
 40
1.0
 10
46.2893191236
 20
-76.2338752662
 30
0.0
 10
46.4867973565
 20
-75.9961132728
 30
0.0
 10
46.9544043294
 20
-75.2838295004
 30
0.0
 10
47.4184181267
 20
-73.9065447727
 30
0.0
 10
47.5210417835
 20
-72.7710707532
 30
0.0
 10
47.5210417835
 20
-72.1729692431
 30
0.0
 11
46.2893191236
 21
-76.2338752662
 31
0.0
 11
46.8031363372
 21
-75.4616512029
 31
0.0
 11
47.3390314599
 21
-73.9580185394
 31
0.0
 11
47.5210417835
 21
-72.1729692431
 31
0.0
  0
LINE
  5
47A
100
AcDbEntity
  8
DRAFT
100
AcDbLine
 62
7
  6
CONTINUOUS
 10
45.3978689106
 20
28.8354197254
 11
45.2586302341
 21
28.7691844007
  0
SPLINE
  5
47B
100
AcDbEntity
  8
DRAFT
100
AcDbSpline
 62
7
  6
CONTINUOUS
 70
0
 71
3
 72
8
 73
4
 74
2
 42
0.0000001
 43
0.0000001
 44
0.0000000001
 12
0.0
 22
1.2115495224
 32
0.0
 13
-0.1378321539
 23
1.2058920216
 33
0.0
 40
0.0
 40
0.0
 40
0.0
 40
0.0
 40
1.0
 40
1.0
 40
1.0
 40
1.0
 10
47.5210417835
 20
23.0898251732
 30
0.0
 10
47.5210417835
 20
23.493675014
 30
0.0
 10
47.4963250778
 20
23.8978529564
 30
0.0
 10
47.4503810265
 20
24.2998169636
 30
0.0
 11
47.5210417835
 21
23.0898251732
 31
0.0
 11
47.4503810265
 21
24.2998169636
 31
0.0
  0
SPLINE
  5
47C
100
AcDbEntity
  8
RACCORDO
100
AcDbSpline
 62
253
  6
CONTINUOUS
 70
0
 71
3
 72
10
 73
6
 74
4
 42
0.0000001
 43
0.0000001
 44
0.0000000001
 12
-0.7764861862
 22
0.2699964166
 32
0.0
 13
-0.793282085
 23
-0.2053284009
 33
0.0
 40
0.0
 40
0.0
 40
0.0
 40
0.0
 40
0.155449088
 40
0.776751375
 40
1.0
 40
1.0
 40
1.0
 40
1.0
 10
-14.4817043419
 20
97.3613463523
 30
0.0
 10
-14.5219390318
 20
97.3753365846
 30
0.0
 10
-14.726635557
 20
97.4343303159
 30
0.0
 10
-15.005060616
 20
97.4369207502
 30
0.0
 10
-15.2313500438
 20
97.3903219387
 30
0.0
 10
-15.2903830887
 20
97.3750421777
 30
0.0
 11
-14.4817043419
 21
97.3613463523
 31
0.0
 11
-14.6043331319
 21
97.3966669219
 31
0.0
 11
-15.1110966006
 21
97.4115488091
 31
0.0
 11
-15.2903830887
 21
97.3750421777
 31
0.0
  0
SPLINE
  5
47D
100
AcDbEntity
  8
RACCORDO
100
AcDbSpline
 62
253
  6
CONTINUOUS
 70
0
 71
3
 72
8
 73
4
 74
2
 42
0.0000001
 43
0.0000001
 44
0.0000000001
 12
-0.3784849645
 22
-0.0979647896
 32
0.0
 13
-0.3521427747
 23
-0.1660366941
 33
0.0
 40
0.0
 40
0.0
 40
0.0
 40
0.0
 40
1.0
 40
1.0
 40
1.0
 40
1.0
 10
-15.2903830887
 20
97.3750421777
 30
0.0
 10
-15.4165447435
 20
97.3423872478
 30
0.0
 10
-15.5391241687
 20
97.2962046045
 30
0.0
 10
-15.6565050936
 20
97.2408590398
 30
0.0
 11
-15.2903830887
 21
97.3750421777
 31
0.0
 11
-15.6565050936
 21
97.2408590398
 31
0.0
  0
SPLINE
  5
47E
100
AcDbEntity
  8
RACCORDO
100
AcDbSpline
 62
253
  6
CONTINUOUS
 70
0
 71
3
 72
8
 73
4
 74
2
 42
0.0000001
 43
0.0000001
 44
0.0000000001
 12
0.2958049039
 22
-0.2526619882
 32
0.0
 13
0.1871597136
 23
-0.3426902824
 33
0.0
 40
0.0
 40
0.0
 40
0.0
 40
0.0
 40
1.0
 40
1.0
 40
1.0
 40
1.0
 10
82.6264441532
 20
42.6765864145
 30
0.0
 10
82.7250457879
 20
42.5923657517
 30
0.0
 10
82.8136326749
 20
42.4951747405
 30
0.0
 10
82.8760192461
 20
42.3809446464
 30
0.0
 11
82.6264441532
 21
42.6765864145
 31
0.0
 11
82.8760192461
 21
42.3809446464
 31
0.0
  0
SPLINE
  5
47F
100
AcDbEntity
  8
RACCORDO
100
AcDbSpline
 62
253
  6
CONTINUOUS
 70
0
 71
3
 72
11
 73
7
 74
5
 42
0.0000001
 43
0.0000001
 44
0.0000000001
 12
0.5404180149
 22
-0.9895078303
 32
0.0
 13
-0.8814978217
 23
-0.6933036108
 33
0.0
 40
0.0
 40
0.0
 40
0.0
 40
0.0
 40
0.2948715253
 40
0.5871802227
 40
0.9273190231
 40
1.0
 40
1.0
 40
1.0
 40
1.0
 10
82.8760192461
 20
42.3809446464
 30
0.0
 10
82.9291372076
 20
42.2836854186
 30
0.0
 10
82.9970893612
 20
42.0654150934
 30
0.0
 10
82.9021406573
 20
41.7165250801
 30
0.0
 10
82.7250394211
 20
41.5149408975
 30
0.0
 10
82.6061247469
 20
41.4163157738
 30
0.0
 10
82.5847687059
 20
41.3995191126
 30
0.0
 11
82.8760192461
 21
42.3809446464
 31
0.0
 11
82.965087375
 21
42.0637947539
 31
0.0
 11
82.8869388623
 21
41.7467271361
 31
0.0
 11
82.6475248491
 21
41.4516447433
 31
0.0
 11
82.5847687059
 21
41.3995191126
 31
0.0
  0
SPLINE
  5
480
100
AcDbEntity
  8
RACCORDO
100
AcDbSpline
 62
7
  6
CONTINUOUS
 70
0
 71
3
 72
8
 73
4
 74
2
 42
0.0000001
 43
0.0000001
 44
0.0000000001
 12
3.302699711
 22
1.6073818415
 32
0.0
 13
3.3031984599
 23
1.6063564984
 33
0.0
 40
0.0
 40
0.0
 40
0.0
 40
0.0
 40
1.0
 40
1.0
 40
1.0
 40
1.0
 10
49.0994784926
 20
31.763795112
 30
0.0
 10
50.2003783963
 20
32.2995890592
 30
0.0
 10
51.301357868
 20
32.8352195035
 30
0.0
 10
52.4024240213
 20
33.3706716696
 30
0.0
 11
49.0994784926
 21
31.763795112
 31
0.0
 11
52.4024240213
 21
33.3706716696
 31
0.0
  0
SPLINE
  5
481
100
AcDbEntity
  8
RACCORDO
100
AcDbSpline
 62
253
  6
CONTINUOUS
 70
0
 71
3
 72
11
 73
7
 74
5
 42
0.0000001
 43
0.0000001
 44
0.0000000001
 12
1.1871280015
 22
0.1395039562
 32
0.0
 13
0.6014523514
 23
-1.0300020817
 33
0.0
 40
0.0
 40
0.0
 40
0.0
 40
0.0
 40
0.3076293681
 40
0.6385053673
 40
0.9850761046
 40
1.0
 40
1.0
 40
1.0
 40
1.0
 10
77.3340280071
 20
50.7111765813
 30
0.0
 10
77.4557598194
 20
50.7254817526
 30
0.0
 10
77.7132094247
 20
50.7184927939
 30
0.0
 10
78.0793550181
 20
50.5511271689
 30
0.0
 10
78.261651537
 20
50.336997856
 30
0.0
 10
78.3350167961
 20
50.2133598767
 30
0.0
 10
78.3380088001
 20
50.2082359956
 30
0.0
 11
77.3340280071
 21
50.7111765813
 31
0.0
 11
77.6991654012
 21
50.6951877331
 31
0.0
 11
78.0560034837
 21
50.5312710365
 31
0.0
 11
78.3289220147
 21
50.2235482066
 31
0.0
 11
78.3380088001
 21
50.2082359956
 31
0.0
  0
SPLINE
  5
482
100
AcDbEntity
  8
RACCORDO
100
AcDbSpline
 62
253
  6
CONTINUOUS
 70
0
 71
3
 72
8
 73
4
 74
2
 42
0.0000001
 43
0.0000001
 44
0.0000000001
 12
0.5088810732
 22
0.2471837423
 32
0.0
 13
0.5624172856
 23
0.0879969829
 33
0.0
 40
0.0
 40
0.0
 40
0.0
 40
0.0
 40
1.0
 40
1.0
 40
1.0
 40
1.0
 10
76.4859147995
 20
51.1696490932
 30
0.0
 10
76.6555418239
 20
51.252043674
 30
0.0
 10
76.8365266322
 20
51.315031038
 30
0.0
 10
77.0239990608
 20
51.3443633656
 30
0.0
 11
76.4859147995
 21
51.1696490932
 31
0.0
 11
77.0239990608
 21
51.3443633656
 31
0.0
  0
SPLINE
  5
483
100
AcDbEntity
  8
RACCORDO
100
AcDbSpline
 62
253
  6
CONTINUOUS
 70
0
 71
3
 72
9
 73
5
 74
3
 42
0.0000001
 43
0.0000001
 44
0.0000000001
 12
0.7658768934
 22
0.1198306979
 32
0.0
 13
0.6953880477
 23
-0.3458346271
 33
0.0
 40
0.0
 40
0.0
 40
0.0
 40
0.0
 40
0.6486589609
 40
1.0
 40
1.0
 40
1.0
 40
1.0
 10
77.0239990608
 20
51.3443633656
 30
0.0
 10
77.1895966974
 20
51.3702731176
 30
0.0
 10
77.4526927292
 20
51.3697342045
 30
0.0
 10
77.6983867253
 20
51.282025161
 30
0.0
 10
77.7798261784
 20
51.2415231953
 30
0.0
 11
77.0239990608
 21
51.3443633656
 31
0.0
 11
77.5235938411
 21
51.3328964072
 31
0.0
 11
77.7798261784
 21
51.2415231953
 31
0.0
  0
SPLINE
  5
484
100
AcDbEntity
  8
RACCORDO
100
AcDbSpline
 62
253
  6
CONTINUOUS
 70
0
 71
3
 72
8
 73
4
 74
2
 42
0.0000001
 43
0.0000001
 44
0.0000000001
 12
0.3073781675
 22
0.1923372439
 32
0.0
 13
0.269584327
 23
0.2444736022
 33
0.0
 40
0.0
 40
0.0
 40
0.0
 40
0.0
 40
1.0
 40
1.0
 40
1.0
 40
1.0
 10
82.791851891
 20
-49.6460739767
 30
0.0
 10
82.8943112802
 20
-49.581961562
 30
0.0
 10
82.9920411386
 20
-49.5101062786
 30
0.0
 10
83.0819025809
 20
-49.4286150779
 30
0.0
 11
82.791851891
 21
-49.6460739767
 31
0.0
 11
83.0819025809
 21
-49.4286150779
 31
0.0
  0
SPLINE
  5
485
100
AcDbEntity
  8
RACCORDO
100
AcDbSpline
 62
253
  6
CONTINUOUS
 70
0
 71
3
 72
9
 73
5
 74
3
 42
0.0000001
 43
0.0000001
 44
0.0000000001
 12
0.5427642787
 22
0.4922079108
 32
0.0
 13
0.1186957088
 23
0.7250487963
 33
0.0
 40
0.0
 40
0.0
 40
0.0
 40
0.0
 40
0.6366175595
 40
1.0
 40
1.0
 40
1.0
 40
1.0
 10
83.0819025809
 20
-49.4286150779
 30
0.0
 10
83.1970803378
 20
-49.3241656782
 30
0.0
 10
83.3576969429
 20
-49.1352304328
 30
0.0
 10
83.437541231
 20
-48.8987830008
 30
0.0
 10
83.4519185431
 20
-48.8109596671
 30
0.0
 11
83.0819025809
 21
-49.4286150779
 31
0.0
 11
83.3688474806
 21
-49.0643508585
 31
0.0
 11
83.4519185431
 21
-48.8109596671
 31
0.0
  0
SPLINE
  5
486
100
AcDbEntity
  8
RACCORDO
100
AcDbSpline
 62
253
  6
CONTINUOUS
 70
0
 71
3
 72
8
 73
4
 74
2
 42
0.0000001
 43
0.0000001
 44
0.0000000001
 12
0.019747974
 22
0.1206298438
 32
0.0
 13
0.0001951141
 23
0.121764066
 33
0.0
 40
0.0
 40
0.0
 40
0.0
 40
0.0
 40
1.0
 40
1.0
 40
1.0
 40
1.0
 10
83.4519185431
 20
-48.8109596671
 30
0.0
 10
83.4585012011
 20
-48.7707497192
 30
0.0
 10
83.4620156118
 20
-48.7301409583
 30
0.0
 10
83.4620806499
 20
-48.6895529363
 30
0.0
 11
83.4519185431
 21
-48.8109596671
 31
0.0
 11
83.4620806499
 21
-48.6895529363
 31
0.0
  0
SPLINE
  5
487
100
AcDbEntity
  8
RACCORDO
100
AcDbSpline
 62
253
  6
CONTINUOUS
 70
0
 71
3
 72
8
 73
4
 74
2
 42
0.0000001
 43
0.0000001
 44
0.0000000001
 12
0.0014747042
 22
0.21146802
 32
0.0
 13
-0.0675092255
 23
0.2024011706
 33
0.0
 40
0.0
 40
0.0
 40
0.0
 40
0.0
 40
1.0
 40
1.0
 40
1.0
 40
1.0
 10
82.620113368
 20
40.5897215722
 30
0.0
 10
82.620604936
 20
40.6602109122
 30
0.0
 10
82.6073391476
 20
40.7309421749
 30
0.0
 10
82.5848360724
 20
40.7984092317
 30
0.0
 11
82.620113368
 21
40.5897215722
 31
0.0
 11
82.5848360724
 21
40.7984092317
 31
0.0
  0
SPLINE
  5
488
100
AcDbEntity
  8
RACCORDO
100
AcDbSpline
 62
253
  6
CONTINUOUS
 70
0
 71
3
 72
8
 73
4
 74
2
 42
0.0000001
 43
0.0000001
 44
0.0000000001
 12
0.1582062118
 22
-0.0777641404
 32
0.0
 13
0.1242176209
 23
-0.1282058781
 33
0.0
 40
0.0
 40
0.0
 40
0.0
 40
0.0
 40
1.0
 40
1.0
 40
1.0
 40
1.0
 10
76.4859147995
 20
51.1696490932
 30
0.0
 10
76.5386502035
 20
51.1437277131
 30
0.0
 10
76.585858697
 20
51.1067203174
 30
0.0
 10
76.6272645707
 20
51.0639850247
 30
0.0
 11
76.4859147995
 21
51.1696490932
 31
0.0
 11
76.6272645707
 21
51.0639850247
 31
0.0
  0
SPLINE
  5
489
100
AcDbEntity
  8
RACCORDO
100
AcDbSpline
 62
253
  6
CONTINUOUS
 70
0
 71
3
 72
8
 73
4
 74
2
 42
0.0000001
 43
0.0000001
 44
0.0000000001
 12
0.0012231642
 22
-0.1741398947
 32
0.0
 13
-0.0811202296
 23
-0.1564361219
 33
0.0
 40
0.0
 40
0.0
 40
0.0
 40
0.0
 40
1.0
 40
1.0
 40
1.0
 40
1.0
 10
82.620113368
 20
-49.7445741311
 30
0.0
 10
82.6205210894
 20
-49.8026207627
 30
0.0
 10
82.6127202982
 20
-49.8639747712
 30
0.0
 10
82.5856802216
 20
-49.9161201452
 30
0.0
 11
82.620113368
 21
-49.7445741311
 31
0.0
 11
82.5856802216
 21
-49.9161201452
 31
0.0
  0
SPLINE
  5
48A
100
AcDbEntity
  8
RACCORDO
100
AcDbSpline
 62
253
  6
CONTINUOUS
 70
0
 71
3
 72
8
 73
4
 74
2
 42
0.0000001
 43
0.0000001
 44
0.0000000001
 12
-0.1263218497
 22
0.0642489108
 32
0.0
 13
-0.1431784691
 23
-0.0039034797
 33
0.0
 40
0.0
 40
0.0
 40
0.0
 40
0.0
 40
1.0
 40
1.0
 40
1.0
 40
1.0
 10
-15.6565050936
 20
97.2408590398
 30
0.0
 10
-15.6986123768
 20
97.2622753434
 30
0.0
 10
-15.7479481796
 20
97.2774289262
 30
0.0
 10
-15.7956743359
 20
97.2761277663
 30
0.0
 11
-15.6565050936
 21
97.2408590398
 31
0.0
 11
-15.7956743359
 21
97.2761277663
 31
0.0
  0
SPLINE
  5
48B
100
AcDbEntity
  8
DRAFT
100
AcDbSpline
 62
7
  6
CONTINUOUS
 70
0
 71
3
 72
12
 73
8
 74
6
 42
0.0000001
 43
0.0000001
 44
0.0000000001
 12
7.4948116061
 22
7.9259054508
 32
0.0
 13
-0.0
 23
10.8886087483
 33
0.0
 40
0.0
 40
0.0
 40
0.0
 40
0.0
 40
0.1244420889
 40
0.320586362
 40
0.5314310375
 40
0.7577894705
 40
1.0
 40
1.0
 40
1.0
 40
1.0
 10
47.2013779096
 20
-79.5765789969
 30
0.0
 10
47.5122679137
 20
-79.2478069199
 30
0.0
 10
48.2511916386
 20
-78.3419846517
 30
0.0
 10
49.2058252631
 20
-76.6528631073
 30
0.0
 10
49.9733224043
 20
-74.4751651626
 30
0.0
 10
50.4344921584
 20
-72.0447426335
 30
0.0
 10
50.530225972
 20
-70.3417216719
 30
0.0
 10
50.530225972
 20
-69.4626097751
 30
0.0
 11
47.2013779096
 21
-79.5765789969
 31
0.0
 11
48.0613581022
 21
-78.527532577
 31
0.0
 11
49.1241623427
 21
-76.6750140187
 31
0.0
 11
49.9003228988
 21
-74.5143899866
 31
0.0
 11
50.3718492518
 21
-72.095185768
 31
0.0
 11
50.530225972
 21
-69.4626097751
 31
0.0
  0
SPLINE
  5
48C
100
AcDbEntity
  8
RACCORDO
100
AcDbSpline
 62
253
  6
CONTINUOUS
 70
0
 71
3
 72
11
 73
7
 74
5
 42
0.0000001
 43
0.0000001
 44
0.0000000001
 12
8.9736620751
 22
3.9436713985
 32
0.0
 13
8.7287102611
 23
-4.3643551319
 33
0.0
 40
0.0
 40
0.0
 40
0.0
 40
0.0
 40
0.089354667
 40
0.3677272381
 40
0.6686771019
 40
1.0
 40
1.0
 40
1.0
 40
1.0
 10
-59.3059045774
 20
86.6795874967
 30
0.0
 10
-59.0386250487
 20
86.7970493115
 30
0.0
 10
-57.9135216384
 20
87.2225963908
 30
0.0
 10
-55.7266271574
 20
87.5391243753
 30
0.0
 10
-52.7618190833
 20
87.1198212926
 30
0.0
 10
-50.8306034349
 20
86.3628756286
 30
0.0
 10
-49.8665962416
 20
85.8808720318
 30
0.0
 11
-59.3059045774
 21
86.6795874967
 31
0.0
 11
-58.4872650704
 21
86.9890096144
 31
0.0
 11
-55.8024396542
 21
87.4035287816
 31
0.0
 11
-52.8895435132
 21
87.0282716217
 31
0.0
 11
-49.8665962416
 21
85.8808720318
 31
0.0
  0
SPLINE
  5
48D
100
AcDbEntity
  8
DRAFT
100
AcDbSpline
 62
7
  6
CONTINUOUS
 70
0
 71
3
 72
18
 73
14
 74
12
 42
0.0000001
 43
0.0000001
 44
0.0000000001
 12
0.0
 22
32.389293537
 32
0.0
 13
-28.9698648368
 23
14.4849324184
 33
0.0
 40
0.0
 40
0.0
 40
0.0
 40
0.0
 40
0.0863076176
 40
0.1767367285
 40
0.2705213908
 40
0.3663249067
 40
0.4632800615
 40
0.5597975747
 40
0.6550282172
 40
0.7474653066
 40
0.8363872567
 40
0.9207113189
 40
1.0
 40
1.0
 40
1.0
 40
1.0
 10
50.530225972
 20
14.541854392
 30
0.0
 10
50.530225972
 20
15.4736686458
 30
0.0
 10
50.4163405704
 20
17.3830249984
 30
0.0
 10
49.9394108761
 20
20.2690415122
 30
0.0
 10
49.1618566219
 20
23.1951405587
 30
0.0
 10
48.0987395997
 20
26.1046826598
 30
0.0
 10
46.7724236244
 20
28.936605341
 30
0.0
 10
45.208066112
 20
31.6371662451
 30
0.0
 10
43.43886424
 20
34.1490236059
 30
0.0
 10
41.498268196
 20
36.4245806111
 30
0.0
 10
39.4266628947
 20
38.4161682728
 30
0.0
 10
37.2638279772
 20
40.0852360426
 30
0.0
 10
35.7395375778
 20
40.9897574723
 30
0.0
 10
34.9738767859
 20
41.3725878683
 30
0.0
 11
50.530225972
 21
14.541854392
 31
0.0
 11
50.3718492518
 21
17.332807105
 31
0.0
 11
49.9003228988
 21
20.2235376767
 31
0.0
 11
49.1241623427
 21
23.1603222649
 31
0.0
 11
48.0613581022
 21
26.0756450637
 31
0.0
 11
46.729913892
 21
28.9197260618
 31
0.0
 11
45.1618889354
 21
31.624169064
 31
0.0
 11
43.3832663472
 21
34.144159826
 31
0.0
 11
41.436803264
 21
36.4190554104
 31
0.0
 11
39.355794909
 21
38.4101582484
 31
0.0
 11
37.1880231083
 21
40.0715436314
 31
0.0
 11
34.9738767859
 21
41.3725878683
 31
0.0
  0
SPLINE
  5
48E
100
AcDbEntity
  8
IMPORT_IGES
100
AcDbSpline
 62
7
  6
CONTINUOUS
 70
0
 71
3
 72
9
 73
5
 74
3
 42
0.0000001
 43
0.0000001
 44
0.0000000001
 12
-0.3673805558
 22
0.0766902752
 32
0.0
 13
-0.360203535
 23
-0.0109528223
 33
0.0
 40
0.0
 40
0.0
 40
0.0
 40
0.0
 40
0.5
 40
1.0
 40
1.0
 40
1.0
 40
1.0
 10
69.3646374718
 20
48.638325255
 30
0.0
 10
69.3034073792
 20
48.6511069675
 30
0.0
 10
69.1812727868
 20
48.67381875
 30
0.0
 10
69.0646771576
 20
48.6733405293
 30
0.0
 10
69.0046432351
 20
48.671515059
 30
0.0
 11
69.3646374718
 21
48.638325255
 31
0.0
 11
69.1826575276
 21
48.6680212492
 31
0.0
 11
69.0046432351
 21
48.671515059
 31
0.0
  0
SPLINE
  5
48F
100
AcDbEntity
  8
IMPORT_IGES
100
AcDbSpline
 62
7
  6
CONTINUOUS
 70
0
 71
3
 72
19
 73
15
 74
13
 42
0.0000001
 43
0.0000001
 44
0.0000000001
 12
-0.4084663094
 22
-0.0360533652
 32
0.0
 13
-0.3835225465
 23
-0.1744784718
 33
0.0
 40
0.0
 40
0.0
 40
0.0
 40
0.0
 40
0.125
 40
0.25
 40
0.375
 40
0.4375
 40
0.5
 40
0.5625
 40
0.625
 40
0.6875
 40
0.75
 40
0.8125
 40
0.875
 40
1.0
 40
1.0
 40
1.0
 40
1.0
 10
69.0046432418
 20
48.6715150593
 30
0.0
 10
68.9876238122
 20
48.6700128358
 30
0.0
 10
68.9534092536
 20
48.6675490273
 30
0.0
 10
68.9031416127
 20
48.6606094828
 30
0.0
 10
68.8617496748
 20
48.6538605214
 30
0.0
 10
68.8291455907
 20
48.6461587704
 30
0.0
 10
68.8051843604
 20
48.641640285
 30
0.0
 10
68.7790010659
 20
48.6332417794
 30
0.0
 10
68.7532305168
 20
48.6259393774
 30
0.0
 10
68.7280310503
 20
48.618132581
 30
0.0
 10
68.7054838278
 20
48.6092137574
 30
0.0
 10
68.6824551861
 20
48.6011804346
 30
0.0
 10
68.6507815744
 20
48.5872293696
 30
0.0
 10
68.6267039401
 20
48.5761036622
 30
0.0
 10
68.610723834
 20
48.5688337259
 30
0.0
 11
69.0046432418
 21
48.6715150593
 31
0.0
 11
68.9535849531
 21
48.6670083887
 31
0.0
 11
68.9032411652
 21
48.6604162813
 31
0.0
 11
68.8536411093
 21
48.6517432018
 31
0.0
 11
68.8292275628
 21
48.6463684084
 31
0.0
 11
68.8048140164
 21
48.640993615
 31
0.0
 11
68.7790698568
 21
48.6334244633
 31
0.0
 11
68.7533256972
 21
48.6258553116
 31
0.0
 11
68.7284730909
 21
48.6179472431
 31
0.0
 11
68.7054035913
 21
48.6093613409
 31
0.0
 11
68.6823340916
 21
48.6007754386
 31
0.0
 11
68.6586641523
 21
48.5906435349
 31
0.0
 11
68.610723834
 21
48.5688337259
 31
0.0
  0
ELLIPSE
  5
490
100
AcDbEntity
  8
RACCORDO
100
AcDbEllipse
 62
7
  6
CONTINUOUS
 10
80.462093967
 20
40.4273218742
 30
0.0
 11
2.9999830447
 21
-0.0203822216
 31
0.0
 40
0.4948524321
 41
-0.7645828006
 42
-0.1996718552
  0
ELLIPSE
  5
491
100
AcDbEntity
  8
RACCORDO
100
AcDbEllipse
 62
7
  6
CONTINUOUS
 10
75.500869919
 20
49.0274688769
 30
0.0
 11
1.3238246393
 21
2.6921624189
 31
0.0
 40
0.6072252378
 41
0.0983256339
 42
0.6632365793
  0
ELLIPSE
  5
492
100
AcDbEntity
  8
RACCORDO
100
AcDbEllipse
 62
7
  6
CONTINUOUS
 10
45.8129758194
 20
63.8714159267
 30
0.0
 11
1.3048917676
 21
2.7015425106
 31
0.0
 40
0.6016116119
 41
0.0941256554
 42
0.6590366007
  0
ELLIPSE
  5
493
100
AcDbEntity
  8
RACCORDO
100
AcDbEllipse
 62
7
  6
CONTINUOUS
 10
16.1144910096
 20
78.7206583316
 30
0.0
 11
1.3048917676
 21
2.7015425106
 31
0.0
 40
0.6016116119
 41
0.0941256554
 42
0.6590366007
  0
ELLIPSE
  5
494
100
AcDbEntity
  8
RACCORDO
100
AcDbEllipse
 62
7
  6
CONTINUOUS
 10
-13.5839938003
 20
93.5699007365
 30
0.0
 11
1.3048917676
 21
2.7015425106
 31
0.0
 40
0.6016116119
 41
0.0941256554
 42
0.6590366007
  0
ELLIPSE
  5
495
100
AcDbEntity
  8
RACCORDO
100
AcDbEllipse
 62
7
  6
CONTINUOUS
 10
80.462093967
 20
-46.0756450459
 30
0.0
 11
2.999929097
 21
-0.0421585494
 31
0.0
 40
0.4892375088
 41
-0.7610696355
 42
-0.1961586901
  0
ELLIPSE
  5
496
100
AcDbEntity
  8
RACCORDO
100
AcDbEllipse
 62
7
  6
CONTINUOUS
 10
80.462093967
 20
-17.2369990998
 30
0.0
 11
2.999929097
 21
-0.0421585494
 31
0.0
 40
0.4892375088
 41
-0.7610696355
 42
-0.1961586901
  0
ELLIPSE
  5
497
100
AcDbEntity
  8
RACCORDO
100
AcDbEllipse
 62
7
  6
CONTINUOUS
 10
80.462093967
 20
11.6016468462
 30
0.0
 11
2.999929097
 21
-0.0421585494
 31
0.0
 40
0.4892375088
 41
-0.7610696355
 42
-0.1961586901
  0
ELLIPSE
  5
498
100
AcDbEntity
  8
RACCORDO
100
AcDbEllipse
 62
7
  6
CONTINUOUS
 10
-14.7455045027
 20
94.1506560877
 30
0.0
 11
1.3597959398
 21
2.6741746854
 31
0.0
 40
0.6174852427
 41
0.1065355967
 42
0.671446542
  0
ELLIPSE
  5
499
100
AcDbEntity
  8
RACCORDO
100
AcDbEllipse
 62
7
  6
CONTINUOUS
 10
80.462093967
 20
-47.4981993217
 30
0.0
 11
2.9999818443
 21
0.0206629735
 31
0.0
 40
0.5051124706
 41
-0.7714239198
 42
-0.2065129744
  0
ELLIPSE
  5
49A
100
AcDbEntity
  8
RACCORDO
100
AcDbEllipse
 62
7
  6
CONTINUOUS
 10
-18.387892292
 20
67.1873150835
 30
0.0
 11
-0.4474018214
 21
0.8946702271
 31
0.0
 40
0.6121897086
 41
-0.6846337174
 42
0.0199943982
  0
ELLIPSE
  5
49B
100
AcDbEntity
  8
RACCORDO
100
AcDbEllipse
 62
7
  6
CONTINUOUS
 10
74.3393592166
 20
49.6082242281
 30
0.0
 11
1.3798615415
 21
2.6640387682
 31
0.0
 40
0.6229838795
 41
0.1112411843
 42
0.6761521296
  0
ELLIPSE
  5
49C
100
AcDbEntity
  8
RACCORDO
100
AcDbEllipse
 62
7
  6
CONTINUOUS
 10
75.3106158741
 20
51.5293821092
 30
0.0
 11
0.1379861541
 21
0.2664038768
 31
0.0
 40
0.6229838795
 41
-0.8771909047
 42
0.6761521296
  0
ELLIPSE
  5
49D
100
AcDbEntity
  8
RACCORDO
100
AcDbEllipse
 62
7
  6
CONTINUOUS
 10
45.6121310643
 20
66.3786245141
 30
0.0
 11
0.1379861541
 21
0.2664038768
 31
0.0
 40
0.6229838795
 41
-0.8771909047
 42
0.6761521296
  0
ELLIPSE
  5
49E
100
AcDbEntity
  8
RACCORDO
100
AcDbEllipse
 62
7
  6
CONTINUOUS
 10
44.6408744067
 20
64.457466633
 30
0.0
 11
1.3798615415
 21
2.6640387682
 31
0.0
 40
0.6229838795
 41
0.1112411843
 42
0.6761521296
  0
ELLIPSE
  5
49F
100
AcDbEntity
  8
RACCORDO
100
AcDbEllipse
 62
7
  6
CONTINUOUS
 10
15.9136462545
 20
81.2278669191
 30
0.0
 11
0.1379861541
 21
0.2664038768
 31
0.0
 40
0.6229838795
 41
-0.8771909047
 42
0.6761521296
  0
ELLIPSE
  5
4A0
100
AcDbEntity
  8
RACCORDO
100
AcDbEllipse
 62
7
  6
CONTINUOUS
 10
14.9423895969
 20
79.306709038
 30
0.0
 11
1.3798615415
 21
2.6640387682
 31
0.0
 40
0.6229838795
 41
0.1112411843
 42
0.6761521296
  0
ELLIPSE
  5
4A1
100
AcDbEntity
  8
RACCORDO
100
AcDbEllipse
 62
7
  6
CONTINUOUS
 10
80.462093967
 20
-18.6725242937
 30
0.0
 11
2.9999182366
 21
0.043377328
 31
0.0
 40
0.5106100819
 41
-0.775327905
 42
-0.2104169596
  0
ELLIPSE
  5
4A2
100
AcDbEntity
  8
RACCORDO
100
AcDbEllipse
 62
7
  6
CONTINUOUS
 10
80.462093967
 20
10.1661216523
 30
0.0
 11
2.9999182366
 21
0.043377328
 31
0.0
 40
0.5106100819
 41
-0.775327905
 42
-0.2104169596
  0
ELLIPSE
  5
4A3
100
AcDbEntity
  8
RACCORDO
100
AcDbEllipse
 62
7
  6
CONTINUOUS
 10
80.462093967
 20
39.0047675983
 30
0.0
 11
2.9999182366
 21
0.043377328
 31
0.0
 40
0.5106100819
 41
-0.775327905
 42
-0.2104169596
  0
ELLIPSE
  5
4A4
100
AcDbEntity
  8
RACCORDO
100
AcDbEllipse
 62
7
  6
CONTINUOUS
 10
82.6023979696
 20
38.9096170666
 30
0.0
 11
0.2999918237
 21
0.0043377328
 31
0.0
 40
0.5106100819
 41
5.5078574022
 42
7.0612004365
  0
ELLIPSE
  5
4A5
100
AcDbEntity
  8
RACCORDO
100
AcDbEllipse
 62
7
  6
CONTINUOUS
 10
82.6023979696
 20
10.0709711206
 30
0.0
 11
0.2999918237
 21
0.0043377328
 31
0.0
 40
0.5106100819
 41
5.5078574022
 42
7.0612004365
  0
ELLIPSE
  5
4A6
100
AcDbEntity
  8
RACCORDO
100
AcDbEllipse
 62
7
  6
CONTINUOUS
 10
82.6023979696
 20
-18.7676748254
 30
0.0
 11
0.2999918237
 21
0.0043377328
 31
0.0
 40
0.5106100819
 41
5.5078574022
 42
7.0612004365
  0
ELLIPSE
  5
4A7
100
AcDbEntity
  8
RACCORDO
100
AcDbEllipse
 62
7
  6
CONTINUOUS
 10
-3.0623506007
 20
56.9240296696
 30
0.0
 11
0.4999863728
 21
0.0072295547
 31
0.0
 40
0.5106100819
 41
6.0052939117
 42
7.0612004365
  0
ELLIPSE
  5
4A8
100
AcDbEntity
  8
RACCORDO
100
AcDbEllipse
 62
7
  6
CONTINUOUS
 10
-20.7522550129
 20
65.7689818757
 30
0.0
 11
0.4999863728
 21
0.0072295547
 31
0.0
 40
0.5106100819
 41
0.7780151293
 42
1.8339216541
  0
ELLIPSE
  5
4A9
100
AcDbEntity
  8
RACCORDO
100
AcDbEllipse
 62
7
  6
CONTINUOUS
 10
1.3615117778
 20
57.3126130486
 30
0.0
 11
-0.4471615512
 21
0.8944566536
 31
0.0
 40
0.6125552124
 41
-2.255296188
 42
-0.6848046462
  0
ENDSEC
  0
SECTION
  2
OBJECTS
  0
DICTIONARY
  5
C
100
AcDbDictionary
280
0
281
1
  3
ACAD_GROUP
350
D
  3
ACAD_MLINESTYLE
350
17
  3
ACAD_LAYOUT
350
1A
  3
ACAD_PLOTSETTINGS
350
19
  3
ACAD_PLOTSTYLENAME
350
E
  0
DICTIONARY
  5
D
102
{ACAD_REACTORS
330
C
102
}
100
AcDbDictionary
280
0
281
1
  0
ACDBDICTIONARYWDFLT
  5
E
102
{ACAD_REACTORS
330
C
102
}
100
AcDbDictionary
281
1
  3
Normal
350
F
100
AcDbDictionaryWithDefault
340
F
  0
DICTIONARY
  5
17
102
{ACAD_REACTORS
330
C
102
}
100
AcDbDictionary
280
0
281
1
  3
Standard
350
18
  0
DICTIONARY
  5
19
102
{ACAD_REACTORS
330
C
102
}
100
AcDbDictionary
281
1
  0
DICTIONARY
  5
1A
102
{ACAD_REACTORS
330
C
102
}
100
AcDbDictionary
281
1
  3
Model
350
4AA
  3
Layout1
350
4AB
  0
ACDBPLACEHOLDER
  5
F
102
{ACAD_REACTORS
330
E
102
}
  0
MLINESTYLE
  5
18
102
{ACAD_REACTORS
330
17
102
}
100
AcDbMlineStyle
  2
STANDARD
 70
0
  3

 62
256
 51
90.0
 52
90.0
 71
2
 49
0.5
 62
256
  6
BYLAYER
 49
-0.5
 62
256
  6
BYLAYER
  0
LAYOUT
  5
4AA
102
{ACAD_REACTORS
330
1A
102
}
100
AcDbPlotSettings
  1

  2
none_device
  4
ISO_A4_(297.00_x_210.00_MM)
  6

 40
0.0
 41
0.0
 42
0.0
 43
0.0
 44
297.0
 45
210.0
 46
0.0
 47
0.0
 48
0.0
 49
0.0
140
0.0
141
0.0
142
1.0
143
1.0
 70
1024
 72
1
 73
0
 74
0
  7

 75
0
147
1.0
148
0.0
149
0.0
100
AcDbLayout
  1
Model
 70
0
 71
0
 10
0.0
 20
0.0
 11
297.0
 21
210.0
 12
0.0
 22
0.0
 32
0.0
 14
0.0
 24
0.0
 34
0.0
 15
0.0
 25
0.0
 35
0.0
146
0.0
 13
0.0
 23
0.0
 33
0.0
 16
1.0
 26
0.0
 36
0.0
 17
0.0
 27
1.0
 37
0.0
 76
0
330
213
345
0
346
0
  0
LAYOUT
  5
4AB
102
{ACAD_REACTORS
330
1A
102
}
100
AcDbPlotSettings
  1

  2
none_device
  4
ISO_A4_(297.00_x_210.00_MM)
  6

 40
0.0
 41
0.0
 42
0.0
 43
0.0
 44
297.0
 45
210.0
 46
0.0
 47
0.0
 48
0.0
 49
0.0
140
0.0
141
0.0
142
1.0
143
1.0
 70
0
 72
1
 73
0
 74
0
  7

 75
0
147
1.0
148
0.0
149
0.0
100
AcDbLayout
  1
Layout1
 70
0
 71
1
 10
0.0
 20
0.0
 11
297.0
 21
210.0
 12
0.0
 22
0.0
 32
0.0
 14
0.0
 24
0.0
 34
0.0
 15
0.0
 25
0.0
 35
0.0
146
0.0
 13
0.0
 23
0.0
 33
0.0
 16
1.0
 26
0.0
 36
0.0
 17
0.0
 27
1.0
 37
0.0
 76
0
330
214
345
0
346
0
  0
ENDSEC
  0
EOF
