  0
SECTION
  2
HEADER
  9
$ACADVER
  1
AC1024
  9
$DWGCODEPAGE
  3
ANSI_1252
  9
$EXTMAX
 10
297.0
 20
210.0
 30
0.0
  9
$EXTMIN
 10
0.0
 20
0.0
 30
0.0
  9
$LIMMIN
 10
0.0
 20
0.0
  9
$LIMMAX
 10
297.0
 20
210.0
  9
$VIEWCTR
 10
148.5
 20
105.0
  9
$VIEWSIZE
 40
210.0
  9
$CLAYER
  8
0
  9
$LTSCALE
 40
16.335
  9
$CELTYPE
  6
BYLAYER
  9
$DIMSCALE
 40
1.0
  9
$DIMASZ
 40
3.0
  9
$DIMEXO
 40
0.5
  9
$DIMDLI
 40
11.286
  9
$DIMEXE
 40
1.5
  9
$DIMCEN
 40
2.673
  9
$DIMLFAC
 40
1.0
  9
$DIMBLK
  1
_FILLED
  9
$DIMALT
 70
0
  9
$DIMALTF
 40
0.0393700787
  9
$DIMTXT
 40
3.0
  9
$DIMTOL
 70
1
  9
$DIMLIM
 70
0
  9
$DIMTFAC
 40
1.0
  9
$DIMTP
 40
0.01
  9
$DIMTM
 40
0.01
  9
$DIMGAP
 40
0.625
  9
$DIMDSEP
 70
44
  9
$AUNITS
 70
0
  9
$PDMODE
 70
3
  9
$PDSIZE
 40
3.0
  9
$HANDSEED
  5
318
  9
$TILEMODE
 70
1
  9
$MEASUREMENT
 70
1
  9
$INSUNITS
 70
4
  0
ENDSEC
  0
SECTION
  2
CLASSES
  0
CLASS
  1
ACDBDICTIONARYWDFLT
  2
AcDbDictionaryWithDefault
  3
AutoCAD 2000
 90
0
 91
1
280
0
281
0
  0
CLASS
  1
ACDBPLACEHOLDER
  2
AcDbPlaceHolder
  3
AutoCAD 2000
 90
0
 91
1
280
0
281
0
  0
CLASS
  1
LAYOUT
  2
AcDbLayout
  3
AutoCAD 2000
 90
0
 91
0
280
0
281
0
  0
ENDSEC
  0
SECTION
  2
TABLES
  0
TABLE
  2
VPORT
  5
8
100
AcDbSymbolTable
 70
2
  0
VPORT
  5
1F4
100
AcDbSymbolTableRecord
100
AcDbViewportTableRecord
  2
*ACTIVE
 70
0
 10
0.0
 20
0.0
 11
1.0
 21
1.0
 12
148.5
 22
105.0
 13
0.0
 23
0.0
 14
1.0
 24
1.0
 15
0.0
 25
0.0
 16
0.0
 26
0.0
 36
1.0
 17
0.0
 27
0.0
 37
0.0
 40
210.0
 41
1.4142857143
 42
50.0
 43
0.0
 44
0.0
 50
0.0
 51
0.0
 71
0
 72
100
 73
1
 74
1
 75
0
 76
0
 77
0
 78
0
  0
ENDTAB
  0
TABLE
  2
LTYPE
  5
5
100
AcDbSymbolTable
 70
6
  0
LTYPE
  5
14
100
AcDbSymbolTableRecord
100
AcDbLinetypeTableRecord
  2
BYBLOCK
 70
0
  3

 72
65
 73
0
 40
0.0
  0
LTYPE
  5
15
100
AcDbSymbolTableRecord
100
AcDbLinetypeTableRecord
  2
BYLAYER
 70
0
  3

 72
65
 73
0
 40
0.0
  0
LTYPE
  5
16
100
AcDbSymbolTableRecord
100
AcDbLinetypeTableRecord
  2
CONTINUOUS
 70
64
  3
Solid line
 72
65
 73
0
 40
0.0
  0
LTYPE
  5
1F5
100
AcDbSymbolTableRecord
100
AcDbLinetypeTableRecord
  2
CENTER
 70
64
  3
____ _ ____ _ ____ _ ____ _ ____ _ ____ _ ____
 72
65
 73
4
 40
0.6
 49
0.375
 74
0
 49
-0.075
 74
0
 49
0.075
 74
0
 49
-0.075
 74
0
  0
LTYPE
  5
1F6
100
AcDbSymbolTableRecord
100
AcDbLinetypeTableRecord
  2
HIDDEN
 70
64
  3
- - - - - - - - - - - - - - - - - - - -
 72
65
 73
2
 40
0.2
 49
0.1
 74
0
 49
-0.1
 74
0
  0
LTYPE
  5
1F7
100
AcDbSymbolTableRecord
100
AcDbLinetypeTableRecord
  2
PHANTOM
 70
64
  3
_____ _ _ _____ _ _ _____ _ _ _____
 72
65
 73
6
 40
0.8
 49
0.45
 74
0
 49
-0.05
 74
0
 49
0.1
 74
0
 49
-0.05
 74
0
 49
0.1
 74
0
 49
-0.05
 74
0
  0
LTYPE
  5
1F8
100
AcDbSymbolTableRecord
100
AcDbLinetypeTableRecord
  2
DOT
 70
64
  3
. . . . . . . . . . . . . . . . . . . .
 72
65
 73
2
 40
0.2
 49
0.1
 74
0
 49
-0.1
 74
0
  0
LTYPE
  5
1F9
100
AcDbSymbolTableRecord
100
AcDbLinetypeTableRecord
  2
DASHED
 70
64
  3
- - - - - - - - - - - - - - - - - - - -
 72
65
 73
2
 40
0.2
 49
0.1
 74
0
 49
-0.1
 74
0
  0
ENDTAB
  0
TABLE
  2
LAYER
  5
2
100
AcDbSymbolTable
 70
36
  0
LAYER
  5
10
100
AcDbSymbolTableRecord
100
AcDbLayerTableRecord
  2
0
 70
0
 62
7
  6
CONTINUOUS
370
-3
390
F
  0
LAYER
  5
1FA
100
AcDbSymbolTableRecord
100
AcDbLayerTableRecord
  2
DEFAULT_1
 70
0
 62
7
  6
CENTER
370
-3
390
F
  0
LAYER
  5
1FB
100
AcDbSymbolTableRecord
100
AcDbLayerTableRecord
  2
DEFAULT_2
 70
0
 62
7
  6
HIDDEN
370
-3
390
F
  0
LAYER
  5
1FC
100
AcDbSymbolTableRecord
100
AcDbLayerTableRecord
  2
DEFAULT_3
 70
0
 62
7
  6
PHANTOM
370
-3
390
F
  0
LAYER
  5
1FD
100
AcDbSymbolTableRecord
100
AcDbLayerTableRecord
  2
ASSI
 70
0
 62
7
  6
CONTINUOUS
370
-3
390
F
  0
LAYER
  5
1FE
100
AcDbSymbolTableRecord
100
AcDbLayerTableRecord
  2
COORDINATE
 70
0
 62
7
  6
CONTINUOUS
370
-3
390
F
  0
LAYER
  5
1FF
100
AcDbSymbolTableRecord
100
AcDbLayerTableRecord
  2
COPY_PUBLISH
 70
0
 62
7
  6
CONTINUOUS
370
-3
390
F
  0
LAYER
  5
200
100
AcDbSymbolTableRecord
100
AcDbLayerTableRecord
  2
COSMETIC
 70
0
 62
7
  6
CONTINUOUS
370
-3
390
F
  0
LAYER
  5
201
100
AcDbSymbolTableRecord
100
AcDbLayerTableRecord
  2
CURVE
 70
0
 62
7
  6
CONTINUOUS
370
-3
390
F
  0
LAYER
  5
202
100
AcDbSymbolTableRecord
100
AcDbLayerTableRecord
  2
IMPORT_IGES
 70
0
 62
7
  6
CONTINUOUS
370
-3
390
F
  0
LAYER
  5
203
100
AcDbSymbolTableRecord
100
AcDbLayerTableRecord
  2
NOTE
 70
0
 62
7
  6
CONTINUOUS
370
-3
390
F
  0
LAYER
  5
204
100
AcDbSymbolTableRecord
100
AcDbLayerTableRecord
  2
PIANI
 70
0
 62
7
  6
CONTINUOUS
370
-3
390
F
  0
LAYER
  5
205
100
AcDbSymbolTableRecord
100
AcDbLayerTableRecord
  2
PUNTI
 70
0
 62
7
  6
CONTINUOUS
370
-3
390
F
  0
LAYER
  5
206
100
AcDbSymbolTableRecord
100
AcDbLayerTableRecord
  2
RACCORDO
 70
0
 62
7
  6
CONTINUOUS
370
-3
390
F
  0
LAYER
  5
207
100
AcDbSymbolTableRecord
100
AcDbLayerTableRecord
  2
SNAPLINE
 70
0
 62
7
  6
CONTINUOUS
370
-3
390
F
  0
LAYER
  5
208
100
AcDbSymbolTableRecord
100
AcDbLayerTableRecord
  2
TRASH
 70
0
 62
7
  6
CONTINUOUS
370
-3
390
F
  0
ENDTAB
  0
TABLE
  2
STYLE
  5
3
100
AcDbSymbolTable
 70
1
  0
STYLE
  5
11
100
AcDbSymbolTableRecord
100
AcDbTextStyleTableRecord
  2
STANDARD
 70
0
 40
0.0
 41
0.8
 50
0.0
 71
0
 42
0.2
  3
txt
  4

  0
STYLE
  5
209
100
AcDbSymbolTableRecord
100
AcDbTextStyleTableRecord
  2
TEXTSTYLE_1
 70
0
 40
0.0
 41
0.8
 50
0.0
 71
0
 42
0.2
  3
gdt
  4

  0
ENDTAB
  0
TABLE
  2
VIEW
  5
6
100
AcDbSymbolTable
 70
0
  0
ENDTAB
  0
TABLE
  2
UCS
  5
7
100
AcDbSymbolTable
 70
0
  0
ENDTAB
  0
TABLE
  2
APPID
  5
9
100
AcDbSymbolTable
 70
1
  0
APPID
  5
20A
100
AcDbSymbolTableRecord
100
AcDbRegAppTableRecord
  2
ACAD
 70
0
  0
ENDTAB
  0
TABLE
  2
BLOCK_RECORD
  5
1
100
AcDbSymbolTable
 70
0
  0
BLOCK_RECORD
  5
20B
100
AcDbSymbolTableRecord
100
AcDbBlockTableRecord
  2
*Model_Space
  0
BLOCK_RECORD
  5
20C
100
AcDbSymbolTableRecord
100
AcDbBlockTableRecord
  2
*Paper_Space
  0
BLOCK_RECORD
  5
20D
100
AcDbSymbolTableRecord
100
AcDbBlockTableRecord
  2
_FILLED
  0
ENDTAB
  0
TABLE
  2
DIMSTYLE
  5
A
100
AcDbSymbolTable
 70
1
100
AcDbDimStyleTable
 71
0
  0
DIMSTYLE
105
20E
100
AcDbSymbolTableRecord
100
AcDbDimStyleTableRecord
  2
STANDARD
 70
0
  3

  4

 40
1.0
 41
3.0
 42
0.5
 43
0.38
 44
1.5
 45
0.0
 46
0.0
 47
0.01
 48
0.01
140
3.0
141
0.09
142
0.0
143
25.4
144
1.0
145
0.0
146
1.0
147
0.625
 71
1.0
 72
0.0
 73
0
 74
0
 75
0
 76
0
 77
1
 78
8
 79
2
170
0
171
1
172
0
173
0
174
0
175
0
176
0
177
0
178
0
270
2
179
2
271
2
272
2
273
2
274
2
275
0
280
0
281
0
282
0
283
1
284
8
285
0
286
0
287
3
288
0
340
11
278
44
341
20D
342
20D
343
20D
344
20D
  0
ENDTAB
  0
ENDSEC
  0
SECTION
  2
BLOCKS
  0
BLOCK
  5
20
100
AcDbEntity
  8
0
100
AcDbBlockBegin
  2
*Model_Space
 70
0
 10
0.0
 20
0.0
 30
0.0
  3
*Model_Space
  1

  0
ENDBLK
  5
21
100
AcDbEntity
  8
0
100
AcDbBlockEnd
  0
BLOCK
  5
1C
100
AcDbEntity
  8
0
100
AcDbBlockBegin
  2
*Paper_Space
 70
0
 10
0.0
 20
0.0
 30
0.0
  3
*Paper_Space
  1

  0
ENDBLK
  5
1D
100
AcDbEntity
  8
0
100
AcDbBlockEnd
  0
BLOCK
  5
20F
100
AcDbEntity
  8
0
100
AcDbBlockBegin
  2
_FILLED
 70
64
 10
0.0
 20
0.0
  3
_FILLED
  1

  0
SOLID
  5
210
100
AcDbEntity
  8
0
  6
BYBLOCK
 62
0
100
AcDbTrace
 10
0.0
 20
0.0
 11
-1.0
 21
0.3166666667
 12
-1.0
 22
-0.3166666667
 13
-1.0
 23
-0.3166666667
  0
ENDBLK
  5
211
100
AcDbEntity
  8
0
  6
BYBLOCK
 62
0
100
AcDbBlockEnd
  0
ENDSEC
  0
SECTION
  2
ENTITIES
  0
LINE
  5
212
100
AcDbEntity
  8
ASSI
100
AcDbLine
 62
7
  6
CONTINUOUS
 10
-12.6724693789
 20
36.8615320101
 11
-14.1014112952
 21
36.4490320101
  0
LINE
  5
213
100
AcDbEntity
  8
RACCORDO
100
AcDbLine
 62
250
  6
CONTINUOUS
 10
-11.2857188884
 20
36.3878144149
 11
-12.7146608046
 21
35.9753144149
  0
LINE
  5
214
100
AcDbEntity
  8
RACCORDO
100
AcDbLine
 62
7
  6
CONTINUOUS
 10
-13.3693144753
 20
-15.0100879506
 11
11.1306855247
 21
-36.2277103433
  0
LINE
  5
215
100
AcDbEntity
  8
RACCORDO
100
AcDbLine
 62
250
  6
CONTINUOUS
 10
-13.5806862084
 20
-14.5041590046
 11
10.9193137916
 21
-35.7217813973
  0
LINE
  5
216
100
AcDbEntity
  8
0
100
AcDbLine
 62
7
  6
CONTINUOUS
 10
-2.3764253435
 20
-22.9440120699
 11
-2.2734150935
 21
-23.0332215633
  0
LINE
  5
217
100
AcDbEntity
  8
0
100
AcDbLine
 62
7
  6
CONTINUOUS
 10
-2.0865355935
 20
-23.1950639577
 11
-1.9835538435
 21
-23.2842487694
  0
LINE
  5
218
100
AcDbEntity
  8
0
100
AcDbLine
 62
7
  6
CONTINUOUS
 10
-1.1171130935
 20
-24.0346084697
 11
-1.0236733435
 21
-24.1155296669
  0
LINE
  5
219
100
AcDbEntity
  8
0
100
AcDbLine
 62
7
  6
CONTINUOUS
 10
-1.4430760935
 20
-23.4378126105
 11
-1.1171130935
 21
-23.7201048491
  0
LINE
  5
21A
100
AcDbEntity
  8
0
100
AcDbLine
 62
7
  6
CONTINUOUS
 10
-1.0236733435
 20
-23.8010260464
 11
-0.9142923435
 21
-23.8957527711
  0
LINE
  5
21B
100
AcDbEntity
  8
0
100
AcDbLine
 62
7
  6
CONTINUOUS
 10
-0.9142923435
 20
-23.7559944574
 11
-1.0236733435
 21
-23.6612677327
  0
LINE
  5
21C
100
AcDbEntity
  8
0
100
AcDbLine
 62
7
  6
CONTINUOUS
 10
-1.1171130935
 20
-23.5803465355
 11
-1.3570830935
 21
-23.3725264194
  0
LINE
  5
21D
100
AcDbEntity
  8
0
100
AcDbLine
 62
7
  6
CONTINUOUS
 10
-0.8926417084
 20
-23.7497444574
 11
-1.0020227084
 21
-23.6550177327
  0
LINE
  5
21E
100
AcDbEntity
  8
0
100
AcDbLine
 62
7
  6
CONTINUOUS
 10
-1.1171130935
 20
-23.5553465355
 11
-1.3354324584
 21
-23.3662764194
  0
LINE
  5
21F
100
AcDbEntity
  8
0
100
AcDbLine
 62
7
  6
CONTINUOUS
 10
-1.9835538435
 20
-22.7269817736
 11
-1.7438251436
 21
-22.9345929178
  0
LINE
  5
220
100
AcDbEntity
  8
0
100
AcDbLine
 62
7
  6
CONTINUOUS
 10
-1.7678500218
 20
-22.7611593117
 11
-1.9835538435
 21
-22.5743543225
  0
LINE
  5
221
100
AcDbEntity
  8
RACCORDO
100
AcDbLine
 62
7
  6
CONTINUOUS
 10
-15.7146608046
 20
33.3772382035
 11
-15.7146608046
 21
-9.0580065819
  0
LINE
  5
222
100
AcDbEntity
  8
0
100
AcDbLine
 62
7
  6
CONTINUOUS
 10
-1.7461993518
 20
-22.754909342
 11
-1.9619032084
 21
-22.5681043225
  0
LINE
  5
223
100
AcDbEntity
  8
0
100
AcDbLine
 62
7
  6
CONTINUOUS
 10
-1.9835538435
 20
-22.1164044191
 11
-1.7678529376
 21
-22.3032068832
  0
LINE
  5
224
100
AcDbEntity
  8
0
100
AcDbLine
 62
7
  6
CONTINUOUS
 10
-1.0236733435
 20
-22.7950582986
 11
-1.0896788435
 21
-22.7378958588
  0
LINE
  5
225
100
AcDbEntity
  8
0
100
AcDbLine
 62
7
  6
CONTINUOUS
 10
-1.7438231058
 20
-22.1713903098
 11
-2.0865355935
 21
-21.8745925893
  0
LINE
  5
226
100
AcDbEntity
  8
0
100
AcDbLine
 62
7
  6
CONTINUOUS
 10
-2.2734150935
 20
-21.7127501949
 11
-2.3764253435
 21
-21.6235407015
  0
LINE
  5
227
100
AcDbEntity
  8
0
100
AcDbLine
 62
7
  6
CONTINUOUS
 10
-1.0020227084
 20
-22.7888082986
 11
-1.0680282084
 21
-22.7316458588
  0
LINE
  5
228
100
AcDbEntity
  8
0
100
AcDbLine
 62
7
  6
CONTINUOUS
 10
-1.7221724264
 20
-22.1651403483
 11
-2.0648849584
 21
-21.8683425893
  0
LINE
  5
229
100
AcDbEntity
  8
0
100
AcDbLine
 62
7
  6
CONTINUOUS
 10
-2.2517644584
 20
-21.7065001949
 11
-2.3547747084
 21
-21.6172907015
  0
LINE
  5
22A
100
AcDbEntity
  8
RACCORDO
100
AcDbLine
 62
250
  6
CONTINUOUS
 10
-15.5806862084
 20
33.1272382035
 11
-15.5806862084
 21
-9.3080065819
  0
LINE
  5
22B
100
AcDbEntity
  8
RACCORDO
100
AcDbLine
 62
250
  6
CONTINUOUS
 10
13.2142811116
 20
15.1701920222
 11
11.7853391954
 21
14.7576920222
  0
LINE
  5
22C
100
AcDbEntity
  8
0
100
AcDbLine
 62
7
  6
CONTINUOUS
 10
-2.5558838435
 20
1.6338144372
 11
-2.5558838435
 21
-0.3146223438
  0
LINE
  5
22D
100
AcDbEntity
  8
0
100
AcDbLine
 62
7
  6
CONTINUOUS
 10
-2.3764253435
 20
-21.6235407015
 11
-2.3764253435
 21
-22.9440120699
  0
LINE
  5
22E
100
AcDbEntity
  8
0
100
AcDbLine
 62
7
  6
CONTINUOUS
 10
-2.3210808435
 20
-0.5179677066
 11
-2.3210808435
 21
1.4304690743
  0
LINE
  5
22F
100
AcDbEntity
  8
0
100
AcDbLine
 62
7
  6
CONTINUOUS
 10
-2.8776623435
 20
1.9123658792
 11
-3.0986315935
 21
0.762642028
  0
LINE
  5
230
100
AcDbEntity
  8
0
100
AcDbLine
 62
7
  6
CONTINUOUS
 10
-3.0045958435
 20
0.0739736472
 11
-2.6430198435
 21
1.7091595134
  0
LINE
  5
231
100
AcDbEntity
  8
0
100
AcDbLine
 62
7
  6
CONTINUOUS
 10
-2.9829452084
 20
0.0802236472
 11
-2.6213692084
 21
1.7154095134
  0
LINE
  5
232
100
AcDbEntity
  8
RACCORDO
100
AcDbLine
 62
250
  6
CONTINUOUS
 10
15.7142811116
 20
8.6750014938
 11
14.2853391954
 21
8.2625014938
  0
LINE
  5
233
100
AcDbEntity
  8
0
100
AcDbLine
 62
7
  6
CONTINUOUS
 10
-3.5464689584
 20
2.5165693979
 11
-3.5681195935
 21
2.5103193979
  0
LINE
  5
234
100
AcDbEntity
  8
0
100
AcDbLine
 62
7
  6
CONTINUOUS
 10
-3.2914002084
 20
2.2956733807
 11
-3.3130508435
 21
2.2894233807
  0
LINE
  5
235
100
AcDbEntity
  8
0
100
AcDbLine
 62
7
  6
CONTINUOUS
 10
-2.8560117084
 20
1.9186158792
 11
-2.8776623435
 21
1.9123658792
  0
LINE
  5
236
100
AcDbEntity
  8
0
100
AcDbLine
 62
7
  6
CONTINUOUS
 10
-2.6213692084
 20
1.7154095134
 11
-2.6430198435
 21
1.7091595134
  0
LINE
  5
237
100
AcDbEntity
  8
0
100
AcDbLine
 62
7
  6
CONTINUOUS
 10
-3.5681195935
 20
2.5103193979
 11
-3.2115160935
 21
0.2531718403
  0
LINE
  5
238
100
AcDbEntity
  8
0
100
AcDbLine
 62
7
  6
CONTINUOUS
 10
-3.0986315935
 20
0.762642028
 11
-3.3130508435
 21
2.2894233807
  0
LINE
  5
239
100
AcDbEntity
  8
0
100
AcDbLine
 62
7
  6
CONTINUOUS
 10
-3.0856147975
 20
0.8303696452
 11
-3.2914002084
 21
2.2956733807
  0
LINE
  5
23A
100
AcDbEntity
  8
0
100
AcDbLine
 62
7
  6
CONTINUOUS
 10
-1.0538735935
 20
-1.615401377
 11
-1.1590608435
 21
0.4240133212
  0
LINE
  5
23B
100
AcDbEntity
  8
0
100
AcDbLine
 62
7
  6
CONTINUOUS
 10
-1.0322229584
 20
-1.609151377
 11
-1.1374102084
 21
0.4302633212
  0
LINE
  5
23C
100
AcDbEntity
  8
0
100
AcDbLine
 62
7
  6
CONTINUOUS
 10
-1.3318143435
 20
-0.1077847334
 11
-1.2835733435
 21
-1.4164755583
  0
LINE
  5
23D
100
AcDbEntity
  8
0
100
AcDbLine
 62
7
  6
CONTINUOUS
 10
-2.2994302084
 20
-0.5117177066
 11
-2.2994302084
 21
1.4367190743
  0
LINE
  5
23E
100
AcDbEntity
  8
0
100
AcDbLine
 62
7
  6
CONTINUOUS
 10
-2.2734150935
 20
-23.0332215633
 11
-2.2734150935
 21
-21.7127501949
  0
LINE
  5
23F
100
AcDbEntity
  8
0
100
AcDbLine
 62
7
  6
CONTINUOUS
 10
-2.2517644584
 20
-23.0269715633
 11
-2.2517644584
 21
-21.7065001949
  0
LINE
  5
240
100
AcDbEntity
  8
0
100
AcDbLine
 62
7
  6
CONTINUOUS
 10
-2.0865355935
 20
-21.8745925893
 11
-2.0865355935
 21
-23.1950639577
  0
LINE
  5
241
100
AcDbEntity
  8
0
100
AcDbLine
 62
7
  6
CONTINUOUS
 10
-1.9835538435
 20
-23.2842487694
 11
-1.9835538435
 21
-22.7269817736
  0
LINE
  5
242
100
AcDbEntity
  8
0
100
AcDbLine
 62
7
  6
CONTINUOUS
 10
-1.9835538435
 20
-22.5743543225
 11
-1.9835538435
 21
-22.1164044191
  0
LINE
  5
243
100
AcDbEntity
  8
0
100
AcDbLine
 62
7
  6
CONTINUOUS
 10
-1.9619032084
 20
-23.2779987694
 11
-1.9619032084
 21
-22.7457317736
  0
LINE
  5
244
100
AcDbEntity
  8
0
100
AcDbLine
 62
7
  6
CONTINUOUS
 10
-1.9619032084
 20
-22.5681043225
 11
-1.9619032084
 21
-22.1351544191
  0
LINE
  5
245
100
AcDbEntity
  8
0
100
AcDbLine
 62
7
  6
CONTINUOUS
 10
-1.4430760935
 20
-23.2796629483
 11
-1.4430760935
 21
-23.4378126105
  0
LINE
  5
246
100
AcDbEntity
  8
0
100
AcDbLine
 62
7
  6
CONTINUOUS
 10
-1.1171130935
 20
-22.9884103778
 11
-1.1171130935
 21
-23.5803465355
  0
LINE
  5
247
100
AcDbEntity
  8
0
100
AcDbLine
 62
7
  6
CONTINUOUS
 10
-1.1171130935
 20
-23.7201048491
 11
-1.1171130935
 21
-24.0346084697
  0
LINE
  5
248
100
AcDbEntity
  8
0
100
AcDbLine
 62
7
  6
CONTINUOUS
 10
-1.0236733435
 20
-24.1155296669
 11
-1.0236733435
 21
-23.8010260464
  0
LINE
  5
249
100
AcDbEntity
  8
0
100
AcDbLine
 62
7
  6
CONTINUOUS
 10
-1.0236733435
 20
-23.6612677327
 11
-1.0236733435
 21
-22.7950582986
  0
LINE
  5
24A
100
AcDbEntity
  8
0
100
AcDbLine
 62
7
  6
CONTINUOUS
 10
-1.0020227084
 20
-24.1092796669
 11
-1.0020227084
 21
-23.8197760464
  0
LINE
  5
24B
100
AcDbEntity
  8
0
100
AcDbLine
 62
7
  6
CONTINUOUS
 10
-1.0020227084
 20
-23.6550177327
 11
-1.0020227084
 21
-22.7888082986
  0
LINE
  5
24C
100
AcDbEntity
  8
0
100
AcDbLine
 62
7
  6
CONTINUOUS
 10
-0.9142923435
 20
-23.8957527711
 11
-0.9142923435
 21
-23.7559944574
  0
LINE
  5
24D
100
AcDbEntity
  8
0
100
AcDbLine
 62
7
  6
CONTINUOUS
 10
-0.8926417084
 20
-23.8895027711
 11
-0.8926417084
 21
-23.7497444574
  0
LINE
  5
24E
100
AcDbEntity
  8
0
100
AcDbLine
 62
7
  6
CONTINUOUS
 10
-0.0229455272
 20
-0.582654315
 11
-0.0229455272
 21
-2.5082110558
  0
LINE
  5
24F
100
AcDbEntity
  8
0
100
AcDbLine
 62
7
  6
CONTINUOUS
 10
0.2031269835
 20
-1.6224432668
 11
0.2031269835
 21
-1.0875915565
  0
LINE
  5
250
100
AcDbEntity
  8
0
100
AcDbLine
 62
7
  6
CONTINUOUS
 10
0.2109126978
 20
-2.7107382195
 11
0.2109126978
 21
-1.9482735613
  0
LINE
  5
251
100
AcDbEntity
  8
0
100
AcDbLine
 62
7
  6
CONTINUOUS
 10
0.2247776186
 20
-1.6161932668
 11
0.2247776186
 21
-1.1003906123
  0
LINE
  5
252
100
AcDbEntity
  8
0
100
AcDbLine
 62
7
  6
CONTINUOUS
 10
0.2325633329
 20
-2.7044882195
 11
0.2325633329
 21
-1.9670235613
  0
LINE
  5
253
100
AcDbEntity
  8
0
100
AcDbLine
 62
7
  6
CONTINUOUS
 10
-1.9700488435
 20
-0.8219703362
 11
-1.9193785935
 21
0.40636394
  0
LINE
  5
254
100
AcDbEntity
  8
0
100
AcDbLine
 62
7
  6
CONTINUOUS
 10
-1.9483982084
 20
-0.8157203362
 11
-1.9019328582
 21
0.3106799149
  0
LINE
  5
255
100
AcDbEntity
  8
0
100
AcDbLine
 62
7
  6
CONTINUOUS
 10
-2.0931103435
 20
1.2329239166
 11
-2.1946790935
 21
-0.6274348332
  0
LINE
  5
256
100
AcDbEntity
  8
0
100
AcDbLine
 62
7
  6
CONTINUOUS
 10
-0.6719265935
 20
-1.2562519818
 11
-0.5550143435
 21
-0.6344550517
  0
LINE
  5
257
100
AcDbEntity
  8
0
100
AcDbLine
 62
7
  6
CONTINUOUS
 10
-0.6502759584
 20
-1.2500019818
 11
-0.5465633452
 21
-0.6984072218
  0
LINE
  5
258
100
AcDbEntity
  8
0
100
AcDbLine
 62
7
  6
CONTINUOUS
 10
-0.7847475935
 20
-1.8484713298
 11
-0.7199568435
 21
-1.5156276728
  0
LINE
  5
259
100
AcDbEntity
  8
0
100
AcDbLine
 62
7
  6
CONTINUOUS
 10
-0.7630969584
 20
-1.8422213298
 11
-0.7024706298
 21
-1.530771178
  0
LINE
  5
25A
100
AcDbEntity
  8
0
100
AcDbLine
 62
7
  6
CONTINUOUS
 10
-0.6641745935
 20
-0.0045707433
 11
-1.0170033435
 21
-1.6473319501
  0
LINE
  5
25B
100
AcDbEntity
  8
0
100
AcDbLine
 62
7
  6
CONTINUOUS
 10
-1.3913755935
 20
0.6252037964
 11
-1.6261783435
 21
-0.253164418
  0
LINE
  5
25C
100
AcDbEntity
  8
0
100
AcDbLine
 62
7
  6
CONTINUOUS
 10
-1.6109950935
 20
-1.132920005
 11
-1.3318143435
 21
-0.1077847334
  0
LINE
  5
25D
100
AcDbEntity
  8
0
100
AcDbLine
 62
7
  6
CONTINUOUS
 10
-1.5893444584
 20
-1.126670005
 11
-1.3294361112
 21
-0.1723018615
  0
LINE
  5
25E
100
AcDbEntity
  8
0
100
AcDbLine
 62
7
  6
CONTINUOUS
 10
-2.5342332084
 20
1.6400644372
 11
-2.5558838435
 21
1.6338144372
  0
LINE
  5
25F
100
AcDbEntity
  8
0
100
AcDbLine
 62
7
  6
CONTINUOUS
 10
-2.2994302084
 20
1.4367190743
 11
-2.3210808435
 21
1.4304690743
  0
LINE
  5
260
100
AcDbEntity
  8
0
100
AcDbLine
 62
7
  6
CONTINUOUS
 10
-2.0714597084
 20
1.2391739166
 11
-2.0931103435
 21
1.2329239166
  0
LINE
  5
261
100
AcDbEntity
  8
0
100
AcDbLine
 62
7
  6
CONTINUOUS
 10
-1.8368509584
 20
1.0359967791
 11
-1.8585015935
 21
1.0297467791
  0
LINE
  5
262
100
AcDbEntity
  8
0
100
AcDbLine
 62
7
  6
CONTINUOUS
 10
-1.3697249584
 20
0.6314537964
 11
-1.3913755935
 21
0.6252037964
  0
LINE
  5
263
100
AcDbEntity
  8
0
100
AcDbLine
 62
7
  6
CONTINUOUS
 10
-2.9829452084
 20
0.0802236472
 11
-3.0045958435
 21
0.0739736472
  0
LINE
  5
264
100
AcDbEntity
  8
0
100
AcDbLine
 62
7
  6
CONTINUOUS
 10
-1.1374102084
 20
0.4302633212
 11
-1.1590608435
 21
0.4240133212
  0
LINE
  5
265
100
AcDbEntity
  8
0
100
AcDbLine
 62
7
  6
CONTINUOUS
 10
-0.6425239584
 20
0.0016792567
 11
-0.6641745935
 21
-0.0045707433
  0
LINE
  5
266
100
AcDbEntity
  8
0
100
AcDbLine
 62
7
  6
CONTINUOUS
 10
-2.2994302084
 20
-0.5117177066
 11
-2.3210808435
 21
-0.5179677066
  0
LINE
  5
267
100
AcDbEntity
  8
0
100
AcDbLine
 62
7
  6
CONTINUOUS
 10
-0.4153802084
 20
-0.1950330011
 11
-0.4370308435
 21
-0.2012830011
  0
LINE
  5
268
100
AcDbEntity
  8
0
100
AcDbLine
 62
7
  6
CONTINUOUS
 10
-1.9483982084
 20
-0.8157203362
 11
-1.9700488435
 21
-0.8219703362
  0
LINE
  5
269
100
AcDbEntity
  8
0
100
AcDbLine
 62
7
  6
CONTINUOUS
 10
-3.2115160935
 20
0.2531718403
 11
-3.0045958435
 21
0.0739736472
  0
LINE
  5
26A
100
AcDbEntity
  8
0
100
AcDbLine
 62
7
  6
CONTINUOUS
 10
-2.5558838435
 20
-0.3146223438
 11
-2.3210808435
 21
-0.5179677066
  0
LINE
  5
26B
100
AcDbEntity
  8
0
100
AcDbLine
 62
7
  6
CONTINUOUS
 10
-2.1946790935
 20
-0.6274348332
 11
-1.9700488435
 21
-0.8219703362
  0
LINE
  5
26C
100
AcDbEntity
  8
0
100
AcDbLine
 62
7
  6
CONTINUOUS
 10
-1.6439260935
 20
-1.1044009224
 11
-1.6109950935
 21
-1.132920005
  0
LINE
  5
26D
100
AcDbEntity
  8
0
100
AcDbLine
 62
7
  6
CONTINUOUS
 10
-1.2835733435
 20
-1.4164755583
 11
-1.0538735935
 21
-1.615401377
  0
LINE
  5
26E
100
AcDbEntity
  8
0
100
AcDbLine
 62
7
  6
CONTINUOUS
 10
-1.0170033435
 20
-1.6473319501
 11
-0.7847475935
 21
-1.8484713298
  0
LINE
  5
26F
100
AcDbEntity
  8
0
100
AcDbLine
 62
7
  6
CONTINUOUS
 10
-0.3393678435
 20
-2.2341815077
 11
-0.0918950935
 21
-2.4484991959
  0
LINE
  5
270
100
AcDbEntity
  8
0
100
AcDbLine
 62
7
  6
CONTINUOUS
 10
-0.0229455272
 20
-2.5082110558
 11
0.2109126978
 21
-2.7107382195
  0
LINE
  5
271
100
AcDbEntity
  8
0
100
AcDbLine
 62
7
  6
CONTINUOUS
 10
0.5704811062
 20
-3.0221335956
 11
0.7963343011
 21
-3.2177281999
  0
LINE
  5
272
100
AcDbEntity
  8
0
100
AcDbLine
 62
7
  6
CONTINUOUS
 10
-0.7199568435
 20
-1.5156276728
 11
-0.4001940935
 21
-1.7925503374
  0
LINE
  5
273
100
AcDbEntity
  8
0
100
AcDbLine
 62
7
  6
CONTINUOUS
 10
-0.4471193435
 20
-1.4509407713
 11
-0.6719265935
 21
-1.2562519818
  0
LINE
  5
274
100
AcDbEntity
  8
0
100
AcDbLine
 62
7
  6
CONTINUOUS
 10
-0.4508499157
 20
-1.4227100009
 11
-0.6502759584
 21
-1.2500019818
  0
LINE
  5
275
100
AcDbEntity
  8
0
100
AcDbLine
 62
7
  6
CONTINUOUS
 10
0.2109126978
 20
-1.9482735613
 11
0.3368084562
 21
-2.0573024863
  0
LINE
  5
276
100
AcDbEntity
  8
0
100
AcDbLine
 62
7
  6
CONTINUOUS
 10
0.3373145699
 20
-1.7386531255
 11
0.2031269835
 21
-1.6224432668
  0
LINE
  5
277
100
AcDbEntity
  8
0
100
AcDbLine
 62
7
  6
CONTINUOUS
 10
0.3589652049
 20
-1.7324031255
 11
0.2247776186
 21
-1.6161932668
  0
LINE
  5
278
100
AcDbEntity
  8
0
100
AcDbLine
 62
7
  6
CONTINUOUS
 10
-0.4370308435
 20
-0.2012830011
 11
-0.6641745935
 21
-0.0045707433
  0
LINE
  5
279
100
AcDbEntity
  8
0
100
AcDbLine
 62
7
  6
CONTINUOUS
 10
-1.1590608435
 20
0.4240133212
 11
-1.3913755935
 21
0.6252037964
  0
LINE
  5
27A
100
AcDbEntity
  8
0
100
AcDbLine
 62
7
  6
CONTINUOUS
 10
-1.8585015935
 20
1.0297467791
 11
-2.0931103435
 21
1.2329239166
  0
LINE
  5
27B
100
AcDbEntity
  8
0
100
AcDbLine
 62
7
  6
CONTINUOUS
 10
-2.6430198435
 20
1.7091595134
 11
-2.8776623435
 21
1.9123658792
  0
LINE
  5
27C
100
AcDbEntity
  8
0
100
AcDbLine
 62
7
  6
CONTINUOUS
 10
-3.3130508435
 20
2.2894233807
 11
-3.5681195935
 21
2.5103193979
  0
LINE
  5
27D
100
AcDbEntity
  8
0
100
AcDbLine
 62
7
  6
CONTINUOUS
 10
-2.3210808435
 20
1.4304690743
 11
-2.5558838435
 21
1.6338144372
  0
LINE
  5
27E
100
AcDbEntity
  8
0
100
AcDbLine
 62
7
  6
CONTINUOUS
 10
-0.4153802084
 20
-0.1950330011
 11
-0.6425239584
 21
0.0016792567
  0
LINE
  5
27F
100
AcDbEntity
  8
0
100
AcDbLine
 62
7
  6
CONTINUOUS
 10
-1.1374102084
 20
0.4302633212
 11
-1.3697249584
 21
0.6314537964
  0
LINE
  5
280
100
AcDbEntity
  8
0
100
AcDbLine
 62
7
  6
CONTINUOUS
 10
-1.8368509584
 20
1.0359967791
 11
-2.0714597084
 21
1.2391739166
  0
LINE
  5
281
100
AcDbEntity
  8
0
100
AcDbLine
 62
7
  6
CONTINUOUS
 10
-2.6213692084
 20
1.7154095134
 11
-2.8560117084
 21
1.9186158792
  0
LINE
  5
282
100
AcDbEntity
  8
0
100
AcDbLine
 62
7
  6
CONTINUOUS
 10
-3.2914002084
 20
2.2956733807
 11
-3.5464689584
 21
2.5165693979
  0
LINE
  5
283
100
AcDbEntity
  8
0
100
AcDbLine
 62
7
  6
CONTINUOUS
 10
-2.2994302084
 20
1.4367190743
 11
-2.5342332084
 21
1.6400644372
  0
LINE
  5
284
100
AcDbEntity
  8
0
100
AcDbLine
 62
7
  6
CONTINUOUS
 10
-1.9193785935
 20
0.40636394
 11
-1.6439260935
 21
-1.1044009224
  0
LINE
  5
285
100
AcDbEntity
  8
0
100
AcDbLine
 62
7
  6
CONTINUOUS
 10
-1.6261783435
 20
-0.253164418
 11
-1.8585015935
 21
1.0297467791
  0
LINE
  5
286
100
AcDbEntity
  8
0
100
AcDbLine
 62
7
  6
CONTINUOUS
 10
-1.6125966477
 20
-0.202356964
 11
-1.8368509584
 21
1.0359967791
  0
LINE
  5
287
100
AcDbEntity
  8
0
100
AcDbLine
 62
7
  6
CONTINUOUS
 10
-0.0918950935
 20
-2.4484991959
 11
-0.4370308435
 21
-0.2012830011
  0
LINE
  5
288
100
AcDbEntity
  8
0
100
AcDbLine
 62
7
  6
CONTINUOUS
 10
-0.0702444584
 20
-2.4422491959
 11
-0.4153802084
 21
-0.1950330011
  0
LINE
  5
289
100
AcDbEntity
  8
0
100
AcDbLine
 62
7
  6
CONTINUOUS
 10
-0.4001940935
 20
-1.7925503374
 11
-0.3393678435
 21
-2.2341815077
  0
LINE
  5
28A
100
AcDbEntity
  8
0
100
AcDbLine
 62
7
  6
CONTINUOUS
 10
-0.5550143435
 20
-0.6344550517
 11
-0.4471193435
 21
-1.4509407713
  0
LINE
  5
28B
100
AcDbEntity
  8
0
100
AcDbLine
 62
7
  6
CONTINUOUS
 10
0.5807214714
 20
-2.121543717
 11
0.5807214714
 21
-2.1100308469
  0
LINE
  5
28C
100
AcDbEntity
  8
0
100
AcDbLine
 62
7
  6
CONTINUOUS
 10
0.6023721065
 20
-2.115293717
 11
0.6023721065
 21
-2.1106400345
  0
LINE
  5
28D
100
AcDbEntity
  8
0
100
AcDbLine
 62
7
  6
CONTINUOUS
 10
-0.0012948921
 20
-0.576404315
 11
-0.0229455272
 21
-0.582654315
  0
LINE
  5
28E
100
AcDbEntity
  8
0
100
AcDbLine
 62
7
  6
CONTINUOUS
 10
-1.5893444584
 20
-1.126670005
 11
-1.6109950935
 21
-1.132920005
  0
LINE
  5
28F
100
AcDbEntity
  8
0
100
AcDbLine
 62
7
  6
CONTINUOUS
 10
-0.6502759584
 20
-1.2500019818
 11
-0.6719265935
 21
-1.2562519818
  0
LINE
  5
290
100
AcDbEntity
  8
0
100
AcDbLine
 62
250
  6
CONTINUOUS
 10
0.5781630059
 20
-1.0987423538
 11
0.5565123708
 21
-1.1049923538
  0
LINE
  5
291
100
AcDbEntity
  8
0
100
AcDbLine
 62
7
  6
CONTINUOUS
 10
-1.0322229584
 20
-1.609151377
 11
-1.0538735935
 21
-1.615401377
  0
LINE
  5
292
100
AcDbEntity
  8
0
100
AcDbLine
 62
7
  6
CONTINUOUS
 10
-0.7630969584
 20
-1.8422213298
 11
-0.7847475935
 21
-1.8484713298
  0
LINE
  5
293
100
AcDbEntity
  8
0
100
AcDbLine
 62
7
  6
CONTINUOUS
 10
0.2247776186
 20
-1.6161932668
 11
0.2031269835
 21
-1.6224432668
  0
LINE
  5
294
100
AcDbEntity
  8
0
100
AcDbLine
 62
250
  6
CONTINUOUS
 10
0.3589652049
 20
-1.7324031255
 11
0.3373145699
 21
-1.7386531255
  0
LINE
  5
295
100
AcDbEntity
  8
0
100
AcDbLine
 62
7
  6
CONTINUOUS
 10
0.6094601984
 20
-2.108905982
 11
0.6311108335
 21
-2.102655982
  0
LINE
  5
296
100
AcDbEntity
  8
0
100
AcDbLine
 62
7
  6
CONTINUOUS
 10
0.6023721065
 20
-2.115293717
 11
0.5807214714
 21
-2.121543717
  0
LINE
  5
297
100
AcDbEntity
  8
0
100
AcDbLine
 62
7
  6
CONTINUOUS
 10
-0.0702444584
 20
-2.4422491959
 11
-0.0918950935
 21
-2.4484991959
  0
LINE
  5
298
100
AcDbEntity
  8
0
100
AcDbLine
 62
7
  6
CONTINUOUS
 10
0.2325633329
 20
-2.7044882195
 11
0.2109126978
 21
-2.7107382195
  0
LINE
  5
299
100
AcDbEntity
  8
0
100
AcDbLine
 62
250
  6
CONTINUOUS
 10
0.7377153189
 20
-2.614635236
 11
0.7160646838
 21
-2.620885236
  0
LINE
  5
29A
100
AcDbEntity
  8
0
100
AcDbLine
 62
7
  6
CONTINUOUS
 10
0.8179849362
 20
-3.2114781999
 11
0.7963343011
 21
-3.2177281999
  0
LINE
  5
29B
100
AcDbEntity
  8
RACCORDO
100
AcDbLine
 62
250
  6
CONTINUOUS
 10
12.9193137916
 20
-33.9897305898
 11
12.9193137916
 21
8.4455141957
  0
LINE
  5
29C
100
AcDbEntity
  8
0
100
AcDbLine
 62
7
  6
CONTINUOUS
 10
-1.3570830935
 20
-23.3725264194
 11
-1.1171130935
 21
-22.9884103778
  0
LINE
  5
29D
100
AcDbEntity
  8
0
100
AcDbLine
 62
7
  6
CONTINUOUS
 10
-1.3354324584
 20
-23.3662764194
 11
-1.1171130935
 21
-23.0168161941
  0
LINE
  5
29E
100
AcDbEntity
  8
0
100
AcDbLine
 62
7
  6
CONTINUOUS
 10
-1.0896788435
 20
-22.7378958588
 11
-1.4430760935
 21
-23.2796629483
  0
LINE
  5
29F
100
AcDbEntity
  8
RACCORDO
100
AcDbLine
 62
250
  6
CONTINUOUS
 10
14.2853391954
 20
-34.1727432917
 11
14.2853391954
 21
8.2625014938
  0
LINE
  5
2A0
100
AcDbEntity
  8
0
100
AcDbLine
 62
7
  6
CONTINUOUS
 10
15.7142811116
 20
-33.7602432917
 11
15.7142811116
 21
8.6750014938
  0
LINE
  5
2A1
100
AcDbEntity
  8
RACCORDO
100
AcDbLine
 62
250
  6
CONTINUOUS
 10
10.9193137916
 20
13.6416666184
 11
-13.5806862084
 21
34.8592890111
  0
LINE
  5
2A2
100
AcDbEntity
  8
RACCORDO
100
AcDbLine
 62
250
  6
CONTINUOUS
 10
11.7853391954
 20
14.7576920222
 11
-12.7146608046
 21
35.9753144149
  0
LINE
  5
2A3
100
AcDbEntity
  8
0
100
AcDbLine
 62
7
  6
CONTINUOUS
 10
-2.3547747084
 20
-21.6172907015
 11
-2.3764253435
 21
-21.6235407015
  0
LINE
  5
2A4
100
AcDbEntity
  8
0
100
AcDbLine
 62
7
  6
CONTINUOUS
 10
-2.2517644584
 20
-21.7065001949
 11
-2.2734150935
 21
-21.7127501949
  0
LINE
  5
2A5
100
AcDbEntity
  8
0
100
AcDbLine
 62
7
  6
CONTINUOUS
 10
-2.0648849584
 20
-21.8683425893
 11
-2.0865355935
 21
-21.8745925893
  0
LINE
  5
2A6
100
AcDbEntity
  8
0
100
AcDbLine
 62
250
  6
CONTINUOUS
 10
-1.7221719584
 20
-22.1651407535
 11
-1.7438225935
 21
-22.1713907535
  0
LINE
  5
2A7
100
AcDbEntity
  8
0
100
AcDbLine
 62
7
  6
CONTINUOUS
 10
-1.9619032084
 20
-22.5681043225
 11
-1.9835538435
 21
-22.5743543225
  0
LINE
  5
2A8
100
AcDbEntity
  8
0
100
AcDbLine
 62
250
  6
CONTINUOUS
 10
-1.7462009584
 20
-22.7549079506
 11
-1.7678515935
 21
-22.7611579506
  0
LINE
  5
2A9
100
AcDbEntity
  8
0
100
AcDbLine
 62
250
  6
CONTINUOUS
 10
-1.4957523704
 20
-22.7428279714
 11
-1.5174030055
 21
-22.7490779714
  0
LINE
  5
2AA
100
AcDbEntity
  8
0
100
AcDbLine
 62
7
  6
CONTINUOUS
 10
-2.2517644584
 20
-23.0269715633
 11
-2.2734150935
 21
-23.0332215633
  0
LINE
  5
2AB
100
AcDbEntity
  8
0
100
AcDbLine
 62
7
  6
CONTINUOUS
 10
-1.0680282084
 20
-22.7316458588
 11
-1.0896788435
 21
-22.7378958588
  0
LINE
  5
2AC
100
AcDbEntity
  8
0
100
AcDbLine
 62
7
  6
CONTINUOUS
 10
-1.0020227084
 20
-22.7888082986
 11
-1.0236733435
 21
-22.7950582986
  0
LINE
  5
2AD
100
AcDbEntity
  8
0
100
AcDbLine
 62
7
  6
CONTINUOUS
 10
-1.60664669
 20
-22.9875516254
 11
-1.5849960549
 21
-22.9813016254
  0
LINE
  5
2AE
100
AcDbEntity
  8
0
100
AcDbLine
 62
7
  6
CONTINUOUS
 10
13.2142811116
 20
15.1701920222
 11
-11.2857188884
 21
36.3878144149
  0
LINE
  5
2AF
100
AcDbEntity
  8
0
100
AcDbLine
 62
7
  6
CONTINUOUS
 10
-1.9619032084
 20
-23.2779987694
 11
-1.9835538435
 21
-23.2842487694
  0
LINE
  5
2B0
100
AcDbEntity
  8
0
100
AcDbLine
 62
7
  6
CONTINUOUS
 10
-0.6879852984
 20
-23.1243513665
 11
-0.7096359335
 21
-23.1306013665
  0
LINE
  5
2B1
100
AcDbEntity
  8
0
100
AcDbLine
 62
7
  6
CONTINUOUS
 10
-1.3354324584
 20
-23.3662764194
 11
-1.3570830935
 21
-23.3725264194
  0
LINE
  5
2B2
100
AcDbEntity
  8
0
100
AcDbLine
 62
250
  6
CONTINUOUS
 10
-0.5624314128
 20
-23.1695100563
 11
-0.5840820479
 21
-23.1757600563
  0
LINE
  5
2B3
100
AcDbEntity
  8
0
100
AcDbLine
 62
7
  6
CONTINUOUS
 10
-1.0020227084
 20
-23.6550177327
 11
-1.0236733435
 21
-23.6612677327
  0
LINE
  5
2B4
100
AcDbEntity
  8
0
100
AcDbLine
 62
250
  6
CONTINUOUS
 10
-0.7184559728
 20
-23.6946199794
 11
-0.7401066079
 21
-23.7008699794
  0
LINE
  5
2B5
100
AcDbEntity
  8
0
100
AcDbLine
 62
7
  6
CONTINUOUS
 10
-0.8926417084
 20
-23.7497444574
 11
-0.9142923435
 21
-23.7559944574
  0
LINE
  5
2B6
100
AcDbEntity
  8
0
100
AcDbLine
 62
7
  6
CONTINUOUS
 10
-0.8926417084
 20
-23.8895027711
 11
-0.9142923435
 21
-23.8957527711
  0
LINE
  5
2B7
100
AcDbEntity
  8
0
100
AcDbLine
 62
7
  6
CONTINUOUS
 10
-1.0020227084
 20
-24.1092796669
 11
-1.0236733435
 21
-24.1155296669
  0
LINE
  5
2B8
100
AcDbEntity
  8
0
100
AcDbLine
 62
250
  6
CONTINUOUS
 10
-0.3065978022
 20
-24.0512996179
 11
-0.3282484373
 21
-24.0575496179
  0
LINE
  5
2B9
100
AcDbEntity
  8
0
100
AcDbLine
 62
250
  6
CONTINUOUS
 10
-0.5624314128
 20
-24.3446659145
 11
-0.5840820479
 21
-24.3509159145
  0
LINE
  5
2BA
100
AcDbEntity
  8
0
100
AcDbLine
 62
7
  6
CONTINUOUS
 10
-0.4585281624
 20
-24.5413810575
 11
-0.4368775273
 21
-24.5351310575
  0
LINE
  5
2BB
100
AcDbEntity
  8
RACCORDO
100
AcDbLine
 62
250
  6
CONTINUOUS
 10
15.7142811116
 20
-33.7602432917
 11
14.2853391954
 21
-34.1727432917
  0
LINE
  5
2BC
100
AcDbEntity
  8
ASSI
100
AcDbLine
 62
7
  6
CONTINUOUS
 10
14.6010316022
 20
-36.3990243963
 11
13.172089686
 21
-36.8115243963
  0
SPLINE
  5
2BD
100
AcDbEntity
  8
0
100
AcDbSpline
 62
7
  6
CONTINUOUS
 70
0
 71
3
 72
22
 73
18
 74
0
 42
0.0000001
 43
0.0000001
 44
0.0000000001
 40
0.0
 40
0.0
 40
0.0
 40
0.0
 40
0.0696557139
 40
0.1429650526
 40
0.2963486132
 40
0.4513701571
 40
0.5266796742
 40
0.5990498815
 40
0.6674987173
 40
0.7311766791
 40
0.7894175118
 40
0.8418059982
 40
0.8882755148
 40
0.9292503475
 40
0.9658275982
 40
0.9830776356
 40
1.0
 40
1.0
 40
1.0
 40
1.0
 10
-10.3306862084
 20
24.2504778147
 30
0.0
 10
-10.3306862084
 20
24.3107356895
 30
0.0
 10
-10.3356168689
 20
24.4344487028
 30
0.0
 10
-10.3634048564
 20
24.6894563906
 30
0.0
 10
-10.4302986399
 20
25.0136888252
 30
0.0
 10
-10.5341483965
 20
25.3298048143
 30
0.0
 10
-10.6381099217
 20
25.5703066319
 30
0.0
 10
-10.7232579219
 20
25.7369235363
 30
0.0
 10
-10.8147647728
 20
25.888516914
 30
0.0
 10
-10.9110028532
 20
26.0224054547
 30
0.0
 10
-11.0102870406
 20
26.1362487465
 30
0.0
 10
-11.1109411735
 20
26.2280979576
 30
0.0
 10
-11.2114413627
 20
26.2963676335
 30
0.0
 10
-11.3103657054
 20
26.3397663883
 30
0.0
 10
-11.3922113822
 20
26.3541761349
 30
0.0
 10
-11.4535481659
 20
26.3511830786
 30
0.0
 10
-11.4826464631
 20
26.345210514
 30
0.0
 10
-11.4967113432
 20
26.3411502091
 30
0.0
  0
SPLINE
  5
2BE
100
AcDbEntity
  8
0
100
AcDbSpline
 62
7
  6
CONTINUOUS
 70
0
 71
3
 72
15
 73
11
 74
0
 42
0.0000001
 43
0.0000001
 44
0.0000000001
 40
0.0
 40
0.0
 40
0.0
 40
0.0
 40
0.1692642495
 40
0.3262242759
 40
0.4697416218
 40
0.5992572512
 40
0.7150050056
 40
0.8182992748
 40
0.9118660262
 40
1.0
 40
1.0
 40
1.0
 40
1.0
 10
9.1693137916
 20
7.3629824409
 30
0.0
 10
9.1693137916
 20
7.3115177983
 30
0.0
 10
9.1659343616
 20
7.2122785271
 30
0.0
 10
9.1495925037
 20
7.0702175517
 30
0.0
 10
9.1223861204
 20
6.9421010702
 30
0.0
 10
9.084657089
 20
6.8297408151
 30
0.0
 10
9.0368097422
 20
6.7346822499
 30
0.0
 10
8.979176142
 20
6.6582813766
 30
0.0
 10
8.912168168
 20
6.6019987835
 30
0.0
 10
8.8610846441
 20
6.5787805274
 30
0.0
 10
8.8353389264
 20
6.5713481523
 30
0.0
  0
SPLINE
  5
2BF
100
AcDbEntity
  8
0
100
AcDbSpline
 62
7
  6
CONTINUOUS
 70
0
 71
3
 72
15
 73
11
 74
0
 42
0.0000001
 43
0.0000001
 44
0.0000000001
 40
0.0
 40
0.0
 40
0.0
 40
0.0
 40
0.1692642495
 40
0.3262242759
 40
0.4697416218
 40
0.5992572512
 40
0.7150050056
 40
0.8182992748
 40
0.9118660262
 40
1.0
 40
1.0
 40
1.0
 40
1.0
 10
-10.3306862084
 20
-9.5245129328
 30
0.0
 10
-10.3306862084
 20
-9.5759775755
 30
0.0
 10
-10.3340656384
 20
-9.6752168467
 30
0.0
 10
-10.3504074963
 20
-9.8172778221
 30
0.0
 10
-10.3776138796
 20
-9.9453943036
 30
0.0
 10
-10.415342911
 20
-10.0577545587
 30
0.0
 10
-10.4631902578
 20
-10.1528131239
 30
0.0
 10
-10.520823858
 20
-10.2292139972
 30
0.0
 10
-10.587831832
 20
-10.2854965903
 30
0.0
 10
-10.6389153559
 20
-10.3087148464
 30
0.0
 10
-10.6646610736
 20
-10.3161472215
 30
0.0
  0
SPLINE
  5
2C0
100
AcDbEntity
  8
0
100
AcDbSpline
 62
7
  6
CONTINUOUS
 70
0
 71
3
 72
22
 73
18
 74
0
 42
0.0000001
 43
0.0000001
 44
0.0000000001
 40
0.0
 40
0.0
 40
0.0
 40
0.0
 40
0.0696557139
 40
0.1429650526
 40
0.2963486132
 40
0.4513701571
 40
0.5266796742
 40
0.5990498815
 40
0.6674987173
 40
0.7311766791
 40
0.7894175118
 40
0.8418059982
 40
0.8882755148
 40
0.9292503475
 40
0.9658275982
 40
0.9830776356
 40
1.0
 40
1.0
 40
1.0
 40
1.0
 10
9.1693137916
 20
-26.4120083066
 30
0.0
 10
9.1693137916
 20
-26.3517504319
 30
0.0
 10
9.1643831311
 20
-26.2280374186
 30
0.0
 10
9.1365951436
 20
-25.9730297308
 30
0.0
 10
9.0697013601
 20
-25.6487972962
 30
0.0
 10
8.9658516035
 20
-25.3326813071
 30
0.0
 10
8.8618900783
 20
-25.0921794895
 30
0.0
 10
8.7767420781
 20
-24.9255625851
 30
0.0
 10
8.6852352272
 20
-24.7739692074
 30
0.0
 10
8.5889971468
 20
-24.6400806667
 30
0.0
 10
8.4897129594
 20
-24.5262373749
 30
0.0
 10
8.3890588265
 20
-24.4343881638
 30
0.0
 10
8.2885586373
 20
-24.3661184879
 30
0.0
 10
8.1896342946
 20
-24.322719733
 30
0.0
 10
8.1077886178
 20
-24.3083099865
 30
0.0
 10
8.0464518341
 20
-24.3113030427
 30
0.0
 10
8.0173535369
 20
-24.3172756074
 30
0.0
 10
8.0032886568
 20
-24.3213359123
 30
0.0
  0
SPLINE
  5
2C1
100
AcDbEntity
  8
0
100
AcDbSpline
 62
7
  6
CONTINUOUS
 70
0
 71
3
 72
11
 73
7
 74
0
 42
0.0000001
 43
0.0000001
 44
0.0000000001
 40
0.0
 40
0.0
 40
0.0
 40
0.0
 40
0.2100839367
 40
0.4412110234
 40
0.7029646633
 40
1.0
 40
1.0
 40
1.0
 40
1.0
 10
-0.650286389
 20
-23.2974507924
 30
0.0
 10
-0.6453798522
 20
-23.2960343973
 30
0.0
 10
-0.6344133652
 20
-23.2950451953
 30
0.0
 10
-0.6176730142
 20
-23.299413065
 30
0.0
 10
-0.6004560662
 20
-23.3081344886
 30
0.0
 10
-0.5895402845
 20
-23.3163395379
 30
0.0
 10
-0.5840820479
 20
-23.3210665094
 30
0.0
  0
SPLINE
  5
2C2
100
AcDbEntity
  8
0
100
AcDbSpline
 62
7
  6
CONTINUOUS
 70
0
 71
3
 72
21
 73
17
 74
0
 42
0.0000001
 43
0.0000001
 44
0.0000000001
 40
0.0
 40
0.0
 40
0.0
 40
0.0
 40
0.0399572895
 40
0.0820439563
 40
0.1275581325
 40
0.1767075443
 40
0.2296365501
 40
0.2868965355
 40
0.3484434634
 40
0.413520844
 40
0.4810813298
 40
0.5503149145
 40
0.693893086
 40
0.8439420107
 40
0.921260397
 40
1.0
 40
1.0
 40
1.0
 40
1.0
 10
-0.7096359342
 20
-23.1306013667
 30
0.0
 10
-0.7163277797
 20
-23.1325331362
 30
0.0
 10
-0.7295489277
 20
-23.1384986197
 30
0.0
 10
-0.747056328
 20
-23.1524953367
 30
0.0
 10
-0.7624221291
 20
-23.1708584131
 30
0.0
 10
-0.7763109013
 20
-23.1925714906
 30
0.0
 10
-0.7887105723
 20
-23.2174864336
 30
0.0
 10
-0.7991493719
 20
-23.2455937897
 30
0.0
 10
-0.8077558004
 20
-23.2764984243
 30
0.0
 10
-0.8148170416
 20
-23.3096177807
 30
0.0
 10
-0.8207295287
 20
-23.3443113249
 30
0.0
 10
-0.8278865223
 20
-23.3926609554
 30
0.0
 10
-0.8345594246
 20
-23.4555905452
 30
0.0
 10
-0.838366381
 20
-23.5201599293
 30
0.0
 10
-0.8398210567
 20
-23.5735028185
 30
0.0
 10
-0.8399156586
 20
-23.600707433
 30
0.0
 10
-0.8399156586
 20
-23.614432806
 30
0.0
  0
SPLINE
  5
2C3
100
AcDbEntity
  8
0
100
AcDbSpline
 62
7
  6
CONTINUOUS
 70
0
 71
3
 72
21
 73
17
 74
0
 42
0.0000001
 43
0.0000001
 44
0.0000000001
 40
0.0
 40
0.0
 40
0.0
 40
0.0
 40
0.0610341348
 40
0.1245834789
 40
0.1901949228
 40
0.2573804878
 40
0.3943740912
 40
0.5313448026
 40
0.5985020998
 40
0.6640746088
 40
0.7275750587
 40
0.7885508169
 40
0.8465942142
 40
0.9013545608
 40
0.9525527273
 40
1.0
 40
1.0
 40
1.0
 40
1.0
 10
15.7142811116
 20
8.6750014938
 30
0.0
 10
15.7142811116
 20
8.8200080585
 30
0.0
 10
15.7057296397
 20
9.1160459735
 30
0.0
 10
15.6693976705
 20
9.5666255933
 30
0.0
 10
15.609614814
 20
10.0294435208
 30
0.0
 10
15.4986560217
 20
10.6609268081
 30
0.0
 10
15.306089032
 20
11.4493112916
 30
0.0
 10
15.0481995372
 20
12.2187373109
 30
0.0
 10
14.805064268
 20
12.8117766887
 30
0.0
 10
14.6086935766
 20
13.234804722
 30
0.0
 10
14.3990356476
 20
13.6349084948
 30
0.0
 10
14.1780900802
 20
14.008278715
 30
0.0
 10
13.9479725509
 20
14.3513615087
 30
0.0
 10
13.7108564722
 20
14.6609209338
 30
0.0
 10
13.4690083172
 20
14.9340125087
 30
0.0
 10
13.2994943561
 20
15.0963951877
 30
0.0
 10
13.2142811116
 20
15.1701920222
 30
0.0
  0
SPLINE
  5
2C4
100
AcDbEntity
  8
0
100
AcDbSpline
 62
7
  6
CONTINUOUS
 70
0
 71
3
 72
15
 73
11
 74
0
 42
0.0000001
 43
0.0000001
 44
0.0000000001
 40
0.0
 40
0.0
 40
0.0
 40
0.0
 40
0.1542130327
 40
0.2985001718
 40
0.4332215052
 40
0.5590434851
 40
0.6769979566
 40
0.7885211395
 40
0.8954579401
 40
1.0
 40
1.0
 40
1.0
 40
1.0
 10
-11.2857188884
 20
36.3878144149
 30
0.0
 10
-11.345027596
 20
36.4391772624
 30
0.0
 10
-11.4633763788
 20
36.5346251317
 30
0.0
 10
-11.6459785423
 20
36.6585491531
 30
0.0
 10
-11.8268551343
 20
36.7577948285
 30
0.0
 10
-12.0051152648
 20
36.831764996
 30
0.0
 10
-12.1798831421
 20
36.8799516708
 30
0.0
 10
-12.3502708097
 20
36.9019039466
 30
0.0
 10
-12.5152244488
 20
36.8972911808
 30
0.0
 10
-12.6213687669
 20
36.8762836212
 30
0.0
 10
-12.6724693729
 20
36.8615319892
 30
0.0
  0
SPLINE
  5
2C5
100
AcDbEntity
  8
RACCORDO
100
AcDbSpline
 62
7
  6
CONTINUOUS
 70
0
 71
3
 72
18
 73
14
 74
0
 42
0.0000001
 43
0.0000001
 44
0.0000000001
 40
0.0
 40
0.0
 40
0.0
 40
0.0
 40
0.1243377012
 40
0.2549229942
 40
0.3888213889
 40
0.5226211673
 40
0.6529242889
 40
0.7158466675
 40
0.7768813121
 40
0.8358361982
 40
0.8926244639
 40
0.9472834405
 40
1.0
 40
1.0
 40
1.0
 40
1.0
 10
-15.7146608046
 20
-9.0580065819
 30
0.0
 10
-15.7146608046
 20
-9.3298153357
 30
0.0
 10
-15.6825250288
 20
-9.8873662388
 30
0.0
 10
-15.5525739057
 20
-10.728438952
 30
0.0
 10
-15.3446127212
 20
-11.5750470109
 30
0.0
 10
-15.0656108459
 20
-12.4002270704
 30
0.0
 10
-14.7776530935
 20
-13.0557941876
 30
0.0
 10
-14.5172740497
 20
-13.5470921028
 30
0.0
 10
-14.3117322041
 20
-13.8903103966
 30
0.0
 10
-14.0945486186
 20
-14.2102252323
 30
0.0
 10
-13.866197138
 20
-14.5048896374
 30
0.0
 10
-13.6267192364
 20
-14.7725858111
 30
0.0
 10
-13.4564286126
 20
-14.9346448947
 30
0.0
 10
-13.3693144753
 20
-15.0100879506
 30
0.0
  0
SPLINE
  5
2C6
100
AcDbEntity
  8
RACCORDO
100
AcDbSpline
 62
7
  6
CONTINUOUS
 70
0
 71
3
 72
18
 73
14
 74
0
 42
0.0000001
 43
0.0000001
 44
0.0000000001
 40
0.0
 40
0.0
 40
0.0
 40
0.0
 40
0.0600606244
 40
0.1199671648
 40
0.1796010905
 40
0.2389328626
 40
0.2980320242
 40
0.3570686261
 40
0.4758926617
 40
0.5978928487
 40
0.7251728437
 40
0.8590616535
 40
1.0
 40
1.0
 40
1.0
 40
1.0
 10
-14.1014112952
 20
36.4490320101
 30
0.0
 10
-14.1730137348
 20
36.4283621662
 30
0.0
 10
-14.3135526496
 20
36.3778503907
 30
0.0
 10
-14.5125548205
 20
36.2763046538
 30
0.0
 10
-14.6968258981
 20
36.1516039341
 30
0.0
 10
-14.8644137332
 20
36.0068847143
 30
0.0
 10
-15.0145458277
 20
35.8452102429
 30
0.0
 10
-15.1919612406
 20
35.6102060757
 30
0.0
 10
-15.3734454821
 20
35.2830955775
 30
0.0
 10
-15.5318939647
 20
34.8532479066
 30
0.0
 10
-15.6397268487
 20
34.3891217184
 30
0.0
 10
-15.7019491104
 20
33.8933443326
 30
0.0
 10
-15.7146608046
 20
33.552121448
 30
0.0
 10
-15.7146608046
 20
33.3772382035
 30
0.0
  0
SPLINE
  5
2C7
100
AcDbEntity
  8
RACCORDO
100
AcDbSpline
 62
7
  6
CONTINUOUS
 70
0
 71
3
 72
14
 73
10
 74
0
 42
0.0000001
 43
0.0000001
 44
0.0000000001
 40
0.0
 40
0.0
 40
0.0
 40
0.0
 40
0.2538791789
 40
0.3780107128
 40
0.501482756
 40
0.6251142429
 40
0.7494073019
 40
0.8744599013
 40
1.0
 40
1.0
 40
1.0
 40
1.0
 10
11.1306855247
 20
-36.2277103433
 30
0.0
 10
11.272352758
 20
-36.3503977663
 30
0.0
 10
11.4981552717
 20
-36.5176931909
 30
0.0
 10
11.8260143087
 20
-36.6908398069
 30
0.0
 10
12.0819088934
 20
-36.7907858062
 30
0.0
 10
12.3486368935
 20
-36.8575707186
 30
0.0
 10
12.6234038514
 20
-36.8867208056
 30
0.0
 10
12.9009078243
 20
-36.874414817
 30
0.0
 10
13.0830542757
 20
-36.8372267054
 30
0.0
 10
13.172089686
 20
-36.8115243963
 30
0.0
  0
SPLINE
  5
2C8
100
AcDbEntity
  8
0
100
AcDbSpline
 62
7
  6
CONTINUOUS
 70
0
 71
3
 72
15
 73
11
 74
0
 42
0.0000001
 43
0.0000001
 44
0.0000000001
 40
0.0
 40
0.0
 40
0.0
 40
0.0
 40
0.0881339738
 40
0.1817007252
 40
0.2849949944
 40
0.4007427488
 40
0.5302583782
 40
0.6737757241
 40
0.8307357505
 40
1.0
 40
1.0
 40
1.0
 40
1.0
 10
8.8353389264
 20
-27.2036425953
 30
0.0
 10
8.8610846441
 20
-27.1962102202
 30
0.0
 10
8.912168168
 20
-27.1729919641
 30
0.0
 10
8.979176142
 20
-27.116709371
 30
0.0
 10
9.0368097422
 20
-27.0403084977
 30
0.0
 10
9.084657089
 20
-26.9452499325
 30
0.0
 10
9.1223861204
 20
-26.8328896774
 30
0.0
 10
9.1495925037
 20
-26.7047731959
 30
0.0
 10
9.1659343616
 20
-26.5627122205
 30
0.0
 10
9.1693137916
 20
-26.4634729492
 30
0.0
 10
9.1693137916
 20
-26.4120083066
 30
0.0
  0
SPLINE
  5
2C9
100
AcDbEntity
  8
0
100
AcDbSpline
 62
7
  6
CONTINUOUS
 70
0
 71
3
 72
22
 73
18
 74
0
 42
0.0000001
 43
0.0000001
 44
0.0000000001
 40
0.0
 40
0.0
 40
0.0
 40
0.0
 40
0.0169223644
 40
0.0341724018
 40
0.0707496525
 40
0.1117244852
 40
0.1581940018
 40
0.2105824882
 40
0.2688233209
 40
0.3325012827
 40
0.4009501185
 40
0.4733203258
 40
0.5486298429
 40
0.7036513868
 40
0.8570349474
 40
0.9303442861
 40
1.0
 40
1.0
 40
1.0
 40
1.0
 10
-11.4967113432
 20
-7.4338405385
 30
0.0
 10
-11.4826464631
 20
-7.4297802336
 30
0.0
 10
-11.4535481659
 20
-7.4238076689
 30
0.0
 10
-11.3922113822
 20
-7.4208146127
 30
0.0
 10
-11.3103657054
 20
-7.4352243592
 30
0.0
 10
-11.2114413627
 20
-7.4786231141
 30
0.0
 10
-11.1109411735
 20
-7.54689279
 30
0.0
 10
-11.0102870406
 20
-7.6387420011
 30
0.0
 10
-10.9110028532
 20
-7.7525852929
 30
0.0
 10
-10.8147647728
 20
-7.8864738336
 30
0.0
 10
-10.7232579219
 20
-8.0380672113
 30
0.0
 10
-10.6381099217
 20
-8.2046841157
 30
0.0
 10
-10.5341483965
 20
-8.4451859333
 30
0.0
 10
-10.4302986399
 20
-8.7613019224
 30
0.0
 10
-10.3634048564
 20
-9.085534357
 30
0.0
 10
-10.3356168689
 20
-9.3405420448
 30
0.0
 10
-10.3306862084
 20
-9.4642550581
 30
0.0
 10
-10.3306862084
 20
-9.5245129328
 30
0.0
  0
SPLINE
  5
2CA
100
AcDbEntity
  8
0
100
AcDbSpline
 62
7
  6
CONTINUOUS
 70
0
 71
3
 72
22
 73
18
 74
0
 42
0.0000001
 43
0.0000001
 44
0.0000000001
 40
0.0
 40
0.0
 40
0.0
 40
0.0
 40
0.0169223644
 40
0.0341724018
 40
0.0707496525
 40
0.1117244852
 40
0.1581940018
 40
0.2105824882
 40
0.2688233209
 40
0.3325012827
 40
0.4009501185
 40
0.4733203258
 40
0.5486298429
 40
0.7036513868
 40
0.8570349474
 40
0.9303442861
 40
1.0
 40
1.0
 40
1.0
 40
1.0
 10
8.0032886568
 20
9.4536548353
 30
0.0
 10
8.0173535369
 20
9.4577151402
 30
0.0
 10
8.0464518341
 20
9.4636877048
 30
0.0
 10
8.1077886178
 20
9.4666807611
 30
0.0
 10
8.1896342946
 20
9.4522710146
 30
0.0
 10
8.2885586373
 20
9.4088722597
 30
0.0
 10
8.3890588265
 20
9.3406025838
 30
0.0
 10
8.4897129594
 20
9.2487533727
 30
0.0
 10
8.5889971468
 20
9.1349100809
 30
0.0
 10
8.6852352272
 20
9.0010215402
 30
0.0
 10
8.7767420781
 20
8.8494281625
 30
0.0
 10
8.8618900783
 20
8.6828112581
 30
0.0
 10
8.9658516035
 20
8.4423094405
 30
0.0
 10
9.0697013601
 20
8.1261934514
 30
0.0
 10
9.1365951436
 20
7.8019610168
 30
0.0
 10
9.1643831311
 20
7.546953329
 30
0.0
 10
9.1693137916
 20
7.4232403157
 30
0.0
 10
9.1693137916
 20
7.3629824409
 30
0.0
  0
SPLINE
  5
2CB
100
AcDbEntity
  8
0
100
AcDbSpline
 62
7
  6
CONTINUOUS
 70
0
 71
3
 72
15
 73
11
 74
0
 42
0.0000001
 43
0.0000001
 44
0.0000000001
 40
0.0
 40
0.0
 40
0.0
 40
0.0
 40
0.0881339738
 40
0.1817007252
 40
0.2849949944
 40
0.4007427488
 40
0.5302583782
 40
0.6737757241
 40
0.8307357505
 40
1.0
 40
1.0
 40
1.0
 40
1.0
 10
-10.6646610736
 20
23.4588435261
 30
0.0
 10
-10.6389153559
 20
23.4662759011
 30
0.0
 10
-10.587831832
 20
23.4894941573
 30
0.0
 10
-10.520823858
 20
23.5457767504
 30
0.0
 10
-10.4631902578
 20
23.6221776237
 30
0.0
 10
-10.415342911
 20
23.7172361889
 30
0.0
 10
-10.3776138796
 20
23.829596444
 30
0.0
 10
-10.3504074963
 20
23.9577129255
 30
0.0
 10
-10.3340656384
 20
24.0997739009
 30
0.0
 10
-10.3306862084
 20
24.1990131721
 30
0.0
 10
-10.3306862084
 20
24.2504778147
 30
0.0
  0
SPLINE
  5
2CC
100
AcDbEntity
  8
0
100
AcDbSpline
 62
7
  6
CONTINUOUS
 70
0
 71
3
 72
18
 73
14
 74
0
 42
0.0000001
 43
0.0000001
 44
0.0000000001
 40
0.0
 40
0.0
 40
0.0
 40
0.0
 40
0.0437983302
 40
0.0883019141
 40
0.1341732637
 40
0.1819986306
 40
0.2322685457
 40
0.2853718613
 40
0.4010585351
 40
0.5305059455
 40
0.6739477201
 40
0.8308259294
 40
1.0
 40
1.0
 40
1.0
 40
1.0
 10
14.6010315961
 20
-36.3990243754
 30
0.0
 10
14.6437020803
 20
-36.3867063359
 30
0.0
 10
14.7280734017
 20
-36.3556780046
 30
0.0
 10
14.8482905591
 20
-36.2911009879
 30
0.0
 10
14.962119496
 20
-36.2086803782
 30
0.0
 10
15.069096329
 20
-36.1088439467
 30
0.0
 10
15.1688755865
 20
-35.9920434902
 30
0.0
 10
15.2954664495
 20
-35.8091206008
 30
0.0
 10
15.4321267086
 20
-35.5376589461
 30
0.0
 10
15.5578447334
 20
-35.1631989379
 30
0.0
 10
15.6485470991
 20
-34.7361197855
 30
0.0
 10
15.7030152641
 20
-34.2625903883
 30
0.0
 10
15.7142811116
 20
-33.9317911207
 30
0.0
 10
15.7142811116
 20
-33.7602432917
 30
0.0
  0
SPLINE
  5
2CD
100
AcDbEntity
  8
0
100
AcDbSpline
 62
7
  6
CONTINUOUS
 70
0
 71
3
 72
14
 73
10
 74
0
 42
0.0000001
 43
0.0000001
 44
0.0000000001
 40
0.0
 40
0.0
 40
0.0
 40
0.0
 40
0.1611434796
 40
0.3171391227
 40
0.599766308
 40
0.7210350358
 40
0.8266424095
 40
0.9176680048
 40
1.0
 40
1.0
 40
1.0
 40
1.0
 10
-1.6235844748
 20
-22.6571221216
 30
0.0
 10
-1.6235844748
 20
-22.6657365657
 30
0.0
 10
-1.6235990728
 20
-22.682702299
 30
0.0
 10
-1.6259366912
 20
-22.7146824371
 30
0.0
 10
-1.6309383044
 20
-22.7443887916
 30
0.0
 10
-1.6400658989
 20
-22.7701345844
 30
0.0
 10
-1.648281316
 20
-22.7851234563
 30
0.0
 10
-1.6585270951
 20
-22.796279718
 30
0.0
 10
-1.6670502146
 20
-22.8005101713
 30
0.0
 10
-1.6712788682
 20
-22.8017308784
 30
0.0
  0
SPLINE
  5
2CE
100
AcDbEntity
  8
0
100
AcDbSpline
 62
7
  6
CONTINUOUS
 70
0
 71
3
 72
16
 73
12
 74
0
 42
0.0000001
 43
0.0000001
 44
0.0000000001
 40
0.0
 40
0.0
 40
0.0
 40
0.0
 40
0.2055592603
 40
0.3226125699
 40
0.4525084073
 40
0.5919344205
 40
0.7346344459
 40
0.8049440563
 40
0.8732336406
 40
0.9384930637
 40
1.0
 40
1.0
 40
1.0
 40
1.0
 10
-1.7678529376
 20
-22.3032069974
 30
0.0
 10
-1.7474390694
 20
-22.3208857208
 30
0.0
 10
-1.7194283656
 20
-22.3532047171
 30
0.0
 10
-1.6853434966
 20
-22.401939112
 30
0.0
 10
-1.66190284
 20
-22.4471854805
 30
0.0
 10
-1.6438798308
 20
-22.4983787654
 30
0.0
 10
-1.6336021336
 20
-22.5436144277
 30
0.0
 10
-1.6279812184
 20
-22.5801499872
 30
0.0
 10
-1.6251679231
 20
-22.6067919336
 30
0.0
 10
-1.6236034937
 20
-22.6323828512
 30
0.0
 10
-1.6235844748
 20
-22.6490417893
 30
0.0
 10
-1.6235844748
 20
-22.6571221216
 30
0.0
  0
SPLINE
  5
2CF
100
AcDbEntity
  8
0
100
AcDbSpline
 62
7
  6
CONTINUOUS
 70
0
 71
3
 72
14
 73
10
 74
0
 42
0.0000001
 43
0.0000001
 44
0.0000000001
 40
0.0
 40
0.0
 40
0.0
 40
0.0
 40
0.295194747
 40
0.4300097024
 40
0.5569338087
 40
0.6767847818
 40
0.7900272483
 40
0.8969331945
 40
1.0
 40
1.0
 40
1.0
 40
1.0
 10
-1.7438251436
 20
-22.9345927117
 30
0.0
 10
-1.7324929807
 20
-22.9444068306
 30
0.0
 10
-1.7150815214
 20
-22.9577653805
 30
0.0
 10
-1.6906003525
 20
-22.9719910303
 30
0.0
 10
-1.6729912601
 20
-22.9801562993
 30
0.0
 10
-1.6556864387
 20
-22.9861532094
 30
0.0
 10
-1.6387861504
 20
-22.9899350967
 30
0.0
 10
-1.6222918241
 20
-22.9908278097
 30
0.0
 10
-1.6116754901
 20
-22.9890033149
 30
0.0
 10
-1.6066466904
 20
-22.9875516255
 30
0.0
  0
SPLINE
  5
2D0
100
AcDbEntity
  8
0
100
AcDbSpline
 62
7
  6
CONTINUOUS
 70
0
 71
3
 72
21
 73
17
 74
0
 42
0.0000001
 43
0.0000001
 44
0.0000000001
 40
0.0
 40
0.0
 40
0.0
 40
0.0
 40
0.0487076961
 40
0.1041031102
 40
0.1653358672
 40
0.2312040659
 40
0.299269018
 40
0.3673084986
 40
0.4347199404
 40
0.5013892292
 40
0.5671574946
 40
0.6318031408
 40
0.7582280048
 40
0.8811067018
 40
0.9409803027
 40
1.0
 40
1.0
 40
1.0
 40
1.0
 10
-0.5840820479
 20
-23.3210665094
 30
0.0
 10
-0.575690635
 20
-23.3283336862
 30
0.0
 10
-0.5593721131
 20
-23.3457207094
 30
0.0
 10
-0.5371428349
 20
-23.3762339055
 30
0.0
 10
-0.5168118052
 20
-23.4126298723
 30
0.0
 10
-0.4991050923
 20
-23.4534870984
 30
0.0
 10
-0.4836918972
 20
-23.4968863235
 30
0.0
 10
-0.4705576884
 20
-23.5413980555
 30
0.0
 10
-0.4602591839
 20
-23.5863234278
 30
0.0
 10
-0.4523164579
 20
-23.6311862512
 30
0.0
 10
-0.4460899343
 20
-23.6756749884
 30
0.0
 10
-0.4391912214
 20
-23.7338043853
 30
0.0
 10
-0.4326612246
 20
-23.8050751721
 30
0.0
 10
-0.4290678472
 20
-23.8754687973
 30
0.0
 10
-0.4280140823
 20
-23.9305640956
 30
0.0
 10
-0.428057488
 20
-23.9576614775
 30
0.0
 10
-0.428057488
 20
-23.9711124445
 30
0.0
  0
SPLINE
  5
2D1
100
AcDbEntity
  8
0
100
AcDbSpline
 62
7
  6
CONTINUOUS
 70
0
 71
3
 72
19
 73
15
 74
0
 42
0.0000001
 43
0.0000001
 44
0.0000000001
 40
0.0
 40
0.0
 40
0.0
 40
0.0
 40
0.0762394956
 40
0.1516264891
 40
0.2987950083
 40
0.4404461273
 40
0.5764052106
 40
0.7064953287
 40
0.7669390207
 40
0.8226735083
 40
0.8731435843
 40
0.9191125966
 40
0.9611667045
 40
1.0
 40
1.0
 40
1.0
 40
1.0
 10
-0.428057488
 20
-23.9711124445
 30
0.0
 10
-0.428057488
 20
-23.9820061553
 30
0.0
 10
-0.4280053075
 20
-24.003672121
 30
0.0
 10
-0.4285898015
 20
-24.0463641055
 30
0.0
 10
-0.4306752436
 20
-24.0983759074
 30
0.0
 10
-0.435639296
 20
-24.1588915794
 30
0.0
 10
-0.4429612597
 20
-24.2166899096
 30
0.0
 10
-0.4507467256
 20
-24.2627401261
 30
0.0
 10
-0.4594811076
 20
-24.2968538146
 30
0.0
 10
-0.4673477203
 20
-24.3193789871
 30
0.0
 10
-0.4771927085
 20
-24.3388541472
 30
0.0
 10
-0.4888206084
 20
-24.3549773271
 30
0.0
 10
-0.5020417923
 20
-24.3675764809
 30
0.0
 10
-0.51254658
 20
-24.3729926679
 30
0.0
 10
-0.5178777069
 20
-24.3745316316
 30
0.0
  0
SPLINE
  5
2D2
100
AcDbEntity
  8
0
100
AcDbSpline
 62
7
  6
CONTINUOUS
 70
0
 71
3
 72
21
 73
17
 74
0
 42
0.0000001
 43
0.0000001
 44
0.0000000001
 40
0.0
 40
0.0
 40
0.0
 40
0.0
 40
0.0596702202
 40
0.1206534757
 40
0.2462030004
 40
0.3105767083
 40
0.3758385629
 40
0.4423075211
 40
0.5099235325
 40
0.5782348733
 40
0.646520248
 40
0.713955233
 40
0.7793451229
 40
0.8990973092
 40
0.95215062
 40
1.0
 40
1.0
 40
1.0
 40
1.0
 10
-0.8399156586
 20
-23.614432806
 30
0.0
 10
-0.8399156586
 20
-23.633157535
 30
0.0
 10
-0.8396448915
 20
-23.6710226023
 30
0.0
 10
-0.8368116696
 20
-23.7482380352
 30
0.0
 10
-0.8310222521
 20
-23.8267979391
 30
0.0
 10
-0.8222288744
 20
-23.906395604
 30
0.0
 10
-0.8142933032
 20
-23.9674262077
 30
0.0
 10
-0.804213524
 20
-24.0291807467
 30
0.0
 10
-0.7910928294
 20
-24.0913530993
 30
0.0
 10
-0.7745441049
 20
-24.1532880895
 30
0.0
 10
-0.7553751742
 20
-24.2143975806
 30
0.0
 10
-0.733235313
 20
-24.2735475977
 30
0.0
 10
-0.7003571232
 20
-24.3457093587
 30
0.0
 10
-0.6615714246
 20
-24.4101151072
 30
0.0
 10
-0.6179327615
 20
-24.4639819724
 30
0.0
 10
-0.5954325531
 20
-24.4863925419
 30
0.0
 10
-0.5840820479
 20
-24.4962223677
 30
0.0
  0
SPLINE
  5
2D3
100
AcDbEntity
  8
0
100
AcDbSpline
 62
7
  6
CONTINUOUS
 70
0
 71
3
 72
11
 73
7
 74
0
 42
0.0000001
 43
0.0000001
 44
0.0000000001
 40
0.0
 40
0.0
 40
0.0
 40
0.0
 40
0.2972178621
 40
0.5590340917
 40
0.7898559008
 40
1.0
 40
1.0
 40
1.0
 40
1.0
 10
-0.5840820479
 20
-24.4962223677
 30
0.0
 10
-0.5737128151
 20
-24.5052023867
 30
0.0
 10
-0.5530875201
 20
-24.5208940241
 30
0.0
 10
-0.5204838307
 20
-24.5377126471
 30
0.0
 10
-0.4886644217
 20
-24.5457104815
 30
0.0
 10
-0.4678462514
 20
-24.5440709582
 30
0.0
 10
-0.4585281616
 20
-24.5413810572
 30
0.0
  0
SPLINE
  5
2D4
100
AcDbEntity
  8
0
100
AcDbSpline
 62
7
  6
CONTINUOUS
 70
0
 71
3
 72
11
 73
7
 74
0
 42
0.0000001
 43
0.0000001
 44
0.0000000001
 40
0.0
 40
0.0
 40
0.0
 40
0.0
 40
0.226285577
 40
0.4662818848
 40
0.724535867
 40
1.0
 40
1.0
 40
1.0
 40
1.0
 10
0.2031269835
 20
-1.0875915565
 30
0.0
 10
0.2186502951
 20
-1.0964472624
 30
0.0
 10
0.2501309166
 20
-1.1156145491
 30
0.0
 10
0.2965594614
 20
-1.1491968083
 30
0.0
 10
0.3425439718
 20
-1.1895526205
 30
0.0
 10
0.3721973294
 20
-1.2195508765
 30
0.0
 10
0.3870739721
 20
-1.2354252822
 30
0.0
  0
SPLINE
  5
2D5
100
AcDbEntity
  8
0
100
AcDbSpline
 62
7
  6
CONTINUOUS
 70
0
 71
3
 72
12
 73
8
 74
0
 42
0.0000001
 43
0.0000001
 44
0.0000000001
 40
0.0
 40
0.0
 40
0.0
 40
0.0
 40
0.1046208771
 40
0.221575629
 40
0.479425544
 40
0.7479108993
 40
1.0
 40
1.0
 40
1.0
 40
1.0
 10
0.3870739721
 20
-1.2354252822
 30
0.0
 10
0.396360828
 20
-1.2453354357
 30
0.0
 10
0.4145199508
 20
-1.267752432
 30
0.0
 10
0.448545859
 20
-1.3199432574
 30
0.0
 10
0.4845270541
 20
-1.3958384805
 30
0.0
 10
0.5119526189
 20
-1.4935258991
 30
0.0
 10
0.5194162711
 20
-1.5611197746
 30
0.0
 10
0.5197094767
 20
-1.5938437197
 30
0.0
  0
SPLINE
  5
2D6
100
AcDbEntity
  8
0
100
AcDbSpline
 62
7
  6
CONTINUOUS
 70
0
 71
3
 72
14
 73
10
 74
0
 42
0.0000001
 43
0.0000001
 44
0.0000000001
 40
0.0
 40
0.0
 40
0.0
 40
0.0
 40
0.3202923022
 40
0.4670602731
 40
0.6009289798
 40
0.7201985762
 40
0.824807331
 40
0.9164863319
 40
1.0
 40
1.0
 40
1.0
 40
1.0
 10
0.5197094767
 20
-1.5938437197
 30
0.0
 10
0.5199118232
 20
-1.6167323343
 30
0.0
 10
0.5190813471
 20
-1.6501833023
 30
0.0
 10
0.513658374
 20
-1.6928239889
 30
0.0
 10
0.5074001758
 20
-1.7207727516
 30
0.0
 10
0.4984288756
 20
-1.7448257788
 30
0.0
 10
0.4868429948
 20
-1.7643470738
 30
0.0
 10
0.4727016976
 20
-1.7788565322
 30
0.0
 10
0.4612214752
 20
-1.784571526
 30
0.0
 10
0.4554873591
 20
-1.7862268231
 30
0.0
  0
SPLINE
  5
2D7
100
AcDbEntity
  8
0
100
AcDbSpline
 62
7
  6
CONTINUOUS
 70
0
 71
3
 72
12
 73
8
 74
0
 42
0.0000001
 43
0.0000001
 44
0.0000000001
 40
0.0
 40
0.0
 40
0.0
 40
0.0
 40
0.0971402083
 40
0.2067283793
 40
0.455498211
 40
0.7269106958
 40
1.0
 40
1.0
 40
1.0
 40
1.0
 10
0.3368084562
 20
-2.0573024863
 30
0.0
 10
0.344613428
 20
-2.0640617902
 30
0.0
 10
0.3600350742
 20
-2.0798320556
 30
0.0
 10
0.3895600496
 20
-2.1183076164
 30
0.0
 10
0.4214597302
 20
-2.177653553
 30
0.0
 10
0.4496933948
 20
-2.2573268036
 30
0.0
 10
0.4625979337
 20
-2.3138660801
 30
0.0
 10
0.4678075269
 20
-2.3424213436
 30
0.0
  0
SPLINE
  5
2D8
100
AcDbEntity
  8
0
100
AcDbSpline
 62
7
  6
CONTINUOUS
 70
0
 71
3
 72
11
 73
7
 74
0
 42
0.0000001
 43
0.0000001
 44
0.0000000001
 40
0.0
 40
0.0
 40
0.0
 40
0.0
 40
0.2510525653
 40
0.501000949
 40
0.7506263355
 40
1.0
 40
1.0
 40
1.0
 40
1.0
 10
0.4678075269
 20
-2.3424213436
 30
0.0
 10
0.4781412305
 20
-2.3990127539
 30
0.0
 10
0.4947589532
 20
-2.5126378714
 30
0.0
 10
0.5206706568
 20
-2.6826638725
 30
0.0
 10
0.54572941
 20
-2.8524450927
 30
0.0
 10
0.5622741121
 20
-2.9655835834
 30
0.0
 10
0.5704811062
 20
-3.0221335956
 30
0.0
  0
SPLINE
  5
2D9
100
AcDbEntity
  8
0
100
AcDbSpline
 62
7
  6
CONTINUOUS
 70
0
 71
3
 72
13
 73
9
 74
0
 42
0.0000001
 43
0.0000001
 44
0.0000000001
 40
0.0
 40
0.0
 40
0.0
 40
0.0
 40
0.1465967636
 40
0.2757325729
 40
0.3995552829
 40
0.5217535743
 40
0.7624433093
 40
1.0
 40
1.0
 40
1.0
 40
1.0
 10
0.5807214714
 20
-2.1100308469
 30
0.0
 10
0.5819350642
 20
-2.1108106227
 30
0.0
 10
0.584432169
 20
-2.1119907581
 30
0.0
 10
0.5883685639
 20
-2.1125493491
 30
0.0
 10
0.5920614529
 20
-2.1122886159
 30
0.0
 10
0.5968077534
 20
-2.1116581136
 30
0.0
 10
0.6026383513
 20
-2.110676818
 30
0.0
 10
0.6072143366
 20
-2.1095543064
 30
0.0
 10
0.6094601985
 20
-2.108905982
 30
0.0
  0
SPLINE
  5
2DA
100
AcDbEntity
  8
0
100
AcDbSpline
 62
7
  6
CONTINUOUS
 70
0
 71
3
 72
10
 73
6
 74
0
 42
0.0000001
 43
0.0000001
 44
0.0000000001
 40
0.0
 40
0.0
 40
0.0
 40
0.0
 40
0.5378831452
 40
0.779011002
 40
1.0
 40
1.0
 40
1.0
 40
1.0
 10
8.3188328444
 20
8.8495205466
 30
0.0
 10
8.3188328444
 20
8.9381435097
 30
0.0
 10
8.3261992475
 20
9.0668874782
 30
0.0
 10
8.3559445848
 20
9.2291055791
 30
0.0
 10
8.3767982148
 20
9.3025143886
 30
0.0
 10
8.3888278193
 20
9.336880468
 30
0.0
  0
SPLINE
  5
2DB
100
AcDbEntity
  8
0
100
AcDbSpline
 62
7
  6
CONTINUOUS
 70
0
 71
3
 72
16
 73
12
 74
0
 42
0.0000001
 43
0.0000001
 44
0.0000000001
 40
0.0
 40
0.0
 40
0.0
 40
0.0
 40
0.1255918928
 40
0.2595779235
 40
0.3977126116
 40
0.535478597
 40
0.6683821277
 40
0.7922512594
 40
0.9035687499
 40
0.9537455209
 40
1.0
 40
1.0
 40
1.0
 40
1.0
 10
8.3188328444
 20
8.8495205466
 30
0.0
 10
8.3188328444
 20
8.7583670259
 30
0.0
 10
8.3301159097
 20
8.5698812558
 30
0.0
 10
8.3751978865
 20
8.2843935927
 30
0.0
 10
8.4474509132
 20
7.9954132712
 30
0.0
 10
8.5440159185
 20
7.7144711055
 30
0.0
 10
8.6610519155
 20
7.4526550943
 30
0.0
 10
8.7938705472
 20
7.2203304744
 30
0.0
 10
8.9173858792
 20
7.0531775553
 30
0.0
 10
9.0206899663
 20
6.9431404732
 30
0.0
 10
9.0730706198
 20
6.8965161597
 30
0.0
 10
9.0993427161
 20
6.8756164935
 30
0.0
  0
SPLINE
  5
2DC
100
AcDbEntity
  8
0
100
AcDbSpline
 62
7
  6
CONTINUOUS
 70
0
 71
3
 72
10
 73
6
 74
0
 42
0.0000001
 43
0.0000001
 44
0.0000000001
 40
0.0
 40
0.0
 40
0.0
 40
0.0
 40
0.220988998
 40
0.4621168548
 40
1.0
 40
1.0
 40
1.0
 40
1.0
 10
-11.1111721807
 20
-7.5506149058
 30
0.0
 10
-11.1232017852
 20
-7.5849809852
 30
0.0
 10
-11.1440554152
 20
-7.6583897947
 30
0.0
 10
-11.1738007525
 20
-7.8206078955
 30
0.0
 10
-11.1811671556
 20
-7.9493518641
 30
0.0
 10
-11.1811671556
 20
-8.0379748272
 30
0.0
  0
SPLINE
  5
2DD
100
AcDbEntity
  8
0
100
AcDbSpline
 62
7
  6
CONTINUOUS
 70
0
 71
3
 72
16
 73
12
 74
0
 42
0.0000001
 43
0.0000001
 44
0.0000000001
 40
0.0
 40
0.0
 40
0.0
 40
0.0
 40
0.0462544791
 40
0.0964312501
 40
0.2077487406
 40
0.3316178723
 40
0.464521403
 40
0.6022873884
 40
0.7404220765
 40
0.8744081072
 40
1.0
 40
1.0
 40
1.0
 40
1.0
 10
-10.4006572839
 20
-10.0118788803
 30
0.0
 10
-10.4269293802
 20
-9.9909792141
 30
0.0
 10
-10.4793100337
 20
-9.9443549006
 30
0.0
 10
-10.5826141208
 20
-9.8343178185
 30
0.0
 10
-10.7061294528
 20
-9.6671648994
 30
0.0
 10
-10.8389480845
 20
-9.4348402795
 30
0.0
 10
-10.9559840815
 20
-9.1730242683
 30
0.0
 10
-11.0525490868
 20
-8.8920821025
 30
0.0
 10
-11.1248021135
 20
-8.603101781
 30
0.0
 10
-11.1698840903
 20
-8.317614118
 30
0.0
 10
-11.1811671556
 20
-8.1291283479
 30
0.0
 10
-11.1811671556
 20
-8.0379748272
 30
0.0
  0
SPLINE
  5
2DE
100
AcDbEntity
  8
0
100
AcDbSpline
 62
7
  6
CONTINUOUS
 70
0
 71
3
 72
22
 73
18
 74
0
 42
0.0000001
 43
0.0000001
 44
0.0000000001
 40
0.0
 40
0.0
 40
0.0
 40
0.0
 40
0.0169223644
 40
0.0341724018
 40
0.0707496525
 40
0.1117244852
 40
0.1581940018
 40
0.2105824882
 40
0.2688233209
 40
0.3325012827
 40
0.4009501185
 40
0.4733203258
 40
0.5486298429
 40
0.7036513868
 40
0.8570349474
 40
0.9303442861
 40
1.0
 40
1.0
 40
1.0
 40
1.0
 10
-10.6646610736
 20
-10.3161472215
 30
0.0
 10
-10.6787259537
 20
-10.3202075264
 30
0.0
 10
-10.7078242509
 20
-10.3261800911
 30
0.0
 10
-10.7691610346
 20
-10.3291731473
 30
0.0
 10
-10.8510067114
 20
-10.3147634008
 30
0.0
 10
-10.9499310541
 20
-10.271364646
 30
0.0
 10
-11.0504312433
 20
-10.20309497
 30
0.0
 10
-11.1510853762
 20
-10.1112457589
 30
0.0
 10
-11.2503695636
 20
-9.9974024671
 30
0.0
 10
-11.346607644
 20
-9.8635139264
 30
0.0
 10
-11.4381144949
 20
-9.7119205487
 30
0.0
 10
-11.5232624951
 20
-9.5453036443
 30
0.0
 10
-11.6272240203
 20
-9.3048018267
 30
0.0
 10
-11.7310737769
 20
-8.9886858377
 30
0.0
 10
-11.7979675603
 20
-8.664453403
 30
0.0
 10
-11.8257555479
 20
-8.4094457152
 30
0.0
 10
-11.8306862084
 20
-8.285732702
 30
0.0
 10
-11.8306862084
 20
-8.2254748272
 30
0.0
  0
SPLINE
  5
2DF
100
AcDbEntity
  8
0
100
AcDbSpline
 62
7
  6
CONTINUOUS
 70
0
 71
3
 72
16
 73
12
 74
0
 42
0.0000001
 43
0.0000001
 44
0.0000000001
 40
0.0
 40
0.0
 40
0.0
 40
0.0
 40
0.1255918928
 40
0.2595779235
 40
0.3977126116
 40
0.535478597
 40
0.6683821277
 40
0.7922512594
 40
0.9035687499
 40
0.9537455209
 40
1.0
 40
1.0
 40
1.0
 40
1.0
 10
8.3188328444
 20
-24.925470201
 30
0.0
 10
8.3188328444
 20
-25.0166237217
 30
0.0
 10
8.3301159097
 20
-25.2051094918
 30
0.0
 10
8.3751978865
 20
-25.4905971548
 30
0.0
 10
8.4474509132
 20
-25.7795774763
 30
0.0
 10
8.5440159185
 20
-26.0605196421
 30
0.0
 10
8.6610519155
 20
-26.3223356533
 30
0.0
 10
8.7938705472
 20
-26.5546602732
 30
0.0
 10
8.9173858792
 20
-26.7218131923
 30
0.0
 10
9.0206899663
 20
-26.8318502744
 30
0.0
 10
9.0730706198
 20
-26.8784745879
 30
0.0
 10
9.0993427161
 20
-26.8993742541
 30
0.0
  0
SPLINE
  5
2E0
100
AcDbEntity
  8
0
100
AcDbSpline
 62
7
  6
CONTINUOUS
 70
0
 71
3
 72
10
 73
6
 74
0
 42
0.0000001
 43
0.0000001
 44
0.0000000001
 40
0.0
 40
0.0
 40
0.0
 40
0.0
 40
0.5378831452
 40
0.779011002
 40
1.0
 40
1.0
 40
1.0
 40
1.0
 10
8.3188328444
 20
-24.925470201
 30
0.0
 10
8.3188328444
 20
-24.8368472379
 30
0.0
 10
8.3261992475
 20
-24.7081032693
 30
0.0
 10
8.3559445848
 20
-24.5458851685
 30
0.0
 10
8.3767982148
 20
-24.472476359
 30
0.0
 10
8.3888278193
 20
-24.4381102796
 30
0.0
  0
SPLINE
  5
2E1
100
AcDbEntity
  8
RACCORDO
100
AcDbSpline
 62
250
  6
CONTINUOUS
 70
0
 71
3
 72
11
 73
7
 74
0
 42
0.0000001
 43
0.0000001
 44
0.0000000001
 40
0.0
 40
0.0
 40
0.0
 40
0.0
 40
0.2663020065
 40
0.5195432873
 40
0.7625830871
 40
1.0
 40
1.0
 40
1.0
 40
1.0
 10
-13.5806862084
 20
-14.5041590046
 30
0.0
 10
-13.5806862084
 20
-14.5542816079
 30
0.0
 10
-13.5721785433
 20
-14.6523683556
 30
0.0
 10
-13.531600455
 20
-14.7911032448
 30
0.0
 10
-13.4645500491
 20
-14.9131303581
 30
0.0
 10
-13.4030936832
 20
-14.9808339293
 30
0.0
 10
-13.3693144064
 20
-15.0100878711
 30
0.0
  0
SPLINE
  5
2E2
100
AcDbEntity
  8
RACCORDO
100
AcDbSpline
 62
250
  6
CONTINUOUS
 70
0
 71
3
 72
11
 73
7
 74
0
 42
0.0000001
 43
0.0000001
 44
0.0000000001
 40
0.0
 40
0.0
 40
0.0
 40
0.0
 40
0.2663020065
 40
0.5195432873
 40
0.7625830871
 40
1.0
 40
1.0
 40
1.0
 40
1.0
 10
10.9193137916
 20
-35.7217813973
 30
0.0
 10
10.9193137916
 20
-35.7719040006
 30
0.0
 10
10.9278214567
 20
-35.8699907483
 30
0.0
 10
10.968399545
 20
-36.0087256375
 30
0.0
 10
11.0354499509
 20
-36.1307527508
 30
0.0
 10
11.0969063168
 20
-36.198456322
 30
0.0
 10
11.1306855936
 20
-36.2277102638
 30
0.0
  0
SPLINE
  5
2E3
100
AcDbEntity
  8
RACCORDO
100
AcDbSpline
 62
250
  6
CONTINUOUS
 70
0
 71
3
 72
15
 73
11
 74
0
 42
0.0000001
 43
0.0000001
 44
0.0000000001
 40
0.0
 40
0.0
 40
0.0
 40
0.0
 40
0.0978062148
 40
0.2087881226
 40
0.3312505089
 40
0.4623927926
 40
0.5987218161
 40
0.7363727038
 40
0.8713900591
 40
1.0
 40
1.0
 40
1.0
 40
1.0
 10
12.9193137916
 20
-33.9897305898
 30
0.0
 10
12.9543974398
 20
-34.0201139203
 30
0.0
 10
13.0370133276
 20
-34.0761583405
 30
0.0
 10
13.1803739265
 20
-34.1418072485
 30
0.0
 10
13.3462637061
 20
-34.1924707024
 30
0.0
 10
13.5285412502
 20
-34.2262312687
 30
0.0
 10
13.7204611308
 20
-34.2418460343
 30
0.0
 10
13.9148266201
 20
-34.2387082213
 30
0.0
 10
14.1042952398
 20
-34.2169486011
 30
0.0
 10
14.2267050222
 20
-34.1896695195
 30
0.0
 10
14.2853391954
 20
-34.1727432917
 30
0.0
  0
SPLINE
  5
2E4
100
AcDbEntity
  8
RACCORDO
100
AcDbSpline
 62
250
  6
CONTINUOUS
 70
0
 71
3
 72
15
 73
11
 74
0
 42
0.0000001
 43
0.0000001
 44
0.0000000001
 40
0.0
 40
0.0
 40
0.0
 40
0.0
 40
0.0978062148
 40
0.2087881226
 40
0.3312505089
 40
0.4623927926
 40
0.5987218161
 40
0.7363727038
 40
0.8713900591
 40
1.0
 40
1.0
 40
1.0
 40
1.0
 10
12.9193137916
 20
8.4455141957
 30
0.0
 10
12.9543974398
 20
8.4151308651
 30
0.0
 10
13.0370133276
 20
8.3590864449
 30
0.0
 10
13.1803739265
 20
8.2934375369
 30
0.0
 10
13.3462637061
 20
8.242774083
 30
0.0
 10
13.5285412502
 20
8.2090135167
 30
0.0
 10
13.7204611308
 20
8.1933987511
 30
0.0
 10
13.9148266201
 20
8.1965365642
 30
0.0
 10
14.1042952398
 20
8.2182961844
 30
0.0
 10
14.2267050222
 20
8.245575266
 30
0.0
 10
14.2853391954
 20
8.2625014938
 30
0.0
  0
SPLINE
  5
2E5
100
AcDbEntity
  8
RACCORDO
100
AcDbSpline
 62
250
  6
CONTINUOUS
 70
0
 71
3
 72
14
 73
10
 74
0
 42
0.0000001
 43
0.0000001
 44
0.0000000001
 40
0.0
 40
0.0
 40
0.0
 40
0.0
 40
0.1162214882
 40
0.2383552732
 40
0.3651669145
 40
0.4948738041
 40
0.6253790104
 40
0.7545020739
 40
1.0
 40
1.0
 40
1.0
 40
1.0
 10
10.9193137916
 20
13.6416666184
 30
0.0
 10
10.9193137916
 20
13.6998504911
 30
0.0
 10
10.9313559264
 20
13.8193938089
 30
0.0
 10
10.9813607789
 20
13.9960591471
 30
0.0
 10
11.0617498738
 20
14.1685958673
 30
0.0
 10
11.1694144341
 20
14.3305041336
 30
0.0
 10
11.3004510985
 20
14.475868875
 30
0.0
 10
11.4957537612
 20
14.6372303694
 30
0.0
 10
11.6672573948
 20
14.7236047425
 30
0.0
 10
11.7853391954
 20
14.7576920222
 30
0.0
  0
SPLINE
  5
2E6
100
AcDbEntity
  8
RACCORDO
100
AcDbSpline
 62
250
  6
CONTINUOUS
 70
0
 71
3
 72
14
 73
10
 74
0
 42
0.0000001
 43
0.0000001
 44
0.0000000001
 40
0.0
 40
0.0
 40
0.0
 40
0.0
 40
0.1162214882
 40
0.2383552732
 40
0.3651669145
 40
0.4948738041
 40
0.6253790104
 40
0.7545020739
 40
1.0
 40
1.0
 40
1.0
 40
1.0
 10
-13.5806862084
 20
34.8592890111
 30
0.0
 10
-13.5806862084
 20
34.9174728839
 30
0.0
 10
-13.5686440736
 20
35.0370162016
 30
0.0
 10
-13.5186392211
 20
35.2136815399
 30
0.0
 10
-13.4382501262
 20
35.38621826
 30
0.0
 10
-13.3305855659
 20
35.5481265263
 30
0.0
 10
-13.1995489015
 20
35.6934912677
 30
0.0
 10
-13.0042462388
 20
35.8548527621
 30
0.0
 10
-12.8327426052
 20
35.9412271352
 30
0.0
 10
-12.7146608046
 20
35.9753144149
 30
0.0
  0
SPLINE
  5
2E7
100
AcDbEntity
  8
RACCORDO
100
AcDbSpline
 62
250
  6
CONTINUOUS
 70
0
 71
3
 72
11
 73
7
 74
0
 42
0.0000001
 43
0.0000001
 44
0.0000000001
 40
0.0
 40
0.0
 40
0.0
 40
0.0
 40
0.2820556454
 40
0.5383215297
 40
0.7746633395
 40
1.0
 40
1.0
 40
1.0
 40
1.0
 10
-15.5806862084
 20
33.1272382035
 30
0.0
 10
-15.6014463356
 20
33.145217001
 30
0.0
 10
-15.6387491616
 20
33.1824205882
 30
0.0
 10
-15.6819686516
 20
33.2448373516
 30
0.0
 10
-15.7085948074
 20
33.3101482519
 30
0.0
 10
-15.7146608612
 20
33.3552977252
 30
0.0
 10
-15.7146607076
 20
33.3772382035
 30
0.0
  0
SPLINE
  5
2E8
100
AcDbEntity
  8
RACCORDO
100
AcDbSpline
 62
250
  6
CONTINUOUS
 70
0
 71
3
 72
11
 73
7
 74
0
 42
0.0000001
 43
0.0000001
 44
0.0000000001
 40
0.0
 40
0.0
 40
0.0
 40
0.0
 40
0.2820556454
 40
0.5383215297
 40
0.7746633395
 40
1.0
 40
1.0
 40
1.0
 40
1.0
 10
-15.5806862084
 20
-9.3080065819
 30
0.0
 10
-15.6014463356
 20
-9.2900277844
 30
0.0
 10
-15.6387491616
 20
-9.2528241972
 30
0.0
 10
-15.6819686516
 20
-9.1904074338
 30
0.0
 10
-15.7085948074
 20
-9.1250965335
 30
0.0
 10
-15.7146608612
 20
-9.0799470602
 30
0.0
 10
-15.7146607076
 20
-9.0580065819
 30
0.0
  0
SPLINE
  5
2E9
100
AcDbEntity
  8
0
100
AcDbSpline
 62
7
  6
CONTINUOUS
 70
0
 71
3
 72
22
 73
18
 74
0
 42
0.0000001
 43
0.0000001
 44
0.0000000001
 40
0.0
 40
0.0
 40
0.0
 40
0.0
 40
0.0169223644
 40
0.0341724018
 40
0.0707496525
 40
0.1117244852
 40
0.1581940018
 40
0.2105824882
 40
0.2688233209
 40
0.3325012827
 40
0.4009501185
 40
0.4733203258
 40
0.5486298429
 40
0.7036513868
 40
0.8570349474
 40
0.9303442861
 40
1.0
 40
1.0
 40
1.0
 40
1.0
 10
8.8353389264
 20
6.5713481523
 30
0.0
 10
8.8212740463
 20
6.5672878474
 30
0.0
 10
8.7921757491
 20
6.5613152827
 30
0.0
 10
8.7308389654
 20
6.5583222265
 30
0.0
 10
8.6489932886
 20
6.572731973
 30
0.0
 10
8.5500689459
 20
6.6161307278
 30
0.0
 10
8.4495687567
 20
6.6844004038
 30
0.0
 10
8.3489146238
 20
6.7762496149
 30
0.0
 10
8.2496304364
 20
6.8900929067
 30
0.0
 10
8.153392356
 20
7.0239814474
 30
0.0
 10
8.0618855051
 20
7.1755748251
 30
0.0
 10
7.9767375049
 20
7.3421917295
 30
0.0
 10
7.8727759797
 20
7.5826935471
 30
0.0
 10
7.7689262231
 20
7.8988095361
 30
0.0
 10
7.7020324397
 20
8.2230419708
 30
0.0
 10
7.6742444521
 20
8.4780496586
 30
0.0
 10
7.6693137916
 20
8.6017626718
 30
0.0
 10
7.6693137916
 20
8.6620205466
 30
0.0
  0
SPLINE
  5
2EA
100
AcDbEntity
  8
RACCORDO
100
AcDbSpline
 62
250
  6
CONTINUOUS
 70
0
 71
3
 72
23
 73
19
 74
0
 42
0.0000001
 43
0.0000001
 44
0.0000000001
 40
0.0
 40
0.0
 40
0.0
 40
0.0
 40
0.0680749091
 40
0.1302917512
 40
0.1870572896
 40
0.2391460577
 40
0.287759307
 40
0.3345118982
 40
0.3812850509
 40
0.4299568414
 40
0.4821343112
 40
0.5390093882
 40
0.6013480931
 40
0.6695498503
 40
0.7437216759
 40
0.8237428083
 40
0.9093148372
 40
1.0
 40
1.0
 40
1.0
 40
1.0
 10
10.9193137916
 20
-35.7217813973
 30
0.0
 10
10.9819876563
 20
-35.7760585563
 30
0.0
 10
11.106865376
 20
-35.8745159629
 30
0.0
 10
11.3012351533
 20
-35.9944591192
 30
0.0
 10
11.4926386059
 20
-36.0787616421
 30
0.0
 10
11.6795239314
 20
-36.1262511487
 30
0.0
 10
11.8601731655
 20
-36.1358056811
 30
0.0
 10
12.032328767
 20
-36.1065940247
 30
0.0
 10
12.1933015073
 20
-36.0387503169
 30
0.0
 10
12.3407603757
 20
-35.933615707
 30
0.0
 10
12.4732564797
 20
-35.7930989333
 30
0.0
 10
12.5899399402
 20
-35.6190681255
 30
0.0
 10
12.6901305749
 20
-35.4133163846
 30
0.0
 10
12.7731621332
 20
-35.1777471255
 30
0.0
 10
12.8383985239
 20
-34.9145007866
 30
0.0
 10
12.8852888608
 20
-34.6259900399
 30
0.0
 10
12.9134123737
 20
-34.3149110884
 30
0.0
 10
12.9193137916
 20
-34.1001777787
 30
0.0
 10
12.9193137916
 20
-33.9897305898
 30
0.0
  0
SPLINE
  5
2EB
100
AcDbEntity
  8
0
100
AcDbSpline
 62
7
  6
CONTINUOUS
 70
0
 71
3
 72
16
 73
12
 74
0
 42
0.0000001
 43
0.0000001
 44
0.0000000001
 40
0.0
 40
0.0
 40
0.0
 40
0.0
 40
0.0462544791
 40
0.0964312501
 40
0.2077487406
 40
0.3316178723
 40
0.464521403
 40
0.6022873884
 40
0.7404220765
 40
0.8744081072
 40
1.0
 40
1.0
 40
1.0
 40
1.0
 10
-10.4006572839
 20
23.7631118673
 30
0.0
 10
-10.4269293802
 20
23.7840115335
 30
0.0
 10
-10.4793100337
 20
23.830635847
 30
0.0
 10
-10.5826141208
 20
23.9406729291
 30
0.0
 10
-10.7061294528
 20
24.1078258482
 30
0.0
 10
-10.8389480845
 20
24.3401504681
 30
0.0
 10
-10.9559840815
 20
24.6019664793
 30
0.0
 10
-11.0525490868
 20
24.882908645
 30
0.0
 10
-11.1248021135
 20
25.1718889665
 30
0.0
 10
-11.1698840903
 20
25.4573766296
 30
0.0
 10
-11.1811671556
 20
25.6458623997
 30
0.0
 10
-11.1811671556
 20
25.7370159204
 30
0.0
  0
SPLINE
  5
2EC
100
AcDbEntity
  8
0
100
AcDbSpline
 62
7
  6
CONTINUOUS
 70
0
 71
3
 72
12
 73
8
 74
0
 42
0.0000001
 43
0.0000001
 44
0.0000000001
 40
0.0
 40
0.0
 40
0.0
 40
0.0
 40
0.2146586903
 40
0.3312763908
 40
0.452802555
 40
0.7129820211
 40
1.0
 40
1.0
 40
1.0
 40
1.0
 10
-1.6611225126
 20
-22.7970557858
 30
0.0
 10
-1.6680229913
 20
-22.7970615383
 30
0.0
 10
-1.6786348899
 20
-22.7946560964
 30
0.0
 10
-1.6922225453
 20
-22.7895088389
 30
0.0
 10
-1.7068249658
 20
-22.7828716149
 30
0.0
 10
-1.7253725773
 20
-22.7718652292
 30
0.0
 10
-1.739224678
 20
-22.7609496434
 30
0.0
 10
-1.7461993518
 20
-22.7549094936
 30
0.0
  0
SPLINE
  5
2ED
100
AcDbEntity
  8
0
100
AcDbSpline
 62
7
  6
CONTINUOUS
 70
0
 71
3
 72
15
 73
11
 74
0
 42
0.0000001
 43
0.0000001
 44
0.0000000001
 40
0.0
 40
0.0
 40
0.0
 40
0.0
 40
0.0881339738
 40
0.1817007252
 40
0.2849949944
 40
0.4007427488
 40
0.5302583782
 40
0.6737757241
 40
0.8307357505
 40
1.0
 40
1.0
 40
1.0
 40
1.0
 10
-11.4967113432
 20
26.3411502091
 30
0.0
 10
-11.5224570608
 20
26.333717834
 30
0.0
 10
-11.5735405848
 20
26.3104995778
 30
0.0
 10
-11.6405485588
 20
26.2542169847
 30
0.0
 10
-11.698182159
 20
26.1778161114
 30
0.0
 10
-11.7460295058
 20
26.0827575463
 30
0.0
 10
-11.7837585371
 20
25.9703972911
 30
0.0
 10
-11.8109649205
 20
25.8422808097
 30
0.0
 10
-11.8273067784
 20
25.7002198343
 30
0.0
 10
-11.8306862084
 20
25.600980563
 30
0.0
 10
-11.8306862084
 20
25.5495159204
 30
0.0
  0
SPLINE
  5
2EE
100
AcDbEntity
  8
0
100
AcDbSpline
 62
7
  6
CONTINUOUS
 70
0
 71
3
 72
10
 73
6
 74
0
 42
0.0000001
 43
0.0000001
 44
0.0000000001
 40
0.0
 40
0.0
 40
0.0
 40
0.0
 40
0.220988998
 40
0.4621168548
 40
1.0
 40
1.0
 40
1.0
 40
1.0
 10
-11.1111721807
 20
26.2243758418
 30
0.0
 10
-11.1232017852
 20
26.1900097624
 30
0.0
 10
-11.1440554152
 20
26.1166009529
 30
0.0
 10
-11.1738007525
 20
25.954382852
 30
0.0
 10
-11.1811671556
 20
25.8256388835
 30
0.0
 10
-11.1811671556
 20
25.7370159204
 30
0.0
  0
SPLINE
  5
2EF
100
AcDbEntity
  8
0
100
AcDbSpline
 62
7
  6
CONTINUOUS
 70
0
 71
3
 72
14
 73
10
 74
0
 42
0.0000001
 43
0.0000001
 44
0.0000000001
 40
0.0
 40
0.0
 40
0.0
 40
0.0
 40
0.1022334695
 40
0.2096305502
 40
0.3244657669
 40
0.4458151779
 40
0.5731491177
 40
0.7074899406
 40
1.0
 40
1.0
 40
1.0
 40
1.0
 10
-1.6712788682
 20
-22.8017308784
 30
0.0
 10
-1.6748183069
 20
-22.8027526263
 30
0.0
 10
-1.6824153403
 20
-22.8037825179
 30
0.0
 10
-1.6941109265
 20
-22.802414602
 30
0.0
 10
-1.7060081286
 20
-22.798866011
 30
0.0
 10
-1.7181657069
 20
-22.7939589472
 30
0.0
 10
-1.7305473358
 20
-22.7878260632
 30
0.0
 10
-1.7476839372
 20
-22.7775357924
 30
0.0
 10
-1.7598820646
 20
-22.7680598105
 30
0.0
 10
-1.7678500218
 20
-22.7611594633
 30
0.0
  0
SPLINE
  5
2F0
100
AcDbEntity
  8
0
100
AcDbSpline
 62
7
  6
CONTINUOUS
 70
0
 71
3
 72
16
 73
12
 74
0
 42
0.0000001
 43
0.0000001
 44
0.0000000001
 40
0.0
 40
0.0
 40
0.0
 40
0.0
 40
0.0852906661
 40
0.1766611718
 40
0.2792928766
 40
0.3968608264
 40
0.5295961217
 40
0.6759658607
 40
0.8336924479
 40
0.9160044198
 40
1.0
 40
1.0
 40
1.0
 40
1.0
 10
-1.6066466904
 20
-22.9875516255
 30
0.0
 10
-1.5992741491
 20
-22.9854233562
 30
0.0
 10
-1.584661673
 20
-22.9784536466
 30
0.0
 10
-1.5657927554
 20
-22.9614435457
 30
0.0
 10
-1.5499803073
 20
-22.9380224239
 30
0.0
 10
-1.537491332
 20
-22.9086827649
 30
0.0
 10
-1.527969892
 20
-22.8742101529
 30
0.0
 10
-1.5213857364
 20
-22.8354093484
 30
0.0
 10
-1.5183943345
 20
-22.8007400541
 30
0.0
 10
-1.5173575558
 20
-22.7715996228
 30
0.0
 10
-1.5174030055
 20
-22.756635037
 30
0.0
 10
-1.5174030055
 20
-22.7490779714
 30
0.0
  0
SPLINE
  5
2F1
100
AcDbEntity
  8
0
100
AcDbSpline
 62
7
  6
CONTINUOUS
 70
0
 71
3
 72
9
 73
5
 74
0
 42
0.0000001
 43
0.0000001
 44
0.0000000001
 40
0.0
 40
0.0
 40
0.0
 40
0.0
 40
0.4485154443
 40
1.0
 40
1.0
 40
1.0
 40
1.0
 10
-0.5072274674
 20
-24.3699312227
 30
0.0
 10
-0.5164391623
 20
-24.3700732552
 30
0.0
 10
-0.5368906412
 20
-24.3639241106
 30
0.0
 10
-0.5538683704
 20
-24.3520817268
 30
0.0
 10
-0.5624314128
 20
-24.3446659145
 30
0.0
  0
SPLINE
  5
2F2
100
AcDbEntity
  8
RACCORDO
100
AcDbSpline
 62
250
  6
CONTINUOUS
 70
0
 71
3
 72
18
 73
14
 74
0
 42
0.0000001
 43
0.0000001
 44
0.0000000001
 40
0.0
 40
0.0
 40
0.0
 40
0.0
 40
0.0437983289
 40
0.0883019096
 40
0.1341732537
 40
0.1819986139
 40
0.2322685234
 40
0.2853718383
 40
0.4010585244
 40
0.5305059501
 40
0.6739477311
 40
0.8308259586
 40
1.0
 40
1.0
 40
1.0
 40
1.0
 10
13.1720896503
 20
-36.8115242727
 30
0.0
 10
13.2147601646
 20
-36.7992063416
 30
0.0
 10
13.2991314445
 20
-36.7681778792
 30
0.0
 10
13.4193486344
 20
-36.7036009726
 30
0.0
 10
13.5331775889
 20
-36.621180402
 30
0.0
 10
13.6401544493
 20
-36.5213440276
 30
0.0
 10
13.7399337294
 20
-36.4045436041
 30
0.0
 10
13.866524604
 20
-36.221620712
 30
0.0
 10
14.0031848237
 20
-35.9501590016
 30
0.0
 10
14.1289028039
 20
-35.575698942
 30
0.0
 10
14.2196051614
 20
-35.1486197447
 30
0.0
 10
14.2740733267
 20
-34.6750903501
 30
0.0
 10
14.2853391954
 20
-34.3442910923
 30
0.0
 10
14.2853391954
 20
-34.1727432917
 30
0.0
  0
SPLINE
  5
2F3
100
AcDbEntity
  8
0
100
AcDbSpline
 62
7
  6
CONTINUOUS
 70
0
 71
3
 72
11
 73
7
 74
0
 42
0.0000001
 43
0.0000001
 44
0.0000000001
 40
0.0
 40
0.0
 40
0.0
 40
0.0
 40
0.2100839367
 40
0.4412110234
 40
0.7029646633
 40
1.0
 40
1.0
 40
1.0
 40
1.0
 10
-0.5178777069
 20
-24.3745316316
 30
0.0
 10
-0.5227842436
 20
-24.3759480267
 30
0.0
 10
-0.5337507306
 20
-24.3769372287
 30
0.0
 10
-0.5504910817
 20
-24.372569359
 30
0.0
 10
-0.5677080296
 20
-24.3638479354
 30
0.0
 10
-0.5786238114
 20
-24.355642886
 30
0.0
 10
-0.5840820479
 20
-24.3509159145
 30
0.0
  0
SPLINE
  5
2F4
100
AcDbEntity
  8
0
100
AcDbSpline
 62
7
  6
CONTINUOUS
 70
0
 71
3
 72
21
 73
17
 74
0
 42
0.0000001
 43
0.0000001
 44
0.0000000001
 40
0.0
 40
0.0
 40
0.0
 40
0.0
 40
0.0399572895
 40
0.0820439563
 40
0.1275581325
 40
0.1767075443
 40
0.2296365501
 40
0.2868965355
 40
0.3484434634
 40
0.413520844
 40
0.4810813298
 40
0.5503149145
 40
0.693893086
 40
0.8439420107
 40
0.921260397
 40
1.0
 40
1.0
 40
1.0
 40
1.0
 10
-0.4585281616
 20
-24.5413810572
 30
0.0
 10
-0.4518363162
 20
-24.5394492878
 30
0.0
 10
-0.4386151681
 20
-24.5334838043
 30
0.0
 10
-0.4211077678
 20
-24.5194870873
 30
0.0
 10
-0.4057419667
 20
-24.5011240109
 30
0.0
 10
-0.3918531945
 20
-24.4794109333
 30
0.0
 10
-0.3794535236
 20
-24.4544959904
 30
0.0
 10
-0.369014724
 20
-24.4263886343
 30
0.0
 10
-0.3604082954
 20
-24.3954839997
 30
0.0
 10
-0.3533470543
 20
-24.3623646432
 30
0.0
 10
-0.3474345672
 20
-24.327671099
 30
0.0
 10
-0.3402775735
 20
-24.2793214686
 30
0.0
 10
-0.3336046712
 20
-24.2163918788
 30
0.0
 10
-0.3297977148
 20
-24.1518224947
 30
0.0
 10
-0.3283430391
 20
-24.0984796054
 30
0.0
 10
-0.3282484373
 20
-24.071274991
 30
0.0
 10
-0.3282484373
 20
-24.0575496179
 30
0.0
  0
SPLINE
  5
2F5
100
AcDbEntity
  8
0
100
AcDbSpline
 62
7
  6
CONTINUOUS
 70
0
 71
3
 72
21
 73
17
 74
0
 42
0.0000001
 43
0.0000001
 44
0.0000000001
 40
0.0
 40
0.0
 40
0.0
 40
0.0
 40
0.04784938
 40
0.1009026908
 40
0.2206548771
 40
0.286044767
 40
0.353479752
 40
0.4217651267
 40
0.4900764675
 40
0.5576924789
 40
0.6241614371
 40
0.6894232917
 40
0.7537969996
 40
0.8793465243
 40
0.9403297798
 40
1.0
 40
1.0
 40
1.0
 40
1.0
 10
-0.5624314128
 20
-23.1695100563
 30
0.0
 10
-0.5510809077
 20
-23.1793398821
 30
0.0
 10
-0.5285806993
 20
-23.2017504516
 30
0.0
 10
-0.4849420362
 20
-23.2556173167
 30
0.0
 10
-0.4461563376
 20
-23.3200230653
 30
0.0
 10
-0.4132781478
 20
-23.3921848263
 30
0.0
 10
-0.3911382866
 20
-23.4513348433
 30
0.0
 10
-0.3719693559
 20
-23.5124443344
 30
0.0
 10
-0.3554206314
 20
-23.5743793247
 30
0.0
 10
-0.3422999368
 20
-23.6365516772
 30
0.0
 10
-0.3322201576
 20
-23.6983062163
 30
0.0
 10
-0.3242845863
 20
-23.75933682
 30
0.0
 10
-0.3154912087
 20
-23.8389344848
 30
0.0
 10
-0.3097017912
 20
-23.9174943887
 30
0.0
 10
-0.3068685693
 20
-23.9947098216
 30
0.0
 10
-0.3065978022
 20
-24.032574889
 30
0.0
 10
-0.3065978022
 20
-24.0512996179
 30
0.0
  0
SPLINE
  5
2F6
100
AcDbEntity
  8
0
100
AcDbSpline
 62
7
  6
CONTINUOUS
 70
0
 71
3
 72
11
 73
7
 74
0
 42
0.0000001
 43
0.0000001
 44
0.0000000001
 40
0.0
 40
0.0
 40
0.0
 40
0.0
 40
0.2101440993
 40
0.4409659085
 40
0.7027821381
 40
1.0
 40
1.0
 40
1.0
 40
1.0
 10
-0.6879852984
 20
-23.1243513665
 30
0.0
 10
-0.6786672087
 20
-23.1216614657
 30
0.0
 10
-0.6578490385
 20
-23.1200219426
 30
0.0
 10
-0.6260296297
 20
-23.128019777
 30
0.0
 10
-0.5934259405
 20
-23.1448384
 30
0.0
 10
-0.5728006456
 20
-23.1605300373
 30
0.0
 10
-0.5624314128
 20
-23.1695100563
 30
0.0
  0
SPLINE
  5
2F7
100
AcDbEntity
  8
0
100
AcDbSpline
 62
7
  6
CONTINUOUS
 70
0
 71
3
 72
21
 73
17
 74
0
 42
0.0000001
 43
0.0000001
 44
0.0000000001
 40
0.0
 40
0.0
 40
0.0
 40
0.0
 40
0.0787396031
 40
0.1560579894
 40
0.3061069142
 40
0.4496850858
 40
0.5189186705
 40
0.5864791564
 40
0.651556537
 40
0.7131034648
 40
0.7703634501
 40
0.8232924559
 40
0.8724418677
 40
0.9179560437
 40
0.9600427105
 40
1.0
 40
1.0
 40
1.0
 40
1.0
 10
-0.3065978022
 20
-24.0512996179
 30
0.0
 10
-0.3065978022
 20
-24.065024991
 30
0.0
 10
-0.306692404
 20
-24.0922296055
 30
0.0
 10
-0.3081470797
 20
-24.1455724949
 30
0.0
 10
-0.3119540362
 20
-24.2101418791
 30
0.0
 10
-0.3186269385
 20
-24.273071469
 30
0.0
 10
-0.3257839321
 20
-24.3214210996
 30
0.0
 10
-0.3316964193
 20
-24.3561146438
 30
0.0
 10
-0.3387576605
 20
-24.3892340003
 30
0.0
 10
-0.3473640891
 20
-24.4201386349
 30
0.0
 10
-0.3578028887
 20
-24.448245991
 30
0.0
 10
-0.3702025598
 20
-24.473160934
 30
0.0
 10
-0.3840913321
 20
-24.4948740115
 30
0.0
 10
-0.3994571332
 20
-24.5132370878
 30
0.0
 10
-0.4169645336
 20
-24.5272338046
 30
0.0
 10
-0.4301856818
 20
-24.533199288
 30
0.0
 10
-0.4368775272
 20
-24.5351310574
 30
0.0
  0
SPLINE
  5
2F8
100
AcDbEntity
  8
0
100
AcDbSpline
 62
7
  6
CONTINUOUS
 70
0
 71
3
 72
11
 73
7
 74
0
 42
0.0000001
 43
0.0000001
 44
0.0000000001
 40
0.0
 40
0.0
 40
0.0
 40
0.0
 40
0.2121288114
 40
0.4494654746
 40
0.7128855089
 40
1.0
 40
1.0
 40
1.0
 40
1.0
 10
0.4657834436
 20
-1.781998466
 30
0.0
 10
0.457309397
 20
-1.7826497573
 30
0.0
 10
0.4390699441
 20
-1.7802948141
 30
0.0
 10
0.4124274135
 20
-1.7696036999
 30
0.0
 10
0.3853384362
 20
-1.75320124
 30
0.0
 10
0.3678284156
 20
-1.7397360034
 30
0.0
 10
0.3589652049
 20
-1.7324031255
 30
0.0
  0
SPLINE
  5
2F9
100
AcDbEntity
  8
0
100
AcDbSpline
 62
7
  6
CONTINUOUS
 70
0
 71
3
 72
21
 73
17
 74
0
 42
0.0000001
 43
0.0000001
 44
0.0000000001
 40
0.0
 40
0.0
 40
0.0
 40
0.0
 40
0.0487076961
 40
0.1041031102
 40
0.1653358672
 40
0.2312040659
 40
0.299269018
 40
0.3673084986
 40
0.4347199404
 40
0.5013892292
 40
0.5671574946
 40
0.6318031408
 40
0.7582280048
 40
0.8811067018
 40
0.9409803027
 40
1.0
 40
1.0
 40
1.0
 40
1.0
 10
-0.5624314128
 20
-24.3446659145
 30
0.0
 10
-0.5708228258
 20
-24.3373987377
 30
0.0
 10
-0.5871413477
 20
-24.3200117146
 30
0.0
 10
-0.6093706259
 20
-24.2894985185
 30
0.0
 10
-0.6297016555
 20
-24.2531025517
 30
0.0
 10
-0.6474083685
 20
-24.2122453256
 30
0.0
 10
-0.6628215636
 20
-24.1688461005
 30
0.0
 10
-0.6759557724
 20
-24.1243343684
 30
0.0
 10
-0.6862542769
 20
-24.0794089962
 30
0.0
 10
-0.6941970029
 20
-24.0345461728
 30
0.0
 10
-0.7004235265
 20
-23.9900574356
 30
0.0
 10
-0.7073222393
 20
-23.9319280387
 30
0.0
 10
-0.7138522362
 20
-23.8606572519
 30
0.0
 10
-0.7174456135
 20
-23.7902636267
 30
0.0
 10
-0.7184993784
 20
-23.7351683284
 30
0.0
 10
-0.7184559728
 20
-23.7080709465
 30
0.0
 10
-0.7184559728
 20
-23.6946199794
 30
0.0
  0
SPLINE
  5
2FA
100
AcDbEntity
  8
0
100
AcDbSpline
 62
7
  6
CONTINUOUS
 70
0
 71
3
 72
15
 73
11
 74
0
 42
0.0000001
 43
0.0000001
 44
0.0000000001
 40
0.0
 40
0.0
 40
0.0
 40
0.0
 40
0.1450529154
 40
0.2865008665
 40
0.4234169421
 40
0.555437974
 40
0.6830600899
 40
0.803809369
 40
0.9102463791
 40
1.0
 40
1.0
 40
1.0
 40
1.0
 10
-0.7184559728
 20
-23.6946199794
 30
0.0
 10
-0.7184559728
 20
-23.6754576946
 30
0.0
 10
-0.7184477391
 20
-23.6376061467
 30
0.0
 10
-0.716546487
 20
-23.5816901224
 30
0.0
 10
-0.712766202
 20
-23.5275958801
 30
0.0
 10
-0.7071390986
 20
-23.4754985949
 30
0.0
 10
-0.6998678629
 20
-23.4257637477
 30
0.0
 10
-0.6906853748
 20
-23.3797583805
 30
0.0
 10
-0.6774833287
 20
-23.3398141858
 30
0.0
 10
-0.6632889506
 20
-23.3175833184
 30
0.0
 10
-0.6552313014
 20
-23.3088849601
 30
0.0
  0
SPLINE
  5
2FB
100
AcDbEntity
  8
0
100
AcDbSpline
 62
7
  6
CONTINUOUS
 70
0
 71
3
 72
9
 73
5
 74
0
 42
0.0000001
 43
0.0000001
 44
0.0000000001
 40
0.0
 40
0.0
 40
0.0
 40
0.0
 40
0.2603270298
 40
1.0
 40
1.0
 40
1.0
 40
1.0
 10
-0.6552313014
 20
-23.3088849601
 30
0.0
 10
-0.6540096352
 20
-23.3075661524
 30
0.0
 10
-0.6491725569
 20
-23.3026416394
 30
0.0
 10
-0.6436693547
 20
-23.298325736
 30
0.0
 10
-0.6392461459
 20
-23.2957712735
 30
0.0
  0
SPLINE
  5
2FC
100
AcDbEntity
  8
0
100
AcDbSpline
 62
7
  6
CONTINUOUS
 70
0
 71
3
 72
12
 73
8
 74
0
 42
0.0000001
 43
0.0000001
 44
0.0000000001
 40
0.0
 40
0.0
 40
0.0
 40
0.0
 40
0.2083197031
 40
0.3221782871
 40
0.4433827163
 40
0.7078665352
 40
1.0
 40
1.0
 40
1.0
 40
1.0
 10
0.4554873591
 20
-1.7862268231
 30
0.0
 10
0.4467037699
 20
-1.7887624274
 30
0.0
 10
0.4320057189
 20
-1.7889994131
 30
0.0
 10
0.4130882282
 20
-1.7844438258
 30
0.0
 10
0.3925456559
 20
-1.7765996113
 30
0.0
 10
0.3666487603
 20
-1.7616595924
 30
0.0
 10
0.3471925896
 20
-1.7468255943
 30
0.0
 10
0.3373145699
 20
-1.7386531255
 30
0.0
  0
SPLINE
  5
2FD
100
AcDbEntity
  8
0
100
AcDbSpline
 62
7
  6
CONTINUOUS
 70
0
 71
3
 72
24
 73
20
 74
0
 42
0.0000001
 43
0.0000001
 44
0.0000000001
 40
0.0
 40
0.0
 40
0.0
 40
0.0
 40
0.0167836449
 40
0.0342241118
 40
0.0715602106
 40
0.1136701189
 40
0.1614773063
 40
0.2151149811
 40
0.2742551943
 40
0.3381890359
 40
0.4059948449
 40
0.4771120358
 40
0.5511637196
 40
0.6273859096
 40
0.7047344193
 40
0.7819255843
 40
0.857719644
 40
0.9310706772
 40
1.0
 40
1.0
 40
1.0
 40
1.0
 10
0.6311108341
 20
-2.1026559818
 30
0.0
 10
0.6369236261
 20
-2.1009779732
 30
0.0
 10
0.6484000949
 20
-2.0961391283
 30
0.0
 10
0.6698520388
 20
-2.0816421214
 30
0.0
 10
0.6943998133
 20
-2.0562347406
 30
0.0
 10
0.7181429794
 20
-2.0166481727
 30
0.0
 10
0.736870493
 20
-1.9682001429
 30
0.0
 10
0.7504225375
 20
-1.9117851636
 30
0.0
 10
0.75877996
 20
-1.8485437619
 30
0.0
 10
0.7621633202
 20
-1.7797593718
 30
0.0
 10
0.7610519906
 20
-1.7066000556
 30
0.0
 10
0.7554224294
 20
-1.6299880404
 30
0.0
 10
0.7446604184
 20
-1.5508581908
 30
0.0
 10
0.7286316622
 20
-1.4703339323
 30
0.0
 10
0.7074257306
 20
-1.3898436934
 30
0.0
 10
0.6814249322
 20
-1.3109369812
 30
0.0
 10
0.6511520463
 20
-1.2351077535
 30
0.0
 10
0.6174283227
 20
-1.1640621138
 30
0.0
 10
0.5920042238
 20
-1.1193777944
 30
0.0
 10
0.5781630059
 20
-1.0987423538
 30
0.0
  0
SPLINE
  5
2FE
100
AcDbEntity
  8
0
100
AcDbSpline
 62
7
  6
CONTINUOUS
 70
0
 71
3
 72
24
 73
20
 74
0
 42
0.0000001
 43
0.0000001
 44
0.0000000001
 40
0.0
 40
0.0
 40
0.0
 40
0.0
 40
0.0167836449
 40
0.0342241118
 40
0.0715602105
 40
0.1136701188
 40
0.1614773062
 40
0.2151149809
 40
0.2742551941
 40
0.3381890357
 40
0.4059948447
 40
0.4771120356
 40
0.5511637194
 40
0.6273859094
 40
0.7047344192
 40
0.7819255842
 40
0.8577196439
 40
0.9310706772
 40
1.0
 40
1.0
 40
1.0
 40
1.0
 10
0.6094601985
 20
-2.108905982
 30
0.0
 10
0.6152729905
 20
-2.1072279734
 30
0.0
 10
0.6267494593
 20
-2.1023891286
 30
0.0
 10
0.6482014032
 20
-2.0878921218
 30
0.0
 10
0.6727491779
 20
-2.0624847411
 30
0.0
 10
0.696492344
 20
-2.0228981732
 30
0.0
 10
0.7152198577
 20
-1.9744501435
 30
0.0
 10
0.7287719023
 20
-1.9180351643
 30
0.0
 10
0.7371293249
 20
-1.8547937626
 30
0.0
 10
0.7405126851
 20
-1.7860093725
 30
0.0
 10
0.7394013556
 20
-1.7128500562
 30
0.0
 10
0.7337717943
 20
-1.6362380409
 30
0.0
 10
0.7230097833
 20
-1.5571081913
 30
0.0
 10
0.7069810272
 20
-1.4765839327
 30
0.0
 10
0.6857750956
 20
-1.3960936937
 30
0.0
 10
0.6597742972
 20
-1.3171869814
 30
0.0
 10
0.6295014112
 20
-1.2413577537
 30
0.0
 10
0.5957776876
 20
-1.1703121138
 30
0.0
 10
0.5703535887
 20
-1.1256277944
 30
0.0
 10
0.5565123708
 20
-1.1049923538
 30
0.0
  0
SPLINE
  5
2FF
100
AcDbEntity
  8
0
100
AcDbSpline
 62
7
  6
CONTINUOUS
 70
0
 71
3
 72
20
 73
16
 74
0
 42
0.0000001
 43
0.0000001
 44
0.0000000001
 40
0.0
 40
0.0
 40
0.0
 40
0.0
 40
0.0301322306
 40
0.0610408677
 40
0.1252010643
 40
0.1918774178
 40
0.2603293589
 40
0.3996015109
 40
0.5377300409
 40
0.6050914636
 40
0.6703057585
 40
0.732524996
 40
0.7917165652
 40
0.9019076946
 40
1.0
 40
1.0
 40
1.0
 40
1.0
 10
-1.5174030055
 20
-22.7490779714
 30
0.0
 10
-1.5174030055
 20
-22.7426719214
 30
0.0
 10
-1.5173520939
 20
-22.7296938801
 30
0.0
 10
-1.5180670725
 20
-22.703082379
 30
0.0
 10
-1.5202774726
 20
-22.6687526992
 30
0.0
 10
-1.5250136034
 20
-22.6266336494
 30
0.0
 10
-1.5341958995
 20
-22.569008169
 30
0.0
 10
-1.5507927692
 20
-22.4972498999
 30
0.0
 10
-1.574555127
 20
-22.427767188
 30
0.0
 10
-1.5972430477
 20
-22.3748551327
 30
0.0
 10
-1.6155764358
 20
-22.3376947718
 30
0.0
 10
-1.6353298218
 20
-22.3032521565
 30
0.0
 10
-1.6624332826
 20
-22.2621225311
 30
0.0
 10
-1.6969989743
 20
-22.2168485239
 30
0.0
 10
-1.728058773
 20
-22.1850426147
 30
0.0
 10
-1.7438231058
 20
-22.1713903488
 30
0.0
  0
SPLINE
  5
300
100
AcDbEntity
  8
0
100
AcDbSpline
 62
7
  6
CONTINUOUS
 70
0
 71
3
 72
16
 73
12
 74
0
 42
0.0000001
 43
0.0000001
 44
0.0000000001
 40
0.0
 40
0.0
 40
0.0
 40
0.0
 40
0.0839955807
 40
0.1663075531
 40
0.324034141
 40
0.4704038803
 40
0.6031391755
 40
0.7207071247
 40
0.8233388287
 40
0.9147093339
 40
1.0
 40
1.0
 40
1.0
 40
1.0
 10
-1.4957523704
 20
-22.7428279714
 30
0.0
 10
-1.4957523704
 20
-22.7503850371
 30
0.0
 10
-1.4957069207
 20
-22.7653496233
 30
0.0
 10
-1.4967436994
 20
-22.7944900551
 30
0.0
 10
-1.4997351014
 20
-22.82915935
 30
0.0
 10
-1.5063192574
 20
-22.867960155
 30
0.0
 10
-1.5158406977
 20
-22.9024327674
 30
0.0
 10
-1.5283296736
 20
-22.9317724265
 30
0.0
 10
-1.5441421224
 20
-22.9551935481
 30
0.0
 10
-1.5630110407
 20
-22.9722036486
 30
0.0
 10
-1.5776235173
 20
-22.9791733576
 30
0.0
 10
-1.5849960588
 20
-22.9813016265
 30
0.0
  0
SPLINE
  5
301
100
AcDbEntity
  8
0
100
AcDbSpline
 62
7
  6
CONTINUOUS
 70
0
 71
3
 72
20
 73
16
 74
0
 42
0.0000001
 43
0.0000001
 44
0.0000000001
 40
0.0
 40
0.0
 40
0.0
 40
0.0
 40
0.0980923141
 40
0.2082834489
 40
0.2674750202
 40
0.3296942599
 40
0.3949085557
 40
0.462269978
 40
0.6003985048
 40
0.7396706518
 40
0.80812259
 40
0.8747989406
 40
0.9389591345
 40
0.9698677705
 40
1.0
 40
1.0
 40
1.0
 40
1.0
 10
-1.7221724264
 20
-22.1651403872
 30
0.0
 10
-1.7064080957
 20
-22.1787926556
 30
0.0
 10
-1.675348302
 20
-22.210598568
 30
0.0
 10
-1.640782615
 20
-22.2558725765
 30
0.0
 10
-1.6136791587
 20
-22.2970022019
 30
0.0
 10
-1.593925777
 20
-22.3314448167
 30
0.0
 10
-1.5755923929
 20
-22.3686051759
 30
0.0
 10
-1.5529044773
 20
-22.421517227
 30
0.0
 10
-1.5291421253
 20
-22.4909999319
 30
0.0
 10
-1.5125452599
 20
-22.5627581926
 30
0.0
 10
-1.5033629662
 20
-22.6203836656
 30
0.0
 10
-1.4986268367
 20
-22.6625027097
 30
0.0
 10
-1.4964164372
 20
-22.696832385
 30
0.0
 10
-1.4957014588
 20
-22.7234438826
 30
0.0
 10
-1.4957523704
 20
-22.7364219222
 30
0.0
 10
-1.4957523704
 20
-22.7428279714
 30
0.0
  0
SPLINE
  5
302
100
AcDbEntity
  8
0
100
AcDbSpline
 62
7
  6
CONTINUOUS
 70
0
 71
3
 72
15
 73
11
 74
0
 42
0.0000001
 43
0.0000001
 44
0.0000000001
 40
0.0
 40
0.0
 40
0.0
 40
0.0
 40
0.0881339738
 40
0.1817007252
 40
0.2849949944
 40
0.4007427488
 40
0.5302583782
 40
0.6737757241
 40
0.8307357505
 40
1.0
 40
1.0
 40
1.0
 40
1.0
 10
8.0032886568
 20
-24.3213359123
 30
0.0
 10
7.9775429392
 20
-24.3287682874
 30
0.0
 10
7.9264594152
 20
-24.3519865435
 30
0.0
 10
7.8594514412
 20
-24.4082691367
 30
0.0
 10
7.801817841
 20
-24.48467001
 30
0.0
 10
7.7539704942
 20
-24.5797285751
 30
0.0
 10
7.7162414629
 20
-24.6920888302
 30
0.0
 10
7.6890350795
 20
-24.8202053117
 30
0.0
 10
7.6726932216
 20
-24.9622662871
 30
0.0
 10
7.6693137916
 20
-25.0615055584
 30
0.0
 10
7.6693137916
 20
-25.112970201
 30
0.0
  0
SPLINE
  5
303
100
AcDbEntity
  8
0
100
AcDbSpline
 62
7
  6
CONTINUOUS
 70
0
 71
3
 72
21
 73
17
 74
0
 42
0.0000001
 43
0.0000001
 44
0.0000000001
 40
0.0
 40
0.0
 40
0.0
 40
0.0
 40
0.0487076961
 40
0.1041031102
 40
0.1653358672
 40
0.2312040659
 40
0.299269018
 40
0.3673084986
 40
0.4347199404
 40
0.5013892292
 40
0.5671574946
 40
0.6318031408
 40
0.7582280048
 40
0.8811067018
 40
0.9409803027
 40
1.0
 40
1.0
 40
1.0
 40
1.0
 10
-0.5840820479
 20
-24.3509159145
 30
0.0
 10
-0.5924734609
 20
-24.3436487377
 30
0.0
 10
-0.6087919828
 20
-24.3262617146
 30
0.0
 10
-0.631021261
 20
-24.2957485185
 30
0.0
 10
-0.6513522906
 20
-24.2593525517
 30
0.0
 10
-0.6690590036
 20
-24.2184953256
 30
0.0
 10
-0.6844721987
 20
-24.1750961005
 30
0.0
 10
-0.6976064075
 20
-24.1305843684
 30
0.0
 10
-0.707904912
 20
-24.0856589962
 30
0.0
 10
-0.7158476379
 20
-24.0407961728
 30
0.0
 10
-0.7220741616
 20
-23.9963074356
 30
0.0
 10
-0.7289728744
 20
-23.9381780387
 30
0.0
 10
-0.7355028713
 20
-23.8669072519
 30
0.0
 10
-0.7390962486
 20
-23.7965136267
 30
0.0
 10
-0.7401500135
 20
-23.7414183284
 30
0.0
 10
-0.7401066079
 20
-23.7143209465
 30
0.0
 10
-0.7401066079
 20
-23.7008699794
 30
0.0
  0
SPLINE
  5
304
100
AcDbEntity
  8
0
100
AcDbSpline
 62
7
  6
CONTINUOUS
 70
0
 71
3
 72
19
 73
15
 74
0
 42
0.0000001
 43
0.0000001
 44
0.0000000001
 40
0.0
 40
0.0
 40
0.0
 40
0.0
 40
0.0762394956
 40
0.1516264891
 40
0.2987950083
 40
0.4404461273
 40
0.5764052106
 40
0.7064953287
 40
0.7669390207
 40
0.8226735083
 40
0.8731435843
 40
0.9191125966
 40
0.9611667045
 40
1.0
 40
1.0
 40
1.0
 40
1.0
 10
-0.7401066079
 20
-23.7008699794
 30
0.0
 10
-0.7401066079
 20
-23.6899762686
 30
0.0
 10
-0.7401587884
 20
-23.668310303
 30
0.0
 10
-0.7395742943
 20
-23.6256183184
 30
0.0
 10
-0.7374888522
 20
-23.5736065166
 30
0.0
 10
-0.7325247999
 20
-23.5130908446
 30
0.0
 10
-0.7252028361
 20
-23.4552925144
 30
0.0
 10
-0.7174173703
 20
-23.4092422978
 30
0.0
 10
-0.7086829882
 20
-23.3751286094
 30
0.0
 10
-0.7008163756
 20
-23.3526034369
 30
0.0
 10
-0.6909713874
 20
-23.3331282768
 30
0.0
 10
-0.6793434875
 20
-23.3170050969
 30
0.0
 10
-0.6661223036
 20
-23.3044059431
 30
0.0
 10
-0.6556175159
 20
-23.2989897561
 30
0.0
 10
-0.650286389
 20
-23.2974507924
 30
0.0
  0
SPLINE
  5
305
100
AcDbEntity
  8
0
100
AcDbSpline
 62
7
  6
CONTINUOUS
 70
0
 71
3
 72
11
 73
7
 74
0
 42
0.0000001
 43
0.0000001
 44
0.0000000001
 40
0.0
 40
0.0
 40
0.0
 40
0.0
 40
0.2972178621
 40
0.5590340917
 40
0.7898559008
 40
1.0
 40
1.0
 40
1.0
 40
1.0
 10
-0.5840820479
 20
-23.1757600563
 30
0.0
 10
-0.5944512807
 20
-23.1667800373
 30
0.0
 10
-0.6150765757
 20
-23.1510883999
 30
0.0
 10
-0.6476802652
 20
-23.1342697768
 30
0.0
 10
-0.6794996742
 20
-23.1262719425
 30
0.0
 10
-0.7003178445
 20
-23.1279114658
 30
0.0
 10
-0.7096359342
 20
-23.1306013667
 30
0.0
  0
SPLINE
  5
306
100
AcDbEntity
  8
0
100
AcDbSpline
 62
7
  6
CONTINUOUS
 70
0
 71
3
 72
21
 73
17
 74
0
 42
0.0000001
 43
0.0000001
 44
0.0000000001
 40
0.0
 40
0.0
 40
0.0
 40
0.0
 40
0.0596702202
 40
0.1206534757
 40
0.2462030004
 40
0.3105767083
 40
0.3758385629
 40
0.4423075211
 40
0.5099235325
 40
0.5782348733
 40
0.646520248
 40
0.713955233
 40
0.7793451229
 40
0.8990973092
 40
0.95215062
 40
1.0
 40
1.0
 40
1.0
 40
1.0
 10
-0.3282484373
 20
-24.0575496179
 30
0.0
 10
-0.3282484373
 20
-24.038824889
 30
0.0
 10
-0.3285192044
 20
-24.0009598216
 30
0.0
 10
-0.3313524263
 20
-23.9237443887
 30
0.0
 10
-0.3371418438
 20
-23.8451844848
 30
0.0
 10
-0.3459352214
 20
-23.76558682
 30
0.0
 10
-0.3538707926
 20
-23.7045562163
 30
0.0
 10
-0.3639505719
 20
-23.6428016772
 30
0.0
 10
-0.3770712665
 20
-23.5806293247
 30
0.0
 10
-0.3936199909
 20
-23.5186943344
 30
0.0
 10
-0.4127889217
 20
-23.4575848433
 30
0.0
 10
-0.4349287829
 20
-23.3984348263
 30
0.0
 10
-0.4678069727
 20
-23.3262730653
 30
0.0
 10
-0.5065926713
 20
-23.2618673167
 30
0.0
 10
-0.5502313344
 20
-23.2080004516
 30
0.0
 10
-0.5727315428
 20
-23.1855898821
 30
0.0
 10
-0.5840820479
 20
-23.1757600563
 30
0.0
  0
SPLINE
  5
307
100
AcDbEntity
  8
0
100
AcDbSpline
 62
7
  6
CONTINUOUS
 70
0
 71
3
 72
10
 73
6
 74
0
 42
0.0000001
 43
0.0000001
 44
0.0000000001
 40
0.0
 40
0.0
 40
0.0
 40
0.0
 40
0.2500430187
 40
0.4998289043
 40
1.0
 40
1.0
 40
1.0
 40
1.0
 10
0.8179849362
 20
-3.2114781999
 30
0.0
 10
0.8111204239
 20
-3.1617564506
 30
0.0
 10
0.7978630423
 20
-3.0623004429
 30
0.0
 10
0.7714489751
 20
-2.8633074426
 30
0.0
 10
0.751483683
 20
-2.714090533
 30
0.0
 10
0.7377153189
 20
-2.614635236
 30
0.0
  0
SPLINE
  5
308
100
AcDbEntity
  8
RACCORDO
100
AcDbSpline
 62
250
  6
CONTINUOUS
 70
0
 71
3
 72
21
 73
17
 74
0
 42
0.0000001
 43
0.0000001
 44
0.0000000001
 40
0.0
 40
0.0
 40
0.0
 40
0.0
 40
0.0610340914
 40
0.1245834762
 40
0.190194925
 40
0.2573804855
 40
0.3943740912
 40
0.5313448059
 40
0.5985021001
 40
0.6640746042
 40
0.727575062
 40
0.7885508225
 40
0.8465942099
 40
0.9013545629
 40
0.9525527618
 40
1.0
 40
1.0
 40
1.0
 40
1.0
 10
14.2853391954
 20
8.2625014938
 30
0.0
 10
14.2853391954
 20
8.4075079554
 30
0.0
 10
14.2767877297
 20
8.7035458635
 30
0.0
 10
14.2404557811
 20
9.1541254922
 30
0.0
 10
14.1806728365
 20
9.6169435049
 30
0.0
 10
14.0697142185
 20
10.2484268313
 30
0.0
 10
13.8771469645
 20
11.036811252
 30
0.0
 10
13.6192577452
 20
11.8062373667
 30
0.0
 10
13.3761223387
 20
12.3992766815
 30
0.0
 10
13.1797515898
 20
12.8223046845
 30
0.0
 10
12.9700937725
 20
13.222408529
 30
0.0
 10
12.7491482168
 20
13.5957787622
 30
0.0
 10
12.5190305733
 20
13.9388614735
 30
0.0
 10
12.281914521
 20
14.2484210032
 30
0.0
 10
12.040066341
 20
14.5215125735
 30
0.0
 10
11.8705523779
 20
14.6838952414
 30
0.0
 10
11.7853391954
 20
14.7576920222
 30
0.0
  0
SPLINE
  5
309
100
AcDbEntity
  8
RACCORDO
100
AcDbSpline
 62
250
  6
CONTINUOUS
 70
0
 71
3
 72
15
 73
11
 74
0
 42
0.0000001
 43
0.0000001
 44
0.0000000001
 40
0.0
 40
0.0
 40
0.0
 40
0.0
 40
0.1542129902
 40
0.2985002306
 40
0.4332215073
 40
0.559043468
 40
0.6769979508
 40
0.7885211593
 40
0.8954579447
 40
1.0
 40
1.0
 40
1.0
 40
1.0
 10
-12.7146608046
 20
35.9753144149
 30
0.0
 10
-12.7739694962
 20
36.0266772485
 30
0.0
 10
-12.8923183182
 20
36.1221251164
 30
0.0
 10
-13.0749204424
 20
36.246049195
 30
0.0
 10
-13.2557970407
 20
36.3452949007
 30
0.0
 10
-13.4340572006
 20
36.419264914
 30
0.0
 10
-13.6088250649
 20
36.4674516304
 30
0.0
 10
-13.7792127184
 20
36.489404101
 30
0.0
 10
-13.944166395
 20
36.4847912401
 30
0.0
 10
-14.0503106182
 20
36.4637833885
 30
0.0
 10
-14.1014112595
 20
36.4490318864
 30
0.0
  0
SPLINE
  5
30A
100
AcDbEntity
  8
0
100
AcDbSpline
 62
7
  6
CONTINUOUS
 70
0
 71
3
 72
12
 73
8
 74
0
 42
0.0000001
 43
0.0000001
 44
0.0000000001
 40
0.0
 40
0.0
 40
0.0
 40
0.0
 40
0.2476978317
 40
0.5000141693
 40
0.7569939562
 40
0.8829645194
 40
1.0
 40
1.0
 40
1.0
 40
1.0
 10
0.7377153189
 20
-2.614635236
 30
0.0
 10
0.731816426
 20
-2.5720227803
 30
0.0
 10
0.720026025
 20
-2.4859718487
 30
0.0
 10
0.6962926073
 20
-2.3566202756
 30
0.0
 10
0.6668984322
 20
-2.2498993676
 30
0.0
 10
0.6334562396
 20
-2.1696520787
 30
0.0
 10
0.6133579691
 20
-2.1323951968
 30
0.0
 10
0.6023721065
 20
-2.115293717
 30
0.0
  0
SPLINE
  5
30B
100
AcDbEntity
  8
0
100
AcDbSpline
 62
7
  6
CONTINUOUS
 70
0
 71
3
 72
22
 73
18
 74
0
 42
0.0000001
 43
0.0000001
 44
0.0000000001
 40
0.0
 40
0.0
 40
0.0
 40
0.0
 40
0.0696557139
 40
0.1429650526
 40
0.2963486132
 40
0.4513701571
 40
0.5266796742
 40
0.5990498815
 40
0.6674987173
 40
0.7311766791
 40
0.7894175118
 40
0.8418059982
 40
0.8882755148
 40
0.9292503475
 40
0.9658275982
 40
0.9830776356
 40
1.0
 40
1.0
 40
1.0
 40
1.0
 10
-11.8306862084
 20
25.5495159204
 30
0.0
 10
-11.8306862084
 20
25.4892580456
 30
0.0
 10
-11.8257555479
 20
25.3655450324
 30
0.0
 10
-11.7979675603
 20
25.1105373446
 30
0.0
 10
-11.7310737769
 20
24.7863049099
 30
0.0
 10
-11.6272240203
 20
24.4701889209
 30
0.0
 10
-11.5232624951
 20
24.2296871033
 30
0.0
 10
-11.4381144949
 20
24.0630701989
 30
0.0
 10
-11.346607644
 20
23.9114768212
 30
0.0
 10
-11.2503695636
 20
23.7775882805
 30
0.0
 10
-11.1510853762
 20
23.6637449887
 30
0.0
 10
-11.0504312433
 20
23.5718957776
 30
0.0
 10
-10.9499310541
 20
23.5036261016
 30
0.0
 10
-10.8510067114
 20
23.4602273468
 30
0.0
 10
-10.7691610346
 20
23.4458176003
 30
0.0
 10
-10.7078242509
 20
23.4488106565
 30
0.0
 10
-10.6787259537
 20
23.4547832212
 30
0.0
 10
-10.6646610736
 20
23.4588435261
 30
0.0
  0
SPLINE
  5
30C
100
AcDbEntity
  8
0
100
AcDbSpline
 62
7
  6
CONTINUOUS
 70
0
 71
3
 72
15
 73
11
 74
0
 42
0.0000001
 43
0.0000001
 44
0.0000000001
 40
0.0
 40
0.0
 40
0.0
 40
0.0
 40
0.1692642495
 40
0.3262242759
 40
0.4697416218
 40
0.5992572512
 40
0.7150050056
 40
0.8182992748
 40
0.9118660262
 40
1.0
 40
1.0
 40
1.0
 40
1.0
 10
7.6693137916
 20
8.6620205466
 30
0.0
 10
7.6693137916
 20
8.7134851892
 30
0.0
 10
7.6726932216
 20
8.8127244605
 30
0.0
 10
7.6890350795
 20
8.9547854359
 30
0.0
 10
7.7162414629
 20
9.0829019173
 30
0.0
 10
7.7539704942
 20
9.1952621725
 30
0.0
 10
7.801817841
 20
9.2903207376
 30
0.0
 10
7.8594514412
 20
9.3667216109
 30
0.0
 10
7.9264594152
 20
9.423004204
 30
0.0
 10
7.9775429392
 20
9.4462224602
 30
0.0
 10
8.0032886568
 20
9.4536548353
 30
0.0
  0
SPLINE
  5
30D
100
AcDbEntity
  8
0
100
AcDbSpline
 62
7
  6
CONTINUOUS
 70
0
 71
3
 72
13
 73
9
 74
0
 42
0.0000001
 43
0.0000001
 44
0.0000000001
 40
0.0
 40
0.0
 40
0.0
 40
0.0
 40
0.150565761
 40
0.2902967013
 40
0.545222221
 40
0.6641727241
 40
0.7792601489
 40
1.0
 40
1.0
 40
1.0
 40
1.0
 10
0.5781630059
 20
-1.0987423538
 30
0.0
 10
0.5561994881
 20
-1.0659777105
 30
0.0
 10
0.5109552844
 20
-1.0046867321
 30
0.0
 10
0.4164929774
 20
-0.8973917616
 30
0.0
 10
0.3177796176
 20
-0.8054296309
 30
0.0
 10
0.2177173437
 20
-0.7254179972
 30
0.0
 10
0.1217662581
 20
-0.6547428962
 30
0.0
 10
0.0480475932
 20
-0.6065629965
 30
0.0
 10
-0.0012948921
 20
-0.576404315
 30
0.0
  0
SPLINE
  5
30E
100
AcDbEntity
  8
0
100
AcDbSpline
 62
7
  6
CONTINUOUS
 70
0
 71
3
 72
15
 73
11
 74
0
 42
0.0000001
 43
0.0000001
 44
0.0000000001
 40
0.0
 40
0.0
 40
0.0
 40
0.0
 40
0.1692642495
 40
0.3262242759
 40
0.4697416218
 40
0.5992572512
 40
0.7150050056
 40
0.8182992748
 40
0.9118660262
 40
1.0
 40
1.0
 40
1.0
 40
1.0
 10
-11.8306862084
 20
-8.2254748272
 30
0.0
 10
-11.8306862084
 20
-8.1740101846
 30
0.0
 10
-11.8273067784
 20
-8.0747709133
 30
0.0
 10
-11.8109649205
 20
-7.9327099379
 30
0.0
 10
-11.7837585371
 20
-7.8045934564
 30
0.0
 10
-11.7460295058
 20
-7.6922332013
 30
0.0
 10
-11.698182159
 20
-7.5971746362
 30
0.0
 10
-11.6405485588
 20
-7.5207737629
 30
0.0
 10
-11.5735405848
 20
-7.4644911697
 30
0.0
 10
-11.5224570608
 20
-7.4412729136
 30
0.0
 10
-11.4967113432
 20
-7.4338405385
 30
0.0
  0
SPLINE
  5
30F
100
AcDbEntity
  8
0
100
AcDbSpline
 62
7
  6
CONTINUOUS
 70
0
 71
3
 72
22
 73
18
 74
0
 42
0.0000001
 43
0.0000001
 44
0.0000000001
 40
0.0
 40
0.0
 40
0.0
 40
0.0
 40
0.0696557139
 40
0.1429650526
 40
0.2963486132
 40
0.4513701571
 40
0.5266796742
 40
0.5990498815
 40
0.6674987173
 40
0.7311766791
 40
0.7894175118
 40
0.8418059982
 40
0.8882755148
 40
0.9292503475
 40
0.9658275982
 40
0.9830776356
 40
1.0
 40
1.0
 40
1.0
 40
1.0
 10
7.6693137916
 20
-25.112970201
 30
0.0
 10
7.6693137916
 20
-25.1732280758
 30
0.0
 10
7.6742444521
 20
-25.296941089
 30
0.0
 10
7.7020324397
 20
-25.5519487768
 30
0.0
 10
7.7689262231
 20
-25.8761812115
 30
0.0
 10
7.8727759797
 20
-26.1922972005
 30
0.0
 10
7.9767375049
 20
-26.4327990181
 30
0.0
 10
8.0618855051
 20
-26.5994159225
 30
0.0
 10
8.153392356
 20
-26.7510093002
 30
0.0
 10
8.2496304364
 20
-26.8848978409
 30
0.0
 10
8.3489146238
 20
-26.9987411327
 30
0.0
 10
8.4495687567
 20
-27.0905903438
 30
0.0
 10
8.5500689459
 20
-27.1588600198
 30
0.0
 10
8.6489932886
 20
-27.2022587746
 30
0.0
 10
8.7308389654
 20
-27.2166685211
 30
0.0
 10
8.7921757491
 20
-27.2136754649
 30
0.0
 10
8.8212740463
 20
-27.2077029002
 30
0.0
 10
8.8353389264
 20
-27.2036425953
 30
0.0
  0
SPLINE
  5
310
100
AcDbEntity
  8
0
100
AcDbSpline
 62
7
  6
CONTINUOUS
 70
0
 71
3
 72
10
 73
6
 74
0
 42
0.0000001
 43
0.0000001
 44
0.0000000001
 40
0.0
 40
0.0
 40
0.0
 40
0.0
 40
0.2500430187
 40
0.4998289043
 40
1.0
 40
1.0
 40
1.0
 40
1.0
 10
0.7963343011
 20
-3.2177281999
 30
0.0
 10
0.7894697888
 20
-3.1680064506
 30
0.0
 10
0.7762124072
 20
-3.0685504429
 30
0.0
 10
0.74979834
 20
-2.8695574426
 30
0.0
 10
0.7298330479
 20
-2.720340533
 30
0.0
 10
0.7160646838
 20
-2.620885236
 30
0.0
  0
SPLINE
  5
311
100
AcDbEntity
  8
0
100
AcDbSpline
 62
7
  6
CONTINUOUS
 70
0
 71
3
 72
12
 73
8
 74
0
 42
0.0000001
 43
0.0000001
 44
0.0000000001
 40
0.0
 40
0.0
 40
0.0
 40
0.0
 40
0.2476978317
 40
0.5000141693
 40
0.7569939562
 40
0.8829645194
 40
1.0
 40
1.0
 40
1.0
 40
1.0
 10
0.7160646838
 20
-2.620885236
 30
0.0
 10
0.7101657909
 20
-2.5782727803
 30
0.0
 10
0.6983753899
 20
-2.4922218487
 30
0.0
 10
0.6746419722
 20
-2.3628702756
 30
0.0
 10
0.6452477971
 20
-2.2561493676
 30
0.0
 10
0.6118056045
 20
-2.1759020787
 30
0.0
 10
0.591707334
 20
-2.1386451968
 30
0.0
 10
0.5807214714
 20
-2.121543717
 30
0.0
  0
SPLINE
  5
312
100
AcDbEntity
  8
0
100
AcDbSpline
 62
7
  6
CONTINUOUS
 70
0
 71
3
 72
13
 73
9
 74
0
 42
0.0000001
 43
0.0000001
 44
0.0000000001
 40
0.0
 40
0.0
 40
0.0
 40
0.0
 40
0.150565761
 40
0.2902967013
 40
0.545222221
 40
0.6641727241
 40
0.7792601489
 40
1.0
 40
1.0
 40
1.0
 40
1.0
 10
0.5565123708
 20
-1.1049923538
 30
0.0
 10
0.534548853
 20
-1.0722277105
 30
0.0
 10
0.4893046493
 20
-1.0109367321
 30
0.0
 10
0.3948423423
 20
-0.9036417616
 30
0.0
 10
0.2961289825
 20
-0.8116796309
 30
0.0
 10
0.1960667086
 20
-0.7316679972
 30
0.0
 10
0.100115623
 20
-0.6609928962
 30
0.0
 10
0.0263969581
 20
-0.6128129965
 30
0.0
 10
-0.0229455272
 20
-0.582654315
 30
0.0
  0
SPLINE
  5
313
100
AcDbEntity
  8
RACCORDO
100
AcDbSpline
 62
250
  6
CONTINUOUS
 70
0
 71
3
 72
18
 73
14
 74
0
 42
0.0000001
 43
0.0000001
 44
0.0000000001
 40
0.0
 40
0.0
 40
0.0
 40
0.0
 40
0.1245554143
 40
0.2573325957
 40
0.3943414258
 40
0.5313273623
 40
0.6640372724
 40
0.7275447872
 40
0.788527324
 40
0.8465771618
 40
0.9013436006
 40
0.9525474887
 40
1.0
 40
1.0
 40
1.0
 40
1.0
 10
-15.5806862084
 20
-9.3080065819
 30
0.0
 10
-15.5806862084
 20
-9.5447180005
 30
0.0
 10
-15.5521458128
 20
-10.0339839901
 30
0.0
 10
-15.4377612458
 20
-10.7755572516
 30
0.0
 10
-15.2541405954
 20
-11.5274713234
 30
0.0
 10
-15.0081890301
 20
-12.2611422872
 30
0.0
 10
-14.7554299671
 20
-12.8428085757
 30
0.0
 10
-14.528494224
 20
-13.2759307205
 30
0.0
 10
-14.3517323373
 20
-13.5746287687
 30
0.0
 10
-14.1676395775
 20
-13.8490944736
 30
0.0
 10
-13.977946405
 20
-14.0967422134
 30
0.0
 10
-13.7844679374
 20
-14.3152154359
 30
0.0
 10
-13.6488567547
 20
-14.4451215797
 30
0.0
 10
-13.5806862084
 20
-14.5041590046
 30
0.0
  0
SPLINE
  5
314
100
AcDbEntity
  8
RACCORDO
100
AcDbSpline
 62
250
  6
CONTINUOUS
 70
0
 71
3
 72
23
 73
19
 74
0
 42
0.0000001
 43
0.0000001
 44
0.0000000001
 40
0.0
 40
0.0
 40
0.0
 40
0.0
 40
0.0680749091
 40
0.1302917512
 40
0.1870572896
 40
0.2391460577
 40
0.287759307
 40
0.3345118982
 40
0.3812850509
 40
0.4299568414
 40
0.4821343112
 40
0.5390093882
 40
0.6013480931
 40
0.6695498503
 40
0.7437216759
 40
0.8237428083
 40
0.9093148372
 40
1.0
 40
1.0
 40
1.0
 40
1.0
 10
-13.5806862084
 20
34.8592890111
 30
0.0
 10
-13.6433600731
 20
34.9135661701
 30
0.0
 10
-13.7682377928
 20
35.0120235766
 30
0.0
 10
-13.9626075701
 20
35.131966733
 30
0.0
 10
-14.1540110227
 20
35.2162692559
 30
0.0
 10
-14.3408963482
 20
35.2637587624
 30
0.0
 10
-14.5215455823
 20
35.2733132948
 30
0.0
 10
-14.6937011838
 20
35.2441016385
 30
0.0
 10
-14.8546739241
 20
35.1762579307
 30
0.0
 10
-15.0021327925
 20
35.0711233207
 30
0.0
 10
-15.1346288965
 20
34.9306065471
 30
0.0
 10
-15.251312357
 20
34.7565757393
 30
0.0
 10
-15.3515029916
 20
34.5508239984
 30
0.0
 10
-15.4345345499
 20
34.3152547393
 30
0.0
 10
-15.4997709407
 20
34.0520084004
 30
0.0
 10
-15.5466612776
 20
33.7634976537
 30
0.0
 10
-15.5747847905
 20
33.4524187022
 30
0.0
 10
-15.5806862084
 20
33.2376853925
 30
0.0
 10
-15.5806862084
 20
33.1272382035
 30
0.0
  0
SPLINE
  5
315
100
AcDbEntity
  8
RACCORDO
100
AcDbSpline
 62
250
  6
CONTINUOUS
 70
0
 71
3
 72
18
 73
14
 74
0
 42
0.0000001
 43
0.0000001
 44
0.0000000001
 40
0.0
 40
0.0
 40
0.0
 40
0.0
 40
0.1245554143
 40
0.2573325957
 40
0.3943414258
 40
0.5313273623
 40
0.6640372724
 40
0.7275447872
 40
0.788527324
 40
0.8465771618
 40
0.9013436006
 40
0.9525474887
 40
1.0
 40
1.0
 40
1.0
 40
1.0
 10
12.9193137916
 20
8.4455141957
 30
0.0
 10
12.9193137916
 20
8.6822256143
 30
0.0
 10
12.8907733961
 20
9.1714916038
 30
0.0
 10
12.776388829
 20
9.9130648653
 30
0.0
 10
12.5927681786
 20
10.6649789372
 30
0.0
 10
12.3468166133
 20
11.398649901
 30
0.0
 10
12.0940575503
 20
11.9803161895
 30
0.0
 10
11.8671218072
 20
12.4134383343
 30
0.0
 10
11.6903599206
 20
12.7121363825
 30
0.0
 10
11.5062671607
 20
12.9866020873
 30
0.0
 10
11.3165739882
 20
13.2342498272
 30
0.0
 10
11.1230955206
 20
13.4527230497
 30
0.0
 10
10.9874843379
 20
13.5826291935
 30
0.0
 10
10.9193137916
 20
13.6416666184
 30
0.0
  0
ENDSEC
  0
SECTION
  2
OBJECTS
  0
DICTIONARY
  5
C
100
AcDbDictionary
280
0
281
1
  3
ACAD_GROUP
350
D
  3
ACAD_MLINESTYLE
350
17
  3
ACAD_LAYOUT
350
1A
  3
ACAD_PLOTSETTINGS
350
19
  3
ACAD_PLOTSTYLENAME
350
E
  0
DICTIONARY
  5
D
102
{ACAD_REACTORS
330
C
102
}
100
AcDbDictionary
280
0
281
1
  0
ACDBDICTIONARYWDFLT
  5
E
102
{ACAD_REACTORS
330
C
102
}
100
AcDbDictionary
281
1
  3
Normal
350
F
100
AcDbDictionaryWithDefault
340
F
  0
DICTIONARY
  5
17
102
{ACAD_REACTORS
330
C
102
}
100
AcDbDictionary
280
0
281
1
  3
Standard
350
18
  0
DICTIONARY
  5
19
102
{ACAD_REACTORS
330
C
102
}
100
AcDbDictionary
281
1
  0
DICTIONARY
  5
1A
102
{ACAD_REACTORS
330
C
102
}
100
AcDbDictionary
281
1
  3
Model
350
316
  3
Layout1
350
317
  0
ACDBPLACEHOLDER
  5
F
102
{ACAD_REACTORS
330
E
102
}
  0
MLINESTYLE
  5
18
102
{ACAD_REACTORS
330
17
102
}
100
AcDbMlineStyle
  2
STANDARD
 70
0
  3

 62
256
 51
90.0
 52
90.0
 71
2
 49
0.5
 62
256
  6
BYLAYER
 49
-0.5
 62
256
  6
BYLAYER
  0
LAYOUT
  5
316
102
{ACAD_REACTORS
330
1A
102
}
100
AcDbPlotSettings
  1

  2
none_device
  4
ISO_A4_(297.00_x_210.00_MM)
  6

 40
0.0
 41
0.0
 42
0.0
 43
0.0
 44
297.0
 45
210.0
 46
0.0
 47
0.0
 48
0.0
 49
0.0
140
0.0
141
0.0
142
1.0
143
1.0
 70
1024
 72
1
 73
0
 74
0
  7

 75
0
147
1.0
148
0.0
149
0.0
100
AcDbLayout
  1
Model
 70
0
 71
0
 10
0.0
 20
0.0
 11
297.0
 21
210.0
 12
0.0
 22
0.0
 32
0.0
 14
0.0
 24
0.0
 34
0.0
 15
0.0
 25
0.0
 35
0.0
146
0.0
 13
0.0
 23
0.0
 33
0.0
 16
1.0
 26
0.0
 36
0.0
 17
0.0
 27
1.0
 37
0.0
 76
0
330
20B
345
0
346
0
  0
LAYOUT
  5
317
102
{ACAD_REACTORS
330
1A
102
}
100
AcDbPlotSettings
  1

  2
none_device
  4
ISO_A4_(297.00_x_210.00_MM)
  6

 40
0.0
 41
0.0
 42
0.0
 43
0.0
 44
297.0
 45
210.0
 46
0.0
 47
0.0
 48
0.0
 49
0.0
140
0.0
141
0.0
142
1.0
143
1.0
 70
0
 72
1
 73
0
 74
0
  7

 75
0
147
1.0
148
0.0
149
0.0
100
AcDbLayout
  1
Layout1
 70
0
 71
1
 10
0.0
 20
0.0
 11
297.0
 21
210.0
 12
0.0
 22
0.0
 32
0.0
 14
0.0
 24
0.0
 34
0.0
 15
0.0
 25
0.0
 35
0.0
146
0.0
 13
0.0
 23
0.0
 33
0.0
 16
1.0
 26
0.0
 36
0.0
 17
0.0
 27
1.0
 37
0.0
 76
0
330
20C
345
0
346
0
  0
ENDSEC
  0
EOF
