  0
SECTION
  2
HEADER
  9
$ACADVER
  1
AC1024
  9
$DWGCODEPAGE
  3
ANSI_1252
  9
$EXTMAX
 10
297.0
 20
210.0
 30
0.0
  9
$EXTMIN
 10
0.0
 20
0.0
 30
0.0
  9
$LIMMIN
 10
0.0
 20
0.0
  9
$LIMMAX
 10
297.0
 20
210.0
  9
$VIEWCTR
 10
148.5
 20
105.0
  9
$VIEWSIZE
 40
210.0
  9
$CLAYER
  8
0
  9
$LTSCALE
 40
16.335
  9
$CELTYPE
  6
BYLAYER
  9
$DIMSCALE
 40
1.0
  9
$DIMASZ
 40
3.0
  9
$DIMEXO
 40
0.5
  9
$DIMDLI
 40
11.286
  9
$DIMEXE
 40
1.5
  9
$DIMCEN
 40
2.673
  9
$DIMLFAC
 40
1.0
  9
$DIMBLK
  1
_FILLED
  9
$DIMALT
 70
0
  9
$DIMALTF
 40
0.0393700787
  9
$DIMTXT
 40
3.0
  9
$DIMTOL
 70
1
  9
$DIMLIM
 70
0
  9
$DIMTFAC
 40
1.0
  9
$DIMTP
 40
0.01
  9
$DIMTM
 40
0.01
  9
$DIMGAP
 40
0.625
  9
$DIMDSEP
 70
44
  9
$AUNITS
 70
0
  9
$PDMODE
 70
3
  9
$PDSIZE
 40
3.0
  9
$HANDSEED
  5
31E
  9
$TILEMODE
 70
1
  9
$MEASUREMENT
 70
1
  9
$INSUNITS
 70
4
  0
ENDSEC
  0
SECTION
  2
CLASSES
  0
CLASS
  1
ACDBDICTIONARYWDFLT
  2
AcDbDictionaryWithDefault
  3
AutoCAD 2000
 90
0
 91
1
280
0
281
0
  0
CLASS
  1
ACDBPLACEHOLDER
  2
AcDbPlaceHolder
  3
AutoCAD 2000
 90
0
 91
1
280
0
281
0
  0
CLASS
  1
LAYOUT
  2
AcDbLayout
  3
AutoCAD 2000
 90
0
 91
0
280
0
281
0
  0
ENDSEC
  0
SECTION
  2
TABLES
  0
TABLE
  2
VPORT
  5
8
100
AcDbSymbolTable
 70
2
  0
VPORT
  5
1F4
100
AcDbSymbolTableRecord
100
AcDbViewportTableRecord
  2
*ACTIVE
 70
0
 10
0.0
 20
0.0
 11
1.0
 21
1.0
 12
148.5
 22
105.0
 13
0.0
 23
0.0
 14
1.0
 24
1.0
 15
0.0
 25
0.0
 16
0.0
 26
0.0
 36
1.0
 17
0.0
 27
0.0
 37
0.0
 40
210.0
 41
1.4142857143
 42
50.0
 43
0.0
 44
0.0
 50
0.0
 51
0.0
 71
0
 72
100
 73
1
 74
1
 75
0
 76
0
 77
0
 78
0
  0
ENDTAB
  0
TABLE
  2
LTYPE
  5
5
100
AcDbSymbolTable
 70
6
  0
LTYPE
  5
14
100
AcDbSymbolTableRecord
100
AcDbLinetypeTableRecord
  2
BYBLOCK
 70
0
  3

 72
65
 73
0
 40
0.0
  0
LTYPE
  5
15
100
AcDbSymbolTableRecord
100
AcDbLinetypeTableRecord
  2
BYLAYER
 70
0
  3

 72
65
 73
0
 40
0.0
  0
LTYPE
  5
16
100
AcDbSymbolTableRecord
100
AcDbLinetypeTableRecord
  2
CONTINUOUS
 70
64
  3
Solid line
 72
65
 73
0
 40
0.0
  0
LTYPE
  5
1F5
100
AcDbSymbolTableRecord
100
AcDbLinetypeTableRecord
  2
CENTER
 70
64
  3
____ _ ____ _ ____ _ ____ _ ____ _ ____ _ ____
 72
65
 73
4
 40
0.6
 49
0.375
 74
0
 49
-0.075
 74
0
 49
0.075
 74
0
 49
-0.075
 74
0
  0
LTYPE
  5
1F6
100
AcDbSymbolTableRecord
100
AcDbLinetypeTableRecord
  2
HIDDEN
 70
64
  3
- - - - - - - - - - - - - - - - - - - -
 72
65
 73
2
 40
0.2
 49
0.1
 74
0
 49
-0.1
 74
0
  0
LTYPE
  5
1F7
100
AcDbSymbolTableRecord
100
AcDbLinetypeTableRecord
  2
PHANTOM
 70
64
  3
_____ _ _ _____ _ _ _____ _ _ _____
 72
65
 73
6
 40
0.8
 49
0.45
 74
0
 49
-0.05
 74
0
 49
0.1
 74
0
 49
-0.05
 74
0
 49
0.1
 74
0
 49
-0.05
 74
0
  0
LTYPE
  5
1F8
100
AcDbSymbolTableRecord
100
AcDbLinetypeTableRecord
  2
DOT
 70
64
  3
. . . . . . . . . . . . . . . . . . . .
 72
65
 73
2
 40
0.2
 49
0.1
 74
0
 49
-0.1
 74
0
  0
LTYPE
  5
1F9
100
AcDbSymbolTableRecord
100
AcDbLinetypeTableRecord
  2
DASHED
 70
64
  3
- - - - - - - - - - - - - - - - - - - -
 72
65
 73
2
 40
0.2
 49
0.1
 74
0
 49
-0.1
 74
0
  0
ENDTAB
  0
TABLE
  2
LAYER
  5
2
100
AcDbSymbolTable
 70
36
  0
LAYER
  5
10
100
AcDbSymbolTableRecord
100
AcDbLayerTableRecord
  2
0
 70
0
 62
7
  6
CONTINUOUS
370
-3
390
F
  0
LAYER
  5
1FA
100
AcDbSymbolTableRecord
100
AcDbLayerTableRecord
  2
DEFAULT_1
 70
0
 62
7
  6
CENTER
370
-3
390
F
  0
LAYER
  5
1FB
100
AcDbSymbolTableRecord
100
AcDbLayerTableRecord
  2
DEFAULT_2
 70
0
 62
7
  6
HIDDEN
370
-3
390
F
  0
LAYER
  5
1FC
100
AcDbSymbolTableRecord
100
AcDbLayerTableRecord
  2
DEFAULT_3
 70
0
 62
7
  6
PHANTOM
370
-3
390
F
  0
LAYER
  5
1FD
100
AcDbSymbolTableRecord
100
AcDbLayerTableRecord
  2
ASSI
 70
0
 62
7
  6
CONTINUOUS
370
-3
390
F
  0
LAYER
  5
1FE
100
AcDbSymbolTableRecord
100
AcDbLayerTableRecord
  2
COORDINATE
 70
0
 62
7
  6
CONTINUOUS
370
-3
390
F
  0
LAYER
  5
1FF
100
AcDbSymbolTableRecord
100
AcDbLayerTableRecord
  2
COPY_PUBLISH
 70
0
 62
7
  6
CONTINUOUS
370
-3
390
F
  0
LAYER
  5
200
100
AcDbSymbolTableRecord
100
AcDbLayerTableRecord
  2
COSMETIC
 70
0
 62
7
  6
CONTINUOUS
370
-3
390
F
  0
LAYER
  5
201
100
AcDbSymbolTableRecord
100
AcDbLayerTableRecord
  2
CURVE
 70
0
 62
7
  6
CONTINUOUS
370
-3
390
F
  0
LAYER
  5
202
100
AcDbSymbolTableRecord
100
AcDbLayerTableRecord
  2
IMPORT_IGES
 70
0
 62
7
  6
CONTINUOUS
370
-3
390
F
  0
LAYER
  5
203
100
AcDbSymbolTableRecord
100
AcDbLayerTableRecord
  2
NOTE
 70
0
 62
7
  6
CONTINUOUS
370
-3
390
F
  0
LAYER
  5
204
100
AcDbSymbolTableRecord
100
AcDbLayerTableRecord
  2
PIANI
 70
0
 62
7
  6
CONTINUOUS
370
-3
390
F
  0
LAYER
  5
205
100
AcDbSymbolTableRecord
100
AcDbLayerTableRecord
  2
PUNTI
 70
0
 62
7
  6
CONTINUOUS
370
-3
390
F
  0
LAYER
  5
206
100
AcDbSymbolTableRecord
100
AcDbLayerTableRecord
  2
RACCORDO
 70
0
 62
7
  6
CONTINUOUS
370
-3
390
F
  0
LAYER
  5
207
100
AcDbSymbolTableRecord
100
AcDbLayerTableRecord
  2
SNAPLINE
 70
0
 62
7
  6
CONTINUOUS
370
-3
390
F
  0
LAYER
  5
208
100
AcDbSymbolTableRecord
100
AcDbLayerTableRecord
  2
TRASH
 70
0
 62
7
  6
CONTINUOUS
370
-3
390
F
  0
ENDTAB
  0
TABLE
  2
STYLE
  5
3
100
AcDbSymbolTable
 70
1
  0
STYLE
  5
11
100
AcDbSymbolTableRecord
100
AcDbTextStyleTableRecord
  2
STANDARD
 70
0
 40
0.0
 41
0.8
 50
0.0
 71
0
 42
0.2
  3
txt
  4

  0
STYLE
  5
209
100
AcDbSymbolTableRecord
100
AcDbTextStyleTableRecord
  2
TEXTSTYLE_1
 70
0
 40
0.0
 41
0.8
 50
0.0
 71
0
 42
0.2
  3
gdt
  4

  0
ENDTAB
  0
TABLE
  2
VIEW
  5
6
100
AcDbSymbolTable
 70
0
  0
ENDTAB
  0
TABLE
  2
UCS
  5
7
100
AcDbSymbolTable
 70
0
  0
ENDTAB
  0
TABLE
  2
APPID
  5
9
100
AcDbSymbolTable
 70
1
  0
APPID
  5
20A
100
AcDbSymbolTableRecord
100
AcDbRegAppTableRecord
  2
ACAD
 70
0
  0
ENDTAB
  0
TABLE
  2
BLOCK_RECORD
  5
1
100
AcDbSymbolTable
 70
0
  0
BLOCK_RECORD
  5
20B
100
AcDbSymbolTableRecord
100
AcDbBlockTableRecord
  2
*Model_Space
  0
BLOCK_RECORD
  5
20C
100
AcDbSymbolTableRecord
100
AcDbBlockTableRecord
  2
*Paper_Space
  0
BLOCK_RECORD
  5
20D
100
AcDbSymbolTableRecord
100
AcDbBlockTableRecord
  2
_FILLED
  0
ENDTAB
  0
TABLE
  2
DIMSTYLE
  5
A
100
AcDbSymbolTable
 70
1
100
AcDbDimStyleTable
 71
0
  0
DIMSTYLE
105
20E
100
AcDbSymbolTableRecord
100
AcDbDimStyleTableRecord
  2
STANDARD
 70
0
  3

  4

 40
1.0
 41
3.0
 42
0.5
 43
0.38
 44
1.5
 45
0.0
 46
0.0
 47
0.01
 48
0.01
140
3.0
141
0.09
142
0.0
143
25.4
144
1.0
145
0.0
146
1.0
147
0.625
 71
1.0
 72
0.0
 73
0
 74
0
 75
0
 76
0
 77
1
 78
8
 79
2
170
0
171
1
172
0
173
0
174
0
175
0
176
0
177
0
178
0
270
2
179
2
271
2
272
2
273
2
274
2
275
0
280
0
281
0
282
0
283
1
284
8
285
0
286
0
287
3
288
0
340
11
278
44
341
20D
342
20D
343
20D
344
20D
  0
ENDTAB
  0
ENDSEC
  0
SECTION
  2
BLOCKS
  0
BLOCK
  5
20
100
AcDbEntity
  8
0
100
AcDbBlockBegin
  2
*Model_Space
 70
0
 10
0.0
 20
0.0
 30
0.0
  3
*Model_Space
  1

  0
ENDBLK
  5
21
100
AcDbEntity
  8
0
100
AcDbBlockEnd
  0
BLOCK
  5
1C
100
AcDbEntity
  8
0
100
AcDbBlockBegin
  2
*Paper_Space
 70
0
 10
0.0
 20
0.0
 30
0.0
  3
*Paper_Space
  1

  0
ENDBLK
  5
1D
100
AcDbEntity
  8
0
100
AcDbBlockEnd
  0
BLOCK
  5
20F
100
AcDbEntity
  8
0
100
AcDbBlockBegin
  2
_FILLED
 70
64
 10
0.0
 20
0.0
  3
_FILLED
  1

  0
SOLID
  5
210
100
AcDbEntity
  8
0
  6
BYBLOCK
 62
0
100
AcDbTrace
 10
0.0
 20
0.0
 11
-1.0
 21
0.3166666667
 12
-1.0
 22
-0.3166666667
 13
-1.0
 23
-0.3166666667
  0
ENDBLK
  5
211
100
AcDbEntity
  8
0
  6
BYBLOCK
 62
0
100
AcDbBlockEnd
  0
ENDSEC
  0
SECTION
  2
ENTITIES
  0
LINE
  5
212
100
AcDbEntity
  8
ASSI
100
AcDbLine
 62
7
  6
CONTINUOUS
 10
-22.4139075116
 20
34.0648062864
 11
-23.6255501434
 21
33.691166432
  0
LINE
  5
213
100
AcDbEntity
  8
RACCORDO
100
AcDbLine
 62
250
  6
CONTINUOUS
 10
-21.1543100093
 20
34.0681958611
 11
-22.3659526411
 21
33.6945560068
  0
LINE
  5
214
100
AcDbEntity
  8
RACCORDO
100
AcDbLine
 62
7
  6
CONTINUOUS
 10
-20.1493322043
 20
-22.7339448524
 11
21.1748489676
 21
-34.025073472
  0
LINE
  5
215
100
AcDbEntity
  8
RACCORDO
100
AcDbLine
 62
250
  6
CONTINUOUS
 10
-20.6200896544
 20
-21.995753364
 11
20.7040915174
 21
-33.2868819835
  0
LINE
  5
216
100
AcDbEntity
  8
0
100
AcDbLine
 62
7
  6
CONTINUOUS
 10
-1.4168090257
 20
-26.0843519346
 11
-1.2772413459
 21
-26.1224864259
  0
LINE
  5
217
100
AcDbEntity
  8
0
100
AcDbLine
 62
7
  6
CONTINUOUS
 10
-1.0240399585
 20
-26.1916693921
 11
-0.8845108931
 21
-26.2297933326
  0
LINE
  5
218
100
AcDbEntity
  8
0
100
AcDbLine
 62
7
  6
CONTINUOUS
 10
0.2894220422
 20
-26.5505505113
 11
0.4160227359
 21
-26.5851419944
  0
LINE
  5
219
100
AcDbEntity
  8
RACCORDO
100
AcDbLine
 62
7
  6
CONTINUOUS
 10
-25.8609270507
 20
29.6089179409
 11
-23.765592553
 21
-17.2484818476
  0
LINE
  5
21A
100
AcDbEntity
  8
RACCORDO
100
AcDbLine
 62
250
  6
CONTINUOUS
 10
-25.5962542381
 20
29.4271421615
 11
-23.5009197405
 21
-17.430257627
  0
LINE
  5
21B
100
AcDbEntity
  8
0
100
AcDbLine
 62
7
  6
CONTINUOUS
 10
-0.1677516685
 20
-26.0826008219
 11
0.2738927272
 21
-26.2032726304
  0
LINE
  5
21C
100
AcDbEntity
  8
0
100
AcDbLine
 62
7
  6
CONTINUOUS
 10
0.4004934209
 20
-26.2378641135
 11
0.5486927737
 21
-26.2783570623
  0
LINE
  5
21D
100
AcDbEntity
  8
0
100
AcDbLine
 62
7
  6
CONTINUOUS
 10
0.5417918964
 20
-26.1240346068
 11
0.3935925436
 21
-26.083541658
  0
LINE
  5
21E
100
AcDbEntity
  8
0
100
AcDbLine
 62
7
  6
CONTINUOUS
 10
0.2669918499
 20
-26.0489501749
 11
-0.058141388
 21
-25.9601130557
  0
LINE
  5
21F
100
AcDbEntity
  8
0
100
AcDbLine
 62
7
  6
CONTINUOUS
 10
0.5601501181
 20
-26.1183733969
 11
0.4119507653
 21
-26.0778804481
  0
LINE
  5
220
100
AcDbEntity
  8
0
100
AcDbLine
 62
7
  6
CONTINUOUS
 10
0.2665084853
 20
-26.0381408224
 11
-0.0397831663
 21
-25.9544518458
  0
LINE
  5
221
100
AcDbEntity
  8
0
100
AcDbLine
 62
7
  6
CONTINUOUS
 10
-0.9120271892
 20
-25.6144538302
 11
-0.5872191939
 21
-25.7032020824
  0
LINE
  5
222
100
AcDbEntity
  8
0
100
AcDbLine
 62
7
  6
CONTINUOUS
 10
-0.6273090667
 20
-25.5257746993
 11
-0.9195635087
 21
-25.445921151
  0
LINE
  5
223
100
AcDbEntity
  8
0
100
AcDbLine
 62
7
  6
CONTINUOUS
 10
-0.6089508413
 20
-25.5201134904
 11
-0.901205287
 21
-25.4402599411
  0
LINE
  5
224
100
AcDbEntity
  8
0
100
AcDbLine
 62
7
  6
CONTINUOUS
 10
-0.9421758027
 20
-24.9402485241
 11
-0.649923968
 21
-25.0201013599
  0
LINE
  5
225
100
AcDbEntity
  8
0
100
AcDbLine
 62
7
  6
CONTINUOUS
 10
0.3508215282
 20
-25.1270649848
 11
0.261391258
 21
-25.1026296868
  0
LINE
  5
226
100
AcDbEntity
  8
0
100
AcDbLine
 62
7
  6
CONTINUOUS
 10
-0.6249027176
 20
-24.8604649544
 11
-1.0892411662
 21
-24.7335923825
  0
LINE
  5
227
100
AcDbEntity
  8
0
100
AcDbLine
 62
7
  6
CONTINUOUS
 10
-1.3424425536
 20
-24.6644094163
 11
-1.4820102334
 21
-24.6262749251
  0
LINE
  5
228
100
AcDbEntity
  8
0
100
AcDbLine
 62
7
  6
CONTINUOUS
 10
0.3691797499
 20
-25.1214037749
 11
0.2797494797
 21
-25.0969684769
  0
LINE
  5
229
100
AcDbEntity
  8
0
100
AcDbLine
 62
7
  6
CONTINUOUS
 10
-1.3240843319
 20
-24.6587482063
 11
-1.4636520117
 21
-24.6206137151
  0
LINE
  5
22A
100
AcDbEntity
  8
0
100
AcDbLine
 62
7
  6
CONTINUOUS
 10
-0.6065444961
 20
-24.8548037444
 11
-1.0708829445
 21
-24.7279311726
  0
LINE
  5
22B
100
AcDbEntity
  8
RACCORDO
100
AcDbLine
 62
250
  6
CONTINUOUS
 10
20.1698711626
 20
22.7770672416
 11
18.9582285308
 21
22.4034273872
  0
LINE
  5
22C
100
AcDbEntity
  8
RACCORDO
100
AcDbLine
 62
250
  6
CONTINUOUS
 10
23.7709087701
 20
17.0701975704
 11
22.5592661383
 21
16.696557716
  0
LINE
  5
22D
100
AcDbEntity
  8
0
100
AcDbLine
 62
7
  6
CONTINUOUS
 10
-2.8765570491
 20
1.1886098839
 11
-2.7803486539
 21
-0.9628724905
  0
LINE
  5
22E
100
AcDbEntity
  8
0
100
AcDbLine
 62
7
  6
CONTINUOUS
 10
-1.4820102334
 20
-24.6262749251
 11
-1.4168090257
 21
-26.0843519346
  0
LINE
  5
22F
100
AcDbEntity
  8
0
100
AcDbLine
 62
7
  6
CONTINUOUS
 10
-2.4622161387
 20
-1.0497967814
 11
-2.558424534
 21
1.101685593
  0
LINE
  5
230
100
AcDbEntity
  8
0
100
AcDbLine
 62
7
  6
CONTINUOUS
 10
-2.443857917
 20
-1.0441355715
 11
-2.5400663123
 21
1.1073468029
  0
LINE
  5
231
100
AcDbEntity
  8
0
100
AcDbLine
 62
7
  6
CONTINUOUS
 10
-3.3125261298
 20
1.3076034896
 11
-3.545696178
 21
-0.0914364987
  0
LINE
  5
232
100
AcDbEntity
  8
0
100
AcDbLine
 62
7
  6
CONTINUOUS
 10
-3.3883045877
 20
-0.7967588871
 11
-2.9946110747
 21
1.2207386159
  0
LINE
  5
233
100
AcDbEntity
  8
0
100
AcDbLine
 62
7
  6
CONTINUOUS
 10
-3.369946366
 20
-0.7910976772
 11
-2.976252853
 21
1.2263998258
  0
LINE
  5
234
100
AcDbEntity
  8
0
100
AcDbLine
 62
7
  6
CONTINUOUS
 10
-4.2296623504
 20
1.5688726214
 11
-4.2480205721
 21
1.5632114114
  0
LINE
  5
235
100
AcDbEntity
  8
0
100
AcDbLine
 62
7
  6
CONTINUOUS
 10
-3.8840719492
 20
1.4744459308
 11
-3.9024301709
 21
1.4687847208
  0
LINE
  5
236
100
AcDbEntity
  8
0
100
AcDbLine
 62
7
  6
CONTINUOUS
 10
-4.2480205721
 20
1.5632114114
 11
-3.6686590106
 21
-0.7201568164
  0
LINE
  5
237
100
AcDbEntity
  8
0
100
AcDbLine
 62
7
  6
CONTINUOUS
 10
-3.545696178
 20
-0.0914364987
 11
-3.9024301709
 21
1.4687847208
  0
LINE
  5
238
100
AcDbEntity
  8
0
100
AcDbLine
 62
7
  6
CONTINUOUS
 10
-3.5374105014
 20
-0.0417217392
 11
-3.8840719492
 21
1.4744459308
  0
LINE
  5
239
100
AcDbEntity
  8
0
100
AcDbLine
 62
7
  6
CONTINUOUS
 10
-0.7452882049
 20
-1.5189180945
 11
-0.9840081052
 21
0.6713756017
  0
LINE
  5
23A
100
AcDbEntity
  8
0
100
AcDbLine
 62
7
  6
CONTINUOUS
 10
-0.7269299832
 20
-1.5132568846
 11
-0.9656498835
 21
0.6770368116
  0
LINE
  5
23B
100
AcDbEntity
  8
0
100
AcDbLine
 62
7
  6
CONTINUOUS
 10
-1.1844243164
 20
-0.0170869346
 11
-1.0565063716
 21
-1.4338830315
  0
LINE
  5
23C
100
AcDbEntity
  8
0
100
AcDbLine
 62
7
  6
CONTINUOUS
 10
-1.2772413459
 20
-26.1224864259
 11
-1.3424425536
 21
-24.6644094163
  0
LINE
  5
23D
100
AcDbEntity
  8
0
100
AcDbLine
 62
7
  6
CONTINUOUS
 10
-1.2588831242
 20
-26.1168252159
 11
-1.3240843319
 21
-24.6587482063
  0
LINE
  5
23E
100
AcDbEntity
  8
0
100
AcDbLine
 62
7
  6
CONTINUOUS
 10
-1.0892411662
 20
-24.7335923825
 11
-1.0240399585
 21
-26.1916693921
  0
LINE
  5
23F
100
AcDbEntity
  8
0
100
AcDbLine
 62
7
  6
CONTINUOUS
 10
-0.8845108931
 20
-26.2297933326
 11
-0.9120271892
 21
-25.6144538302
  0
LINE
  5
240
100
AcDbEntity
  8
0
100
AcDbLine
 62
7
  6
CONTINUOUS
 10
-0.9195635087
 20
-25.445921151
 11
-0.9421758027
 21
-24.9402485241
  0
LINE
  5
241
100
AcDbEntity
  8
0
100
AcDbLine
 62
7
  6
CONTINUOUS
 10
-0.8661526714
 20
-26.2241321227
 11
-0.8931856029
 21
-25.6196019728
  0
LINE
  5
242
100
AcDbEntity
  8
0
100
AcDbLine
 62
7
  6
CONTINUOUS
 10
-0.901205287
 20
-25.4402599411
 11
-0.9233342164
 21
-24.9453966666
  0
LINE
  5
243
100
AcDbEntity
  8
0
100
AcDbLine
 62
7
  6
CONTINUOUS
 10
-0.1755606594
 20
-25.9079704649
 11
-0.1677516685
 21
-26.0826008219
  0
LINE
  5
244
100
AcDbEntity
  8
0
100
AcDbLine
 62
7
  6
CONTINUOUS
 10
0.2377636869
 20
-25.395328655
 11
0.2669918499
 21
-26.0489501749
  0
LINE
  5
245
100
AcDbEntity
  8
0
100
AcDbLine
 62
7
  6
CONTINUOUS
 10
0.2738927272
 20
-26.2032726304
 11
0.2894220422
 21
-26.5505505113
  0
LINE
  5
246
100
AcDbEntity
  8
0
100
AcDbLine
 62
7
  6
CONTINUOUS
 10
0.4160227359
 20
-26.5851419944
 11
0.4004934209
 21
-26.2378641135
  0
LINE
  5
247
100
AcDbEntity
  8
0
100
AcDbLine
 62
7
  6
CONTINUOUS
 10
0.3935925436
 20
-26.083541658
 11
0.3508215282
 21
-25.1270649848
  0
LINE
  5
248
100
AcDbEntity
  8
0
100
AcDbLine
 62
7
  6
CONTINUOUS
 10
0.4343809576
 20
-26.5794807845
 11
0.4193350072
 21
-26.243012256
  0
LINE
  5
249
100
AcDbEntity
  8
0
100
AcDbLine
 62
7
  6
CONTINUOUS
 10
0.4119507653
 20
-26.0778804481
 11
0.3691797499
 21
-25.1214037749
  0
LINE
  5
24A
100
AcDbEntity
  8
0
100
AcDbLine
 62
7
  6
CONTINUOUS
 10
0.5486927737
 20
-26.2783570623
 11
0.5417918964
 21
-26.1240346068
  0
LINE
  5
24B
100
AcDbEntity
  8
0
100
AcDbLine
 62
7
  6
CONTINUOUS
 10
0.5670509954
 20
-26.2726958524
 11
0.5601501181
 21
-26.1183733969
  0
LINE
  5
24C
100
AcDbEntity
  8
0
100
AcDbLine
 62
7
  6
CONTINUOUS
 10
-1.9866059759
 20
-1.1797491572
 11
-1.9807717925
 21
0.2062856427
  0
LINE
  5
24D
100
AcDbEntity
  8
0
100
AcDbLine
 62
7
  6
CONTINUOUS
 10
-1.9682477542
 20
-1.1740879473
 11
-1.9627002658
 21
0.1438363471
  0
LINE
  5
24E
100
AcDbEntity
  8
0
100
AcDbLine
 62
7
  6
CONTINUOUS
 10
-2.24954354
 20
1.017161603
 11
-2.2909555218
 21
-1.0965908279
  0
LINE
  5
24F
100
AcDbEntity
  8
0
100
AcDbLine
 62
7
  6
CONTINUOUS
 10
-0.2618581708
 20
-0.8984932824
 11
-0.139156792
 21
-0.1433801567
  0
LINE
  5
250
100
AcDbEntity
  8
0
100
AcDbLine
 62
7
  6
CONTINUOUS
 10
-0.2434999491
 20
-0.8928320725
 11
-0.129186054
 21
-0.1893361253
  0
LINE
  5
251
100
AcDbEntity
  8
0
100
AcDbLine
 62
7
  6
CONTINUOUS
 10
-0.3806517596
 20
-1.6185487922
 11
-0.312072816
 21
-1.2130475905
  0
LINE
  5
252
100
AcDbEntity
  8
0
100
AcDbLine
 62
7
  6
CONTINUOUS
 10
-0.3622935379
 20
-1.6128875823
 11
-0.2951558853
 21
-1.2159086061
  0
LINE
  5
253
100
AcDbEntity
  8
0
100
AcDbLine
 62
7
  6
CONTINUOUS
 10
-0.313491087
 20
0.4881682475
 11
-0.6953330282
 21
-1.5325674956
  0
LINE
  5
254
100
AcDbEntity
  8
0
100
AcDbLine
 62
7
  6
CONTINUOUS
 10
-1.2987693124
 20
0.7573787401
 11
-1.5634894881
 21
-0.3501352144
  0
LINE
  5
255
100
AcDbEntity
  8
0
100
AcDbLine
 62
7
  6
CONTINUOUS
 10
-1.5001272148
 20
-1.3126711924
 11
-1.1844243164
 21
-0.0170869346
  0
LINE
  5
256
100
AcDbEntity
  8
0
100
AcDbLine
 62
7
  6
CONTINUOUS
 10
-1.4817689931
 20
-1.3070099825
 11
-1.1798341238
 21
-0.0679270804
  0
LINE
  5
257
100
AcDbEntity
  8
0
100
AcDbLine
 62
7
  6
CONTINUOUS
 10
-3.2941679081
 20
1.3132646995
 11
-3.3125261298
 21
1.3076034896
  0
LINE
  5
258
100
AcDbEntity
  8
0
100
AcDbLine
 62
7
  6
CONTINUOUS
 10
-2.976252853
 20
1.2263998258
 11
-2.9946110747
 21
1.2207386159
  0
LINE
  5
259
100
AcDbEntity
  8
0
100
AcDbLine
 62
7
  6
CONTINUOUS
 10
-2.8581988274
 20
1.1942710938
 11
-2.8765570491
 21
1.1886098839
  0
LINE
  5
25A
100
AcDbEntity
  8
0
100
AcDbLine
 62
7
  6
CONTINUOUS
 10
-2.5400663123
 20
1.1073468029
 11
-2.558424534
 21
1.101685593
  0
LINE
  5
25B
100
AcDbEntity
  8
0
100
AcDbLine
 62
7
  6
CONTINUOUS
 10
-2.2311853183
 20
1.0228228129
 11
-2.24954354
 21
1.017161603
  0
LINE
  5
25C
100
AcDbEntity
  8
0
100
AcDbLine
 62
7
  6
CONTINUOUS
 10
-1.9133159908
 20
0.9359704335
 11
-1.9316742125
 21
0.9303092236
  0
LINE
  5
25D
100
AcDbEntity
  8
0
100
AcDbLine
 62
7
  6
CONTINUOUS
 10
-1.2804110907
 20
0.76303995
 11
-1.2987693124
 21
0.7573787401
  0
LINE
  5
25E
100
AcDbEntity
  8
0
100
AcDbLine
 62
7
  6
CONTINUOUS
 10
-0.9656498835
 20
0.6770368116
 11
-0.9840081052
 21
0.6713756017
  0
LINE
  5
25F
100
AcDbEntity
  8
0
100
AcDbLine
 62
7
  6
CONTINUOUS
 10
-0.2951328654
 20
0.4938294575
 11
-0.313491087
 21
0.4881682475
  0
LINE
  5
260
100
AcDbEntity
  8
0
100
AcDbLine
 62
7
  6
CONTINUOUS
 10
0.0126221995
 20
0.4097406281
 11
-0.0057360222
 21
0.4040794181
  0
LINE
  5
261
100
AcDbEntity
  8
0
100
AcDbLine
 62
7
  6
CONTINUOUS
 10
-3.369946366
 20
-0.7910976772
 11
-3.3883045877
 21
-0.7967588871
  0
LINE
  5
262
100
AcDbEntity
  8
0
100
AcDbLine
 62
7
  6
CONTINUOUS
 10
0.5747867141
 20
0.2313108335
 11
0.5564284924
 21
0.2256496236
  0
LINE
  5
263
100
AcDbEntity
  8
0
100
AcDbLine
 62
7
  6
CONTINUOUS
 10
-2.443857917
 20
-1.0441355715
 11
-2.4622161387
 21
-1.0497967814
  0
LINE
  5
264
100
AcDbEntity
  8
0
100
AcDbLine
 62
7
  6
CONTINUOUS
 10
-3.6686590106
 20
-0.7201568164
 11
-3.3883045877
 21
-0.7967588871
  0
LINE
  5
265
100
AcDbEntity
  8
0
100
AcDbLine
 62
7
  6
CONTINUOUS
 10
-2.7803486539
 20
-0.9628724905
 11
-2.4622161387
 21
-1.0497967814
  0
LINE
  5
266
100
AcDbEntity
  8
0
100
AcDbLine
 62
7
  6
CONTINUOUS
 10
-2.2909555218
 20
-1.0965908279
 11
-1.9866059759
 21
-1.1797491572
  0
LINE
  5
267
100
AcDbEntity
  8
0
100
AcDbLine
 62
7
  6
CONTINUOUS
 10
-1.5447451364
 20
-1.3004801053
 11
-1.5001272148
 21
-1.3126711924
  0
LINE
  5
268
100
AcDbEntity
  8
0
100
AcDbLine
 62
7
  6
CONTINUOUS
 10
-1.0565063716
 20
-1.4338830315
 11
-0.7452882049
 21
-1.5189180945
  0
LINE
  5
269
100
AcDbEntity
  8
0
100
AcDbLine
 62
7
  6
CONTINUOUS
 10
-0.6953330282
 20
-1.5325674956
 11
-0.3806517596
 21
-1.6185487922
  0
LINE
  5
26A
100
AcDbEntity
  8
0
100
AcDbLine
 62
7
  6
CONTINUOUS
 10
0.2227893381
 20
-1.7834287936
 11
0.5580879858
 21
-1.8750434378
  0
LINE
  5
26B
100
AcDbEntity
  8
0
100
AcDbLine
 62
7
  6
CONTINUOUS
 10
0.6515071348
 20
-1.9005683934
 11
0.9683595826
 21
-1.9871429277
  0
LINE
  5
26C
100
AcDbEntity
  8
0
100
AcDbLine
 62
7
  6
CONTINUOUS
 10
1.4555356499
 20
-2.1202554899
 11
1.7615421529
 21
-2.2038665545
  0
LINE
  5
26D
100
AcDbEntity
  8
0
100
AcDbLine
 62
7
  6
CONTINUOUS
 10
-0.312072816
 20
-1.2130475905
 11
0.1211709156
 21
-1.3314240606
  0
LINE
  5
26E
100
AcDbEntity
  8
0
100
AcDbLine
 62
7
  6
CONTINUOUS
 10
0.0427311908
 20
-0.9817171373
 11
-0.2618581708
 21
-0.8984932824
  0
LINE
  5
26F
100
AcDbEntity
  8
0
100
AcDbLine
 62
7
  6
CONTINUOUS
 10
0.0402686335
 20
-0.9703670042
 11
-0.2434999491
 21
-0.8928320725
  0
LINE
  5
270
100
AcDbEntity
  8
0
100
AcDbLine
 62
7
  6
CONTINUOUS
 10
0.930711196
 20
-1.1452222201
 11
1.1012862495
 21
-1.191828948
  0
LINE
  5
271
100
AcDbEntity
  8
0
100
AcDbLine
 62
7
  6
CONTINUOUS
 10
1.0862163157
 20
-0.8396766821
 11
0.9044067378
 21
-0.7900003118
  0
LINE
  5
272
100
AcDbEntity
  8
0
100
AcDbLine
 62
7
  6
CONTINUOUS
 10
1.1045745374
 20
-0.8340154722
 11
0.9227649595
 21
-0.7843391018
  0
LINE
  5
273
100
AcDbEntity
  8
0
100
AcDbLine
 62
7
  6
CONTINUOUS
 10
-1.9807717925
 20
0.2062856427
 11
-1.5447451364
 21
-1.3004801053
  0
LINE
  5
274
100
AcDbEntity
  8
0
100
AcDbLine
 62
7
  6
CONTINUOUS
 10
-1.5634894881
 20
-0.3501352144
 11
-1.9316742125
 21
0.9303092236
  0
LINE
  5
275
100
AcDbEntity
  8
0
100
AcDbLine
 62
7
  6
CONTINUOUS
 10
-1.5544172993
 20
-0.3121797556
 11
-1.9133159908
 21
0.9359704335
  0
LINE
  5
276
100
AcDbEntity
  8
0
100
AcDbLine
 62
7
  6
CONTINUOUS
 10
0.5580879858
 20
-1.8750434378
 11
-0.0057360222
 21
0.4040794181
  0
LINE
  5
277
100
AcDbEntity
  8
0
100
AcDbLine
 62
7
  6
CONTINUOUS
 10
0.5764462075
 20
-1.8693822279
 11
0.0126221995
 21
0.4097406281
  0
LINE
  5
278
100
AcDbEntity
  8
0
100
AcDbLine
 62
7
  6
CONTINUOUS
 10
0.1211709156
 20
-1.3314240606
 11
0.2227893381
 21
-1.7834287936
  0
LINE
  5
279
100
AcDbEntity
  8
0
100
AcDbLine
 62
7
  6
CONTINUOUS
 10
-0.139156792
 20
-0.1433801567
 11
0.0427311908
 21
-0.9817171373
  0
LINE
  5
27A
100
AcDbEntity
  8
0
100
AcDbLine
 62
7
  6
CONTINUOUS
 10
0.5564284924
 20
0.2256496236
 11
0.6515071348
 21
-1.9005683934
  0
LINE
  5
27B
100
AcDbEntity
  8
0
100
AcDbLine
 62
7
  6
CONTINUOUS
 10
0.9044067378
 20
-0.7900003118
 11
0.8779972462
 21
-0.1994119801
  0
LINE
  5
27C
100
AcDbEntity
  8
0
100
AcDbLine
 62
7
  6
CONTINUOUS
 10
0.9683595826
 20
-1.9871429277
 11
0.930711196
 21
-1.1452222201
  0
LINE
  5
27D
100
AcDbEntity
  8
0
100
AcDbLine
 62
7
  6
CONTINUOUS
 10
0.9227649595
 20
-0.7843391018
 11
0.89657148
 21
-0.1985813913
  0
LINE
  5
27E
100
AcDbEntity
  8
0
100
AcDbLine
 62
7
  6
CONTINUOUS
 10
0.9867178043
 20
-1.9814817178
 11
0.9495527823
 21
-1.1503703627
  0
LINE
  5
27F
100
AcDbEntity
  8
0
100
AcDbLine
 62
7
  6
CONTINUOUS
 10
1.4245037065
 20
-1.1198140071
 11
1.4239352329
 21
-1.1071013868
  0
LINE
  5
280
100
AcDbEntity
  8
0
100
AcDbLine
 62
7
  6
CONTINUOUS
 10
1.4428619282
 20
-1.1141527972
 11
1.4422934546
 21
-1.1014401769
  0
LINE
  5
281
100
AcDbEntity
  8
0
100
AcDbLine
 62
250
  6
CONTINUOUS
 10
1.3609019767
 20
-0.0058554288
 11
1.342543755
 21
-0.0115166387
  0
LINE
  5
282
100
AcDbEntity
  8
0
100
AcDbLine
 62
7
  6
CONTINUOUS
 10
-1.9682477542
 20
-1.1740879473
 11
-1.9866059759
 21
-1.1797491572
  0
LINE
  5
283
100
AcDbEntity
  8
0
100
AcDbLine
 62
7
  6
CONTINUOUS
 10
-0.2434999491
 20
-0.8928320725
 11
-0.2618581708
 21
-0.8984932824
  0
LINE
  5
284
100
AcDbEntity
  8
0
100
AcDbLine
 62
7
  6
CONTINUOUS
 10
-1.4817689931
 20
-1.3070099825
 11
-1.5001272148
 21
-1.3126711924
  0
LINE
  5
285
100
AcDbEntity
  8
0
100
AcDbLine
 62
7
  6
CONTINUOUS
 10
0.9227649595
 20
-0.7843391018
 11
0.9044067378
 21
-0.7900003118
  0
LINE
  5
286
100
AcDbEntity
  8
0
100
AcDbLine
 62
250
  6
CONTINUOUS
 10
1.1045745374
 20
-0.8340154722
 11
1.0862163157
 21
-0.8396766821
  0
LINE
  5
287
100
AcDbEntity
  8
0
100
AcDbLine
 62
7
  6
CONTINUOUS
 10
-0.7269299832
 20
-1.5132568846
 11
-0.7452882049
 21
-1.5189180945
  0
LINE
  5
288
100
AcDbEntity
  8
0
100
AcDbLine
 62
7
  6
CONTINUOUS
 10
-0.3622935379
 20
-1.6128875823
 11
-0.3806517596
 21
-1.6185487922
  0
LINE
  5
289
100
AcDbEntity
  8
0
100
AcDbLine
 62
7
  6
CONTINUOUS
 10
1.4428619282
 20
-1.1141527972
 11
1.4245037065
 21
-1.1198140071
  0
LINE
  5
28A
100
AcDbEntity
  8
0
100
AcDbLine
 62
7
  6
CONTINUOUS
 10
0.5764462075
 20
-1.8693822279
 11
0.5580879858
 21
-1.8750434378
  0
LINE
  5
28B
100
AcDbEntity
  8
0
100
AcDbLine
 62
250
  6
CONTINUOUS
 10
1.6451058139
 20
-1.5862095004
 11
1.6267475922
 21
-1.5918707103
  0
LINE
  5
28C
100
AcDbEntity
  8
0
100
AcDbLine
 62
7
  6
CONTINUOUS
 10
0.9867178043
 20
-1.9814817178
 11
0.9683595826
 21
-1.9871429277
  0
LINE
  5
28D
100
AcDbEntity
  8
0
100
AcDbLine
 62
7
  6
CONTINUOUS
 10
1.7799003746
 20
-2.1982053446
 11
1.7615421529
 21
-2.2038665545
  0
LINE
  5
28E
100
AcDbEntity
  8
0
100
AcDbLine
 62
7
  6
CONTINUOUS
 10
-0.0057360222
 20
0.4040794181
 11
-0.313491087
 21
0.4881682475
  0
LINE
  5
28F
100
AcDbEntity
  8
0
100
AcDbLine
 62
7
  6
CONTINUOUS
 10
-0.9840081052
 20
0.6713756017
 11
-1.2987693124
 21
0.7573787401
  0
LINE
  5
290
100
AcDbEntity
  8
0
100
AcDbLine
 62
7
  6
CONTINUOUS
 10
-1.9316742125
 20
0.9303092236
 11
-2.24954354
 21
1.017161603
  0
LINE
  5
291
100
AcDbEntity
  8
0
100
AcDbLine
 62
7
  6
CONTINUOUS
 10
-2.9946110747
 20
1.2207386159
 11
-3.3125261298
 21
1.3076034896
  0
LINE
  5
292
100
AcDbEntity
  8
0
100
AcDbLine
 62
7
  6
CONTINUOUS
 10
-3.9024301709
 20
1.4687847208
 11
-4.2480205721
 21
1.5632114114
  0
LINE
  5
293
100
AcDbEntity
  8
0
100
AcDbLine
 62
7
  6
CONTINUOUS
 10
-2.558424534
 20
1.101685593
 11
-2.8765570491
 21
1.1886098839
  0
LINE
  5
294
100
AcDbEntity
  8
0
100
AcDbLine
 62
7
  6
CONTINUOUS
 10
0.0126221995
 20
0.4097406281
 11
-0.2951328654
 21
0.4938294575
  0
LINE
  5
295
100
AcDbEntity
  8
0
100
AcDbLine
 62
7
  6
CONTINUOUS
 10
-0.9656498835
 20
0.6770368116
 11
-1.2804110907
 21
0.76303995
  0
LINE
  5
296
100
AcDbEntity
  8
0
100
AcDbLine
 62
7
  6
CONTINUOUS
 10
-1.9133159908
 20
0.9359704335
 11
-2.2311853183
 21
1.0228228129
  0
LINE
  5
297
100
AcDbEntity
  8
0
100
AcDbLine
 62
7
  6
CONTINUOUS
 10
-2.976252853
 20
1.2263998258
 11
-3.2941679081
 21
1.3132646995
  0
LINE
  5
298
100
AcDbEntity
  8
0
100
AcDbLine
 62
7
  6
CONTINUOUS
 10
-3.8840719492
 20
1.4744459308
 11
-4.2296623504
 21
1.5688726214
  0
LINE
  5
299
100
AcDbEntity
  8
0
100
AcDbLine
 62
7
  6
CONTINUOUS
 10
-2.5400663123
 20
1.1073468029
 11
-2.8581988274
 21
1.1942710938
  0
LINE
  5
29A
100
AcDbEntity
  8
0
100
AcDbLine
 62
7
  6
CONTINUOUS
 10
-0.058141388
 20
-25.9601130557
 11
0.2377636869
 21
-25.395328655
  0
LINE
  5
29B
100
AcDbEntity
  8
0
100
AcDbLine
 62
7
  6
CONTINUOUS
 10
-0.0397831663
 20
-25.9544518458
 11
0.2389741047
 21
-25.4223969012
  0
LINE
  5
29C
100
AcDbEntity
  8
0
100
AcDbLine
 62
7
  6
CONTINUOUS
 10
0.261391258
 20
-25.1026296868
 11
-0.1755606594
 21
-25.9079704649
  0
LINE
  5
29D
100
AcDbEntity
  8
RACCORDO
100
AcDbLine
 62
250
  6
CONTINUOUS
 10
23.2428261753
 20
-30.2021899999
 11
21.1474916776
 21
16.6552097886
  0
LINE
  5
29E
100
AcDbEntity
  8
0
100
AcDbLine
 62
7
  6
CONTINUOUS
 10
-1.4636520117
 20
-24.6206137151
 11
-1.4820102334
 21
-24.6262749251
  0
LINE
  5
29F
100
AcDbEntity
  8
0
100
AcDbLine
 62
7
  6
CONTINUOUS
 10
-1.3240843319
 20
-24.6587482063
 11
-1.3424425536
 21
-24.6644094163
  0
LINE
  5
2A0
100
AcDbEntity
  8
RACCORDO
100
AcDbLine
 62
250
  6
CONTINUOUS
 10
24.654600636
 20
-30.1608420725
 11
22.5592661383
 21
16.696557716
  0
LINE
  5
2A1
100
AcDbEntity
  8
0
100
AcDbLine
 62
7
  6
CONTINUOUS
 10
25.8662432678
 20
-29.7872022182
 11
23.7709087701
 21
17.0701975704
  0
LINE
  5
2A2
100
AcDbEntity
  8
0
100
AcDbLine
 62
7
  6
CONTINUOUS
 10
-1.0708829445
 20
-24.7279311726
 11
-1.0892411662
 21
-24.7335923825
  0
LINE
  5
2A3
100
AcDbEntity
  8
0
100
AcDbLine
 62
250
  6
CONTINUOUS
 10
-0.6065441215
 20
-24.8548038468
 11
-0.6249023432
 21
-24.8604650567
  0
LINE
  5
2A4
100
AcDbEntity
  8
0
100
AcDbLine
 62
7
  6
CONTINUOUS
 10
-0.901205287
 20
-25.4402599411
 11
-0.9195635087
 21
-25.445921151
  0
LINE
  5
2A5
100
AcDbEntity
  8
0
100
AcDbLine
 62
7
  6
CONTINUOUS
 10
0.2797494797
 20
-25.0969684769
 11
0.261391258
 21
-25.1026296868
  0
LINE
  5
2A6
100
AcDbEntity
  8
0
100
AcDbLine
 62
7
  6
CONTINUOUS
 10
0.3691797499
 20
-25.1214037749
 11
0.3508215282
 21
-25.1270649848
  0
LINE
  5
2A7
100
AcDbEntity
  8
0
100
AcDbLine
 62
250
  6
CONTINUOUS
 10
-0.2809277658
 20
-25.3599932521
 11
-0.2992859875
 21
-25.365654462
  0
LINE
  5
2A8
100
AcDbEntity
  8
0
100
AcDbLine
 62
250
  6
CONTINUOUS
 10
-0.6089522097
 20
-25.5201131165
 11
-0.6273104314
 21
-25.5257743264
  0
LINE
  5
2A9
100
AcDbEntity
  8
0
100
AcDbLine
 62
250
  6
CONTINUOUS
 10
0.9647783453
 20
-25.2841458854
 11
0.9464201236
 21
-25.2898070953
  0
LINE
  5
2AA
100
AcDbEntity
  8
0
100
AcDbLine
 62
7
  6
CONTINUOUS
 10
-1.2588831242
 20
-26.1168252159
 11
-1.2772413459
 21
-26.1224864259
  0
LINE
  5
2AB
100
AcDbEntity
  8
0
100
AcDbLine
 62
7
  6
CONTINUOUS
 10
-0.0397831663
 20
-25.9544518458
 11
-0.058141388
 21
-25.9601130557
  0
LINE
  5
2AC
100
AcDbEntity
  8
0
100
AcDbLine
 62
7
  6
CONTINUOUS
 10
-0.8661526714
 20
-26.2241321227
 11
-0.8845108931
 21
-26.2297933326
  0
LINE
  5
2AD
100
AcDbEntity
  8
0
100
AcDbLine
 62
250
  6
CONTINUOUS
 10
0.7859824244
 20
-25.9554189513
 11
0.7676242027
 21
-25.9610801612
  0
LINE
  5
2AE
100
AcDbEntity
  8
0
100
AcDbLine
 62
7
  6
CONTINUOUS
 10
0.4119507653
 20
-26.0778804481
 11
0.3935925436
 21
-26.083541658
  0
LINE
  5
2AF
100
AcDbEntity
  8
0
100
AcDbLine
 62
7
  6
CONTINUOUS
 10
0.5601501181
 20
-26.1183733969
 11
0.5417918964
 21
-26.1240346068
  0
LINE
  5
2B0
100
AcDbEntity
  8
0
100
AcDbLine
 62
7
  6
CONTINUOUS
 10
0.5670509954
 20
-26.2726958524
 11
0.5486927737
 21
-26.2783570623
  0
LINE
  5
2B1
100
AcDbEntity
  8
0
100
AcDbLine
 62
250
  6
CONTINUOUS
 10
1.3440054296
 20
-26.1078892325
 11
1.325647208
 21
-26.1135504424
  0
LINE
  5
2B2
100
AcDbEntity
  8
0
100
AcDbLine
 62
7
  6
CONTINUOUS
 10
0.4343809576
 20
-26.5794807845
 11
0.4160227359
 21
-26.5851419944
  0
LINE
  5
2B3
100
AcDbEntity
  8
0
100
AcDbLine
 62
250
  6
CONTINUOUS
 10
1.0228042768
 20
-26.5817641304
 11
1.0044460551
 21
-26.5874253403
  0
LINE
  5
2B4
100
AcDbEntity
  8
RACCORDO
100
AcDbLine
 62
250
  6
CONTINUOUS
 10
18.2666615915
 20
21.2207055256
 11
-23.0575195803
 21
32.5118341451
  0
LINE
  5
2B5
100
AcDbEntity
  8
RACCORDO
100
AcDbLine
 62
250
  6
CONTINUOUS
 10
18.9582285308
 20
22.4034273872
 11
-22.3659526411
 21
33.6945560068
  0
LINE
  5
2B6
100
AcDbEntity
  8
0
100
AcDbLine
 62
7
  6
CONTINUOUS
 10
20.1698711626
 20
22.7770672416
 11
-21.1543100093
 21
34.0681958611
  0
LINE
  5
2B7
100
AcDbEntity
  8
RACCORDO
100
AcDbLine
 62
250
  6
CONTINUOUS
 10
25.8662432678
 20
-29.7872022182
 11
24.654600636
 21
-30.1608420725
  0
LINE
  5
2B8
100
AcDbEntity
  8
ASSI
100
AcDbLine
 62
7
  6
CONTINUOUS
 10
23.9524224478
 20
-33.6396776229
 11
22.740779816
 21
-34.0133174772
  0
ARC
  5
2B9
100
AcDbEntity
  8
0
100
AcDbCircle
 62
7
  6
CONTINUOUS
 10
1.2709473645
 20
-1.3080432702
 40
0.2429193398
100
AcDbArc
 50
49.2667686823
 51
50.7926337356
  0
SPLINE
  5
2BA
100
AcDbEntity
  8
0
100
AcDbSpline
 62
7
  6
CONTINUOUS
 70
0
 71
3
 72
9
 73
5
 74
0
 42
0.0000001
 43
0.0000001
 44
0.0000000001
 40
0.0
 40
0.0
 40
0.0
 40
0.0
 40
0.2436733202
 40
1.0
 40
1.0
 40
1.0
 40
1.0
 10
0.8910110754
 20
-25.4504784521
 30
0.0
 10
0.8959054195
 20
-25.4489691595
 30
0.0
 10
0.9164857988
 20
-25.444434637
 30
0.0
 10
0.9382598368
 20
-25.4460657999
 30
0.0
 10
0.9535949525
 20
-25.4502558591
 30
0.0
  0
SPLINE
  5
2BB
100
AcDbEntity
  8
0
100
AcDbSpline
 62
7
  6
CONTINUOUS
 70
0
 71
3
 72
16
 73
12
 74
0
 42
0.0000001
 43
0.0000001
 44
0.0000000001
 40
0.0
 40
0.0
 40
0.0
 40
0.0
 40
0.0978006363
 40
0.2035239698
 40
0.2603898877
 40
0.319605336
 40
0.4454760991
 40
0.5788239819
 40
0.716016962
 40
0.8565451837
 40
1.0
 40
1.0
 40
1.0
 40
1.0
 10
0.8282536621
 20
-25.2897631732
 30
0.0
 10
0.8063621067
 20
-25.2965139692
 30
0.0
 10
0.7631665419
 20
-25.3200458509
 30
0.0
 10
0.7240759572
 20
-25.3682333944
 30
0.0
 10
0.6986282198
 20
-25.4135300214
 30
0.0
 10
0.6752770382
 20
-25.4652862717
 30
0.0
 10
0.6552280394
 20
-25.5375439219
 30
0.0
 10
0.6416475163
 20
-25.6294675352
 30
0.0
 10
0.6325053646
 20
-25.7253648719
 30
0.0
 10
0.629164282
 20
-25.8240321211
 30
0.0
 10
0.6308926731
 20
-25.8905614677
 30
0.0
 10
0.6323937997
 20
-25.924130757
 30
0.0
  0
SPLINE
  5
2BC
100
AcDbEntity
  8
0
100
AcDbSpline
 62
7
  6
CONTINUOUS
 70
0
 71
3
 72
16
 73
12
 74
0
 42
0.0000001
 43
0.0000001
 44
0.0000000001
 40
0.0
 40
0.0
 40
0.0
 40
0.0
 40
0.1422046137
 40
0.2873303548
 40
0.4303159341
 40
0.5663831169
 40
0.6917760068
 40
0.8045887112
 40
0.9057188293
 40
0.9533485157
 40
1.0
 40
1.0
 40
1.0
 40
1.0
 10
-18.2692658692
 20
22.7022199099
 30
0.0
 10
-18.2746054218
 20
22.8216268824
 30
0.0
 10
-18.306323297
 20
23.0623223455
 30
0.0
 10
-18.4091450536
 20
23.4104989291
 30
0.0
 10
-18.5623912394
 20
23.7341075341
 30
0.0
 10
-18.7574431145
 20
24.0146338033
 30
0.0
 10
-18.9838730734
 20
24.2362390617
 30
0.0
 10
-19.2299349082
 20
24.3862090202
 30
0.0
 10
-19.4467372274
 20
24.4432541544
 30
0.0
 10
-19.611797566
 20
24.4408826152
 30
0.0
 10
-19.6899861756
 20
24.4248197403
 30
0.0
 10
-19.7274563515
 20
24.413263775
 30
0.0
  0
SPLINE
  5
2BD
100
AcDbEntity
  8
0
100
AcDbSpline
 62
7
  6
CONTINUOUS
 70
0
 71
3
 72
13
 73
9
 74
0
 42
0.0000001
 43
0.0000001
 44
0.0000000001
 40
0.0
 40
0.0
 40
0.0
 40
0.0
 40
0.2948773192
 40
0.5587570007
 40
0.6783746087
 40
0.7904593711
 40
0.8967958541
 40
1.0
 40
1.0
 40
1.0
 40
1.0
 10
16.2804593728
 20
13.262095982
 30
0.0
 10
16.2865257125
 20
13.1264360659
 30
0.0
 10
16.272998607
 20
12.8672882145
 30
0.0
 10
16.1810915373
 20
12.5639894327
 30
0.0
 10
16.0636827609
 20
12.3670484087
 30
0.0
 10
15.9603093149
 20
12.2493086823
 30
0.0
 10
15.8409179486
 20
12.1597844781
 30
0.0
 10
15.7517293589
 20
12.1203601035
 30
0.0
 10
15.7063130762
 20
12.1063535244
 30
0.0
  0
SPLINE
  5
2BE
100
AcDbEntity
  8
0
100
AcDbSpline
 62
7
  6
CONTINUOUS
 70
0
 71
3
 72
13
 73
9
 74
0
 42
0.0000001
 43
0.0000001
 44
0.0000000001
 40
0.0
 40
0.0
 40
0.0
 40
0.0
 40
0.2948773192
 40
0.5587570007
 40
0.6783746087
 40
0.7904593711
 40
0.8967958541
 40
1.0
 40
1.0
 40
1.0
 40
1.0
 10
-16.6015506568
 20
-14.5924452279
 30
0.0
 10
-16.5954843171
 20
-14.728105144
 30
0.0
 10
-16.6090114226
 20
-14.9872529955
 30
0.0
 10
-16.7009184923
 20
-15.2905517773
 30
0.0
 10
-16.8183272687
 20
-15.4874928013
 30
0.0
 10
-16.9217007147
 20
-15.6052325277
 30
0.0
 10
-17.041092081
 20
-15.6947567318
 30
0.0
 10
-17.1302806707
 20
-15.7341811064
 30
0.0
 10
-17.1756969534
 20
-15.7481876856
 30
0.0
  0
SPLINE
  5
2BF
100
AcDbEntity
  8
0
100
AcDbSpline
 62
7
  6
CONTINUOUS
 70
0
 71
3
 72
16
 73
12
 74
0
 42
0.0000001
 43
0.0000001
 44
0.0000000001
 40
0.0
 40
0.0
 40
0.0
 40
0.0
 40
0.1422046137
 40
0.2873303548
 40
0.4303159341
 40
0.5663831169
 40
0.6917760068
 40
0.8045887112
 40
0.9057188293
 40
0.9533485157
 40
1.0
 40
1.0
 40
1.0
 40
1.0
 10
17.9481745853
 20
-24.0325691558
 30
0.0
 10
17.9428350327
 20
-23.9131621832
 30
0.0
 10
17.9111171574
 20
-23.6724667201
 30
0.0
 10
17.8082954009
 20
-23.3242901365
 30
0.0
 10
17.6550492151
 20
-23.0006815315
 30
0.0
 10
17.45999734
 20
-22.7201552624
 30
0.0
 10
17.2335673811
 20
-22.4985500039
 30
0.0
 10
16.9875055463
 20
-22.3485800454
 30
0.0
 10
16.7707032271
 20
-22.2915349112
 30
0.0
 10
16.6056428885
 20
-22.2939064505
 30
0.0
 10
16.5274542789
 20
-22.3099693253
 30
0.0
 10
16.489984103
 20
-22.3215252906
 30
0.0
  0
SPLINE
  5
2C0
100
AcDbEntity
  8
RACCORDO
100
AcDbSpline
 62
7
  6
CONTINUOUS
 70
0
 71
3
 72
15
 73
11
 74
0
 42
0.0000001
 43
0.0000001
 44
0.0000000001
 40
0.0
 40
0.0
 40
0.0
 40
0.0
 40
0.1307633566
 40
0.2636332215
 40
0.3963505479
 40
0.5266755638
 40
0.6527776651
 40
0.7735819932
 40
0.8890140651
 40
1.0
 40
1.0
 40
1.0
 40
1.0
 10
-23.765592553
 20
-17.2484818476
 30
0.0
 10
-23.7520271435
 20
-17.5518414396
 30
0.0
 10
-23.6817872338
 20
-18.1622016798
 30
0.0
 10
-23.4587619315
 20
-19.0576150619
 30
0.0
 10
-23.1244281877
 20
-19.9168069899
 30
0.0
 10
-22.6888277642
 20
-20.7116549774
 30
0.0
 10
-22.1634629166
 20
-21.4165161308
 30
0.0
 10
-21.5597211329
 20
-22.0082168974
 30
0.0
 10
-20.8893873079
 20
-22.4645476072
 30
0.0
 10
-20.3979536642
 20
-22.6660132733
 30
0.0
 10
-20.1493322043
 20
-22.7339448524
 30
0.0
  0
SPLINE
  5
2C1
100
AcDbEntity
  8
RACCORDO
100
AcDbSpline
 62
7
  6
CONTINUOUS
 70
0
 71
3
 72
14
 73
10
 74
0
 42
0.0000001
 43
0.0000001
 44
0.0000000001
 40
0.0
 40
0.0
 40
0.0
 40
0.0
 40
0.1161468918
 40
0.2330475563
 40
0.3516152986
 40
0.4729461347
 40
0.5980652316
 40
0.7276638515
 40
1.0
 40
1.0
 40
1.0
 40
1.0
 10
-23.6255501434
 20
33.691166432
 30
0.0
 10
-23.8105548437
 20
33.6341156751
 30
0.0
 10
-24.1702493064
 20
33.4778536174
 30
0.0
 10
-24.6483934349
 20
33.1318309195
 30
0.0
 10
-25.0529318363
 20
32.6907673097
 30
0.0
 10
-25.377355147
 20
32.172525341
 30
0.0
 10
-25.6206425381
 20
31.5921006259
 30
0.0
 10
-25.8412848488
 20
30.739489206
 30
0.0
 10
-25.8812061069
 20
30.0624130017
 30
0.0
 10
-25.8609270507
 20
29.6089179409
 30
0.0
  0
SPLINE
  5
2C2
100
AcDbEntity
  8
RACCORDO
100
AcDbSpline
 62
7
  6
CONTINUOUS
 70
0
 71
3
 72
11
 73
7
 74
0
 42
0.0000001
 43
0.0000001
 44
0.0000000001
 40
0.0
 40
0.0
 40
0.0
 40
0.0
 40
0.2527351744
 40
0.5030362873
 40
0.7518649165
 40
1.0
 40
1.0
 40
1.0
 40
1.0
 10
21.1748489676
 20
-34.025073472
 30
0.0
 10
21.3037344216
 20
-34.0602892269
 30
0.0
 10
21.5650705686
 20
-34.1141798242
 30
0.0
 10
21.9629216611
 20
-34.140877168
 30
0.0
 10
22.3581670782
 20
-34.1106796918
 30
0.0
 10
22.615426654
 20
-34.0519732128
 30
0.0
 10
22.740779816
 20
-34.0133174772
 30
0.0
  0
SPLINE
  5
2C3
100
AcDbEntity
  8
0
100
AcDbSpline
 62
7
  6
CONTINUOUS
 70
0
 71
3
 72
13
 73
9
 74
0
 42
0.0000001
 43
0.0000001
 44
0.0000000001
 40
0.0
 40
0.0
 40
0.0
 40
0.0
 40
0.1032041459
 40
0.2095406289
 40
0.3216253913
 40
0.4412429993
 40
0.7051226808
 40
1.0
 40
1.0
 40
1.0
 40
1.0
 10
17.3740282886
 20
-25.1883116134
 30
0.0
 10
17.4194445713
 20
-25.1743050342
 30
0.0
 10
17.5086331611
 20
-25.1348806597
 30
0.0
 10
17.6280245274
 20
-25.0453564555
 30
0.0
 10
17.7313979734
 20
-24.9276167291
 30
0.0
 10
17.8488067497
 20
-24.7306757051
 30
0.0
 10
17.9407138194
 20
-24.4273769233
 30
0.0
 10
17.9542409249
 20
-24.1682290719
 30
0.0
 10
17.9481745853
 20
-24.0325691558
 30
0.0
  0
SPLINE
  5
2C4
100
AcDbEntity
  8
0
100
AcDbSpline
 62
7
  6
CONTINUOUS
 70
0
 71
3
 72
16
 73
12
 74
0
 42
0.0000001
 43
0.0000001
 44
0.0000000001
 40
0.0
 40
0.0
 40
0.0
 40
0.0
 40
0.0466514843
 40
0.0942811707
 40
0.1954112888
 40
0.3082239932
 40
0.4336168831
 40
0.5696840659
 40
0.7126696452
 40
0.8577953863
 40
1.0
 40
1.0
 40
1.0
 40
1.0
 10
-18.0597411391
 20
-12.8814013628
 30
0.0
 10
-18.0222709631
 20
-12.8698453975
 30
0.0
 10
-17.9440823535
 20
-12.8537825226
 30
0.0
 10
-17.779022015
 20
-12.8514109834
 30
0.0
 10
-17.5622196958
 20
-12.9084561176
 30
0.0
 10
-17.316157861
 20
-13.0584260761
 30
0.0
 10
-17.089727902
 20
-13.2800313345
 30
0.0
 10
-16.894676027
 20
-13.5605576037
 30
0.0
 10
-16.7414298411
 20
-13.8841662087
 30
0.0
 10
-16.6386080846
 20
-14.2323427923
 30
0.0
 10
-16.6068902093
 20
-14.4730382554
 30
0.0
 10
-16.6015506568
 20
-14.5924452279
 30
0.0
  0
SPLINE
  5
2C5
100
AcDbEntity
  8
0
100
AcDbSpline
 62
7
  6
CONTINUOUS
 70
0
 71
3
 72
16
 73
12
 74
0
 42
0.0000001
 43
0.0000001
 44
0.0000000001
 40
0.0
 40
0.0
 40
0.0
 40
0.0
 40
0.0466514843
 40
0.0942811707
 40
0.1954112888
 40
0.3082239932
 40
0.4336168831
 40
0.5696840659
 40
0.7126696452
 40
0.8577953863
 40
1.0
 40
1.0
 40
1.0
 40
1.0
 10
14.8222688905
 20
14.9731398472
 30
0.0
 10
14.8597390665
 20
14.9846958125
 30
0.0
 10
14.9379276761
 20
15.0007586873
 30
0.0
 10
15.1029880147
 20
15.0031302265
 30
0.0
 10
15.3197903338
 20
14.9460850924
 30
0.0
 10
15.5658521686
 20
14.7961151339
 30
0.0
 10
15.7922821276
 20
14.5745098754
 30
0.0
 10
15.9873340026
 20
14.2939836063
 30
0.0
 10
16.1405801885
 20
13.9703750012
 30
0.0
 10
16.243401945
 20
13.6221984177
 30
0.0
 10
16.2751198203
 20
13.3815029546
 30
0.0
 10
16.2804593728
 20
13.262095982
 30
0.0
  0
SPLINE
  5
2C6
100
AcDbEntity
  8
0
100
AcDbSpline
 62
7
  6
CONTINUOUS
 70
0
 71
3
 72
13
 73
9
 74
0
 42
0.0000001
 43
0.0000001
 44
0.0000000001
 40
0.0
 40
0.0
 40
0.0
 40
0.0
 40
0.1032041459
 40
0.2095406289
 40
0.3216253913
 40
0.4412429993
 40
0.7051226808
 40
1.0
 40
1.0
 40
1.0
 40
1.0
 10
-18.8434121658
 20
21.5464774522
 30
0.0
 10
-18.7979958831
 20
21.5604840314
 30
0.0
 10
-18.7088072934
 20
21.599908406
 30
0.0
 10
-18.5894159271
 20
21.6894326101
 30
0.0
 10
-18.4860424811
 20
21.8071723365
 30
0.0
 10
-18.3686337048
 20
22.0041133605
 30
0.0
 10
-18.2767266351
 20
22.3074121423
 30
0.0
 10
-18.2631995296
 20
22.5665599937
 30
0.0
 10
-18.2692658692
 20
22.7022199099
 30
0.0
  0
SPLINE
  5
2C7
100
AcDbEntity
  8
0
100
AcDbSpline
 62
7
  6
CONTINUOUS
 70
0
 71
3
 72
15
 73
11
 74
0
 42
0.0000001
 43
0.0000001
 44
0.0000000001
 40
0.0
 40
0.0
 40
0.0
 40
0.0
 40
0.1340511671
 40
0.2710685098
 40
0.4079814377
 40
0.5417224163
 40
0.6695088066
 40
0.7891343367
 40
0.8993008246
 40
1.0
 40
1.0
 40
1.0
 40
1.0
 10
23.7709087701
 20
17.0701975704
 30
0.0
 10
23.7566645432
 20
17.3887373716
 30
0.0
 10
23.6830560877
 20
18.0315279637
 30
0.0
 10
23.4507108739
 20
18.976194557
 30
0.0
 10
23.1031294181
 20
19.8842242145
 30
0.0
 10
22.6532286919
 20
20.7214628312
 30
0.0
 10
22.1176309215
 20
21.4567900499
 30
0.0
 10
21.5153869854
 20
22.062907353
 30
0.0
 10
20.8681581574
 20
22.5169201668
 30
0.0
 10
20.4009275696
 20
22.713935014
 30
0.0
 10
20.1698711626
 20
22.7770672416
 30
0.0
  0
SPLINE
  5
2C8
100
AcDbEntity
  8
0
100
AcDbSpline
 62
7
  6
CONTINUOUS
 70
0
 71
3
 72
10
 73
6
 74
0
 42
0.0000001
 43
0.0000001
 44
0.0000000001
 40
0.0
 40
0.0
 40
0.0
 40
0.0
 40
0.511542165
 40
0.7573659298
 40
1.0
 40
1.0
 40
1.0
 40
1.0
 10
-21.1543100093
 20
34.0681958611
 30
0.0
 10
-21.363906196
 20
34.125464449
 30
0.0
 10
-21.6874139394
 20
34.1728074089
 30
0.0
 10
-22.112141963
 20
34.1413072914
 30
0.0
 10
-22.3154245621
 20
34.0951772051
 30
0.0
 10
-22.4139072933
 20
34.0648055808
 30
0.0
  0
SPLINE
  5
2C9
100
AcDbEntity
  8
0
100
AcDbSpline
 62
7
  6
CONTINUOUS
 70
0
 71
3
 72
14
 73
10
 74
0
 42
0.0000001
 43
0.0000001
 44
0.0000000001
 40
0.0
 40
0.0
 40
0.0
 40
0.0
 40
0.103137404
 40
0.2094052712
 40
0.3214175639
 40
0.4409579867
 40
0.5689050409
 40
0.7053143201
 40
1.0
 40
1.0
 40
1.0
 40
1.0
 10
23.9524222295
 20
-33.6396769173
 30
0.0
 10
24.1038100213
 20
-33.5929896141
 30
0.0
 10
24.4011015792
 20
-33.4615704118
 30
0.0
 10
24.7990814514
 20
-33.163158655
 30
0.0
 10
25.1436285738
 20
-32.7706946678
 30
0.0
 10
25.4278434339
 20
-32.2941750395
 30
0.0
 10
25.6467802654
 20
-31.7442311568
 30
0.0
 10
25.8513456758
 20
-30.9081972217
 30
0.0
 10
25.8864643089
 20
-30.239399902
 30
0.0
 10
25.8662432678
 20
-29.7872022182
 30
0.0
  0
SPLINE
  5
2CA
100
AcDbEntity
  8
0
100
AcDbSpline
 62
7
  6
CONTINUOUS
 70
0
 71
3
 72
9
 73
5
 74
0
 42
0.0000001
 43
0.0000001
 44
0.0000000001
 40
0.0
 40
0.0
 40
0.0
 40
0.0
 40
0.4848993325
 40
1.0
 40
1.0
 40
1.0
 40
1.0
 10
0.8779972462
 20
-0.1994119801
 30
0.0
 10
0.9193713915
 20
-0.2007657426
 30
0.0
 10
1.0049711073
 20
-0.2090147961
 30
0.0
 10
1.0863182991
 20
-0.2373412162
 30
0.0
 10
1.1266590904
 20
-0.2548451059
 30
0.0
  0
SPLINE
  5
2CB
100
AcDbEntity
  8
0
100
AcDbSpline
 62
7
  6
CONTINUOUS
 70
0
 71
3
 72
10
 73
6
 74
0
 42
0.0000001
 43
0.0000001
 44
0.0000000001
 40
0.0
 40
0.0
 40
0.0
 40
0.0
 40
0.2185290837
 40
0.4684291486
 40
1.0
 40
1.0
 40
1.0
 40
1.0
 10
1.1266590904
 20
-0.2548451059
 30
0.0
 10
1.1524898935
 20
-0.2660540678
 30
0.0
 10
1.2029158827
 20
-0.301590894
 30
0.0
 10
1.2847739896
 20
-0.4024281502
 30
0.0
 10
1.3145873518
 20
-0.5044917416
 30
0.0
 10
1.3183917233
 20
-0.5728801188
 30
0.0
  0
SPLINE
  5
2CC
100
AcDbEntity
  8
0
100
AcDbSpline
 62
7
  6
CONTINUOUS
 70
0
 71
3
 72
13
 73
9
 74
0
 42
0.0000001
 43
0.0000001
 44
0.0000000001
 40
0.0
 40
0.0
 40
0.0
 40
0.0
 40
0.2938649177
 40
0.5624883712
 40
0.6837669397
 40
0.7954191591
 40
0.8991336637
 40
1.0
 40
1.0
 40
1.0
 40
1.0
 10
1.3183917233
 20
-0.5728801188
 30
0.0
 10
1.3200887805
 20
-0.6034672491
 30
0.0
 10
1.3204158577
 20
-0.6622259735
 30
0.0
 10
1.3068847586
 20
-0.7332681943
 30
0.0
 10
1.2839587049
 20
-0.7805758036
 30
0.0
 10
1.2625690796
 20
-0.8087897522
 30
0.0
 10
1.2363265934
 20
-0.8293631839
 30
0.0
 10
1.216520536
 20
-0.8378840564
 30
0.0
 10
1.206472555
 20
-0.840982597
 30
0.0
  0
SPLINE
  5
2CD
100
AcDbEntity
  8
0
100
AcDbSpline
 62
7
  6
CONTINUOUS
 70
0
 71
3
 72
8
 73
4
 74
0
 42
0.0000001
 43
0.0000001
 44
0.0000000001
 40
0.0
 40
0.0
 40
0.0
 40
0.0
 40
1.0
 40
1.0
 40
1.0
 40
1.0
 10
1.4239352329
 20
-1.1071013868
 30
0.0
 10
1.4264405271
 20
-1.1073314748
 30
0.0
 10
1.4290271736
 20
-1.1069627795
 30
0.0
 10
1.4314312559
 20
-1.1062212757
 30
0.0
  0
SPLINE
  5
2CE
100
AcDbEntity
  8
0
100
AcDbSpline
 62
7
  6
CONTINUOUS
 70
0
 71
3
 72
11
 73
7
 74
0
 42
0.0000001
 43
0.0000001
 44
0.0000000001
 40
0.0
 40
0.0
 40
0.0
 40
0.0
 40
0.2104771088
 40
0.4535581217
 40
0.721665066
 40
1.0
 40
1.0
 40
1.0
 40
1.0
 10
1.1012862495
 20
-1.191828948
 30
0.0
 10
1.1225399944
 20
-1.1976361718
 30
0.0
 10
1.1657353552
 20
-1.2202392656
 30
0.0
 10
1.2186553041
 20
-1.2754572873
 30
0.0
 10
1.2598656273
 20
-1.3478106256
 30
0.0
 10
1.2791489058
 20
-1.4018982764
 30
0.0
 10
1.2872523398
 20
-1.4298849383
 30
0.0
  0
SPLINE
  5
2CF
100
AcDbEntity
  8
0
100
AcDbSpline
 62
7
  6
CONTINUOUS
 70
0
 71
3
 72
11
 73
7
 74
0
 42
0.0000001
 43
0.0000001
 44
0.0000000001
 40
0.0
 40
0.0
 40
0.0
 40
0.0
 40
0.2502356366
 40
0.5002287493
 40
0.7501371477
 40
1.0
 40
1.0
 40
1.0
 40
1.0
 10
1.2872523398
 20
-1.4298849383
 30
0.0
 10
1.3037501009
 20
-1.4868152894
 30
0.0
 10
1.3310437436
 20
-1.602184805
 30
0.0
 10
1.3734448268
 20
-1.7747085668
 30
0.0
 10
1.4146937422
 20
-1.947454384
 30
0.0
 10
1.4419799522
 20
-2.0626445163
 30
0.0
 10
1.4555356499
 20
-2.1202554899
 30
0.0
  0
SPLINE
  5
2D0
100
AcDbEntity
  8
0
100
AcDbSpline
 62
7
  6
CONTINUOUS
 70
0
 71
3
 72
16
 73
12
 74
0
 42
0.0000001
 43
0.0000001
 44
0.0000000001
 40
0.0
 40
0.0
 40
0.0
 40
0.0
 40
0.1007900827
 40
0.2195034028
 40
0.2839565194
 40
0.349256407
 40
0.4813292723
 40
0.6135016442
 40
0.7438493935
 40
0.8728495187
 40
1.0
 40
1.0
 40
1.0
 40
1.0
 10
0.9535949525
 20
-25.4502558591
 30
0.0
 10
0.9763783499
 20
-25.4564810344
 30
0.0
 10
1.022654682
 20
-25.4829180471
 30
0.0
 10
1.0651799673
 20
-25.5352863436
 30
0.0
 10
1.0941240582
 20
-25.5858259611
 30
0.0
 10
1.120201509
 20
-25.6414725328
 30
0.0
 10
1.1429364339
 20
-25.7155949766
 30
0.0
 10
1.1616220208
 20
-25.8061732094
 30
0.0
 10
1.1762845022
 20
-25.8967745631
 30
0.0
 10
1.1860941689
 20
-25.9868659137
 30
0.0
 10
1.1890857534
 20
-26.0468350918
 30
0.0
 10
1.1904168049
 20
-26.0766010382
 30
0.0
  0
SPLINE
  5
2D1
100
AcDbEntity
  8
0
100
AcDbSpline
 62
7
  6
CONTINUOUS
 70
0
 71
3
 72
13
 73
9
 74
0
 42
0.0000001
 43
0.0000001
 44
0.0000000001
 40
0.0
 40
0.0
 40
0.0
 40
0.0
 40
0.1410282333
 40
0.2799693202
 40
0.5495152828
 40
0.6792865
 40
0.7988876683
 40
1.0
 40
1.0
 40
1.0
 40
1.0
 10
1.1904168049
 20
-26.0766010382
 30
0.0
 10
1.1915681079
 20
-26.1023473154
 30
0.0
 10
1.193733465
 20
-26.1534712948
 30
0.0
 10
1.1927390806
 20
-26.2539631979
 30
0.0
 10
1.1846960036
 20
-26.351950825
 30
0.0
 10
1.1688809998
 20
-26.446078675
 30
0.0
 10
1.1432697725
 20
-26.523139176
 30
0.0
 10
1.1021499682
 20
-26.5763726119
 30
0.0
 10
1.0670299323
 20
-26.5872027473
 30
0.0
  0
SPLINE
  5
2D2
100
AcDbEntity
  8
0
100
AcDbSpline
 62
7
  6
CONTINUOUS
 70
0
 71
3
 72
15
 73
11
 74
0
 42
0.0000001
 43
0.0000001
 44
0.0000000001
 40
0.0
 40
0.0
 40
0.0
 40
0.0
 40
0.129732803
 40
0.2616322934
 40
0.395037351
 40
0.5293752113
 40
0.596168804
 40
0.6620957276
 40
0.7881961959
 40
1.0
 40
1.0
 40
1.0
 40
1.0
 10
0.6323937997
 20
-25.924130757
 30
0.0
 10
0.6342430368
 20
-25.9654847469
 30
0.0
 10
0.6400187617
 20
-26.0488299213
 30
0.0
 10
0.6575203947
 20
-26.1737508681
 30
0.0
 10
0.6821024838
 20
-26.2989117073
 30
0.0
 10
0.7114463572
 20
-26.4018943334
 30
0.0
 10
0.7446128023
 20
-26.4804627746
 30
0.0
 10
0.7816233222
 20
-26.5544217493
 30
0.0
 10
0.8529914087
 20
-26.6617650701
 30
0.0
 10
0.9464279739
 20
-26.7300612518
 30
0.0
 10
1.0116208841
 20
-26.7478741041
 30
0.0
  0
SPLINE
  5
2D3
100
AcDbEntity
  8
0
100
AcDbSpline
 62
7
  6
CONTINUOUS
 70
0
 71
3
 72
9
 73
5
 74
0
 42
0.0000001
 43
0.0000001
 44
0.0000000001
 40
0.0
 40
0.0
 40
0.0
 40
0.0
 40
0.5115338455
 40
1.0
 40
1.0
 40
1.0
 40
1.0
 10
1.0116208841
 20
-26.7478741041
 30
0.0
 10
1.0312540798
 20
-26.7532385404
 30
0.0
 10
1.0711040362
 20
-26.7592046921
 30
0.0
 10
1.1112152877
 20
-26.7536451739
 30
0.0
 10
1.1297873456
 20
-26.7479180262
 30
0.0
  0
SPLINE
  5
2D4
100
AcDbEntity
  8
0
100
AcDbSpline
 62
7
  6
CONTINUOUS
 70
0
 71
3
 72
12
 73
8
 74
0
 42
0.0000001
 43
0.0000001
 44
0.0000000001
 40
0.0
 40
0.0
 40
0.0
 40
0.0
 40
0.1474615764
 40
0.293690624
 40
0.5673890317
 40
0.7995006183
 40
1.0
 40
1.0
 40
1.0
 40
1.0
 10
-0.4431503243
 20
-25.3263459824
 30
0.0
 10
-0.4426422798
 20
-25.337707245
 30
0.0
 10
-0.44179145
 20
-25.3603627408
 30
0.0
 10
-0.4445317047
 20
-25.4041074249
 30
0.0
 10
-0.4542222278
 20
-25.4536664224
 30
0.0
 10
-0.4797806923
 20
-25.5037757521
 30
0.0
 10
-0.5099134734
 20
-25.5220544823
 30
0.0
 10
-0.5246898696
 20
-25.5266111645
 30
0.0
  0
SPLINE
  5
2D5
100
AcDbEntity
  8
0
100
AcDbSpline
 62
7
  6
CONTINUOUS
 70
0
 71
3
 72
14
 73
10
 74
0
 42
0.0000001
 43
0.0000001
 44
0.0000000001
 40
0.0
 40
0.0
 40
0.0
 40
0.0
 40
0.20638611
 40
0.3194482133
 40
0.4433102648
 40
0.5779393078
 40
0.7200954787
 40
0.8633517775
 40
1.0
 40
1.0
 40
1.0
 40
1.0
 10
-0.6499239623
 20
-25.0201014861
 30
0.0
 10
-0.6235510785
 20
-25.0273072868
 30
0.0
 10
-0.58485797
 20
-25.0462436807
 30
0.0
 10
-0.5370430615
 20
-25.080536396
 30
0.0
 10
-0.5035574379
 20
-25.117250312
 30
0.0
 10
-0.4772379651
 20
-25.1637610184
 30
0.0
 10
-0.4586150532
 20
-25.2163937461
 30
0.0
 10
-0.4467644536
 20
-25.2712071475
 30
0.0
 10
-0.4439589672
 20
-25.3082625213
 30
0.0
 10
-0.4431503243
 20
-25.3263459824
 30
0.0
  0
SPLINE
  5
2D6
100
AcDbEntity
  8
0
100
AcDbSpline
 62
7
  6
CONTINUOUS
 70
0
 71
3
 72
9
 73
5
 74
0
 42
0.0000001
 43
0.0000001
 44
0.0000000001
 40
0.0
 40
0.0
 40
0.0
 40
0.0
 40
0.2615136081
 40
1.0
 40
1.0
 40
1.0
 40
1.0
 10
-0.587219204
 20
-25.7032018549
 30
0.0
 10
-0.5755688483
 20
-25.7063851902
 30
0.0
 10
-0.5303812967
 20
-25.7158922362
 30
0.0
 10
-0.4822734202
 20
-25.7132333807
 30
0.0
 10
-0.4496824695
 20
-25.7031831673
 30
0.0
  0
SPLINE
  5
2D7
100
AcDbEntity
  8
RACCORDO
100
AcDbSpline
 62
250
  6
CONTINUOUS
 70
0
 71
3
 72
15
 73
11
 74
0
 42
0.0000001
 43
0.0000001
 44
0.0000000001
 40
0.0
 40
0.0
 40
0.0
 40
0.0
 40
0.1127240821
 40
0.2200572085
 40
0.3275897405
 40
0.4408514978
 40
0.5638265946
 40
0.6983545564
 40
0.8442993066
 40
1.0
 40
1.0
 40
1.0
 40
1.0
 10
20.7040915174
 20
-33.2868819835
 30
0.0
 10
20.8745555571
 20
-33.3334583788
 30
0.0
 10
21.2210345176
 20
-33.3837893305
 30
0.0
 10
21.7364713201
 20
-33.3044407155
 30
0.0
 10
22.2031984091
 20
-33.0692917876
 30
0.0
 10
22.5982397987
 20
-32.6928610244
 30
0.0
 10
22.9083708929
 20
-32.1952677186
 30
0.0
 10
23.1253919299
 20
-31.5971016276
 30
0.0
 10
23.2434917985
 20
-30.9206827621
 30
0.0
 10
23.2537300988
 20
-30.4460314988
 30
0.0
 10
23.2428261753
 20
-30.2021899999
 30
0.0
  0
SPLINE
  5
2D8
100
AcDbEntity
  8
0
100
AcDbSpline
 62
7
  6
CONTINUOUS
 70
0
 71
3
 72
11
 73
7
 74
0
 42
0.0000001
 43
0.0000001
 44
0.0000000001
 40
0.0
 40
0.0
 40
0.0
 40
0.0
 40
0.2160383526
 40
0.4547699237
 40
0.7171580095
 40
1.0
 40
1.0
 40
1.0
 40
1.0
 10
-17.763922894
 20
-12.8625566466
 30
0.0
 10
-17.8206929742
 20
-12.9160993395
 30
0.0
 10
-17.922450508
 20
-13.0482948979
 30
0.0
 10
-18.0251067145
 20
-13.2883313245
 30
0.0
 10
-18.0819580806
 20
-13.5673966463
 30
0.0
 10
-18.0877048415
 20
-13.7652427581
 30
0.0
 10
-18.0831407849
 20
-13.867307523
 30
0.0
  0
SPLINE
  5
2D9
100
AcDbEntity
  8
0
100
AcDbSpline
 62
7
  6
CONTINUOUS
 70
0
 71
3
 72
9
 73
5
 74
0
 42
0.0000001
 43
0.0000001
 44
0.0000000001
 40
0.0
 40
0.0
 40
0.0
 40
0.0
 40
0.2448791754
 40
1.0
 40
1.0
 40
1.0
 40
1.0
 10
1.1958558805
 20
-0.8413535011
 30
0.0
 10
1.1884090937
 20
-0.8422371662
 30
0.0
 10
1.1577741379
 20
-0.8439801357
 30
0.0
 10
1.1270499047
 20
-0.8394555314
 30
0.0
 10
1.1045745374
 20
-0.8340154722
 30
0.0
  0
SPLINE
  5
2DA
100
AcDbEntity
  8
0
100
AcDbSpline
 62
7
  6
CONTINUOUS
 70
0
 71
3
 72
9
 73
5
 74
0
 42
0.0000001
 43
0.0000001
 44
0.0000000001
 40
0.0
 40
0.0
 40
0.0
 40
0.0
 40
0.4665666011
 40
1.0
 40
1.0
 40
1.0
 40
1.0
 10
-17.027316959
 20
-13.3761078174
 30
0.0
 10
-17.0670893233
 20
-13.4392532522
 30
0.0
 10
-17.1236055938
 20
-13.5928235377
 30
0.0
 10
-17.1340045935
 20
-13.7541605707
 30
0.0
 10
-17.1301930239
 20
-13.839397672
 30
0.0
  0
SPLINE
  5
2DB
100
AcDbEntity
  8
0
100
AcDbSpline
 62
7
  6
CONTINUOUS
 70
0
 71
3
 72
14
 73
10
 74
0
 42
0.0000001
 43
0.0000001
 44
0.0000000001
 40
0.0
 40
0.0
 40
0.0
 40
0.0
 40
0.0985971759
 40
0.2068589543
 40
0.3253557752
 40
0.4530020035
 40
0.5875324019
 40
0.7259262815
 40
1.0
 40
1.0
 40
1.0
 40
1.0
 10
-16.9207336616
 20
-15.5971420475
 30
0.0
 10
-16.9928811597
 20
-15.5856458853
 30
0.0
 10
-17.1410371169
 20
-15.5387455037
 30
0.0
 10
-17.3485236394
 20
-15.4126499739
 30
0.0
 10
-17.5431764896
 20
-15.2342250378
 30
0.0
 10
-17.7174102991
 20
-15.0110122622
 30
0.0
 10
-17.8645322327
 20
-14.7520080777
 30
0.0
 10
-18.0157512546
 20
-14.3752117457
 30
0.0
 10
-18.0740686367
 20
-14.0701855234
 30
0.0
 10
-18.0831407849
 20
-13.867307523
 30
0.0
  0
SPLINE
  5
2DC
100
AcDbEntity
  8
0
100
AcDbSpline
 62
7
  6
CONTINUOUS
 70
0
 71
3
 72
16
 73
12
 74
0
 42
0.0000001
 43
0.0000001
 44
0.0000000001
 40
0.0
 40
0.0
 40
0.0
 40
0.0
 40
0.0466514843
 40
0.0942811707
 40
0.1954112888
 40
0.3082239932
 40
0.4336168831
 40
0.5696840659
 40
0.7126696452
 40
0.8577953863
 40
1.0
 40
1.0
 40
1.0
 40
1.0
 10
-17.1756969534
 20
-15.7481876856
 30
0.0
 10
-17.2131671294
 20
-15.7597436508
 30
0.0
 10
-17.291355739
 20
-15.7758065257
 30
0.0
 10
-17.4564160775
 20
-15.7781780649
 30
0.0
 10
-17.6732183967
 20
-15.7211329307
 30
0.0
 10
-17.9192802315
 20
-15.5711629722
 30
0.0
 10
-18.1457101905
 20
-15.3495577138
 30
0.0
 10
-18.3407620655
 20
-15.0690314447
 30
0.0
 10
-18.4940082513
 20
-14.7454228396
 30
0.0
 10
-18.5968300079
 20
-14.3972462561
 30
0.0
 10
-18.6285478832
 20
-14.156550793
 30
0.0
 10
-18.6338874357
 20
-14.0371438204
 30
0.0
  0
SPLINE
  5
2DD
100
AcDbEntity
  8
0
100
AcDbSpline
 62
7
  6
CONTINUOUS
 70
0
 71
3
 72
9
 73
5
 74
0
 42
0.0000001
 43
0.0000001
 44
0.0000000001
 40
0.0
 40
0.0
 40
0.0
 40
0.0
 40
0.2435748967
 40
1.0
 40
1.0
 40
1.0
 40
1.0
 10
-0.5386110035
 20
-25.5267348916
 30
0.0
 10
-0.5443438089
 20
-25.5272231938
 30
0.0
 10
-0.5679574573
 20
-25.5282992949
 30
0.0
 10
-0.5917148395
 20
-25.5248229772
 30
0.0
 10
-0.6089508338
 20
-25.5201136578
 30
0.0
  0
SPLINE
  5
2DE
100
AcDbEntity
  8
0
100
AcDbSpline
 62
7
  6
CONTINUOUS
 70
0
 71
3
 72
11
 73
7
 74
0
 42
0.0000001
 43
0.0000001
 44
0.0000000001
 40
0.0
 40
0.0
 40
0.0
 40
0.0
 40
0.2167239719
 40
0.4658198717
 40
0.7335524419
 40
1.0
 40
1.0
 40
1.0
 40
1.0
 10
-16.6012973756
 20
-14.7579011147
 30
0.0
 10
-16.6745364142
 20
-14.7260085338
 30
0.0
 10
-16.8164437527
 20
-14.6216001022
 30
0.0
 10
-16.9787969639
 20
-14.4020330549
 30
0.0
 10
-17.091718083
 20
-14.1336384281
 30
0.0
 10
-17.1258057602
 20
-13.937508867
 30
0.0
 10
-17.1301930239
 20
-13.839397672
 30
0.0
  0
SPLINE
  5
2DF
100
AcDbEntity
  8
0
100
AcDbSpline
 62
7
  6
CONTINUOUS
 70
0
 71
3
 72
10
 73
6
 74
0
 42
0.0000001
 43
0.0000001
 44
0.0000000001
 40
0.0
 40
0.0
 40
0.0
 40
0.0
 40
0.2426148528
 40
0.4887987862
 40
1.0
 40
1.0
 40
1.0
 40
1.0
 10
-0.5246898696
 20
-25.5266111645
 30
0.0
 10
-0.5327023416
 20
-25.5290820165
 30
0.0
 10
-0.5494276853
 20
-25.5321145299
 30
0.0
 10
-0.583954553
 20
-25.5343008263
 30
0.0
 10
-0.6102665699
 20
-25.5304313158
 30
0.0
 10
-0.6273090592
 20
-25.5257748667
 30
0.0
  0
SPLINE
  5
2E0
100
AcDbEntity
  8
0
100
AcDbSpline
 62
7
  6
CONTINUOUS
 70
0
 71
3
 72
14
 73
10
 74
0
 42
0.0000001
 43
0.0000001
 44
0.0000000001
 40
0.0
 40
0.0
 40
0.0
 40
0.0
 40
0.1009586118
 40
0.2057910678
 40
0.4356328552
 40
0.5655972916
 40
0.7046258691
 40
0.8503911493
 40
1.0
 40
1.0
 40
1.0
 40
1.0
 10
-0.4313244335
 20
-25.6975220146
 30
0.0
 10
-0.4185855697
 20
-25.6935936904
 30
0.0
 10
-0.393425091
 20
-25.6824457244
 30
0.0
 10
-0.3481880914
 20
-25.6461095699
 30
0.0
 10
-0.3144939696
 20
-25.5926857165
 30
0.0
 10
-0.2940135313
 20
-25.5299819145
 30
0.0
 10
-0.2837428557
 20
-25.476042058
 30
0.0
 10
-0.2790166338
 20
-25.4187681055
 30
0.0
 10
-0.2800452719
 20
-25.3797282249
 30
0.0
 10
-0.2809277658
 20
-25.3599932521
 30
0.0
  0
SPLINE
  5
2E1
100
AcDbEntity
  8
0
100
AcDbSpline
 62
7
  6
CONTINUOUS
 70
0
 71
3
 72
15
 73
11
 74
0
 42
0.0000001
 43
0.0000001
 44
0.0000000001
 40
0.0
 40
0.0
 40
0.0
 40
0.0
 40
0.0667001379
 40
0.1352208696
 40
0.2750728851
 40
0.4142358344
 40
0.5484865309
 40
0.675470262
 40
0.7921606209
 40
1.0
 40
1.0
 40
1.0
 40
1.0
 10
-0.2809277658
 20
-25.3599932521
 30
0.0
 10
-0.2815641815
 20
-25.3457612589
 30
0.0
 10
-0.2830765319
 20
-25.3169025656
 30
0.0
 10
-0.2905062021
 20
-25.2585786267
 30
0.0
 10
-0.3065278979
 20
-25.1859075289
 30
0.0
 10
-0.3366457917
 20
-25.1025895975
 30
0.0
 10
-0.378003018
 20
-25.0274006112
 30
0.0
 10
-0.4275586047
 20
-24.9630135119
 30
0.0
 10
-0.5007503321
 20
-24.8998018845
 30
0.0
 10
-0.5637225914
 20
-24.8665040915
 30
0.0
 10
-0.6065444942
 20
-24.8548037874
 30
0.0
  0
SPLINE
  5
2E2
100
AcDbEntity
  8
0
100
AcDbSpline
 62
7
  6
CONTINUOUS
 70
0
 71
3
 72
16
 73
12
 74
0
 42
0.0000001
 43
0.0000001
 44
0.0000000001
 40
0.0
 40
0.0
 40
0.0
 40
0.0
 40
0.0466514843
 40
0.0942811707
 40
0.1954112888
 40
0.3082239932
 40
0.4336168831
 40
0.5696840659
 40
0.7126696452
 40
0.8577953863
 40
1.0
 40
1.0
 40
1.0
 40
1.0
 10
15.7063130762
 20
12.1063535244
 30
0.0
 10
15.6688429002
 20
12.0947975591
 30
0.0
 10
15.5906542907
 20
12.0787346843
 30
0.0
 10
15.4255939521
 20
12.076363145
 30
0.0
 10
15.2087916329
 20
12.1334082792
 30
0.0
 10
14.9627297981
 20
12.2833782377
 30
0.0
 10
14.7362998391
 20
12.5049834962
 30
0.0
 10
14.5412479641
 20
12.7855097653
 30
0.0
 10
14.3880017783
 20
13.1091183703
 30
0.0
 10
14.2851800217
 20
13.4572949539
 30
0.0
 10
14.2534621464
 20
13.697990417
 30
0.0
 10
14.2481225939
 20
13.8173973896
 30
0.0
  0
SPLINE
  5
2E3
100
AcDbEntity
  8
0
100
AcDbSpline
 62
7
  6
CONTINUOUS
 70
0
 71
3
 72
10
 73
6
 74
0
 42
0.0000001
 43
0.0000001
 44
0.0000000001
 40
0.0
 40
0.0
 40
0.0
 40
0.0
 40
0.5119400044
 40
0.7653915045
 40
1.0
 40
1.0
 40
1.0
 40
1.0
 10
1.6267475922
 20
-1.5918707103
 30
0.0
 10
1.607392453
 20
-1.5061547411
 30
0.0
 10
1.578712045
 20
-1.3772808907
 30
0.0
 10
1.511261998
 20
-1.218858865
 30
0.0
 10
1.4599799827
 20
-1.1502436371
 30
0.0
 10
1.4294614668
 20
-1.1239696843
 30
0.0
  0
SPLINE
  5
2E4
100
AcDbEntity
  8
0
100
AcDbSpline
 62
7
  6
CONTINUOUS
 70
0
 71
3
 72
11
 73
7
 74
0
 42
0.0000001
 43
0.0000001
 44
0.0000000001
 40
0.0
 40
0.0
 40
0.0
 40
0.0
 40
0.2718343492
 40
0.5231958671
 40
0.7642929973
 40
1.0
 40
1.0
 40
1.0
 40
1.0
 10
1.342543755
 20
-0.0115166387
 30
0.0
 10
1.2827146822
 20
0.0342971491
 30
0.0
 10
1.1543741735
 20
0.1057498773
 30
0.0
 10
0.951946075
 20
0.1704483988
 30
0.0
 10
0.7532821795
 20
0.2081483807
 30
0.0
 10
0.6216263003
 20
0.221334896
 30
0.0
 10
0.5564284924
 20
0.2256496236
 30
0.0
  0
SPLINE
  5
2E5
100
AcDbEntity
  8
0
100
AcDbSpline
 62
7
  6
CONTINUOUS
 70
0
 71
3
 72
9
 73
5
 74
0
 42
0.0000001
 43
0.0000001
 44
0.0000000001
 40
0.0
 40
0.0
 40
0.0
 40
0.0
 40
0.2426793784
 40
1.0
 40
1.0
 40
1.0
 40
1.0
 10
1.206472555
 20
-0.840982597
 30
0.0
 10
1.1971060637
 20
-0.8438709835
 30
0.0
 10
1.1572817949
 20
-0.8518810322
 30
0.0
 10
1.1159457494
 20
-0.8468725547
 30
0.0
 10
1.0862163157
 20
-0.8396766821
 30
0.0
  0
SPLINE
  5
2E6
100
AcDbEntity
  8
0
100
AcDbSpline
 62
7
  6
CONTINUOUS
 70
0
 71
3
 72
8
 73
4
 74
0
 42
0.0000001
 43
0.0000001
 44
0.0000000001
 40
0.0
 40
0.0
 40
0.0
 40
0.0
 40
1.0
 40
1.0
 40
1.0
 40
1.0
 10
1.0760261926
 20
-26.5839185311
 30
0.0
 10
1.0665062862
 20
-26.5858427726
 30
0.0
 10
1.0566437186
 20
-26.5864271099
 30
0.0
 10
1.0469506378
 20
-26.5858143228
 30
0.0
  0
SPLINE
  5
2E7
100
AcDbEntity
  8
0
100
AcDbSpline
 62
7
  6
CONTINUOUS
 70
0
 71
3
 72
8
 73
4
 74
0
 42
0.0000001
 43
0.0000001
 44
0.0000000001
 40
0.0
 40
0.0
 40
0.0
 40
0.0
 40
1.0
 40
1.0
 40
1.0
 40
1.0
 10
1.0469506378
 20
-26.5858143228
 30
0.0
 10
1.0388056697
 20
-26.5852994059
 30
0.0
 10
1.030676923
 20
-26.5839151969
 30
0.0
 10
1.0228042768
 20
-26.5817641304
 30
0.0
  0
SPLINE
  5
2E8
100
AcDbEntity
  8
0
100
AcDbSpline
 62
7
  6
CONTINUOUS
 70
0
 71
3
 72
14
 73
10
 74
0
 42
0.0000001
 43
0.0000001
 44
0.0000000001
 40
0.0
 40
0.0
 40
0.0
 40
0.0
 40
0.100958608
 40
0.2057910724
 40
0.4356328851
 40
0.5655973267
 40
0.7046258995
 40
0.8503911668
 40
1.0
 40
1.0
 40
1.0
 40
1.0
 10
-0.4496824695
 20
-25.7031831673
 30
0.0
 10
-0.4369436166
 20
-25.6992548317
 30
0.0
 10
-0.4117831638
 20
-25.688106839
 30
0.0
 10
-0.3665462171
 20
-25.6517706599
 30
0.0
 10
-0.3328521411
 20
-25.5983468116
 30
0.0
 10
-0.3123717306
 20
-25.535643031
 30
0.0
 10
-0.3021010697
 20
-25.4817032007
 30
0.0
 10
-0.2973748556
 20
-25.4244292804
 30
0.0
 10
-0.2984034941
 20
-25.385389423
 30
0.0
 10
-0.2992859875
 20
-25.365654462
 30
0.0
  0
SPLINE
  5
2E9
100
AcDbEntity
  8
0
100
AcDbSpline
 62
7
  6
CONTINUOUS
 70
0
 71
3
 72
9
 73
5
 74
0
 42
0.0000001
 43
0.0000001
 44
0.0000000001
 40
0.0
 40
0.0
 40
0.0
 40
0.0
 40
0.4999552502
 40
1.0
 40
1.0
 40
1.0
 40
1.0
 10
1.7615421529
 20
-2.2038665545
 30
0.0
 10
1.7385903412
 20
-2.1019850626
 30
0.0
 10
1.6946289782
 20
-1.8977717152
 30
0.0
 10
1.6497554097
 20
-1.6937587353
 30
0.0
 10
1.6267475922
 20
-1.5918707103
 30
0.0
  0
SPLINE
  5
2EA
100
AcDbEntity
  8
0
100
AcDbSpline
 62
7
  6
CONTINUOUS
 70
0
 71
3
 72
16
 73
12
 74
0
 42
0.0000001
 43
0.0000001
 44
0.0000000001
 40
0.0
 40
0.0
 40
0.0
 40
0.0
 40
0.1007900827
 40
0.2195034028
 40
0.2839565194
 40
0.349256407
 40
0.4813292723
 40
0.6135016442
 40
0.7438493935
 40
0.8728495187
 40
1.0
 40
1.0
 40
1.0
 40
1.0
 10
1.0044460551
 20
-26.5874253403
 30
0.0
 10
0.9816626577
 20
-26.581200165
 30
0.0
 10
0.9353863257
 20
-26.5547631523
 30
0.0
 10
0.8928610403
 20
-26.5023948558
 30
0.0
 10
0.8639169494
 20
-26.4518552383
 30
0.0
 10
0.8378394986
 20
-26.3962086666
 30
0.0
 10
0.8151045737
 20
-26.3220862228
 30
0.0
 10
0.7964189868
 20
-26.23150799
 30
0.0
 10
0.7817565054
 20
-26.1409066363
 30
0.0
 10
0.7719468388
 20
-26.0508152857
 30
0.0
 10
0.7689552543
 20
-25.9908461076
 30
0.0
 10
0.7676242027
 20
-25.9610801612
 30
0.0
  0
SPLINE
  5
2EB
100
AcDbEntity
  8
0
100
AcDbSpline
 62
7
  6
CONTINUOUS
 70
0
 71
3
 72
13
 73
9
 74
0
 42
0.0000001
 43
0.0000001
 44
0.0000000001
 40
0.0
 40
0.0
 40
0.0
 40
0.0
 40
0.1410282333
 40
0.2799693202
 40
0.5495152828
 40
0.6792865
 40
0.7988876683
 40
1.0
 40
1.0
 40
1.0
 40
1.0
 10
0.7676242027
 20
-25.9610801612
 30
0.0
 10
0.7664728998
 20
-25.935333884
 30
0.0
 10
0.7643075426
 20
-25.8842099046
 30
0.0
 10
0.765301927
 20
-25.7837180015
 30
0.0
 10
0.773345004
 20
-25.6857303744
 30
0.0
 10
0.7891600079
 20
-25.5916025244
 30
0.0
 10
0.8147712351
 20
-25.5145420234
 30
0.0
 10
0.8558910395
 20
-25.4613085875
 30
0.0
 10
0.8910110754
 20
-25.4504784521
 30
0.0
  0
SPLINE
  5
2EC
100
AcDbEntity
  8
0
100
AcDbSpline
 62
7
  6
CONTINUOUS
 70
0
 71
3
 72
9
 73
5
 74
0
 42
0.0000001
 43
0.0000001
 44
0.0000000001
 40
0.0
 40
0.0
 40
0.0
 40
0.0
 40
0.5115338455
 40
1.0
 40
1.0
 40
1.0
 40
1.0
 10
0.9464201236
 20
-25.2898070953
 30
0.0
 10
0.9267869278
 20
-25.284442659
 30
0.0
 10
0.8869369715
 20
-25.2784765073
 30
0.0
 10
0.84682572
 20
-25.2840360255
 30
0.0
 10
0.8282536621
 20
-25.2897631732
 30
0.0
  0
SPLINE
  5
2ED
100
AcDbEntity
  8
0
100
AcDbSpline
 62
7
  6
CONTINUOUS
 70
0
 71
3
 72
15
 73
11
 74
0
 42
0.0000001
 43
0.0000001
 44
0.0000000001
 40
0.0
 40
0.0
 40
0.0
 40
0.0
 40
0.129732803
 40
0.2616322934
 40
0.395037351
 40
0.5293752113
 40
0.596168804
 40
0.6620957276
 40
0.7881961959
 40
1.0
 40
1.0
 40
1.0
 40
1.0
 10
1.325647208
 20
-26.1135504424
 30
0.0
 10
1.3237979709
 20
-26.0721964525
 30
0.0
 10
1.3180222459
 20
-25.9888512781
 30
0.0
 10
1.300520613
 20
-25.8639303313
 30
0.0
 10
1.2759385239
 20
-25.7387694921
 30
0.0
 10
1.2465946505
 20
-25.635786866
 30
0.0
 10
1.2134282054
 20
-25.5572184248
 30
0.0
 10
1.1764176854
 20
-25.4832594501
 30
0.0
 10
1.105049599
 20
-25.3759161293
 30
0.0
 10
1.0116130337
 20
-25.3076199476
 30
0.0
 10
0.9464201236
 20
-25.2898070953
 30
0.0
  0
SPLINE
  5
2EE
100
AcDbEntity
  8
RACCORDO
100
AcDbSpline
 62
250
  6
CONTINUOUS
 70
0
 71
3
 72
15
 73
11
 74
0
 42
0.0000001
 43
0.0000001
 44
0.0000000001
 40
0.0
 40
0.0
 40
0.0
 40
0.0
 40
0.1340503624
 40
0.2710684908
 40
0.4079814085
 40
0.5417225059
 40
0.6695088068
 40
0.789134326
 40
0.8993014518
 40
1.0
 40
1.0
 40
1.0
 40
1.0
 10
22.5592661383
 20
16.696557716
 30
0.0
 10
22.5450219968
 20
17.0150956084
 30
0.0
 10
22.4714140506
 20
17.6578861774
 30
0.0
 10
22.2390686729
 20
18.6025528271
 30
0.0
 10
21.8914855061
 20
19.5105838508
 30
0.0
 10
21.4415889583
 20
20.347824974
 30
0.0
 10
20.9059871831
 20
21.0831495186
 30
0.0
 10
20.3037431078
 20
21.6892681001
 30
0.0
 10
19.6565143505
 20
22.1432814001
 30
0.0
 10
19.189283501
 20
22.3402955522
 30
0.0
 10
18.9582285308
 20
22.4034273872
 30
0.0
  0
SPLINE
  5
2EF
100
AcDbEntity
  8
RACCORDO
100
AcDbSpline
 62
250
  6
CONTINUOUS
 70
0
 71
3
 72
10
 73
6
 74
0
 42
0.0000001
 43
0.0000001
 44
0.0000000001
 40
0.0
 40
0.0
 40
0.0
 40
0.0
 40
0.5115391965
 40
0.7573667631
 40
1.0
 40
1.0
 40
1.0
 40
1.0
 10
-22.3659526411
 20
33.6945560068
 30
0.0
 10
-22.5755476335
 20
33.7518242684
 30
0.0
 10
-22.8990553352
 20
33.7991659643
 30
0.0
 10
-23.3237842518
 20
33.7676704488
 30
0.0
 10
-23.5270668491
 20
33.7215350657
 30
0.0
 10
-23.6255496552
 20
33.6911648489
 30
0.0
  0
SPLINE
  5
2F0
100
AcDbEntity
  8
0
100
AcDbSpline
 62
7
  6
CONTINUOUS
 70
0
 71
3
 72
14
 73
10
 74
0
 42
0.0000001
 43
0.0000001
 44
0.0000000001
 40
0.0
 40
0.0
 40
0.0
 40
0.0
 40
0.0985971759
 40
0.2068589543
 40
0.3253557752
 40
0.4530020035
 40
0.5875324019
 40
0.7259262815
 40
1.0
 40
1.0
 40
1.0
 40
1.0
 10
-18.5884488741
 20
21.6975230903
 30
0.0
 10
-18.6605963721
 20
21.7090192525
 30
0.0
 10
-18.8087523294
 20
21.7559196341
 30
0.0
 10
-19.0162388518
 20
21.8820151639
 30
0.0
 10
-19.210891702
 20
22.0604401
 30
0.0
 10
-19.3851255115
 20
22.2836528756
 30
0.0
 10
-19.5322474451
 20
22.5426570601
 30
0.0
 10
-19.6834664671
 20
22.9194533921
 30
0.0
 10
-19.7417838492
 20
23.2244796144
 30
0.0
 10
-19.7508559973
 20
23.4273576148
 30
0.0
  0
SPLINE
  5
2F1
100
AcDbEntity
  8
0
100
AcDbSpline
 62
7
  6
CONTINUOUS
 70
0
 71
3
 72
9
 73
5
 74
0
 42
0.0000001
 43
0.0000001
 44
0.0000000001
 40
0.0
 40
0.0
 40
0.0
 40
0.0
 40
0.2436733202
 40
1.0
 40
1.0
 40
1.0
 40
1.0
 10
1.0670299323
 20
-26.5872027473
 30
0.0
 10
1.0621355882
 20
-26.5887120399
 30
0.0
 10
1.0415552089
 20
-26.5932465624
 30
0.0
 10
1.0197811709
 20
-26.5916153995
 30
0.0
 10
1.0044460551
 20
-26.5874253403
 30
0.0
  0
SPLINE
  5
2F2
100
AcDbEntity
  8
0
100
AcDbSpline
 62
7
  6
CONTINUOUS
 70
0
 71
3
 72
11
 73
7
 74
0
 42
0.0000001
 43
0.0000001
 44
0.0000000001
 40
0.0
 40
0.0
 40
0.0
 40
0.0
 40
0.2167239719
 40
0.4658198717
 40
0.7335524419
 40
1.0
 40
1.0
 40
1.0
 40
1.0
 10
-18.269012588
 20
22.5367640231
 30
0.0
 10
-18.3422516266
 20
22.568656604
 30
0.0
 10
-18.4841589651
 20
22.6730650356
 30
0.0
 10
-18.6465121764
 20
22.8926320829
 30
0.0
 10
-18.7594332955
 20
23.1610267097
 30
0.0
 10
-18.7935209726
 20
23.3571562708
 30
0.0
 10
-18.7979082363
 20
23.4552674658
 30
0.0
  0
SPLINE
  5
2F3
100
AcDbEntity
  8
0
100
AcDbSpline
 62
7
  6
CONTINUOUS
 70
0
 71
3
 72
13
 73
9
 74
0
 42
0.0000001
 43
0.0000001
 44
0.0000000001
 40
0.0
 40
0.0
 40
0.0
 40
0.0
 40
0.1032041459
 40
0.2095406289
 40
0.3216253913
 40
0.4412429993
 40
0.7051226808
 40
1.0
 40
1.0
 40
1.0
 40
1.0
 10
-19.7274563515
 20
24.413263775
 30
0.0
 10
-19.7728726342
 20
24.3992571959
 30
0.0
 10
-19.862061224
 20
24.3598328213
 30
0.0
 10
-19.9814525903
 20
24.2703086171
 30
0.0
 10
-20.0848260363
 20
24.1525688907
 30
0.0
 10
-20.2022348126
 20
23.9556278667
 30
0.0
 10
-20.2941418823
 20
23.6523290849
 30
0.0
 10
-20.3076689878
 20
23.3931812335
 30
0.0
 10
-20.3016026482
 20
23.2575213174
 30
0.0
  0
SPLINE
  5
2F4
100
AcDbEntity
  8
0
100
AcDbSpline
 62
7
  6
CONTINUOUS
 70
0
 71
3
 72
15
 73
11
 74
0
 42
0.0000001
 43
0.0000001
 44
0.0000000001
 40
0.0
 40
0.0
 40
0.0
 40
0.0
 40
0.0667001379
 40
0.1352208696
 40
0.2750728851
 40
0.4142358344
 40
0.5484865309
 40
0.6754702619
 40
0.7921606209
 40
1.0
 40
1.0
 40
1.0
 40
1.0
 10
-0.2992859875
 20
-25.365654462
 30
0.0
 10
-0.2999224032
 20
-25.3514224688
 30
0.0
 10
-0.3014347536
 20
-25.3225637756
 30
0.0
 10
-0.3088644238
 20
-25.2642398367
 30
0.0
 10
-0.3248861195
 20
-25.1915687389
 30
0.0
 10
-0.3550040134
 20
-25.1082508075
 30
0.0
 10
-0.3963612396
 20
-25.0330618212
 30
0.0
 10
-0.4459168263
 20
-24.968674722
 30
0.0
 10
-0.5191085537
 20
-24.9054630945
 30
0.0
 10
-0.5820808129
 20
-24.8721653015
 30
0.0
 10
-0.6249027157
 20
-24.8604649974
 30
0.0
  0
SPLINE
  5
2F5
100
AcDbEntity
  8
0
100
AcDbSpline
 62
7
  6
CONTINUOUS
 70
0
 71
3
 72
11
 73
7
 74
0
 42
0.0000001
 43
0.0000001
 44
0.0000000001
 40
0.0
 40
0.0
 40
0.0
 40
0.0
 40
0.2160383526
 40
0.4547699237
 40
0.7171580095
 40
1.0
 40
1.0
 40
1.0
 40
1.0
 10
-19.4316381065
 20
24.4321084912
 30
0.0
 10
-19.4884081866
 20
24.3785657983
 30
0.0
 10
-19.5901657204
 20
24.2463702399
 30
0.0
 10
-19.6928219269
 20
24.0063338133
 30
0.0
 10
-19.749673293
 20
23.7272684915
 30
0.0
 10
-19.7554200539
 20
23.5294223797
 30
0.0
 10
-19.7508559973
 20
23.4273576148
 30
0.0
  0
SPLINE
  5
2F6
100
AcDbEntity
  8
0
100
AcDbSpline
 62
7
  6
CONTINUOUS
 70
0
 71
3
 72
9
 73
5
 74
0
 42
0.0000001
 43
0.0000001
 44
0.0000000001
 40
0.0
 40
0.0
 40
0.0
 40
0.0
 40
0.4665666011
 40
1.0
 40
1.0
 40
1.0
 40
1.0
 10
-18.6950321715
 20
23.9185573204
 30
0.0
 10
-18.7348045357
 20
23.8554118856
 30
0.0
 10
-18.7913208062
 20
23.7018416001
 30
0.0
 10
-18.8017198059
 20
23.5405045671
 30
0.0
 10
-18.7979082363
 20
23.4552674658
 30
0.0
  0
SPLINE
  5
2F7
100
AcDbEntity
  8
0
100
AcDbSpline
 62
7
  6
CONTINUOUS
 70
0
 71
3
 72
16
 73
12
 74
0
 42
0.0000001
 43
0.0000001
 44
0.0000000001
 40
0.0
 40
0.0
 40
0.0
 40
0.0
 40
0.0978006363
 40
0.2035239698
 40
0.2603898877
 40
0.319605336
 40
0.4454760991
 40
0.5788239819
 40
0.716016962
 40
0.8565451837
 40
1.0
 40
1.0
 40
1.0
 40
1.0
 10
1.1297873456
 20
-26.7479180262
 30
0.0
 10
1.1516789009
 20
-26.7411672302
 30
0.0
 10
1.1948744658
 20
-26.7176353485
 30
0.0
 10
1.2339650504
 20
-26.669447805
 30
0.0
 10
1.2594127879
 20
-26.624151178
 30
0.0
 10
1.2827639694
 20
-26.5723949277
 30
0.0
 10
1.3028129683
 20
-26.5001372775
 30
0.0
 10
1.3163934913
 20
-26.4082136642
 30
0.0
 10
1.3255356431
 20
-26.3123163275
 30
0.0
 10
1.3288767257
 20
-26.2136490783
 30
0.0
 10
1.3271483346
 20
-26.1471197317
 30
0.0
 10
1.325647208
 20
-26.1135504424
 30
0.0
  0
SPLINE
  5
2F8
100
AcDbEntity
  8
0
100
AcDbSpline
 62
7
  6
CONTINUOUS
 70
0
 71
3
 72
16
 73
12
 74
0
 42
0.0000001
 43
0.0000001
 44
0.0000000001
 40
0.0
 40
0.0
 40
0.0
 40
0.0
 40
0.1422046137
 40
0.2873303548
 40
0.4303159341
 40
0.5663831169
 40
0.6917760068
 40
0.8045887112
 40
0.9057188293
 40
0.9533485157
 40
1.0
 40
1.0
 40
1.0
 40
1.0
 10
-20.3016026482
 20
23.2575213174
 30
0.0
 10
-20.2962630956
 20
23.1381143448
 30
0.0
 10
-20.2645452203
 20
22.8974188817
 30
0.0
 10
-20.1617234638
 20
22.5492422982
 30
0.0
 10
-20.008477278
 20
22.2256336931
 30
0.0
 10
-19.8134254029
 20
21.945107424
 30
0.0
 10
-19.586995444
 20
21.7235021656
 30
0.0
 10
-19.3409336092
 20
21.5735322071
 30
0.0
 10
-19.12413129
 20
21.5164870729
 30
0.0
 10
-18.9590709514
 20
21.5188586121
 30
0.0
 10
-18.8808823418
 20
21.5349214869
 30
0.0
 10
-18.8434121658
 20
21.5464774522
 30
0.0
  0
SPLINE
  5
2F9
100
AcDbEntity
  8
0
100
AcDbSpline
 62
7
  6
CONTINUOUS
 70
0
 71
3
 72
13
 73
9
 74
0
 42
0.0000001
 43
0.0000001
 44
0.0000000001
 40
0.0
 40
0.0
 40
0.0
 40
0.0
 40
0.2948773192
 40
0.5587570007
 40
0.6783746087
 40
0.7904593711
 40
0.8967958541
 40
1.0
 40
1.0
 40
1.0
 40
1.0
 10
14.2481225939
 20
13.8173973896
 30
0.0
 10
14.2420562542
 20
13.9530573057
 30
0.0
 10
14.2555833598
 20
14.2122051571
 30
0.0
 10
14.3474904295
 20
14.5155039389
 30
0.0
 10
14.4648992058
 20
14.7124449629
 30
0.0
 10
14.5682726518
 20
14.8301846893
 30
0.0
 10
14.6876640181
 20
14.9197088935
 30
0.0
 10
14.7768526078
 20
14.959133268
 30
0.0
 10
14.8222688905
 20
14.9731398472
 30
0.0
  0
LINE
  5
2FA
100
AcDbEntity
  8
0
100
AcDbLine
 62
7
  6
CONTINUOUS
 10
1.4497886375
 20
-1.1005603249
 11
1.4538197118
 21
-1.0989901062
  0
SPLINE
  5
2FB
100
AcDbEntity
  8
0
100
AcDbSpline
 62
7
  6
CONTINUOUS
 70
0
 71
3
 72
21
 73
17
 74
0
 42
0.0000001
 43
0.0000001
 44
0.0000000001
 40
0.0
 40
0.0
 40
0.0
 40
0.0
 40
0.0115905741
 40
0.0231160121
 40
0.0465499953
 40
0.0708881542
 40
0.0959343548
 40
0.2039710103
 40
0.3258988511
 40
0.4586050698
 40
0.597563174
 40
0.738356286
 40
0.8074665194
 40
0.8746615108
 40
0.9393405664
 40
1.0
 40
1.0
 40
1.0
 40
1.0
 10
1.4538197118
 20
-1.0989901062
 30
0.0
 10
1.4581231235
 20
-1.0970073681
 30
0.0
 10
1.4662886877
 20
-1.0922012907
 30
0.0
 10
1.4824358663
 20
-1.0821379204
 30
0.0
 10
1.5014198759
 20
-1.0668960574
 30
0.0
 10
1.5221267472
 20
-1.0454431872
 30
0.0
 10
1.5625711155
 20
-0.9952954751
 30
0.0
 10
1.6090369526
 20
-0.8998114713
 30
0.0
 10
1.6369969269
 20
-0.7530424124
 30
0.0
 10
1.6359419467
 20
-0.5914064116
 30
0.0
 10
1.6099968354
 20
-0.4241357505
 30
0.0
 10
1.5633241924
 20
-0.2883904696
 30
0.0
 10
1.5115623917
 20
-0.1874683208
 30
0.0
 10
1.4668639277
 20
-0.1183367403
 30
0.0
 10
1.4175580055
 20
-0.0568734214
 30
0.0
 10
1.3805968036
 20
-0.0209228905
 30
0.0
 10
1.3609019767
 20
-0.0058554288
 30
0.0
  0
SPLINE
  5
2FC
100
AcDbEntity
  8
0
100
AcDbSpline
 62
7
  6
CONTINUOUS
 70
0
 71
3
 72
15
 73
11
 74
0
 42
0.0000001
 43
0.0000001
 44
0.0000000001
 40
0.0
 40
0.0
 40
0.0
 40
0.0
 40
0.2118038041
 40
0.3379042724
 40
0.403831196
 40
0.4706247887
 40
0.604962649
 40
0.7383677066
 40
0.870267197
 40
1.0
 40
1.0
 40
1.0
 40
1.0
 10
0.9647783453
 20
-25.2841458854
 30
0.0
 10
1.0299712554
 20
-25.3019587377
 30
0.0
 10
1.1234078206
 20
-25.3702549194
 30
0.0
 10
1.1947759071
 20
-25.4775982402
 30
0.0
 10
1.2317864271
 20
-25.5515572149
 30
0.0
 10
1.2649528722
 20
-25.630125656
 30
0.0
 10
1.2942967456
 20
-25.7331082822
 30
0.0
 10
1.3188788347
 20
-25.8582691214
 30
0.0
 10
1.3363804676
 20
-25.9831900682
 30
0.0
 10
1.3421561926
 20
-26.0665352426
 30
0.0
 10
1.3440054296
 20
-26.1078892325
 30
0.0
  0
SPLINE
  5
2FD
100
AcDbEntity
  8
0
100
AcDbSpline
 62
7
  6
CONTINUOUS
 70
0
 71
3
 72
23
 73
19
 74
0
 42
0.0000001
 43
0.0000001
 44
0.0000000001
 40
0.0
 40
0.0
 40
0.0
 40
0.0
 40
0.011540093
 40
0.0230882518
 40
0.034664882
 40
0.0464439199
 40
0.070687443
 40
0.0956660694
 40
0.1478942666
 40
0.2036903271
 40
0.3253940061
 40
0.4580467203
 40
0.5970649099
 40
0.7380104907
 40
0.8072159733
 40
0.874504577
 40
0.9392686835
 40
1.0
 40
1.0
 40
1.0
 40
1.0
 10
1.4314312559
 20
-1.1062212757
 30
0.0
 10
1.4359564969
 20
-1.1048255317
 30
0.0
 10
1.4442309651
 20
-1.0999592308
 30
0.0
 10
1.4564261427
 20
-1.0927235767
 30
0.0
 10
1.4681573305
 20
-1.0844537443
 30
0.0
 10
1.4832647456
 20
-1.0720563136
 30
0.0
 10
1.5009658037
 20
-1.0542670773
 30
0.0
 10
1.5275010515
 20
-1.0221366621
 30
0.0
 10
1.5565221181
 20
-0.9755762862
 30
0.0
 10
1.5934936485
 20
-0.8885293923
 30
0.0
 10
1.6184287134
 20
-0.7623357302
 30
0.0
 10
1.6178526716
 20
-0.6002665974
 30
0.0
 10
1.5922718028
 20
-0.4321875826
 30
0.0
 10
1.5456810669
 20
-0.2956991247
 30
0.0
 10
1.4938238797
 20
-0.194179108
 30
0.0
 10
1.44897952
 20
-0.1246314532
 30
0.0
 10
1.399468079
 20
-0.0628146105
 30
0.0
 10
1.3623372809
 20
-0.0266596098
 30
0.0
 10
1.342543755
 20
-0.0115166387
 30
0.0
  0
SPLINE
  5
2FE
100
AcDbEntity
  8
RACCORDO
100
AcDbSpline
 62
250
  6
CONTINUOUS
 70
0
 71
3
 72
14
 73
10
 74
0
 42
0.0000001
 43
0.0000001
 44
0.0000000001
 40
0.0
 40
0.0
 40
0.0
 40
0.0
 40
0.1031373906
 40
0.2094052012
 40
0.3214177086
 40
0.440958083
 40
0.5689050433
 40
0.7053139044
 40
1.0
 40
1.0
 40
1.0
 40
1.0
 10
22.7407793278
 20
-34.0133158941
 30
0.0
 10
22.8921677423
 20
-33.966630598
 30
0.0
 10
23.1894595343
 20
-33.8352115619
 30
0.0
 10
23.587440843
 20
-33.5368009414
 30
0.0
 10
23.9319840702
 20
-33.1443330222
 30
0.0
 10
24.2161999715
 20
-32.6678143315
 30
0.0
 10
24.4351394398
 20
-32.117872134
 30
0.0
 10
24.6397036084
 20
-31.2818377868
 30
0.0
 10
24.6748217087
 20
-30.6130404633
 30
0.0
 10
24.654600636
 20
-30.1608420725
 30
0.0
  0
SPLINE
  5
2FF
100
AcDbEntity
  8
0
100
AcDbSpline
 62
7
  6
CONTINUOUS
 70
0
 71
3
 72
13
 73
9
 74
0
 42
0.0000001
 43
0.0000001
 44
0.0000000001
 40
0.0
 40
0.0
 40
0.0
 40
0.0
 40
0.2948773192
 40
0.5587570007
 40
0.6783746087
 40
0.7904593711
 40
0.8967958541
 40
1.0
 40
1.0
 40
1.0
 40
1.0
 10
-18.6338874357
 20
-14.0371438204
 30
0.0
 10
-18.6399537754
 20
-13.9014839043
 30
0.0
 10
-18.6264266698
 20
-13.6423360529
 30
0.0
 10
-18.5345196001
 20
-13.339037271
 30
0.0
 10
-18.4171108238
 20
-13.1420962471
 30
0.0
 10
-18.3137373778
 20
-13.0243565207
 30
0.0
 10
-18.1943460115
 20
-12.9348323165
 30
0.0
 10
-18.1051574218
 20
-12.8954079419
 30
0.0
 10
-18.0597411391
 20
-12.8814013628
 30
0.0
  0
SPLINE
  5
300
100
AcDbEntity
  8
0
100
AcDbSpline
 62
7
  6
CONTINUOUS
 70
0
 71
3
 72
16
 73
12
 74
0
 42
0.0000001
 43
0.0000001
 44
0.0000000001
 40
0.0
 40
0.0
 40
0.0
 40
0.0
 40
0.1434548136
 40
0.283983033
 40
0.4211760112
 40
0.5545238929
 40
0.6803946573
 40
0.7396101066
 40
0.7964760257
 40
0.9021993629
 40
1.0
 40
1.0
 40
1.0
 40
1.0
 10
1.3440054296
 20
-26.1078892325
 30
0.0
 10
1.3455065561
 20
-26.141458519
 30
0.0
 10
1.3472349473
 20
-26.2079878601
 30
0.0
 10
1.3438938656
 20
-26.3066551013
 30
0.0
 10
1.3347517159
 20
-26.4025524306
 30
0.0
 10
1.3211711954
 20
-26.4944760376
 30
0.0
 10
1.3011222026
 20
-26.5667336846
 30
0.0
 10
1.2777710266
 20
-26.6184899343
 30
0.0
 10
1.2523232941
 20
-26.6637865618
 30
0.0
 10
1.2132327201
 20
-26.7119741093
 30
0.0
 10
1.1700371637
 20
-26.7355060016
 30
0.0
 10
1.1481456113
 20
-26.7422568026
 30
0.0
  0
SPLINE
  5
301
100
AcDbEntity
  8
0
100
AcDbSpline
 62
7
  6
CONTINUOUS
 70
0
 71
3
 72
16
 73
12
 74
0
 42
0.0000001
 43
0.0000001
 44
0.0000000001
 40
0.0
 40
0.0
 40
0.0
 40
0.0
 40
0.1422046137
 40
0.2873303548
 40
0.4303159341
 40
0.5663831169
 40
0.6917760068
 40
0.8045887112
 40
0.9057188293
 40
0.9533485157
 40
1.0
 40
1.0
 40
1.0
 40
1.0
 10
15.9158378063
 20
-23.4772677482
 30
0.0
 10
15.9211773589
 20
-23.5966747208
 30
0.0
 10
15.9528952342
 20
-23.8373701839
 30
0.0
 10
16.0557169907
 20
-24.1855467674
 30
0.0
 10
16.2089631765
 20
-24.5091553725
 30
0.0
 10
16.4040150516
 20
-24.7896816416
 30
0.0
 10
16.6304450105
 20
-25.0112869001
 30
0.0
 10
16.8765068453
 20
-25.1612568586
 30
0.0
 10
17.0933091645
 20
-25.2183019927
 30
0.0
 10
17.2583695031
 20
-25.2159304535
 30
0.0
 10
17.3365581127
 20
-25.1998675787
 30
0.0
 10
17.3740282886
 20
-25.1883116134
 30
0.0
  0
SPLINE
  5
302
100
AcDbEntity
  8
0
100
AcDbSpline
 62
7
  6
CONTINUOUS
 70
0
 71
3
 72
16
 73
12
 74
0
 42
0.0000001
 43
0.0000001
 44
0.0000000001
 40
0.0
 40
0.0
 40
0.0
 40
0.0
 40
0.1007900827
 40
0.2195034028
 40
0.2839565194
 40
0.349256407
 40
0.4813292723
 40
0.6135016442
 40
0.7438493935
 40
0.8728495187
 40
1.0
 40
1.0
 40
1.0
 40
1.0
 10
1.0228042768
 20
-26.5817641304
 30
0.0
 10
1.0000208794
 20
-26.5755389551
 30
0.0
 10
0.9537445474
 20
-26.5491019424
 30
0.0
 10
0.911219262
 20
-26.4967336459
 30
0.0
 10
0.8822751711
 20
-26.4461940284
 30
0.0
 10
0.8561977203
 20
-26.3905474567
 30
0.0
 10
0.8334627954
 20
-26.3164250128
 30
0.0
 10
0.8147772085
 20
-26.2258467801
 30
0.0
 10
0.8001147271
 20
-26.1352454264
 30
0.0
 10
0.7903050604
 20
-26.0451540758
 30
0.0
 10
0.787313476
 20
-25.9851848977
 30
0.0
 10
0.7859824244
 20
-25.9554189513
 30
0.0
  0
SPLINE
  5
303
100
AcDbEntity
  8
0
100
AcDbSpline
 62
7
  6
CONTINUOUS
 70
0
 71
3
 72
15
 73
11
 74
0
 42
0.0000001
 43
0.0000001
 44
0.0000000001
 40
0.0
 40
0.0
 40
0.0
 40
0.0
 40
0.1396064001
 40
0.2772112103
 40
0.5443381829
 40
0.6734639018
 40
0.7933480183
 40
0.8491567443
 40
0.9025782254
 40
1.0
 40
1.0
 40
1.0
 40
1.0
 10
0.7859824244
 20
-25.9554189513
 30
0.0
 10
0.7848572199
 20
-25.9302563062
 30
0.0
 10
0.7827317047
 20
-25.8802743514
 30
0.0
 10
0.7835008157
 20
-25.782034368
 30
0.0
 10
0.791228327
 20
-25.6858398487
 30
0.0
 10
0.8058557354
 20
-25.5938312791
 30
0.0
 10
0.8219492953
 20
-25.5408100392
 30
0.0
 10
0.8414493494
 20
-25.5041809141
 30
0.0
 10
0.8627653881
 20
-25.4736821241
 30
0.0
 10
0.8843012019
 20
-25.4549824303
 30
0.0
 10
0.9004648118
 20
-25.4480771431
 30
0.0
  0
SPLINE
  5
304
100
AcDbEntity
  8
0
100
AcDbSpline
 62
7
  6
CONTINUOUS
 70
0
 71
3
 72
9
 73
5
 74
0
 42
0.0000001
 43
0.0000001
 44
0.0000000001
 40
0.0
 40
0.0
 40
0.0
 40
0.0
 40
0.4884661536
 40
1.0
 40
1.0
 40
1.0
 40
1.0
 10
0.8466118397
 20
-25.2841019769
 30
0.0
 10
0.8651839032
 20
-25.2783748223
 30
0.0
 10
0.9052951697
 20
-25.2728152948
 30
0.0
 10
0.945145142
 20
-25.2787814471
 30
0.0
 10
0.9647783453
 20
-25.2841458854
 30
0.0
  0
SPLINE
  5
305
100
AcDbEntity
  8
0
100
AcDbSpline
 62
7
  6
CONTINUOUS
 70
0
 71
3
 72
9
 73
5
 74
0
 42
0.0000001
 43
0.0000001
 44
0.0000000001
 40
0.0
 40
0.0
 40
0.0
 40
0.0
 40
0.4999552502
 40
1.0
 40
1.0
 40
1.0
 40
1.0
 10
1.7799003746
 20
-2.1982053446
 30
0.0
 10
1.7569485629
 20
-2.0963238527
 30
0.0
 10
1.7129871998
 20
-1.8921105053
 30
0.0
 10
1.6681136314
 20
-1.6880975254
 30
0.0
 10
1.6451058139
 20
-1.5862095004
 30
0.0
  0
SPLINE
  5
306
100
AcDbEntity
  8
0
100
AcDbSpline
 62
7
  6
CONTINUOUS
 70
0
 71
3
 72
11
 73
7
 74
0
 42
0.0000001
 43
0.0000001
 44
0.0000000001
 40
0.0
 40
0.0
 40
0.0
 40
0.0
 40
0.5126284611
 40
0.7660906328
 40
0.8875443028
 40
1.0
 40
1.0
 40
1.0
 40
1.0
 10
1.6451058139
 20
-1.5862095004
 30
0.0
 10
1.6254680345
 20
-1.4992418336
 30
0.0
 10
1.596482025
 20
-1.3687708059
 30
0.0
 10
1.5348006912
 20
-1.2259873701
 30
0.0
 10
1.486444461
 20
-1.1560549207
 30
0.0
 10
1.4580187132
 20
-1.1265142964
 30
0.0
 10
1.4428619282
 20
-1.1141527972
 30
0.0
  0
SPLINE
  5
307
100
AcDbEntity
  8
0
100
AcDbSpline
 62
7
  6
CONTINUOUS
 70
0
 71
3
 72
9
 73
5
 74
0
 42
0.0000001
 43
0.0000001
 44
0.0000000001
 40
0.0
 40
0.0
 40
0.0
 40
0.0
 40
0.5334333989
 40
1.0
 40
1.0
 40
1.0
 40
1.0
 10
15.7518170057
 20
14.015143538
 30
0.0
 10
15.7480054361
 20
14.1003806393
 30
0.0
 10
15.7584044358
 20
14.2617176723
 30
0.0
 10
15.8149207063
 20
14.4152879578
 30
0.0
 10
15.8546930706
 20
14.4784333925
 30
0.0
  0
SPLINE
  5
308
100
AcDbEntity
  8
0
100
AcDbSpline
 62
7
  6
CONTINUOUS
 70
0
 71
3
 72
11
 73
7
 74
0
 42
0.0000001
 43
0.0000001
 44
0.0000000001
 40
0.0
 40
0.0
 40
0.0
 40
0.0
 40
0.2828419905
 40
0.5452300763
 40
0.7839616474
 40
1.0
 40
1.0
 40
1.0
 40
1.0
 10
14.7988692447
 20
13.987233687
 30
0.0
 10
14.7943051881
 20
14.0892984519
 30
0.0
 10
14.800051949
 20
14.2871445637
 30
0.0
 10
14.8569033151
 20
14.5662098854
 30
0.0
 10
14.9595595216
 20
14.8062463121
 30
0.0
 10
15.0613170554
 20
14.9384418705
 30
0.0
 10
15.1180871356
 20
14.9919845634
 30
0.0
  0
SPLINE
  5
309
100
AcDbEntity
  8
0
100
AcDbSpline
 62
7
  6
CONTINUOUS
 70
0
 71
3
 72
11
 73
7
 74
0
 42
0.0000001
 43
0.0000001
 44
0.0000000001
 40
0.0
 40
0.0
 40
0.0
 40
0.0
 40
0.2664475581
 40
0.5341801283
 40
0.7832760281
 40
1.0
 40
1.0
 40
1.0
 40
1.0
 10
15.7518170057
 20
14.015143538
 30
0.0
 10
15.7562042695
 20
13.917032343
 30
0.0
 10
15.7902919466
 20
13.7209027819
 30
0.0
 10
15.9032130657
 20
13.4525081551
 30
0.0
 10
16.0655662769
 20
13.2329411078
 30
0.0
 10
16.2074736154
 20
13.1285326762
 30
0.0
 10
16.280712654
 20
13.0966400952
 30
0.0
  0
SPLINE
  5
30A
100
AcDbEntity
  8
0
100
AcDbSpline
 62
7
  6
CONTINUOUS
 70
0
 71
3
 72
14
 73
10
 74
0
 42
0.0000001
 43
0.0000001
 44
0.0000000001
 40
0.0
 40
0.0
 40
0.0
 40
0.0
 40
0.2740737185
 40
0.4124675981
 40
0.5469979965
 40
0.6746442248
 40
0.7931410457
 40
0.9014028241
 40
1.0
 40
1.0
 40
1.0
 40
1.0
 10
14.7988692447
 20
13.987233687
 30
0.0
 10
14.8079413929
 20
13.7843556866
 30
0.0
 10
14.866258775
 20
13.4793294643
 30
0.0
 10
15.0174777969
 20
13.1025331323
 30
0.0
 10
15.1645997305
 20
12.8435289478
 30
0.0
 10
15.33883354
 20
12.6203161722
 30
0.0
 10
15.5334863902
 20
12.4418912361
 30
0.0
 10
15.7409729127
 20
12.3157957063
 30
0.0
 10
15.8891288699
 20
12.2688953247
 30
0.0
 10
15.961276368
 20
12.2573991625
 30
0.0
  0
SPLINE
  5
30B
100
AcDbEntity
  8
0
100
AcDbSpline
 62
7
  6
CONTINUOUS
 70
0
 71
3
 72
11
 73
7
 74
0
 42
0.0000001
 43
0.0000001
 44
0.0000000001
 40
0.0
 40
0.0
 40
0.0
 40
0.0
 40
0.2718343492
 40
0.5231958671
 40
0.7642929973
 40
1.0
 40
1.0
 40
1.0
 40
1.0
 10
1.3609019767
 20
-0.0058554288
 30
0.0
 10
1.3010729039
 20
0.039958359
 30
0.0
 10
1.1727323952
 20
0.1114110872
 30
0.0
 10
0.9703042967
 20
0.1761096087
 30
0.0
 10
0.7716404012
 20
0.2138095906
 30
0.0
 10
0.639984522
 20
0.2269961059
 30
0.0
 10
0.5747867141
 20
0.2313108335
 30
0.0
  0
SPLINE
  5
30C
100
AcDbEntity
  8
RACCORDO
100
AcDbSpline
 62
250
  6
CONTINUOUS
 70
0
 71
3
 72
15
 73
11
 74
0
 42
0.0000001
 43
0.0000001
 44
0.0000000001
 40
0.0
 40
0.0
 40
0.0
 40
0.0
 40
0.1340503506
 40
0.271068484
 40
0.4079814075
 40
0.5417225091
 40
0.6695088134
 40
0.7891343388
 40
0.8993014565
 40
1.0
 40
1.0
 40
1.0
 40
1.0
 10
-23.5009197405
 20
-17.430257627
 30
0.0
 10
-23.4895244283
 20
-17.6850879165
 30
0.0
 10
-23.4306379681
 20
-18.1993203387
 30
0.0
 10
-23.2447618365
 20
-18.9550536897
 30
0.0
 10
-22.9666952329
 20
-19.6814785113
 30
0.0
 10
-22.6067780046
 20
-20.3512714406
 30
0.0
 10
-22.1782965326
 20
-20.9395310479
 30
0.0
 10
-21.6965013488
 20
-21.4244260256
 30
0.0
 10
-21.1787181492
 20
-21.7876363148
 30
0.0
 10
-20.8049336205
 20
-21.9452478987
 30
0.0
 10
-20.6200896544
 20
-21.995753364
 30
0.0
  0
SPLINE
  5
30D
100
AcDbEntity
  8
0
100
AcDbSpline
 62
7
  6
CONTINUOUS
 70
0
 71
3
 72
13
 73
9
 74
0
 42
0.0000001
 43
0.0000001
 44
0.0000000001
 40
0.0
 40
0.0
 40
0.0
 40
0.0
 40
0.1032041459
 40
0.2095406289
 40
0.3216253913
 40
0.4412429993
 40
0.7051226808
 40
1.0
 40
1.0
 40
1.0
 40
1.0
 10
16.489984103
 20
-22.3215252906
 30
0.0
 10
16.4445678203
 20
-22.3355318697
 30
0.0
 10
16.3553792305
 20
-22.3749562443
 30
0.0
 10
16.2359878642
 20
-22.4644804485
 30
0.0
 10
16.1326144182
 20
-22.5822201749
 30
0.0
 10
16.0152056419
 20
-22.7791611989
 30
0.0
 10
15.9232985722
 20
-23.0824599807
 30
0.0
 10
15.9097714667
 20
-23.3416078321
 30
0.0
 10
15.9158378063
 20
-23.4772677482
 30
0.0
  0
SPLINE
  5
30E
100
AcDbEntity
  8
RACCORDO
100
AcDbSpline
 62
250
  6
CONTINUOUS
 70
0
 71
3
 72
15
 73
11
 74
0
 42
0.0000001
 43
0.0000001
 44
0.0000000001
 40
0.0
 40
0.0
 40
0.0
 40
0.0
 40
0.1127240821
 40
0.2200572085
 40
0.3275897405
 40
0.4408514978
 40
0.5638265946
 40
0.6983545564
 40
0.8442993066
 40
1.0
 40
1.0
 40
1.0
 40
1.0
 10
-23.0575195803
 20
32.5118341451
 30
0.0
 10
-23.22798362
 20
32.5584105404
 30
0.0
 10
-23.5744625805
 20
32.6087414922
 30
0.0
 10
-24.0898993829
 20
32.5293928771
 30
0.0
 10
-24.556626472
 20
32.2942439492
 30
0.0
 10
-24.9516678616
 20
31.9178131861
 30
0.0
 10
-25.2617989558
 20
31.4202198802
 30
0.0
 10
-25.4788199928
 20
30.8220537892
 30
0.0
 10
-25.5969198614
 20
30.1456349238
 30
0.0
 10
-25.6071581617
 20
29.6709836604
 30
0.0
 10
-25.5962542381
 20
29.4271421615
 30
0.0
  0
SPLINE
  5
30F
100
AcDbEntity
  8
RACCORDO
100
AcDbSpline
 62
250
  6
CONTINUOUS
 70
0
 71
3
 72
15
 73
11
 74
0
 42
0.0000001
 43
0.0000001
 44
0.0000000001
 40
0.0
 40
0.0
 40
0.0
 40
0.0
 40
0.1340503506
 40
0.271068484
 40
0.4079814075
 40
0.5417225091
 40
0.6695088134
 40
0.7891343388
 40
0.8993014565
 40
1.0
 40
1.0
 40
1.0
 40
1.0
 10
21.1474916776
 20
16.6552097886
 30
0.0
 10
21.1360963654
 20
16.9100400781
 30
0.0
 10
21.0772099052
 20
17.4242725004
 30
0.0
 10
20.8913337736
 20
18.1800058513
 30
0.0
 10
20.61326717
 20
18.906430673
 30
0.0
 10
20.2533499417
 20
19.5762236022
 30
0.0
 10
19.8248684697
 20
20.1644832095
 30
0.0
 10
19.343073286
 20
20.6493781872
 30
0.0
 10
18.8252900863
 20
21.0125884764
 30
0.0
 10
18.4515055576
 20
21.1702000604
 30
0.0
 10
18.2666615915
 20
21.2207055256
 30
0.0
  0
SPLINE
  5
310
100
AcDbEntity
  8
0
100
AcDbSpline
 62
7
  6
CONTINUOUS
 70
0
 71
3
 72
11
 73
7
 74
0
 42
0.0000001
 43
0.0000001
 44
0.0000000001
 40
0.0
 40
0.0
 40
0.0
 40
0.0
 40
0.2664475581
 40
0.5341801283
 40
0.7832760281
 40
1.0
 40
1.0
 40
1.0
 40
1.0
 10
17.4195322181
 20
-23.2795215998
 30
0.0
 10
17.4239194819
 20
-23.3776327948
 30
0.0
 10
17.458007159
 20
-23.5737623559
 30
0.0
 10
17.5709282781
 20
-23.8421569827
 30
0.0
 10
17.7332814894
 20
-24.06172403
 30
0.0
 10
17.8751888279
 20
-24.1661324616
 30
0.0
 10
17.9484278665
 20
-24.1980250426
 30
0.0
  0
SPLINE
  5
311
100
AcDbEntity
  8
0
100
AcDbSpline
 62
7
  6
CONTINUOUS
 70
0
 71
3
 72
14
 73
10
 74
0
 42
0.0000001
 43
0.0000001
 44
0.0000000001
 40
0.0
 40
0.0
 40
0.0
 40
0.0
 40
0.2740737185
 40
0.4124675981
 40
0.5469979965
 40
0.6746442248
 40
0.7931410457
 40
0.9014028241
 40
1.0
 40
1.0
 40
1.0
 40
1.0
 10
16.4665844571
 20
-23.3074314508
 30
0.0
 10
16.4756566053
 20
-23.5103094512
 30
0.0
 10
16.5339739874
 20
-23.8153356735
 30
0.0
 10
16.6851930094
 20
-24.1921320055
 30
0.0
 10
16.832314943
 20
-24.45113619
 30
0.0
 10
17.0065487525
 20
-24.6743489656
 30
0.0
 10
17.2012016026
 20
-24.8527739017
 30
0.0
 10
17.4086881251
 20
-24.9788694315
 30
0.0
 10
17.5568440824
 20
-25.0257698131
 30
0.0
 10
17.6289915804
 20
-25.0372659753
 30
0.0
  0
SPLINE
  5
312
100
AcDbEntity
  8
0
100
AcDbSpline
 62
7
  6
CONTINUOUS
 70
0
 71
3
 72
9
 73
5
 74
0
 42
0.0000001
 43
0.0000001
 44
0.0000000001
 40
0.0
 40
0.0
 40
0.0
 40
0.0
 40
0.5334333989
 40
1.0
 40
1.0
 40
1.0
 40
1.0
 10
17.4195322181
 20
-23.2795215998
 30
0.0
 10
17.4157206486
 20
-23.1942844985
 30
0.0
 10
17.4261196482
 20
-23.0329474655
 30
0.0
 10
17.4826359187
 20
-22.87937718
 30
0.0
 10
17.522408283
 20
-22.8162317452
 30
0.0
  0
SPLINE
  5
313
100
AcDbEntity
  8
0
100
AcDbSpline
 62
7
  6
CONTINUOUS
 70
0
 71
3
 72
11
 73
7
 74
0
 42
0.0000001
 43
0.0000001
 44
0.0000000001
 40
0.0
 40
0.0
 40
0.0
 40
0.0
 40
0.2828419905
 40
0.5452300763
 40
0.7839616474
 40
1.0
 40
1.0
 40
1.0
 40
1.0
 10
16.4665844571
 20
-23.3074314508
 30
0.0
 10
16.4620204006
 20
-23.2053666859
 30
0.0
 10
16.4677671615
 20
-23.0075205741
 30
0.0
 10
16.5246185276
 20
-22.7284552523
 30
0.0
 10
16.6272747341
 20
-22.4884188257
 30
0.0
 10
16.7290322679
 20
-22.3562232673
 30
0.0
 10
16.785802348
 20
-22.3026805744
 30
0.0
  0
SPLINE
  5
314
100
AcDbEntity
  8
RACCORDO
100
AcDbSpline
 62
250
  6
CONTINUOUS
 70
0
 71
3
 72
11
 73
7
 74
0
 42
0.0000001
 43
0.0000001
 44
0.0000000001
 40
0.0
 40
0.0
 40
0.0
 40
0.0
 40
0.2837855776
 40
0.5437500003
 40
0.7796552374
 40
1.0
 40
1.0
 40
1.0
 40
1.0
 10
-20.6200896544
 20
-21.995753364
 30
0.0
 10
-20.6161524052
 20
-22.0838010065
 30
0.0
 10
-20.5905702264
 20
-22.2525544099
 30
0.0
 10
-20.4939489005
 20
-22.4779474573
 30
0.0
 10
-20.3453607022
 20
-22.6491824506
 30
0.0
 10
-20.2153456753
 20
-22.7159098455
 30
0.0
 10
-20.1493317852
 20
-22.7339433183
 30
0.0
  0
SPLINE
  5
315
100
AcDbEntity
  8
RACCORDO
100
AcDbSpline
 62
250
  6
CONTINUOUS
 70
0
 71
3
 72
11
 73
7
 74
0
 42
0.0000001
 43
0.0000001
 44
0.0000000001
 40
0.0
 40
0.0
 40
0.0
 40
0.0
 40
0.2837855776
 40
0.5437500003
 40
0.7796552374
 40
1.0
 40
1.0
 40
1.0
 40
1.0
 10
20.7040915174
 20
-33.2868819835
 30
0.0
 10
20.7080287667
 20
-33.3749296261
 30
0.0
 10
20.7336109455
 20
-33.5436830294
 30
0.0
 10
20.8302322713
 20
-33.7690760768
 30
0.0
 10
20.9788204697
 20
-33.9403110702
 30
0.0
 10
21.1088354966
 20
-34.0070384651
 30
0.0
 10
21.1748493867
 20
-34.0250719379
 30
0.0
  0
SPLINE
  5
316
100
AcDbEntity
  8
RACCORDO
100
AcDbSpline
 62
250
  6
CONTINUOUS
 70
0
 71
3
 72
13
 73
9
 74
0
 42
0.0000001
 43
0.0000001
 44
0.0000000001
 40
0.0
 40
0.0
 40
0.0
 40
0.0
 40
0.1049508515
 40
0.2243351149
 40
0.4901512538
 40
0.7611599137
 40
0.8867830847
 40
1.0
 40
1.0
 40
1.0
 40
1.0
 10
23.2428261753
 20
-30.2021899999
 30
0.0
 10
23.2909573198
 20
-30.2153410153
 30
0.0
 10
23.3955455762
 20
-30.2372570456
 30
0.0
 10
23.6269322551
 20
-30.2662154909
 30
0.0
 10
23.9396257483
 20
-30.2734611616
 30
0.0
 10
24.2541902625
 20
-30.2472904198
 30
0.0
 10
24.4929657991
 20
-30.2047429935
 30
0.0
 10
24.6031654346
 20
-30.176703384
 30
0.0
 10
24.654600636
 20
-30.1608420725
 30
0.0
  0
SPLINE
  5
317
100
AcDbEntity
  8
RACCORDO
100
AcDbSpline
 62
250
  6
CONTINUOUS
 70
0
 71
3
 72
13
 73
9
 74
0
 42
0.0000001
 43
0.0000001
 44
0.0000000001
 40
0.0
 40
0.0
 40
0.0
 40
0.0
 40
0.1049508515
 40
0.2243351149
 40
0.4901512538
 40
0.7611599137
 40
0.8867830847
 40
1.0
 40
1.0
 40
1.0
 40
1.0
 10
21.1474916776
 20
16.6552097886
 30
0.0
 10
21.1956228221
 20
16.6420587732
 30
0.0
 10
21.3002110785
 20
16.620142743
 30
0.0
 10
21.5315977574
 20
16.5911842976
 30
0.0
 10
21.8442912506
 20
16.5839386269
 30
0.0
 10
22.1588557648
 20
16.6101093687
 30
0.0
 10
22.3976313014
 20
16.6526567951
 30
0.0
 10
22.5078309369
 20
16.6806964045
 30
0.0
 10
22.5592661383
 20
16.696557716
 30
0.0
  0
SPLINE
  5
318
100
AcDbEntity
  8
RACCORDO
100
AcDbSpline
 62
250
  6
CONTINUOUS
 70
0
 71
3
 72
12
 73
8
 74
0
 42
0.0000001
 43
0.0000001
 44
0.0000000001
 40
0.0
 40
0.0
 40
0.0
 40
0.0
 40
0.264470251
 40
0.5305720941
 40
0.65847919
 40
0.7801187545
 40
1.0
 40
1.0
 40
1.0
 40
1.0
 10
18.2666615915
 20
21.2207055256
 30
0.0
 10
18.2609253385
 20
21.3489838041
 30
0.0
 10
18.2892578978
 20
21.6090787962
 30
0.0
 10
18.4094609495
 20
21.9099576355
 30
0.0
 10
18.5518406674
 20
22.1172112609
 30
0.0
 10
18.7093321914
 20
22.2824531372
 30
0.0
 10
18.8562115693
 20
22.371967944
 30
0.0
 10
18.9582285308
 20
22.4034273872
 30
0.0
  0
SPLINE
  5
319
100
AcDbEntity
  8
RACCORDO
100
AcDbSpline
 62
250
  6
CONTINUOUS
 70
0
 71
3
 72
12
 73
8
 74
0
 42
0.0000001
 43
0.0000001
 44
0.0000000001
 40
0.0
 40
0.0
 40
0.0
 40
0.0
 40
0.264470251
 40
0.5305720941
 40
0.65847919
 40
0.7801187545
 40
1.0
 40
1.0
 40
1.0
 40
1.0
 10
-23.0575195803
 20
32.5118341451
 30
0.0
 10
-23.0632558334
 20
32.6401124236
 30
0.0
 10
-23.034923274
 20
32.9002074158
 30
0.0
 10
-22.9147202224
 20
33.2010862551
 30
0.0
 10
-22.7723405045
 20
33.4083398804
 30
0.0
 10
-22.6148489804
 20
33.5735817567
 30
0.0
 10
-22.4679696025
 20
33.6630965635
 30
0.0
 10
-22.3659526411
 20
33.6945560068
 30
0.0
  0
SPLINE
  5
31A
100
AcDbEntity
  8
RACCORDO
100
AcDbSpline
 62
250
  6
CONTINUOUS
 70
0
 71
3
 72
13
 73
9
 74
0
 42
0.0000001
 43
0.0000001
 44
0.0000000001
 40
0.0
 40
0.0
 40
0.0
 40
0.0
 40
0.3467343191
 40
0.6238217054
 40
0.7369160817
 40
0.8348266321
 40
0.9207947233
 40
1.0
 40
1.0
 40
1.0
 40
1.0
 10
-25.5962542381
 20
29.4271421615
 30
0.0
 10
-25.6339401852
 20
29.4374392047
 30
0.0
 10
-25.7009165771
 20
29.459165442
 30
0.0
 10
-25.7758619634
 20
29.496410949
 30
0.0
 10
-25.8194389158
 20
29.5302815644
 30
0.0
 10
-25.8420656449
 20
29.5552340544
 30
0.0
 10
-25.8565984196
 20
29.5814441633
 30
0.0
 10
-25.8605263117
 20
29.6000026973
 30
0.0
 10
-25.8609257355
 20
29.6089179997
 30
0.0
  0
SPLINE
  5
31B
100
AcDbEntity
  8
RACCORDO
100
AcDbSpline
 62
250
  6
CONTINUOUS
 70
0
 71
3
 72
13
 73
9
 74
0
 42
0.0000001
 43
0.0000001
 44
0.0000000001
 40
0.0
 40
0.0
 40
0.0
 40
0.0
 40
0.3467343191
 40
0.6238217054
 40
0.7369160817
 40
0.8348266321
 40
0.9207947233
 40
1.0
 40
1.0
 40
1.0
 40
1.0
 10
-23.5009197405
 20
-17.430257627
 30
0.0
 10
-23.5386056876
 20
-17.4199605838
 30
0.0
 10
-23.6055820794
 20
-17.3982343465
 30
0.0
 10
-23.6805274658
 20
-17.3609888395
 30
0.0
 10
-23.7241044181
 20
-17.3271182241
 30
0.0
 10
-23.7467311472
 20
-17.3021657342
 30
0.0
 10
-23.7612639219
 20
-17.2759556252
 30
0.0
 10
-23.765191814
 20
-17.2573970912
 30
0.0
 10
-23.7655912378
 20
-17.2484817888
 30
0.0
  0
ENDSEC
  0
SECTION
  2
OBJECTS
  0
DICTIONARY
  5
C
100
AcDbDictionary
280
0
281
1
  3
ACAD_GROUP
350
D
  3
ACAD_MLINESTYLE
350
17
  3
ACAD_LAYOUT
350
1A
  3
ACAD_PLOTSETTINGS
350
19
  3
ACAD_PLOTSTYLENAME
350
E
  0
DICTIONARY
  5
D
102
{ACAD_REACTORS
330
C
102
}
100
AcDbDictionary
280
0
281
1
  0
ACDBDICTIONARYWDFLT
  5
E
102
{ACAD_REACTORS
330
C
102
}
100
AcDbDictionary
281
1
  3
Normal
350
F
100
AcDbDictionaryWithDefault
340
F
  0
DICTIONARY
  5
17
102
{ACAD_REACTORS
330
C
102
}
100
AcDbDictionary
280
0
281
1
  3
Standard
350
18
  0
DICTIONARY
  5
19
102
{ACAD_REACTORS
330
C
102
}
100
AcDbDictionary
281
1
  0
DICTIONARY
  5
1A
102
{ACAD_REACTORS
330
C
102
}
100
AcDbDictionary
281
1
  3
Model
350
31C
  3
Layout1
350
31D
  0
ACDBPLACEHOLDER
  5
F
102
{ACAD_REACTORS
330
E
102
}
  0
MLINESTYLE
  5
18
102
{ACAD_REACTORS
330
17
102
}
100
AcDbMlineStyle
  2
STANDARD
 70
0
  3

 62
256
 51
90.0
 52
90.0
 71
2
 49
0.5
 62
256
  6
BYLAYER
 49
-0.5
 62
256
  6
BYLAYER
  0
LAYOUT
  5
31C
102
{ACAD_REACTORS
330
1A
102
}
100
AcDbPlotSettings
  1

  2
none_device
  4
ISO_A4_(297.00_x_210.00_MM)
  6

 40
0.0
 41
0.0
 42
0.0
 43
0.0
 44
297.0
 45
210.0
 46
0.0
 47
0.0
 48
0.0
 49
0.0
140
0.0
141
0.0
142
1.0
143
1.0
 70
1024
 72
1
 73
0
 74
0
  7

 75
0
147
1.0
148
0.0
149
0.0
100
AcDbLayout
  1
Model
 70
0
 71
0
 10
0.0
 20
0.0
 11
297.0
 21
210.0
 12
0.0
 22
0.0
 32
0.0
 14
0.0
 24
0.0
 34
0.0
 15
0.0
 25
0.0
 35
0.0
146
0.0
 13
0.0
 23
0.0
 33
0.0
 16
1.0
 26
0.0
 36
0.0
 17
0.0
 27
1.0
 37
0.0
 76
0
330
20B
345
0
346
0
  0
LAYOUT
  5
31D
102
{ACAD_REACTORS
330
1A
102
}
100
AcDbPlotSettings
  1

  2
none_device
  4
ISO_A4_(297.00_x_210.00_MM)
  6

 40
0.0
 41
0.0
 42
0.0
 43
0.0
 44
297.0
 45
210.0
 46
0.0
 47
0.0
 48
0.0
 49
0.0
140
0.0
141
0.0
142
1.0
143
1.0
 70
0
 72
1
 73
0
 74
0
  7

 75
0
147
1.0
148
0.0
149
0.0
100
AcDbLayout
  1
Layout1
 70
0
 71
1
 10
0.0
 20
0.0
 11
297.0
 21
210.0
 12
0.0
 22
0.0
 32
0.0
 14
0.0
 24
0.0
 34
0.0
 15
0.0
 25
0.0
 35
0.0
146
0.0
 13
0.0
 23
0.0
 33
0.0
 16
1.0
 26
0.0
 36
0.0
 17
0.0
 27
1.0
 37
0.0
 76
0
330
20C
345
0
346
0
  0
ENDSEC
  0
EOF
