  0
SECTION
  2
HEADER
  9
$ACADVER
  1
AC1024
  9
$DWGCODEPAGE
  3
ANSI_1252
  9
$EXTMAX
 10
297.0
 20
210.0
 30
0.0
  9
$EXTMIN
 10
0.0
 20
0.0
 30
0.0
  9
$LIMMIN
 10
0.0
 20
0.0
  9
$LIMMAX
 10
297.0
 20
210.0
  9
$VIEWCTR
 10
148.5
 20
105.0
  9
$VIEWSIZE
 40
210.0
  9
$CLAYER
  8
0
  9
$LTSCALE
 40
16.335
  9
$CELTYPE
  6
BYLAYER
  9
$DIMSCALE
 40
1.0
  9
$DIMASZ
 40
3.0
  9
$DIMEXO
 40
0.5
  9
$DIMDLI
 40
11.286
  9
$DIMEXE
 40
1.5
  9
$DIMCEN
 40
2.673
  9
$DIMLFAC
 40
1.0
  9
$DIMBLK
  1
_FILLED
  9
$DIMALT
 70
0
  9
$DIMALTF
 40
0.0393700787
  9
$DIMTXT
 40
3.0
  9
$DIMTOL
 70
1
  9
$DIMLIM
 70
0
  9
$DIMTFAC
 40
1.0
  9
$DIMTP
 40
0.01
  9
$DIMTM
 40
0.01
  9
$DIMGAP
 40
0.625
  9
$DIMDSEP
 70
44
  9
$AUNITS
 70
0
  9
$PDMODE
 70
3
  9
$PDSIZE
 40
3.0
  9
$HANDSEED
  5
319
  9
$TILEMODE
 70
1
  9
$MEASUREMENT
 70
1
  9
$INSUNITS
 70
4
  0
ENDSEC
  0
SECTION
  2
CLASSES
  0
CLASS
  1
ACDBDICTIONARYWDFLT
  2
AcDbDictionaryWithDefault
  3
AutoCAD 2000
 90
0
 91
1
280
0
281
0
  0
CLASS
  1
ACDBPLACEHOLDER
  2
AcDbPlaceHolder
  3
AutoCAD 2000
 90
0
 91
1
280
0
281
0
  0
CLASS
  1
LAYOUT
  2
AcDbLayout
  3
AutoCAD 2000
 90
0
 91
0
280
0
281
0
  0
ENDSEC
  0
SECTION
  2
TABLES
  0
TABLE
  2
VPORT
  5
8
100
AcDbSymbolTable
 70
2
  0
VPORT
  5
1F4
100
AcDbSymbolTableRecord
100
AcDbViewportTableRecord
  2
*ACTIVE
 70
0
 10
0.0
 20
0.0
 11
1.0
 21
1.0
 12
148.5
 22
105.0
 13
0.0
 23
0.0
 14
1.0
 24
1.0
 15
0.0
 25
0.0
 16
0.0
 26
0.0
 36
1.0
 17
0.0
 27
0.0
 37
0.0
 40
210.0
 41
1.4142857143
 42
50.0
 43
0.0
 44
0.0
 50
0.0
 51
0.0
 71
0
 72
100
 73
1
 74
1
 75
0
 76
0
 77
0
 78
0
  0
ENDTAB
  0
TABLE
  2
LTYPE
  5
5
100
AcDbSymbolTable
 70
6
  0
LTYPE
  5
14
100
AcDbSymbolTableRecord
100
AcDbLinetypeTableRecord
  2
BYBLOCK
 70
0
  3

 72
65
 73
0
 40
0.0
  0
LTYPE
  5
15
100
AcDbSymbolTableRecord
100
AcDbLinetypeTableRecord
  2
BYLAYER
 70
0
  3

 72
65
 73
0
 40
0.0
  0
LTYPE
  5
16
100
AcDbSymbolTableRecord
100
AcDbLinetypeTableRecord
  2
CONTINUOUS
 70
64
  3
Solid line
 72
65
 73
0
 40
0.0
  0
LTYPE
  5
1F5
100
AcDbSymbolTableRecord
100
AcDbLinetypeTableRecord
  2
CENTER
 70
64
  3
____ _ ____ _ ____ _ ____ _ ____ _ ____ _ ____
 72
65
 73
4
 40
0.6
 49
0.375
 74
0
 49
-0.075
 74
0
 49
0.075
 74
0
 49
-0.075
 74
0
  0
LTYPE
  5
1F6
100
AcDbSymbolTableRecord
100
AcDbLinetypeTableRecord
  2
HIDDEN
 70
64
  3
- - - - - - - - - - - - - - - - - - - -
 72
65
 73
2
 40
0.2
 49
0.1
 74
0
 49
-0.1
 74
0
  0
LTYPE
  5
1F7
100
AcDbSymbolTableRecord
100
AcDbLinetypeTableRecord
  2
PHANTOM
 70
64
  3
_____ _ _ _____ _ _ _____ _ _ _____
 72
65
 73
6
 40
0.8
 49
0.45
 74
0
 49
-0.05
 74
0
 49
0.1
 74
0
 49
-0.05
 74
0
 49
0.1
 74
0
 49
-0.05
 74
0
  0
LTYPE
  5
1F8
100
AcDbSymbolTableRecord
100
AcDbLinetypeTableRecord
  2
DOT
 70
64
  3
. . . . . . . . . . . . . . . . . . . .
 72
65
 73
2
 40
0.2
 49
0.1
 74
0
 49
-0.1
 74
0
  0
LTYPE
  5
1F9
100
AcDbSymbolTableRecord
100
AcDbLinetypeTableRecord
  2
DASHED
 70
64
  3
- - - - - - - - - - - - - - - - - - - -
 72
65
 73
2
 40
0.2
 49
0.1
 74
0
 49
-0.1
 74
0
  0
ENDTAB
  0
TABLE
  2
LAYER
  5
2
100
AcDbSymbolTable
 70
36
  0
LAYER
  5
10
100
AcDbSymbolTableRecord
100
AcDbLayerTableRecord
  2
0
 70
0
 62
7
  6
CONTINUOUS
370
-3
390
F
  0
LAYER
  5
1FA
100
AcDbSymbolTableRecord
100
AcDbLayerTableRecord
  2
DEFAULT_1
 70
0
 62
7
  6
CENTER
370
-3
390
F
  0
LAYER
  5
1FB
100
AcDbSymbolTableRecord
100
AcDbLayerTableRecord
  2
DEFAULT_2
 70
0
 62
7
  6
HIDDEN
370
-3
390
F
  0
LAYER
  5
1FC
100
AcDbSymbolTableRecord
100
AcDbLayerTableRecord
  2
DEFAULT_3
 70
0
 62
7
  6
PHANTOM
370
-3
390
F
  0
LAYER
  5
1FD
100
AcDbSymbolTableRecord
100
AcDbLayerTableRecord
  2
ASSI
 70
0
 62
7
  6
CONTINUOUS
370
-3
390
F
  0
LAYER
  5
1FE
100
AcDbSymbolTableRecord
100
AcDbLayerTableRecord
  2
COORDINATE
 70
0
 62
7
  6
CONTINUOUS
370
-3
390
F
  0
LAYER
  5
1FF
100
AcDbSymbolTableRecord
100
AcDbLayerTableRecord
  2
COPY_PUBLISH
 70
0
 62
7
  6
CONTINUOUS
370
-3
390
F
  0
LAYER
  5
200
100
AcDbSymbolTableRecord
100
AcDbLayerTableRecord
  2
COSMETIC
 70
0
 62
7
  6
CONTINUOUS
370
-3
390
F
  0
LAYER
  5
201
100
AcDbSymbolTableRecord
100
AcDbLayerTableRecord
  2
CURVE
 70
0
 62
7
  6
CONTINUOUS
370
-3
390
F
  0
LAYER
  5
202
100
AcDbSymbolTableRecord
100
AcDbLayerTableRecord
  2
IMPORT_IGES
 70
0
 62
7
  6
CONTINUOUS
370
-3
390
F
  0
LAYER
  5
203
100
AcDbSymbolTableRecord
100
AcDbLayerTableRecord
  2
NOTE
 70
0
 62
7
  6
CONTINUOUS
370
-3
390
F
  0
LAYER
  5
204
100
AcDbSymbolTableRecord
100
AcDbLayerTableRecord
  2
PIANI
 70
0
 62
7
  6
CONTINUOUS
370
-3
390
F
  0
LAYER
  5
205
100
AcDbSymbolTableRecord
100
AcDbLayerTableRecord
  2
PUNTI
 70
0
 62
7
  6
CONTINUOUS
370
-3
390
F
  0
LAYER
  5
206
100
AcDbSymbolTableRecord
100
AcDbLayerTableRecord
  2
RACCORDO
 70
0
 62
7
  6
CONTINUOUS
370
-3
390
F
  0
LAYER
  5
207
100
AcDbSymbolTableRecord
100
AcDbLayerTableRecord
  2
SNAPLINE
 70
0
 62
7
  6
CONTINUOUS
370
-3
390
F
  0
LAYER
  5
208
100
AcDbSymbolTableRecord
100
AcDbLayerTableRecord
  2
TRASH
 70
0
 62
7
  6
CONTINUOUS
370
-3
390
F
  0
ENDTAB
  0
TABLE
  2
STYLE
  5
3
100
AcDbSymbolTable
 70
1
  0
STYLE
  5
11
100
AcDbSymbolTableRecord
100
AcDbTextStyleTableRecord
  2
STANDARD
 70
0
 40
0.0
 41
0.8
 50
0.0
 71
0
 42
0.2
  3
txt
  4

  0
STYLE
  5
209
100
AcDbSymbolTableRecord
100
AcDbTextStyleTableRecord
  2
TEXTSTYLE_1
 70
0
 40
0.0
 41
0.8
 50
0.0
 71
0
 42
0.2
  3
gdt
  4

  0
ENDTAB
  0
TABLE
  2
VIEW
  5
6
100
AcDbSymbolTable
 70
0
  0
ENDTAB
  0
TABLE
  2
UCS
  5
7
100
AcDbSymbolTable
 70
0
  0
ENDTAB
  0
TABLE
  2
APPID
  5
9
100
AcDbSymbolTable
 70
1
  0
APPID
  5
20A
100
AcDbSymbolTableRecord
100
AcDbRegAppTableRecord
  2
ACAD
 70
0
  0
ENDTAB
  0
TABLE
  2
BLOCK_RECORD
  5
1
100
AcDbSymbolTable
 70
0
  0
BLOCK_RECORD
  5
20B
100
AcDbSymbolTableRecord
100
AcDbBlockTableRecord
  2
*Model_Space
  0
BLOCK_RECORD
  5
20C
100
AcDbSymbolTableRecord
100
AcDbBlockTableRecord
  2
*Paper_Space
  0
BLOCK_RECORD
  5
20D
100
AcDbSymbolTableRecord
100
AcDbBlockTableRecord
  2
_FILLED
  0
ENDTAB
  0
TABLE
  2
DIMSTYLE
  5
A
100
AcDbSymbolTable
 70
1
100
AcDbDimStyleTable
 71
0
  0
DIMSTYLE
105
20E
100
AcDbSymbolTableRecord
100
AcDbDimStyleTableRecord
  2
STANDARD
 70
0
  3

  4

 40
1.0
 41
3.0
 42
0.5
 43
0.38
 44
1.5
 45
0.0
 46
0.0
 47
0.01
 48
0.01
140
3.0
141
0.09
142
0.0
143
25.4
144
1.0
145
0.0
146
1.0
147
0.625
 71
1.0
 72
0.0
 73
0
 74
0
 75
0
 76
0
 77
1
 78
8
 79
2
170
0
171
1
172
0
173
0
174
0
175
0
176
0
177
0
178
0
270
2
179
2
271
2
272
2
273
2
274
2
275
0
280
0
281
0
282
0
283
1
284
8
285
0
286
0
287
3
288
0
340
11
278
44
341
20D
342
20D
343
20D
344
20D
  0
ENDTAB
  0
ENDSEC
  0
SECTION
  2
BLOCKS
  0
BLOCK
  5
20
100
AcDbEntity
  8
0
100
AcDbBlockBegin
  2
*Model_Space
 70
0
 10
0.0
 20
0.0
 30
0.0
  3
*Model_Space
  1

  0
ENDBLK
  5
21
100
AcDbEntity
  8
0
100
AcDbBlockEnd
  0
BLOCK
  5
1C
100
AcDbEntity
  8
0
100
AcDbBlockBegin
  2
*Paper_Space
 70
0
 10
0.0
 20
0.0
 30
0.0
  3
*Paper_Space
  1

  0
ENDBLK
  5
1D
100
AcDbEntity
  8
0
100
AcDbBlockEnd
  0
BLOCK
  5
20F
100
AcDbEntity
  8
0
100
AcDbBlockBegin
  2
_FILLED
 70
64
 10
0.0
 20
0.0
  3
_FILLED
  1

  0
SOLID
  5
210
100
AcDbEntity
  8
0
  6
BYBLOCK
 62
0
100
AcDbTrace
 10
0.0
 20
0.0
 11
-1.0
 21
0.3166666667
 12
-1.0
 22
-0.3166666667
 13
-1.0
 23
-0.3166666667
  0
ENDBLK
  5
211
100
AcDbEntity
  8
0
  6
BYBLOCK
 62
0
100
AcDbBlockEnd
  0
ENDSEC
  0
SECTION
  2
ENTITIES
  0
LINE
  5
212
100
AcDbEntity
  8
ASSI
100
AcDbLine
 62
7
  6
CONTINUOUS
 10
-12.1268173348
 20
26.0886695014
 11
-13.088105533
 21
25.8111695014
  0
LINE
  5
213
100
AcDbEntity
  8
RACCORDO
100
AcDbLine
 62
250
  6
CONTINUOUS
 10
-11.2947670405
 20
25.8044389443
 11
-12.2560552387
 21
25.5269389443
  0
LINE
  5
214
100
AcDbEntity
  8
RACCORDO
100
AcDbLine
 62
7
  6
CONTINUOUS
 10
-14.0560552387
 20
23.9680932175
 11
-14.0560552387
 21
-1.4930536538
  0
LINE
  5
215
100
AcDbEntity
  8
RACCORDO
100
AcDbLine
 62
250
  6
CONTINUOUS
 10
-13.9756704809
 20
23.8180932175
 11
-13.9756704809
 21
-1.6430536538
  0
LINE
  5
216
100
AcDbEntity
  8
RACCORDO
100
AcDbLine
 62
7
  6
CONTINUOUS
 10
-12.6488474411
 20
-5.064302475
 11
11.2011525589
 21
-25.7190083553
  0
LINE
  5
217
100
AcDbEntity
  8
RACCORDO
100
AcDbLine
 62
250
  6
CONTINUOUS
 10
-12.7756704809
 20
-4.7607451074
 11
11.0743295191
 21
-25.4154509877
  0
LINE
  5
218
100
AcDbEntity
  8
0
100
AcDbLine
 62
7
  6
CONTINUOUS
 10
-1.377383862
 20
-13.9389205519
 11
-1.325709912
 21
-13.9836715053
  0
LINE
  5
219
100
AcDbEntity
  8
0
100
AcDbLine
 62
7
  6
CONTINUOUS
 10
-1.231963812
 20
-14.0648580094
 11
-1.180304112
 21
-14.1095966219
  0
LINE
  5
21A
100
AcDbEntity
  8
0
100
AcDbLine
 62
7
  6
CONTINUOUS
 10
-0.745663362
 20
-14.4860065529
 11
-0.698790312
 21
-14.526599805
  0
LINE
  5
21B
100
AcDbEntity
  8
0
100
AcDbLine
 62
7
  6
CONTINUOUS
 10
-0.909179112
 20
-14.186630361
 11
-0.745663362
 21
-14.3282391544
  0
LINE
  5
21C
100
AcDbEntity
  8
0
100
AcDbLine
 62
7
  6
CONTINUOUS
 10
-0.698790312
 20
-14.3688324065
 11
-0.643920462
 21
-14.4163510905
  0
LINE
  5
21D
100
AcDbEntity
  8
0
100
AcDbLine
 62
7
  6
CONTINUOUS
 10
-0.643920462
 20
-14.3462427834
 11
-0.698790312
 21
-14.2987240993
  0
LINE
  5
21E
100
AcDbEntity
  8
0
100
AcDbLine
 62
7
  6
CONTINUOUS
 10
-0.745663362
 20
-14.2581308473
 11
-0.866041812
 21
-14.1538800515
  0
LINE
  5
21F
100
AcDbEntity
  8
0
100
AcDbLine
 62
7
  6
CONTINUOUS
 10
-0.6309300809
 20
-14.3424927834
 11
-0.6857999309
 21
-14.2949740993
  0
LINE
  5
220
100
AcDbEntity
  8
0
100
AcDbLine
 62
7
  6
CONTINUOUS
 10
-0.745663362
 20
-14.2431308473
 11
-0.8530514309
 21
-14.1501300515
  0
LINE
  5
221
100
AcDbEntity
  8
0
100
AcDbLine
 62
7
  6
CONTINUOUS
 10
-1.180304112
 20
-13.8300495972
 11
-1.0600460914
 21
-13.934196098
  0
LINE
  5
222
100
AcDbEntity
  8
0
100
AcDbLine
 62
7
  6
CONTINUOUS
 10
-1.0721001693
 20
-13.8471932132
 11
-1.180304112
 21
-13.7534858501
  0
LINE
  5
223
100
AcDbEntity
  8
0
100
AcDbLine
 62
7
  6
CONTINUOUS
 10
-1.0591097898
 20
-13.8434432119
 11
-1.1673137309
 21
-13.7497358501
  0
LINE
  5
224
100
AcDbEntity
  8
0
100
AcDbLine
 62
7
  6
CONTINUOUS
 10
-1.180304112
 20
-13.5237600543
 11
-1.072099376
 21
-13.6174681045
  0
LINE
  5
225
100
AcDbEntity
  8
0
100
AcDbLine
 62
7
  6
CONTINUOUS
 10
-0.698790312
 20
-13.8641994903
 11
-0.731901162
 21
-13.8355246531
  0
LINE
  5
226
100
AcDbEntity
  8
0
100
AcDbLine
 62
7
  6
CONTINUOUS
 10
-1.0600454205
 20
-13.5513433891
 11
-1.231963812
 21
-13.4024576947
  0
LINE
  5
227
100
AcDbEntity
  8
0
100
AcDbLine
 62
7
  6
CONTINUOUS
 10
-1.325709912
 20
-13.3212711906
 11
-1.377383862
 21
-13.2765202372
  0
LINE
  5
228
100
AcDbEntity
  8
0
100
AcDbLine
 62
7
  6
CONTINUOUS
 10
-0.6857999309
 20
-13.8604494903
 11
-0.7189107809
 21
-13.8317746531
  0
LINE
  5
229
100
AcDbEntity
  8
0
100
AcDbLine
 62
7
  6
CONTINUOUS
 10
-1.3127195309
 20
-13.3175211906
 11
-1.3643934809
 21
-13.2727702372
  0
LINE
  5
22A
100
AcDbEntity
  8
0
100
AcDbLine
 62
7
  6
CONTINUOUS
 10
-1.0470550394
 20
-13.5475933891
 11
-1.2189734309
 21
-13.3987076947
  0
LINE
  5
22B
100
AcDbEntity
  8
0
100
AcDbLine
 62
7
  6
CONTINUOUS
 10
-1.778856162
 20
1.1271036005
 11
-1.911437712
 21
0.4372692898
  0
LINE
  5
22C
100
AcDbEntity
  8
0
100
AcDbLine
 62
7
  6
CONTINUOUS
 10
-1.855016262
 20
0.0240682614
 11
-1.638070662
 21
1.005179781
  0
LINE
  5
22D
100
AcDbEntity
  8
0
100
AcDbLine
 62
7
  6
CONTINUOUS
 10
-1.8420258809
 20
0.0278182614
 11
-1.6250802809
 21
1.008929781
  0
LINE
  5
22E
100
AcDbEntity
  8
0
100
AcDbLine
 62
7
  6
CONTINUOUS
 10
-2.1801401309
 20
1.4896257118
 11
-2.193130512
 21
1.4858757118
  0
LINE
  5
22F
100
AcDbEntity
  8
0
100
AcDbLine
 62
7
  6
CONTINUOUS
 10
-2.0270988809
 20
1.3570881014
 11
-2.040089262
 21
1.3533381014
  0
LINE
  5
230
100
AcDbEntity
  8
0
100
AcDbLine
 62
7
  6
CONTINUOUS
 10
-2.193130512
 20
1.4858757118
 11
-1.979168412
 21
0.1315871772
  0
LINE
  5
231
100
AcDbEntity
  8
0
100
AcDbLine
 62
7
  6
CONTINUOUS
 10
-1.911437712
 20
0.4372692898
 11
-2.040089262
 21
1.3533381014
  0
LINE
  5
232
100
AcDbEntity
  8
0
100
AcDbLine
 62
7
  6
CONTINUOUS
 10
-1.9036276344
 20
0.4779058602
 11
-2.0270988809
 21
1.3570881014
  0
LINE
  5
233
100
AcDbEntity
  8
0
100
AcDbLine
 62
7
  6
CONTINUOUS
 10
-0.684582912
 20
-0.9895567532
 11
-0.747695262
 21
0.2340920657
  0
LINE
  5
234
100
AcDbEntity
  8
0
100
AcDbLine
 62
7
  6
CONTINUOUS
 10
-0.6715925309
 20
-0.9858067532
 11
-0.7347048809
 21
0.2378420657
  0
LINE
  5
235
100
AcDbEntity
  8
0
100
AcDbLine
 62
7
  6
CONTINUOUS
 10
-0.851347362
 20
-0.084986767
 11
-0.822402762
 21
-0.8702012619
  0
LINE
  5
236
100
AcDbEntity
  8
0
100
AcDbLine
 62
7
  6
CONTINUOUS
 10
-1.585789062
 20
0.9599727354
 11
-1.585789062
 21
-0.2090893332
  0
LINE
  5
237
100
AcDbEntity
  8
0
100
AcDbLine
 62
7
  6
CONTINUOUS
 10
-1.444907262
 20
-0.331096551
 11
-1.444907262
 21
0.8379655176
  0
LINE
  5
238
100
AcDbEntity
  8
0
100
AcDbLine
 62
7
  6
CONTINUOUS
 10
-1.4319168809
 20
-0.327346551
 11
-1.4319168809
 21
0.8417155176
  0
LINE
  5
239
100
AcDbEntity
  8
0
100
AcDbLine
 62
7
  6
CONTINUOUS
 10
-1.377383862
 20
-13.2765202372
 11
-1.377383862
 21
-13.9389205519
  0
LINE
  5
23A
100
AcDbEntity
  8
0
100
AcDbLine
 62
7
  6
CONTINUOUS
 10
-1.325709912
 20
-13.9836715053
 11
-1.325709912
 21
-13.3212711906
  0
LINE
  5
23B
100
AcDbEntity
  8
0
100
AcDbLine
 62
7
  6
CONTINUOUS
 10
-1.3127195309
 20
-13.9799215053
 11
-1.3127195309
 21
-13.3175211906
  0
LINE
  5
23C
100
AcDbEntity
  8
0
100
AcDbLine
 62
7
  6
CONTINUOUS
 10
-1.231963812
 20
-13.4024576947
 11
-1.231963812
 21
-14.0648580094
  0
LINE
  5
23D
100
AcDbEntity
  8
0
100
AcDbLine
 62
7
  6
CONTINUOUS
 10
-1.180304112
 20
-14.1095966219
 11
-1.180304112
 21
-13.8300495972
  0
LINE
  5
23E
100
AcDbEntity
  8
0
100
AcDbLine
 62
7
  6
CONTINUOUS
 10
-1.180304112
 20
-13.7534858501
 11
-1.180304112
 21
-13.5237600543
  0
LINE
  5
23F
100
AcDbEntity
  8
0
100
AcDbLine
 62
7
  6
CONTINUOUS
 10
-1.1673137309
 20
-14.1058466219
 11
-1.1673137309
 21
-13.8412995972
  0
LINE
  5
240
100
AcDbEntity
  8
0
100
AcDbLine
 62
7
  6
CONTINUOUS
 10
-1.1673137309
 20
-13.7497358501
 11
-1.1673137309
 21
-13.5350100543
  0
LINE
  5
241
100
AcDbEntity
  8
0
100
AcDbLine
 62
7
  6
CONTINUOUS
 10
-0.909179112
 20
-14.1072962853
 11
-0.909179112
 21
-14.186630361
  0
LINE
  5
242
100
AcDbEntity
  8
0
100
AcDbLine
 62
7
  6
CONTINUOUS
 10
-0.745663362
 20
-13.9611923004
 11
-0.745663362
 21
-14.2581308473
  0
LINE
  5
243
100
AcDbEntity
  8
0
100
AcDbLine
 62
7
  6
CONTINUOUS
 10
-0.745663362
 20
-14.3282391544
 11
-0.745663362
 21
-14.4860065529
  0
LINE
  5
244
100
AcDbEntity
  8
0
100
AcDbLine
 62
7
  6
CONTINUOUS
 10
-0.698790312
 20
-14.526599805
 11
-0.698790312
 21
-14.3688324065
  0
LINE
  5
245
100
AcDbEntity
  8
0
100
AcDbLine
 62
7
  6
CONTINUOUS
 10
-0.698790312
 20
-14.2987240993
 11
-0.698790312
 21
-13.8641994903
  0
LINE
  5
246
100
AcDbEntity
  8
0
100
AcDbLine
 62
7
  6
CONTINUOUS
 10
-0.6857999309
 20
-14.522849805
 11
-0.6857999309
 21
-14.3800824065
  0
LINE
  5
247
100
AcDbEntity
  8
0
100
AcDbLine
 62
7
  6
CONTINUOUS
 10
-0.6857999309
 20
-14.2949740993
 11
-0.6857999309
 21
-13.8604494903
  0
LINE
  5
248
100
AcDbEntity
  8
0
100
AcDbLine
 62
7
  6
CONTINUOUS
 10
-0.643920462
 20
-14.4163510905
 11
-0.643920462
 21
-14.3462427834
  0
LINE
  5
249
100
AcDbEntity
  8
0
100
AcDbLine
 62
7
  6
CONTINUOUS
 10
-0.6309300809
 20
-14.4126010905
 11
-0.6309300809
 21
-14.3424927834
  0
LINE
  5
24A
100
AcDbEntity
  8
0
100
AcDbLine
 62
7
  6
CONTINUOUS
 10
-0.0660260722
 20
-0.369908516
 11
-0.0660260722
 21
-1.5252425605
  0
LINE
  5
24B
100
AcDbEntity
  8
0
100
AcDbLine
 62
7
  6
CONTINUOUS
 10
0.0696174342
 20
-0.9937818871
 11
0.0696174342
 21
-0.6728708609
  0
LINE
  5
24C
100
AcDbEntity
  8
0
100
AcDbLine
 62
7
  6
CONTINUOUS
 10
0.0742888628
 20
-1.6467588587
 11
0.0742888628
 21
-1.1892800637
  0
LINE
  5
24D
100
AcDbEntity
  8
0
100
AcDbLine
 62
7
  6
CONTINUOUS
 10
0.0826078153
 20
-0.9900318871
 11
0.0826078153
 21
-0.6804526151
  0
LINE
  5
24E
100
AcDbEntity
  8
0
100
AcDbLine
 62
7
  6
CONTINUOUS
 10
0.0872792438
 20
-1.6430088587
 11
0.0872792438
 21
-1.2005300637
  0
LINE
  5
24F
100
AcDbEntity
  8
0
100
AcDbLine
 62
7
  6
CONTINUOUS
 10
-1.234288062
 20
-0.5134981287
 11
-1.203885912
 21
0.223502437
  0
LINE
  5
250
100
AcDbEntity
  8
0
100
AcDbLine
 62
7
  6
CONTINUOUS
 10
-1.2212976809
 20
-0.5097481287
 11
-1.1934184708
 21
0.166092022
  0
LINE
  5
251
100
AcDbEntity
  8
0
100
AcDbLine
 62
7
  6
CONTINUOUS
 10
-1.308124962
 20
0.719438423
 11
-1.369066212
 21
-0.3967768269
  0
LINE
  5
252
100
AcDbEntity
  8
0
100
AcDbLine
 62
7
  6
CONTINUOUS
 10
-0.455414712
 20
-0.7740671161
 11
-0.385267362
 21
-0.400988958
  0
LINE
  5
253
100
AcDbEntity
  8
0
100
AcDbLine
 62
7
  6
CONTINUOUS
 10
-0.4424243309
 20
-0.7703171161
 11
-0.380196763
 21
-0.43936026
  0
LINE
  5
254
100
AcDbEntity
  8
0
100
AcDbLine
 62
7
  6
CONTINUOUS
 10
-0.523107312
 20
-1.1293987249
 11
-0.484232862
 21
-0.9296925306
  0
LINE
  5
255
100
AcDbEntity
  8
0
100
AcDbLine
 62
7
  6
CONTINUOUS
 10
-0.5101169309
 20
-1.1256487249
 11
-0.4737411338
 21
-0.9387786338
  0
LINE
  5
256
100
AcDbEntity
  8
0
100
AcDbLine
 62
7
  6
CONTINUOUS
 10
-0.450763512
 20
-0.0230583729
 11
-0.662460762
 21
-1.0087150971
  0
LINE
  5
257
100
AcDbEntity
  8
0
100
AcDbLine
 62
7
  6
CONTINUOUS
 10
-0.887084112
 20
0.3548063508
 11
-1.027965762
 21
-0.1722145778
  0
LINE
  5
258
100
AcDbEntity
  8
0
100
AcDbLine
 62
7
  6
CONTINUOUS
 10
-1.018855812
 20
-0.70006793
 11
-0.851347362
 21
-0.084986767
  0
LINE
  5
259
100
AcDbEntity
  8
0
100
AcDbLine
 62
7
  6
CONTINUOUS
 10
-1.0058654309
 20
-0.69631793
 11
-0.8499204226
 21
-0.1236970439
  0
LINE
  5
25A
100
AcDbEntity
  8
0
100
AcDbLine
 62
7
  6
CONTINUOUS
 10
-1.7658657809
 20
1.1308536005
 11
-1.778856162
 21
1.1271036005
  0
LINE
  5
25B
100
AcDbEntity
  8
RACCORDO
100
AcDbLine
 62
250
  6
CONTINUOUS
 10
12.5552329595
 20
5.149733064
 11
11.5939447613
 21
4.872233064
  0
LINE
  5
25C
100
AcDbEntity
  8
0
100
AcDbLine
 62
7
  6
CONTINUOUS
 10
-1.6250802809
 20
1.008929781
 11
-1.638070662
 21
1.005179781
  0
LINE
  5
25D
100
AcDbEntity
  8
0
100
AcDbLine
 62
7
  6
CONTINUOUS
 10
-1.5727986809
 20
0.9637227354
 11
-1.585789062
 21
0.9599727354
  0
LINE
  5
25E
100
AcDbEntity
  8
0
100
AcDbLine
 62
7
  6
CONTINUOUS
 10
-1.4319168809
 20
0.8417155176
 11
-1.444907262
 21
0.8379655176
  0
LINE
  5
25F
100
AcDbEntity
  8
0
100
AcDbLine
 62
7
  6
CONTINUOUS
 10
-1.2951345809
 20
0.723188423
 11
-1.308124962
 21
0.719438423
  0
LINE
  5
260
100
AcDbEntity
  8
0
100
AcDbLine
 62
7
  6
CONTINUOUS
 10
-1.1543693309
 20
0.6012821405
 11
-1.167359712
 21
0.5975321405
  0
LINE
  5
261
100
AcDbEntity
  8
0
100
AcDbLine
 62
7
  6
CONTINUOUS
 10
-0.8740937309
 20
0.3585563508
 11
-0.887084112
 21
0.3548063508
  0
LINE
  5
262
100
AcDbEntity
  8
0
100
AcDbLine
 62
7
  6
CONTINUOUS
 10
-1.8420258809
 20
0.0278182614
 11
-1.855016262
 21
0.0240682614
  0
LINE
  5
263
100
AcDbEntity
  8
0
100
AcDbLine
 62
7
  6
CONTINUOUS
 10
-0.7347048809
 20
0.2378420657
 11
-0.747695262
 21
0.2340920657
  0
LINE
  5
264
100
AcDbEntity
  8
0
100
AcDbLine
 62
7
  6
CONTINUOUS
 10
-0.4377731309
 20
-0.0193083729
 11
-0.450763512
 21
-0.0230583729
  0
LINE
  5
265
100
AcDbEntity
  8
0
100
AcDbLine
 62
7
  6
CONTINUOUS
 10
-1.4319168809
 20
-0.327346551
 11
-1.444907262
 21
-0.331096551
  0
LINE
  5
266
100
AcDbEntity
  8
0
100
AcDbLine
 62
7
  6
CONTINUOUS
 10
-0.3014868809
 20
-0.1373357276
 11
-0.314477262
 21
-0.1410857276
  0
LINE
  5
267
100
AcDbEntity
  8
0
100
AcDbLine
 62
7
  6
CONTINUOUS
 10
-1.2212976809
 20
-0.5097481287
 11
-1.234288062
 21
-0.5134981287
  0
LINE
  5
268
100
AcDbEntity
  8
0
100
AcDbLine
 62
7
  6
CONTINUOUS
 10
-1.979168412
 20
0.1315871772
 11
-1.855016262
 21
0.0240682614
  0
LINE
  5
269
100
AcDbEntity
  8
0
100
AcDbLine
 62
7
  6
CONTINUOUS
 10
-1.585789062
 20
-0.2090893332
 11
-1.444907262
 21
-0.331096551
  0
LINE
  5
26A
100
AcDbEntity
  8
0
100
AcDbLine
 62
7
  6
CONTINUOUS
 10
-1.369066212
 20
-0.3967768269
 11
-1.234288062
 21
-0.5134981287
  0
LINE
  5
26B
100
AcDbEntity
  8
0
100
AcDbLine
 62
7
  6
CONTINUOUS
 10
-1.038614412
 20
-0.6829564804
 11
-1.018855812
 21
-0.70006793
  0
LINE
  5
26C
100
AcDbEntity
  8
0
100
AcDbLine
 62
7
  6
CONTINUOUS
 10
-0.822402762
 20
-0.8702012619
 11
-0.684582912
 21
-0.9895567532
  0
LINE
  5
26D
100
AcDbEntity
  8
0
100
AcDbLine
 62
7
  6
CONTINUOUS
 10
-0.662460762
 20
-1.0087150971
 11
-0.523107312
 21
-1.1293987249
  0
LINE
  5
26E
100
AcDbEntity
  8
0
100
AcDbLine
 62
7
  6
CONTINUOUS
 10
-0.255879462
 20
-1.3608248316
 11
-0.107395812
 21
-1.4894154445
  0
LINE
  5
26F
100
AcDbEntity
  8
0
100
AcDbLine
 62
7
  6
CONTINUOUS
 10
-0.0660260722
 20
-1.5252425605
 11
0.0742888628
 21
-1.6467588587
  0
LINE
  5
270
100
AcDbEntity
  8
0
100
AcDbLine
 62
7
  6
CONTINUOUS
 10
0.2900299078
 20
-1.8335960843
 11
0.4255418247
 21
-1.9509528469
  0
LINE
  5
271
100
AcDbEntity
  8
0
100
AcDbLine
 62
7
  6
CONTINUOUS
 10
-0.484232862
 20
-0.9296925306
 11
-0.292375212
 21
-1.0958461294
  0
LINE
  5
272
100
AcDbEntity
  8
0
100
AcDbLine
 62
7
  6
CONTINUOUS
 10
-0.320530362
 20
-0.8908803897
 11
-0.455414712
 21
-0.7740671161
  0
LINE
  5
273
100
AcDbEntity
  8
0
100
AcDbLine
 62
7
  6
CONTINUOUS
 10
-0.3227687053
 20
-0.8739419275
 11
-0.4424243309
 21
-0.7703171161
  0
LINE
  5
274
100
AcDbEntity
  8
0
100
AcDbLine
 62
7
  6
CONTINUOUS
 10
0.0742888628
 20
-1.1892800637
 11
0.1498263178
 21
-1.2546974188
  0
LINE
  5
275
100
AcDbEntity
  8
0
100
AcDbLine
 62
7
  6
CONTINUOUS
 10
0.150129986
 20
-1.0635078023
 11
0.0696174342
 21
-0.9937818871
  0
LINE
  5
276
100
AcDbEntity
  8
0
100
AcDbLine
 62
7
  6
CONTINUOUS
 10
0.1631203671
 20
-1.0597578023
 11
0.0826078153
 21
-0.9900318871
  0
LINE
  5
277
100
AcDbEntity
  8
0
100
AcDbLine
 62
7
  6
CONTINUOUS
 10
-0.314477262
 20
-0.1410857276
 11
-0.450763512
 21
-0.0230583729
  0
LINE
  5
278
100
AcDbEntity
  8
0
100
AcDbLine
 62
7
  6
CONTINUOUS
 10
-0.747695262
 20
0.2340920657
 11
-0.887084112
 21
0.3548063508
  0
LINE
  5
279
100
AcDbEntity
  8
0
100
AcDbLine
 62
7
  6
CONTINUOUS
 10
-1.167359712
 20
0.5975321405
 11
-1.308124962
 21
0.719438423
  0
LINE
  5
27A
100
AcDbEntity
  8
0
100
AcDbLine
 62
7
  6
CONTINUOUS
 10
-1.638070662
 20
1.005179781
 11
-1.778856162
 21
1.1271036005
  0
LINE
  5
27B
100
AcDbEntity
  8
0
100
AcDbLine
 62
7
  6
CONTINUOUS
 10
-2.040089262
 20
1.3533381014
 11
-2.193130512
 21
1.4858757118
  0
LINE
  5
27C
100
AcDbEntity
  8
0
100
AcDbLine
 62
7
  6
CONTINUOUS
 10
-1.444907262
 20
0.8379655176
 11
-1.585789062
 21
0.9599727354
  0
LINE
  5
27D
100
AcDbEntity
  8
0
100
AcDbLine
 62
7
  6
CONTINUOUS
 10
-0.3014868809
 20
-0.1373357276
 11
-0.4377731309
 21
-0.0193083729
  0
LINE
  5
27E
100
AcDbEntity
  8
0
100
AcDbLine
 62
7
  6
CONTINUOUS
 10
-0.7347048809
 20
0.2378420657
 11
-0.8740937309
 21
0.3585563508
  0
LINE
  5
27F
100
AcDbEntity
  8
0
100
AcDbLine
 62
7
  6
CONTINUOUS
 10
-1.1543693309
 20
0.6012821405
 11
-1.2951345809
 21
0.723188423
  0
LINE
  5
280
100
AcDbEntity
  8
0
100
AcDbLine
 62
7
  6
CONTINUOUS
 10
-1.6250802809
 20
1.008929781
 11
-1.7658657809
 21
1.1308536005
  0
LINE
  5
281
100
AcDbEntity
  8
0
100
AcDbLine
 62
7
  6
CONTINUOUS
 10
-2.0270988809
 20
1.3570881014
 11
-2.1801401309
 21
1.4896257118
  0
LINE
  5
282
100
AcDbEntity
  8
0
100
AcDbLine
 62
7
  6
CONTINUOUS
 10
-1.4319168809
 20
0.8417155176
 11
-1.5727986809
 21
0.9637227354
  0
LINE
  5
283
100
AcDbEntity
  8
0
100
AcDbLine
 62
7
  6
CONTINUOUS
 10
-1.203885912
 20
0.223502437
 11
-1.038614412
 21
-0.6829564804
  0
LINE
  5
284
100
AcDbEntity
  8
0
100
AcDbLine
 62
7
  6
CONTINUOUS
 10
-1.027965762
 20
-0.1722145778
 11
-1.167359712
 21
0.5975321405
  0
LINE
  5
285
100
AcDbEntity
  8
0
100
AcDbLine
 62
7
  6
CONTINUOUS
 10
-1.0198167445
 20
-0.1417301054
 11
-1.1543693309
 21
0.6012821405
  0
LINE
  5
286
100
AcDbEntity
  8
0
100
AcDbLine
 62
7
  6
CONTINUOUS
 10
-0.107395812
 20
-1.4894154445
 11
-0.314477262
 21
-0.1410857276
  0
LINE
  5
287
100
AcDbEntity
  8
0
100
AcDbLine
 62
7
  6
CONTINUOUS
 10
-0.0944054309
 20
-1.4856654445
 11
-0.3014868809
 21
-0.1373357276
  0
LINE
  5
288
100
AcDbEntity
  8
0
100
AcDbLine
 62
7
  6
CONTINUOUS
 10
-0.292375212
 20
-1.0958461294
 11
-0.255879462
 21
-1.3608248316
  0
LINE
  5
289
100
AcDbEntity
  8
0
100
AcDbLine
 62
7
  6
CONTINUOUS
 10
-0.385267362
 20
-0.400988958
 11
-0.320530362
 21
-0.8908803897
  0
LINE
  5
28A
100
AcDbEntity
  8
0
100
AcDbLine
 62
7
  6
CONTINUOUS
 10
0.296174127
 20
-1.2932421571
 11
0.296174127
 21
-1.2863344351
  0
LINE
  5
28B
100
AcDbEntity
  8
0
100
AcDbLine
 62
7
  6
CONTINUOUS
 10
-0.0530356912
 20
-0.366158516
 11
-0.0660260722
 21
-0.369908516
  0
LINE
  5
28C
100
AcDbEntity
  8
0
100
AcDbLine
 62
7
  6
CONTINUOUS
 10
-1.0058654309
 20
-0.69631793
 11
-1.018855812
 21
-0.70006793
  0
LINE
  5
28D
100
AcDbEntity
  8
0
100
AcDbLine
 62
7
  6
CONTINUOUS
 10
-0.4424243309
 20
-0.7703171161
 11
-0.455414712
 21
-0.7740671161
  0
LINE
  5
28E
100
AcDbEntity
  8
0
100
AcDbLine
 62
250
  6
CONTINUOUS
 10
0.2946390476
 20
-0.6795613392
 11
0.2816486666
 21
-0.6833113392
  0
LINE
  5
28F
100
AcDbEntity
  8
0
100
AcDbLine
 62
7
  6
CONTINUOUS
 10
-0.6715925309
 20
-0.9858067532
 11
-0.684582912
 21
-0.9895567532
  0
LINE
  5
290
100
AcDbEntity
  8
0
100
AcDbLine
 62
7
  6
CONTINUOUS
 10
-0.5101169309
 20
-1.1256487249
 11
-0.523107312
 21
-1.1293987249
  0
LINE
  5
291
100
AcDbEntity
  8
0
100
AcDbLine
 62
7
  6
CONTINUOUS
 10
0.0826078153
 20
-0.9900318871
 11
0.0696174342
 21
-0.9937818871
  0
LINE
  5
292
100
AcDbEntity
  8
0
100
AcDbLine
 62
250
  6
CONTINUOUS
 10
0.1631203671
 20
-1.0597578023
 11
0.150129986
 21
-1.0635078023
  0
LINE
  5
293
100
AcDbEntity
  8
0
100
AcDbLine
 62
7
  6
CONTINUOUS
 10
0.309164508
 20
-1.2894921571
 11
0.296174127
 21
-1.2932421571
  0
LINE
  5
294
100
AcDbEntity
  8
0
100
AcDbLine
 62
7
  6
CONTINUOUS
 10
-0.0944054309
 20
-1.4856654445
 11
-0.107395812
 21
-1.4894154445
  0
LINE
  5
295
100
AcDbEntity
  8
0
100
AcDbLine
 62
7
  6
CONTINUOUS
 10
0.0872792438
 20
-1.6430088587
 11
0.0742888628
 21
-1.6467588587
  0
LINE
  5
296
100
AcDbEntity
  8
0
100
AcDbLine
 62
250
  6
CONTINUOUS
 10
0.3903704354
 20
-1.5890970686
 11
0.3773800544
 21
-1.5928470686
  0
LINE
  5
297
100
AcDbEntity
  8
0
100
AcDbLine
 62
7
  6
CONTINUOUS
 10
0.4385322058
 20
-1.9472028469
 11
0.4255418247
 21
-1.9509528469
  0
LINE
  5
298
100
AcDbEntity
  8
RACCORDO
100
AcDbLine
 62
250
  6
CONTINUOUS
 10
14.0552329595
 20
1.252618747
 11
13.0939447613
 21
0.975118747
  0
LINE
  5
299
100
AcDbEntity
  8
0
100
AcDbLine
 62
7
  6
CONTINUOUS
 10
-0.866041812
 20
-14.1538800515
 11
-0.745663362
 21
-13.9611923004
  0
LINE
  5
29A
100
AcDbEntity
  8
0
100
AcDbLine
 62
7
  6
CONTINUOUS
 10
-0.8530514309
 20
-14.1501300515
 11
-0.745663362
 21
-13.9782357839
  0
LINE
  5
29B
100
AcDbEntity
  8
0
100
AcDbLine
 62
7
  6
CONTINUOUS
 10
-0.731901162
 20
-13.8355246531
 11
-0.909179112
 21
-14.1072962853
  0
LINE
  5
29C
100
AcDbEntity
  8
RACCORDO
100
AcDbLine
 62
250
  6
CONTINUOUS
 10
11.0743295191
 20
4.2026178217
 11
-12.7756704809
 21
24.857323702
  0
LINE
  5
29D
100
AcDbEntity
  8
RACCORDO
100
AcDbLine
 62
250
  6
CONTINUOUS
 10
11.5939447613
 20
4.872233064
 11
-12.2560552387
 21
25.5269389443
  0
LINE
  5
29E
100
AcDbEntity
  8
0
100
AcDbLine
 62
7
  6
CONTINUOUS
 10
12.5552329595
 20
5.149733064
 11
-11.2947670405
 21
25.8044389443
  0
LINE
  5
29F
100
AcDbEntity
  8
RACCORDO
100
AcDbLine
 62
250
  6
CONTINUOUS
 10
12.2743295191
 20
-24.3762205031
 11
12.2743295191
 21
1.0849263681
  0
LINE
  5
2A0
100
AcDbEntity
  8
RACCORDO
100
AcDbLine
 62
250
  6
CONTINUOUS
 10
13.0939447613
 20
-24.4860281243
 11
13.0939447613
 21
0.975118747
  0
LINE
  5
2A1
100
AcDbEntity
  8
0
100
AcDbLine
 62
7
  6
CONTINUOUS
 10
14.0552329595
 20
-24.2085281243
 11
14.0552329595
 21
1.252618747
  0
LINE
  5
2A2
100
AcDbEntity
  8
0
100
AcDbLine
 62
7
  6
CONTINUOUS
 10
-1.3643934809
 20
-13.2727702372
 11
-1.377383862
 21
-13.2765202372
  0
LINE
  5
2A3
100
AcDbEntity
  8
0
100
AcDbLine
 62
7
  6
CONTINUOUS
 10
-1.3127195309
 20
-13.3175211906
 11
-1.325709912
 21
-13.3212711906
  0
LINE
  5
2A4
100
AcDbEntity
  8
0
100
AcDbLine
 62
7
  6
CONTINUOUS
 10
-1.2189734309
 20
-13.3987076947
 11
-1.231963812
 21
-13.4024576947
  0
LINE
  5
2A5
100
AcDbEntity
  8
0
100
AcDbLine
 62
250
  6
CONTINUOUS
 10
-1.0470551309
 20
-13.5475933099
 11
-1.060045512
 21
-13.5513433099
  0
LINE
  5
2A6
100
AcDbEntity
  8
0
100
AcDbLine
 62
7
  6
CONTINUOUS
 10
-1.1673137309
 20
-13.7497358501
 11
-1.180304112
 21
-13.7534858501
  0
LINE
  5
2A7
100
AcDbEntity
  8
0
100
AcDbLine
 62
250
  6
CONTINUOUS
 10
-1.0591091309
 20
-13.8434437825
 11
-1.072099512
 21
-13.8471937825
  0
LINE
  5
2A8
100
AcDbEntity
  8
0
100
AcDbLine
 62
250
  6
CONTINUOUS
 10
-0.9334741622
 20
-13.8373839044
 11
-0.9464645433
 21
-13.8411339044
  0
LINE
  5
2A9
100
AcDbEntity
  8
0
100
AcDbLine
 62
7
  6
CONTINUOUS
 10
-1.3127195309
 20
-13.9799215053
 11
-1.325709912
 21
-13.9836715053
  0
LINE
  5
2AA
100
AcDbEntity
  8
0
100
AcDbLine
 62
7
  6
CONTINUOUS
 10
-0.7189107809
 20
-13.8317746531
 11
-0.731901162
 21
-13.8355246531
  0
LINE
  5
2AB
100
AcDbEntity
  8
0
100
AcDbLine
 62
7
  6
CONTINUOUS
 10
-0.6857999309
 20
-13.8604494903
 11
-0.698790312
 21
-13.8641994903
  0
LINE
  5
2AC
100
AcDbEntity
  8
0
100
AcDbLine
 62
7
  6
CONTINUOUS
 10
-1.1673137309
 20
-14.1058466219
 11
-1.180304112
 21
-14.1095966219
  0
LINE
  5
2AD
100
AcDbEntity
  8
0
100
AcDbLine
 62
7
  6
CONTINUOUS
 10
-0.8530514309
 20
-14.1501300515
 11
-0.866041812
 21
-14.1538800515
  0
LINE
  5
2AE
100
AcDbEntity
  8
0
100
AcDbLine
 62
250
  6
CONTINUOUS
 10
-0.4652836491
 20
-14.0514244257
 11
-0.4782740301
 21
-14.0551744257
  0
LINE
  5
2AF
100
AcDbEntity
  8
0
100
AcDbLine
 62
7
  6
CONTINUOUS
 10
-0.6857999309
 20
-14.2949740993
 11
-0.698790312
 21
-14.2987240993
  0
LINE
  5
2B0
100
AcDbEntity
  8
0
100
AcDbLine
 62
250
  6
CONTINUOUS
 10
-0.543551707
 20
-14.3148402232
 11
-0.5565420881
 21
-14.3185902232
  0
LINE
  5
2B1
100
AcDbEntity
  8
0
100
AcDbLine
 62
7
  6
CONTINUOUS
 10
-0.6309300809
 20
-14.3424927834
 11
-0.643920462
 21
-14.3462427834
  0
LINE
  5
2B2
100
AcDbEntity
  8
0
100
AcDbLine
 62
7
  6
CONTINUOUS
 10
-0.6309300809
 20
-14.4126010905
 11
-0.643920462
 21
-14.4163510905
  0
LINE
  5
2B3
100
AcDbEntity
  8
0
100
AcDbLine
 62
7
  6
CONTINUOUS
 10
-0.6857999309
 20
-14.522849805
 11
-0.698790312
 21
-14.526599805
  0
LINE
  5
2B4
100
AcDbEntity
  8
0
100
AcDbLine
 62
250
  6
CONTINUOUS
 10
-0.3369474444
 20
-14.4937647632
 11
-0.3499378255
 21
-14.4975147632
  0
LINE
  5
2B5
100
AcDbEntity
  8
0
100
AcDbLine
 62
250
  6
CONTINUOUS
 10
-0.4652836491
 20
-14.6409288398
 11
-0.4782740301
 21
-14.6446788398
  0
LINE
  5
2B6
100
AcDbEntity
  8
RACCORDO
100
AcDbLine
 62
250
  6
CONTINUOUS
 10
14.0552329595
 20
-24.2085281243
 11
13.0939447613
 21
-24.4860281243
  0
LINE
  5
2B7
100
AcDbEntity
  8
ASSI
100
AcDbLine
 62
7
  6
CONTINUOUS
 10
13.3872832539
 20
-25.7917967871
 11
12.4259950557
 21
-26.0692967871
  0
ARC
  5
2B8
100
AcDbEntity
  8
0
100
AcDbCircle
 62
7
  6
CONTINUOUS
 10
0.0879998854
 20
-1.4267889065
 40
0.2473290225
100
AcDbArc
 50
31.2268922512
 51
32.0754777391
  0
ARC
  5
2B9
100
AcDbEntity
  8
0
100
AcDbCircle
 62
7
  6
CONTINUOUS
 10
0.1113585904
 20
-1.4165498892
 40
0.2350975294
100
AcDbArc
 50
32.0757084141
 51
32.7140667606
  0
ARC
  5
2BA
100
AcDbEntity
  8
0
100
AcDbCircle
 62
7
  6
CONTINUOUS
 10
0.0983788475
 20
-1.4202931111
 40
0.2350849155
100
AcDbArc
 50
32.0772799973
 51
32.7140780934
  0
ARC
  5
2BB
100
AcDbEntity
  8
0
100
AcDbCircle
 62
7
  6
CONTINUOUS
 10
0.3124172804
 20
-1.2334377923
 40
0.0504503831
100
AcDbArc
 50
286.0997913945
 51
287.1259402186
  0
SPLINE
  5
2BC
100
AcDbEntity
  8
0
100
AcDbSpline
 62
7
  6
CONTINUOUS
 70
0
 71
3
 72
9
 73
5
 74
0
 42
0.0000001
 43
0.0000001
 44
0.0000000001
 40
0.0
 40
0.0
 40
0.0
 40
0.0
 40
0.2123799835
 40
1.0
 40
1.0
 40
1.0
 40
1.0
 10
-0.5114847325
 20
-14.1162192868
 30
0.0
 10
-0.5090234207
 20
-14.1155087673
 30
0.0
 10
-0.4966977087
 20
-14.1145100747
 30
0.0
 10
-0.4854558058
 20
-14.1218462594
 30
0.0
 10
-0.4782740301
 20
-14.1280658596
 30
0.0
  0
SPLINE
  5
2BD
100
AcDbEntity
  8
0
100
AcDbSpline
 62
7
  6
CONTINUOUS
 70
0
 71
3
 72
11
 73
7
 74
0
 42
0.0000001
 43
0.0000001
 44
0.0000000001
 40
0.0
 40
0.0
 40
0.0
 40
0.0
 40
0.1735134396
 40
0.4105722434
 40
0.6923374174
 40
1.0
 40
1.0
 40
1.0
 40
1.0
 10
-0.5412567956
 20
-14.0325210492
 30
0.0
 10
-0.5557565028
 20
-14.0367067527
 30
0.0
 10
-0.5813018711
 20
-14.0676009694
 30
0.0
 10
-0.5959002465
 20
-14.1255431785
 30
0.0
 10
-0.604961172
 20
-14.197226516
 30
0.0
 10
-0.6066102348
 20
-14.2484701995
 30
0.0
 10
-0.6066102348
 20
-14.2752299362
 30
0.0
  0
SPLINE
  5
2BE
100
AcDbEntity
  8
0
100
AcDbSpline
 62
7
  6
CONTINUOUS
 70
0
 71
3
 72
17
 73
13
 74
0
 42
0.0000001
 43
0.0000001
 44
0.0000000001
 40
0.0
 40
0.0
 40
0.0
 40
0.0
 40
0.142959612
 40
0.2964284237
 40
0.451536377
 40
0.5992205378
 40
0.7313121105
 40
0.8418169686
 40
0.8883124527
 40
0.9293102171
 40
0.9659079275
 40
1.0
 40
1.0
 40
1.0
 40
1.0
 10
-10.8256704809
 20
18.4920369842
 30
0.0
 10
-10.8256704809
 20
18.5661985936
 30
0.0
 10
-10.8380325923
 20
18.7200657609
 30
0.0
 10
-10.8854262366
 20
18.9499537812
 30
0.0
 10
-10.9594871226
 20
19.175306313
 30
0.0
 10
-11.0550228187
 20
19.3803938189
 30
0.0
 10
-11.1652231637
 20
19.5509781983
 30
0.0
 10
-11.2688365658
 20
19.6615474278
 30
0.0
 10
-11.3541079545
 20
19.719581639
 30
0.0
 10
-11.41350975
 20
19.7455961689
 30
0.0
 10
-11.4712020956
 20
19.7558284099
 30
0.0
 10
-11.5082939912
 20
19.751346142
 30
0.0
 10
-11.525285522
 20
19.7464402831
 30
0.0
  0
SPLINE
  5
2BF
100
AcDbEntity
  8
0
100
AcDbSpline
 62
7
  6
CONTINUOUS
 70
0
 71
3
 72
13
 73
9
 74
0
 42
0.0000001
 43
0.0000001
 44
0.0000000001
 40
0.0
 40
0.0
 40
0.0
 40
0.0
 40
0.3261968951
 40
0.5989629471
 40
0.7147951217
 40
0.8181657275
 40
0.9118013279
 40
1.0
 40
1.0
 40
1.0
 40
1.0
 10
10.0243295191
 20
0.4354073153
 30
0.0
 10
10.0243295191
 20
0.3759430559
 30
0.0
 10
10.0173310249
 20
0.2665822775
 30
0.0
 10
9.985271437
 20
0.1388911285
 30
0.0
 10
9.9448334839
 20
0.0584246857
 30
0.0
 10
9.9102453586
 20
0.012587723
 30
0.0
 10
9.8700427351
 20
-0.0211834659
 30
0.0
 10
9.8393918236
 20
-0.035113128
 30
0.0
 10
9.8239445601
 20
-0.0395731202
 30
0.0
  0
SPLINE
  5
2C0
100
AcDbEntity
  8
0
100
AcDbSpline
 62
7
  6
CONTINUOUS
 70
0
 71
3
 72
13
 73
9
 74
0
 42
0.0000001
 43
0.0000001
 44
0.0000000001
 40
0.0
 40
0.0
 40
0.0
 40
0.0
 40
0.3261968951
 40
0.5989629471
 40
0.7147951217
 40
0.8181657275
 40
0.9118013279
 40
1.0
 40
1.0
 40
1.0
 40
1.0
 10
-10.8256704809
 20
-1.7729574644
 30
0.0
 10
-10.8256704809
 20
-1.8324217237
 30
0.0
 10
-10.8326689751
 20
-1.9417825021
 30
0.0
 10
-10.864728563
 20
-2.0694736512
 30
0.0
 10
-10.9051665161
 20
-2.149940094
 30
0.0
 10
-10.9397546414
 20
-2.1957770567
 30
0.0
 10
-10.9799572649
 20
-2.2295482455
 30
0.0
 10
-11.0106081764
 20
-2.2434779077
 30
0.0
 10
-11.0260554399
 20
-2.2479378999
 30
0.0
  0
SPLINE
  5
2C1
100
AcDbEntity
  8
0
100
AcDbSpline
 62
7
  6
CONTINUOUS
 70
0
 71
3
 72
17
 73
13
 74
0
 42
0.0000001
 43
0.0000001
 44
0.0000000001
 40
0.0
 40
0.0
 40
0.0
 40
0.0
 40
0.142959612
 40
0.2964284237
 40
0.451536377
 40
0.5992205378
 40
0.7313121105
 40
0.8418169686
 40
0.8883124527
 40
0.9293102171
 40
0.9659079275
 40
1.0
 40
1.0
 40
1.0
 40
1.0
 10
10.0243295191
 20
-19.8295871333
 30
0.0
 10
10.0243295191
 20
-19.7554255239
 30
0.0
 10
10.0119674077
 20
-19.6015583565
 30
0.0
 10
9.9645737634
 20
-19.3716703363
 30
0.0
 10
9.8905128774
 20
-19.1463178044
 30
0.0
 10
9.7949771813
 20
-18.9412302986
 30
0.0
 10
9.6847768363
 20
-18.7706459192
 30
0.0
 10
9.5811634342
 20
-18.6600766897
 30
0.0
 10
9.4958920455
 20
-18.6020424785
 30
0.0
 10
9.43649025
 20
-18.5760279485
 30
0.0
 10
9.3787979044
 20
-18.5657957075
 30
0.0
 10
9.3417060088
 20
-18.5702779755
 30
0.0
 10
9.324714478
 20
-18.5751838344
 30
0.0
  0
SPLINE
  5
2C2
100
AcDbEntity
  8
RACCORDO
100
AcDbSpline
 62
7
  6
CONTINUOUS
 70
0
 71
3
 72
15
 73
11
 74
0
 42
0.0000001
 43
0.0000001
 44
0.0000000001
 40
0.0
 40
0.0
 40
0.0
 40
0.0
 40
0.1243642999
 40
0.2549722788
 40
0.3888967123
 40
0.5227225491
 40
0.6530505606
 40
0.7769876199
 40
0.892684255
 40
1.0
 40
1.0
 40
1.0
 40
1.0
 10
-14.0560552387
 20
-1.4930536538
 30
0.0
 10
-14.0560552387
 20
-1.6561432071
 30
0.0
 10
-14.0367750592
 20
-1.9906753973
 30
0.0
 10
-13.9588001865
 20
-2.4953237171
 30
0.0
 10
-13.8340257705
 20
-3.0032809071
 30
0.0
 10
-13.6666143056
 20
-3.4984201705
 30
0.0
 10
-13.4616422887
 20
-3.965018003
 30
0.0
 10
-13.2242154654
 20
-4.3891422259
 30
0.0
 10
-12.9583050171
 20
-4.7595862115
 30
0.0
 10
-12.7552310782
 20
-4.9721715428
 30
0.0
 10
-12.6488474411
 20
-5.064302475
 30
0.0
  0
SPLINE
  5
2C3
100
AcDbEntity
  8
RACCORDO
100
AcDbSpline
 62
7
  6
CONTINUOUS
 70
0
 71
3
 72
14
 73
10
 74
0
 42
0.0000001
 43
0.0000001
 44
0.0000000001
 40
0.0
 40
0.0
 40
0.0
 40
0.0
 40
0.1198252013
 40
0.2387071759
 40
0.3567934862
 40
0.4757206129
 40
0.5978244964
 40
0.7252139736
 40
1.0
 40
1.0
 40
1.0
 40
1.0
 10
-13.088105533
 20
25.8111695014
 30
0.0
 10
-13.1737425162
 20
25.7864482338
 30
0.0
 10
-13.3387248703
 20
25.7148675619
 30
0.0
 10
-13.5507849529
 20
25.5514011956
 30
0.0
 10
-13.7211517323
 20
25.3463293281
 30
0.0
 10
-13.851308907
 20
25.111615454
 30
0.0
 10
-13.9464266765
 20
24.8536531794
 30
0.0
 10
-14.0347684173
 20
24.4730621209
 30
0.0
 10
-14.0560552387
 20
24.1724969818
 30
0.0
 10
-14.0560552387
 20
23.9680932175
 30
0.0
  0
SPLINE
  5
2C4
100
AcDbEntity
  8
RACCORDO
100
AcDbSpline
 62
7
  6
CONTINUOUS
 70
0
 71
3
 72
11
 73
7
 74
0
 42
0.0000001
 43
0.0000001
 44
0.0000000001
 40
0.0
 40
0.0
 40
0.0
 40
0.0
 40
0.2543219421
 40
0.5019551367
 40
0.749718568
 40
1.0
 40
1.0
 40
1.0
 40
1.0
 10
11.2011525589
 20
-25.7190083553
 30
0.0
 10
11.2861509989
 20
-25.7926191636
 30
0.0
 10
11.4654753113
 20
-25.9255708763
 30
0.0
 10
11.7684398627
 20
-26.066856001
 30
0.0
 10
12.0967826084
 20
-26.1271429563
 30
0.0
 10
12.3196802558
 20
-26.0999872263
 30
0.0
 10
12.4259950557
 20
-26.0692967871
 30
0.0
  0
SPLINE
  5
2C5
100
AcDbEntity
  8
0
100
AcDbSpline
 62
7
  6
CONTINUOUS
 70
0
 71
3
 72
13
 73
9
 74
0
 42
0.0000001
 43
0.0000001
 44
0.0000000001
 40
0.0
 40
0.0
 40
0.0
 40
0.0
 40
0.0881986721
 40
0.1818342725
 40
0.2852048783
 40
0.4010370529
 40
0.6738031049
 40
1.0
 40
1.0
 40
1.0
 40
1.0
 10
9.8239445601
 20
-20.3045675688
 30
0.0
 10
9.8393918236
 20
-20.3001075766
 30
0.0
 10
9.8700427351
 20
-20.2861779145
 30
0.0
 10
9.9102453586
 20
-20.2524067256
 30
0.0
 10
9.9448334839
 20
-20.2065697629
 30
0.0
 10
9.985271437
 20
-20.1261033201
 30
0.0
 10
10.0173310249
 20
-19.998412171
 30
0.0
 10
10.0243295191
 20
-19.8890513927
 30
0.0
 10
10.0243295191
 20
-19.8295871333
 30
0.0
  0
SPLINE
  5
2C6
100
AcDbEntity
  8
0
100
AcDbSpline
 62
7
  6
CONTINUOUS
 70
0
 71
3
 72
17
 73
13
 74
0
 42
0.0000001
 43
0.0000001
 44
0.0000000001
 40
0.0
 40
0.0
 40
0.0
 40
0.0
 40
0.0340920725
 40
0.0706897829
 40
0.1116875473
 40
0.1581830314
 40
0.2686878895
 40
0.4007794622
 40
0.548463623
 40
0.7035715763
 40
0.857040388
 40
1.0
 40
1.0
 40
1.0
 40
1.0
 10
-11.525285522
 20
-0.5185541654
 30
0.0
 10
-11.5082939912
 20
-0.5136483066
 30
0.0
 10
-11.4712020956
 20
-0.5091660386
 30
0.0
 10
-11.41350975
 20
-0.5193982796
 30
0.0
 10
-11.3541079545
 20
-0.5454128096
 30
0.0
 10
-11.2688365658
 20
-0.6034470208
 30
0.0
 10
-11.1652231637
 20
-0.7140162503
 30
0.0
 10
-11.0550228187
 20
-0.8846006297
 30
0.0
 10
-10.9594871226
 20
-1.0896881355
 30
0.0
 10
-10.8854262366
 20
-1.3150406674
 30
0.0
 10
-10.8380325923
 20
-1.5449286876
 30
0.0
 10
-10.8256704809
 20
-1.698795855
 30
0.0
 10
-10.8256704809
 20
-1.7729574644
 30
0.0
  0
SPLINE
  5
2C7
100
AcDbEntity
  8
0
100
AcDbSpline
 62
7
  6
CONTINUOUS
 70
0
 71
3
 72
17
 73
13
 74
0
 42
0.0000001
 43
0.0000001
 44
0.0000000001
 40
0.0
 40
0.0
 40
0.0
 40
0.0
 40
0.0340920725
 40
0.0706897829
 40
0.1116875473
 40
0.1581830314
 40
0.2686878895
 40
0.4007794622
 40
0.548463623
 40
0.7035715763
 40
0.857040388
 40
1.0
 40
1.0
 40
1.0
 40
1.0
 10
9.324714478
 20
1.6898106142
 30
0.0
 10
9.3417060088
 20
1.6947164731
 30
0.0
 10
9.3787979044
 20
1.699198741
 30
0.0
 10
9.43649025
 20
1.6889665
 30
0.0
 10
9.4958920455
 20
1.6629519701
 30
0.0
 10
9.5811634342
 20
1.6049177589
 30
0.0
 10
9.6847768363
 20
1.4943485293
 30
0.0
 10
9.7949771813
 20
1.32376415
 30
0.0
 10
9.8905128774
 20
1.1186766441
 30
0.0
 10
9.9645737634
 20
0.8933241123
 30
0.0
 10
10.0119674077
 20
0.663436092
 30
0.0
 10
10.0243295191
 20
0.5095689246
 30
0.0
 10
10.0243295191
 20
0.4354073153
 30
0.0
  0
SPLINE
  5
2C8
100
AcDbEntity
  8
0
100
AcDbSpline
 62
7
  6
CONTINUOUS
 70
0
 71
3
 72
15
 73
11
 74
0
 42
0.0000001
 43
0.0000001
 44
0.0000000001
 40
0.0
 40
0.0
 40
0.0
 40
0.0
 40
0.1245790775
 40
0.2573798876
 40
0.3944136548
 40
0.5314246871
 40
0.6641588658
 40
0.7886295258
 40
0.9014094754
 40
1.0
 40
1.0
 40
1.0
 40
1.0
 10
14.0552329595
 20
1.252618747
 30
0.0
 10
14.0552329595
 20
1.430153515
 30
0.0
 10
14.0338278972
 20
1.7971027504
 30
0.0
 10
13.9480378751
 20
2.3532849279
 30
0.0
 10
13.8103247485
 20
2.9172100199
 30
0.0
 10
13.6258554353
 20
3.4674977495
 30
0.0
 10
13.4016365812
 20
3.9834112393
 30
0.0
 10
13.1461075048
 20
4.4457126092
 30
0.0
 10
12.8690297413
 20
4.837191528
 30
0.0
 10
12.6614402819
 20
5.0577548248
 30
0.0
 10
12.5552329595
 20
5.149733064
 30
0.0
  0
SPLINE
  5
2C9
100
AcDbEntity
  8
0
100
AcDbSpline
 62
7
  6
CONTINUOUS
 70
0
 71
3
 72
11
 73
7
 74
0
 42
0.0000001
 43
0.0000001
 44
0.0000000001
 40
0.0
 40
0.0
 40
0.0
 40
0.0
 40
0.2988267667
 40
0.559481017
 40
0.7888374951
 40
1.0
 40
1.0
 40
1.0
 40
1.0
 10
-11.2947670405
 20
25.8044389443
 30
0.0
 10
-11.3635891555
 20
25.8640406443
 30
0.0
 10
-11.5002567961
 20
25.9673351162
 30
0.0
 10
-11.7171540502
 20
26.074970581
 30
0.0
 10
-11.928570982
 20
26.1208752657
 30
0.0
 10
-12.0650069643
 20
26.1065136603
 30
0.0
 10
-12.1268171561
 20
26.0886688832
 30
0.0
  0
SPLINE
  5
2CA
100
AcDbEntity
  8
0
100
AcDbSpline
 62
7
  6
CONTINUOUS
 70
0
 71
3
 72
13
 73
9
 74
0
 42
0.0000001
 43
0.0000001
 44
0.0000000001
 40
0.0
 40
0.0
 40
0.0
 40
0.0
 40
0.0881986721
 40
0.1818342725
 40
0.2852048783
 40
0.4010370529
 40
0.6738031049
 40
1.0
 40
1.0
 40
1.0
 40
1.0
 10
-11.0260554399
 20
18.0170565487
 30
0.0
 10
-11.0106081764
 20
18.0215165409
 30
0.0
 10
-10.9799572649
 20
18.035446203
 30
0.0
 10
-10.9397546414
 20
18.0692173919
 30
0.0
 10
-10.9051665161
 20
18.1150543546
 30
0.0
 10
-10.864728563
 20
18.1955207974
 30
0.0
 10
-10.8326689751
 20
18.3232119464
 30
0.0
 10
-10.8256704809
 20
18.4325727248
 30
0.0
 10
-10.8256704809
 20
18.4920369842
 30
0.0
  0
SPLINE
  5
2CB
100
AcDbEntity
  8
0
100
AcDbSpline
 62
7
  6
CONTINUOUS
 70
0
 71
3
 72
14
 73
10
 74
0
 42
0.0000001
 43
0.0000001
 44
0.0000000001
 40
0.0
 40
0.0
 40
0.0
 40
0.0
 40
0.0881578438
 40
0.1817499496
 40
0.285072229
 40
0.4008512824
 40
0.5304016229
 40
0.673958827
 40
1.0
 40
1.0
 40
1.0
 40
1.0
 10
13.3872830752
 20
-25.7917961689
 30
0.0
 10
13.4387742437
 20
-25.776930523
 30
0.0
 10
13.5409415291
 20
-25.7304949246
 30
0.0
 10
13.6749571773
 20
-25.6179294126
 30
0.0
 10
13.7902249191
 20
-25.4651270202
 30
0.0
 10
13.8859160604
 20
-25.2750128109
 30
0.0
 10
13.9613910807
 20
-25.0502809683
 30
0.0
 10
14.0370885067
 20
-24.6934121076
 30
0.0
 10
14.0552329595
 20
-24.4067394624
 30
0.0
 10
14.0552329595
 20
-24.2085281243
 30
0.0
  0
SPLINE
  5
2CC
100
AcDbEntity
  8
0
100
AcDbSpline
 62
7
  6
CONTINUOUS
 70
0
 71
3
 72
15
 73
11
 74
0
 42
0.0000001
 43
0.0000001
 44
0.0000000001
 40
0.0
 40
0.0
 40
0.0
 40
0.0
 40
0.1039158152
 40
0.2309253962
 40
0.367041639
 40
0.5011489974
 40
0.6316204878
 40
0.7581095029
 40
0.8810505515
 40
1.0
 40
1.0
 40
1.0
 40
1.0
 10
-0.4782740301
 20
-14.1280658596
 30
0.0
 10
-0.4692978733
 20
-14.1358394394
 30
0.0
 10
-0.4527013142
 20
-14.1569309247
 30
0.0
 10
-0.4346757531
 20
-14.194962553
 30
0.0
 10
-0.4207232805
 20
-14.2382831824
 30
0.0
 10
-0.4118246834
 20
-14.2832697076
 30
0.0
 10
-0.4063071965
 20
-14.3276284777
 30
0.0
 10
-0.4023178047
 20
-14.3708622614
 30
0.0
 10
-0.4001320218
 20
-14.4129163065
 30
0.0
 10
-0.4000059722
 20
-14.4405622611
 30
0.0
 10
-0.4000059722
 20
-14.4541544762
 30
0.0
  0
SPLINE
  5
2CD
100
AcDbEntity
  8
0
100
AcDbSpline
 62
7
  6
CONTINUOUS
 70
0
 71
3
 72
13
 73
9
 74
0
 42
0.0000001
 43
0.0000001
 44
0.0000000001
 40
0.0
 40
0.0
 40
0.0
 40
0.0
 40
0.2991489931
 40
0.5770655631
 40
0.7073298227
 40
0.823549059
 40
0.9198181895
 40
1.0
 40
1.0
 40
1.0
 40
1.0
 10
-0.4000059722
 20
-14.4541544762
 30
0.0
 10
-0.4000059722
 20
-14.4755682887
 30
0.0
 10
-0.4005291746
 20
-14.5169029752
 30
0.0
 10
-0.405780756
 20
-14.5673553665
 30
0.0
 10
-0.4120667306
 20
-14.6043465905
 30
0.0
 10
-0.4186825987
 20
-14.6281480734
 30
0.0
 10
-0.4290700345
 20
-14.6465229327
 30
0.0
 10
-0.4395488898
 20
-14.6549335315
 30
0.0
 10
-0.4450633277
 20
-14.6565254126
 30
0.0
  0
SPLINE
  5
2CE
100
AcDbEntity
  8
0
100
AcDbSpline
 62
7
  6
CONTINUOUS
 70
0
 71
3
 72
13
 73
9
 74
0
 42
0.0000001
 43
0.0000001
 44
0.0000000001
 40
0.0
 40
0.0
 40
0.0
 40
0.0
 40
0.24624708
 40
0.5099226474
 40
0.6465560221
 40
0.7793740712
 40
0.8991908694
 40
1.0
 40
1.0
 40
1.0
 40
1.0
 10
-0.6066102348
 20
-14.2752299362
 30
0.0
 10
-0.6066102348
 20
-14.3139723185
 30
0.0
 10
-0.6024030338
 20
-14.3941551068
 30
0.0
 10
-0.5884780514
 20
-14.495308633
 30
0.0
 10
-0.5651041552
 20
-14.5759986978
 30
0.0
 10
-0.5421174272
 20
-14.6329744808
 30
0.0
 10
-0.5132683948
 20
-14.6807639176
 30
0.0
 10
-0.4902633923
 20
-14.7071871815
 30
0.0
 10
-0.4782740301
 20
-14.7175702737
 30
0.0
  0
SPLINE
  5
2CF
100
AcDbEntity
  8
0
100
AcDbSpline
 62
7
  6
CONTINUOUS
 70
0
 71
3
 72
9
 73
5
 74
0
 42
0.0000001
 43
0.0000001
 44
0.0000000001
 40
0.0
 40
0.0
 40
0.0
 40
0.0
 40
0.3026543958
 40
1.0
 40
1.0
 40
1.0
 40
1.0
 10
-0.4782740301
 20
-14.7175702737
 30
0.0
 10
-0.4730724153
 20
-14.7220750043
 30
0.0
 10
-0.4554189002
 20
-14.7357389905
 30
0.0
 10
-0.4305239774
 20
-14.7446209541
 30
0.0
 10
-0.4152912647
 20
-14.7402236502
 30
0.0
  0
SPLINE
  5
2D0
100
AcDbEntity
  8
0
100
AcDbSpline
 62
7
  6
CONTINUOUS
 70
0
 71
3
 72
10
 73
6
 74
0
 42
0.0000001
 43
0.0000001
 44
0.0000000001
 40
0.0
 40
0.0
 40
0.0
 40
0.0
 40
0.3220422175
 40
0.6091661531
 40
1.0
 40
1.0
 40
1.0
 40
1.0
 10
-0.9997293459
 20
-13.7950052322
 30
0.0
 10
-0.9997293459
 20
-13.8035061039
 30
0.0
 10
-1.0002351906
 20
-13.8198416753
 30
0.0
 10
-1.0042237624
 20
-13.8449383252
 30
0.0
 10
-1.0137427201
 20
-13.8646853241
 30
0.0
 10
-1.0236547312
 20
-13.8675466744
 30
0.0
  0
SPLINE
  5
2D1
100
AcDbEntity
  8
0
100
AcDbSpline
 62
7
  6
CONTINUOUS
 70
0
 71
3
 72
12
 73
8
 74
0
 42
0.0000001
 43
0.0000001
 44
0.0000000001
 40
0.0
 40
0.0
 40
0.0
 40
0.0
 40
0.2057342686
 40
0.3228870959
 40
0.4528933176
 40
0.7347787557
 40
1.0
 40
1.0
 40
1.0
 40
1.0
 10
-1.072099376
 20
-13.6174680937
 30
0.0
 10
-1.0618590543
 20
-13.6263364852
 30
0.0
 10
-1.0478096429
 20
-13.6425492311
 30
0.0
 10
-1.0307061821
 20
-13.6669955455
 30
0.0
 10
-1.0146452815
 20
-13.6980512548
 30
0.0
 10
-1.0026195536
 20
-13.7414677781
 30
0.0
 10
-0.9997293459
 20
-13.7775416004
 30
0.0
 10
-0.9997293459
 20
-13.7950052322
 30
0.0
  0
SPLINE
  5
2D2
100
AcDbEntity
  8
0
100
AcDbSpline
 62
7
  6
CONTINUOUS
 70
0
 71
3
 72
9
 73
5
 74
0
 42
0.0000001
 43
0.0000001
 44
0.0000000001
 40
0.0
 40
0.0
 40
0.0
 40
0.0
 40
0.5603062432
 40
1.0
 40
1.0
 40
1.0
 40
1.0
 10
-1.0600460914
 20
-13.9341960074
 30
0.0
 10
-1.0493630883
 20
-13.9434478335
 30
0.0
 10
-1.0287192482
 20
-13.9579054696
 30
0.0
 10
-1.001887796
 20
-13.963837535
 30
0.0
 10
-0.9912326925
 20
-13.9607616735
 30
0.0
  0
SPLINE
  5
2D3
100
AcDbEntity
  8
0
100
AcDbSpline
 62
7
  6
CONTINUOUS
 70
0
 71
3
 72
9
 73
5
 74
0
 42
0.0000001
 43
0.0000001
 44
0.0000000001
 40
0.0
 40
0.0
 40
0.0
 40
0.0
 40
0.466258254
 40
1.0
 40
1.0
 40
1.0
 40
1.0
 10
0.0696174342
 20
-0.6728708609
 30
0.0
 10
0.0887953674
 20
-0.6838114476
 30
0.0
 10
0.1285565629
 20
-0.7099751292
 30
0.0
 10
0.1627026399
 20
-0.7431289544
 30
0.0
 10
0.1799856274
 20
-0.7615710963
 30
0.0
  0
SPLINE
  5
2D4
100
AcDbEntity
  8
0
100
AcDbSpline
 62
7
  6
CONTINUOUS
 70
0
 71
3
 72
10
 73
6
 74
0
 42
0.0000001
 43
0.0000001
 44
0.0000000001
 40
0.0
 40
0.0
 40
0.0
 40
0.0
 40
0.2217541963
 40
0.4801792673
 40
1.0
 40
1.0
 40
1.0
 40
1.0
 10
0.1799856274
 20
-0.7615710963
 30
0.0
 10
0.1917699817
 20
-0.7741463707
 30
0.0
 10
0.2133845317
 20
-0.8050200462
 30
0.0
 10
0.2467371416
 20
-0.8753360712
 30
0.0
 10
0.2592049744
 20
-0.9362251897
 30
0.0
 10
0.2595669301
 20
-0.9766221588
 30
0.0
  0
SPLINE
  5
2D5
100
AcDbEntity
  8
0
100
AcDbSpline
 62
7
  6
CONTINUOUS
 70
0
 71
3
 72
11
 73
7
 74
0
 42
0.0000001
 43
0.0000001
 44
0.0000000001
 40
0.0
 40
0.0
 40
0.0
 40
0.0
 40
0.3216169662
 40
0.6029320709
 40
0.8264915984
 40
1.0
 40
1.0
 40
1.0
 40
1.0
 10
0.2595669301
 20
-0.9766221588
 30
0.0
 10
0.2596885211
 20
-0.9903760373
 30
0.0
 10
0.2590394762
 20
-1.0161978828
 30
0.0
 10
0.2535785983
 20
-1.0512738527
 30
0.0
 10
0.2422554451
 20
-1.0785383103
 30
0.0
 10
0.228055873
 20
-1.090051777
 30
0.0
 10
0.2209266421
 20
-1.0921098074
 30
0.0
  0
SPLINE
  5
2D6
100
AcDbEntity
  8
0
100
AcDbSpline
 62
7
  6
CONTINUOUS
 70
0
 71
3
 72
10
 73
6
 74
0
 42
0.0000001
 43
0.0000001
 44
0.0000000001
 40
0.0
 40
0.0
 40
0.0
 40
0.0
 40
0.2066132655
 40
0.4557202709
 40
1.0
 40
1.0
 40
1.0
 40
1.0
 10
0.1498263178
 20
-1.2546974188
 30
0.0
 10
0.1597733502
 20
-1.2633118015
 30
0.0
 10
0.1785525156
 20
-1.2859287962
 30
0.0
 10
0.2088499709
 20
-1.3422091143
 30
0.0
 10
0.222204415
 20
-1.3916677686
 30
0.0
 10
0.2284257602
 20
-1.4257687332
 30
0.0
  0
SPLINE
  5
2D7
100
AcDbEntity
  8
0
100
AcDbSpline
 62
7
  6
CONTINUOUS
 70
0
 71
3
 72
10
 73
6
 74
0
 42
0.0000001
 43
0.0000001
 44
0.0000000001
 40
0.0
 40
0.0
 40
0.0
 40
0.0
 40
0.2510526299
 40
0.5010010779
 40
1.0
 40
1.0
 40
1.0
 40
1.0
 10
0.2284257602
 20
-1.4257687332
 30
0.0
 10
0.2346259824
 20
-1.4597235793
 30
0.0
 10
0.2445998554
 20
-1.5278980386
 30
0.0
 10
0.2652925756
 20
-1.6638089556
 30
0.0
 10
0.2801765494
 20
-1.7657018552
 30
0.0
 10
0.2900299078
 20
-1.8335960843
 30
0.0
  0
SPLINE
  5
2D8
100
AcDbEntity
  8
0
100
AcDbSpline
 62
7
  6
CONTINUOUS
 70
0
 71
3
 72
9
 73
5
 74
0
 42
0.0000001
 43
0.0000001
 44
0.0000000001
 40
0.0
 40
0.0
 40
0.0
 40
0.0
 40
0.5158550672
 40
1.0
 40
1.0
 40
1.0
 40
1.0
 10
0.296174127
 20
-1.2863344351
 30
0.0
 10
0.2987036282
 20
-1.2879597281
 30
0.0
 10
0.3051780826
 20
-1.2876366798
 30
0.0
 10
0.3107062289
 20
-1.2864421539
 30
0.0
 10
0.3134173551
 20
-1.2856595191
 30
0.0
  0
SPLINE
  5
2D9
100
AcDbEntity
  8
RACCORDO
100
AcDbSpline
 62
250
  6
CONTINUOUS
 70
0
 71
3
 72
14
 73
10
 74
0
 42
0.0000001
 43
0.0000001
 44
0.0000000001
 40
0.0
 40
0.0
 40
0.0
 40
0.0
 40
0.0881577855
 40
0.1817497754
 40
0.2850721016
 40
0.4008512791
 40
0.5304018493
 40
0.6739590489
 40
1.0
 40
1.0
 40
1.0
 40
1.0
 10
12.4259948253
 20
-26.0692959891
 30
0.0
 10
12.4774865305
 20
-26.0544322753
 30
0.0
 10
12.5796532425
 20
-26.0079946921
 30
0.0
 10
12.7136696818
 20
-25.8954307923
 30
0.0
 10
12.8289371479
 20
-25.7426277556
 30
0.0
 10
12.9246280612
 20
-25.5525131928
 30
0.0
 10
13.0001027039
 20
-25.3277809044
 30
0.0
 10
13.0758001086
 20
-24.9709119686
 30
0.0
 10
13.0939447613
 20
-24.6842393835
 30
0.0
 10
13.0939447613
 20
-24.4860281243
 30
0.0
  0
SPLINE
  5
2DA
100
AcDbEntity
  8
RACCORDO
100
AcDbSpline
 62
250
  6
CONTINUOUS
 70
0
 71
3
 72
19
 73
15
 74
0
 42
0.0000001
 43
0.0000001
 44
0.0000000001
 40
0.0
 40
0.0
 40
0.0
 40
0.0
 40
0.1301589516
 40
0.1869612009
 40
0.2390842668
 40
0.287729304
 40
0.3345125458
 40
0.3813163487
 40
0.430020037
 40
0.4822316875
 40
0.5391440042
 40
0.6695526668
 40
0.8237147843
 40
1.0
 40
1.0
 40
1.0
 40
1.0
 10
11.0743295191
 20
-25.4154509877
 30
0.0
 10
11.1461817233
 20
-25.4776768219
 30
0.0
 10
11.258000458
 20
-25.5589840763
 30
0.0
 10
11.418313422
 20
-25.629640294
 30
0.0
 10
11.5304580942
 20
-25.6581322106
 30
0.0
 10
11.6388444201
 20
-25.6638650462
 30
0.0
 10
11.7421383939
 20
-25.6463379594
 30
0.0
 10
11.8387223695
 20
-25.6056318823
 30
0.0
 10
11.927195206
 20
-25.5425499647
 30
0.0
 10
12.0067031645
 20
-25.4582446996
 30
0.0
 10
12.1044224951
 20
-25.3123793954
 30
0.0
 10
12.1973970067
 20
-25.0782335882
 30
0.0
 10
12.261604575
 20
-24.7467019901
 30
0.0
 10
12.2743295191
 20
-24.5049567875
 30
0.0
 10
12.2743295191
 20
-24.3762205031
 30
0.0
  0
SPLINE
  5
2DB
100
AcDbEntity
  8
0
100
AcDbSpline
 62
7
  6
CONTINUOUS
 70
0
 71
3
 72
12
 73
8
 74
0
 42
0.0000001
 43
0.0000001
 44
0.0000000001
 40
0.0
 40
0.0
 40
0.0
 40
0.0
 40
0.2550559633
 40
0.5271528255
 40
0.7846585898
 40
0.8990016307
 40
1.0
 40
1.0
 40
1.0
 40
1.0
 10
9.566002475
 20
-18.9226642699
 30
0.0
 10
9.566002475
 20
-19.0294104022
 30
0.0
 10
9.5910287484
 20
-19.2502195282
 30
0.0
 10
9.680480122
 20
-19.5672869627
 30
0.0
 10
9.7948465755
 20
-19.8132954985
 30
0.0
 10
9.9058770543
 20
-19.9775297559
 30
0.0
 10
9.965860672
 20
-20.0453590114
 30
0.0
 10
9.9966515421
 20
-20.074318728
 30
0.0
  0
SPLINE
  5
2DC
100
AcDbEntity
  8
0
100
AcDbSpline
 62
7
  6
CONTINUOUS
 70
0
 71
3
 72
9
 73
5
 74
0
 42
0.0000001
 43
0.0000001
 44
0.0000000001
 40
0.0
 40
0.0
 40
0.0
 40
0.0
 40
0.2715530959
 40
1.0
 40
1.0
 40
1.0
 40
1.0
 10
9.566002475
 20
-18.9226642699
 30
0.0
 10
9.566002475
 20
-18.9003380677
 30
0.0
 10
9.5680683914
 20
-18.8181846808
 30
0.0
 10
9.5785242656
 20
-18.7358717084
 30
0.0
 10
9.5935768897
 20
-18.6779036875
 30
0.0
  0
SPLINE
  5
2DD
100
AcDbEntity
  8
RACCORDO
100
AcDbSpline
 62
250
  6
CONTINUOUS
 70
0
 71
3
 72
10
 73
6
 74
0
 42
0.0000001
 43
0.0000001
 44
0.0000000001
 40
0.0
 40
0.0
 40
0.0
 40
0.0
 40
0.5183177296
 40
0.7619793879
 40
1.0
 40
1.0
 40
1.0
 40
1.0
 10
-12.7756704809
 20
-4.7607451074
 30
0.0
 10
-12.7756704809
 20
-4.8191301693
 30
0.0
 10
-12.7606857634
 20
-4.9067418847
 30
0.0
 10
-12.7059877021
 20
-5.006098948
 30
0.0
 10
-12.6691141673
 20
-5.0467493135
 30
0.0
 10
-12.6488468031
 20
-5.0643017384
 30
0.0
  0
SPLINE
  5
2DE
100
AcDbEntity
  8
RACCORDO
100
AcDbSpline
 62
250
  6
CONTINUOUS
 70
0
 71
3
 72
10
 73
6
 74
0
 42
0.0000001
 43
0.0000001
 44
0.0000000001
 40
0.0
 40
0.0
 40
0.0
 40
0.0
 40
0.5183177296
 40
0.7619793879
 40
1.0
 40
1.0
 40
1.0
 40
1.0
 10
11.0743295191
 20
-25.4154509877
 30
0.0
 10
11.0743295191
 20
-25.4738360495
 30
0.0
 10
11.0893142366
 20
-25.561447765
 30
0.0
 10
11.1440122979
 20
-25.6608048282
 30
0.0
 10
11.1808858327
 20
-25.7014551937
 30
0.0
 10
11.2011531969
 20
-25.7190076186
 30
0.0
  0
SPLINE
  5
2DF
100
AcDbEntity
  8
RACCORDO
100
AcDbSpline
 62
250
  6
CONTINUOUS
 70
0
 71
3
 72
11
 73
7
 74
0
 42
0.0000001
 43
0.0000001
 44
0.0000000001
 40
0.0
 40
0.0
 40
0.0
 40
0.0
 40
0.208420338
 40
0.4620835594
 40
0.7362496169
 40
1.0
 40
1.0
 40
1.0
 40
1.0
 10
12.2743295191
 20
-24.3762205031
 30
0.0
 10
12.3191015531
 20
-24.414994222
 30
0.0
 10
12.4384969755
 20
-24.4768344512
 30
0.0
 10
12.6434648243
 20
-24.5240361166
 30
0.0
 10
12.8696568652
 20
-24.5311271641
 30
0.0
 10
13.0219339341
 20
-24.5068158595
 30
0.0
 10
13.0939447613
 20
-24.4860281243
 30
0.0
  0
SPLINE
  5
2E0
100
AcDbEntity
  8
RACCORDO
100
AcDbSpline
 62
250
  6
CONTINUOUS
 70
0
 71
3
 72
11
 73
7
 74
0
 42
0.0000001
 43
0.0000001
 44
0.0000000001
 40
0.0
 40
0.0
 40
0.0
 40
0.0
 40
0.208420338
 40
0.4620835594
 40
0.7362496169
 40
1.0
 40
1.0
 40
1.0
 40
1.0
 10
12.2743295191
 20
1.0849263681
 30
0.0
 10
12.3191015531
 20
1.0461526492
 30
0.0
 10
12.4384969755
 20
0.9843124201
 30
0.0
 10
12.6434648243
 20
0.9371107546
 30
0.0
 10
12.8696568652
 20
0.9300197072
 30
0.0
 10
13.0219339341
 20
0.9543310117
 30
0.0
 10
13.0939447613
 20
0.975118747
 30
0.0
  0
SPLINE
  5
2E1
100
AcDbEntity
  8
RACCORDO
100
AcDbSpline
 62
250
  6
CONTINUOUS
 70
0
 71
3
 72
11
 73
7
 74
0
 42
0.0000001
 43
0.0000001
 44
0.0000000001
 40
0.0
 40
0.0
 40
0.0
 40
0.0
 40
0.2379945589
 40
0.4943834156
 40
0.7539162749
 40
1.0
 40
1.0
 40
1.0
 40
1.0
 10
11.0743295191
 20
4.2026178217
 30
0.0
 10
11.0743295191
 20
4.2739355526
 30
0.0
 10
11.1048441269
 20
4.4226525252
 30
0.0
 10
11.2183324832
 20
4.6215638221
 30
0.0
 10
11.3848428664
 20
4.7821862732
 30
0.0
 10
11.5230959892
 20
4.8517807852
 30
0.0
 10
11.5939447613
 20
4.872233064
 30
0.0
  0
SPLINE
  5
2E2
100
AcDbEntity
  8
RACCORDO
100
AcDbSpline
 62
250
  6
CONTINUOUS
 70
0
 71
3
 72
11
 73
7
 74
0
 42
0.0000001
 43
0.0000001
 44
0.0000000001
 40
0.0
 40
0.0
 40
0.0
 40
0.0
 40
0.2379945589
 40
0.4943834156
 40
0.7539162749
 40
1.0
 40
1.0
 40
1.0
 40
1.0
 10
-12.7756704809
 20
24.857323702
 30
0.0
 10
-12.7756704809
 20
24.9286414329
 30
0.0
 10
-12.7451558731
 20
25.0773584055
 30
0.0
 10
-12.6316675168
 20
25.2762697024
 30
0.0
 10
-12.4651571336
 20
25.4368921535
 30
0.0
 10
-12.3269040108
 20
25.5064866654
 30
0.0
 10
-12.2560552387
 20
25.5269389443
 30
0.0
  0
SPLINE
  5
2E3
100
AcDbEntity
  8
RACCORDO
100
AcDbSpline
 62
250
  6
CONTINUOUS
 70
0
 71
3
 72
9
 73
5
 74
0
 42
0.0000001
 43
0.0000001
 44
0.0000000001
 40
0.0
 40
0.0
 40
0.0
 40
0.0
 40
0.5392203676
 40
1.0
 40
1.0
 40
1.0
 40
1.0
 10
-13.9756704809
 20
23.8180932175
 30
0.0
 10
-13.9993458736
 20
23.8385967089
 30
0.0
 10
-14.0391440811
 20
23.8828321458
 30
0.0
 10
-14.056055859
 20
23.9413296994
 30
0.0
 10
-14.0560546351
 20
23.9680932175
 30
0.0
  0
SPLINE
  5
2E4
100
AcDbEntity
  8
RACCORDO
100
AcDbSpline
 62
250
  6
CONTINUOUS
 70
0
 71
3
 72
9
 73
5
 74
0
 42
0.0000001
 43
0.0000001
 44
0.0000000001
 40
0.0
 40
0.0
 40
0.0
 40
0.0
 40
0.5392203676
 40
1.0
 40
1.0
 40
1.0
 40
1.0
 10
-13.9756704809
 20
-1.6430536538
 30
0.0
 10
-13.9993458736
 20
-1.6225501623
 30
0.0
 10
-14.0391440811
 20
-1.5783147255
 30
0.0
 10
-14.056055859
 20
-1.5198171718
 30
0.0
 10
-14.0560546351
 20
-1.4930536538
 30
0.0
  0
SPLINE
  5
2E5
100
AcDbEntity
  8
0
100
AcDbSpline
 62
7
  6
CONTINUOUS
 70
0
 71
3
 72
9
 73
5
 74
0
 42
0.0000001
 43
0.0000001
 44
0.0000000001
 40
0.0
 40
0.0
 40
0.0
 40
0.0
 40
0.2123799835
 40
1.0
 40
1.0
 40
1.0
 40
1.0
 10
-0.4450633277
 20
-14.6565254126
 30
0.0
 10
-0.4475246396
 20
-14.6572359321
 30
0.0
 10
-0.4598503516
 20
-14.6582346247
 30
0.0
 10
-0.4710922545
 20
-14.65089844
 30
0.0
 10
-0.4782740301
 20
-14.6446788398
 30
0.0
  0
SPLINE
  5
2E6
100
AcDbEntity
  8
0
100
AcDbSpline
 62
7
  6
CONTINUOUS
 70
0
 71
3
 72
9
 73
5
 74
0
 42
0.0000001
 43
0.0000001
 44
0.0000000001
 40
0.0
 40
0.0
 40
0.0
 40
0.0
 40
0.239246656
 40
1.0
 40
1.0
 40
1.0
 40
1.0
 10
0.2272080807
 20
-1.0895603729
 30
0.0
 10
0.2259161805
 20
-1.0896614261
 30
0.0
 10
0.220493232
 20
-1.0897960468
 30
0.0
 10
0.2150808269
 20
-1.0888611074
 30
0.0
 10
0.2111052087
 20
-1.0877780069
 30
0.0
  0
SPLINE
  5
2E7
100
AcDbEntity
  8
0
100
AcDbSpline
 62
7
  6
CONTINUOUS
 70
0
 71
3
 72
9
 73
5
 74
0
 42
0.0000001
 43
0.0000001
 44
0.0000000001
 40
0.0
 40
0.0
 40
0.0
 40
0.0
 40
0.4668060521
 40
1.0
 40
1.0
 40
1.0
 40
1.0
 10
0.2111052087
 20
-1.0877780069
 30
0.0
 10
0.2027204714
 20
-1.0854937049
 30
0.0
 10
0.1857490824
 20
-1.0771802098
 30
0.0
 10
0.1707684204
 20
-1.0660853335
 30
0.0
 10
0.1631203671
 20
-1.0597578023
 30
0.0
  0
SPLINE
  5
2E8
100
AcDbEntity
  8
0
100
AcDbSpline
 62
7
  6
CONTINUOUS
 70
0
 71
3
 72
9
 73
5
 74
0
 42
0.0000001
 43
0.0000001
 44
0.0000000001
 40
0.0
 40
0.0
 40
0.0
 40
0.0
 40
0.437189243
 40
1.0
 40
1.0
 40
1.0
 40
1.0
 10
0.2209266421
 20
-1.0921098074
 30
0.0
 10
0.2099729293
 20
-1.0952718698
 30
0.0
 10
0.1822061676
 20
-1.0882383157
 30
0.0
 10
0.1614383857
 20
-1.07286368
 30
0.0
 10
0.150129986
 20
-1.0635078023
 30
0.0
  0
SPLINE
  5
2E9
100
AcDbEntity
  8
0
100
AcDbSpline
 62
7
  6
CONTINUOUS
 70
0
 71
3
 72
11
 73
7
 74
0
 42
0.0000001
 43
0.0000001
 44
0.0000000001
 40
0.0
 40
0.0
 40
0.0
 40
0.0
 40
0.5365424189
 40
0.6695534962
 40
0.7913541657
 40
1.0
 40
1.0
 40
1.0
 40
1.0
 10
-0.9334741622
 20
-13.8373839044
 30
0.0
 10
-0.9334741622
 20
-13.7803714692
 30
0.0
 10
-0.94685415
 20
-13.7081184688
 30
0.0
 10
-0.9817469908
 20
-13.6314792835
 30
0.0
 10
-1.0076428996
 20
-13.5895460379
 30
0.0
 10
-1.0302957379
 20
-13.5621073753
 30
0.0
 10
-1.0470550394
 20
-13.5475933703
 30
0.0
  0
SPLINE
  5
2EA
100
AcDbEntity
  8
0
100
AcDbSpline
 62
7
  6
CONTINUOUS
 70
0
 71
3
 72
16
 73
12
 74
0
 42
0.0000001
 43
0.0000001
 44
0.0000000001
 40
0.0
 40
0.0
 40
0.0
 40
0.0
 40
0.0708867951
 40
0.160852259
 40
0.2737895589
 40
0.4056477202
 40
0.5509167474
 40
0.7045071329
 40
0.8575524206
 40
0.931098538
 40
1.0
 40
1.0
 40
1.0
 40
1.0
 10
0.3272735572
 20
-1.2816511949
 30
0.0
 10
0.341880194
 20
-1.2771497309
 30
0.0
 10
0.3694322354
 20
-1.2518847724
 30
0.0
 10
0.393120639
 20
-1.197313647
 30
0.0
 10
0.4048687125
 20
-1.1254776344
 30
0.0
 10
0.4054750225
 20
-1.0412197953
 30
0.0
 10
0.3956838778
 20
-0.9486370404
 30
0.0
 10
0.373519471
 20
-0.8535084682
 30
0.0
 10
0.3454609383
 20
-0.7762411283
 30
0.0
 10
0.3181569098
 20
-0.7186496531
 30
0.0
 10
0.302914773
 20
-0.6918993604
 30
0.0
 10
0.2946390476
 20
-0.6795613392
 30
0.0
  0
SPLINE
  5
2EB
100
AcDbEntity
  8
0
100
AcDbSpline
 62
7
  6
CONTINUOUS
 70
0
 71
3
 72
13
 73
9
 74
0
 42
0.0000001
 43
0.0000001
 44
0.0000000001
 40
0.0
 40
0.0
 40
0.0
 40
0.0
 40
0.0881986721
 40
0.1818342725
 40
0.2852048783
 40
0.4010370529
 40
0.6738031049
 40
1.0
 40
1.0
 40
1.0
 40
1.0
 10
9.324714478
 20
-18.5751838344
 30
0.0
 10
9.3092672145
 20
-18.5796438266
 30
0.0
 10
9.278616303
 20
-18.5935734887
 30
0.0
 10
9.2384136795
 20
-18.6273446776
 30
0.0
 10
9.2038255543
 20
-18.6731816403
 30
0.0
 10
9.1633876011
 20
-18.753648083
 30
0.0
 10
9.1313280132
 20
-18.8813392321
 30
0.0
 10
9.1243295191
 20
-18.9907000105
 30
0.0
 10
9.1243295191
 20
-19.0501642699
 30
0.0
  0
SPLINE
  5
2EC
100
AcDbEntity
  8
0
100
AcDbSpline
 62
7
  6
CONTINUOUS
 70
0
 71
3
 72
8
 73
4
 74
0
 42
0.0000001
 43
0.0000001
 44
0.0000000001
 40
0.0
 40
0.0
 40
0.0
 40
0.0
 40
1.0
 40
1.0
 40
1.0
 40
1.0
 10
0.4385322058
 20
-1.9472028469
 30
0.0
 10
0.4220602172
 20
-1.8278912256
 30
0.0
 10
0.4068868141
 20
-1.7084025531
 30
0.0
 10
0.3903704354
 20
-1.5890970686
 30
0.0
  0
SPLINE
  5
2ED
100
AcDbEntity
  8
0
100
AcDbSpline
 62
7
  6
CONTINUOUS
 70
0
 71
3
 72
10
 73
6
 74
0
 42
0.0000001
 43
0.0000001
 44
0.0000000001
 40
0.0
 40
0.0
 40
0.0
 40
0.0
 40
0.4994653187
 40
0.7562874511
 40
1.0
 40
1.0
 40
1.0
 40
1.0
 10
0.3903704354
 20
-1.5890970686
 30
0.0
 10
0.3832963781
 20
-1.5379954532
 30
0.0
 10
0.3726127306
 20
-1.4604131803
 30
0.0
 10
0.3452565104
 20
-1.3606544755
 30
0.0
 10
0.323936343
 20
-1.3130332818
 30
0.0
 10
0.3105678098
 20
-1.2917038432
 30
0.0
  0
SPLINE
  5
2EE
100
AcDbEntity
  8
0
100
AcDbSpline
 62
7
  6
CONTINUOUS
 70
0
 71
3
 72
9
 73
5
 74
0
 42
0.0000001
 43
0.0000001
 44
0.0000000001
 40
0.0
 40
0.0
 40
0.0
 40
0.0
 40
0.2254669274
 40
1.0
 40
1.0
 40
1.0
 40
1.0
 10
-0.5047970961
 20
-14.1153556557
 30
0.0
 10
-0.5067141718
 20
-14.1165710573
 30
0.0
 10
-0.5145561744
 20
-14.1229939806
 30
0.0
 10
-0.5199588422
 20
-14.131922878
 30
0.0
 10
-0.5231023877
 20
-14.1390587538
 30
0.0
  0
SPLINE
  5
2EF
100
AcDbEntity
  8
0
100
AcDbSpline
 62
7
  6
CONTINUOUS
 70
0
 71
3
 72
11
 73
7
 74
0
 42
0.0000001
 43
0.0000001
 44
0.0000000001
 40
0.0
 40
0.0
 40
0.0
 40
0.0
 40
0.2179503624
 40
0.4637951532
 40
0.7249695155
 40
1.0
 40
1.0
 40
1.0
 40
1.0
 10
-0.5231023877
 20
-14.1390587538
 30
0.0
 10
-0.5283074714
 20
-14.150874339
 30
0.0
 10
-0.5342362421
 20
-14.1780364263
 30
0.0
 10
-0.5399766605
 20
-14.2205011114
 30
0.0
 10
-0.5433539819
 20
-14.2667788459
 30
0.0
 10
-0.543551707
 20
-14.2985475527
 30
0.0
 10
-0.543551707
 20
-14.3148402232
 30
0.0
  0
SPLINE
  5
2F0
100
AcDbEntity
  8
0
100
AcDbSpline
 62
7
  6
CONTINUOUS
 70
0
 71
3
 72
10
 73
6
 74
0
 42
0.0000001
 43
0.0000001
 44
0.0000000001
 40
0.0
 40
0.0
 40
0.0
 40
0.0
 40
0.2902188182
 40
0.6640760037
 40
1.0
 40
1.0
 40
1.0
 40
1.0
 10
0.2946390476
 20
-0.6795613392
 30
0.0
 10
0.2692535714
 20
-0.6416919014
 30
0.0
 10
0.2031586543
 20
-0.5602384135
 30
0.0
 10
0.0844426388
 20
-0.4563613089
 30
0.0
 10
-0.0080094834
 20
-0.3936790401
 30
0.0
 10
-0.0530356912
 20
-0.366158516
 30
0.0
  0
SPLINE
  5
2F1
100
AcDbEntity
  8
0
100
AcDbSpline
 62
7
  6
CONTINUOUS
 70
0
 71
3
 72
9
 73
5
 74
0
 42
0.0000001
 43
0.0000001
 44
0.0000000001
 40
0.0
 40
0.0
 40
0.0
 40
0.0
 40
0.2125203035
 40
1.0
 40
1.0
 40
1.0
 40
1.0
 10
-0.5282664184
 20
-14.0287710503
 30
0.0
 10
-0.523592098
 20
-14.0274216902
 30
0.0
 10
-0.5001738339
 20
-14.0256994647
 30
0.0
 10
-0.4789112513
 20
-14.039622576
 30
0.0
 10
-0.4652836491
 20
-14.0514244257
 30
0.0
  0
SPLINE
  5
2F2
100
AcDbEntity
  8
0
100
AcDbSpline
 62
7
  6
CONTINUOUS
 70
0
 71
3
 72
9
 73
5
 74
0
 42
0.0000001
 43
0.0000001
 44
0.0000000001
 40
0.0
 40
0.0
 40
0.0
 40
0.0
 40
0.2279141712
 40
1.0
 40
1.0
 40
1.0
 40
1.0
 10
-11.2564231103
 20
-0.6212740186
 30
0.0
 10
-11.2611335467
 20
-0.6394140234
 30
0.0
 10
-11.2784529429
 20
-0.7198738785
 30
0.0
 10
-11.283997525
 20
-0.8025452084
 30
0.0
 10
-11.283997525
 20
-0.866034601
 30
0.0
  0
SPLINE
  5
2F3
100
AcDbEntity
  8
0
100
AcDbSpline
 62
7
  6
CONTINUOUS
 70
0
 71
3
 72
15
 73
11
 74
0
 42
0.0000001
 43
0.0000001
 44
0.0000000001
 40
0.0
 40
0.0
 40
0.0
 40
0.0
 40
0.1039158152
 40
0.2309253962
 40
0.367041639
 40
0.5011489974
 40
0.6316204878
 40
0.7581095029
 40
0.8810505515
 40
1.0
 40
1.0
 40
1.0
 40
1.0
 10
-0.4782740301
 20
-14.6446788398
 30
0.0
 10
-0.487250187
 20
-14.63690526
 30
0.0
 10
-0.5038467461
 20
-14.6158137747
 30
0.0
 10
-0.5218723072
 20
-14.5777821464
 30
0.0
 10
-0.5358247797
 20
-14.534461517
 30
0.0
 10
-0.5447233769
 20
-14.4894749918
 30
0.0
 10
-0.5502408638
 20
-14.4451162217
 30
0.0
 10
-0.5542302555
 20
-14.401882438
 30
0.0
 10
-0.5564160385
 20
-14.359828393
 30
0.0
 10
-0.5565420881
 20
-14.3321824383
 30
0.0
 10
-0.5565420881
 20
-14.3185902232
 30
0.0
  0
SPLINE
  5
2F4
100
AcDbEntity
  8
0
100
AcDbSpline
 62
7
  6
CONTINUOUS
 70
0
 71
3
 72
13
 73
9
 74
0
 42
0.0000001
 43
0.0000001
 44
0.0000000001
 40
0.0
 40
0.0
 40
0.0
 40
0.0
 40
0.2991489931
 40
0.5770655631
 40
0.7073298227
 40
0.823549059
 40
0.9198181895
 40
1.0
 40
1.0
 40
1.0
 40
1.0
 10
-0.5565420881
 20
-14.3185902232
 30
0.0
 10
-0.5565420881
 20
-14.2971764107
 30
0.0
 10
-0.5560188857
 20
-14.2558417242
 30
0.0
 10
-0.5507673042
 20
-14.2053893329
 30
0.0
 10
-0.5444813296
 20
-14.1683981089
 30
0.0
 10
-0.5378654615
 20
-14.144596626
 30
0.0
 10
-0.5274780258
 20
-14.1262217667
 30
0.0
 10
-0.5169991705
 20
-14.1178111679
 30
0.0
 10
-0.5114847325
 20
-14.1162192868
 30
0.0
  0
SPLINE
  5
2F5
100
AcDbEntity
  8
0
100
AcDbSpline
 62
7
  6
CONTINUOUS
 70
0
 71
3
 72
9
 73
5
 74
0
 42
0.0000001
 43
0.0000001
 44
0.0000000001
 40
0.0
 40
0.0
 40
0.0
 40
0.0
 40
0.3026543958
 40
1.0
 40
1.0
 40
1.0
 40
1.0
 10
-0.4782740301
 20
-14.0551744257
 30
0.0
 10
-0.4834756449
 20
-14.0506696951
 30
0.0
 10
-0.5011291601
 20
-14.0370057089
 30
0.0
 10
-0.5260240828
 20
-14.0281237453
 30
0.0
 10
-0.5412567956
 20
-14.0325210492
 30
0.0
  0
SPLINE
  5
2F6
100
AcDbEntity
  8
0
100
AcDbSpline
 62
7
  6
CONTINUOUS
 70
0
 71
3
 72
16
 73
12
 74
0
 42
0.0000001
 43
0.0000001
 44
0.0000000001
 40
0.0
 40
0.0
 40
0.0
 40
0.0
 40
0.0706933022
 40
0.1603837382
 40
0.2731475952
 40
0.4049881306
 40
0.5503348767
 40
0.7040919995
 40
0.8573509117
 40
0.9310027591
 40
1.0
 40
1.0
 40
1.0
 40
1.0
 10
0.3134173551
 20
-1.2856595191
 30
0.0
 10
0.3280817604
 20
-1.2814262697
 30
0.0
 10
0.3559310057
 20
-1.2564539226
 30
0.0
 10
0.3798636825
 20
-1.2020442485
 30
0.0
 10
0.3918169154
 20
-1.1302360858
 30
0.0
 10
0.3925334782
 20
-1.0458885963
 30
0.0
 10
0.3828281008
 20
-0.9531218425
 30
0.0
 10
0.3606853476
 20
-0.8577507918
 30
0.0
 10
0.3325906023
 20
-0.7802665125
 30
0.0
 10
0.305226318
 20
-0.722510028
 30
0.0
 10
0.2899469776
 20
-0.6956830326
 30
0.0
 10
0.2816486666
 20
-0.6833113392
 30
0.0
  0
SPLINE
  5
2F7
100
AcDbEntity
  8
0
100
AcDbSpline
 62
7
  6
CONTINUOUS
 70
0
 71
3
 72
13
 73
9
 74
0
 42
0.0000001
 43
0.0000001
 44
0.0000000001
 40
0.0
 40
0.0
 40
0.0
 40
0.0
 40
0.24624708
 40
0.5099226474
 40
0.6465560221
 40
0.7793740712
 40
0.8991908694
 40
1.0
 40
1.0
 40
1.0
 40
1.0
 10
-0.3499378255
 20
-14.4975147632
 30
0.0
 10
-0.3499378255
 20
-14.4587723809
 30
0.0
 10
-0.3541450265
 20
-14.3785895926
 30
0.0
 10
-0.3680700089
 20
-14.2774360664
 30
0.0
 10
-0.3914439051
 20
-14.1967460016
 30
0.0
 10
-0.4144306331
 20
-14.1397702186
 30
0.0
 10
-0.4432796655
 20
-14.0919807818
 30
0.0
 10
-0.466284668
 20
-14.0655575179
 30
0.0
 10
-0.4782740301
 20
-14.0551744257
 30
0.0
  0
SPLINE
  5
2F8
100
AcDbEntity
  8
0
100
AcDbSpline
 62
7
  6
CONTINUOUS
 70
0
 71
3
 72
13
 73
9
 74
0
 42
0.0000001
 43
0.0000001
 44
0.0000000001
 40
0.0
 40
0.0
 40
0.0
 40
0.0
 40
0.1008091306
 40
0.2206259288
 40
0.3534439779
 40
0.4900773526
 40
0.75375292
 40
1.0
 40
1.0
 40
1.0
 40
1.0
 10
-0.4652836491
 20
-14.0514244257
 30
0.0
 10
-0.453294287
 20
-14.0618075179
 30
0.0
 10
-0.4302892844
 20
-14.0882307818
 30
0.0
 10
-0.401440252
 20
-14.1360202186
 30
0.0
 10
-0.378453524
 20
-14.1929960016
 30
0.0
 10
-0.3550796278
 20
-14.2736860664
 30
0.0
 10
-0.3411546454
 20
-14.3748395926
 30
0.0
 10
-0.3369474444
 20
-14.4550223809
 30
0.0
 10
-0.3369474444
 20
-14.4937647632
 30
0.0
  0
SPLINE
  5
2F9
100
AcDbEntity
  8
0
100
AcDbSpline
 62
7
  6
CONTINUOUS
 70
0
 71
3
 72
12
 73
8
 74
0
 42
0.0000001
 43
0.0000001
 44
0.0000000001
 40
0.0
 40
0.0
 40
0.0
 40
0.0
 40
0.1009983693
 40
0.2153414102
 40
0.4728471745
 40
0.7449440367
 40
1.0
 40
1.0
 40
1.0
 40
1.0
 10
-10.8533484579
 20
-2.0176890591
 30
0.0
 10
-10.884139328
 20
-1.9887293425
 30
0.0
 10
-10.9441229457
 20
-1.920900087
 30
0.0
 10
-11.0551534245
 20
-1.7566658295
 30
0.0
 10
-11.169519878
 20
-1.5106572938
 30
0.0
 10
-11.2589712516
 20
-1.1935898593
 30
0.0
 10
-11.283997525
 20
-0.9727807333
 30
0.0
 10
-11.283997525
 20
-0.866034601
 30
0.0
  0
SPLINE
  5
2FA
100
AcDbEntity
  8
0
100
AcDbSpline
 62
7
  6
CONTINUOUS
 70
0
 71
3
 72
11
 73
7
 74
0
 42
0.0000001
 43
0.0000001
 44
0.0000000001
 40
0.0
 40
0.0
 40
0.0
 40
0.0
 40
0.3076625798
 40
0.5894277521
 40
0.8264865575
 40
1.0
 40
1.0
 40
1.0
 40
1.0
 10
-0.3369474444
 20
-14.4937647632
 30
0.0
 10
-0.3369474444
 20
-14.5205244993
 30
0.0
 10
-0.3385965071
 20
-14.5717681817
 30
0.0
 10
-0.3476574322
 20
-14.6434515179
 30
0.0
 10
-0.362255807
 20
-14.7013937265
 30
0.0
 10
-0.3878011729
 20
-14.732287944
 30
0.0
 10
-0.4023008797
 20
-14.7364736491
 30
0.0
  0
SPLINE
  5
2FB
100
AcDbEntity
  8
0
100
AcDbSpline
 62
7
  6
CONTINUOUS
 70
0
 71
3
 72
17
 73
13
 74
0
 42
0.0000001
 43
0.0000001
 44
0.0000000001
 40
0.0
 40
0.0
 40
0.0
 40
0.0
 40
0.0340920725
 40
0.0706897829
 40
0.1116875473
 40
0.1581830314
 40
0.2686878895
 40
0.4007794622
 40
0.548463623
 40
0.7035715763
 40
0.857040388
 40
1.0
 40
1.0
 40
1.0
 40
1.0
 10
-11.0260554399
 20
-2.2479378999
 30
0.0
 10
-11.0430469707
 20
-2.2528437588
 30
0.0
 10
-11.0801388663
 20
-2.2573260267
 30
0.0
 10
-11.1378312119
 20
-2.2470937857
 30
0.0
 10
-11.1972330074
 20
-2.2210792558
 30
0.0
 10
-11.2825043961
 20
-2.1630450446
 30
0.0
 10
-11.3861177982
 20
-2.052475815
 30
0.0
 10
-11.4963181431
 20
-1.8818914357
 30
0.0
 10
-11.5918538393
 20
-1.6768039298
 30
0.0
 10
-11.6659147253
 20
-1.451451398
 30
0.0
 10
-11.7133083696
 20
-1.2215633777
 30
0.0
 10
-11.7256704809
 20
-1.0676962103
 30
0.0
 10
-11.7256704809
 20
-0.993534601
 30
0.0
  0
SPLINE
  5
2FC
100
AcDbEntity
  8
0
100
AcDbSpline
 62
7
  6
CONTINUOUS
 70
0
 71
3
 72
9
 73
5
 74
0
 42
0.0000001
 43
0.0000001
 44
0.0000000001
 40
0.0
 40
0.0
 40
0.0
 40
0.0
 40
0.2899806255
 40
1.0
 40
1.0
 40
1.0
 40
1.0
 10
-0.4652836491
 20
-14.6409288398
 30
0.0
 10
-0.4631179568
 20
-14.6428043844
 30
0.0
 10
-0.4553514081
 20
-14.6487990354
 30
0.0
 10
-0.4457834825
 20
-14.6533241139
 30
0.0
 10
-0.4387736711
 20
-14.6535893457
 30
0.0
  0
SPLINE
  5
2FD
100
AcDbEntity
  8
0
100
AcDbSpline
 62
7
  6
CONTINUOUS
 70
0
 71
3
 72
15
 73
11
 74
0
 42
0.0000001
 43
0.0000001
 44
0.0000000001
 40
0.0
 40
0.0
 40
0.0
 40
0.0
 40
0.1189494485
 40
0.2418904971
 40
0.3683795122
 40
0.4988510026
 40
0.632958361
 40
0.7690746038
 40
0.8960841848
 40
1.0
 40
1.0
 40
1.0
 40
1.0
 10
-0.543551707
 20
-14.3148402232
 30
0.0
 10
-0.543551707
 20
-14.3284324383
 30
0.0
 10
-0.5434256574
 20
-14.356078393
 30
0.0
 10
-0.5412398745
 20
-14.398132438
 30
0.0
 10
-0.5372504827
 20
-14.4413662217
 30
0.0
 10
-0.5317329958
 20
-14.4857249918
 30
0.0
 10
-0.5228343987
 20
-14.530711517
 30
0.0
 10
-0.5088819261
 20
-14.5740321464
 30
0.0
 10
-0.490856365
 20
-14.6120637747
 30
0.0
 10
-0.4742598059
 20
-14.63315526
 30
0.0
 10
-0.4652836491
 20
-14.6409288398
 30
0.0
  0
SPLINE
  5
2FE
100
AcDbEntity
  8
0
100
AcDbSpline
 62
7
  6
CONTINUOUS
 70
0
 71
3
 72
11
 73
7
 74
0
 42
0.0000001
 43
0.0000001
 44
0.0000000001
 40
0.0
 40
0.0
 40
0.0
 40
0.0
 40
0.1735134396
 40
0.4105722434
 40
0.6923374174
 40
1.0
 40
1.0
 40
1.0
 40
1.0
 10
-0.4152912647
 20
-14.7402236502
 30
0.0
 10
-0.4007915574
 20
-14.7360379467
 30
0.0
 10
-0.3752461892
 20
-14.70514373
 30
0.0
 10
-0.3606478138
 20
-14.6472015209
 30
0.0
 10
-0.3515868882
 20
-14.5755181834
 30
0.0
 10
-0.3499378255
 20
-14.5242744999
 30
0.0
 10
-0.3499378255
 20
-14.4975147632
 30
0.0
  0
SPLINE
  5
2FF
100
AcDbEntity
  8
0
100
AcDbSpline
 62
7
  6
CONTINUOUS
 70
0
 71
3
 72
11
 73
7
 74
0
 42
0.0000001
 43
0.0000001
 44
0.0000000001
 40
0.0
 40
0.0
 40
0.0
 40
0.0
 40
0.536542419
 40
0.6695534963
 40
0.7913541657
 40
1.0
 40
1.0
 40
1.0
 40
1.0
 10
-0.9464645433
 20
-13.8411339044
 30
0.0
 10
-0.9464645433
 20
-13.7841214692
 30
0.0
 10
-0.959844531
 20
-13.7118684687
 30
0.0
 10
-0.9947373719
 20
-13.6352292835
 30
0.0
 10
-1.0206332807
 20
-13.5932960379
 30
0.0
 10
-1.043286119
 20
-13.5658573752
 30
0.0
 10
-1.0600454205
 20
-13.5513433703
 30
0.0
  0
SPLINE
  5
300
100
AcDbEntity
  8
0
100
AcDbSpline
 62
7
  6
CONTINUOUS
 70
0
 71
3
 72
9
 73
5
 74
0
 42
0.0000001
 43
0.0000001
 44
0.0000000001
 40
0.0
 40
0.0
 40
0.0
 40
0.0
 40
0.231945842
 40
1.0
 40
1.0
 40
1.0
 40
1.0
 10
-1.0176418908
 20
-13.8645568853
 30
0.0
 10
-1.019270745
 20
-13.8644760524
 30
0.0
 10
-1.0262536903
 20
-13.8633955319
 30
0.0
 10
-1.0328201167
 20
-13.8605860541
 30
0.0
 10
-1.03764414
 20
-13.8581586001
 30
0.0
  0
SPLINE
  5
301
100
AcDbEntity
  8
0
100
AcDbSpline
 62
7
  6
CONTINUOUS
 70
0
 71
3
 72
9
 73
5
 74
0
 42
0.0000001
 43
0.0000001
 44
0.0000000001
 40
0.0
 40
0.0
 40
0.0
 40
0.0
 40
0.2324777343
 40
1.0
 40
1.0
 40
1.0
 40
1.0
 10
-1.03764414
 20
-13.8581586001
 30
0.0
 10
-1.0394484373
 20
-13.8572506756
 30
0.0
 10
-1.0470755815
 20
-13.8530767196
 30
0.0
 10
-1.0540688859
 20
-13.8478087218
 30
0.0
 10
-1.0591097898
 20
-13.8434431133
 30
0.0
  0
SPLINE
  5
302
100
AcDbEntity
  8
0
100
AcDbSpline
 62
7
  6
CONTINUOUS
 70
0
 71
3
 72
17
 73
13
 74
0
 42
0.0000001
 43
0.0000001
 44
0.0000000001
 40
0.0
 40
0.0
 40
0.0
 40
0.0
 40
0.142959612
 40
0.2964284237
 40
0.451536377
 40
0.5992205378
 40
0.7313121105
 40
0.8418169686
 40
0.8883124527
 40
0.9293102171
 40
0.9659079275
 40
1.0
 40
1.0
 40
1.0
 40
1.0
 10
-11.7256704809
 20
19.2714598476
 30
0.0
 10
-11.7256704809
 20
19.1972982382
 30
0.0
 10
-11.7133083696
 20
19.0434310708
 30
0.0
 10
-11.6659147253
 20
18.8135430506
 30
0.0
 10
-11.5918538393
 20
18.5881905188
 30
0.0
 10
-11.4963181431
 20
18.3831030129
 30
0.0
 10
-11.3861177982
 20
18.2125186335
 30
0.0
 10
-11.2825043961
 20
18.101949404
 30
0.0
 10
-11.1972330074
 20
18.0439151928
 30
0.0
 10
-11.1378312119
 20
18.0179006628
 30
0.0
 10
-11.0801388663
 20
18.0076684218
 30
0.0
 10
-11.0430469707
 20
18.0121506898
 30
0.0
 10
-11.0260554399
 20
18.0170565487
 30
0.0
  0
SPLINE
  5
303
100
AcDbEntity
  8
0
100
AcDbSpline
 62
7
  6
CONTINUOUS
 70
0
 71
3
 72
13
 73
9
 74
0
 42
0.0000001
 43
0.0000001
 44
0.0000000001
 40
0.0
 40
0.0
 40
0.0
 40
0.0
 40
0.3261968951
 40
0.5989629471
 40
0.7147951217
 40
0.8181657275
 40
0.9118013279
 40
1.0
 40
1.0
 40
1.0
 40
1.0
 10
9.1243295191
 20
1.2148301787
 30
0.0
 10
9.1243295191
 20
1.2742944381
 30
0.0
 10
9.1313280132
 20
1.3836552164
 30
0.0
 10
9.1633876011
 20
1.5113463655
 30
0.0
 10
9.2038255543
 20
1.5918128083
 30
0.0
 10
9.2384136795
 20
1.637649771
 30
0.0
 10
9.278616303
 20
1.6714209599
 30
0.0
 10
9.3092672145
 20
1.685350622
 30
0.0
 10
9.324714478
 20
1.6898106142
 30
0.0
  0
SPLINE
  5
304
100
AcDbEntity
  8
RACCORDO
100
AcDbSpline
 62
250
  6
CONTINUOUS
 70
0
 71
3
 72
15
 73
11
 74
0
 42
0.0000001
 43
0.0000001
 44
0.0000000001
 40
0.0
 40
0.0
 40
0.0
 40
0.0
 40
0.1245785293
 40
0.2573798061
 40
0.3944136694
 40
0.5314246516
 40
0.6641588404
 40
0.7886296376
 40
0.9014099274
 40
1.0
 40
1.0
 40
1.0
 40
1.0
 10
13.0939447613
 20
0.975118747
 30
0.0
 10
13.0939447613
 20
1.1526527344
 30
0.0
 10
13.0725397117
 20
1.519601837
 30
0.0
 10
12.9867503066
 20
2.0757841451
 30
0.0
 10
12.8490365469
 20
2.6397098657
 30
0.0
 10
12.6645667093
 20
3.1899974844
 30
0.0
 10
12.4403482673
 20
3.7059112739
 30
0.0
 10
12.1848193408
 20
4.1682135657
 30
0.0
 10
11.9077409619
 20
4.5596921208
 30
0.0
 10
11.7001515971
 20
4.7802552462
 30
0.0
 10
11.5939447613
 20
4.872233064
 30
0.0
  0
SPLINE
  5
305
100
AcDbEntity
  8
RACCORDO
100
AcDbSpline
 62
250
  6
CONTINUOUS
 70
0
 71
3
 72
11
 73
7
 74
0
 42
0.0000001
 43
0.0000001
 44
0.0000000001
 40
0.0
 40
0.0
 40
0.0
 40
0.0
 40
0.2988258267
 40
0.5594820582
 40
0.7888373665
 40
1.0
 40
1.0
 40
1.0
 40
1.0
 10
-12.2560552387
 20
25.5269389443
 30
0.0
 10
-12.3248771405
 20
25.5865404596
 30
0.0
 10
-12.4615453746
 20
25.6898345398
 30
0.0
 10
-12.6784415572
 20
25.797471919
 30
0.0
 10
-12.889859817
 20
25.8433753862
 30
0.0
 10
-13.0262944027
 20
25.8290111797
 30
0.0
 10
-13.0881053027
 20
25.8111687034
 30
0.0
  0
SPLINE
  5
306
100
AcDbEntity
  8
0
100
AcDbSpline
 62
7
  6
CONTINUOUS
 70
0
 71
3
 72
9
 73
5
 74
0
 42
0.0000001
 43
0.0000001
 44
0.0000000001
 40
0.0
 40
0.0
 40
0.0
 40
0.0
 40
0.4418438822
 40
1.0
 40
1.0
 40
1.0
 40
1.0
 10
-1.0236547312
 20
-13.8675466744
 30
0.0
 10
-1.0312498792
 20
-13.8697392042
 30
0.0
 10
-1.0500866525
 20
-13.8636560632
 30
0.0
 10
-1.0645512871
 20
-13.8537307247
 30
0.0
 10
-1.0721001693
 20
-13.8471931146
 30
0.0
  0
SPLINE
  5
307
100
AcDbEntity
  8
0
100
AcDbSpline
 62
7
  6
CONTINUOUS
 70
0
 71
3
 72
17
 73
13
 74
0
 42
0.0000001
 43
0.0000001
 44
0.0000000001
 40
0.0
 40
0.0
 40
0.0
 40
0.0
 40
0.0340920725
 40
0.0706897829
 40
0.1116875473
 40
0.1581830314
 40
0.2686878895
 40
0.4007794622
 40
0.548463623
 40
0.7035715763
 40
0.857040388
 40
1.0
 40
1.0
 40
1.0
 40
1.0
 10
9.8239445601
 20
-0.0395731202
 30
0.0
 10
9.8069530293
 20
-0.0444789791
 30
0.0
 10
9.7698611337
 20
-0.0489612471
 30
0.0
 10
9.7121687881
 20
-0.0387290061
 30
0.0
 10
9.6527669926
 20
-0.0127144761
 30
0.0
 10
9.5674956039
 20
0.0453197351
 30
0.0
 10
9.4638822018
 20
0.1558889646
 30
0.0
 10
9.3536818569
 20
0.326473344
 30
0.0
 10
9.2581461607
 20
0.5315608499
 30
0.0
 10
9.1840852747
 20
0.7569133817
 30
0.0
 10
9.1366916304
 20
0.9868014019
 30
0.0
 10
9.1243295191
 20
1.1406685693
 30
0.0
 10
9.1243295191
 20
1.2148301787
 30
0.0
  0
SPLINE
  5
308
100
AcDbEntity
  8
0
100
AcDbSpline
 62
7
  6
CONTINUOUS
 70
0
 71
3
 72
11
 73
7
 74
0
 42
0.0000001
 43
0.0000001
 44
0.0000000001
 40
0.0
 40
0.0
 40
0.0
 40
0.0
 40
0.1754680209
 40
0.3954093426
 40
0.6750821112
 40
1.0
 40
1.0
 40
1.0
 40
1.0
 10
-0.9782423678
 20
-13.9570116898
 30
0.0
 10
-0.9706594914
 20
-13.9548227168
 30
0.0
 10
-0.955272914
 20
-13.9437532953
 30
0.0
 10
-0.9419161688
 20
-13.9157739302
 30
0.0
 10
-0.9344407117
 20
-13.8792705596
 30
0.0
 10
-0.9334741622
 20
-13.8519986227
 30
0.0
 10
-0.9334741622
 20
-13.8373839044
 30
0.0
  0
SPLINE
  5
309
100
AcDbEntity
  8
0
100
AcDbSpline
 62
7
  6
CONTINUOUS
 70
0
 71
3
 72
13
 73
9
 74
0
 42
0.0000001
 43
0.0000001
 44
0.0000000001
 40
0.0
 40
0.0
 40
0.0
 40
0.0
 40
0.3261968951
 40
0.5989629471
 40
0.7147951217
 40
0.8181657275
 40
0.9118013279
 40
1.0
 40
1.0
 40
1.0
 40
1.0
 10
-11.7256704809
 20
-0.993534601
 30
0.0
 10
-11.7256704809
 20
-0.9340703416
 30
0.0
 10
-11.7186719868
 20
-0.8247095632
 30
0.0
 10
-11.6866123989
 20
-0.6970184141
 30
0.0
 10
-11.6461744457
 20
-0.6165519714
 30
0.0
 10
-11.6115863205
 20
-0.5707150087
 30
0.0
 10
-11.571383697
 20
-0.5369438198
 30
0.0
 10
-11.5407327855
 20
-0.5230141577
 30
0.0
 10
-11.525285522
 20
-0.5185541654
 30
0.0
  0
SPLINE
  5
30A
100
AcDbEntity
  8
0
100
AcDbSpline
 62
7
  6
CONTINUOUS
 70
0
 71
3
 72
17
 73
13
 74
0
 42
0.0000001
 43
0.0000001
 44
0.0000000001
 40
0.0
 40
0.0
 40
0.0
 40
0.0
 40
0.142959612
 40
0.2964284237
 40
0.451536377
 40
0.5992205378
 40
0.7313121105
 40
0.8418169686
 40
0.8883124527
 40
0.9293102171
 40
0.9659079275
 40
1.0
 40
1.0
 40
1.0
 40
1.0
 10
9.1243295191
 20
-19.0501642699
 30
0.0
 10
9.1243295191
 20
-19.1243258792
 30
0.0
 10
9.1366916304
 20
-19.2781930466
 30
0.0
 10
9.1840852747
 20
-19.5080810669
 30
0.0
 10
9.2581461607
 20
-19.7334335987
 30
0.0
 10
9.3536818569
 20
-19.9385211046
 30
0.0
 10
9.4638822018
 20
-20.1091054839
 30
0.0
 10
9.5674956039
 20
-20.2196747135
 30
0.0
 10
9.6527669926
 20
-20.2777089247
 30
0.0
 10
9.7121687881
 20
-20.3037234546
 30
0.0
 10
9.7698611337
 20
-20.3139556956
 30
0.0
 10
9.8069530293
 20
-20.3094734277
 30
0.0
 10
9.8239445601
 20
-20.3045675688
 30
0.0
  0
SPLINE
  5
30B
100
AcDbEntity
  8
0
100
AcDbSpline
 62
7
  6
CONTINUOUS
 70
0
 71
3
 72
11
 73
7
 74
0
 42
0.0000001
 43
0.0000001
 44
0.0000000001
 40
0.0
 40
0.0
 40
0.0
 40
0.0
 40
0.1754680392
 40
0.3954094085
 40
0.6750821699
 40
1.0
 40
1.0
 40
1.0
 40
1.0
 10
-0.9912326925
 20
-13.9607616735
 30
0.0
 10
-0.9836498221
 20
-13.9585726888
 30
0.0
 10
-0.9682632655
 20
-13.9475032518
 30
0.0
 10
-0.9549065399
 20
-13.9195238915
 30
0.0
 10
-0.9474310912
 20
-13.8830205363
 30
0.0
 10
-0.9464645433
 20
-13.8557486139
 30
0.0
 10
-0.9464645433
 20
-13.8411339044
 30
0.0
  0
SPLINE
  5
30C
100
AcDbEntity
  8
0
100
AcDbSpline
 62
7
  6
CONTINUOUS
 70
0
 71
3
 72
8
 73
4
 74
0
 42
0.0000001
 43
0.0000001
 44
0.0000000001
 40
0.0
 40
0.0
 40
0.0
 40
0.0
 40
1.0
 40
1.0
 40
1.0
 40
1.0
 10
0.4255418247
 20
-1.9509528469
 30
0.0
 10
0.4090698361
 20
-1.8316412256
 30
0.0
 10
0.3938964331
 20
-1.7121525531
 30
0.0
 10
0.3773800544
 20
-1.5928470686
 30
0.0
  0
SPLINE
  5
30D
100
AcDbEntity
  8
0
100
AcDbSpline
 62
7
  6
CONTINUOUS
 70
0
 71
3
 72
10
 73
6
 74
0
 42
0.0000001
 43
0.0000001
 44
0.0000000001
 40
0.0
 40
0.0
 40
0.0
 40
0.0
 40
0.4986178765
 40
0.7550756897
 40
1.0
 40
1.0
 40
1.0
 40
1.0
 10
0.3773800544
 20
-1.5928470686
 30
0.0
 10
0.3704009187
 20
-1.5424311492
 30
0.0
 10
0.3598470816
 20
-1.4658993359
 30
0.0
 10
0.3331957238
 20
-1.3672087559
 30
0.0
 10
0.3124587763
 20
-1.3199442801
 30
0.0
 10
0.2994961327
 20
-1.2985665111
 30
0.0
  0
SPLINE
  5
30E
100
AcDbEntity
  8
0
100
AcDbSpline
 62
7
  6
CONTINUOUS
 70
0
 71
3
 72
10
 73
6
 74
0
 42
0.0000001
 43
0.0000001
 44
0.0000000001
 40
0.0
 40
0.0
 40
0.0
 40
0.0
 40
0.2902188182
 40
0.6640760037
 40
1.0
 40
1.0
 40
1.0
 40
1.0
 10
0.2816486666
 20
-0.6833113392
 30
0.0
 10
0.2562631904
 20
-0.6454419014
 30
0.0
 10
0.1901682732
 20
-0.5639884135
 30
0.0
 10
0.0714522578
 20
-0.4601113089
 30
0.0
 10
-0.0209998644
 20
-0.3974290401
 30
0.0
 10
-0.0660260722
 20
-0.369908516
 30
0.0
  0
SPLINE
  5
30F
100
AcDbEntity
  8
0
100
AcDbSpline
 62
7
  6
CONTINUOUS
 70
0
 71
3
 72
12
 73
8
 74
0
 42
0.0000001
 43
0.0000001
 44
0.0000000001
 40
0.0
 40
0.0
 40
0.0
 40
0.0
 40
0.1009983693
 40
0.2153414102
 40
0.4728471745
 40
0.7449440367
 40
1.0
 40
1.0
 40
1.0
 40
1.0
 10
-10.8533484579
 20
18.2473053895
 30
0.0
 10
-10.884139328
 20
18.2762651061
 30
0.0
 10
-10.9441229457
 20
18.3440943615
 30
0.0
 10
-11.0551534245
 20
18.508328619
 30
0.0
 10
-11.169519878
 20
18.7543371548
 30
0.0
 10
-11.2589712516
 20
19.0714045892
 30
0.0
 10
-11.283997525
 20
19.2922137152
 30
0.0
 10
-11.283997525
 20
19.3989598476
 30
0.0
  0
SPLINE
  5
310
100
AcDbEntity
  8
0
100
AcDbSpline
 62
7
  6
CONTINUOUS
 70
0
 71
3
 72
13
 73
9
 74
0
 42
0.0000001
 43
0.0000001
 44
0.0000000001
 40
0.0
 40
0.0
 40
0.0
 40
0.0
 40
0.0881986721
 40
0.1818342725
 40
0.2852048783
 40
0.4010370529
 40
0.6738031049
 40
1.0
 40
1.0
 40
1.0
 40
1.0
 10
-11.525285522
 20
19.7464402831
 30
0.0
 10
-11.5407327855
 20
19.7419802909
 30
0.0
 10
-11.571383697
 20
19.7280506288
 30
0.0
 10
-11.6115863205
 20
19.6942794399
 30
0.0
 10
-11.6461744457
 20
19.6484424772
 30
0.0
 10
-11.6866123989
 20
19.5679760344
 30
0.0
 10
-11.7186719868
 20
19.4402848853
 30
0.0
 10
-11.7256704809
 20
19.330924107
 30
0.0
 10
-11.7256704809
 20
19.2714598476
 30
0.0
  0
SPLINE
  5
311
100
AcDbEntity
  8
0
100
AcDbSpline
 62
7
  6
CONTINUOUS
 70
0
 71
3
 72
9
 73
5
 74
0
 42
0.0000001
 43
0.0000001
 44
0.0000000001
 40
0.0
 40
0.0
 40
0.0
 40
0.0
 40
0.2279141712
 40
1.0
 40
1.0
 40
1.0
 40
1.0
 10
-11.2564231103
 20
19.64372043
 30
0.0
 10
-11.2611335467
 20
19.6255804252
 30
0.0
 10
-11.2784529429
 20
19.5451205701
 30
0.0
 10
-11.283997525
 20
19.4624492401
 30
0.0
 10
-11.283997525
 20
19.3989598476
 30
0.0
  0
SPLINE
  5
312
100
AcDbEntity
  8
RACCORDO
100
AcDbSpline
 62
250
  6
CONTINUOUS
 70
0
 71
3
 72
15
 73
11
 74
0
 42
0.0000001
 43
0.0000001
 44
0.0000000001
 40
0.0
 40
0.0
 40
0.0
 40
0.0
 40
0.124578527
 40
0.2573798009
 40
0.3944136677
 40
0.531424653
 40
0.6641588441
 40
0.7886296425
 40
0.9014099163
 40
1.0
 40
1.0
 40
1.0
 40
1.0
 10
-13.9756704809
 20
-1.6430536538
 30
0.0
 10
-13.9756704809
 20
-1.7850808404
 30
0.0
 10
-13.9585463783
 20
-2.0786401104
 30
0.0
 10
-13.8899149365
 20
-2.523585963
 30
0.0
 10
-13.7797439081
 20
-2.9747265387
 30
0.0
 10
-13.6321680436
 20
-3.4149566441
 30
0.0
 10
-13.4527932705
 20
-3.8276876692
 30
0.0
 10
-13.2483701692
 20
-4.1975295157
 30
0.0
 10
-13.0267073369
 20
-4.5107122486
 30
0.0
 10
-12.8606359587
 20
-4.6871628452
 30
0.0
 10
-12.7756704809
 20
-4.7607451074
 30
0.0
  0
SPLINE
  5
313
100
AcDbEntity
  8
RACCORDO
100
AcDbSpline
 62
250
  6
CONTINUOUS
 70
0
 71
3
 72
19
 73
15
 74
0
 42
0.0000001
 43
0.0000001
 44
0.0000000001
 40
0.0
 40
0.0
 40
0.0
 40
0.0
 40
0.1301589516
 40
0.1869612009
 40
0.2390842668
 40
0.287729304
 40
0.3345125458
 40
0.3813163487
 40
0.430020037
 40
0.4822316875
 40
0.5391440042
 40
0.6695526668
 40
0.8237147843
 40
1.0
 40
1.0
 40
1.0
 40
1.0
 10
-12.7756704809
 20
24.857323702
 30
0.0
 10
-12.8475226852
 20
24.9195495362
 30
0.0
 10
-12.9593414199
 20
25.0008567907
 30
0.0
 10
-13.1196543839
 20
25.0715130083
 30
0.0
 10
-13.2317990561
 20
25.1000049249
 30
0.0
 10
-13.340185382
 20
25.1057377605
 30
0.0
 10
-13.4434793558
 20
25.0882106737
 30
0.0
 10
-13.5400633314
 20
25.0475045967
 30
0.0
 10
-13.6285361679
 20
24.984422679
 30
0.0
 10
-13.7080441264
 20
24.9001174139
 30
0.0
 10
-13.805763457
 20
24.7542521098
 30
0.0
 10
-13.8987379686
 20
24.5201063025
 30
0.0
 10
-13.9629455369
 20
24.1885747044
 30
0.0
 10
-13.9756704809
 20
23.9468295018
 30
0.0
 10
-13.9756704809
 20
23.8180932175
 30
0.0
  0
SPLINE
  5
314
100
AcDbEntity
  8
RACCORDO
100
AcDbSpline
 62
250
  6
CONTINUOUS
 70
0
 71
3
 72
15
 73
11
 74
0
 42
0.0000001
 43
0.0000001
 44
0.0000000001
 40
0.0
 40
0.0
 40
0.0
 40
0.0
 40
0.124578527
 40
0.2573798009
 40
0.3944136677
 40
0.531424653
 40
0.6641588441
 40
0.7886296425
 40
0.9014099163
 40
1.0
 40
1.0
 40
1.0
 40
1.0
 10
12.2743295191
 20
1.0849263681
 30
0.0
 10
12.2743295191
 20
1.2269535547
 30
0.0
 10
12.2572054164
 20
1.5205128247
 30
0.0
 10
12.1885739746
 20
1.9654586773
 30
0.0
 10
12.0784029462
 20
2.4165992531
 30
0.0
 10
11.9308270817
 20
2.8568293584
 30
0.0
 10
11.7514523086
 20
3.2695603836
 30
0.0
 10
11.5470292073
 20
3.63940223
 30
0.0
 10
11.325366375
 20
3.9525849629
 30
0.0
 10
11.1592949968
 20
4.1290355595
 30
0.0
 10
11.0743295191
 20
4.2026178217
 30
0.0
  0
SPLINE
  5
315
100
AcDbEntity
  8
0
100
AcDbSpline
 62
7
  6
CONTINUOUS
 70
0
 71
3
 72
9
 73
5
 74
0
 42
0.0000001
 43
0.0000001
 44
0.0000000001
 40
0.0
 40
0.0
 40
0.0
 40
0.0
 40
0.2715530959
 40
1.0
 40
1.0
 40
1.0
 40
1.0
 10
9.566002475
 20
1.3423301787
 30
0.0
 10
9.566002475
 20
1.3646563808
 30
0.0
 10
9.5680683914
 20
1.4468097678
 30
0.0
 10
9.5785242656
 20
1.5291227402
 30
0.0
 10
9.5935768897
 20
1.5870907611
 30
0.0
  0
SPLINE
  5
316
100
AcDbEntity
  8
0
100
AcDbSpline
 62
7
  6
CONTINUOUS
 70
0
 71
3
 72
12
 73
8
 74
0
 42
0.0000001
 43
0.0000001
 44
0.0000000001
 40
0.0
 40
0.0
 40
0.0
 40
0.0
 40
0.2550559633
 40
0.5271528255
 40
0.7846585898
 40
0.8990016307
 40
1.0
 40
1.0
 40
1.0
 40
1.0
 10
9.566002475
 20
1.3423301787
 30
0.0
 10
9.566002475
 20
1.2355840463
 30
0.0
 10
9.5910287484
 20
1.0147749203
 30
0.0
 10
9.680480122
 20
0.6977074859
 30
0.0
 10
9.7948465755
 20
0.4516989501
 30
0.0
 10
9.9058770543
 20
0.2874646926
 30
0.0
 10
9.965860672
 20
0.2196354372
 30
0.0
 10
9.9966515421
 20
0.1906757206
 30
0.0
  0
ENDSEC
  0
SECTION
  2
OBJECTS
  0
DICTIONARY
  5
C
100
AcDbDictionary
280
0
281
1
  3
ACAD_GROUP
350
D
  3
ACAD_MLINESTYLE
350
17
  3
ACAD_LAYOUT
350
1A
  3
ACAD_PLOTSETTINGS
350
19
  3
ACAD_PLOTSTYLENAME
350
E
  0
DICTIONARY
  5
D
102
{ACAD_REACTORS
330
C
102
}
100
AcDbDictionary
280
0
281
1
  0
ACDBDICTIONARYWDFLT
  5
E
102
{ACAD_REACTORS
330
C
102
}
100
AcDbDictionary
281
1
  3
Normal
350
F
100
AcDbDictionaryWithDefault
340
F
  0
DICTIONARY
  5
17
102
{ACAD_REACTORS
330
C
102
}
100
AcDbDictionary
280
0
281
1
  3
Standard
350
18
  0
DICTIONARY
  5
19
102
{ACAD_REACTORS
330
C
102
}
100
AcDbDictionary
281
1
  0
DICTIONARY
  5
1A
102
{ACAD_REACTORS
330
C
102
}
100
AcDbDictionary
281
1
  3
Model
350
317
  3
Layout1
350
318
  0
ACDBPLACEHOLDER
  5
F
102
{ACAD_REACTORS
330
E
102
}
  0
MLINESTYLE
  5
18
102
{ACAD_REACTORS
330
17
102
}
100
AcDbMlineStyle
  2
STANDARD
 70
0
  3

 62
256
 51
90.0
 52
90.0
 71
2
 49
0.5
 62
256
  6
BYLAYER
 49
-0.5
 62
256
  6
BYLAYER
  0
LAYOUT
  5
317
102
{ACAD_REACTORS
330
1A
102
}
100
AcDbPlotSettings
  1

  2
none_device
  4
ISO_A4_(297.00_x_210.00_MM)
  6

 40
0.0
 41
0.0
 42
0.0
 43
0.0
 44
297.0
 45
210.0
 46
0.0
 47
0.0
 48
0.0
 49
0.0
140
0.0
141
0.0
142
1.0
143
1.0
 70
1024
 72
1
 73
0
 74
0
  7

 75
0
147
1.0
148
0.0
149
0.0
100
AcDbLayout
  1
Model
 70
0
 71
0
 10
0.0
 20
0.0
 11
297.0
 21
210.0
 12
0.0
 22
0.0
 32
0.0
 14
0.0
 24
0.0
 34
0.0
 15
0.0
 25
0.0
 35
0.0
146
0.0
 13
0.0
 23
0.0
 33
0.0
 16
1.0
 26
0.0
 36
0.0
 17
0.0
 27
1.0
 37
0.0
 76
0
330
20B
345
0
346
0
  0
LAYOUT
  5
318
102
{ACAD_REACTORS
330
1A
102
}
100
AcDbPlotSettings
  1

  2
none_device
  4
ISO_A4_(297.00_x_210.00_MM)
  6

 40
0.0
 41
0.0
 42
0.0
 43
0.0
 44
297.0
 45
210.0
 46
0.0
 47
0.0
 48
0.0
 49
0.0
140
0.0
141
0.0
142
1.0
143
1.0
 70
0
 72
1
 73
0
 74
0
  7

 75
0
147
1.0
148
0.0
149
0.0
100
AcDbLayout
  1
Layout1
 70
0
 71
1
 10
0.0
 20
0.0
 11
297.0
 21
210.0
 12
0.0
 22
0.0
 32
0.0
 14
0.0
 24
0.0
 34
0.0
 15
0.0
 25
0.0
 35
0.0
146
0.0
 13
0.0
 23
0.0
 33
0.0
 16
1.0
 26
0.0
 36
0.0
 17
0.0
 27
1.0
 37
0.0
 76
0
330
20C
345
0
346
0
  0
ENDSEC
  0
EOF
